  0
SECTION
  2
HEADER
  9
$ACADVER
  1
AC1018
  9
$ACADMAINTVER
 70
     0
  9
$DWGCODEPAGE
  3
ANSI_1251
  9
$INSBASE
 10
0.0
 20
0.0
 30
0.0
  9
$EXTMIN
 10
1.000000000000000E+20
 20
1.000000000000000E+20
 30
1.000000000000000E+20
  9
$EXTMAX
 10
-1.000000000000000E+20
 20
-1.000000000000000E+20
 30
-1.000000000000000E+20
  9
$LIMMIN
 10
0.0
 20
0.0
  9
$LIMMAX
 10
12.0
 20
9.0
  9
$ORTHOMODE
 70
     0
  9
$REGENMODE
 70
     1
  9
$FILLMODE
 70
     1
  9
$QTEXTMODE
 70
     0
  9
$MIRRTEXT
 70
     1
  9
$LTSCALE
 40
1.0
  9
$ATTMODE
 70
     1
  9
$TEXTSIZE
 40
0.2
  9
$TRACEWID
 40
0.05
  9
$TEXTSTYLE
  7
Standard
  9
$CLAYER
  8
0
  9
$CELTYPE
  6
ByLayer
  9
$CECOLOR
 62
   256
  9
$CELTSCALE
 40
1.0
  9
$DISPSILH
 70
     0
  9
$DIMSCALE
 40
1.0
  9
$DIMASZ
 40
0.18
  9
$DIMEXO
 40
0.0625
  9
$DIMDLI
 40
0.38
  9
$DIMRND
 40
0.0
  9
$DIMDLE
 40
0.0
  9
$DIMEXE
 40
0.18
  9
$DIMTP
 40
0.0
  9
$DIMTM
 40
0.0
  9
$DIMTXT
 40
0.18
  9
$DIMCEN
 40
0.09
  9
$DIMTSZ
 40
0.0
  9
$DIMTOL
 70
     0
  9
$DIMLIM
 70
     0
  9
$DIMTIH
 70
     1
  9
$DIMTOH
 70
     1
  9
$DIMSE1
 70
     0
  9
$DIMSE2
 70
     0
  9
$DIMTAD
 70
     0
  9
$DIMZIN
 70
     0
  9
$DIMBLK
  1

  9
$DIMASO
 70
     1
  9
$DIMSHO
 70
     1
  9
$DIMPOST
  1

  9
$DIMAPOST
  1

  9
$DIMALT
 70
     0
  9
$DIMALTD
 70
     2
  9
$DIMALTF
 40
25.4
  9
$DIMLFAC
 40
1.0
  9
$DIMTOFL
 70
     0
  9
$DIMTVP
 40
0.0
  9
$DIMTIX
 70
     0
  9
$DIMSOXD
 70
     0
  9
$DIMSAH
 70
     0
  9
$DIMBLK1
  1

  9
$DIMBLK2
  1

  9
$DIMSTYLE
  2
Standard
  9
$DIMCLRD
 70
     0
  9
$DIMCLRE
 70
     0
  9
$DIMCLRT
 70
     0
  9
$DIMTFAC
 40
1.0
  9
$DIMGAP
 40
0.09
  9
$DIMJUST
 70
     0
  9
$DIMSD1
 70
     0
  9
$DIMSD2
 70
     0
  9
$DIMTOLJ
 70
     1
  9
$DIMTZIN
 70
     0
  9
$DIMALTZ
 70
     0
  9
$DIMALTTZ
 70
     0
  9
$DIMUPT
 70
     0
  9
$DIMDEC
 70
     4
  9
$DIMTDEC
 70
     4
  9
$DIMALTU
 70
     2
  9
$DIMALTTD
 70
     2
  9
$DIMTXSTY
  7
Standard
  9
$DIMAUNIT
 70
     0
  9
$DIMADEC
 70
     0
  9
$DIMALTRND
 40
0.0
  9
$DIMAZIN
 70
     0
  9
$DIMDSEP
 70
    46
  9
$DIMATFIT
 70
     3
  9
$DIMFRAC
 70
     0
  9
$DIMLDRBLK
  1

  9
$DIMLUNIT
 70
     2
  9
$DIMLWD
 70
    -2
  9
$DIMLWE
 70
    -2
  9
$DIMTMOVE
 70
     0
  9
$LUNITS
 70
     2
  9
$LUPREC
 70
     4
  9
$SKETCHINC
 40
0.1
  9
$FILLETRAD
 40
0.5
  9
$AUNITS
 70
     0
  9
$AUPREC
 70
     0
  9
$MENU
  1
.
  9
$ELEVATION
 40
0.0
  9
$PELEVATION
 40
0.0
  9
$THICKNESS
 40
0.0
  9
$LIMCHECK
 70
     0
  9
$CHAMFERA
 40
0.5
  9
$CHAMFERB
 40
0.5
  9
$CHAMFERC
 40
1.0
  9
$CHAMFERD
 40
0.0
  9
$SKPOLY
 70
     0
  9
$TDCREATE
 40
2457123.720376157
  9
$TDUCREATE
 40
2457123.553709491
  9
$TDUPDATE
 40
2457123.720376169
  9
$TDUUPDATE
 40
2457123.553709502
  9
$TDINDWG
 40
0.0000000116
  9
$TDUSRTIMER
 40
0.0000000116
  9
$USRTIMER
 70
     1
  9
$ANGBASE
 50
0.0
  9
$ANGDIR
 70
     0
  9
$PDMODE
 70
     0
  9
$PDSIZE
 40
0.0
  9
$PLINEWID
 40
0.0
  9
$SPLFRAME
 70
     0
  9
$SPLINETYPE
 70
     6
  9
$SPLINESEGS
 70
     8
  9
$HANDSEED
  5
4A
  9
$SURFTAB1
 70
     6
  9
$SURFTAB2
 70
     6
  9
$SURFTYPE
 70
     6
  9
$SURFU
 70
     6
  9
$SURFV
 70
     6
  9
$UCSBASE
  2

  9
$UCSNAME
  2

  9
$UCSORG
 10
0.0
 20
0.0
 30
0.0
  9
$UCSXDIR
 10
1.0
 20
0.0
 30
0.0
  9
$UCSYDIR
 10
0.0
 20
1.0
 30
0.0
  9
$UCSORTHOREF
  2

  9
$UCSORTHOVIEW
 70
     0
  9
$UCSORGTOP
 10
0.0
 20
0.0
 30
0.0
  9
$UCSORGBOTTOM
 10
0.0
 20
0.0
 30
0.0
  9
$UCSORGLEFT
 10
0.0
 20
0.0
 30
0.0
  9
$UCSORGRIGHT
 10
0.0
 20
0.0
 30
0.0
  9
$UCSORGFRONT
 10
0.0
 20
0.0
 30
0.0
  9
$UCSORGBACK
 10
0.0
 20
0.0
 30
0.0
  9
$PUCSBASE
  2

  9
$PUCSNAME
  2

  9
$PUCSORG
 10
0.0
 20
0.0
 30
0.0
  9
$PUCSXDIR
 10
1.0
 20
0.0
 30
0.0
  9
$PUCSYDIR
 10
0.0
 20
1.0
 30
0.0
  9
$PUCSORTHOREF
  2

  9
$PUCSORTHOVIEW
 70
     0
  9
$PUCSORGTOP
 10
0.0
 20
0.0
 30
0.0
  9
$PUCSORGBOTTOM
 10
0.0
 20
0.0
 30
0.0
  9
$PUCSORGLEFT
 10
0.0
 20
0.0
 30
0.0
  9
$PUCSORGRIGHT
 10
0.0
 20
0.0
 30
0.0
  9
$PUCSORGFRONT
 10
0.0
 20
0.0
 30
0.0
  9
$PUCSORGBACK
 10
0.0
 20
0.0
 30
0.0
  9
$USERI1
 70
     0
  9
$USERI2
 70
     0
  9
$USERI3
 70
     0
  9
$USERI4
 70
     0
  9
$USERI5
 70
     0
  9
$USERR1
 40
0.0
  9
$USERR2
 40
0.0
  9
$USERR3
 40
0.0
  9
$USERR4
 40
0.0
  9
$USERR5
 40
0.0
  9
$WORLDVIEW
 70
     1
  9
$SHADEDGE
 70
     3
  9
$SHADEDIF
 70
    70
  9
$TILEMODE
 70
     1
  9
$MAXACTVP
 70
    64
  9
$PINSBASE
 10
0.0
 20
0.0
 30
0.0
  9
$PLIMCHECK
 70
     0
  9
$PEXTMIN
 10
1.000000000000000E+20
 20
1.000000000000000E+20
 30
1.000000000000000E+20
  9
$PEXTMAX
 10
-1.000000000000000E+20
 20
-1.000000000000000E+20
 30
-1.000000000000000E+20
  9
$PLIMMIN
 10
0.0
 20
0.0
  9
$PLIMMAX
 10
12.0
 20
9.0
  9
$UNITMODE
 70
     0
  9
$VISRETAIN
 70
     1
  9
$PLINEGEN
 70
     0
  9
$PSLTSCALE
 70
     1
  9
$TREEDEPTH
 70
  3020
  9
$CMLSTYLE
  2
Standard
  9
$CMLJUST
 70
     0
  9
$CMLSCALE
 40
1.0
  9
$PROXYGRAPHICS
 70
     1
  9
$MEASUREMENT
 70
     0
  9
$CELWEIGHT
370
    -1
  9
$ENDCAPS
280
     0
  9
$JOINSTYLE
280
     0
  9
$LWDISPLAY
290
     1
  9
$INSUNITS
 70
     1
  9
$HYPERLINKBASE
  1

  9
$STYLESHEET
  1

  9
$XEDIT
290
     1
  9
$CEPSNTYPE
380
     0
  9
$PSTYLEMODE
290
     1
  9
$FINGERPRINTGUID
  2
{9E70673F-FE77-4D7F-9448-EB0779FBAF41}
  9
$VERSIONGUID
  2
{FAEB1C32-E019-11D5-929B-00C0DF256EC4}
  9
$EXTNAMES
290
     1
  9
$PSVPSCALE
 40
0.0
  9
$OLESTARTUP
290
     0
  9
$SORTENTS
280
   127
  9
$INDEXCTL
280
     0
  9
$HIDETEXT
280
     1
  9
$XCLIPFRAME
290
     0
  9
$HALOGAP
280
     0
  9
$OBSCOLOR
 70
   257
  9
$OBSLTYPE
280
     0
  9
$INTERSECTIONDISPLAY
280
     0
  9
$INTERSECTIONCOLOR
 70
   257
  9
$DIMASSOC
280
     2
  9
$PROJECTNAME
  1

  0
ENDSEC
  0
SECTION
  2
CLASSES
  0
CLASS
  1
ACDBDICTIONARYWDFLT
  2
AcDbDictionaryWithDefault
  3
ObjectDBX Classes
 90
        0
 91
        3
280
     0
281
     0
  0
CLASS
  1
VISUALSTYLE
  2
AcDbVisualStyle
  3
ObjectDBX Classes
 90
     4095
 91
        3
280
     0
281
     0
  0
ENDSEC
  0
SECTION
  2
TABLES
  0
TABLE
  2
VPORT
  5
8
330
0
100
AcDbSymbolTable
 70
     1
  0
VPORT
  5
29
330
8
100
AcDbSymbolTableRecord
100
AcDbViewportTableRecord
  2
*Active
 70
     0
 10
0.0
 20
0.0
 11
1.0
 21
1.0
 12
0.0
 22
0.0
 13
0.0
 23
0.0
 14
0.5
 24
0.5
 15
0.5
 25
0.5
 16
0.0
 26
0.0
 36
1.0
 17
107.9499999730125
 27
-139.699999965075
 37
0.0
 40
279.39999993015
 41
0.7727272727272728
 42
50.0
 43
0.0
 44
0.0
 50
0.0
 51
0.0
 71
     0
 72
   100
 73
     1
 74
     3
 75
     0
 76
     0
 77
     0
 78
     0
281
     0
 65
     1
110
0.0
120
0.0
130
0.0
111
1.0
121
0.0
131
0.0
112
0.0
122
1.0
132
0.0
 79
     0
146
0.0
  0
ENDTAB
  0
TABLE
  2
LTYPE
  5
5
330
0
100
AcDbSymbolTable
 70
     1
  0
LTYPE
  5
14
330
5
100
AcDbSymbolTableRecord
100
AcDbLinetypeTableRecord
  2
ByBlock
 70
     0
  3

 72
    65
 73
     0
 40
0.0
  0
LTYPE
  5
15
330
5
100
AcDbSymbolTableRecord
100
AcDbLinetypeTableRecord
  2
ByLayer
 70
     0
  3

 72
    65
 73
     0
 40
0.0
  0
LTYPE
  5
16
330
5
100
AcDbSymbolTableRecord
100
AcDbLinetypeTableRecord
  2
Continuous
 70
     0
  3
Solid line
 72
    65
 73
     0
 40
0.0
  0
ENDTAB
  0
TABLE
  2
LAYER
  5
2
330
0
100
AcDbSymbolTable
 70
     2
  0
LAYER
  5
10
330
2
100
AcDbSymbolTableRecord
100
AcDbLayerTableRecord
  2
0
 70
     0
 62
     7
  6
Continuous
370
    -3
390
F
  0
LAYER
  5
3B
330
2
100
AcDbSymbolTableRecord
100
AcDbLayerTableRecord
  2
Layer 1
 70
     0
 62
     7
  6
Continuous
370
    -3
390
F
  0
ENDTAB
  0
TABLE
  2
STYLE
  5
3
330
0
100
AcDbSymbolTable
 70
     1
  0
STYLE
  5
11
330
3
100
AcDbSymbolTableRecord
100
AcDbTextStyleTableRecord
  2
Standard
 70
     0
 40
0.0
 41
1.0
 50
0.0
 71
     0
 42
0.2
  3
txt
  4

  0
ENDTAB
  0
TABLE
  2
VIEW
  5
6
330
0
100
AcDbSymbolTable
 70
     0
  0
ENDTAB
  0
TABLE
  2
UCS
  5
7
330
0
100
AcDbSymbolTable
 70
     0
  0
ENDTAB
  0
TABLE
  2
APPID
  5
9
330
0
100
AcDbSymbolTable
 70
     1
  0
APPID
  5
12
330
9
100
AcDbSymbolTableRecord
100
AcDbRegAppTableRecord
  2
ACAD
 70
     0
  0
ENDTAB
  0
TABLE
  2
DIMSTYLE
  5
A
330
0
100
AcDbSymbolTable
 70
     1
100
AcDbDimStyleTable
  0
DIMSTYLE
105
27
330
A
100
AcDbSymbolTableRecord
100
AcDbDimStyleTableRecord
  2
Standard
 70
     0
340
11
  0
ENDTAB
  0
TABLE
  2
BLOCK_RECORD
  5
1
330
0
100
AcDbSymbolTable
 70
     2
  0
BLOCK_RECORD
  5
1F
330
1
100
AcDbSymbolTableRecord
100
AcDbBlockTableRecord
  2
*Model_Space
340
22
  0
BLOCK_RECORD
  5
1B
330
1
100
AcDbSymbolTableRecord
100
AcDbBlockTableRecord
  2
*Paper_Space
340
1E
  0
BLOCK_RECORD
  5
23
330
1
100
AcDbSymbolTableRecord
100
AcDbBlockTableRecord
  2
*Paper_Space0
340
26
  0
BLOCK_RECORD
  5
3C
330
1
100
AcDbSymbolTableRecord
100
AcDbBlockTableRecord
  2
block 2
340
0
102
{BLKREFS
331
3D
102
}
  0
ENDTAB
  0
ENDSEC
  0
SECTION
  2
BLOCKS
  0
BLOCK
  5
20
330
1F
100
AcDbEntity
  8
0
100
AcDbBlockBegin
  2
*Model_Space
 70
     0
 71
     0
 10
0.0
 20
0.0
 30
0.0
  3
*Model_Space
  1

  0
ENDBLK
  5
21
330
1F
100
AcDbEntity
  8
0
100
AcDbBlockEnd
  0
BLOCK
  5
1C
330
1B
100
AcDbEntity
 67
     1
  8
0
100
AcDbBlockBegin
  2
*Paper_Space
 70
     0
 71
     0
 10
0.0
 20
0.0
 30
0.0
  3
*Paper_Space
  1

  0
ENDBLK
  5
1D
330
1B
100
AcDbEntity
 67
     1
  8
0
100
AcDbBlockEnd
  0
BLOCK
  5
24
330
23
100
AcDbEntity
  8
0
100
AcDbBlockBegin
  2
*Paper_Space0
 70
     0
 71
     0
 10
0.0
 20
0.0
 30
0.0
  3
*Paper_Space0
  1

  0
ENDBLK
  5
25
330
23
100
AcDbEntity
  8
0
100
AcDbBlockEnd
  0
BLOCK
  5
3E
330
3C
100
AcDbEntity
  8
0
100
AcDbBlockBegin
  2
block 2
 70
     0
 71
     0
 10
0.0
 20
0.0
 30
0.0
  3
block 2
  1

  0
SPLINE
  5
40
330
3C
100
AcDbEntity
  8
Layer 1
370
     0
100
AcDbSpline
210
0.0
220
0.0
230
1.0
 70
    11
 71
     3
 72
    83
 73
    79
 74
     0
 42
0.0000000001
 43
0.0000000001
 40
0.0
 40
0.0
 40
0.0
 40
0.0
 40
1.0
 40
1.0
 40
1.0
 40
2.0
 40
2.0
 40
2.0
 40
3.0
 40
3.0
 40
3.0
 40
4.0
 40
4.0
 40
4.0
 40
5.0
 40
5.0
 40
5.0
 40
6.0
 40
6.0
 40
6.0
 40
7.0
 40
7.0
 40
7.0
 40
8.0
 40
8.0
 40
8.0
 40
9.0
 40
9.0
 40
9.0
 40
10.0
 40
10.0
 40
10.0
 40
11.0
 40
11.0
 40
11.0
 40
12.0
 40
12.0
 40
12.0
 40
13.0
 40
13.0
 40
13.0
 40
14.0
 40
14.0
 40
14.0
 40
15.0
 40
15.0
 40
15.0
 40
16.0
 40
16.0
 40
16.0
 40
17.0
 40
17.0
 40
17.0
 40
18.0
 40
18.0
 40
18.0
 40
19.0
 40
19.0
 40
19.0
 40
20.0
 40
20.0
 40
20.0
 40
21.0
 40
21.0
 40
21.0
 40
22.0
 40
22.0
 40
22.0
 40
23.0
 40
23.0
 40
23.0
 40
24.0
 40
24.0
 40
24.0
 40
25.0
 40
25.0
 40
25.0
 40
26.0
 40
26.0
 40
26.0
 40
26.0
 10
139.1808240754478
 20
-141.1121446044789
 30
0.0
 10
139.1915038714521
 20
-140.7920952338992
 30
0.0
 10
139.1980495528741
 20
-140.4727348824165
 30
0.0
 10
139.1980495528741
 20
-140.154752569128
 30
0.0
 10
139.1980495528741
 20
-125.4262803505879
 30
0.0
 10
128.3501328889194
 20
-108.5811414659103
 30
0.0
 10
107.8890217829236
 20
-108.5811414659103
 30
0.0
 10
100.6823987921037
 20
-108.5811414659103
 30
0.0
 10
94.67019040601996
 20
-110.6726589350055
 30
0.0
 10
89.9025227639827
 20
-114.0235310587337
 30
0.0
 10
89.82414684169328
 20
-113.9486002319295
 30
0.0
 10
89.74921601488909
 20
-113.8734971503511
 30
0.0
 10
89.66222735388654
 20
-113.7997721069667
 30
0.0
 10
88.12674829611068
 20
-112.4995930708334
 30
0.0
 10
87.67457951367163
 20
-111.5466796596133
 30
0.0
 10
87.97585311385673
 20
-110.6275281841487
 30
0.0
 10
88.11624075488066
 20
-110.2017143821718
 30
0.0
 10
88.5468776905369
 20
-109.9109483232167
 30
0.0
 10
89.48170435045944
 20
-109.935408501162
 30
0.0
 10
90.08011743624733
 20
-108.5804524468132
 30
0.0
 10
86.54768878044642
 20
-108.0388834365319
 30
0.0
 10
85.72189939263203
 20
-109.6839165307387
 30
0.0
 10
85.35999211190654
 20
-110.3092013613116
 30
0.0
 10
85.45938311665599
 20
-111.1077744947925
 30
0.0
 10
85.79631345511342
 20
-111.6924071986394
 30
0.0
 10
83.06142440414784
 20
-111.0622992343872
 30
0.0
 10
79.97014022523317
 20
-112.3817708052379
 30
0.0
 10
78.73128388873732
 20
-114.6576008827939
 30
0.0
 10
78.19092066187588
 20
-115.651855439837
 30
0.0
 10
77.72066512813929
 20
-116.7146673970366
 30
0.0
 10
76.87627222470455
 20
-117.3578667241328
 30
0.0
 10
76.65130748951773
 20
-117.5287434602012
 30
0.0
 10
76.83217500249334
 20
-117.5483805044671
 30
0.0
 10
76.93225502633986
 20
-117.5597493195684
 30
0.0
 10
78.44137910365355
 20
-117.7175346927928
 30
0.0
 10
79.41944171191598
 20
-117.016113251996
 30
0.0
 10
80.13309324168549
 20
-116.4704101271324
 30
0.0
 10
82.23029511833131
 20
-114.8646511214575
 30
0.0
 10
82.7015841807135
 20
-113.4786892077414
 30
0.0
 10
84.75296628740551
 20
-113.1837890342041
 30
0.0
 10
84.82204045188477
 20
-113.1737982572968
 30
0.0
 10
84.82858613330674
 20
-113.1879231487864
 30
0.0
 10
84.76554088592667
 20
-113.2120388171831
 30
0.0
 10
83.48517114883357
 20
-113.7184678535148
 30
0.0
 10
81.49011635332539
 20
-115.6535779875797
 30
0.0
 10
81.18798147926898
 20
-117.9628254913426
 30
0.0
 10
81.12149113640366
 20
-118.4733886422567
 30
0.0
 10
81.305459235316
 20
-118.3721028349903
 30
0.0
 10
81.5171603528846
 20
-118.0692789418369
 30
0.0
 10
81.74522567400814
 20
-117.7409613420925
 30
0.0
 10
82.35569659399441
 20
-117.5046277918044
 30
0.0
 10
83.18596460593962
 20
-117.2868977571366
 30
0.0
 10
84.80309242671589
 20
-116.8631510124509
 30
0.0
 10
84.94124075567441
 20
-116.3381184604988
 30
0.0
 10
86.5473442708979
 20
-115.4113877749666
 30
0.0
 10
87.35745847425439
 20
-114.9454386105866
 30
0.0
 10
88.10125458951983
 20
-114.6837836084818
 30
0.0
 10
88.75961233675108
 20
-114.868957490814
 30
0.0
 10
80.73856877321813
 20
-121.1104369814411
 30
0.0
 10
76.57999401297306
 20
-131.0373073674143
 30
0.0
 10
76.57999401297306
 20
-140.154752569128
 30
0.0
 10
76.57999401297306
 20
-140.4727348824165
 30
0.0
 10
76.58653969439503
 20
-140.7920952338992
 30
0.0
 10
76.59721949039931
 20
-141.1121446044789
 30
0.0
 10
76.59721949039931
 20
-141.1121446044789
 30
0.0
 10
73.43462183493996
 20
-141.1121446044789
 30
0.0
 10
73.43462183493996
 20
-141.1121446044789
 30
0.0
 10
73.43462183493996
 20
-141.1121446044789
 30
0.0
 10
73.43462183493996
 20
-142.7237602724788
 30
0.0
 10
73.43462183493996
 20
-142.7237602724788
 30
0.0
 10
73.43462183493996
 20
-142.7237602724788
 30
0.0
 10
142.3434217309072
 20
-142.7237602724788
 30
0.0
 10
142.3434217309072
 20
-142.7237602724788
 30
0.0
 10
142.3434217309072
 20
-142.7237602724788
 30
0.0
 10
142.3434217309072
 20
-141.1121446044789
 30
0.0
 10
142.3434217309072
 20
-141.1121446044789
 30
0.0
 10
142.3434217309072
 20
-141.1121446044789
 30
0.0
 10
139.1808240754478
 20
-141.1121446044789
 30
0.0
 10
139.1808240754478
 20
-141.1121446044789
 30
0.0
  0
SPLINE
  5
41
330
3C
100
AcDbEntity
  8
Layer 1
370
     0
100
AcDbSpline
210
0.0
220
0.0
230
1.0
 70
    11
 71
     3
 72
    62
 73
    58
 74
     0
 42
0.0000000001
 43
0.0000000001
 40
0.0
 40
0.0
 40
0.0
 40
0.0
 40
1.0
 40
1.0
 40
1.0
 40
2.0
 40
2.0
 40
2.0
 40
3.0
 40
3.0
 40
3.0
 40
4.0
 40
4.0
 40
4.0
 40
5.0
 40
5.0
 40
5.0
 40
6.0
 40
6.0
 40
6.0
 40
7.0
 40
7.0
 40
7.0
 40
8.0
 40
8.0
 40
8.0
 40
9.0
 40
9.0
 40
9.0
 40
10.0
 40
10.0
 40
10.0
 40
11.0
 40
11.0
 40
11.0
 40
12.0
 40
12.0
 40
12.0
 40
13.0
 40
13.0
 40
13.0
 40
14.0
 40
14.0
 40
14.0
 40
15.0
 40
15.0
 40
15.0
 40
16.0
 40
16.0
 40
16.0
 40
17.0
 40
17.0
 40
17.0
 40
18.0
 40
18.0
 40
18.0
 40
19.0
 40
19.0
 40
19.0
 40
19.0
 10
93.96394583154374
 20
-117.3771592588502
 30
0.0
 10
94.8701781989387
 20
-116.5530924187784
 30
0.0
 10
95.83118758454916
 20
-115.8220431568084
 30
0.0
 10
96.83887801398473
 20
-115.1845282372629
 30
0.0
 10
99.60150008360658
 20
-113.8250935587833
 30
0.0
 10
102.7206895359518
 20
-113.7935709350933
 30
0.0
 10
104.633751058911
 20
-115.1271673974335
 30
0.0
 10
106.2734442551157
 20
-116.2702500794394
 30
0.0
 10
105.9237670633628
 20
-117.8822102569878
 30
0.0
 10
104.3875989864899
 20
-118.780691159541
 30
0.0
 10
103.7040920422163
 20
-119.1803222358299
 30
0.0
 10
102.6259494101074
 20
-119.1968586941591
 30
0.0
 10
102.1520765261113
 20
-118.285286428762
 30
0.0
 10
102.0778347184042
 20
-118.1433484947697
 30
0.0
 10
101.9908460574016
 20
-118.0272487769168
 30
0.0
 10
101.8210028499788
 20
-118.3211154218086
 30
0.0
 10
101.2754719798895
 20
-119.2740288330287
 30
0.0
 10
101.9482991281588
 20
-120.7519747962009
 30
0.0
 10
103.2117878973741
 20
-121.3993082378793
 30
0.0
 10
103.2117878973741
 20
-121.3993082378793
 30
0.0
 10
102.9537502455289
 20
-121.7861924608729
 30
0.0
 10
102.9089640042207
 20
-122.1589517923769
 30
0.0
 10
102.8510864000685
 20
-122.6305853643076
 30
0.0
 10
103.0619262437658
 20
-122.724636471055
 30
0.0
 10
103.4984198417469
 20
-122.7260145092491
 30
0.0
 10
104.523508003383
 20
-122.7304931333799
 30
0.0
 10
105.8376396762316
 20
-122.0611110805958
 30
0.0
 10
106.5066772194671
 20
-120.6575791799051
 30
0.0
 10
106.6007283262144
 20
-120.346487057587
 30
0.0
 10
106.5931491161469
 20
-120.0967176349064
 30
0.0
 10
106.8458468699899
 20
-119.946166962201
 30
0.0
 10
106.7338812667193
 20
-120.2410671357383
 30
0.0
 10
106.6561943635269
 20
-120.54664710528
 30
0.0
 10
106.5555975753576
 20
-120.8470594315938
 30
0.0
 10
105.6278333611799
 20
-123.6220838449625
 30
0.0
 10
103.2946424437944
 20
-125.1217339096918
 30
0.0
 10
100.9640353480229
 20
-124.1023301556064
 30
0.0
 10
100.1053452983244
 20
-123.7278482763597
 30
0.0
 10
99.39755043087979
 20
-122.9695827600562
 30
0.0
 10
98.99206269226588
 20
-122.1606743401196
 30
0.0
 10
99.36086016396187
 20
-122.1351806335287
 30
0.0
 10
99.71673852758818
 20
-121.9646484070088
 30
0.0
 10
99.96668020504306
 20
-121.656312361079
 30
0.0
 10
100.4443426940729
 20
-121.0654784853586
 30
0.0
 10
100.3535644280366
 20
-120.2011040281095
 30
0.0
 10
99.76410859051036
 20
-119.7239583034024
 30
0.0
 10
99.75101722766642
 20
-119.7132785073981
 30
0.0
 10
99.73516978843426
 20
-119.7060438068791
 30
0.0
 10
99.72156166126753
 20
-119.6960530299718
 30
0.0
 10
99.15828854942919
 20
-119.1227891412262
 30
0.0
 10
98.26290823281275
 20
-118.7972276178701
 30
0.0
 10
97.06056990846055
 20
-118.9353759468287
 30
0.0
 10
95.31976315976381
 20
-119.1348469754246
 30
0.0
 10
94.43058401502083
 20
-118.8533826742797
 30
0.0
 10
93.99512394568525
 20
-118.1130316544995
 30
0.0
 10
93.87471785847578
 20
-117.9075317088044
 30
0.0
 10
93.84939640665918
 20
-117.6634466936744
 30
0.0
 10
93.96394583154374
 20
-117.3771592588502
 30
0.0
  0
SPLINE
  5
42
330
3C
100
AcDbEntity
  8
Layer 1
370
     0
100
AcDbSpline
210
0.0
220
0.0
230
1.0
 70
    11
 71
     3
 72
    17
 73
    13
 74
     0
 42
0.0000000001
 43
0.0000000001
 40
0.0
 40
0.0
 40
0.0
 40
0.0
 40
1.0
 40
1.0
 40
1.0
 40
2.0
 40
2.0
 40
2.0
 40
3.0
 40
3.0
 40
3.0
 40
4.0
 40
4.0
 40
4.0
 40
4.0
 10
102.1915228694174
 20
-140.1836913712041
 30
0.0
 10
101.606545656022
 20
-137.7397406339678
 30
0.0
 10
104.3967284895258
 20
-137.2832654821723
 30
0.0
 10
105.9976643615214
 20
-140.2291666316094
 30
0.0
 10
106.1625121804906
 20
-140.5316460152143
 30
0.0
 10
106.3299438210738
 20
-140.8265461887517
 30
0.0
 10
106.5051269264987
 20
-141.1121446044789
 30
0.0
 10
106.5051269264987
 20
-141.1121446044789
 30
0.0
 10
102.7427381470574
 20
-141.1121446044789
 30
0.0
 10
102.7427381470574
 20
-141.1121446044789
 30
0.0
 10
102.4905571575371
 20
-140.8513508762455
 30
0.0
 10
102.2797173138398
 20
-140.5516275690288
 30
0.0
 10
102.1915228694174
 20
-140.1836913712041
 30
0.0
  0
SPLINE
  5
43
330
3C
100
AcDbEntity
  8
Layer 1
370
     0
100
AcDbSpline
210
0.0
220
0.0
230
1.0
 70
    11
 71
     3
 72
    17
 73
    13
 74
     0
 42
0.0000000001
 43
0.0000000001
 40
0.0
 40
0.0
 40
0.0
 40
0.0
 40
1.0
 40
1.0
 40
1.0
 40
2.0
 40
2.0
 40
2.0
 40
3.0
 40
3.0
 40
3.0
 40
4.0
 40
4.0
 40
4.0
 40
4.0
 10
113.5865206964298
 20
-140.1802462757188
 30
0.0
 10
113.4986707615559
 20
-140.5502495308347
 30
0.0
 10
113.2857638605675
 20
-140.8506618571485
 30
0.0
 10
113.0322048328531
 20
-141.1121446044789
 30
0.0
 10
113.0322048328531
 20
-141.1121446044789
 30
0.0
 10
109.2715386011543
 20
-141.1121446044789
 30
0.0
 10
109.2715386011543
 20
-141.1121446044789
 30
0.0
 10
109.4475829804506
 20
-140.8251681505576
 30
0.0
 10
109.6160481496793
 20
-140.5288899388261
 30
0.0
 10
109.7814127329713
 20
-140.22434349793
 30
0.0
 10
111.3823486049669
 20
-137.2801648962355
 30
0.0
 10
114.1732204575678
 20
-137.735262009837
 30
0.0
 10
113.5865206964298
 20
-140.1802462757188
 30
0.0
  0
SPLINE
  5
44
330
3C
100
AcDbEntity
  8
Layer 1
370
     0
100
AcDbSpline
210
0.0
220
0.0
230
1.0
 70
    11
 71
     3
 72
   284
 73
   280
 74
     0
 42
0.0000000001
 43
0.0000000001
 40
0.0
 40
0.0
 40
0.0
 40
0.0
 40
1.0
 40
1.0
 40
1.0
 40
2.0
 40
2.0
 40
2.0
 40
3.0
 40
3.0
 40
3.0
 40
4.0
 40
4.0
 40
4.0
 40
5.0
 40
5.0
 40
5.0
 40
6.0
 40
6.0
 40
6.0
 40
7.0
 40
7.0
 40
7.0
 40
8.0
 40
8.0
 40
8.0
 40
9.0
 40
9.0
 40
9.0
 40
10.0
 40
10.0
 40
10.0
 40
11.0
 40
11.0
 40
11.0
 40
12.0
 40
12.0
 40
12.0
 40
13.0
 40
13.0
 40
13.0
 40
14.0
 40
14.0
 40
14.0
 40
15.0
 40
15.0
 40
15.0
 40
16.0
 40
16.0
 40
16.0
 40
17.0
 40
17.0
 40
17.0
 40
18.0
 40
18.0
 40
18.0
 40
19.0
 40
19.0
 40
19.0
 40
20.0
 40
20.0
 40
20.0
 40
21.0
 40
21.0
 40
21.0
 40
22.0
 40
22.0
 40
22.0
 40
23.0
 40
23.0
 40
23.0
 40
24.0
 40
24.0
 40
24.0
 40
25.0
 40
25.0
 40
25.0
 40
26.0
 40
26.0
 40
26.0
 40
27.0
 40
27.0
 40
27.0
 40
28.0
 40
28.0
 40
28.0
 40
29.0
 40
29.0
 40
29.0
 40
30.0
 40
30.0
 40
30.0
 40
31.0
 40
31.0
 40
31.0
 40
32.0
 40
32.0
 40
32.0
 40
33.0
 40
33.0
 40
33.0
 40
34.0
 40
34.0
 40
34.0
 40
35.0
 40
35.0
 40
35.0
 40
36.0
 40
36.0
 40
36.0
 40
37.0
 40
37.0
 40
37.0
 40
38.0
 40
38.0
 40
38.0
 40
39.0
 40
39.0
 40
39.0
 40
40.0
 40
40.0
 40
40.0
 40
41.0
 40
41.0
 40
41.0
 40
42.0
 40
42.0
 40
42.0
 40
43.0
 40
43.0
 40
43.0
 40
44.0
 40
44.0
 40
44.0
 40
45.0
 40
45.0
 40
45.0
 40
46.0
 40
46.0
 40
46.0
 40
47.0
 40
47.0
 40
47.0
 40
48.0
 40
48.0
 40
48.0
 40
49.0
 40
49.0
 40
49.0
 40
50.0
 40
50.0
 40
50.0
 40
51.0
 40
51.0
 40
51.0
 40
52.0
 40
52.0
 40
52.0
 40
53.0
 40
53.0
 40
53.0
 40
54.0
 40
54.0
 40
54.0
 40
55.0
 40
55.0
 40
55.0
 40
56.0
 40
56.0
 40
56.0
 40
57.0
 40
57.0
 40
57.0
 40
58.0
 40
58.0
 40
58.0
 40
59.0
 40
59.0
 40
59.0
 40
60.0
 40
60.0
 40
60.0
 40
61.0
 40
61.0
 40
61.0
 40
62.0
 40
62.0
 40
62.0
 40
63.0
 40
63.0
 40
63.0
 40
64.0
 40
64.0
 40
64.0
 40
65.0
 40
65.0
 40
65.0
 40
66.0
 40
66.0
 40
66.0
 40
67.0
 40
67.0
 40
67.0
 40
68.0
 40
68.0
 40
68.0
 40
69.0
 40
69.0
 40
69.0
 40
70.0
 40
70.0
 40
70.0
 40
71.0
 40
71.0
 40
71.0
 40
72.0
 40
72.0
 40
72.0
 40
73.0
 40
73.0
 40
73.0
 40
74.0
 40
74.0
 40
74.0
 40
75.0
 40
75.0
 40
75.0
 40
76.0
 40
76.0
 40
76.0
 40
77.0
 40
77.0
 40
77.0
 40
78.0
 40
78.0
 40
78.0
 40
79.0
 40
79.0
 40
79.0
 40
80.0
 40
80.0
 40
80.0
 40
81.0
 40
81.0
 40
81.0
 40
82.0
 40
82.0
 40
82.0
 40
83.0
 40
83.0
 40
83.0
 40
84.0
 40
84.0
 40
84.0
 40
85.0
 40
85.0
 40
85.0
 40
86.0
 40
86.0
 40
86.0
 40
87.0
 40
87.0
 40
87.0
 40
88.0
 40
88.0
 40
88.0
 40
89.0
 40
89.0
 40
89.0
 40
90.0
 40
90.0
 40
90.0
 40
91.0
 40
91.0
 40
91.0
 40
92.0
 40
92.0
 40
92.0
 40
93.0
 40
93.0
 40
93.0
 40
93.0
 10
130.3596570854656
 20
-141.1121446044789
 30
0.0
 10
130.3596570854656
 20
-141.1121446044789
 30
0.0
 10
115.1902126448136
 20
-141.1121446044789
 30
0.0
 10
115.1902126448136
 20
-141.1121446044789
 30
0.0
 10
115.3262939164809
 20
-140.6425780898394
 30
0.0
 10
115.4213785518738
 20
-139.9645832983422
 30
0.0
 10
115.0468966726272
 20
-139.2214762021738
 30
0.0
 10
115.2932209998225
 20
-138.9596489452948
 30
0.0
 10
115.554703747153
 20
-139.052322013848
 30
0.0
 10
115.6973307002423
 20
-138.6747395486647
 30
0.0
 10
115.8730305699901
 20
-137.6811740107186
 30
0.0
 10
112.6639241254799
 20
-137.0841389631248
 30
0.0
 10
112.4978705230908
 20
-137.0631238806648
 30
0.0
 10
113.5548258179655
 20
-136.3058918930069
 30
0.0
 10
115.1988253835267
 20
-136.1715331690821
 30
0.0
 10
116.7077772060661
 20
-137.3842067798901
 30
0.0
 10
117.4212564810614
 20
-137.9554036113445
 30
0.0
 10
118.058254636284
 20
-138.9506916970332
 30
0.0
 10
118.7844807645747
 20
-139.7558105119361
 30
0.0
 10
119.4480061550338
 20
-140.4909938884884
 30
0.0
 10
120.4126328909038
 20
-140.982953523782
 30
0.0
 10
121.215340138967
 20
-140.6846082547594
 30
0.0
 10
121.6632025520495
 20
-140.5164875950792
 30
0.0
 10
122.063867156984
 20
-140.2346787843858
 30
0.0
 10
122.1324245571405
 20
-139.9036051082533
 30
0.0
 10
122.2068386196219
 20
-139.5580620310827
 30
0.0
 10
121.9829074130807
 20
-139.6944878122986
 30
0.0
 10
121.8816216058143
 20
-139.7282497480541
 30
0.0
 10
121.3848388368413
 20
-139.8939588408946
 30
0.0
 10
120.7402614715511
 20
-140.0059244441652
 30
0.0
 10
120.3041123831184
 20
-139.7354844485731
 30
0.0
 10
120.5232204559803
 20
-139.5015624651246
 30
0.0
 10
120.628640377829
 20
-139.2714300867099
 30
0.0
 10
120.6458658552552
 20
-138.976185403624
 30
0.0
 10
119.3963297227551
 20
-138.7574218403107
 30
0.0
 10
117.9462890330134
 20
-137.5271782425279
 30
0.0
 10
117.0484971495573
 20
-136.7596109684143
 30
0.0
 10
118.5519368193204
 20
-137.1947265282013
 30
0.0
 10
120.3754258596631
 20
-138.038430412539
 30
0.0
 10
122.0514648132371
 20
-138.1979383335061
 30
0.0
 10
122.7156792227933
 20
-138.2613280904347
 30
0.0
 10
123.3516438493704
 20
-138.2041395053795
 30
0.0
 10
123.8942463882973
 20
-138.0628905904843
 30
0.0
 10
125.8703531586366
 20
-137.548882344085
 30
0.0
 10
125.5568494694788
 20
-135.9379556951822
 30
0.0
 10
124.7875596476226
 20
-135.3157714505461
 30
0.0
 10
124.0044894438253
 20
-134.6770507475808
 30
0.0
 10
122.8634738191105
 20
-134.5475151573353
 30
0.0
 10
122.6550455422529
 20
-135.597235751691
 30
0.0
 10
122.5609944355056
 20
-136.0836832342083
 30
0.0
 10
122.8407361889079
 20
-136.4902045014677
 30
0.0
 10
123.249669023007
 20
-136.6752061290256
 30
0.0
 10
123.2131510108634
 20
-137.5092637460046
 30
0.0
 10
120.9831407032612
 20
-137.1430500959226
 30
0.0
 10
119.7849364934913
 20
-136.7354953000175
 30
0.0
 10
119.0783474094665
 20
-136.4939941065015
 30
0.0
 10
118.3779594973152
 20
-136.2628281994412
 30
0.0
 10
117.6761935469698
 20
-136.0292507255413
 30
0.0
 10
115.6959526620482
 20
-135.3770941501835
 30
0.0
 10
113.5417344551215
 20
-134.8196777006701
 30
0.0
 10
110.7994384488626
 20
-137.3301187807716
 30
0.0
 10
110.0539197858546
 20
-138.0122476868511
 30
0.0
 10
109.3487087400239
 20
-138.9389783723833
 30
0.0
 10
108.5294650336315
 20
-140.2346787843858
 30
0.0
 10
108.8884439831946
 20
-136.3337971664374
 30
0.0
 10
112.1881564389669
 20
-134.7125352310788
 30
0.0
 10
114.3575330660287
 20
-134.5650851443101
 30
0.0
 10
114.7106553532668
 20
-134.542692023656
 30
0.0
 10
114.7599202187059
 20
-134.4279703439972
 30
0.0
 10
114.3992187214002
 20
-134.2781086903888
 30
0.0
 10
113.1390027928958
 20
-133.757210253019
 30
0.0
 10
111.4829453931362
 20
-133.6180283954149
 30
0.0
 10
109.8637505150688
 20
-134.2457247928275
 30
0.0
 10
109.611225016
 20
-133.6228515290943
 30
0.0
 10
109.1247775334827
 20
-132.9810302401922
 30
0.0
 10
108.5398003200873
 20
-132.5159423496835
 30
0.0
 10
108.7685546603079
 20
-132.1857299474223
 30
0.0
 10
108.6279947645097
 20
-131.674305522637
 30
0.0
 10
108.1660074599377
 20
-131.5168646589611
 30
0.0
 10
108.1660074599377
 20
-131.5168646589611
 30
0.0
 10
108.1660074599377
 20
-130.8705647459282
 30
0.0
 10
108.1660074599377
 20
-130.8705647459282
 30
0.0
 10
109.2935872122599
 20
-131.3167046112681
 30
0.0
 10
109.7800346947772
 20
-132.7815592115963
 30
0.0
 10
110.8683403585676
 20
-132.7037000536296
 30
0.0
 10
112.0351941994218
 20
-132.6223958001777
 30
0.0
 10
112.3648898373602
 20
-131.20646155574
 30
0.0
 10
113.4542290297962
 20
-130.4792018988038
 30
0.0
 10
112.4496391862973
 20
-129.7571098850954
 30
0.0
 10
112.1189100197133
 20
-128.3408311311092
 30
0.0
 10
111.0760796163282
 20
-128.3019015521259
 30
0.0
 10
109.8637505150688
 20
-128.2609049158515
 30
0.0
 10
109.4482719995477
 20
-129.5951903972887
 30
0.0
 10
108.1987358670475
 20
-130.040296733983
 30
0.0
 10
108.569772650809
 20
-128.8679307403525
 30
0.0
 10
110.2006808535262
 20
-128.4648545685782
 30
0.0
 10
110.2006808535262
 20
-127.3293510966399
 30
0.0
 10
110.2006808535262
 20
-126.3220051767528
 30
0.0
 10
108.569772650809
 20
-125.9189290049786
 30
0.0
 10
107.8225314400583
 20
-125.1541178072531
 30
0.0
 10
106.9864067657881
 20
-125.8383137706238
 30
0.0
 10
105.5291313755274
 20
-126.5259548294796
 30
0.0
 10
105.5291313755274
 20
-127.3741373379481
 30
0.0
 10
105.5291313755274
 20
-128.4648545685782
 30
0.0
 10
107.5310763620061
 20
-129.3502441082875
 30
0.0
 10
107.4866346302464
 20
-130.1202229492408
 30
0.0
 10
106.2339979118096
 20
-129.6761501411921
 30
0.0
 10
106.0272921826946
 20
-128.4228244036582
 30
0.0
 10
104.9400200475497
 20
-128.3838948246749
 30
0.0
 10
103.896156115519
 20
-128.3838948246749
 30
0.0
 10
103.5416557900868
 20
-129.9972330404174
 30
0.0
 10
102.3737684205871
 20
-130.6414658961591
 30
0.0
 10
103.6243380817328
 20
-131.4524413733869
 30
0.0
 10
104.1483371050393
 20
-132.7429741421615
 30
0.0
 10
104.985495307955
 20
-132.7815592115963
 30
0.0
 10
106.067599799872
 20
-132.8628634650482
 30
0.0
 10
106.4162434629793
 20
-131.0707247936212
 30
0.0
 10
107.666813124125
 20
-130.950490961186
 30
0.0
 10
107.666813124125
 20
-130.950490961186
 30
0.0
 10
107.666813124125
 20
-131.5168646589611
 30
0.0
 10
107.666813124125
 20
-131.5168646589611
 30
0.0
 10
107.1529771325
 20
-131.5721584414993
 30
0.0
 10
107.011900472379
 20
-132.1340535151436
 30
0.0
 10
107.2521958824751
 20
-132.4983723627087
 30
0.0
 10
106.6617065163033
 20
-132.963804762766
 30
0.0
 10
106.1688856071383
 20
-133.6106214401217
 30
0.0
 10
105.9153265794239
 20
-134.2391791114055
 30
0.0
 10
104.295787191808
 20
-133.6111382044444
 30
0.0
 10
102.6404188111455
 20
-133.7503200620485
 30
0.0
 10
101.3802028826411
 20
-134.2705294803213
 30
0.0
 10
101.0181233471413
 20
-134.4207356434782
 30
0.0
 10
101.0670437030319
 20
-134.535457323137
 30
0.0
 10
101.4225775571096
 20
-134.5599175010823
 30
0.0
 10
103.6036675088213
 20
-134.708056606948
 30
0.0
 10
106.9228447540853
 20
-136.0869560749192
 30
0.0
 10
107.256674506606
 20
-140.2477701472297
 30
0.0
 10
106.433813449954
 20
-138.9465575824509
 30
0.0
 10
105.7260185825095
 20
-138.0170708205304
 30
0.0
 10
104.9792941360816
 20
-137.3339083858054
 30
0.0
 10
102.2366536202742
 20
-134.8241563248009
 30
0.0
 10
100.0814018847019
 20
-135.3815727743143
 30
0.0
 10
98.1028835475229
 20
-136.0344183687692
 30
0.0
 10
97.4011175971775
 20
-136.2648952567324
 30
0.0
 10
96.70004066592917
 20
-136.4977837115353
 30
0.0
 10
95.99345158190442
 20
-136.7392849050513
 30
0.0
 10
94.79455835303747
 20
-137.1468397009563
 30
0.0
 10
92.56489255498379
 20
-137.5123643319414
 30
0.0
 10
92.52837454284013
 20
-136.6776176958653
 30
0.0
 10
92.93765188648781
 20
-136.4939941065015
 30
0.0
 10
93.21704913034158
 20
-136.086783820145
 30
0.0
 10
93.12265351404572
 20
-135.6010253567248
 30
0.0
 10
92.91594778493074
 20
-134.5495822146265
 30
0.0
 10
91.774932160216
 20
-134.6832519194542
 30
0.0
 10
90.99013940867609
 20
-135.3188720364828
 30
0.0
 10
90.22153860591685
 20
-135.941745300216
 30
0.0
 10
89.90769040721058
 20
-137.5512939109247
 30
0.0
 10
91.88345266800137
 20
-138.066680195518
 30
0.0
 10
92.42777775467084
 20
-138.2075846008648
 30
0.0
 10
93.06339787169944
 20
-138.2658067145655
 30
0.0
 10
93.72726777170708
 20
-138.2024169576369
 30
0.0
 10
95.40227319663555
 20
-138.0422200175728
 30
0.0
 10
97.22748478472091
 20
-137.1981716236866
 30
0.0
 10
98.73023543538689
 20
-136.7640895925451
 30
0.0
 10
97.83382159012488
 20
-137.5302788284646
 30
0.0
 10
96.38274737173765
 20
-138.7619004644415
 30
0.0
 10
95.13355574878607
 20
-138.9806640277548
 30
0.0
 10
95.14940318801821
 20
-139.2762532203893
 30
0.0
 10
95.2555121289639
 20
-139.5060410892554
 30
0.0
 10
95.47530922092284
 20
-139.7392740536069
 30
0.0
 10
95.03847111339316
 20
-140.0093695396504
 30
0.0
 10
94.39320472900587
 20
-139.8977484459284
 30
0.0
 10
93.89607745048431
 20
-139.7310058244423
 30
0.0
 10
93.79582517186354
 20
-139.6968993791383
 30
0.0
 10
93.57223847487083
 20
-139.5632296743106
 30
0.0
 10
93.64492998960961
 20
-139.90670569419
 30
0.0
 10
93.71486542796018
 20
-140.2395019180651
 30
0.0
 10
94.11484101379769
 20
-140.5192436714674
 30
0.0
 10
94.56235891733164
 20
-140.6880533502447
 30
0.0
 10
95.36678871313747
 20
-140.9863986192673
 30
0.0
 10
96.33003741081333
 20
-140.4951280030707
 30
0.0
 10
96.99494083946655
 20
-139.7589110978728
 30
0.0
 10
97.71909991046606
 20
-138.955859340261
 30
0.0
 10
98.35678708478581
 20
-137.9605712545724
 30
0.0
 10
99.07061086932957
 20
-137.3862738371812
 30
0.0
 10
100.5802517109661
 20
-136.1732557168247
 30
0.0
 10
102.2235622574302
 20
-136.3089924789436
 30
0.0
 10
103.2812065714019
 20
-137.0676025047956
 30
0.0
 10
103.1161864976585
 20
-137.0879285681586
 30
0.0
 10
99.90673554359971
 20
-137.685997144398
 30
0.0
 10
100.0814018847019
 20
-138.6761175868588
 30
0.0
 10
100.2243733473397
 20
-139.0574896570759
 30
0.0
 10
100.4862006042187
 20
-138.9648165885227
 30
0.0
 10
100.7321804218656
 20
-139.2259548263046
 30
0.0
 10
100.3585598164902
 20
-139.9663058460848
 30
0.0
 10
100.4520941589148
 20
-140.6429225993879
 30
0.0
 10
100.5888644496792
 20
-141.1121446044789
 30
0.0
 10
100.5888644496792
 20
-141.1121446044789
 30
0.0
 10
85.41838648038151
 20
-141.1121446044789
 30
0.0
 10
85.41838648038151
 20
-141.1121446044789
 30
0.0
 10
85.41149628941102
 20
-140.7934732720933
 30
0.0
 10
85.39943845521265
 20
-140.47893605429
 30
0.0
 10
85.39943845521265
 20
-140.154752569128
 30
0.0
 10
85.39943845521265
 20
-131.046953634773
 30
0.0
 10
88.01977808129367
 20
-123.9786512276859
 30
0.0
 10
92.17456323650498
 20
-119.2035766303554
 30
0.0
 10
92.43277314312445
 20
-119.687612546033
 30
0.0
 10
92.94247502016717
 20
-120.0186862221655
 30
0.0
 10
93.44907631127315
 20
-120.1366807425353
 30
0.0
 10
91.46332327357514
 20
-121.5005940451457
 30
0.0
 10
90.56346433282789
 20
-124.256325923797
 30
0.0
 10
91.35842011604929
 20
-126.4053764874959
 30
0.0
 10
91.70516897663968
 20
-127.3434759881294
 30
0.0
 10
92.13925100778117
 20
-128.2777858837292
 30
0.0
 10
92.07999536543487
 20
-129.1983153973879
 30
0.0
 10
92.0638034166542
 20
-129.4439507054862
 30
0.0
 10
92.18110891792695
 20
-129.3405978409288
 30
0.0
 10
92.24570445827538
 20
-129.2830647463251
 30
0.0
 10
93.21584334692174
 20
-128.4173122508818
 30
0.0
 10
93.31265053005725
 20
-127.3758598856908
 30
0.0
 10
93.36122637639929
 20
-126.5955457582817
 30
0.0
 10
93.50161401742321
 20
-124.3028347128479
 30
0.0
 10
92.8560031234874
 20
-123.1731879032345
 30
0.0
 10
93.83751082723506
 20
-121.69110782548
 30
0.0
 10
93.87075599866773
 20
-121.6411539409439
 30
0.0
 10
93.88315834241463
 20
-121.6452880555262
 30
0.0
 10
93.86334904337444
 20
-121.7004095832902
 30
0.0
 10
93.46423473140825
 20
-122.8173095396082
 30
0.0
 10
93.59945472920431
 20
-125.2443793089667
 30
0.0
 10
94.95406627400455
 20
-126.8156873597891
 30
0.0
 10
95.25361732644701
 20
-127.1632974942508
 30
0.0
 10
95.29220239588182
 20
-126.985530567212
 30
0.0
 10
95.21262069017254
 20
-126.6699598207631
 30
0.0
 10
95.1264933030413
 20
-126.3282063486263
 30
0.0
 10
95.32045217886086
 20
-125.7986951725434
 30
0.0
 10
95.65273163841321
 20
-125.1410264444092
 30
0.0
 10
96.29972057054313
 20
-123.8580728857022
 30
0.0
 10
96.03220890611348
 20
-123.4560302425735
 30
0.0
 10
96.34054495204335
 20
-121.8795545485232
 30
0.0
 10
96.54053274496209
 20
-120.8644571637943
 30
0.0
 10
96.90020071362218
 20
-120.1199720294318
 30
0.0
 10
97.73064098034165
 20
-119.9701103758235
 30
0.0
 10
97.32618677037333
 20
-120.4398491452373
 30
0.0
 10
97.1522094483682
 20
-121.2292927756823
 30
0.0
 10
97.56183130156441
 20
-122.3815049607241
 30
0.0
 10
97.86775578065459
 20
-123.2369221697116
 30
0.0
 10
98.48408336296579
 20
-124.0530652901673
 30
0.0
 10
99.29109698038556
 20
-124.655267980989
 30
0.0
 10
100.8732570819866
 20
-125.8362467133326
 30
0.0
 10
104.4902628319504
 20
-126.2427679805921
 30
0.0
 10
106.8160467940425
 20
-122.9172173086804
 30
0.0
 10
108.0948662381673
 20
-121.090627682401
 30
0.0
 10
108.5253309190492
 20
-118.7620876439206
 30
0.0
 10
108.0931436904246
 20
-117.1284233648151
 30
0.0
 10
108.0376776531121
 20
-116.9210286166031
 30
0.0
 10
108.1043402507517
 20
-116.9802842589494
 30
0.0
 10
108.2188896756362
 20
-117.0481526400088
 30
0.0
 10
108.9277180717264
 20
-117.4656982128211
 30
0.0
 10
109.7779676374861
 20
-117.8012505130844
 30
0.0
 10
110.38430444289
 20
-117.7699001441686
 30
0.0
 10
110.9555012743445
 20
-117.7402723229955
 30
0.0
 10
110.9651475417032
 20
-117.4216009906099
 30
0.0
 10
110.6289062223428
 20
-116.8486816114128
 30
0.0
 10
112.142336669013
 20
-116.5699733866561
 30
0.0
 10
114.9841959347956
 20
-114.864995631006
 30
0.0
 10
114.3537434609949
 20
-114.1801106485383
 30
0.0
 10
112.3170030101152
 20
-115.3273274451265
 30
0.0
 10
110.4132432449661
 20
-115.1660969764168
 30
0.0
 10
106.9307684737013
 20
-114.2793293985135
 30
0.0
 10
104.5514132768135
 20
-113.6884955227932
 30
0.0
 10
102.9995700154827
 20
-113.1610514040014
 30
0.0
 10
101.4246446144008
 20
-113.0284152278193
 30
0.0
 10
103.4824001477405
 20
-112.362822780069
 30
0.0
 10
105.6538438320935
 20
-112.0207247983837
 30
0.0
 10
107.8890217829236
 20
-112.0207247983837
 30
0.0
 10
120.0598551132142
 20
-112.0207247983837
 30
0.0
 10
130.3786051106345
 20
-122.0748914625368
 30
0.0
 10
130.3786051106345
 20
-140.154752569128
 30
0.0
 10
130.3786051106345
 20
-140.47893605429
 30
0.0
 10
130.3665472764361
 20
-140.7934732720933
 30
0.0
 10
130.3596570854656
 20
-141.1121446044789
 30
0.0
  0
HATCH
  5
45
330
3C
100
AcDbEntity
  8
Layer 1
 62
   250
420
  2301728
100
AcDbHatch
 10
0.0
 20
0.0
 30
0.0
210
0.0
220
0.0
230
1.0
  2
SOLID
 70
     1
 71
     0
 91
        5
 92
        1
 93
        1
 72
     4
 94
        3
 73
     0
 74
     1
 95
       83
 96
       79
 40
0.0
 40
0.0
 40
0.0
 40
0.0
 40
1.0
 40
1.0
 40
1.0
 40
2.0
 40
2.0
 40
2.0
 40
3.0
 40
3.0
 40
3.0
 40
4.0
 40
4.0
 40
4.0
 40
5.0
 40
5.0
 40
5.0
 40
6.0
 40
6.0
 40
6.0
 40
7.0
 40
7.0
 40
7.0
 40
8.0
 40
8.0
 40
8.0
 40
9.0
 40
9.0
 40
9.0
 40
10.0
 40
10.0
 40
10.0
 40
11.0
 40
11.0
 40
11.0
 40
12.0
 40
12.0
 40
12.0
 40
13.0
 40
13.0
 40
13.0
 40
14.0
 40
14.0
 40
14.0
 40
15.0
 40
15.0
 40
15.0
 40
16.0
 40
16.0
 40
16.0
 40
17.0
 40
17.0
 40
17.0
 40
18.0
 40
18.0
 40
18.0
 40
19.0
 40
19.0
 40
19.0
 40
20.0
 40
20.0
 40
20.0
 40
21.0
 40
21.0
 40
21.0
 40
22.0
 40
22.0
 40
22.0
 40
23.0
 40
23.0
 40
23.0
 40
24.0
 40
24.0
 40
24.0
 40
25.0
 40
25.0
 40
25.0
 40
26.0
 40
26.0
 40
26.0
 40
26.0
 10
139.1808240754478
 20
-141.1121446044789
 10
139.1915038714521
 20
-140.7920952338992
 10
139.1980495528741
 20
-140.4727348824165
 10
139.1980495528741
 20
-140.154752569128
 10
139.1980495528741
 20
-125.4262803505879
 10
128.3501328889194
 20
-108.5811414659103
 10
107.8890217829236
 20
-108.5811414659103
 10
100.6823987921037
 20
-108.5811414659103
 10
94.67019040601996
 20
-110.6726589350055
 10
89.9025227639827
 20
-114.0235310587337
 10
89.82414684169328
 20
-113.9486002319295
 10
89.74921601488909
 20
-113.8734971503511
 10
89.66222735388654
 20
-113.7997721069667
 10
88.12674829611068
 20
-112.4995930708334
 10
87.67457951367163
 20
-111.5466796596133
 10
87.97585311385673
 20
-110.6275281841487
 10
88.11624075488066
 20
-110.2017143821718
 10
88.5468776905369
 20
-109.9109483232167
 10
89.48170435045944
 20
-109.935408501162
 10
90.08011743624733
 20
-108.5804524468132
 10
86.54768878044642
 20
-108.0388834365319
 10
85.72189939263203
 20
-109.6839165307387
 10
85.35999211190654
 20
-110.3092013613116
 10
85.45938311665599
 20
-111.1077744947925
 10
85.79631345511342
 20
-111.6924071986394
 10
83.06142440414784
 20
-111.0622992343872
 10
79.97014022523317
 20
-112.3817708052379
 10
78.73128388873732
 20
-114.6576008827939
 10
78.19092066187588
 20
-115.651855439837
 10
77.72066512813929
 20
-116.7146673970366
 10
76.87627222470455
 20
-117.3578667241328
 10
76.65130748951773
 20
-117.5287434602012
 10
76.83217500249334
 20
-117.5483805044671
 10
76.93225502633986
 20
-117.5597493195684
 10
78.44137910365355
 20
-117.7175346927928
 10
79.41944171191598
 20
-117.016113251996
 10
80.13309324168549
 20
-116.4704101271324
 10
82.23029511833131
 20
-114.8646511214575
 10
82.7015841807135
 20
-113.4786892077414
 10
84.75296628740551
 20
-113.1837890342041
 10
84.82204045188477
 20
-113.1737982572968
 10
84.82858613330674
 20
-113.1879231487864
 10
84.76554088592667
 20
-113.2120388171831
 10
83.48517114883357
 20
-113.7184678535148
 10
81.49011635332539
 20
-115.6535779875797
 10
81.18798147926898
 20
-117.9628254913426
 10
81.12149113640366
 20
-118.4733886422567
 10
81.305459235316
 20
-118.3721028349903
 10
81.5171603528846
 20
-118.0692789418369
 10
81.74522567400814
 20
-117.7409613420925
 10
82.35569659399441
 20
-117.5046277918044
 10
83.18596460593962
 20
-117.2868977571366
 10
84.80309242671589
 20
-116.8631510124509
 10
84.94124075567441
 20
-116.3381184604988
 10
86.5473442708979
 20
-115.4113877749666
 10
87.35745847425439
 20
-114.9454386105866
 10
88.10125458951983
 20
-114.6837836084818
 10
88.75961233675108
 20
-114.868957490814
 10
80.73856877321813
 20
-121.1104369814411
 10
76.57999401297306
 20
-131.0373073674143
 10
76.57999401297306
 20
-140.154752569128
 10
76.57999401297306
 20
-140.4727348824165
 10
76.58653969439503
 20
-140.7920952338992
 10
76.59721949039931
 20
-141.1121446044789
 10
76.59721949039931
 20
-141.1121446044789
 10
73.43462183493996
 20
-141.1121446044789
 10
73.43462183493996
 20
-141.1121446044789
 10
73.43462183493996
 20
-141.1121446044789
 10
73.43462183493996
 20
-142.7237602724788
 10
73.43462183493996
 20
-142.7237602724788
 10
73.43462183493996
 20
-142.7237602724788
 10
142.3434217309072
 20
-142.7237602724788
 10
142.3434217309072
 20
-142.7237602724788
 10
142.3434217309072
 20
-142.7237602724788
 10
142.3434217309072
 20
-141.1121446044789
 10
142.3434217309072
 20
-141.1121446044789
 10
142.3434217309072
 20
-141.1121446044789
 10
139.1808240754478
 20
-141.1121446044789
 10
139.1808240754478
 20
-141.1121446044789
 97
        0
 92
        1
 93
        1
 72
     4
 94
        3
 73
     0
 74
     1
 95
       62
 96
       58
 40
0.0
 40
0.0
 40
0.0
 40
0.0
 40
1.0
 40
1.0
 40
1.0
 40
2.0
 40
2.0
 40
2.0
 40
3.0
 40
3.0
 40
3.0
 40
4.0
 40
4.0
 40
4.0
 40
5.0
 40
5.0
 40
5.0
 40
6.0
 40
6.0
 40
6.0
 40
7.0
 40
7.0
 40
7.0
 40
8.0
 40
8.0
 40
8.0
 40
9.0
 40
9.0
 40
9.0
 40
10.0
 40
10.0
 40
10.0
 40
11.0
 40
11.0
 40
11.0
 40
12.0
 40
12.0
 40
12.0
 40
13.0
 40
13.0
 40
13.0
 40
14.0
 40
14.0
 40
14.0
 40
15.0
 40
15.0
 40
15.0
 40
16.0
 40
16.0
 40
16.0
 40
17.0
 40
17.0
 40
17.0
 40
18.0
 40
18.0
 40
18.0
 40
19.0
 40
19.0
 40
19.0
 40
19.0
 10
93.96394583154374
 20
-117.3771592588502
 10
94.8701781989387
 20
-116.5530924187784
 10
95.83118758454916
 20
-115.8220431568084
 10
96.83887801398473
 20
-115.1845282372629
 10
99.60150008360658
 20
-113.8250935587833
 10
102.7206895359518
 20
-113.7935709350933
 10
104.633751058911
 20
-115.1271673974335
 10
106.2734442551157
 20
-116.2702500794394
 10
105.9237670633628
 20
-117.8822102569878
 10
104.3875989864899
 20
-118.780691159541
 10
103.7040920422163
 20
-119.1803222358299
 10
102.6259494101074
 20
-119.1968586941591
 10
102.1520765261113
 20
-118.285286428762
 10
102.0778347184042
 20
-118.1433484947697
 10
101.9908460574016
 20
-118.0272487769168
 10
101.8210028499788
 20
-118.3211154218086
 10
101.2754719798895
 20
-119.2740288330287
 10
101.9482991281588
 20
-120.7519747962009
 10
103.2117878973741
 20
-121.3993082378793
 10
103.2117878973741
 20
-121.3993082378793
 10
102.9537502455289
 20
-121.7861924608729
 10
102.9089640042207
 20
-122.1589517923769
 10
102.8510864000685
 20
-122.6305853643076
 10
103.0619262437658
 20
-122.724636471055
 10
103.4984198417469
 20
-122.7260145092491
 10
104.523508003383
 20
-122.7304931333799
 10
105.8376396762316
 20
-122.0611110805958
 10
106.5066772194671
 20
-120.6575791799051
 10
106.6007283262144
 20
-120.346487057587
 10
106.5931491161469
 20
-120.0967176349064
 10
106.8458468699899
 20
-119.946166962201
 10
106.7338812667193
 20
-120.2410671357383
 10
106.6561943635269
 20
-120.54664710528
 10
106.5555975753576
 20
-120.8470594315938
 10
105.6278333611799
 20
-123.6220838449625
 10
103.2946424437944
 20
-125.1217339096918
 10
100.9640353480229
 20
-124.1023301556064
 10
100.1053452983244
 20
-123.7278482763597
 10
99.39755043087979
 20
-122.9695827600562
 10
98.99206269226588
 20
-122.1606743401196
 10
99.36086016396187
 20
-122.1351806335287
 10
99.71673852758818
 20
-121.9646484070088
 10
99.96668020504306
 20
-121.656312361079
 10
100.4443426940729
 20
-121.0654784853586
 10
100.3535644280366
 20
-120.2011040281095
 10
99.76410859051036
 20
-119.7239583034024
 10
99.75101722766642
 20
-119.7132785073981
 10
99.73516978843426
 20
-119.7060438068791
 10
99.72156166126753
 20
-119.6960530299718
 10
99.15828854942919
 20
-119.1227891412262
 10
98.26290823281275
 20
-118.7972276178701
 10
97.06056990846055
 20
-118.9353759468287
 10
95.31976315976381
 20
-119.1348469754246
 10
94.43058401502083
 20
-118.8533826742797
 10
93.99512394568525
 20
-118.1130316544995
 10
93.87471785847578
 20
-117.9075317088044
 10
93.84939640665918
 20
-117.6634466936744
 10
93.96394583154374
 20
-117.3771592588502
 97
        0
 92
        1
 93
        1
 72
     4
 94
        3
 73
     0
 74
     1
 95
       17
 96
       13
 40
0.0
 40
0.0
 40
0.0
 40
0.0
 40
1.0
 40
1.0
 40
1.0
 40
2.0
 40
2.0
 40
2.0
 40
3.0
 40
3.0
 40
3.0
 40
4.0
 40
4.0
 40
4.0
 40
4.0
 10
102.1915228694174
 20
-140.1836913712041
 10
101.606545656022
 20
-137.7397406339678
 10
104.3967284895258
 20
-137.2832654821723
 10
105.9976643615214
 20
-140.2291666316094
 10
106.1625121804906
 20
-140.5316460152143
 10
106.3299438210738
 20
-140.8265461887517
 10
106.5051269264987
 20
-141.1121446044789
 10
106.5051269264987
 20
-141.1121446044789
 10
102.7427381470574
 20
-141.1121446044789
 10
102.7427381470574
 20
-141.1121446044789
 10
102.4905571575371
 20
-140.8513508762455
 10
102.2797173138398
 20
-140.5516275690288
 10
102.1915228694174
 20
-140.1836913712041
 97
        0
 92
        1
 93
        1
 72
     4
 94
        3
 73
     0
 74
     1
 95
       17
 96
       13
 40
0.0
 40
0.0
 40
0.0
 40
0.0
 40
1.0
 40
1.0
 40
1.0
 40
2.0
 40
2.0
 40
2.0
 40
3.0
 40
3.0
 40
3.0
 40
4.0
 40
4.0
 40
4.0
 40
4.0
 10
113.5865206964298
 20
-140.1802462757188
 10
113.4986707615559
 20
-140.5502495308347
 10
113.2857638605675
 20
-140.8506618571485
 10
113.0322048328531
 20
-141.1121446044789
 10
113.0322048328531
 20
-141.1121446044789
 10
109.2715386011543
 20
-141.1121446044789
 10
109.2715386011543
 20
-141.1121446044789
 10
109.4475829804506
 20
-140.8251681505576
 10
109.6160481496793
 20
-140.5288899388261
 10
109.7814127329713
 20
-140.22434349793
 10
111.3823486049669
 20
-137.2801648962355
 10
114.1732204575678
 20
-137.735262009837
 10
113.5865206964298
 20
-140.1802462757188
 97
        0
 92
        1
 93
        1
 72
     4
 94
        3
 73
     0
 74
     1
 95
      284
 96
      280
 40
0.0
 40
0.0
 40
0.0
 40
0.0
 40
1.0
 40
1.0
 40
1.0
 40
2.0
 40
2.0
 40
2.0
 40
3.0
 40
3.0
 40
3.0
 40
4.0
 40
4.0
 40
4.0
 40
5.0
 40
5.0
 40
5.0
 40
6.0
 40
6.0
 40
6.0
 40
7.0
 40
7.0
 40
7.0
 40
8.0
 40
8.0
 40
8.0
 40
9.0
 40
9.0
 40
9.0
 40
10.0
 40
10.0
 40
10.0
 40
11.0
 40
11.0
 40
11.0
 40
12.0
 40
12.0
 40
12.0
 40
13.0
 40
13.0
 40
13.0
 40
14.0
 40
14.0
 40
14.0
 40
15.0
 40
15.0
 40
15.0
 40
16.0
 40
16.0
 40
16.0
 40
17.0
 40
17.0
 40
17.0
 40
18.0
 40
18.0
 40
18.0
 40
19.0
 40
19.0
 40
19.0
 40
20.0
 40
20.0
 40
20.0
 40
21.0
 40
21.0
 40
21.0
 40
22.0
 40
22.0
 40
22.0
 40
23.0
 40
23.0
 40
23.0
 40
24.0
 40
24.0
 40
24.0
 40
25.0
 40
25.0
 40
25.0
 40
26.0
 40
26.0
 40
26.0
 40
27.0
 40
27.0
 40
27.0
 40
28.0
 40
28.0
 40
28.0
 40
29.0
 40
29.0
 40
29.0
 40
30.0
 40
30.0
 40
30.0
 40
31.0
 40
31.0
 40
31.0
 40
32.0
 40
32.0
 40
32.0
 40
33.0
 40
33.0
 40
33.0
 40
34.0
 40
34.0
 40
34.0
 40
35.0
 40
35.0
 40
35.0
 40
36.0
 40
36.0
 40
36.0
 40
37.0
 40
37.0
 40
37.0
 40
38.0
 40
38.0
 40
38.0
 40
39.0
 40
39.0
 40
39.0
 40
40.0
 40
40.0
 40
40.0
 40
41.0
 40
41.0
 40
41.0
 40
42.0
 40
42.0
 40
42.0
 40
43.0
 40
43.0
 40
43.0
 40
44.0
 40
44.0
 40
44.0
 40
45.0
 40
45.0
 40
45.0
 40
46.0
 40
46.0
 40
46.0
 40
47.0
 40
47.0
 40
47.0
 40
48.0
 40
48.0
 40
48.0
 40
49.0
 40
49.0
 40
49.0
 40
50.0
 40
50.0
 40
50.0
 40
51.0
 40
51.0
 40
51.0
 40
52.0
 40
52.0
 40
52.0
 40
53.0
 40
53.0
 40
53.0
 40
54.0
 40
54.0
 40
54.0
 40
55.0
 40
55.0
 40
55.0
 40
56.0
 40
56.0
 40
56.0
 40
57.0
 40
57.0
 40
57.0
 40
58.0
 40
58.0
 40
58.0
 40
59.0
 40
59.0
 40
59.0
 40
60.0
 40
60.0
 40
60.0
 40
61.0
 40
61.0
 40
61.0
 40
62.0
 40
62.0
 40
62.0
 40
63.0
 40
63.0
 40
63.0
 40
64.0
 40
64.0
 40
64.0
 40
65.0
 40
65.0
 40
65.0
 40
66.0
 40
66.0
 40
66.0
 40
67.0
 40
67.0
 40
67.0
 40
68.0
 40
68.0
 40
68.0
 40
69.0
 40
69.0
 40
69.0
 40
70.0
 40
70.0
 40
70.0
 40
71.0
 40
71.0
 40
71.0
 40
72.0
 40
72.0
 40
72.0
 40
73.0
 40
73.0
 40
73.0
 40
74.0
 40
74.0
 40
74.0
 40
75.0
 40
75.0
 40
75.0
 40
76.0
 40
76.0
 40
76.0
 40
77.0
 40
77.0
 40
77.0
 40
78.0
 40
78.0
 40
78.0
 40
79.0
 40
79.0
 40
79.0
 40
80.0
 40
80.0
 40
80.0
 40
81.0
 40
81.0
 40
81.0
 40
82.0
 40
82.0
 40
82.0
 40
83.0
 40
83.0
 40
83.0
 40
84.0
 40
84.0
 40
84.0
 40
85.0
 40
85.0
 40
85.0
 40
86.0
 40
86.0
 40
86.0
 40
87.0
 40
87.0
 40
87.0
 40
88.0
 40
88.0
 40
88.0
 40
89.0
 40
89.0
 40
89.0
 40
90.0
 40
90.0
 40
90.0
 40
91.0
 40
91.0
 40
91.0
 40
92.0
 40
92.0
 40
92.0
 40
93.0
 40
93.0
 40
93.0
 40
93.0
 10
130.3596570854656
 20
-141.1121446044789
 10
130.3596570854656
 20
-141.1121446044789
 10
115.1902126448136
 20
-141.1121446044789
 10
115.1902126448136
 20
-141.1121446044789
 10
115.3262939164809
 20
-140.6425780898394
 10
115.4213785518738
 20
-139.9645832983422
 10
115.0468966726272
 20
-139.2214762021738
 10
115.2932209998225
 20
-138.9596489452948
 10
115.554703747153
 20
-139.052322013848
 10
115.6973307002423
 20
-138.6747395486647
 10
115.8730305699901
 20
-137.6811740107186
 10
112.6639241254799
 20
-137.0841389631248
 10
112.4978705230908
 20
-137.0631238806648
 10
113.5548258179655
 20
-136.3058918930069
 10
115.1988253835267
 20
-136.1715331690821
 10
116.7077772060661
 20
-137.3842067798901
 10
117.4212564810614
 20
-137.9554036113445
 10
118.058254636284
 20
-138.9506916970332
 10
118.7844807645747
 20
-139.7558105119361
 10
119.4480061550338
 20
-140.4909938884884
 10
120.4126328909038
 20
-140.982953523782
 10
121.215340138967
 20
-140.6846082547594
 10
121.6632025520495
 20
-140.5164875950792
 10
122.063867156984
 20
-140.2346787843858
 10
122.1324245571405
 20
-139.9036051082533
 10
122.2068386196219
 20
-139.5580620310827
 10
121.9829074130807
 20
-139.6944878122986
 10
121.8816216058143
 20
-139.7282497480541
 10
121.3848388368413
 20
-139.8939588408946
 10
120.7402614715511
 20
-140.0059244441652
 10
120.3041123831184
 20
-139.7354844485731
 10
120.5232204559803
 20
-139.5015624651246
 10
120.628640377829
 20
-139.2714300867099
 10
120.6458658552552
 20
-138.976185403624
 10
119.3963297227551
 20
-138.7574218403107
 10
117.9462890330134
 20
-137.5271782425279
 10
117.0484971495573
 20
-136.7596109684143
 10
118.5519368193204
 20
-137.1947265282013
 10
120.3754258596631
 20
-138.038430412539
 10
122.0514648132371
 20
-138.1979383335061
 10
122.7156792227933
 20
-138.2613280904347
 10
123.3516438493704
 20
-138.2041395053795
 10
123.8942463882973
 20
-138.0628905904843
 10
125.8703531586366
 20
-137.548882344085
 10
125.5568494694788
 20
-135.9379556951822
 10
124.7875596476226
 20
-135.3157714505461
 10
124.0044894438253
 20
-134.6770507475808
 10
122.8634738191105
 20
-134.5475151573353
 10
122.6550455422529
 20
-135.597235751691
 10
122.5609944355056
 20
-136.0836832342083
 10
122.8407361889079
 20
-136.4902045014677
 10
123.249669023007
 20
-136.6752061290256
 10
123.2131510108634
 20
-137.5092637460046
 10
120.9831407032612
 20
-137.1430500959226
 10
119.7849364934913
 20
-136.7354953000175
 10
119.0783474094665
 20
-136.4939941065015
 10
118.3779594973152
 20
-136.2628281994412
 10
117.6761935469698
 20
-136.0292507255413
 10
115.6959526620482
 20
-135.3770941501835
 10
113.5417344551215
 20
-134.8196777006701
 10
110.7994384488626
 20
-137.3301187807716
 10
110.0539197858546
 20
-138.0122476868511
 10
109.3487087400239
 20
-138.9389783723833
 10
108.5294650336315
 20
-140.2346787843858
 10
108.8884439831946
 20
-136.3337971664374
 10
112.1881564389669
 20
-134.7125352310788
 10
114.3575330660287
 20
-134.5650851443101
 10
114.7106553532668
 20
-134.542692023656
 10
114.7599202187059
 20
-134.4279703439972
 10
114.3992187214002
 20
-134.2781086903888
 10
113.1390027928958
 20
-133.757210253019
 10
111.4829453931362
 20
-133.6180283954149
 10
109.8637505150688
 20
-134.2457247928275
 10
109.611225016
 20
-133.6228515290943
 10
109.1247775334827
 20
-132.9810302401922
 10
108.5398003200873
 20
-132.5159423496835
 10
108.7685546603079
 20
-132.1857299474223
 10
108.6279947645097
 20
-131.674305522637
 10
108.1660074599377
 20
-131.5168646589611
 10
108.1660074599377
 20
-131.5168646589611
 10
108.1660074599377
 20
-130.8705647459282
 10
108.1660074599377
 20
-130.8705647459282
 10
109.2935872122599
 20
-131.3167046112681
 10
109.7800346947772
 20
-132.7815592115963
 10
110.8683403585676
 20
-132.7037000536296
 10
112.0351941994218
 20
-132.6223958001777
 10
112.3648898373602
 20
-131.20646155574
 10
113.4542290297962
 20
-130.4792018988038
 10
112.4496391862973
 20
-129.7571098850954
 10
112.1189100197133
 20
-128.3408311311092
 10
111.0760796163282
 20
-128.3019015521259
 10
109.8637505150688
 20
-128.2609049158515
 10
109.4482719995477
 20
-129.5951903972887
 10
108.1987358670475
 20
-130.040296733983
 10
108.569772650809
 20
-128.8679307403525
 10
110.2006808535262
 20
-128.4648545685782
 10
110.2006808535262
 20
-127.3293510966399
 10
110.2006808535262
 20
-126.3220051767528
 10
108.569772650809
 20
-125.9189290049786
 10
107.8225314400583
 20
-125.1541178072531
 10
106.9864067657881
 20
-125.8383137706238
 10
105.5291313755274
 20
-126.5259548294796
 10
105.5291313755274
 20
-127.3741373379481
 10
105.5291313755274
 20
-128.4648545685782
 10
107.5310763620061
 20
-129.3502441082875
 10
107.4866346302464
 20
-130.1202229492408
 10
106.2339979118096
 20
-129.6761501411921
 10
106.0272921826946
 20
-128.4228244036582
 10
104.9400200475497
 20
-128.3838948246749
 10
103.896156115519
 20
-128.3838948246749
 10
103.5416557900868
 20
-129.9972330404174
 10
102.3737684205871
 20
-130.6414658961591
 10
103.6243380817328
 20
-131.4524413733869
 10
104.1483371050393
 20
-132.7429741421615
 10
104.985495307955
 20
-132.7815592115963
 10
106.067599799872
 20
-132.8628634650482
 10
106.4162434629793
 20
-131.0707247936212
 10
107.666813124125
 20
-130.950490961186
 10
107.666813124125
 20
-130.950490961186
 10
107.666813124125
 20
-131.5168646589611
 10
107.666813124125
 20
-131.5168646589611
 10
107.1529771325
 20
-131.5721584414993
 10
107.011900472379
 20
-132.1340535151436
 10
107.2521958824751
 20
-132.4983723627087
 10
106.6617065163033
 20
-132.963804762766
 10
106.1688856071383
 20
-133.6106214401217
 10
105.9153265794239
 20
-134.2391791114055
 10
104.295787191808
 20
-133.6111382044444
 10
102.6404188111455
 20
-133.7503200620485
 10
101.3802028826411
 20
-134.2705294803213
 10
101.0181233471413
 20
-134.4207356434782
 10
101.0670437030319
 20
-134.535457323137
 10
101.4225775571096
 20
-134.5599175010823
 10
103.6036675088213
 20
-134.708056606948
 10
106.9228447540853
 20
-136.0869560749192
 10
107.256674506606
 20
-140.2477701472297
 10
106.433813449954
 20
-138.9465575824509
 10
105.7260185825095
 20
-138.0170708205304
 10
104.9792941360816
 20
-137.3339083858054
 10
102.2366536202742
 20
-134.8241563248009
 10
100.0814018847019
 20
-135.3815727743143
 10
98.1028835475229
 20
-136.0344183687692
 10
97.4011175971775
 20
-136.2648952567324
 10
96.70004066592917
 20
-136.4977837115353
 10
95.99345158190442
 20
-136.7392849050513
 10
94.79455835303747
 20
-137.1468397009563
 10
92.56489255498379
 20
-137.5123643319414
 10
92.52837454284013
 20
-136.6776176958653
 10
92.93765188648781
 20
-136.4939941065015
 10
93.21704913034158
 20
-136.086783820145
 10
93.12265351404572
 20
-135.6010253567248
 10
92.91594778493074
 20
-134.5495822146265
 10
91.774932160216
 20
-134.6832519194542
 10
90.99013940867609
 20
-135.3188720364828
 10
90.22153860591685
 20
-135.941745300216
 10
89.90769040721058
 20
-137.5512939109247
 10
91.88345266800137
 20
-138.066680195518
 10
92.42777775467084
 20
-138.2075846008648
 10
93.06339787169944
 20
-138.2658067145655
 10
93.72726777170708
 20
-138.2024169576369
 10
95.40227319663555
 20
-138.0422200175728
 10
97.22748478472091
 20
-137.1981716236866
 10
98.73023543538689
 20
-136.7640895925451
 10
97.83382159012488
 20
-137.5302788284646
 10
96.38274737173765
 20
-138.7619004644415
 10
95.13355574878607
 20
-138.9806640277548
 10
95.14940318801821
 20
-139.2762532203893
 10
95.2555121289639
 20
-139.5060410892554
 10
95.47530922092284
 20
-139.7392740536069
 10
95.03847111339316
 20
-140.0093695396504
 10
94.39320472900587
 20
-139.8977484459284
 10
93.89607745048431
 20
-139.7310058244423
 10
93.79582517186354
 20
-139.6968993791383
 10
93.57223847487083
 20
-139.5632296743106
 10
93.64492998960961
 20
-139.90670569419
 10
93.71486542796018
 20
-140.2395019180651
 10
94.11484101379769
 20
-140.5192436714674
 10
94.56235891733164
 20
-140.6880533502447
 10
95.36678871313747
 20
-140.9863986192673
 10
96.33003741081333
 20
-140.4951280030707
 10
96.99494083946655
 20
-139.7589110978728
 10
97.71909991046606
 20
-138.955859340261
 10
98.35678708478581
 20
-137.9605712545724
 10
99.07061086932957
 20
-137.3862738371812
 10
100.5802517109661
 20
-136.1732557168247
 10
102.2235622574302
 20
-136.3089924789436
 10
103.2812065714019
 20
-137.0676025047956
 10
103.1161864976585
 20
-137.0879285681586
 10
99.90673554359971
 20
-137.685997144398
 10
100.0814018847019
 20
-138.6761175868588
 10
100.2243733473397
 20
-139.0574896570759
 10
100.4862006042187
 20
-138.9648165885227
 10
100.7321804218656
 20
-139.2259548263046
 10
100.3585598164902
 20
-139.9663058460848
 10
100.4520941589148
 20
-140.6429225993879
 10
100.5888644496792
 20
-141.1121446044789
 10
100.5888644496792
 20
-141.1121446044789
 10
85.41838648038151
 20
-141.1121446044789
 10
85.41838648038151
 20
-141.1121446044789
 10
85.41149628941102
 20
-140.7934732720933
 10
85.39943845521265
 20
-140.47893605429
 10
85.39943845521265
 20
-140.154752569128
 10
85.39943845521265
 20
-131.046953634773
 10
88.01977808129367
 20
-123.9786512276859
 10
92.17456323650498
 20
-119.2035766303554
 10
92.43277314312445
 20
-119.687612546033
 10
92.94247502016717
 20
-120.0186862221655
 10
93.44907631127315
 20
-120.1366807425353
 10
91.46332327357514
 20
-121.5005940451457
 10
90.56346433282789
 20
-124.256325923797
 10
91.35842011604929
 20
-126.4053764874959
 10
91.70516897663968
 20
-127.3434759881294
 10
92.13925100778117
 20
-128.2777858837292
 10
92.07999536543487
 20
-129.1983153973879
 10
92.0638034166542
 20
-129.4439507054862
 10
92.18110891792695
 20
-129.3405978409288
 10
92.24570445827538
 20
-129.2830647463251
 10
93.21584334692174
 20
-128.4173122508818
 10
93.31265053005725
 20
-127.3758598856908
 10
93.36122637639929
 20
-126.5955457582817
 10
93.50161401742321
 20
-124.3028347128479
 10
92.8560031234874
 20
-123.1731879032345
 10
93.83751082723506
 20
-121.69110782548
 10
93.87075599866773
 20
-121.6411539409439
 10
93.88315834241463
 20
-121.6452880555262
 10
93.86334904337444
 20
-121.7004095832902
 10
93.46423473140825
 20
-122.8173095396082
 10
93.59945472920431
 20
-125.2443793089667
 10
94.95406627400455
 20
-126.8156873597891
 10
95.25361732644701
 20
-127.1632974942508
 10
95.29220239588182
 20
-126.985530567212
 10
95.21262069017254
 20
-126.6699598207631
 10
95.1264933030413
 20
-126.3282063486263
 10
95.32045217886086
 20
-125.7986951725434
 10
95.65273163841321
 20
-125.1410264444092
 10
96.29972057054313
 20
-123.8580728857022
 10
96.03220890611348
 20
-123.4560302425735
 10
96.34054495204335
 20
-121.8795545485232
 10
96.54053274496209
 20
-120.8644571637943
 10
96.90020071362218
 20
-120.1199720294318
 10
97.73064098034165
 20
-119.9701103758235
 10
97.32618677037333
 20
-120.4398491452373
 10
97.1522094483682
 20
-121.2292927756823
 10
97.56183130156441
 20
-122.3815049607241
 10
97.86775578065459
 20
-123.2369221697116
 10
98.48408336296579
 20
-124.0530652901673
 10
99.29109698038556
 20
-124.655267980989
 10
100.8732570819866
 20
-125.8362467133326
 10
104.4902628319504
 20
-126.2427679805921
 10
106.8160467940425
 20
-122.9172173086804
 10
108.0948662381673
 20
-121.090627682401
 10
108.5253309190492
 20
-118.7620876439206
 10
108.0931436904246
 20
-117.1284233648151
 10
108.0376776531121
 20
-116.9210286166031
 10
108.1043402507517
 20
-116.9802842589494
 10
108.2188896756362
 20
-117.0481526400088
 10
108.9277180717264
 20
-117.4656982128211
 10
109.7779676374861
 20
-117.8012505130844
 10
110.38430444289
 20
-117.7699001441686
 10
110.9555012743445
 20
-117.7402723229955
 10
110.9651475417032
 20
-117.4216009906099
 10
110.6289062223428
 20
-116.8486816114128
 10
112.142336669013
 20
-116.5699733866561
 10
114.9841959347956
 20
-114.864995631006
 10
114.3537434609949
 20
-114.1801106485383
 10
112.3170030101152
 20
-115.3273274451265
 10
110.4132432449661
 20
-115.1660969764168
 10
106.9307684737013
 20
-114.2793293985135
 10
104.5514132768135
 20
-113.6884955227932
 10
102.9995700154827
 20
-113.1610514040014
 10
101.4246446144008
 20
-113.0284152278193
 10
103.4824001477405
 20
-112.362822780069
 10
105.6538438320935
 20
-112.0207247983837
 10
107.8890217829236
 20
-112.0207247983837
 10
120.0598551132142
 20
-112.0207247983837
 10
130.3786051106345
 20
-122.0748914625368
 10
130.3786051106345
 20
-140.154752569128
 10
130.3786051106345
 20
-140.47893605429
 10
130.3665472764361
 20
-140.7934732720933
 10
130.3596570854656
 20
-141.1121446044789
 97
        0
 75
     2
 76
     1
 98
        0
  0
SPLINE
  5
46
330
3C
100
AcDbEntity
  8
Layer 1
370
     0
100
AcDbSpline
210
0.0
220
0.0
230
1.0
 70
    11
 71
     3
 72
    26
 73
    22
 74
     0
 42
0.0000000001
 43
0.0000000001
 40
0.0
 40
0.0
 40
0.0
 40
0.0
 40
1.0
 40
1.0
 40
1.0
 40
2.0
 40
2.0
 40
2.0
 40
3.0
 40
3.0
 40
3.0
 40
4.0
 40
4.0
 40
4.0
 40
5.0
 40
5.0
 40
5.0
 40
6.0
 40
6.0
 40
6.0
 40
7.0
 40
7.0
 40
7.0
 40
7.0
 10
73.43462183493996
 20
-154.7182047139246
 30
0.0
 10
73.43462183493996
 20
-154.7182047139246
 30
0.0
 10
80.06866995611131
 20
-154.7182047139246
 30
0.0
 10
80.06866995611131
 20
-154.7182047139246
 30
0.0
 10
84.77088078392882
 20
-164.1512206620872
 30
0.0
 10
94.16703421039922
 20
-171.7283636723457
 30
0.0
 10
107.8890217829236
 20
-171.7283636723457
 30
0.0
 10
121.6111816102222
 20
-171.7283636723457
 30
0.0
 10
131.0073350366926
 20
-164.1512206620872
 30
0.0
 10
135.7092013549616
 20
-154.7182047139246
 30
0.0
 10
135.7092013549616
 20
-154.7182047139246
 30
0.0
 10
142.3434217309072
 20
-154.7182047139246
 30
0.0
 10
142.3434217309072
 20
-154.7182047139246
 30
0.0
 10
142.3434217309072
 20
-154.7182047139246
 30
0.0
 10
142.3434217309072
 20
-153.1065890459247
 30
0.0
 10
142.3434217309072
 20
-153.1065890459247
 30
0.0
 10
142.3434217309072
 20
-153.1065890459247
 30
0.0
 10
73.43462183493996
 20
-153.1065890459247
 30
0.0
 10
73.43462183493996
 20
-153.1065890459247
 30
0.0
 10
73.43462183493996
 20
-153.1065890459247
 30
0.0
 10
73.43462183493996
 20
-154.7182047139246
 30
0.0
 10
73.43462183493996
 20
-154.7182047139246
 30
0.0
  0
SPLINE
  5
47
330
3C
100
AcDbEntity
  8
Layer 1
370
     0
100
AcDbSpline
210
0.0
220
0.0
230
1.0
 70
    11
 71
     3
 72
   101
 73
    97
 74
     0
 42
0.0000000001
 43
0.0000000001
 40
0.0
 40
0.0
 40
0.0
 40
0.0
 40
1.0
 40
1.0
 40
1.0
 40
2.0
 40
2.0
 40
2.0
 40
3.0
 40
3.0
 40
3.0
 40
4.0
 40
4.0
 40
4.0
 40
5.0
 40
5.0
 40
5.0
 40
6.0
 40
6.0
 40
6.0
 40
7.0
 40
7.0
 40
7.0
 40
8.0
 40
8.0
 40
8.0
 40
9.0
 40
9.0
 40
9.0
 40
10.0
 40
10.0
 40
10.0
 40
11.0
 40
11.0
 40
11.0
 40
12.0
 40
12.0
 40
12.0
 40
13.0
 40
13.0
 40
13.0
 40
14.0
 40
14.0
 40
14.0
 40
15.0
 40
15.0
 40
15.0
 40
16.0
 40
16.0
 40
16.0
 40
17.0
 40
17.0
 40
17.0
 40
18.0
 40
18.0
 40
18.0
 40
19.0
 40
19.0
 40
19.0
 40
20.0
 40
20.0
 40
20.0
 40
21.0
 40
21.0
 40
21.0
 40
22.0
 40
22.0
 40
22.0
 40
23.0
 40
23.0
 40
23.0
 40
24.0
 40
24.0
 40
24.0
 40
25.0
 40
25.0
 40
25.0
 40
26.0
 40
26.0
 40
26.0
 40
27.0
 40
27.0
 40
27.0
 40
28.0
 40
28.0
 40
28.0
 40
29.0
 40
29.0
 40
29.0
 40
30.0
 40
30.0
 40
30.0
 40
31.0
 40
31.0
 40
31.0
 40
32.0
 40
32.0
 40
32.0
 40
32.0
 10
98.47857121018939
 20
-154.7182047139246
 30
0.0
 10
99.75721839953987
 20
-157.7309407157756
 30
0.0
 10
104.6578667273078
 20
-157.5993380682391
 30
0.0
 10
106.0279812017916
 20
-154.7182047139246
 30
0.0
 10
106.0279812017916
 20
-154.7182047139246
 30
0.0
 10
106.8448133413444
 20
-154.7182047139246
 30
0.0
 10
106.8448133413444
 20
-154.7182047139246
 30
0.0
 10
105.813007243512
 20
-156.6719183636098
 30
0.0
 10
104.0491183550641
 20
-157.4353515231412
 30
0.0
 10
101.9045464154961
 20
-157.4353515231412
 30
0.0
 10
101.5751952871062
 20
-157.4353515231412
 30
0.0
 10
101.531098064895
 20
-157.5641980942895
 30
0.0
 10
101.8656168365128
 20
-157.7026909327965
 30
0.0
 10
103.0317816582698
 20
-158.1843152816345
 30
0.0
 10
104.5634711110119
 20
-158.1960286062843
 30
0.0
 10
106.0624321566441
 20
-157.6151855074712
 30
0.0
 10
106.2937703184786
 20
-158.1891384153138
 30
0.0
 10
106.7411159672383
 20
-158.7799722910342
 30
0.0
 10
107.2780340986145
 20
-159.2095756980448
 30
0.0
 10
107.0008761668262
 20
-159.5713107239961
 30
0.0
 10
107.1319620500399
 20
-160.1711018479781
 30
0.0
 10
107.6640570477368
 20
-160.2286349425817
 30
0.0
 10
107.6640570477368
 20
-160.2286349425817
 30
0.0
 10
107.6640570477368
 20
-160.7950086403568
 30
0.0
 10
107.6640570477368
 20
-160.7950086403568
 30
0.0
 10
106.4134873865911
 20
-160.6744302983731
 30
0.0
 10
106.0648437234838
 20
-158.8822916269461
 30
0.0
 10
104.9827392315668
 20
-158.963595880398
 30
0.0
 10
104.1455810286511
 20
-159.0021809498328
 30
0.0
 10
103.6215820053446
 20
-160.2927137186074
 30
0.0
 10
102.3710123441989
 20
-161.1036891958352
 30
0.0
 10
103.5388997136986
 20
-161.7479220515769
 30
0.0
 10
103.8934000391308
 20
-163.3616047768679
 30
0.0
 10
104.9372639711615
 20
-163.3616047768679
 30
0.0
 10
106.0245361063064
 20
-163.3223306883361
 30
0.0
 10
106.2312418354214
 20
-162.0690049508022
 30
0.0
 10
107.4838785538582
 20
-161.625276652302
 30
0.0
 10
107.5283202856179
 20
-162.3949109837068
 30
0.0
 10
105.5263752991392
 20
-163.280300523416
 30
0.0
 10
105.5263752991392
 20
-164.3710177540461
 30
0.0
 10
105.5263752991392
 20
-165.2192002625146
 30
0.0
 10
106.9836506893999
 20
-165.9068413213705
 30
0.0
 10
107.8197753636701
 20
-166.5910372847411
 30
0.0
 10
108.5670165744207
 20
-165.8262260870157
 30
0.0
 10
110.197924777138
 20
-165.4231499152415
 30
0.0
 10
110.197924777138
 20
-164.4158039953544
 30
0.0
 10
110.197924777138
 20
-163.280300523416
 30
0.0
 10
108.5670165744207
 20
-162.8772243516418
 30
0.0
 10
108.1959797906593
 20
-161.7052028675598
 30
0.0
 10
109.4455159231595
 20
-162.1503092042541
 30
0.0
 10
109.8609944386806
 20
-163.4842501761428
 30
0.0
 10
111.07332353994
 20
-163.4435980494169
 30
0.0
 10
112.1161539433251
 20
-163.4043239608851
 30
0.0
 10
112.4468831099091
 20
-161.9883897164474
 30
0.0
 10
113.451472953408
 20
-161.266297702739
 30
0.0
 10
112.362133760972
 20
-160.5386935362542
 30
0.0
 10
112.0324381230336
 20
-159.1227592918165
 30
0.0
 10
110.8655842821794
 20
-159.0414550383646
 30
0.0
 10
109.777278618389
 20
-158.963595880398
 30
0.0
 10
109.2908311358717
 20
-160.4284504807262
 30
0.0
 10
108.1632513835495
 20
-160.8749348556146
 30
0.0
 10
108.1632513835495
 20
-160.8749348556146
 30
0.0
 10
108.1632513835495
 20
-160.2286349425817
 30
0.0
 10
108.1632513835495
 20
-160.2286349425817
 30
0.0
 10
108.6417751464507
 20
-160.0653374165809
 30
0.0
 10
108.7761338703754
 20
-159.5213568394599
 30
0.0
 10
108.5112060275597
 20
-159.1937282588127
 30
0.0
 10
109.0434732800308
 20
-158.7644693613506
 30
0.0
 10
109.4851345212398
 20
-158.178114109761
 30
0.0
 10
109.7159559187516
 20
-157.6089843355978
 30
0.0
 10
111.2142279452867
 20
-158.1898274344109
 30
0.0
 10
112.7462619075773
 20
-158.178114109761
 30
0.0
 10
113.9127712388829
 20
-157.6964897609231
 30
0.0
 10
114.2462564818551
 20
-157.557307903319
 30
0.0
 10
114.2018147500954
 20
-157.4305283894618
 30
0.0
 10
113.8741861694481
 20
-157.4305283894618
 30
0.0
 10
111.8198757315936
 20
-157.4305283894618
 30
0.0
 10
109.8013942867858
 20
-156.6729518922554
 30
0.0
 10
108.8092067870338
 20
-154.7182047139246
 30
0.0
 10
108.8092067870338
 20
-154.7182047139246
 30
0.0
 10
109.7521294213467
 20
-154.7182047139246
 30
0.0
 10
109.7521294213467
 20
-154.7182047139246
 30
0.0
 10
111.1249999722188
 20
-157.5907253295259
 30
0.0
 10
116.0149685039824
 20
-157.722672486611
 30
0.0
 10
117.2975775531409
 20
-154.7182047139246
 30
0.0
 10
117.2975775531409
 20
-154.7182047139246
 30
0.0
 10
127.59324541081
 20
-154.7182047139246
 30
0.0
 10
127.59324541081
 20
-154.7182047139246
 30
0.0
 10
123.7237141617774
 20
-163.542127780295
 30
0.0
 10
116.2457899014941
 20
-168.2887803398723
 30
0.0
 10
107.8890217829236
 20
-168.2887803398723
 30
0.0
 10
99.5320814095788
 20
-168.2887803398723
 30
0.0
 10
92.05415714929549
 20
-163.542127780295
 30
0.0
 10
88.18479815503714
 20
-154.7182047139246
 30
0.0
 10
88.18479815503714
 20
-154.7182047139246
 30
0.0
 10
98.47857121018939
 20
-154.7182047139246
 30
0.0
 10
98.47857121018939
 20
-154.7182047139246
 30
0.0
  0
HATCH
  5
48
330
3C
100
AcDbEntity
  8
Layer 1
 62
   250
420
  2301728
100
AcDbHatch
 10
0.0
 20
0.0
 30
0.0
210
0.0
220
0.0
230
1.0
  2
SOLID
 70
     1
 71
     0
 91
        2
 92
        1
 93
        1
 72
     4
 94
        3
 73
     0
 74
     1
 95
       26
 96
       22
 40
0.0
 40
0.0
 40
0.0
 40
0.0
 40
1.0
 40
1.0
 40
1.0
 40
2.0
 40
2.0
 40
2.0
 40
3.0
 40
3.0
 40
3.0
 40
4.0
 40
4.0
 40
4.0
 40
5.0
 40
5.0
 40
5.0
 40
6.0
 40
6.0
 40
6.0
 40
7.0
 40
7.0
 40
7.0
 40
7.0
 10
73.43462183493996
 20
-154.7182047139246
 10
73.43462183493996
 20
-154.7182047139246
 10
80.06866995611131
 20
-154.7182047139246
 10
80.06866995611131
 20
-154.7182047139246
 10
84.77088078392882
 20
-164.1512206620872
 10
94.16703421039922
 20
-171.7283636723457
 10
107.8890217829236
 20
-171.7283636723457
 10
121.6111816102222
 20
-171.7283636723457
 10
131.0073350366926
 20
-164.1512206620872
 10
135.7092013549616
 20
-154.7182047139246
 10
135.7092013549616
 20
-154.7182047139246
 10
142.3434217309072
 20
-154.7182047139246
 10
142.3434217309072
 20
-154.7182047139246
 10
142.3434217309072
 20
-154.7182047139246
 10
142.3434217309072
 20
-153.1065890459247
 10
142.3434217309072
 20
-153.1065890459247
 10
142.3434217309072
 20
-153.1065890459247
 10
73.43462183493996
 20
-153.1065890459247
 10
73.43462183493996
 20
-153.1065890459247
 10
73.43462183493996
 20
-153.1065890459247
 10
73.43462183493996
 20
-154.7182047139246
 10
73.43462183493996
 20
-154.7182047139246
 97
        0
 92
        1
 93
        1
 72
     4
 94
        3
 73
     0
 74
     1
 95
      101
 96
       97
 40
0.0
 40
0.0
 40
0.0
 40
0.0
 40
1.0
 40
1.0
 40
1.0
 40
2.0
 40
2.0
 40
2.0
 40
3.0
 40
3.0
 40
3.0
 40
4.0
 40
4.0
 40
4.0
 40
5.0
 40
5.0
 40
5.0
 40
6.0
 40
6.0
 40
6.0
 40
7.0
 40
7.0
 40
7.0
 40
8.0
 40
8.0
 40
8.0
 40
9.0
 40
9.0
 40
9.0
 40
10.0
 40
10.0
 40
10.0
 40
11.0
 40
11.0
 40
11.0
 40
12.0
 40
12.0
 40
12.0
 40
13.0
 40
13.0
 40
13.0
 40
14.0
 40
14.0
 40
14.0
 40
15.0
 40
15.0
 40
15.0
 40
16.0
 40
16.0
 40
16.0
 40
17.0
 40
17.0
 40
17.0
 40
18.0
 40
18.0
 40
18.0
 40
19.0
 40
19.0
 40
19.0
 40
20.0
 40
20.0
 40
20.0
 40
21.0
 40
21.0
 40
21.0
 40
22.0
 40
22.0
 40
22.0
 40
23.0
 40
23.0
 40
23.0
 40
24.0
 40
24.0
 40
24.0
 40
25.0
 40
25.0
 40
25.0
 40
26.0
 40
26.0
 40
26.0
 40
27.0
 40
27.0
 40
27.0
 40
28.0
 40
28.0
 40
28.0
 40
29.0
 40
29.0
 40
29.0
 40
30.0
 40
30.0
 40
30.0
 40
31.0
 40
31.0
 40
31.0
 40
32.0
 40
32.0
 40
32.0
 40
32.0
 10
98.47857121018939
 20
-154.7182047139246
 10
99.75721839953987
 20
-157.7309407157756
 10
104.6578667273078
 20
-157.5993380682391
 10
106.0279812017916
 20
-154.7182047139246
 10
106.0279812017916
 20
-154.7182047139246
 10
106.8448133413444
 20
-154.7182047139246
 10
106.8448133413444
 20
-154.7182047139246
 10
105.813007243512
 20
-156.6719183636098
 10
104.0491183550641
 20
-157.4353515231412
 10
101.9045464154961
 20
-157.4353515231412
 10
101.5751952871062
 20
-157.4353515231412
 10
101.531098064895
 20
-157.5641980942895
 10
101.8656168365128
 20
-157.7026909327965
 10
103.0317816582698
 20
-158.1843152816345
 10
104.5634711110119
 20
-158.1960286062843
 10
106.0624321566441
 20
-157.6151855074712
 10
106.2937703184786
 20
-158.1891384153138
 10
106.7411159672383
 20
-158.7799722910342
 10
107.2780340986145
 20
-159.2095756980448
 10
107.0008761668262
 20
-159.5713107239961
 10
107.1319620500399
 20
-160.1711018479781
 10
107.6640570477368
 20
-160.2286349425817
 10
107.6640570477368
 20
-160.2286349425817
 10
107.6640570477368
 20
-160.7950086403568
 10
107.6640570477368
 20
-160.7950086403568
 10
106.4134873865911
 20
-160.6744302983731
 10
106.0648437234838
 20
-158.8822916269461
 10
104.9827392315668
 20
-158.963595880398
 10
104.1455810286511
 20
-159.0021809498328
 10
103.6215820053446
 20
-160.2927137186074
 10
102.3710123441989
 20
-161.1036891958352
 10
103.5388997136986
 20
-161.7479220515769
 10
103.8934000391308
 20
-163.3616047768679
 10
104.9372639711615
 20
-163.3616047768679
 10
106.0245361063064
 20
-163.3223306883361
 10
106.2312418354214
 20
-162.0690049508022
 10
107.4838785538582
 20
-161.625276652302
 10
107.5283202856179
 20
-162.3949109837068
 10
105.5263752991392
 20
-163.280300523416
 10
105.5263752991392
 20
-164.3710177540461
 10
105.5263752991392
 20
-165.2192002625146
 10
106.9836506893999
 20
-165.9068413213705
 10
107.8197753636701
 20
-166.5910372847411
 10
108.5670165744207
 20
-165.8262260870157
 10
110.197924777138
 20
-165.4231499152415
 10
110.197924777138
 20
-164.4158039953544
 10
110.197924777138
 20
-163.280300523416
 10
108.5670165744207
 20
-162.8772243516418
 10
108.1959797906593
 20
-161.7052028675598
 10
109.4455159231595
 20
-162.1503092042541
 10
109.8609944386806
 20
-163.4842501761428
 10
111.07332353994
 20
-163.4435980494169
 10
112.1161539433251
 20
-163.4043239608851
 10
112.4468831099091
 20
-161.9883897164474
 10
113.451472953408
 20
-161.266297702739
 10
112.362133760972
 20
-160.5386935362542
 10
112.0324381230336
 20
-159.1227592918165
 10
110.8655842821794
 20
-159.0414550383646
 10
109.777278618389
 20
-158.963595880398
 10
109.2908311358717
 20
-160.4284504807262
 10
108.1632513835495
 20
-160.8749348556146
 10
108.1632513835495
 20
-160.8749348556146
 10
108.1632513835495
 20
-160.2286349425817
 10
108.1632513835495
 20
-160.2286349425817
 10
108.6417751464507
 20
-160.0653374165809
 10
108.7761338703754
 20
-159.5213568394599
 10
108.5112060275597
 20
-159.1937282588127
 10
109.0434732800308
 20
-158.7644693613506
 10
109.4851345212398
 20
-158.178114109761
 10
109.7159559187516
 20
-157.6089843355978
 10
111.2142279452867
 20
-158.1898274344109
 10
112.7462619075773
 20
-158.178114109761
 10
113.9127712388829
 20
-157.6964897609231
 10
114.2462564818551
 20
-157.557307903319
 10
114.2018147500954
 20
-157.4305283894618
 10
113.8741861694481
 20
-157.4305283894618
 10
111.8198757315936
 20
-157.4305283894618
 10
109.8013942867858
 20
-156.6729518922554
 10
108.8092067870338
 20
-154.7182047139246
 10
108.8092067870338
 20
-154.7182047139246
 10
109.7521294213467
 20
-154.7182047139246
 10
109.7521294213467
 20
-154.7182047139246
 10
111.1249999722188
 20
-157.5907253295259
 10
116.0149685039824
 20
-157.722672486611
 10
117.2975775531409
 20
-154.7182047139246
 10
117.2975775531409
 20
-154.7182047139246
 10
127.59324541081
 20
-154.7182047139246
 10
127.59324541081
 20
-154.7182047139246
 10
123.7237141617774
 20
-163.542127780295
 10
116.2457899014941
 20
-168.2887803398723
 10
107.8890217829236
 20
-168.2887803398723
 10
99.5320814095788
 20
-168.2887803398723
 10
92.05415714929549
 20
-163.542127780295
 10
88.18479815503714
 20
-154.7182047139246
 10
88.18479815503714
 20
-154.7182047139246
 10
98.47857121018939
 20
-154.7182047139246
 10
98.47857121018939
 20
-154.7182047139246
 97
        0
 75
     2
 76
     1
 98
        0
  0
ENDBLK
  5
3F
330
3C
100
AcDbEntity
  8
0
100
AcDbBlockEnd
  0
ENDSEC
  0
SECTION
  2
ENTITIES
  0
INSERT
  5
3D
330
1F
100
AcDbEntity
  8
Layer 1
100
AcDbBlockReference
  2
block 2
 10
0.0
 20
0.0
 30
0.0
  0
ENDSEC
  0
SECTION
  2
OBJECTS
  0
DICTIONARY
  5
C
330
0
100
AcDbDictionary
281
     1
  3
ACAD_GROUP
350
D
  3
ACAD_LAYOUT
350
1A
  3
ACAD_MLINESTYLE
350
17
  3
ACAD_PLOTSETTINGS
350
19
  3
ACAD_PLOTSTYLENAME
350
E
  3
ACAD_TABLESTYLE
350
49
  3
ACAD_VISUALSTYLE
350
2A
  0
DICTIONARY
  5
D
102
{ACAD_REACTORS
330
C
102
}
330
C
100
AcDbDictionary
281
     1
  0
DICTIONARY
  5
1A
102
{ACAD_REACTORS
330
C
102
}
330
C
100
AcDbDictionary
281
     1
  3
Layout1
350
1E
  3
Layout2
350
26
  3
Model
350
22
  0
DICTIONARY
  5
17
102
{ACAD_REACTORS
330
C
102
}
330
C
100
AcDbDictionary
281
     1
  3
Standard
350
18
  0
DICTIONARY
  5
19
102
{ACAD_REACTORS
330
C
102
}
330
C
100
AcDbDictionary
281
     1
  0
ACDBDICTIONARYWDFLT
  5
E
102
{ACAD_REACTORS
330
C
102
}
330
C
100
AcDbDictionary
281
     1
  3
Normal
350
F
100
AcDbDictionaryWithDefault
340
F
  0
DICTIONARY
  5
49
102
{ACAD_REACTORS
330
C
102
}
330
C
100
AcDbDictionary
281
     1
  0
DICTIONARY
  5
2A
102
{ACAD_REACTORS
330
C
102
}
330
C
100
AcDbDictionary
281
     1
  3
2dWireframe
350
2F
  3
3D Hidden
350
31
  3
3dWireframe
350
30
  3
Basic
350
32
  3
Brighten
350
36
  3
ColorChange
350
3A
  3
Conceptual
350
34
  3
Dim
350
35
  3
Facepattern
350
39
  3
Flat
350
2B
  3
FlatWithEdges
350
2C
  3
Gouraud
350
2D
  3
GouraudWithEdges
350
2E
  3
Linepattern
350
38
  3
Realistic
350
33
  3
Thicken
350
37
  0
LAYOUT
  5
1E
102
{ACAD_REACTORS
330
1A
102
}
330
1A
100
AcDbPlotSettings
  1

  2
none_device
  4

  6

 40
0.0
 41
0.0
 42
0.0
 43
0.0
 44
0.0
 45
0.0
 46
0.0
 47
0.0
 48
0.0
 49
0.0
140
0.0
141
0.0
142
1.0
143
1.0
 70
   688
 72
     0
 73
     0
 74
     5
  7

 75
    16
 76
     0
 77
     2
 78
   300
147
1.0
148
0.0
149
0.0
100
AcDbLayout
  1
Layout1
 70
     1
 71
     1
 10
0.0
 20
0.0
 11
12.0
 21
9.0
 12
0.0
 22
0.0
 32
0.0
 14
1.000000000000000E+20
 24
1.000000000000000E+20
 34
1.000000000000000E+20
 15
-1.000000000000000E+20
 25
-1.000000000000000E+20
 35
-1.000000000000000E+20
146
0.0
 13
0.0
 23
0.0
 33
0.0
 16
1.0
 26
0.0
 36
0.0
 17
0.0
 27
1.0
 37
0.0
 76
     0
330
1B
  0
LAYOUT
  5
26
102
{ACAD_REACTORS
330
1A
102
}
330
1A
100
AcDbPlotSettings
  1

  2
none_device
  4

  6

 40
0.0
 41
0.0
 42
0.0
 43
0.0
 44
0.0
 45
0.0
 46
0.0
 47
0.0
 48
0.0
 49
0.0
140
0.0
141
0.0
142
1.0
143
1.0
 70
   688
 72
     0
 73
     0
 74
     5
  7

 75
    16
 76
     0
 77
     2
 78
   300
147
1.0
148
0.0
149
0.0
100
AcDbLayout
  1
Layout2
 70
     1
 71
     2
 10
0.0
 20
0.0
 11
0.0
 21
0.0
 12
0.0
 22
0.0
 32
0.0
 14
0.0
 24
0.0
 34
0.0
 15
0.0
 25
0.0
 35
0.0
146
0.0
 13
0.0
 23
0.0
 33
0.0
 16
1.0
 26
0.0
 36
0.0
 17
0.0
 27
1.0
 37
0.0
 76
     0
330
23
  0
LAYOUT
  5
22
102
{ACAD_REACTORS
330
1A
102
}
330
1A
100
AcDbPlotSettings
  1

  2
none_device
  4

  6

 40
0.0
 41
0.0
 42
0.0
 43
0.0
 44
0.0
 45
0.0
 46
0.0
 47
0.0
 48
0.0
 49
0.0
140
0.0
141
0.0
142
1.0
143
1.0
 70
  1712
 72
     0
 73
     0
 74
     0
  7

 75
     0
 76
     0
 77
     2
 78
   300
147
1.0
148
0.0
149
0.0
100
AcDbLayout
  1
Model
 70
     1
 71
     0
 10
0.0
 20
0.0
 11
12.0
 21
9.0
 12
0.0
 22
0.0
 32
0.0
 14
1.000000000000000E+20
 24
1.000000000000000E+20
 34
1.000000000000000E+20
 15
-1.000000000000000E+20
 25
-1.000000000000000E+20
 35
-1.000000000000000E+20
146
0.0
 13
0.0
 23
0.0
 33
0.0
 16
1.0
 26
0.0
 36
0.0
 17
0.0
 27
1.0
 37
0.0
 76
     0
330
1F
331
29
  0
MLINESTYLE
  5
18
102
{ACAD_REACTORS
330
17
102
}
330
17
100
AcDbMlineStyle
  2
Standard
 70
     0
  3

 62
   256
 51
90.0
 52
90.0
 71
     2
 49
0.5
 62
   256
  6
BYLAYER
 49
-0.5
 62
   256
  6
BYLAYER
  0
ACDBPLACEHOLDER
  5
F
102
{ACAD_REACTORS
330
E
102
}
330
E
  0
VISUALSTYLE
  5
2F
102
{ACAD_REACTORS
330
2A
102
}
330
2A
100
AcDbVisualStyle
  2
2dWireframe
 70
     4
 71
     0
 72
     2
 73
     0
 90
        0
 40
-0.6
 41
-30.0
 62
     5
 63
     7
421
 16777215
 74
     1
 91
        4
 64
     7
 65
   257
 75
     1
175
     1
 42
1.0
 92
        0
 66
   257
 43
1.0
 76
     1
 77
     6
 78
     2
 67
     7
 79
     5
170
     0
171
     0
290
     0
174
     0
 93
        1
 44
0.0
173
     0
291
     0
 45
0.0
1001
ACAD
1000
AcDbSavedByObjectVersion
1070
     0
  0
VISUALSTYLE
  5
31
102
{ACAD_REACTORS
330
2A
102
}
330
2A
100
AcDbVisualStyle
  2
3D Hidden
 70
     6
 71
     1
 72
     2
 73
     2
 90
        0
 40
-0.6
 41
-30.0
 62
     5
 63
     7
421
 16777215
 74
     2
 91
        2
 64
     7
 65
   257
 75
     2
175
     1
 42
40.0
 92
        0
 66
   257
 43
1.0
 76
     1
 77
     6
 78
     2
 67
     7
 79
     3
170
     0
171
     0
290
     0
174
     0
 93
        1
 44
0.0
173
     0
291
     0
 45
0.0
1001
ACAD
1000
AcDbSavedByObjectVersion
1070
     0
  0
VISUALSTYLE
  5
30
102
{ACAD_REACTORS
330
2A
102
}
330
2A
100
AcDbVisualStyle
  2
3dWireframe
 70
     5
 71
     0
 72
     2
 73
     0
 90
        0
 40
-0.6
 41
-30.0
 62
     5
 63
     7
421
 16777215
 74
     1
 91
        4
 64
     7
 65
   257
 75
     1
175
     1
 42
1.0
 92
        0
 66
   257
 43
1.0
 76
     1
 77
     6
 78
     2
 67
     7
 79
     5
170
     0
171
     0
290
     0
174
     0
 93
        1
 44
0.0
173
     0
291
     0
 45
0.0
1001
ACAD
1000
AcDbSavedByObjectVersion
1070
     0
  0
VISUALSTYLE
  5
32
102
{ACAD_REACTORS
330
2A
102
}
330
2A
100
AcDbVisualStyle
  2
Basic
 70
     7
 71
     1
 72
     0
 73
     1
 90
        0
 40
-0.6
 41
-30.0
 62
     5
 63
     7
421
 16777215
 74
     0
 91
        4
 64
     7
 65
   257
 75
     1
175
     1
 42
1.0
 92
        8
 66
     7
 43
1.0
 76
     1
 77
     6
 78
     2
 67
     7
 79
     5
170
     0
171
     0
290
     0
174
     0
 93
        1
 44
0.0
173
     0
291
     1
 45
0.0
1001
ACAD
1000
AcDbSavedByObjectVersion
1070
     0
  0
VISUALSTYLE
  5
36
102
{ACAD_REACTORS
330
2A
102
}
330
2A
100
AcDbVisualStyle
  2
Brighten
 70
    12
 71
     2
 72
     2
 73
     0
 90
        0
 40
-0.6
 41
-30.0
 62
     5
 63
     7
421
 16777215
 74
     1
 91
        4
 64
     7
 65
   257
 75
     1
175
     1
 42
1.0
 92
        8
 66
     7
 43
1.0
 76
     1
 77
     6
 78
     2
 67
     7
 79
     5
170
     0
171
     0
290
     0
174
     0
 93
        1
 44
50.0
173
     0
291
     1
 45
0.0
1001
ACAD
1000
AcDbSavedByObjectVersion
1070
     0
  0
VISUALSTYLE
  5
3A
102
{ACAD_REACTORS
330
2A
102
}
330
2A
100
AcDbVisualStyle
  2
ColorChange
 70
    16
 71
     2
 72
     2
 73
     3
 90
        0
 40
-0.6
 41
-30.0
 62
     5
 63
     8
421
  8421504
 74
     1
 91
        4
 64
     7
 65
   257
 75
     1
175
     1
 42
1.0
 92
        8
 66
     8
424
  8421504
 43
1.0
 76
     1
 77
     6
 78
     2
 67
     7
 79
     5
170
     0
171
     0
290
     0
174
     0
 93
        1
 44
0.0
173
     0
291
     1
 45
0.0
1001
ACAD
1000
AcDbSavedByObjectVersion
1070
     0
  0
VISUALSTYLE
  5
34
102
{ACAD_REACTORS
330
2A
102
}
330
2A
100
AcDbVisualStyle
  2
Conceptual
 70
     9
 71
     3
 72
     2
 73
     0
 90
        0
 40
-0.6
 41
-30.0
 62
     5
 63
     7
421
 16777215
 74
     2
 91
        2
 64
     7
 65
   257
 75
     1
175
     1
 42
40.0
 92
        8
 66
     7
 43
1.0
 76
     1
 77
     6
 78
     2
 67
     7
 79
     3
170
     0
171
     0
290
     0
174
     0
 93
        1
 44
0.0
173
     0
291
     0
 45
0.0
1001
ACAD
1000
AcDbSavedByObjectVersion
1070
     0
  0
VISUALSTYLE
  5
35
102
{ACAD_REACTORS
330
2A
102
}
330
2A
100
AcDbVisualStyle
  2
Dim
 70
    11
 71
     2
 72
     2
 73
     0
 90
        0
 40
-0.6
 41
-30.0
 62
     5
 63
     7
421
 16777215
 74
     1
 91
        4
 64
     7
 65
   257
 75
     1
175
     1
 42
1.0
 92
        8
 66
     7
 43
1.0
 76
     1
 77
     6
 78
     2
 67
     7
 79
     5
170
     0
171
     0
290
     0
174
     0
 93
        1
 44
-50.0
173
     0
291
     1
 45
0.0
1001
ACAD
1000
AcDbSavedByObjectVersion
1070
     0
  0
VISUALSTYLE
  5
39
102
{ACAD_REACTORS
330
2A
102
}
330
2A
100
AcDbVisualStyle
  2
Facepattern
 70
    15
 71
     2
 72
     2
 73
     0
 90
        0
 40
-0.6
 41
-30.0
 62
     5
 63
     7
421
 16777215
 74
     1
 91
        4
 64
     7
 65
   257
 75
     1
175
     1
 42
1.0
 92
        8
 66
     7
 43
1.0
 76
     1
 77
     6
 78
     2
 67
     7
 79
     5
170
     0
171
     0
290
     0
174
     0
 93
        1
 44
0.0
173
     0
291
     1
 45
0.0
1001
ACAD
1000
AcDbSavedByObjectVersion
1070
     0
  0
VISUALSTYLE
  5
2B
102
{ACAD_REACTORS
330
2A
102
}
330
2A
100
AcDbVisualStyle
  2
Flat
 70
     0
 71
     2
 72
     1
 73
     1
 90
        2
 40
-0.6
 41
30.0
 62
     5
 63
     7
421
 16777215
 74
     0
 91
        4
 64
     7
 65
   257
 75
     1
175
     1
 42
1.0
 92
        8
 66
     7
 43
1.0
 76
     1
 77
     6
 78
     2
 67
     7
 79
     5
170
     0
171
     0
290
     0
174
     0
 93
       13
 44
0.0
173
     0
291
     1
 45
0.0
1001
ACAD
1000
AcDbSavedByObjectVersion
1070
     0
  0
VISUALSTYLE
  5
2C
102
{ACAD_REACTORS
330
2A
102
}
330
2A
100
AcDbVisualStyle
  2
FlatWithEdges
 70
     1
 71
     2
 72
     1
 73
     1
 90
        2
 40
-0.6
 41
30.0
 62
     5
 63
     7
421
 16777215
 74
     1
 91
        4
 64
     7
 65
   257
 75
     1
175
     1
 42
1.0
 92
        0
 66
   257
 43
1.0
 76
     1
 77
     6
 78
     2
 67
     7
 79
     5
170
     0
171
     0
290
     0
174
     0
 93
       13
 44
0.0
173
     0
291
     1
 45
0.0
1001
ACAD
1000
AcDbSavedByObjectVersion
1070
     0
  0
VISUALSTYLE
  5
2D
102
{ACAD_REACTORS
330
2A
102
}
330
2A
100
AcDbVisualStyle
  2
Gouraud
 70
     2
 71
     2
 72
     2
 73
     1
 90
        2
 40
-0.6
 41
30.0
 62
     5
 63
     7
421
 16777215
 74
     0
 91
        4
 64
     7
 65
   257
 75
     1
175
     1
 42
1.0
 92
        0
 66
     7
 43
1.0
 76
     1
 77
     6
 78
     2
 67
     7
 79
     5
170
     0
171
     0
290
     0
174
     0
 93
       13
 44
0.0
173
     0
291
     1
 45
0.0
1001
ACAD
1000
AcDbSavedByObjectVersion
1070
     0
  0
VISUALSTYLE
  5
2E
102
{ACAD_REACTORS
330
2A
102
}
330
2A
100
AcDbVisualStyle
  2
GouraudWithEdges
 70
     3
 71
     2
 72
     2
 73
     1
 90
        2
 40
-0.6
 41
30.0
 62
     5
 63
     7
421
 16777215
 74
     1
 91
        4
 64
     7
 65
   257
 75
     1
175
     1
 42
1.0
 92
        0
 66
   257
 43
1.0
 76
     1
 77
     6
 78
     2
 67
     7
 79
     5
170
     0
171
     0
290
     0
174
     0
 93
       13
 44
0.0
173
     0
291
     1
 45
0.0
1001
ACAD
1000
AcDbSavedByObjectVersion
1070
     0
  0
VISUALSTYLE
  5
38
102
{ACAD_REACTORS
330
2A
102
}
330
2A
100
AcDbVisualStyle
  2
Linepattern
 70
    14
 71
     2
 72
     2
 73
     0
 90
        0
 40
-0.6
 41
-30.0
 62
     5
 63
     7
421
 16777215
 74
     1
 91
        4
 64
     7
 65
   257
 75
     7
175
     7
 42
1.0
 92
        8
 66
     7
 43
1.0
 76
     1
 77
     6
 78
     2
 67
     7
 79
     5
170
     0
171
     0
290
     0
174
     0
 93
        1
 44
0.0
173
     0
291
     1
 45
0.0
1001
ACAD
1000
AcDbSavedByObjectVersion
1070
     0
  0
VISUALSTYLE
  5
33
102
{ACAD_REACTORS
330
2A
102
}
330
2A
100
AcDbVisualStyle
  2
Realistic
 70
     8
 71
     2
 72
     2
 73
     0
 90
        0
 40
-0.6
 41
-30.0
 62
     5
 63
     7
421
 16777215
 74
     1
 91
        0
 64
     7
 65
   257
 75
     1
175
     1
 42
1.0
 92
        8
 66
     8
424
  7895160
 43
1.0
 76
     1
 77
     6
 78
     2
 67
     7
 79
     5
170
     0
171
     0
290
     0
174
     0
 93
       13
 44
0.0
173
     0
291
     0
 45
0.0
1001
ACAD
1000
AcDbSavedByObjectVersion
1070
     0
  0
VISUALSTYLE
  5
37
102
{ACAD_REACTORS
330
2A
102
}
330
2A
100
AcDbVisualStyle
  2
Thicken
 70
    13
 71
     2
 72
     2
 73
     0
 90
        0
 40
-0.6
 41
-30.0
 62
     5
 63
     7
421
 16777215
 74
     1
 91
        4
 64
     7
 65
   257
 75
     1
175
     1
 42
1.0
 92
       12
 66
     7
 43
1.0
 76
     1
 77
     6
 78
     2
 67
     7
 79
     5
170
     0
171
     0
290
     0
174
     0
 93
        1
 44
0.0
173
     0
291
     1
 45
0.0
1001
ACAD
1000
AcDbSavedByObjectVersion
1070
     0
  0
ENDSEC
  0
EOF
