 0
SECTION
 2
ENTITIES
  0
LINE
 8
Layer0
10
100.0
20
405.2
30
0.0
11
100.0
21
410.0
31
0.0
  0
LINE
 8
Layer0
10
120.0
20
410.0
30
0.0
11
120.0
21
405.2
31
0.0
  0
POLYLINE
 8
Layer0
 66
     1
10
0.0
 20
 0.0
 30
0.0
70
    64
71
256
72
   1
  0
VERTEX
  8
Layer0
10
30.0
20
125.0
30
0.0
 70
     192
  0
VERTEX
  8
Layer0
10
30.0
20
205.0
30
0.0
 70
     192
  0
VERTEX
  8
Layer0
10
31.1925960798826
20
134.058666578588
30
0.0
 70
     192
  0
VERTEX
  8
Layer0
10
30.0
20
285.0
30
0.0
 70
     192
  0
VERTEX
  8
Layer0
10
31.1925960798826
20
195.941333421412
30
0.0
 70
     192
  0
VERTEX
  8
Layer0
10
34.6891108675446
20
142.5
30
0.0
 70
     192
  0
VERTEX
  8
Layer0
10
34.6891108675446
20
187.5
30
0.0
 70
     192
  0
VERTEX
  8
Layer0
10
40.2512626584708
20
149.748737341529
30
0.0
 70
     192
  0
VERTEX
  8
Layer0
10
40.2512626584708
20
180.251262658471
30
0.0
 70
     192
  0
VERTEX
  8
Layer0
10
47.5
20
155.310889132455
30
0.0
 70
     192
  0
VERTEX
  8
Layer0
10
47.5
20
174.689110867545
30
0.0
 70
     192
  0
VERTEX
  8
Layer0
10
55.9413334214118
20
171.192596079883
30
0.0
 70
     192
  0
VERTEX
  8
Layer0
10
55.9413334214118
20
158.807403920117
30
0.0
 70
     192
  0
VERTEX
  8
Layer0
10
65.0
20
170.0
30
0.0
 70
     192
  0
VERTEX
  8
Layer0
10
65.0
20
160.0
30
0.0
 70
     192
  0
VERTEX
  8
Layer0
10
74.0586665785882
20
171.192596079883
30
0.0
 70
     192
  0
VERTEX
  8
Layer0
10
74.0586665785882
20
158.807403920117
30
0.0
 70
     192
  0
VERTEX
  8
Layer0
10
82.5
20
174.689110867545
30
0.0
 70
     192
  0
VERTEX
  8
Layer0
10
82.5
20
155.310889132455
30
0.0
 70
     192
  0
VERTEX
  8
Layer0
10
89.7487373415291
20
180.251262658471
30
0.0
 70
     192
  0
VERTEX
  8
Layer0
10
89.7487373415292
20
149.748737341529
30
0.0
 70
     192
  0
VERTEX
  8
Layer0
10
95.3108891324553
20
187.5
30
0.0
 70
     192
  0
VERTEX
  8
Layer0
10
95.3108891324554
20
142.5
30
0.0
 70
     192
  0
VERTEX
  8
Layer0
10
98.8074039201174
20
195.941333421412
30
0.0
 70
     192
  0
VERTEX
  8
Layer0
10
98.8074039201174
20
134.058666578588
30
0.0
 70
     192
  0
VERTEX
  8
Layer0
10
100.0
20
205.0
30
0.0
 70
     192
  0
VERTEX
  8
Layer0
10
100.0
20
125.0
30
0.0
 70
     192
  0
VERTEX
  8
Layer0
10
100.0
20
330.0
30
0.0
 70
     192
  0
VERTEX
  8
Layer0
10
100.0
20
325.2
30
0.0
 70
     192
  0
VERTEX
  8
Layer0
10
107.6
20
275.0
30
0.0
 70
     192
  0
VERTEX
  8
Layer0
10
120.0
20
325.2
30
0.0
 70
     192
  0
VERTEX
  8
Layer0
10
100.0
20
4.79999999999999
30
0.0
 70
     192
  0
VERTEX
  8
Layer0
10
112.4
20
275.0
30
0.0
 70
     192
  0
VERTEX
  8
Layer0
10
112.4
20
55.0
30
0.0
 70
     192
  0
VERTEX
  8
Layer0
10
120.0
20
45.0
30
0.0
 70
     192
  0
VERTEX
  8
Layer0
10
120.0
20
125.0
30
0.0
 70
     192
  0
VERTEX
  8
Layer0
10
121.192596079883
20
54.0586665785882
30
0.0
 70
     192
  0
VERTEX
  8
Layer0
10
120.0
20
285.0
30
0.0
 70
     192
  0
VERTEX
  8
Layer0
10
121.192596079883
20
115.941333421412
30
0.0
 70
     192
  0
VERTEX
  8
Layer0
10
124.689110867545
20
62.5
30
0.0
 70
     192
  0
VERTEX
  8
Layer0
10
124.689110867545
20
107.5
30
0.0
 70
     192
  0
VERTEX
  8
Layer0
10
130.251262658471
20
69.7487373415292
30
0.0
 70
     192
  0
VERTEX
  8
Layer0
10
130.251262658471
20
100.251262658471
30
0.0
 70
     192
  0
VERTEX
  8
Layer0
10
137.5
20
75.3108891324553
30
0.0
 70
     192
  0
VERTEX
  8
Layer0
10
137.5
20
94.6891108675446
30
0.0
 70
     192
  0
VERTEX
  8
Layer0
10
145.941333421412
20
78.8074039201174
30
0.0
 70
     192
  0
VERTEX
  8
Layer0
10
145.941333421412
20
91.1925960798826
30
0.0
 70
     192
  0
VERTEX
  8
Layer0
10
155.0
20
80.0
30
0.0
 70
     192
  0
VERTEX
  8
Layer0
10
155.0
20
90.0
30
0.0
 70
     192
  0
VERTEX
  8
Layer0
10
164.058666578588
20
78.8074039201174
30
0.0
 70
     192
  0
VERTEX
  8
Layer0
10
164.058666578588
20
91.1925960798826
30
0.0
 70
     192
  0
VERTEX
  8
Layer0
10
172.5
20
75.3108891324553
30
0.0
 70
     192
  0
VERTEX
  8
Layer0
10
172.5
20
94.6891108675446
30
0.0
 70
     192
  0
VERTEX
  8
Layer0
10
179.748737341529
20
69.7487373415292
30
0.0
 70
     192
  0
VERTEX
  8
Layer0
10
179.748737341529
20
100.251262658471
30
0.0
 70
     192
  0
VERTEX
  8
Layer0
10
185.310889132455
20
62.5
30
0.0
 70
     192
  0
VERTEX
  8
Layer0
10
185.310889132455
20
107.5
30
0.0
 70
     192
  0
VERTEX
  8
Layer0
10
188.807403920117
20
54.0586665785882
30
0.0
 70
     192
  0
VERTEX
  8
Layer0
10
188.807403920117
20
115.941333421412
30
0.0
 70
     192
  0
VERTEX
  8
Layer0
10
190.0
20
45.0
30
0.0
 70
     192
  0
VERTEX
  8
Layer0
10
190.0
20
125.0
30
0.0
 70
     192
  0
VERTEX
  8
Layer0
10
155.0
20
330.0
30
0.0
 70
     192
  0
VERTEX
  8
Layer0
10
120.0
20
330.0
30
0.0
 70
     192
  0
VERTEX
  8
Layer0
10
130.251262658471
20
309.748737341529
30
0.0
 70
     192
  0
VERTEX
  8
Layer0
10
124.689110867545
20
302.5
30
0.0
 70
     192
  0
VERTEX
  8
Layer0
10
121.192596079883
20
294.058666578588
30
0.0
 70
     192
  0
VERTEX
  8
Layer0
10
137.5
20
315.310889132455
30
0.0
 70
     192
  0
VERTEX
  8
Layer0
10
145.941333421412
20
318.807403920117
30
0.0
 70
     192
  0
VERTEX
  8
Layer0
10
155.0
20
320.0
30
0.0
 70
     192
  0
VERTEX
  8
Layer0
10
166.646857029613
20
328.466662183008
30
0.0
 70
     192
  0
VERTEX
  8
Layer0
10
164.058666578588
20
318.807403920117
30
0.0
 70
     192
  0
VERTEX
  8
Layer0
10
172.5
20
315.310889132455
30
0.0
 70
     192
  0
VERTEX
  8
Layer0
10
177.5
20
323.9711431703
30
0.0
 70
     192
  0
VERTEX
  8
Layer0
10
179.748737341529
20
309.748737341529
30
0.0
 70
     192
  0
VERTEX
  8
Layer0
10
186.819805153395
20
316.819805153395
30
0.0
 70
     192
  0
VERTEX
  8
Layer0
10
185.310889132455
20
302.5
30
0.0
 70
     192
  0
VERTEX
  8
Layer0
10
188.807403920117
20
294.058666578588
30
0.0
 70
     192
  0
VERTEX
  8
Layer0
10
193.9711431703
20
307.5
30
0.0
 70
     192
  0
VERTEX
  8
Layer0
10
190.0
20
285.0
30
0.0
 70
     192
  0
VERTEX
  8
Layer0
10
190.0
20
205.0
30
0.0
 70
     192
  0
VERTEX
  8
Layer0
10
193.9711431703
20
22.5000000000001
30
0.0
 70
     192
  0
VERTEX
  8
Layer0
10
195.2
20
75.0
30
0.0
 70
     192
  0
VERTEX
  8
Layer0
10
198.466662183008
20
33.3531429703866
30
0.0
 70
     192
  0
VERTEX
  8
Layer0
10
195.2
20
95.0
30
0.0
 70
     192
  0
VERTEX
  8
Layer0
10
200.0
20
75.0
30
0.0
 70
     192
  0
VERTEX
  8
Layer0
10
200.0
20
45.0
30
0.0
 70
     192
  0
VERTEX
  8
Layer0
10
107.6
20
55.0
30
0.0
 70
     192
  0
VERTEX
  8
Layer0
10
120.0
20
4.8
30
0.0
 70
     192
  0
VERTEX
  8
Layer0
10
121.192596079883
20
35.9413334214118
30
0.0
 70
     192
  0
VERTEX
  8
Layer0
10
120.0
20
6.25519837946988e-14
30
0.0
 70
     192
  0
VERTEX
  8
Layer0
10
124.689110867545
20
27.5
30
0.0
 70
     192
  0
VERTEX
  8
Layer0
10
130.251262658471
20
20.2512626584708
30
0.0
 70
     192
  0
VERTEX
  8
Layer0
10
155.0
20
5.6399329650958e-14
30
0.0
 70
     192
  0
VERTEX
  8
Layer0
10
137.5
20
14.6891108675447
30
0.0
 70
     192
  0
VERTEX
  8
Layer0
10
145.941333421412
20
11.1925960798826
30
0.0
 70
     192
  0
VERTEX
  8
Layer0
10
155.0
20
10.0
30
0.0
 70
     192
  0
VERTEX
  8
Layer0
10
164.058666578588
20
11.1925960798826
30
0.0
 70
     192
  0
VERTEX
  8
Layer0
10
166.646857029613
20
1.53333781699199
30
0.0
 70
     192
  0
VERTEX
  8
Layer0
10
172.5
20
14.6891108675447
30
0.0
 70
     192
  0
VERTEX
  8
Layer0
10
177.5
20
6.02885682970033
30
0.0
 70
     192
  0
VERTEX
  8
Layer0
10
179.748737341529
20
20.2512626584708
30
0.0
 70
     192
  0
VERTEX
  8
Layer0
10
186.819805153395
20
13.1801948466054
30
0.0
 70
     192
  0
VERTEX
  8
Layer0
10
185.310889132455
20
27.5
30
0.0
 70
     192
  0
VERTEX
  8
Layer0
10
188.807403920117
20
35.9413334214118
30
0.0
 70
     192
  0
VERTEX
  8
Layer0
10
120.0
20
205.0
30
0.0
 70
     192
  0
VERTEX
  8
Layer0
10
121.192596079883
20
134.058666578588
30
0.0
 70
     192
  0
VERTEX
  8
Layer0
10
121.192596079883
20
195.941333421412
30
0.0
 70
     192
  0
VERTEX
  8
Layer0
10
124.689110867545
20
142.5
30
0.0
 70
     192
  0
VERTEX
  8
Layer0
10
124.689110867545
20
187.5
30
0.0
 70
     192
  0
VERTEX
  8
Layer0
10
130.251262658471
20
180.251262658471
30
0.0
 70
     192
  0
VERTEX
  8
Layer0
10
130.251262658471
20
149.748737341529
30
0.0
 70
     192
  0
VERTEX
  8
Layer0
10
137.5
20
174.689110867545
30
0.0
 70
     192
  0
VERTEX
  8
Layer0
10
137.5
20
155.310889132455
30
0.0
 70
     192
  0
VERTEX
  8
Layer0
10
145.941333421412
20
171.192596079883
30
0.0
 70
     192
  0
VERTEX
  8
Layer0
10
145.941333421412
20
158.807403920117
30
0.0
 70
     192
  0
VERTEX
  8
Layer0
10
155.0
20
170.0
30
0.0
 70
     192
  0
VERTEX
  8
Layer0
10
155.0
20
160.0
30
0.0
 70
     192
  0
VERTEX
  8
Layer0
10
164.058666578588
20
171.192596079883
30
0.0
 70
     192
  0
VERTEX
  8
Layer0
10
164.058666578588
20
158.807403920117
30
0.0
 70
     192
  0
VERTEX
  8
Layer0
10
172.5
20
174.689110867545
30
0.0
 70
     192
  0
VERTEX
  8
Layer0
10
172.5
20
155.310889132455
30
0.0
 70
     192
  0
VERTEX
  8
Layer0
10
179.748737341529
20
180.251262658471
30
0.0
 70
     192
  0
VERTEX
  8
Layer0
10
179.748737341529
20
149.748737341529
30
0.0
 70
     192
  0
VERTEX
  8
Layer0
10
185.310889132455
20
187.5
30
0.0
 70
     192
  0
VERTEX
  8
Layer0
10
185.310889132455
20
142.5
30
0.0
 70
     192
  0
VERTEX
  8
Layer0
10
188.807403920117
20
195.941333421412
30
0.0
 70
     192
  0
VERTEX
  8
Layer0
10
188.807403920117
20
134.058666578588
30
0.0
 70
     192
  0
VERTEX
  8
Layer0
10
121.192596079883
20
275.941333421412
30
0.0
 70
     192
  0
VERTEX
  8
Layer0
10
121.192596079883
20
214.058666578588
30
0.0
 70
     192
  0
VERTEX
  8
Layer0
10
124.689110867545
20
267.5
30
0.0
 70
     192
  0
VERTEX
  8
Layer0
10
124.689110867545
20
222.5
30
0.0
 70
     192
  0
VERTEX
  8
Layer0
10
130.251262658471
20
260.251262658471
30
0.0
 70
     192
  0
VERTEX
  8
Layer0
10
130.251262658471
20
229.748737341529
30
0.0
 70
     192
  0
VERTEX
  8
Layer0
10
137.5
20
254.689110867545
30
0.0
 70
     192
  0
VERTEX
  8
Layer0
10
137.5
20
235.310889132455
30
0.0
 70
     192
  0
VERTEX
  8
Layer0
10
145.941333421412
20
251.192596079883
30
0.0
 70
     192
  0
VERTEX
  8
Layer0
10
145.941333421412
20
238.807403920117
30
0.0
 70
     192
  0
VERTEX
  8
Layer0
10
155.0
20
250.0
30
0.0
 70
     192
  0
VERTEX
  8
Layer0
10
155.0
20
240.0
30
0.0
 70
     192
  0
VERTEX
  8
Layer0
10
164.058666578588
20
251.192596079883
30
0.0
 70
     192
  0
VERTEX
  8
Layer0
10
164.058666578588
20
238.807403920117
30
0.0
 70
     192
  0
VERTEX
  8
Layer0
10
172.5
20
254.689110867545
30
0.0
 70
     192
  0
VERTEX
  8
Layer0
10
172.5
20
235.310889132455
30
0.0
 70
     192
  0
VERTEX
  8
Layer0
10
179.748737341529
20
260.251262658471
30
0.0
 70
     192
  0
VERTEX
  8
Layer0
10
179.748737341529
20
229.748737341529
30
0.0
 70
     192
  0
VERTEX
  8
Layer0
10
185.310889132455
20
267.5
30
0.0
 70
     192
  0
VERTEX
  8
Layer0
10
185.310889132455
20
222.5
30
0.0
 70
     192
  0
VERTEX
  8
Layer0
10
188.807403920117
20
275.941333421412
30
0.0
 70
     192
  0
VERTEX
  8
Layer0
10
188.807403920117
20
214.058666578588
30
0.0
 70
     192
  0
VERTEX
  8
Layer0
10
26.0288568297003
20
307.5
30
0.0
 70
     192
  0
VERTEX
  8
Layer0
10
33.1801948466054
20
316.819805153395
30
0.0
 70
     192
  0
VERTEX
  8
Layer0
10
31.1925960798826
20
294.058666578588
30
0.0
 70
     192
  0
VERTEX
  8
Layer0
10
34.6891108675447
20
302.5
30
0.0
 70
     192
  0
VERTEX
  8
Layer0
10
42.5
20
323.9711431703
30
0.0
 70
     192
  0
VERTEX
  8
Layer0
10
40.2512626584708
20
309.748737341529
30
0.0
 70
     192
  0
VERTEX
  8
Layer0
10
47.5
20
315.310889132455
30
0.0
 70
     192
  0
VERTEX
  8
Layer0
10
53.3531429703866
20
328.466662183008
30
0.0
 70
     192
  0
VERTEX
  8
Layer0
10
55.9413334214118
20
318.807403920117
30
0.0
 70
     192
  0
VERTEX
  8
Layer0
10
65.0
20
330.0
30
0.0
 70
     192
  0
VERTEX
  8
Layer0
10
65.0
20
320.0
30
0.0
 70
     192
  0
VERTEX
  8
Layer0
10
74.0586665785882
20
318.807403920117
30
0.0
 70
     192
  0
VERTEX
  8
Layer0
10
82.5
20
315.310889132455
30
0.0
 70
     192
  0
VERTEX
  8
Layer0
10
89.7487373415292
20
309.748737341529
30
0.0
 70
     192
  0
VERTEX
  8
Layer0
10
95.3108891324553
20
302.5
30
0.0
 70
     192
  0
VERTEX
  8
Layer0
10
98.8074039201174
20
294.058666578588
30
0.0
 70
     192
  0
VERTEX
  8
Layer0
10
100.0
20
285.0
30
0.0
 70
     192
  0
VERTEX
  8
Layer0
10
31.1925960798826
20
115.941333421412
30
0.0
 70
     192
  0
VERTEX
  8
Layer0
10
30.0
20
45.0
30
0.0
 70
     192
  0
VERTEX
  8
Layer0
10
31.1925960798826
20
54.0586665785882
30
0.0
 70
     192
  0
VERTEX
  8
Layer0
10
34.6891108675446
20
107.5
30
0.0
 70
     192
  0
VERTEX
  8
Layer0
10
34.6891108675446
20
62.5
30
0.0
 70
     192
  0
VERTEX
  8
Layer0
10
40.2512626584708
20
100.251262658471
30
0.0
 70
     192
  0
VERTEX
  8
Layer0
10
40.2512626584708
20
69.7487373415292
30
0.0
 70
     192
  0
VERTEX
  8
Layer0
10
47.5
20
94.6891108675446
30
0.0
 70
     192
  0
VERTEX
  8
Layer0
10
47.5
20
75.3108891324553
30
0.0
 70
     192
  0
VERTEX
  8
Layer0
10
55.9413334214118
20
91.1925960798826
30
0.0
 70
     192
  0
VERTEX
  8
Layer0
10
55.9413334214118
20
78.8074039201174
30
0.0
 70
     192
  0
VERTEX
  8
Layer0
10
65.0
20
90.0
30
0.0
 70
     192
  0
VERTEX
  8
Layer0
10
65.0
20
80.0
30
0.0
 70
     192
  0
VERTEX
  8
Layer0
10
74.0586665785882
20
91.1925960798826
30
0.0
 70
     192
  0
VERTEX
  8
Layer0
10
74.0586665785882
20
78.8074039201174
30
0.0
 70
     192
  0
VERTEX
  8
Layer0
10
82.5
20
94.6891108675446
30
0.0
 70
     192
  0
VERTEX
  8
Layer0
10
82.5
20
75.3108891324553
30
0.0
 70
     192
  0
VERTEX
  8
Layer0
10
89.7487373415292
20
100.251262658471
30
0.0
 70
     192
  0
VERTEX
  8
Layer0
10
89.7487373415292
20
69.7487373415292
30
0.0
 70
     192
  0
VERTEX
  8
Layer0
10
95.3108891324553
20
107.5
30
0.0
 70
     192
  0
VERTEX
  8
Layer0
10
95.3108891324553
20
62.5
30
0.0
 70
     192
  0
VERTEX
  8
Layer0
10
98.8074039201174
20
115.941333421412
30
0.0
 70
     192
  0
VERTEX
  8
Layer0
10
98.8074039201174
20
54.0586665785882
30
0.0
 70
     192
  0
VERTEX
  8
Layer0
10
100.0
20
45.0
30
0.0
 70
     192
  0
VERTEX
  8
Layer0
10
20.0
20
285.0
30
0.0
 70
     192
  0
VERTEX
  8
Layer0
10
24.8
20
255.0
30
0.0
 70
     192
  0
VERTEX
  8
Layer0
10
20.0
20
255.0
30
0.0
 70
     192
  0
VERTEX
  8
Layer0
10
21.533337816992
20
296.646857029613
30
0.0
 70
     192
  0
VERTEX
  8
Layer0
10
26.0288568297003
20
22.5
30
0.0
 70
     192
  0
VERTEX
  8
Layer0
10
33.1801948466054
20
13.1801948466054
30
0.0
 70
     192
  0
VERTEX
  8
Layer0
10
31.1925960798826
20
35.9413334214118
30
0.0
 70
     192
  0
VERTEX
  8
Layer0
10
34.6891108675446
20
27.5
30
0.0
 70
     192
  0
VERTEX
  8
Layer0
10
42.5
20
6.02885682970026
30
0.0
 70
     192
  0
VERTEX
  8
Layer0
10
40.2512626584708
20
20.2512626584708
30
0.0
 70
     192
  0
VERTEX
  8
Layer0
10
47.5
20
14.6891108675447
30
0.0
 70
     192
  0
VERTEX
  8
Layer0
10
53.3531429703865
20
1.53333781699193
30
0.0
 70
     192
  0
VERTEX
  8
Layer0
10
55.9413334214118
20
11.1925960798826
30
0.0
 70
     192
  0
VERTEX
  8
Layer0
10
65.0
20
0.0
30
0.0
 70
     192
  0
VERTEX
  8
Layer0
10
65.0
20
10.0
30
0.0
 70
     192
  0
VERTEX
  8
Layer0
10
74.0586665785882
20
11.1925960798826
30
0.0
 70
     192
  0
VERTEX
  8
Layer0
10
100.0
20
5.43484449363777e-14
30
0.0
 70
     192
  0
VERTEX
  8
Layer0
10
82.5
20
14.6891108675446
30
0.0
 70
     192
  0
VERTEX
  8
Layer0
10
89.7487373415291
20
20.2512626584708
30
0.0
 70
     192
  0
VERTEX
  8
Layer0
10
95.3108891324553
20
27.5
30
0.0
 70
     192
  0
VERTEX
  8
Layer0
10
98.8074039201174
20
35.9413334214117
30
0.0
 70
     192
  0
VERTEX
  8
Layer0
10
31.1925960798826
20
275.941333421412
30
0.0
 70
     192
  0
VERTEX
  8
Layer0
10
31.1925960798826
20
214.058666578588
30
0.0
 70
     192
  0
VERTEX
  8
Layer0
10
34.6891108675446
20
267.5
30
0.0
 70
     192
  0
VERTEX
  8
Layer0
10
34.6891108675447
20
222.5
30
0.0
 70
     192
  0
VERTEX
  8
Layer0
10
40.2512626584708
20
260.251262658471
30
0.0
 70
     192
  0
VERTEX
  8
Layer0
10
40.2512626584708
20
229.748737341529
30
0.0
 70
     192
  0
VERTEX
  8
Layer0
10
47.5
20
254.689110867545
30
0.0
 70
     192
  0
VERTEX
  8
Layer0
10
47.5
20
235.310889132455
30
0.0
 70
     192
  0
VERTEX
  8
Layer0
10
55.9413334214118
20
251.192596079883
30
0.0
 70
     192
  0
VERTEX
  8
Layer0
10
55.9413334214118
20
238.807403920117
30
0.0
 70
     192
  0
VERTEX
  8
Layer0
10
65.0
20
250.0
30
0.0
 70
     192
  0
VERTEX
  8
Layer0
10
65.0
20
240.0
30
0.0
 70
     192
  0
VERTEX
  8
Layer0
10
74.0586665785882
20
251.192596079883
30
0.0
 70
     192
  0
VERTEX
  8
Layer0
10
74.0586665785882
20
238.807403920117
30
0.0
 70
     192
  0
VERTEX
  8
Layer0
10
82.5
20
254.689110867545
30
0.0
 70
     192
  0
VERTEX
  8
Layer0
10
82.5
20
235.310889132455
30
0.0
 70
     192
  0
VERTEX
  8
Layer0
10
89.7487373415291
20
260.251262658471
30
0.0
 70
     192
  0
VERTEX
  8
Layer0
10
89.7487373415292
20
229.748737341529
30
0.0
 70
     192
  0
VERTEX
  8
Layer0
10
95.3108891324553
20
267.5
30
0.0
 70
     192
  0
VERTEX
  8
Layer0
10
95.3108891324553
20
222.5
30
0.0
 70
     192
  0
VERTEX
  8
Layer0
10
98.8074039201174
20
275.941333421412
30
0.0
 70
     192
  0
VERTEX
  8
Layer0
10
98.8074039201174
20
214.058666578588
30
0.0
 70
     192
  0
VERTEX
  8
Layer0
10
20.0
20
155.0
30
0.0
 70
     192
  0
VERTEX
  8
Layer0
10
24.8
20
95.0
30
0.0
 70
     192
  0
VERTEX
  8
Layer0
10
20.0
20
95.0
30
0.0
 70
     192
  0
VERTEX
  8
Layer0
10
24.8
20
155.0
30
0.0
 70
     192
  0
VERTEX
  8
Layer0
10
20.0
20
235.0
30
0.0
 70
     192
  0
VERTEX
  8
Layer0
10
24.8
20
175.0
30
0.0
 70
     192
  0
VERTEX
  8
Layer0
10
20.0
20
175.0
30
0.0
 70
     192
  0
VERTEX
  8
Layer0
10
24.8
20
235.0
30
0.0
 70
     192
  0
VERTEX
  8
Layer0
10
20.0
20
75.0
30
0.0
 70
     192
  0
VERTEX
  8
Layer0
10
21.5333378169919
20
33.3531429703866
30
0.0
 70
     192
  0
VERTEX
  8
Layer0
10
20.0
20
45.0
30
0.0
 70
     192
  0
VERTEX
  8
Layer0
10
24.8
20
75.0
30
0.0
 70
     192
  0
VERTEX
  8
Layer0
10
195.2
20
255.0
30
0.0
 70
     192
  0
VERTEX
  8
Layer0
10
198.466662183008
20
296.646857029613
30
0.0
 70
     192
  0
VERTEX
  8
Layer0
10
200.0
20
255.0
30
0.0
 70
     192
  0
VERTEX
  8
Layer0
10
200.0
20
285.0
30
0.0
 70
     192
  0
VERTEX
  8
Layer0
10
200.0
20
235.0
30
0.0
 70
     192
  0
VERTEX
  8
Layer0
10
195.2
20
175.0
30
0.0
 70
     192
  0
VERTEX
  8
Layer0
10
195.2
20
235.0
30
0.0
 70
     192
  0
VERTEX
  8
Layer0
10
200.0
20
175.0
30
0.0
 70
     192
  0
VERTEX
  8
Layer0
10
195.2
20
155.0
30
0.0
 70
     192
  0
VERTEX
  8
Layer0
10
200.0
20
95.0
30
0.0
 70
     192
  0
VERTEX
  8
Layer0
10
200.0
20
155.0
30
0.0
 70
     192
  0
VERTEX
  8
Layer0
10
0.0
 20
 0.0
 30
0.0
 70
     128
 71
-1
 72
-2
 73
3
  0
VERTEX
  8
Layer0
10
0.0
 20
 0.0
 30
0.0
 70
     128
 71
-2
 72
-1
 73
-4
  0
VERTEX
  8
Layer0
10
0.0
 20
 0.0
 30
0.0
 70
     128
 71
-3
 72
2
 73
-5
  0
VERTEX
  8
Layer0
10
0.0
 20
 0.0
 30
0.0
 70
     128
 71
-3
 72
-5
 73
6
  0
VERTEX
  8
Layer0
10
0.0
 20
 0.0
 30
0.0
 70
     128
 71
-6
 72
5
 73
-7
  0
VERTEX
  8
Layer0
10
0.0
 20
 0.0
 30
0.0
 70
     128
 71
-6
 72
-7
 73
8
  0
VERTEX
  8
Layer0
10
0.0
 20
 0.0
 30
0.0
 70
     128
 71
-8
 72
7
 73
-9
  0
VERTEX
  8
Layer0
10
0.0
 20
 0.0
 30
0.0
 70
     128
 71
-8
 72
-9
 73
10
  0
VERTEX
  8
Layer0
10
0.0
 20
 0.0
 30
0.0
 70
     128
 71
-10
 72
9
 73
-11
  0
VERTEX
  8
Layer0
10
0.0
 20
 0.0
 30
0.0
 70
     128
 71
-10
 72
11
 73
-12
  0
VERTEX
  8
Layer0
10
0.0
 20
 0.0
 30
0.0
 70
     128
 71
-10
 72
-12
 73
13
  0
VERTEX
  8
Layer0
10
0.0
 20
 0.0
 30
0.0
 70
     128
 71
-13
 72
12
 73
-14
  0
VERTEX
  8
Layer0
10
0.0
 20
 0.0
 30
0.0
 70
     128
 71
-13
 72
-14
 73
15
  0
VERTEX
  8
Layer0
10
0.0
 20
 0.0
 30
0.0
 70
     128
 71
-15
 72
14
 73
-16
  0
VERTEX
  8
Layer0
10
0.0
 20
 0.0
 30
0.0
 70
     128
 71
-15
 72
-16
 73
17
  0
VERTEX
  8
Layer0
10
0.0
 20
 0.0
 30
0.0
 70
     128
 71
-17
 72
16
 73
-18
  0
VERTEX
  8
Layer0
10
0.0
 20
 0.0
 30
0.0
 70
     128
 71
-17
 72
-18
 73
19
  0
VERTEX
  8
Layer0
10
0.0
 20
 0.0
 30
0.0
 70
     128
 71
-19
 72
18
 73
-20
  0
VERTEX
  8
Layer0
10
0.0
 20
 0.0
 30
0.0
 70
     128
 71
-19
 72
-20
 73
21
  0
VERTEX
  8
Layer0
10
0.0
 20
 0.0
 30
0.0
 70
     128
 71
-21
 72
20
 73
-22
  0
VERTEX
  8
Layer0
10
0.0
 20
 0.0
 30
0.0
 70
     128
 71
-21
 72
-22
 73
23
  0
VERTEX
  8
Layer0
10
0.0
 20
 0.0
 30
0.0
 70
     128
 71
-23
 72
22
 73
-24
  0
VERTEX
  8
Layer0
10
0.0
 20
 0.0
 30
0.0
 70
     128
 71
-23
 72
-24
 73
25
  0
VERTEX
  8
Layer0
10
0.0
 20
 0.0
 30
0.0
 70
     128
 71
-25
 72
24
 73
-26
  0
VERTEX
  8
Layer0
10
0.0
 20
 0.0
 30
0.0
 70
     128
 71
-25
 72
-26
 73
27
  0
VERTEX
  8
Layer0
10
0.0
 20
 0.0
 30
0.0
 70
     128
 71
-27
 72
-26
 73
-28
  0
VERTEX
  8
Layer0
10
0.0
 20
 0.0
 30
0.0
 70
     128
 71
-27
 72
28
 73
-29
  0
VERTEX
  8
Layer0
10
0.0
 20
 0.0
 30
0.0
 70
     128
 71
-27
 72
-29
 73
-30
  0
VERTEX
  8
Layer0
10
0.0
 20
 0.0
 30
0.0
 70
     128
 71
-30
 72
29
 73
-31
  0
VERTEX
  8
Layer0
10
0.0
 20
 0.0
 30
0.0
 70
     128
 71
-27
 72
-30
 73
-32
  0
VERTEX
  8
Layer0
10
0.0
 20
 0.0
 30
0.0
 70
     128
 71
-30
 72
-31
 73
33
  0
VERTEX
  8
Layer0
10
0.0
 20
 0.0
 30
0.0
 70
     128
 71
-33
 72
-31
 73
34
  0
VERTEX
  8
Layer0
10
0.0
 20
 0.0
 30
0.0
 70
     128
 71
-35
 72
-36
 73
37
  0
VERTEX
  8
Layer0
10
0.0
 20
 0.0
 30
0.0
 70
     128
 71
-36
 72
-35
 73
-38
  0
VERTEX
  8
Layer0
10
0.0
 20
 0.0
 30
0.0
 70
     128
 71
-37
 72
36
 73
-39
  0
VERTEX
  8
Layer0
10
0.0
 20
 0.0
 30
0.0
 70
     128
 71
-37
 72
-39
 73
40
  0
VERTEX
  8
Layer0
10
0.0
 20
 0.0
 30
0.0
 70
     128
 71
-40
 72
39
 73
-41
  0
VERTEX
  8
Layer0
10
0.0
 20
 0.0
 30
0.0
 70
     128
 71
-40
 72
-41
 73
42
  0
VERTEX
  8
Layer0
10
0.0
 20
 0.0
 30
0.0
 70
     128
 71
-42
 72
41
 73
-43
  0
VERTEX
  8
Layer0
10
0.0
 20
 0.0
 30
0.0
 70
     128
 71
-42
 72
-43
 73
44
  0
VERTEX
  8
Layer0
10
0.0
 20
 0.0
 30
0.0
 70
     128
 71
-44
 72
43
 73
-45
  0
VERTEX
  8
Layer0
10
0.0
 20
 0.0
 30
0.0
 70
     128
 71
-44
 72
-45
 73
46
  0
VERTEX
  8
Layer0
10
0.0
 20
 0.0
 30
0.0
 70
     128
 71
-46
 72
45
 73
-47
  0
VERTEX
  8
Layer0
10
0.0
 20
 0.0
 30
0.0
 70
     128
 71
-46
 72
-47
 73
48
  0
VERTEX
  8
Layer0
10
0.0
 20
 0.0
 30
0.0
 70
     128
 71
-48
 72
47
 73
-49
  0
VERTEX
  8
Layer0
10
0.0
 20
 0.0
 30
0.0
 70
     128
 71
-48
 72
-49
 73
50
  0
VERTEX
  8
Layer0
10
0.0
 20
 0.0
 30
0.0
 70
     128
 71
-50
 72
49
 73
-51
  0
VERTEX
  8
Layer0
10
0.0
 20
 0.0
 30
0.0
 70
     128
 71
-50
 72
-51
 73
52
  0
VERTEX
  8
Layer0
10
0.0
 20
 0.0
 30
0.0
 70
     128
 71
-52
 72
51
 73
-53
  0
VERTEX
  8
Layer0
10
0.0
 20
 0.0
 30
0.0
 70
     128
 71
-52
 72
-53
 73
54
  0
VERTEX
  8
Layer0
10
0.0
 20
 0.0
 30
0.0
 70
     128
 71
-54
 72
53
 73
-55
  0
VERTEX
  8
Layer0
10
0.0
 20
 0.0
 30
0.0
 70
     128
 71
-54
 72
-55
 73
56
  0
VERTEX
  8
Layer0
10
0.0
 20
 0.0
 30
0.0
 70
     128
 71
-56
 72
55
 73
-57
  0
VERTEX
  8
Layer0
10
0.0
 20
 0.0
 30
0.0
 70
     128
 71
-56
 72
-57
 73
58
  0
VERTEX
  8
Layer0
10
0.0
 20
 0.0
 30
0.0
 70
     128
 71
-58
 72
57
 73
-59
  0
VERTEX
  8
Layer0
10
0.0
 20
 0.0
 30
0.0
 70
     128
 71
-58
 72
-59
 73
60
  0
VERTEX
  8
Layer0
10
0.0
 20
 0.0
 30
0.0
 70
     128
 71
-60
 72
59
 73
-61
  0
VERTEX
  8
Layer0
10
0.0
 20
 0.0
 30
0.0
 70
     128
 71
-62
 72
31
 73
63
  0
VERTEX
  8
Layer0
10
0.0
 20
 0.0
 30
0.0
 70
     128
 71
-31
 72
-62
 73
-64
  0
VERTEX
  8
Layer0
10
0.0
 20
 0.0
 30
0.0
 70
     128
 71
-31
 72
64
 73
-65
  0
VERTEX
  8
Layer0
10
0.0
 20
 0.0
 30
0.0
 70
     128
 71
-31
 72
65
 73
-66
  0
VERTEX
  8
Layer0
10
0.0
 20
 0.0
 30
0.0
 70
     128
 71
-31
 72
66
 73
-38
  0
VERTEX
  8
Layer0
10
0.0
 20
 0.0
 30
0.0
 70
     128
 71
-31
 72
-38
 73
-35
  0
VERTEX
  8
Layer0
10
0.0
 20
 0.0
 30
0.0
 70
     128
 71
-64
 72
-62
 73
67
  0
VERTEX
  8
Layer0
10
0.0
 20
 0.0
 30
0.0
 70
     128
 71
-67
 72
-62
 73
68
  0
VERTEX
  8
Layer0
10
0.0
 20
 0.0
 30
0.0
 70
     128
 71
-68
 72
-62
 73
69
  0
VERTEX
  8
Layer0
10
0.0
 20
 0.0
 30
0.0
 70
     128
 71
-69
 72
62
 73
-70
  0
VERTEX
  8
Layer0
10
0.0
 20
 0.0
 30
0.0
 70
     128
 71
-69
 72
-70
 73
71
  0
VERTEX
  8
Layer0
10
0.0
 20
 0.0
 30
0.0
 70
     128
 71
-71
 72
-70
 73
72
  0
VERTEX
  8
Layer0
10
0.0
 20
 0.0
 30
0.0
 70
     128
 71
-72
 72
70
 73
-73
  0
VERTEX
  8
Layer0
10
0.0
 20
 0.0
 30
0.0
 70
     128
 71
-72
 72
-73
 73
74
  0
VERTEX
  8
Layer0
10
0.0
 20
 0.0
 30
0.0
 70
     128
 71
-74
 72
73
 73
-75
  0
VERTEX
  8
Layer0
10
0.0
 20
 0.0
 30
0.0
 70
     128
 71
-74
 72
-75
 73
76
  0
VERTEX
  8
Layer0
10
0.0
 20
 0.0
 30
0.0
 70
     128
 71
-76
 72
-75
 73
77
  0
VERTEX
  8
Layer0
10
0.0
 20
 0.0
 30
0.0
 70
     128
 71
-77
 72
75
 73
-78
  0
VERTEX
  8
Layer0
10
0.0
 20
 0.0
 30
0.0
 70
     128
 71
-77
 72
-78
 73
79
  0
VERTEX
  8
Layer0
10
0.0
 20
 0.0
 30
0.0
 70
     128
 71
-79
 72
-78
 73
-80
  0
VERTEX
  8
Layer0
10
0.0
 20
 0.0
 30
0.0
 70
     128
 71
-80
 72
-78
 73
-61
  0
VERTEX
  8
Layer0
10
0.0
 20
 0.0
 30
0.0
 70
     128
 71
-61
 72
-78
 73
-81
  0
VERTEX
  8
Layer0
10
0.0
 20
 0.0
 30
0.0
 70
     128
 71
-81
 72
-78
 73
-82
  0
VERTEX
  8
Layer0
10
0.0
 20
 0.0
 30
0.0
 70
     128
 71
-81
 72
-82
 73
83
  0
VERTEX
  8
Layer0
10
0.0
 20
 0.0
 30
0.0
 70
     128
 71
-82
 72
-78
 73
84
  0
VERTEX
  8
Layer0
10
0.0
 20
 0.0
 30
0.0
 70
     128
 71
-83
 72
82
 73
-85
  0
VERTEX
  8
Layer0
10
0.0
 20
 0.0
 30
0.0
 70
     128
 71
-83
 72
85
 73
86
  0
VERTEX
  8
Layer0
10
0.0
 20
 0.0
 30
0.0
 70
     128
 71
-32
 72
-87
 73
88
  0
VERTEX
  8
Layer0
10
0.0
 20
 0.0
 30
0.0
 70
     128
 71
-87
 72
-32
 73
30
  0
VERTEX
  8
Layer0
10
0.0
 20
 0.0
 30
0.0
 70
     128
 71
-88
 72
87
 73
-34
  0
VERTEX
  8
Layer0
10
0.0
 20
 0.0
 30
0.0
 70
     128
 71
-88
 72
-34
 73
-31
  0
VERTEX
  8
Layer0
10
0.0
 20
 0.0
 30
0.0
 70
     128
 71
-88
 72
-31
 73
-35
  0
VERTEX
  8
Layer0
10
0.0
 20
 0.0
 30
0.0
 70
     128
 71
-88
 72
35
 73
-89
  0
VERTEX
  8
Layer0
10
0.0
 20
 0.0
 30
0.0
 70
     128
 71
-88
 72
-89
 73
90
  0
VERTEX
  8
Layer0
10
0.0
 20
 0.0
 30
0.0
 70
     128
 71
-90
 72
89
 73
-91
  0
VERTEX
  8
Layer0
10
0.0
 20
 0.0
 30
0.0
 70
     128
 71
-90
 72
91
 73
-92
  0
VERTEX
  8
Layer0
10
0.0
 20
 0.0
 30
0.0
 70
     128
 71
-90
 72
-92
 73
93
  0
VERTEX
  8
Layer0
10
0.0
 20
 0.0
 30
0.0
 70
     128
 71
-93
 72
92
 73
-94
  0
VERTEX
  8
Layer0
10
0.0
 20
 0.0
 30
0.0
 70
     128
 71
-93
 72
94
 73
-95
  0
VERTEX
  8
Layer0
10
0.0
 20
 0.0
 30
0.0
 70
     128
 71
-93
 72
95
 73
-96
  0
VERTEX
  8
Layer0
10
0.0
 20
 0.0
 30
0.0
 70
     128
 71
-93
 72
96
 73
-97
  0
VERTEX
  8
Layer0
10
0.0
 20
 0.0
 30
0.0
 70
     128
 71
-93
 72
-97
 73
98
  0
VERTEX
  8
Layer0
10
0.0
 20
 0.0
 30
0.0
 70
     128
 71
-98
 72
97
 73
-99
  0
VERTEX
  8
Layer0
10
0.0
 20
 0.0
 30
0.0
 70
     128
 71
-98
 72
-99
 73
100
  0
VERTEX
  8
Layer0
10
0.0
 20
 0.0
 30
0.0
 70
     128
 71
-100
 72
99
 73
-101
  0
VERTEX
  8
Layer0
10
0.0
 20
 0.0
 30
0.0
 70
     128
 71
-100
 72
-101
 73
102
  0
VERTEX
  8
Layer0
10
0.0
 20
 0.0
 30
0.0
 70
     128
 71
-102
 72
101
 73
-103
  0
VERTEX
  8
Layer0
10
0.0
 20
 0.0
 30
0.0
 70
     128
 71
-102
 72
103
 73
-104
  0
VERTEX
  8
Layer0
10
0.0
 20
 0.0
 30
0.0
 70
     128
 71
-102
 72
-104
 73
81
  0
VERTEX
  8
Layer0
10
0.0
 20
 0.0
 30
0.0
 70
     128
 71
-81
 72
104
 73
-60
  0
VERTEX
  8
Layer0
10
0.0
 20
 0.0
 30
0.0
 70
     128
 71
-81
 72
-60
 73
-61
  0
VERTEX
  8
Layer0
10
0.0
 20
 0.0
 30
0.0
 70
     128
 71
-105
 72
106
 73
-36
  0
VERTEX
  8
Layer0
10
0.0
 20
 0.0
 30
0.0
 70
     128
 71
-106
 72
105
 73
-107
  0
VERTEX
  8
Layer0
10
0.0
 20
 0.0
 30
0.0
 70
     128
 71
-106
 72
-107
 73
108
  0
VERTEX
  8
Layer0
10
0.0
 20
 0.0
 30
0.0
 70
     128
 71
-108
 72
107
 73
-109
  0
VERTEX
  8
Layer0
10
0.0
 20
 0.0
 30
0.0
 70
     128
 71
-108
 72
109
 73
-110
  0
VERTEX
  8
Layer0
10
0.0
 20
 0.0
 30
0.0
 70
     128
 71
-108
 72
-110
 73
111
  0
VERTEX
  8
Layer0
10
0.0
 20
 0.0
 30
0.0
 70
     128
 71
-111
 72
110
 73
-112
  0
VERTEX
  8
Layer0
10
0.0
 20
 0.0
 30
0.0
 70
     128
 71
-111
 72
-112
 73
113
  0
VERTEX
  8
Layer0
10
0.0
 20
 0.0
 30
0.0
 70
     128
 71
-113
 72
112
 73
-114
  0
VERTEX
  8
Layer0
10
0.0
 20
 0.0
 30
0.0
 70
     128
 71
-113
 72
-114
 73
115
  0
VERTEX
  8
Layer0
10
0.0
 20
 0.0
 30
0.0
 70
     128
 71
-115
 72
114
 73
-116
  0
VERTEX
  8
Layer0
10
0.0
 20
 0.0
 30
0.0
 70
     128
 71
-115
 72
-116
 73
117
  0
VERTEX
  8
Layer0
10
0.0
 20
 0.0
 30
0.0
 70
     128
 71
-117
 72
116
 73
-118
  0
VERTEX
  8
Layer0
10
0.0
 20
 0.0
 30
0.0
 70
     128
 71
-117
 72
-118
 73
119
  0
VERTEX
  8
Layer0
10
0.0
 20
 0.0
 30
0.0
 70
     128
 71
-119
 72
118
 73
-120
  0
VERTEX
  8
Layer0
10
0.0
 20
 0.0
 30
0.0
 70
     128
 71
-119
 72
-120
 73
121
  0
VERTEX
  8
Layer0
10
0.0
 20
 0.0
 30
0.0
 70
     128
 71
-121
 72
120
 73
-122
  0
VERTEX
  8
Layer0
10
0.0
 20
 0.0
 30
0.0
 70
     128
 71
-121
 72
-122
 73
123
  0
VERTEX
  8
Layer0
10
0.0
 20
 0.0
 30
0.0
 70
     128
 71
-123
 72
122
 73
-124
  0
VERTEX
  8
Layer0
10
0.0
 20
 0.0
 30
0.0
 70
     128
 71
-123
 72
-124
 73
125
  0
VERTEX
  8
Layer0
10
0.0
 20
 0.0
 30
0.0
 70
     128
 71
-125
 72
124
 73
-126
  0
VERTEX
  8
Layer0
10
0.0
 20
 0.0
 30
0.0
 70
     128
 71
-125
 72
-126
 73
127
  0
VERTEX
  8
Layer0
10
0.0
 20
 0.0
 30
0.0
 70
     128
 71
-127
 72
126
 73
-80
  0
VERTEX
  8
Layer0
10
0.0
 20
 0.0
 30
0.0
 70
     128
 71
-127
 72
-80
 73
61
  0
VERTEX
  8
Layer0
10
0.0
 20
 0.0
 30
0.0
 70
     128
 71
-38
 72
-105
 73
-36
  0
VERTEX
  8
Layer0
10
0.0
 20
 0.0
 30
0.0
 70
     128
 71
-105
 72
38
 73
-128
  0
VERTEX
  8
Layer0
10
0.0
 20
 0.0
 30
0.0
 70
     128
 71
-105
 72
-128
 73
129
  0
VERTEX
  8
Layer0
10
0.0
 20
 0.0
 30
0.0
 70
     128
 71
-129
 72
128
 73
-130
  0
VERTEX
  8
Layer0
10
0.0
 20
 0.0
 30
0.0
 70
     128
 71
-129
 72
-130
 73
131
  0
VERTEX
  8
Layer0
10
0.0
 20
 0.0
 30
0.0
 70
     128
 71
-131
 72
130
 73
-132
  0
VERTEX
  8
Layer0
10
0.0
 20
 0.0
 30
0.0
 70
     128
 71
-131
 72
-132
 73
133
  0
VERTEX
  8
Layer0
10
0.0
 20
 0.0
 30
0.0
 70
     128
 71
-133
 72
132
 73
-134
  0
VERTEX
  8
Layer0
10
0.0
 20
 0.0
 30
0.0
 70
     128
 71
-133
 72
-134
 73
135
  0
VERTEX
  8
Layer0
10
0.0
 20
 0.0
 30
0.0
 70
     128
 71
-135
 72
134
 73
-136
  0
VERTEX
  8
Layer0
10
0.0
 20
 0.0
 30
0.0
 70
     128
 71
-135
 72
-136
 73
137
  0
VERTEX
  8
Layer0
10
0.0
 20
 0.0
 30
0.0
 70
     128
 71
-137
 72
136
 73
-138
  0
VERTEX
  8
Layer0
10
0.0
 20
 0.0
 30
0.0
 70
     128
 71
-137
 72
-138
 73
139
  0
VERTEX
  8
Layer0
10
0.0
 20
 0.0
 30
0.0
 70
     128
 71
-139
 72
138
 73
-140
  0
VERTEX
  8
Layer0
10
0.0
 20
 0.0
 30
0.0
 70
     128
 71
-139
 72
-140
 73
141
  0
VERTEX
  8
Layer0
10
0.0
 20
 0.0
 30
0.0
 70
     128
 71
-141
 72
140
 73
-142
  0
VERTEX
  8
Layer0
10
0.0
 20
 0.0
 30
0.0
 70
     128
 71
-141
 72
-142
 73
143
  0
VERTEX
  8
Layer0
10
0.0
 20
 0.0
 30
0.0
 70
     128
 71
-143
 72
142
 73
-144
  0
VERTEX
  8
Layer0
10
0.0
 20
 0.0
 30
0.0
 70
     128
 71
-143
 72
-144
 73
145
  0
VERTEX
  8
Layer0
10
0.0
 20
 0.0
 30
0.0
 70
     128
 71
-145
 72
144
 73
-146
  0
VERTEX
  8
Layer0
10
0.0
 20
 0.0
 30
0.0
 70
     128
 71
-145
 72
-146
 73
147
  0
VERTEX
  8
Layer0
10
0.0
 20
 0.0
 30
0.0
 70
     128
 71
-147
 72
146
 73
-148
  0
VERTEX
  8
Layer0
10
0.0
 20
 0.0
 30
0.0
 70
     128
 71
-147
 72
-148
 73
149
  0
VERTEX
  8
Layer0
10
0.0
 20
 0.0
 30
0.0
 70
     128
 71
-149
 72
148
 73
-79
  0
VERTEX
  8
Layer0
10
0.0
 20
 0.0
 30
0.0
 70
     128
 71
-149
 72
-79
 73
80
  0
VERTEX
  8
Layer0
10
0.0
 20
 0.0
 30
0.0
 70
     128
 71
-150
 72
-4
 73
-1
  0
VERTEX
  8
Layer0
10
0.0
 20
 0.0
 30
0.0
 70
     128
 71
-4
 72
150
 73
-151
  0
VERTEX
  8
Layer0
10
0.0
 20
 0.0
 30
0.0
 70
     128
 71
-4
 72
-151
 73
152
  0
VERTEX
  8
Layer0
10
0.0
 20
 0.0
 30
0.0
 70
     128
 71
-152
 72
-151
 73
153
  0
VERTEX
  8
Layer0
10
0.0
 20
 0.0
 30
0.0
 70
     128
 71
-153
 72
151
 73
-154
  0
VERTEX
  8
Layer0
10
0.0
 20
 0.0
 30
0.0
 70
     128
 71
-153
 72
-154
 73
155
  0
VERTEX
  8
Layer0
10
0.0
 20
 0.0
 30
0.0
 70
     128
 71
-155
 72
-154
 73
156
  0
VERTEX
  8
Layer0
10
0.0
 20
 0.0
 30
0.0
 70
     128
 71
-156
 72
154
 73
-157
  0
VERTEX
  8
Layer0
10
0.0
 20
 0.0
 30
0.0
 70
     128
 71
-156
 72
-157
 73
158
  0
VERTEX
  8
Layer0
10
0.0
 20
 0.0
 30
0.0
 70
     128
 71
-158
 72
157
 73
-159
  0
VERTEX
  8
Layer0
10
0.0
 20
 0.0
 30
0.0
 70
     128
 71
-158
 72
-159
 73
160
  0
VERTEX
  8
Layer0
10
0.0
 20
 0.0
 30
0.0
 70
     128
 71
-160
 72
159
 73
-28
  0
VERTEX
  8
Layer0
10
0.0
 20
 0.0
 30
0.0
 70
     128
 71
-160
 72
-28
 73
161
  0
VERTEX
  8
Layer0
10
0.0
 20
 0.0
 30
0.0
 70
     128
 71
-161
 72
-28
 73
162
  0
VERTEX
  8
Layer0
10
0.0
 20
 0.0
 30
0.0
 70
     128
 71
-162
 72
-28
 73
163
  0
VERTEX
  8
Layer0
10
0.0
 20
 0.0
 30
0.0
 70
     128
 71
-163
 72
-28
 73
164
  0
VERTEX
  8
Layer0
10
0.0
 20
 0.0
 30
0.0
 70
     128
 71
-164
 72
-28
 73
165
  0
VERTEX
  8
Layer0
10
0.0
 20
 0.0
 30
0.0
 70
     128
 71
-165
 72
-28
 73
166
  0
VERTEX
  8
Layer0
10
0.0
 20
 0.0
 30
0.0
 70
     128
 71
-166
 72
-28
 73
-26
  0
VERTEX
  8
Layer0
10
0.0
 20
 0.0
 30
0.0
 70
     128
 71
-167
 72
-168
 73
1
  0
VERTEX
  8
Layer0
10
0.0
 20
 0.0
 30
0.0
 70
     128
 71
-168
 72
-167
 73
169
  0
VERTEX
  8
Layer0
10
0.0
 20
 0.0
 30
0.0
 70
     128
 71
-169
 72
167
 73
-170
  0
VERTEX
  8
Layer0
10
0.0
 20
 0.0
 30
0.0
 70
     128
 71
-169
 72
-170
 73
171
  0
VERTEX
  8
Layer0
10
0.0
 20
 0.0
 30
0.0
 70
     128
 71
-171
 72
170
 73
-172
  0
VERTEX
  8
Layer0
10
0.0
 20
 0.0
 30
0.0
 70
     128
 71
-171
 72
-172
 73
173
  0
VERTEX
  8
Layer0
10
0.0
 20
 0.0
 30
0.0
 70
     128
 71
-173
 72
172
 73
-174
  0
VERTEX
  8
Layer0
10
0.0
 20
 0.0
 30
0.0
 70
     128
 71
-173
 72
-174
 73
175
  0
VERTEX
  8
Layer0
10
0.0
 20
 0.0
 30
0.0
 70
     128
 71
-175
 72
174
 73
-176
  0
VERTEX
  8
Layer0
10
0.0
 20
 0.0
 30
0.0
 70
     128
 71
-175
 72
-176
 73
177
  0
VERTEX
  8
Layer0
10
0.0
 20
 0.0
 30
0.0
 70
     128
 71
-177
 72
176
 73
-178
  0
VERTEX
  8
Layer0
10
0.0
 20
 0.0
 30
0.0
 70
     128
 71
-177
 72
-178
 73
179
  0
VERTEX
  8
Layer0
10
0.0
 20
 0.0
 30
0.0
 70
     128
 71
-179
 72
178
 73
-180
  0
VERTEX
  8
Layer0
10
0.0
 20
 0.0
 30
0.0
 70
     128
 71
-179
 72
-180
 73
181
  0
VERTEX
  8
Layer0
10
0.0
 20
 0.0
 30
0.0
 70
     128
 71
-181
 72
180
 73
-182
  0
VERTEX
  8
Layer0
10
0.0
 20
 0.0
 30
0.0
 70
     128
 71
-181
 72
-182
 73
183
  0
VERTEX
  8
Layer0
10
0.0
 20
 0.0
 30
0.0
 70
     128
 71
-183
 72
182
 73
-184
  0
VERTEX
  8
Layer0
10
0.0
 20
 0.0
 30
0.0
 70
     128
 71
-183
 72
-184
 73
185
  0
VERTEX
  8
Layer0
10
0.0
 20
 0.0
 30
0.0
 70
     128
 71
-185
 72
184
 73
-186
  0
VERTEX
  8
Layer0
10
0.0
 20
 0.0
 30
0.0
 70
     128
 71
-185
 72
-186
 73
187
  0
VERTEX
  8
Layer0
10
0.0
 20
 0.0
 30
0.0
 70
     128
 71
-187
 72
186
 73
-188
  0
VERTEX
  8
Layer0
10
0.0
 20
 0.0
 30
0.0
 70
     128
 71
-187
 72
-188
 73
189
  0
VERTEX
  8
Layer0
10
0.0
 20
 0.0
 30
0.0
 70
     128
 71
-189
 72
188
 73
-27
  0
VERTEX
  8
Layer0
10
0.0
 20
 0.0
 30
0.0
 70
     128
 71
-189
 72
-27
 73
190
  0
VERTEX
  8
Layer0
10
0.0
 20
 0.0
 30
0.0
 70
     128
 71
-191
 72
192
 73
193
  0
VERTEX
  8
Layer0
10
0.0
 20
 0.0
 30
0.0
 70
     128
 71
-192
 72
191
 73
-194
  0
VERTEX
  8
Layer0
10
0.0
 20
 0.0
 30
0.0
 70
     128
 71
-192
 72
194
 73
-150
  0
VERTEX
  8
Layer0
10
0.0
 20
 0.0
 30
0.0
 70
     128
 71
-192
 72
-150
 73
-195
  0
VERTEX
  8
Layer0
10
0.0
 20
 0.0
 30
0.0
 70
     128
 71
-195
 72
-150
 73
-168
  0
VERTEX
  8
Layer0
10
0.0
 20
 0.0
 30
0.0
 70
     128
 71
-195
 72
-168
 73
196
  0
VERTEX
  8
Layer0
10
0.0
 20
 0.0
 30
0.0
 70
     128
 71
-168
 72
-150
 73
-1
  0
VERTEX
  8
Layer0
10
0.0
 20
 0.0
 30
0.0
 70
     128
 71
-196
 72
168
 73
-197
  0
VERTEX
  8
Layer0
10
0.0
 20
 0.0
 30
0.0
 70
     128
 71
-196
 72
197
 73
-198
  0
VERTEX
  8
Layer0
10
0.0
 20
 0.0
 30
0.0
 70
     128
 71
-196
 72
-198
 73
199
  0
VERTEX
  8
Layer0
10
0.0
 20
 0.0
 30
0.0
 70
     128
 71
-199
 72
198
 73
-200
  0
VERTEX
  8
Layer0
10
0.0
 20
 0.0
 30
0.0
 70
     128
 71
-199
 72
200
 73
-201
  0
VERTEX
  8
Layer0
10
0.0
 20
 0.0
 30
0.0
 70
     128
 71
-199
 72
-201
 73
202
  0
VERTEX
  8
Layer0
10
0.0
 20
 0.0
 30
0.0
 70
     128
 71
-202
 72
201
 73
-203
  0
VERTEX
  8
Layer0
10
0.0
 20
 0.0
 30
0.0
 70
     128
 71
-202
 72
-203
 73
204
  0
VERTEX
  8
Layer0
10
0.0
 20
 0.0
 30
0.0
 70
     128
 71
-204
 72
203
 73
-205
  0
VERTEX
  8
Layer0
10
0.0
 20
 0.0
 30
0.0
 70
     128
 71
-204
 72
205
 73
-206
  0
VERTEX
  8
Layer0
10
0.0
 20
 0.0
 30
0.0
 70
     128
 71
-204
 72
-206
 73
207
  0
VERTEX
  8
Layer0
10
0.0
 20
 0.0
 30
0.0
 70
     128
 71
-207
 72
206
 73
-208
  0
VERTEX
  8
Layer0
10
0.0
 20
 0.0
 30
0.0
 70
     128
 71
-207
 72
208
 73
-209
  0
VERTEX
  8
Layer0
10
0.0
 20
 0.0
 30
0.0
 70
     128
 71
-207
 72
209
 73
-210
  0
VERTEX
  8
Layer0
10
0.0
 20
 0.0
 30
0.0
 70
     128
 71
-207
 72
210
 73
-211
  0
VERTEX
  8
Layer0
10
0.0
 20
 0.0
 30
0.0
 70
     128
 71
-207
 72
211
 73
-190
  0
VERTEX
  8
Layer0
10
0.0
 20
 0.0
 30
0.0
 70
     128
 71
-207
 72
-190
 73
-27
  0
VERTEX
  8
Layer0
10
0.0
 20
 0.0
 30
0.0
 70
     128
 71
-207
 72
-27
 73
32
  0
VERTEX
  8
Layer0
10
0.0
 20
 0.0
 30
0.0
 70
     128
 71
-212
 72
-2
 73
4
  0
VERTEX
  8
Layer0
10
0.0
 20
 0.0
 30
0.0
 70
     128
 71
-2
 72
-212
 73
213
  0
VERTEX
  8
Layer0
10
0.0
 20
 0.0
 30
0.0
 70
     128
 71
-213
 72
212
 73
-214
  0
VERTEX
  8
Layer0
10
0.0
 20
 0.0
 30
0.0
 70
     128
 71
-213
 72
-214
 73
215
  0
VERTEX
  8
Layer0
10
0.0
 20
 0.0
 30
0.0
 70
     128
 71
-215
 72
214
 73
-216
  0
VERTEX
  8
Layer0
10
0.0
 20
 0.0
 30
0.0
 70
     128
 71
-215
 72
-216
 73
217
  0
VERTEX
  8
Layer0
10
0.0
 20
 0.0
 30
0.0
 70
     128
 71
-217
 72
216
 73
-218
  0
VERTEX
  8
Layer0
10
0.0
 20
 0.0
 30
0.0
 70
     128
 71
-217
 72
-218
 73
219
  0
VERTEX
  8
Layer0
10
0.0
 20
 0.0
 30
0.0
 70
     128
 71
-219
 72
218
 73
-220
  0
VERTEX
  8
Layer0
10
0.0
 20
 0.0
 30
0.0
 70
     128
 71
-219
 72
-220
 73
221
  0
VERTEX
  8
Layer0
10
0.0
 20
 0.0
 30
0.0
 70
     128
 71
-221
 72
220
 73
-222
  0
VERTEX
  8
Layer0
10
0.0
 20
 0.0
 30
0.0
 70
     128
 71
-221
 72
-222
 73
223
  0
VERTEX
  8
Layer0
10
0.0
 20
 0.0
 30
0.0
 70
     128
 71
-223
 72
222
 73
-224
  0
VERTEX
  8
Layer0
10
0.0
 20
 0.0
 30
0.0
 70
     128
 71
-223
 72
-224
 73
225
  0
VERTEX
  8
Layer0
10
0.0
 20
 0.0
 30
0.0
 70
     128
 71
-225
 72
224
 73
-226
  0
VERTEX
  8
Layer0
10
0.0
 20
 0.0
 30
0.0
 70
     128
 71
-225
 72
-226
 73
227
  0
VERTEX
  8
Layer0
10
0.0
 20
 0.0
 30
0.0
 70
     128
 71
-227
 72
226
 73
-228
  0
VERTEX
  8
Layer0
10
0.0
 20
 0.0
 30
0.0
 70
     128
 71
-227
 72
-228
 73
229
  0
VERTEX
  8
Layer0
10
0.0
 20
 0.0
 30
0.0
 70
     128
 71
-229
 72
228
 73
-230
  0
VERTEX
  8
Layer0
10
0.0
 20
 0.0
 30
0.0
 70
     128
 71
-229
 72
-230
 73
231
  0
VERTEX
  8
Layer0
10
0.0
 20
 0.0
 30
0.0
 70
     128
 71
-231
 72
230
 73
-232
  0
VERTEX
  8
Layer0
10
0.0
 20
 0.0
 30
0.0
 70
     128
 71
-231
 72
-232
 73
233
  0
VERTEX
  8
Layer0
10
0.0
 20
 0.0
 30
0.0
 70
     128
 71
-233
 72
232
 73
-166
  0
VERTEX
  8
Layer0
10
0.0
 20
 0.0
 30
0.0
 70
     128
 71
-233
 72
-166
 73
26
  0
VERTEX
  8
Layer0
10
0.0
 20
 0.0
 30
0.0
 70
     128
 71
-234
 72
235
 73
236
  0
VERTEX
  8
Layer0
10
0.0
 20
 0.0
 30
0.0
 70
     128
 71
-235
 72
234
 73
-237
  0
VERTEX
  8
Layer0
10
0.0
 20
 0.0
 30
0.0
 70
     128
 71
-238
 72
239
 73
240
  0
VERTEX
  8
Layer0
10
0.0
 20
 0.0
 30
0.0
 70
     128
 71
-239
 72
238
 73
-241
  0
VERTEX
  8
Layer0
10
0.0
 20
 0.0
 30
0.0
 70
     128
 71
-242
 72
243
 73
244
  0
VERTEX
  8
Layer0
10
0.0
 20
 0.0
 30
0.0
 70
     128
 71
-243
 72
242
 73
-245
  0
VERTEX
  8
Layer0
10
0.0
 20
 0.0
 30
0.0
 70
     128
 71
-243
 72
-245
 73
195
  0
VERTEX
  8
Layer0
10
0.0
 20
 0.0
 30
0.0
 70
     128
 71
-195
 72
245
 73
-235
  0
VERTEX
  8
Layer0
10
0.0
 20
 0.0
 30
0.0
 70
     128
 71
-195
 72
-235
 73
-237
  0
VERTEX
  8
Layer0
10
0.0
 20
 0.0
 30
0.0
 70
     128
 71
-195
 72
237
 73
-239
  0
VERTEX
  8
Layer0
10
0.0
 20
 0.0
 30
0.0
 70
     128
 71
-195
 72
-239
 73
-241
  0
VERTEX
  8
Layer0
10
0.0
 20
 0.0
 30
0.0
 70
     128
 71
-195
 72
241
 73
-192
  0
VERTEX
  8
Layer0
10
0.0
 20
 0.0
 30
0.0
 70
     128
 71
-78
 72
-246
 73
-84
  0
VERTEX
  8
Layer0
10
0.0
 20
 0.0
 30
0.0
 70
     128
 71
-246
 72
78
 73
-247
  0
VERTEX
  8
Layer0
10
0.0
 20
 0.0
 30
0.0
 70
     128
 71
-246
 72
-247
 73
248
  0
VERTEX
  8
Layer0
10
0.0
 20
 0.0
 30
0.0
 70
     128
 71
-248
 72
247
 73
249
  0
VERTEX
  8
Layer0
10
0.0
 20
 0.0
 30
0.0
 70
     128
 71
-250
 72
-251
 73
252
  0
VERTEX
  8
Layer0
10
0.0
 20
 0.0
 30
0.0
 70
     128
 71
-251
 72
250
 73
253
  0
VERTEX
  8
Layer0
10
0.0
 20
 0.0
 30
0.0
 70
     128
 71
-84
 72
-254
 73
255
  0
VERTEX
  8
Layer0
10
0.0
 20
 0.0
 30
0.0
 70
     128
 71
-254
 72
-84
 73
-246
  0
VERTEX
  8
Layer0
10
0.0
 20
 0.0
 30
0.0
 70
     128
 71
-254
 72
246
 73
-252
  0
VERTEX
  8
Layer0
10
0.0
 20
 0.0
 30
0.0
 70
     128
 71
-254
 72
-252
 73
251
  0
VERTEX
  8
Layer0
10
0.0
 20
 0.0
 30
0.0
 70
     128
 71
-255
 72
254
 73
256
  0
SEQEND
  0
POLYLINE
 8
Layer0
 66
     1
10
0.0
 20
 0.0
 30
0.0
70
    64
71
262
72
   1
  0
VERTEX
  8
Layer0
10
-152.0
20
125.0
30
0.0
 70
     192
  0
VERTEX
  8
Layer0
10
-152.0
20
205.0
30
0.0
 70
     192
  0
VERTEX
  8
Layer0
10
-150.807403920117
20
134.058666578588
30
0.0
 70
     192
  0
VERTEX
  8
Layer0
10
-152.0
20
285.0
30
0.0
 70
     192
  0
VERTEX
  8
Layer0
10
-150.807403920117
20
195.941333421412
30
0.0
 70
     192
  0
VERTEX
  8
Layer0
10
-147.310889132455
20
142.5
30
0.0
 70
     192
  0
VERTEX
  8
Layer0
10
-147.310889132455
20
187.5
30
0.0
 70
     192
  0
VERTEX
  8
Layer0
10
-141.748737341529
20
149.748737341529
30
0.0
 70
     192
  0
VERTEX
  8
Layer0
10
-141.748737341529
20
180.251262658471
30
0.0
 70
     192
  0
VERTEX
  8
Layer0
10
-134.5
20
174.689110867545
30
0.0
 70
     192
  0
VERTEX
  8
Layer0
10
-134.5
20
155.310889132455
30
0.0
 70
     192
  0
VERTEX
  8
Layer0
10
-126.058666578588
20
171.192596079883
30
0.0
 70
     192
  0
VERTEX
  8
Layer0
10
-126.058666578588
20
158.807403920117
30
0.0
 70
     192
  0
VERTEX
  8
Layer0
10
-117.0
20
170.0
30
0.0
 70
     192
  0
VERTEX
  8
Layer0
10
-117.0
20
160.0
30
0.0
 70
     192
  0
VERTEX
  8
Layer0
10
-107.941333421412
20
171.192596079883
30
0.0
 70
     192
  0
VERTEX
  8
Layer0
10
-107.941333421412
20
158.807403920117
30
0.0
 70
     192
  0
VERTEX
  8
Layer0
10
-99.5
20
174.689110867545
30
0.0
 70
     192
  0
VERTEX
  8
Layer0
10
-99.5
20
155.310889132455
30
0.0
 70
     192
  0
VERTEX
  8
Layer0
10
-92.2512626584709
20
180.251262658471
30
0.0
 70
     192
  0
VERTEX
  8
Layer0
10
-92.2512626584708
20
149.748737341529
30
0.0
 70
     192
  0
VERTEX
  8
Layer0
10
-86.6891108675447
20
187.5
30
0.0
 70
     192
  0
VERTEX
  8
Layer0
10
-86.6891108675447
20
142.5
30
0.0
 70
     192
  0
VERTEX
  8
Layer0
10
-83.1925960798827
20
195.941333421412
30
0.0
 70
     192
  0
VERTEX
  8
Layer0
10
-83.1925960798826
20
134.058666578588
30
0.0
 70
     192
  0
VERTEX
  8
Layer0
10
-82.0000000000001
20
205.0
30
0.0
 70
     192
  0
VERTEX
  8
Layer0
10
-82.0
20
125.0
30
0.0
 70
     192
  0
VERTEX
  8
Layer0
10
-82.0
20
330.0
30
0.0
 70
     192
  0
VERTEX
  8
Layer0
10
-82.0
20
325.2
30
0.0
 70
     192
  0
VERTEX
  8
Layer0
10
-74.4
20
285.0
30
0.0
 70
     192
  0
VERTEX
  8
Layer0
10
-62.0
20
325.2
30
0.0
 70
     192
  0
VERTEX
  8
Layer0
10
-82.0
20
45.0
30
0.0
 70
     192
  0
VERTEX
  8
Layer0
10
-82.0
20
4.79999999999999
30
0.0
 70
     192
  0
VERTEX
  8
Layer0
10
-74.4
20
45.0
30
0.0
 70
     192
  0
VERTEX
  8
Layer0
10
-69.6
20
285.0
30
0.0
 70
     192
  0
VERTEX
  8
Layer0
10
-62.0
20
45.0
30
0.0
 70
     192
  0
VERTEX
  8
Layer0
10
-62.0
20
125.0
30
0.0
 70
     192
  0
VERTEX
  8
Layer0
10
-60.8074039201174
20
54.0586665785882
30
0.0
 70
     192
  0
VERTEX
  8
Layer0
10
-62.0
20
285.0
30
0.0
 70
     192
  0
VERTEX
  8
Layer0
10
-60.8074039201174
20
115.941333421412
30
0.0
 70
     192
  0
VERTEX
  8
Layer0
10
-57.3108891324554
20
62.5
30
0.0
 70
     192
  0
VERTEX
  8
Layer0
10
-57.3108891324554
20
107.5
30
0.0
 70
     192
  0
VERTEX
  8
Layer0
10
-51.7487373415292
20
69.7487373415292
30
0.0
 70
     192
  0
VERTEX
  8
Layer0
10
-51.7487373415292
20
100.251262658471
30
0.0
 70
     192
  0
VERTEX
  8
Layer0
10
-44.5
20
75.3108891324553
30
0.0
 70
     192
  0
VERTEX
  8
Layer0
10
-44.5
20
94.6891108675446
30
0.0
 70
     192
  0
VERTEX
  8
Layer0
10
-36.0586665785883
20
78.8074039201174
30
0.0
 70
     192
  0
VERTEX
  8
Layer0
10
-36.0586665785882
20
91.1925960798826
30
0.0
 70
     192
  0
VERTEX
  8
Layer0
10
-27.0
20
80.0
30
0.0
 70
     192
  0
VERTEX
  8
Layer0
10
-27.0
20
90.0
30
0.0
 70
     192
  0
VERTEX
  8
Layer0
10
-17.9413334214118
20
78.8074039201174
30
0.0
 70
     192
  0
VERTEX
  8
Layer0
10
-17.9413334214118
20
91.1925960798826
30
0.0
 70
     192
  0
VERTEX
  8
Layer0
10
-9.50000000000003
20
75.3108891324553
30
0.0
 70
     192
  0
VERTEX
  8
Layer0
10
-9.50000000000001
20
94.6891108675446
30
0.0
 70
     192
  0
VERTEX
  8
Layer0
10
-2.25126265847088
20
69.7487373415292
30
0.0
 70
     192
  0
VERTEX
  8
Layer0
10
-2.25126265847084
20
100.251262658471
30
0.0
 70
     192
  0
VERTEX
  8
Layer0
10
-8.03661185998811e-15
20
66.81483472408
30
0.0
 70
     192
  0
VERTEX
  8
Layer0
10
3.31088913245536
20
107.5
30
0.0
 70
     192
  0
VERTEX
  8
Layer0
10
3.31088913245531
20
62.5
30
0.0
 70
     192
  0
VERTEX
  8
Layer0
10
6.80740392011733
20
54.0586665785882
30
0.0
 70
     192
  0
VERTEX
  8
Layer0
10
6.80740392011738
20
115.941333421412
30
0.0
 70
     192
  0
VERTEX
  8
Layer0
10
7.99999999999994
20
45.0
30
0.0
 70
     192
  0
VERTEX
  8
Layer0
10
8.00000000000001
20
125.0
30
0.0
 70
     192
  0
VERTEX
  8
Layer0
10
-27.0
20
330.0
30
0.0
 70
     192
  0
VERTEX
  8
Layer0
10
-62.0
20
330.0
30
0.0
 70
     192
  0
VERTEX
  8
Layer0
10
-51.7487373415292
20
309.748737341529
30
0.0
 70
     192
  0
VERTEX
  8
Layer0
10
-57.3108891324554
20
302.5
30
0.0
 70
     192
  0
VERTEX
  8
Layer0
10
-60.8074039201174
20
294.058666578588
30
0.0
 70
     192
  0
VERTEX
  8
Layer0
10
-44.5
20
315.310889132455
30
0.0
 70
     192
  0
VERTEX
  8
Layer0
10
-36.0586665785882
20
318.807403920117
30
0.0
 70
     192
  0
VERTEX
  8
Layer0
10
-27.0
20
320.0
30
0.0
 70
     192
  0
VERTEX
  8
Layer0
10
-15.3531429703865
20
328.466662183008
30
0.0
 70
     192
  0
VERTEX
  8
Layer0
10
-17.9413334214118
20
318.807403920117
30
0.0
 70
     192
  0
VERTEX
  8
Layer0
10
-9.50000000000001
20
315.310889132455
30
0.0
 70
     192
  0
VERTEX
  8
Layer0
10
-4.50000000000001
20
323.9711431703
30
0.0
 70
     192
  0
VERTEX
  8
Layer0
10
-2.25126265847086
20
309.748737341529
30
0.0
 70
     192
  0
VERTEX
  8
Layer0
10
4.77112965615078e-14
20
320.518171724394
30
0.0
 70
     192
  0
VERTEX
  8
Layer0
10
3.31088913245534
20
302.5
30
0.0
 70
     192
  0
VERTEX
  8
Layer0
10
4.81980515339461
20
316.819805153395
30
0.0
 70
     192
  0
VERTEX
  8
Layer0
10
6.80740392011736
20
294.058666578588
30
0.0
 70
     192
  0
VERTEX
  8
Layer0
10
11.9711431702997
20
307.5
30
0.0
 70
     192
  0
VERTEX
  8
Layer0
10
7.99999999999996
20
285.0
30
0.0
 70
     192
  0
VERTEX
  8
Layer0
10
7.99999999999998
20
205.0
30
0.0
 70
     192
  0
VERTEX
  8
Layer0
10
11.9711431702997
20
22.5000000000001
30
0.0
 70
     192
  0
VERTEX
  8
Layer0
10
13.1999999999999
20
75.0
30
0.0
 70
     192
  0
VERTEX
  8
Layer0
10
16.466662183008
20
33.3531429703866
30
0.0
 70
     192
  0
VERTEX
  8
Layer0
10
13.1999999999999
20
95.0
30
0.0
 70
     192
  0
VERTEX
  8
Layer0
10
18.0
20
75.0
30
0.0
 70
     192
  0
VERTEX
  8
Layer0
10
17.9999999999999
20
45.0
30
0.0
 70
     192
  0
VERTEX
  8
Layer0
10
-62.0
20
4.8
30
0.0
 70
     192
  0
VERTEX
  8
Layer0
10
-69.6
20
45.0
30
0.0
 70
     192
  0
VERTEX
  8
Layer0
10
-60.8074039201174
20
35.9413334214118
30
0.0
 70
     192
  0
VERTEX
  8
Layer0
10
-62.0
20
6.25519837946988e-14
30
0.0
 70
     192
  0
VERTEX
  8
Layer0
10
-57.3108891324554
20
27.5
30
0.0
 70
     192
  0
VERTEX
  8
Layer0
10
-51.7487373415292
20
20.2512626584708
30
0.0
 70
     192
  0
VERTEX
  8
Layer0
10
-27.0
20
5.6399329650958e-14
30
0.0
 70
     192
  0
VERTEX
  8
Layer0
10
-44.5000000000001
20
14.6891108675447
30
0.0
 70
     192
  0
VERTEX
  8
Layer0
10
-36.0586665785883
20
11.1925960798826
30
0.0
 70
     192
  0
VERTEX
  8
Layer0
10
-27.0
20
10.0
30
0.0
 70
     192
  0
VERTEX
  8
Layer0
10
-17.9413334214118
20
11.1925960798826
30
0.0
 70
     192
  0
VERTEX
  8
Layer0
10
-15.3531429703866
20
1.53333781699199
30
0.0
 70
     192
  0
VERTEX
  8
Layer0
10
-9.50000000000005
20
14.6891108675447
30
0.0
 70
     192
  0
VERTEX
  8
Layer0
10
-4.50000000000004
20
6.02885682970033
30
0.0
 70
     192
  0
VERTEX
  8
Layer0
10
-2.25126265847091
20
20.2512626584708
30
0.0
 70
     192
  0
VERTEX
  8
Layer0
10
4.81980515339459
20
13.1801948466054
30
0.0
 70
     192
  0
VERTEX
  8
Layer0
10
3.31088913245529
20
27.5
30
0.0
 70
     192
  0
VERTEX
  8
Layer0
10
6.80740392011733
20
35.9413334214118
30
0.0
 70
     192
  0
VERTEX
  8
Layer0
10
-62.0
20
205.0
30
0.0
 70
     192
  0
VERTEX
  8
Layer0
10
-60.8074039201174
20
134.058666578588
30
0.0
 70
     192
  0
VERTEX
  8
Layer0
10
-60.8074039201174
20
195.941333421412
30
0.0
 70
     192
  0
VERTEX
  8
Layer0
10
-57.3108891324554
20
142.5
30
0.0
 70
     192
  0
VERTEX
  8
Layer0
10
-57.3108891324554
20
187.5
30
0.0
 70
     192
  0
VERTEX
  8
Layer0
10
-51.7487373415292
20
180.251262658471
30
0.0
 70
     192
  0
VERTEX
  8
Layer0
10
-51.7487373415292
20
149.748737341529
30
0.0
 70
     192
  0
VERTEX
  8
Layer0
10
-44.5
20
174.689110867545
30
0.0
 70
     192
  0
VERTEX
  8
Layer0
10
-44.5
20
155.310889132455
30
0.0
 70
     192
  0
VERTEX
  8
Layer0
10
-36.0586665785882
20
171.192596079883
30
0.0
 70
     192
  0
VERTEX
  8
Layer0
10
-36.0586665785882
20
158.807403920117
30
0.0
 70
     192
  0
VERTEX
  8
Layer0
10
-27.0
20
170.0
30
0.0
 70
     192
  0
VERTEX
  8
Layer0
10
-27.0
20
160.0
30
0.0
 70
     192
  0
VERTEX
  8
Layer0
10
-17.9413334214118
20
171.192596079883
30
0.0
 70
     192
  0
VERTEX
  8
Layer0
10
-17.9413334214117
20
158.807403920117
30
0.0
 70
     192
  0
VERTEX
  8
Layer0
10
-9.50000000000001
20
174.689110867545
30
0.0
 70
     192
  0
VERTEX
  8
Layer0
10
-9.49999999999998
20
155.310889132455
30
0.0
 70
     192
  0
VERTEX
  8
Layer0
10
-2.25126265847086
20
180.251262658471
30
0.0
 70
     192
  0
VERTEX
  8
Layer0
10
-2.25126265847082
20
149.748737341529
30
0.0
 70
     192
  0
VERTEX
  8
Layer0
10
1.68812213006943e-14
20
183.18516527592
30
0.0
 70
     192
  0
VERTEX
  8
Layer0
10
8.4661849090466e-15
20
146.81483472408
30
0.0
 70
     192
  0
VERTEX
  8
Layer0
10
3.31088913245538
20
142.5
30
0.0
 70
     192
  0
VERTEX
  8
Layer0
10
3.31088913245534
20
187.5
30
0.0
 70
     192
  0
VERTEX
  8
Layer0
10
6.80740392011738
20
195.941333421412
30
0.0
 70
     192
  0
VERTEX
  8
Layer0
10
6.8074039201174
20
134.058666578588
30
0.0
 70
     192
  0
VERTEX
  8
Layer0
10
-60.8074039201174
20
275.941333421412
30
0.0
 70
     192
  0
VERTEX
  8
Layer0
10
-60.8074039201174
20
214.058666578588
30
0.0
 70
     192
  0
VERTEX
  8
Layer0
10
-57.3108891324554
20
267.5
30
0.0
 70
     192
  0
VERTEX
  8
Layer0
10
-57.3108891324553
20
222.5
30
0.0
 70
     192
  0
VERTEX
  8
Layer0
10
-51.7487373415292
20
260.251262658471
30
0.0
 70
     192
  0
VERTEX
  8
Layer0
10
-51.7487373415292
20
229.748737341529
30
0.0
 70
     192
  0
VERTEX
  8
Layer0
10
-44.5
20
254.689110867545
30
0.0
 70
     192
  0
VERTEX
  8
Layer0
10
-44.5
20
235.310889132455
30
0.0
 70
     192
  0
VERTEX
  8
Layer0
10
-36.0586665785883
20
251.192596079883
30
0.0
 70
     192
  0
VERTEX
  8
Layer0
10
-36.0586665785882
20
238.807403920117
30
0.0
 70
     192
  0
VERTEX
  8
Layer0
10
-27.0
20
250.0
30
0.0
 70
     192
  0
VERTEX
  8
Layer0
10
-27.0
20
240.0
30
0.0
 70
     192
  0
VERTEX
  8
Layer0
10
-17.9413334214118
20
251.192596079883
30
0.0
 70
     192
  0
VERTEX
  8
Layer0
10
-17.9413334214118
20
238.807403920117
30
0.0
 70
     192
  0
VERTEX
  8
Layer0
10
-9.50000000000003
20
254.689110867545
30
0.0
 70
     192
  0
VERTEX
  8
Layer0
10
-9.49999999999998
20
235.310889132455
30
0.0
 70
     192
  0
VERTEX
  8
Layer0
10
-2.25126265847088
20
260.251262658471
30
0.0
 70
     192
  0
VERTEX
  8
Layer0
10
-2.25126265847084
20
229.748737341529
30
0.0
 70
     192
  0
VERTEX
  8
Layer0
10
3.51493796045871e-14
20
263.18516527592
30
0.0
 70
     192
  0
VERTEX
  8
Layer0
10
2.71333529067569e-14
20
226.81483472408
30
0.0
 70
     192
  0
VERTEX
  8
Layer0
10
3.31088913245536
20
222.5
30
0.0
 70
     192
  0
VERTEX
  8
Layer0
10
3.31088913245531
20
267.5
30
0.0
 70
     192
  0
VERTEX
  8
Layer0
10
6.80740392011733
20
275.941333421412
30
0.0
 70
     192
  0
VERTEX
  8
Layer0
10
6.80740392011738
20
214.058666578588
30
0.0
 70
     192
  0
VERTEX
  8
Layer0
10
-155.9711431703
20
307.5
30
0.0
 70
     192
  0
VERTEX
  8
Layer0
10
-148.819805153395
20
316.819805153395
30
0.0
 70
     192
  0
VERTEX
  8
Layer0
10
-150.807403920117
20
294.058666578588
30
0.0
 70
     192
  0
VERTEX
  8
Layer0
10
-147.310889132455
20
302.5
30
0.0
 70
     192
  0
VERTEX
  8
Layer0
10
-139.5
20
323.9711431703
30
0.0
 70
     192
  0
VERTEX
  8
Layer0
10
-141.748737341529
20
309.748737341529
30
0.0
 70
     192
  0
VERTEX
  8
Layer0
10
-134.5
20
315.310889132455
30
0.0
 70
     192
  0
VERTEX
  8
Layer0
10
-128.646857029613
20
328.466662183008
30
0.0
 70
     192
  0
VERTEX
  8
Layer0
10
-126.058666578588
20
318.807403920117
30
0.0
 70
     192
  0
VERTEX
  8
Layer0
10
-117.0
20
330.0
30
0.0
 70
     192
  0
VERTEX
  8
Layer0
10
-117.0
20
320.0
30
0.0
 70
     192
  0
VERTEX
  8
Layer0
10
-107.941333421412
20
318.807403920117
30
0.0
 70
     192
  0
VERTEX
  8
Layer0
10
-99.5
20
315.310889132455
30
0.0
 70
     192
  0
VERTEX
  8
Layer0
10
-92.2512626584709
20
309.748737341529
30
0.0
 70
     192
  0
VERTEX
  8
Layer0
10
-86.6891108675447
20
302.5
30
0.0
 70
     192
  0
VERTEX
  8
Layer0
10
-83.1925960798827
20
294.058666578588
30
0.0
 70
     192
  0
VERTEX
  8
Layer0
10
-82.0000000000001
20
285.0
30
0.0
 70
     192
  0
VERTEX
  8
Layer0
10
-160.466662183008
20
296.646857029613
30
0.0
 70
     192
  0
VERTEX
  8
Layer0
10
-162.0
20
255.0
30
0.0
 70
     192
  0
VERTEX
  8
Layer0
10
-162.0
20
285.0
30
0.0
 70
     192
  0
VERTEX
  8
Layer0
10
-157.2
20
255.0
30
0.0
 70
     192
  0
VERTEX
  8
Layer0
10
-155.9711431703
20
22.5
30
0.0
 70
     192
  0
VERTEX
  8
Layer0
10
-152.0
20
45.0
30
0.0
 70
     192
  0
VERTEX
  8
Layer0
10
-148.819805153395
20
13.1801948466054
30
0.0
 70
     192
  0
VERTEX
  8
Layer0
10
-150.807403920117
20
35.9413334214118
30
0.0
 70
     192
  0
VERTEX
  8
Layer0
10
-147.310889132455
20
27.5
30
0.0
 70
     192
  0
VERTEX
  8
Layer0
10
-139.5
20
6.02885682970026
30
0.0
 70
     192
  0
VERTEX
  8
Layer0
10
-141.748737341529
20
20.2512626584708
30
0.0
 70
     192
  0
VERTEX
  8
Layer0
10
-134.5
20
14.6891108675447
30
0.0
 70
     192
  0
VERTEX
  8
Layer0
10
-128.646857029613
20
1.53333781699193
30
0.0
 70
     192
  0
VERTEX
  8
Layer0
10
-126.058666578588
20
11.1925960798826
30
0.0
 70
     192
  0
VERTEX
  8
Layer0
10
-117.0
20
0.0
30
0.0
 70
     192
  0
VERTEX
  8
Layer0
10
-117.0
20
10.0
30
0.0
 70
     192
  0
VERTEX
  8
Layer0
10
-107.941333421412
20
11.1925960798826
30
0.0
 70
     192
  0
VERTEX
  8
Layer0
10
-82.0
20
5.43484449363777e-14
30
0.0
 70
     192
  0
VERTEX
  8
Layer0
10
-99.5
20
14.6891108675446
30
0.0
 70
     192
  0
VERTEX
  8
Layer0
10
-92.2512626584709
20
20.2512626584708
30
0.0
 70
     192
  0
VERTEX
  8
Layer0
10
-86.6891108675447
20
27.5
30
0.0
 70
     192
  0
VERTEX
  8
Layer0
10
-83.1925960798827
20
35.9413334214117
30
0.0
 70
     192
  0
VERTEX
  8
Layer0
10
-150.807403920117
20
115.941333421412
30
0.0
 70
     192
  0
VERTEX
  8
Layer0
10
-150.807403920117
20
54.0586665785882
30
0.0
 70
     192
  0
VERTEX
  8
Layer0
10
-147.310889132455
20
107.5
30
0.0
 70
     192
  0
VERTEX
  8
Layer0
10
-147.310889132455
20
62.5
30
0.0
 70
     192
  0
VERTEX
  8
Layer0
10
-141.748737341529
20
100.251262658471
30
0.0
 70
     192
  0
VERTEX
  8
Layer0
10
-141.748737341529
20
69.7487373415292
30
0.0
 70
     192
  0
VERTEX
  8
Layer0
10
-134.5
20
94.6891108675446
30
0.0
 70
     192
  0
VERTEX
  8
Layer0
10
-134.5
20
75.3108891324553
30
0.0
 70
     192
  0
VERTEX
  8
Layer0
10
-126.058666578588
20
91.1925960798826
30
0.0
 70
     192
  0
VERTEX
  8
Layer0
10
-126.058666578588
20
78.8074039201174
30
0.0
 70
     192
  0
VERTEX
  8
Layer0
10
-117.0
20
90.0
30
0.0
 70
     192
  0
VERTEX
  8
Layer0
10
-117.0
20
80.0
30
0.0
 70
     192
  0
VERTEX
  8
Layer0
10
-107.941333421412
20
91.1925960798826
30
0.0
 70
     192
  0
VERTEX
  8
Layer0
10
-107.941333421412
20
78.8074039201174
30
0.0
 70
     192
  0
VERTEX
  8
Layer0
10
-99.5
20
94.6891108675446
30
0.0
 70
     192
  0
VERTEX
  8
Layer0
10
-99.5
20
75.3108891324553
30
0.0
 70
     192
  0
VERTEX
  8
Layer0
10
-92.2512626584709
20
100.251262658471
30
0.0
 70
     192
  0
VERTEX
  8
Layer0
10
-92.2512626584709
20
69.7487373415292
30
0.0
 70
     192
  0
VERTEX
  8
Layer0
10
-86.6891108675447
20
107.5
30
0.0
 70
     192
  0
VERTEX
  8
Layer0
10
-86.6891108675447
20
62.5
30
0.0
 70
     192
  0
VERTEX
  8
Layer0
10
-83.1925960798826
20
115.941333421412
30
0.0
 70
     192
  0
VERTEX
  8
Layer0
10
-83.1925960798826
20
54.0586665785882
30
0.0
 70
     192
  0
VERTEX
  8
Layer0
10
-150.807403920117
20
275.941333421412
30
0.0
 70
     192
  0
VERTEX
  8
Layer0
10
-150.807403920117
20
214.058666578588
30
0.0
 70
     192
  0
VERTEX
  8
Layer0
10
-147.310889132455
20
267.5
30
0.0
 70
     192
  0
VERTEX
  8
Layer0
10
-147.310889132455
20
222.5
30
0.0
 70
     192
  0
VERTEX
  8
Layer0
10
-141.748737341529
20
260.251262658471
30
0.0
 70
     192
  0
VERTEX
  8
Layer0
10
-141.748737341529
20
229.748737341529
30
0.0
 70
     192
  0
VERTEX
  8
Layer0
10
-134.5
20
254.689110867545
30
0.0
 70
     192
  0
VERTEX
  8
Layer0
10
-134.5
20
235.310889132455
30
0.0
 70
     192
  0
VERTEX
  8
Layer0
10
-126.058666578588
20
251.192596079883
30
0.0
 70
     192
  0
VERTEX
  8
Layer0
10
-126.058666578588
20
238.807403920117
30
0.0
 70
     192
  0
VERTEX
  8
Layer0
10
-117.0
20
250.0
30
0.0
 70
     192
  0
VERTEX
  8
Layer0
10
-117.0
20
240.0
30
0.0
 70
     192
  0
VERTEX
  8
Layer0
10
-107.941333421412
20
251.192596079883
30
0.0
 70
     192
  0
VERTEX
  8
Layer0
10
-107.941333421412
20
238.807403920117
30
0.0
 70
     192
  0
VERTEX
  8
Layer0
10
-99.5
20
254.689110867545
30
0.0
 70
     192
  0
VERTEX
  8
Layer0
10
-99.5
20
235.310889132455
30
0.0
 70
     192
  0
VERTEX
  8
Layer0
10
-92.2512626584709
20
260.251262658471
30
0.0
 70
     192
  0
VERTEX
  8
Layer0
10
-92.2512626584709
20
229.748737341529
30
0.0
 70
     192
  0
VERTEX
  8
Layer0
10
-86.6891108675447
20
267.5
30
0.0
 70
     192
  0
VERTEX
  8
Layer0
10
-86.6891108675447
20
222.5
30
0.0
 70
     192
  0
VERTEX
  8
Layer0
10
-83.1925960798827
20
275.941333421412
30
0.0
 70
     192
  0
VERTEX
  8
Layer0
10
-83.1925960798827
20
214.058666578588
30
0.0
 70
     192
  0
VERTEX
  8
Layer0
10
-157.2
20
235.0
30
0.0
 70
     192
  0
VERTEX
  8
Layer0
10
-162.0
20
175.0
30
0.0
 70
     192
  0
VERTEX
  8
Layer0
10
-162.0
20
235.0
30
0.0
 70
     192
  0
VERTEX
  8
Layer0
10
-157.2
20
175.0
30
0.0
 70
     192
  0
VERTEX
  8
Layer0
10
-157.2
20
155.0
30
0.0
 70
     192
  0
VERTEX
  8
Layer0
10
-157.2
20
95.0
30
0.0
 70
     192
  0
VERTEX
  8
Layer0
10
-157.2
20
75.0
30
0.0
 70
     192
  0
VERTEX
  8
Layer0
10
-162.0
20
45.0
30
0.0
 70
     192
  0
VERTEX
  8
Layer0
10
-162.0
20
75.0
30
0.0
 70
     192
  0
VERTEX
  8
Layer0
10
-160.466662183008
20
33.3531429703866
30
0.0
 70
     192
  0
VERTEX
  8
Layer0
10
-162.0
20
155.0
30
0.0
 70
     192
  0
VERTEX
  8
Layer0
10
-162.0
20
95.0
30
0.0
 70
     192
  0
VERTEX
  8
Layer0
10
13.2
20
255.0
30
0.0
 70
     192
  0
VERTEX
  8
Layer0
10
16.466662183008
20
296.646857029613
30
0.0
 70
     192
  0
VERTEX
  8
Layer0
10
18.0
20
255.0
30
0.0
 70
     192
  0
VERTEX
  8
Layer0
10
17.9999999999999
20
285.0
30
0.0
 70
     192
  0
VERTEX
  8
Layer0
10
18.0
20
235.0
30
0.0
 70
     192
  0
VERTEX
  8
Layer0
10
13.2
20
175.0
30
0.0
 70
     192
  0
VERTEX
  8
Layer0
10
13.2
20
235.0
30
0.0
 70
     192
  0
VERTEX
  8
Layer0
10
18.0
20
175.0
30
0.0
 70
     192
  0
VERTEX
  8
Layer0
10
13.2
20
155.0
30
0.0
 70
     192
  0
VERTEX
  8
Layer0
10
18.0
20
95.0
30
0.0
 70
     192
  0
VERTEX
  8
Layer0
10
18.0
20
155.0
30
0.0
 70
     192
  0
VERTEX
  8
Layer0
10
0.0
 20
 0.0
 30
0.0
 70
     128
 71
-1
 72
-2
 73
3
  0
VERTEX
  8
Layer0
10
0.0
 20
 0.0
 30
0.0
 70
     128
 71
-2
 72
-1
 73
-4
  0
VERTEX
  8
Layer0
10
0.0
 20
 0.0
 30
0.0
 70
     128
 71
-3
 72
2
 73
-5
  0
VERTEX
  8
Layer0
10
0.0
 20
 0.0
 30
0.0
 70
     128
 71
-3
 72
-5
 73
6
  0
VERTEX
  8
Layer0
10
0.0
 20
 0.0
 30
0.0
 70
     128
 71
-6
 72
5
 73
-7
  0
VERTEX
  8
Layer0
10
0.0
 20
 0.0
 30
0.0
 70
     128
 71
-6
 72
-7
 73
8
  0
VERTEX
  8
Layer0
10
0.0
 20
 0.0
 30
0.0
 70
     128
 71
-8
 72
7
 73
-9
  0
VERTEX
  8
Layer0
10
0.0
 20
 0.0
 30
0.0
 70
     128
 71
-8
 72
9
 73
-10
  0
VERTEX
  8
Layer0
10
0.0
 20
 0.0
 30
0.0
 70
     128
 71
-8
 72
-10
 73
11
  0
VERTEX
  8
Layer0
10
0.0
 20
 0.0
 30
0.0
 70
     128
 71
-11
 72
10
 73
-12
  0
VERTEX
  8
Layer0
10
0.0
 20
 0.0
 30
0.0
 70
     128
 71
-11
 72
-12
 73
13
  0
VERTEX
  8
Layer0
10
0.0
 20
 0.0
 30
0.0
 70
     128
 71
-13
 72
12
 73
-14
  0
VERTEX
  8
Layer0
10
0.0
 20
 0.0
 30
0.0
 70
     128
 71
-13
 72
-14
 73
15
  0
VERTEX
  8
Layer0
10
0.0
 20
 0.0
 30
0.0
 70
     128
 71
-15
 72
14
 73
-16
  0
VERTEX
  8
Layer0
10
0.0
 20
 0.0
 30
0.0
 70
     128
 71
-15
 72
-16
 73
17
  0
VERTEX
  8
Layer0
10
0.0
 20
 0.0
 30
0.0
 70
     128
 71
-17
 72
16
 73
-18
  0
VERTEX
  8
Layer0
10
0.0
 20
 0.0
 30
0.0
 70
     128
 71
-17
 72
-18
 73
19
  0
VERTEX
  8
Layer0
10
0.0
 20
 0.0
 30
0.0
 70
     128
 71
-19
 72
18
 73
-20
  0
VERTEX
  8
Layer0
10
0.0
 20
 0.0
 30
0.0
 70
     128
 71
-19
 72
-20
 73
21
  0
VERTEX
  8
Layer0
10
0.0
 20
 0.0
 30
0.0
 70
     128
 71
-21
 72
20
 73
-22
  0
VERTEX
  8
Layer0
10
0.0
 20
 0.0
 30
0.0
 70
     128
 71
-21
 72
-22
 73
23
  0
VERTEX
  8
Layer0
10
0.0
 20
 0.0
 30
0.0
 70
     128
 71
-23
 72
22
 73
-24
  0
VERTEX
  8
Layer0
10
0.0
 20
 0.0
 30
0.0
 70
     128
 71
-23
 72
-24
 73
25
  0
VERTEX
  8
Layer0
10
0.0
 20
 0.0
 30
0.0
 70
     128
 71
-25
 72
24
 73
-26
  0
VERTEX
  8
Layer0
10
0.0
 20
 0.0
 30
0.0
 70
     128
 71
-25
 72
-26
 73
27
  0
VERTEX
  8
Layer0
10
0.0
 20
 0.0
 30
0.0
 70
     128
 71
-27
 72
-26
 73
-28
  0
VERTEX
  8
Layer0
10
0.0
 20
 0.0
 30
0.0
 70
     128
 71
-27
 72
28
 73
-29
  0
VERTEX
  8
Layer0
10
0.0
 20
 0.0
 30
0.0
 70
     128
 71
-27
 72
-29
 73
-30
  0
VERTEX
  8
Layer0
10
0.0
 20
 0.0
 30
0.0
 70
     128
 71
-30
 72
29
 73
-31
  0
VERTEX
  8
Layer0
10
0.0
 20
 0.0
 30
0.0
 70
     128
 71
-27
 72
-30
 73
-32
  0
VERTEX
  8
Layer0
10
0.0
 20
 0.0
 30
0.0
 70
     128
 71
-32
 72
-30
 73
-33
  0
VERTEX
  8
Layer0
10
0.0
 20
 0.0
 30
0.0
 70
     128
 71
-33
 72
30
 73
-34
  0
VERTEX
  8
Layer0
10
0.0
 20
 0.0
 30
0.0
 70
     128
 71
-30
 72
-31
 73
35
  0
VERTEX
  8
Layer0
10
0.0
 20
 0.0
 30
0.0
 70
     128
 71
-36
 72
-37
 73
38
  0
VERTEX
  8
Layer0
10
0.0
 20
 0.0
 30
0.0
 70
     128
 71
-37
 72
-36
 73
-39
  0
VERTEX
  8
Layer0
10
0.0
 20
 0.0
 30
0.0
 70
     128
 71
-38
 72
37
 73
-40
  0
VERTEX
  8
Layer0
10
0.0
 20
 0.0
 30
0.0
 70
     128
 71
-38
 72
-40
 73
41
  0
VERTEX
  8
Layer0
10
0.0
 20
 0.0
 30
0.0
 70
     128
 71
-41
 72
40
 73
-42
  0
VERTEX
  8
Layer0
10
0.0
 20
 0.0
 30
0.0
 70
     128
 71
-41
 72
-42
 73
43
  0
VERTEX
  8
Layer0
10
0.0
 20
 0.0
 30
0.0
 70
     128
 71
-43
 72
42
 73
-44
  0
VERTEX
  8
Layer0
10
0.0
 20
 0.0
 30
0.0
 70
     128
 71
-43
 72
-44
 73
45
  0
VERTEX
  8
Layer0
10
0.0
 20
 0.0
 30
0.0
 70
     128
 71
-45
 72
44
 73
-46
  0
VERTEX
  8
Layer0
10
0.0
 20
 0.0
 30
0.0
 70
     128
 71
-45
 72
-46
 73
47
  0
VERTEX
  8
Layer0
10
0.0
 20
 0.0
 30
0.0
 70
     128
 71
-47
 72
46
 73
-48
  0
VERTEX
  8
Layer0
10
0.0
 20
 0.0
 30
0.0
 70
     128
 71
-47
 72
-48
 73
49
  0
VERTEX
  8
Layer0
10
0.0
 20
 0.0
 30
0.0
 70
     128
 71
-49
 72
48
 73
-50
  0
VERTEX
  8
Layer0
10
0.0
 20
 0.0
 30
0.0
 70
     128
 71
-49
 72
-50
 73
51
  0
VERTEX
  8
Layer0
10
0.0
 20
 0.0
 30
0.0
 70
     128
 71
-51
 72
50
 73
-52
  0
VERTEX
  8
Layer0
10
0.0
 20
 0.0
 30
0.0
 70
     128
 71
-51
 72
-52
 73
53
  0
VERTEX
  8
Layer0
10
0.0
 20
 0.0
 30
0.0
 70
     128
 71
-53
 72
52
 73
-54
  0
VERTEX
  8
Layer0
10
0.0
 20
 0.0
 30
0.0
 70
     128
 71
-53
 72
-54
 73
55
  0
VERTEX
  8
Layer0
10
0.0
 20
 0.0
 30
0.0
 70
     128
 71
-55
 72
54
 73
-56
  0
VERTEX
  8
Layer0
10
0.0
 20
 0.0
 30
0.0
 70
     128
 71
-55
 72
-56
 73
57
  0
VERTEX
  8
Layer0
10
0.0
 20
 0.0
 30
0.0
 70
     128
 71
-57
 72
56
 73
-58
  0
VERTEX
  8
Layer0
10
0.0
 20
 0.0
 30
0.0
 70
     128
 71
-57
 72
-58
 73
59
  0
VERTEX
  8
Layer0
10
0.0
 20
 0.0
 30
0.0
 70
     128
 71
-59
 72
-58
 73
60
  0
VERTEX
  8
Layer0
10
0.0
 20
 0.0
 30
0.0
 70
     128
 71
-60
 72
58
 73
-61
  0
VERTEX
  8
Layer0
10
0.0
 20
 0.0
 30
0.0
 70
     128
 71
-60
 72
-61
 73
62
  0
VERTEX
  8
Layer0
10
0.0
 20
 0.0
 30
0.0
 70
     128
 71
-62
 72
61
 73
-63
  0
VERTEX
  8
Layer0
10
0.0
 20
 0.0
 30
0.0
 70
     128
 71
-64
 72
31
 73
65
  0
VERTEX
  8
Layer0
10
0.0
 20
 0.0
 30
0.0
 70
     128
 71
-31
 72
-64
 73
-66
  0
VERTEX
  8
Layer0
10
0.0
 20
 0.0
 30
0.0
 70
     128
 71
-31
 72
66
 73
-67
  0
VERTEX
  8
Layer0
10
0.0
 20
 0.0
 30
0.0
 70
     128
 71
-31
 72
67
 73
-68
  0
VERTEX
  8
Layer0
10
0.0
 20
 0.0
 30
0.0
 70
     128
 71
-31
 72
68
 73
-39
  0
VERTEX
  8
Layer0
10
0.0
 20
 0.0
 30
0.0
 70
     128
 71
-31
 72
-39
 73
-36
  0
VERTEX
  8
Layer0
10
0.0
 20
 0.0
 30
0.0
 70
     128
 71
-66
 72
-64
 73
69
  0
VERTEX
  8
Layer0
10
0.0
 20
 0.0
 30
0.0
 70
     128
 71
-69
 72
-64
 73
70
  0
VERTEX
  8
Layer0
10
0.0
 20
 0.0
 30
0.0
 70
     128
 71
-70
 72
-64
 73
71
  0
VERTEX
  8
Layer0
10
0.0
 20
 0.0
 30
0.0
 70
     128
 71
-71
 72
64
 73
-72
  0
VERTEX
  8
Layer0
10
0.0
 20
 0.0
 30
0.0
 70
     128
 71
-71
 72
-72
 73
73
  0
VERTEX
  8
Layer0
10
0.0
 20
 0.0
 30
0.0
 70
     128
 71
-73
 72
-72
 73
74
  0
VERTEX
  8
Layer0
10
0.0
 20
 0.0
 30
0.0
 70
     128
 71
-74
 72
72
 73
-75
  0
VERTEX
  8
Layer0
10
0.0
 20
 0.0
 30
0.0
 70
     128
 71
-74
 72
-75
 73
76
  0
VERTEX
  8
Layer0
10
0.0
 20
 0.0
 30
0.0
 70
     128
 71
-76
 72
75
 73
-77
  0
VERTEX
  8
Layer0
10
0.0
 20
 0.0
 30
0.0
 70
     128
 71
-76
 72
-77
 73
78
  0
VERTEX
  8
Layer0
10
0.0
 20
 0.0
 30
0.0
 70
     128
 71
-78
 72
77
 73
-79
  0
VERTEX
  8
Layer0
10
0.0
 20
 0.0
 30
0.0
 70
     128
 71
-78
 72
-79
 73
80
  0
VERTEX
  8
Layer0
10
0.0
 20
 0.0
 30
0.0
 70
     128
 71
-80
 72
79
 73
-81
  0
VERTEX
  8
Layer0
10
0.0
 20
 0.0
 30
0.0
 70
     128
 71
-80
 72
-81
 73
82
  0
VERTEX
  8
Layer0
10
0.0
 20
 0.0
 30
0.0
 70
     128
 71
-82
 72
-81
 73
-83
  0
VERTEX
  8
Layer0
10
0.0
 20
 0.0
 30
0.0
 70
     128
 71
-83
 72
-81
 73
-63
  0
VERTEX
  8
Layer0
10
0.0
 20
 0.0
 30
0.0
 70
     128
 71
-63
 72
-81
 73
-84
  0
VERTEX
  8
Layer0
10
0.0
 20
 0.0
 30
0.0
 70
     128
 71
-84
 72
-81
 73
-85
  0
VERTEX
  8
Layer0
10
0.0
 20
 0.0
 30
0.0
 70
     128
 71
-84
 72
-85
 73
86
  0
VERTEX
  8
Layer0
10
0.0
 20
 0.0
 30
0.0
 70
     128
 71
-85
 72
-81
 73
87
  0
VERTEX
  8
Layer0
10
0.0
 20
 0.0
 30
0.0
 70
     128
 71
-86
 72
85
 73
-88
  0
VERTEX
  8
Layer0
10
0.0
 20
 0.0
 30
0.0
 70
     128
 71
-86
 72
88
 73
89
  0
VERTEX
  8
Layer0
10
0.0
 20
 0.0
 30
0.0
 70
     128
 71
-34
 72
90
 73
-33
  0
VERTEX
  8
Layer0
10
0.0
 20
 0.0
 30
0.0
 70
     128
 71
-90
 72
34
 73
-91
  0
VERTEX
  8
Layer0
10
0.0
 20
 0.0
 30
0.0
 70
     128
 71
-90
 72
91
 73
-35
  0
VERTEX
  8
Layer0
10
0.0
 20
 0.0
 30
0.0
 70
     128
 71
-90
 72
-35
 73
-31
  0
VERTEX
  8
Layer0
10
0.0
 20
 0.0
 30
0.0
 70
     128
 71
-90
 72
-31
 73
-36
  0
VERTEX
  8
Layer0
10
0.0
 20
 0.0
 30
0.0
 70
     128
 71
-90
 72
36
 73
-92
  0
VERTEX
  8
Layer0
10
0.0
 20
 0.0
 30
0.0
 70
     128
 71
-90
 72
-92
 73
93
  0
VERTEX
  8
Layer0
10
0.0
 20
 0.0
 30
0.0
 70
     128
 71
-93
 72
92
 73
-94
  0
VERTEX
  8
Layer0
10
0.0
 20
 0.0
 30
0.0
 70
     128
 71
-93
 72
94
 73
-95
  0
VERTEX
  8
Layer0
10
0.0
 20
 0.0
 30
0.0
 70
     128
 71
-93
 72
-95
 73
96
  0
VERTEX
  8
Layer0
10
0.0
 20
 0.0
 30
0.0
 70
     128
 71
-96
 72
95
 73
-97
  0
VERTEX
  8
Layer0
10
0.0
 20
 0.0
 30
0.0
 70
     128
 71
-96
 72
97
 73
-98
  0
VERTEX
  8
Layer0
10
0.0
 20
 0.0
 30
0.0
 70
     128
 71
-96
 72
98
 73
-99
  0
VERTEX
  8
Layer0
10
0.0
 20
 0.0
 30
0.0
 70
     128
 71
-96
 72
99
 73
-100
  0
VERTEX
  8
Layer0
10
0.0
 20
 0.0
 30
0.0
 70
     128
 71
-96
 72
-100
 73
101
  0
VERTEX
  8
Layer0
10
0.0
 20
 0.0
 30
0.0
 70
     128
 71
-101
 72
100
 73
-102
  0
VERTEX
  8
Layer0
10
0.0
 20
 0.0
 30
0.0
 70
     128
 71
-101
 72
-102
 73
103
  0
VERTEX
  8
Layer0
10
0.0
 20
 0.0
 30
0.0
 70
     128
 71
-103
 72
102
 73
-104
  0
VERTEX
  8
Layer0
10
0.0
 20
 0.0
 30
0.0
 70
     128
 71
-103
 72
-104
 73
105
  0
VERTEX
  8
Layer0
10
0.0
 20
 0.0
 30
0.0
 70
     128
 71
-105
 72
104
 73
-106
  0
VERTEX
  8
Layer0
10
0.0
 20
 0.0
 30
0.0
 70
     128
 71
-105
 72
106
 73
-107
  0
VERTEX
  8
Layer0
10
0.0
 20
 0.0
 30
0.0
 70
     128
 71
-105
 72
-107
 73
84
  0
VERTEX
  8
Layer0
10
0.0
 20
 0.0
 30
0.0
 70
     128
 71
-84
 72
107
 73
-62
  0
VERTEX
  8
Layer0
10
0.0
 20
 0.0
 30
0.0
 70
     128
 71
-84
 72
-62
 73
-63
  0
VERTEX
  8
Layer0
10
0.0
 20
 0.0
 30
0.0
 70
     128
 71
-108
 72
109
 73
-37
  0
VERTEX
  8
Layer0
10
0.0
 20
 0.0
 30
0.0
 70
     128
 71
-109
 72
108
 73
-110
  0
VERTEX
  8
Layer0
10
0.0
 20
 0.0
 30
0.0
 70
     128
 71
-109
 72
-110
 73
111
  0
VERTEX
  8
Layer0
10
0.0
 20
 0.0
 30
0.0
 70
     128
 71
-111
 72
110
 73
-112
  0
VERTEX
  8
Layer0
10
0.0
 20
 0.0
 30
0.0
 70
     128
 71
-111
 72
112
 73
-113
  0
VERTEX
  8
Layer0
10
0.0
 20
 0.0
 30
0.0
 70
     128
 71
-111
 72
-113
 73
114
  0
VERTEX
  8
Layer0
10
0.0
 20
 0.0
 30
0.0
 70
     128
 71
-114
 72
113
 73
-115
  0
VERTEX
  8
Layer0
10
0.0
 20
 0.0
 30
0.0
 70
     128
 71
-114
 72
-115
 73
116
  0
VERTEX
  8
Layer0
10
0.0
 20
 0.0
 30
0.0
 70
     128
 71
-116
 72
115
 73
-117
  0
VERTEX
  8
Layer0
10
0.0
 20
 0.0
 30
0.0
 70
     128
 71
-116
 72
-117
 73
118
  0
VERTEX
  8
Layer0
10
0.0
 20
 0.0
 30
0.0
 70
     128
 71
-118
 72
117
 73
-119
  0
VERTEX
  8
Layer0
10
0.0
 20
 0.0
 30
0.0
 70
     128
 71
-118
 72
-119
 73
120
  0
VERTEX
  8
Layer0
10
0.0
 20
 0.0
 30
0.0
 70
     128
 71
-120
 72
119
 73
-121
  0
VERTEX
  8
Layer0
10
0.0
 20
 0.0
 30
0.0
 70
     128
 71
-120
 72
-121
 73
122
  0
VERTEX
  8
Layer0
10
0.0
 20
 0.0
 30
0.0
 70
     128
 71
-122
 72
121
 73
-123
  0
VERTEX
  8
Layer0
10
0.0
 20
 0.0
 30
0.0
 70
     128
 71
-122
 72
-123
 73
124
  0
VERTEX
  8
Layer0
10
0.0
 20
 0.0
 30
0.0
 70
     128
 71
-124
 72
123
 73
-125
  0
VERTEX
  8
Layer0
10
0.0
 20
 0.0
 30
0.0
 70
     128
 71
-124
 72
-125
 73
126
  0
VERTEX
  8
Layer0
10
0.0
 20
 0.0
 30
0.0
 70
     128
 71
-126
 72
125
 73
-127
  0
VERTEX
  8
Layer0
10
0.0
 20
 0.0
 30
0.0
 70
     128
 71
-126
 72
-127
 73
128
  0
VERTEX
  8
Layer0
10
0.0
 20
 0.0
 30
0.0
 70
     128
 71
-128
 72
-127
 73
129
  0
VERTEX
  8
Layer0
10
0.0
 20
 0.0
 30
0.0
 70
     128
 71
-129
 72
127
 73
-130
  0
VERTEX
  8
Layer0
10
0.0
 20
 0.0
 30
0.0
 70
     128
 71
-129
 72
130
 73
-131
  0
VERTEX
  8
Layer0
10
0.0
 20
 0.0
 30
0.0
 70
     128
 71
-129
 72
-131
 73
132
  0
VERTEX
  8
Layer0
10
0.0
 20
 0.0
 30
0.0
 70
     128
 71
-132
 72
131
 73
-83
  0
VERTEX
  8
Layer0
10
0.0
 20
 0.0
 30
0.0
 70
     128
 71
-132
 72
-83
 73
63
  0
VERTEX
  8
Layer0
10
0.0
 20
 0.0
 30
0.0
 70
     128
 71
-39
 72
-108
 73
-37
  0
VERTEX
  8
Layer0
10
0.0
 20
 0.0
 30
0.0
 70
     128
 71
-108
 72
39
 73
-133
  0
VERTEX
  8
Layer0
10
0.0
 20
 0.0
 30
0.0
 70
     128
 71
-108
 72
-133
 73
134
  0
VERTEX
  8
Layer0
10
0.0
 20
 0.0
 30
0.0
 70
     128
 71
-134
 72
133
 73
-135
  0
VERTEX
  8
Layer0
10
0.0
 20
 0.0
 30
0.0
 70
     128
 71
-134
 72
-135
 73
136
  0
VERTEX
  8
Layer0
10
0.0
 20
 0.0
 30
0.0
 70
     128
 71
-136
 72
135
 73
-137
  0
VERTEX
  8
Layer0
10
0.0
 20
 0.0
 30
0.0
 70
     128
 71
-136
 72
-137
 73
138
  0
VERTEX
  8
Layer0
10
0.0
 20
 0.0
 30
0.0
 70
     128
 71
-138
 72
137
 73
-139
  0
VERTEX
  8
Layer0
10
0.0
 20
 0.0
 30
0.0
 70
     128
 71
-138
 72
-139
 73
140
  0
VERTEX
  8
Layer0
10
0.0
 20
 0.0
 30
0.0
 70
     128
 71
-140
 72
139
 73
-141
  0
VERTEX
  8
Layer0
10
0.0
 20
 0.0
 30
0.0
 70
     128
 71
-140
 72
-141
 73
142
  0
VERTEX
  8
Layer0
10
0.0
 20
 0.0
 30
0.0
 70
     128
 71
-142
 72
141
 73
-143
  0
VERTEX
  8
Layer0
10
0.0
 20
 0.0
 30
0.0
 70
     128
 71
-142
 72
-143
 73
144
  0
VERTEX
  8
Layer0
10
0.0
 20
 0.0
 30
0.0
 70
     128
 71
-144
 72
143
 73
-145
  0
VERTEX
  8
Layer0
10
0.0
 20
 0.0
 30
0.0
 70
     128
 71
-144
 72
-145
 73
146
  0
VERTEX
  8
Layer0
10
0.0
 20
 0.0
 30
0.0
 70
     128
 71
-146
 72
145
 73
-147
  0
VERTEX
  8
Layer0
10
0.0
 20
 0.0
 30
0.0
 70
     128
 71
-146
 72
-147
 73
148
  0
VERTEX
  8
Layer0
10
0.0
 20
 0.0
 30
0.0
 70
     128
 71
-148
 72
147
 73
-149
  0
VERTEX
  8
Layer0
10
0.0
 20
 0.0
 30
0.0
 70
     128
 71
-148
 72
-149
 73
150
  0
VERTEX
  8
Layer0
10
0.0
 20
 0.0
 30
0.0
 70
     128
 71
-150
 72
149
 73
-151
  0
VERTEX
  8
Layer0
10
0.0
 20
 0.0
 30
0.0
 70
     128
 71
-150
 72
-151
 73
152
  0
VERTEX
  8
Layer0
10
0.0
 20
 0.0
 30
0.0
 70
     128
 71
-152
 72
-151
 73
153
  0
VERTEX
  8
Layer0
10
0.0
 20
 0.0
 30
0.0
 70
     128
 71
-153
 72
151
 73
-154
  0
VERTEX
  8
Layer0
10
0.0
 20
 0.0
 30
0.0
 70
     128
 71
-153
 72
154
 73
-155
  0
VERTEX
  8
Layer0
10
0.0
 20
 0.0
 30
0.0
 70
     128
 71
-153
 72
-155
 73
156
  0
VERTEX
  8
Layer0
10
0.0
 20
 0.0
 30
0.0
 70
     128
 71
-156
 72
155
 73
-82
  0
VERTEX
  8
Layer0
10
0.0
 20
 0.0
 30
0.0
 70
     128
 71
-156
 72
-82
 73
83
  0
VERTEX
  8
Layer0
10
0.0
 20
 0.0
 30
0.0
 70
     128
 71
-157
 72
-4
 73
-1
  0
VERTEX
  8
Layer0
10
0.0
 20
 0.0
 30
0.0
 70
     128
 71
-4
 72
157
 73
-158
  0
VERTEX
  8
Layer0
10
0.0
 20
 0.0
 30
0.0
 70
     128
 71
-4
 72
-158
 73
159
  0
VERTEX
  8
Layer0
10
0.0
 20
 0.0
 30
0.0
 70
     128
 71
-159
 72
-158
 73
160
  0
VERTEX
  8
Layer0
10
0.0
 20
 0.0
 30
0.0
 70
     128
 71
-160
 72
158
 73
-161
  0
VERTEX
  8
Layer0
10
0.0
 20
 0.0
 30
0.0
 70
     128
 71
-160
 72
-161
 73
162
  0
VERTEX
  8
Layer0
10
0.0
 20
 0.0
 30
0.0
 70
     128
 71
-162
 72
-161
 73
163
  0
VERTEX
  8
Layer0
10
0.0
 20
 0.0
 30
0.0
 70
     128
 71
-163
 72
161
 73
-164
  0
VERTEX
  8
Layer0
10
0.0
 20
 0.0
 30
0.0
 70
     128
 71
-163
 72
-164
 73
165
  0
VERTEX
  8
Layer0
10
0.0
 20
 0.0
 30
0.0
 70
     128
 71
-165
 72
164
 73
-166
  0
VERTEX
  8
Layer0
10
0.0
 20
 0.0
 30
0.0
 70
     128
 71
-165
 72
-166
 73
167
  0
VERTEX
  8
Layer0
10
0.0
 20
 0.0
 30
0.0
 70
     128
 71
-167
 72
166
 73
-28
  0
VERTEX
  8
Layer0
10
0.0
 20
 0.0
 30
0.0
 70
     128
 71
-167
 72
-28
 73
168
  0
VERTEX
  8
Layer0
10
0.0
 20
 0.0
 30
0.0
 70
     128
 71
-168
 72
-28
 73
169
  0
VERTEX
  8
Layer0
10
0.0
 20
 0.0
 30
0.0
 70
     128
 71
-169
 72
-28
 73
170
  0
VERTEX
  8
Layer0
10
0.0
 20
 0.0
 30
0.0
 70
     128
 71
-170
 72
-28
 73
171
  0
VERTEX
  8
Layer0
10
0.0
 20
 0.0
 30
0.0
 70
     128
 71
-171
 72
-28
 73
172
  0
VERTEX
  8
Layer0
10
0.0
 20
 0.0
 30
0.0
 70
     128
 71
-172
 72
-28
 73
173
  0
VERTEX
  8
Layer0
10
0.0
 20
 0.0
 30
0.0
 70
     128
 71
-173
 72
-28
 73
-26
  0
VERTEX
  8
Layer0
10
0.0
 20
 0.0
 30
0.0
 70
     128
 71
-174
 72
175
 73
176
  0
VERTEX
  8
Layer0
10
0.0
 20
 0.0
 30
0.0
 70
     128
 71
-175
 72
-174
 73
177
  0
VERTEX
  8
Layer0
10
0.0
 20
 0.0
 30
0.0
 70
     128
 71
-177
 72
174
 73
-157
  0
VERTEX
  8
Layer0
10
0.0
 20
 0.0
 30
0.0
 70
     128
 71
-177
 72
-157
 73
-178
  0
VERTEX
  8
Layer0
10
0.0
 20
 0.0
 30
0.0
 70
     128
 71
-178
 72
-157
 73
-179
  0
VERTEX
  8
Layer0
10
0.0
 20
 0.0
 30
0.0
 70
     128
 71
-178
 72
-179
 73
180
  0
VERTEX
  8
Layer0
10
0.0
 20
 0.0
 30
0.0
 70
     128
 71
-179
 72
-157
 73
-1
  0
VERTEX
  8
Layer0
10
0.0
 20
 0.0
 30
0.0
 70
     128
 71
-180
 72
179
 73
-181
  0
VERTEX
  8
Layer0
10
0.0
 20
 0.0
 30
0.0
 70
     128
 71
-180
 72
181
 73
-182
  0
VERTEX
  8
Layer0
10
0.0
 20
 0.0
 30
0.0
 70
     128
 71
-180
 72
-182
 73
183
  0
VERTEX
  8
Layer0
10
0.0
 20
 0.0
 30
0.0
 70
     128
 71
-183
 72
182
 73
-184
  0
VERTEX
  8
Layer0
10
0.0
 20
 0.0
 30
0.0
 70
     128
 71
-183
 72
184
 73
-185
  0
VERTEX
  8
Layer0
10
0.0
 20
 0.0
 30
0.0
 70
     128
 71
-183
 72
-185
 73
186
  0
VERTEX
  8
Layer0
10
0.0
 20
 0.0
 30
0.0
 70
     128
 71
-186
 72
185
 73
-187
  0
VERTEX
  8
Layer0
10
0.0
 20
 0.0
 30
0.0
 70
     128
 71
-186
 72
-187
 73
188
  0
VERTEX
  8
Layer0
10
0.0
 20
 0.0
 30
0.0
 70
     128
 71
-188
 72
187
 73
-189
  0
VERTEX
  8
Layer0
10
0.0
 20
 0.0
 30
0.0
 70
     128
 71
-188
 72
189
 73
-190
  0
VERTEX
  8
Layer0
10
0.0
 20
 0.0
 30
0.0
 70
     128
 71
-188
 72
-190
 73
191
  0
VERTEX
  8
Layer0
10
0.0
 20
 0.0
 30
0.0
 70
     128
 71
-191
 72
190
 73
-192
  0
VERTEX
  8
Layer0
10
0.0
 20
 0.0
 30
0.0
 70
     128
 71
-191
 72
192
 73
-193
  0
VERTEX
  8
Layer0
10
0.0
 20
 0.0
 30
0.0
 70
     128
 71
-191
 72
193
 73
-194
  0
VERTEX
  8
Layer0
10
0.0
 20
 0.0
 30
0.0
 70
     128
 71
-191
 72
194
 73
-195
  0
VERTEX
  8
Layer0
10
0.0
 20
 0.0
 30
0.0
 70
     128
 71
-191
 72
195
 73
-32
  0
VERTEX
  8
Layer0
10
0.0
 20
 0.0
 30
0.0
 70
     128
 71
-191
 72
-32
 73
33
  0
VERTEX
  8
Layer0
10
0.0
 20
 0.0
 30
0.0
 70
     128
 71
-196
 72
-179
 73
1
  0
VERTEX
  8
Layer0
10
0.0
 20
 0.0
 30
0.0
 70
     128
 71
-179
 72
-196
 73
197
  0
VERTEX
  8
Layer0
10
0.0
 20
 0.0
 30
0.0
 70
     128
 71
-197
 72
196
 73
-198
  0
VERTEX
  8
Layer0
10
0.0
 20
 0.0
 30
0.0
 70
     128
 71
-197
 72
-198
 73
199
  0
VERTEX
  8
Layer0
10
0.0
 20
 0.0
 30
0.0
 70
     128
 71
-199
 72
198
 73
-200
  0
VERTEX
  8
Layer0
10
0.0
 20
 0.0
 30
0.0
 70
     128
 71
-199
 72
-200
 73
201
  0
VERTEX
  8
Layer0
10
0.0
 20
 0.0
 30
0.0
 70
     128
 71
-201
 72
200
 73
-202
  0
VERTEX
  8
Layer0
10
0.0
 20
 0.0
 30
0.0
 70
     128
 71
-201
 72
-202
 73
203
  0
VERTEX
  8
Layer0
10
0.0
 20
 0.0
 30
0.0
 70
     128
 71
-203
 72
202
 73
-204
  0
VERTEX
  8
Layer0
10
0.0
 20
 0.0
 30
0.0
 70
     128
 71
-203
 72
-204
 73
205
  0
VERTEX
  8
Layer0
10
0.0
 20
 0.0
 30
0.0
 70
     128
 71
-205
 72
204
 73
-206
  0
VERTEX
  8
Layer0
10
0.0
 20
 0.0
 30
0.0
 70
     128
 71
-205
 72
-206
 73
207
  0
VERTEX
  8
Layer0
10
0.0
 20
 0.0
 30
0.0
 70
     128
 71
-207
 72
206
 73
-208
  0
VERTEX
  8
Layer0
10
0.0
 20
 0.0
 30
0.0
 70
     128
 71
-207
 72
-208
 73
209
  0
VERTEX
  8
Layer0
10
0.0
 20
 0.0
 30
0.0
 70
     128
 71
-209
 72
208
 73
-210
  0
VERTEX
  8
Layer0
10
0.0
 20
 0.0
 30
0.0
 70
     128
 71
-209
 72
-210
 73
211
  0
VERTEX
  8
Layer0
10
0.0
 20
 0.0
 30
0.0
 70
     128
 71
-211
 72
210
 73
-212
  0
VERTEX
  8
Layer0
10
0.0
 20
 0.0
 30
0.0
 70
     128
 71
-211
 72
-212
 73
213
  0
VERTEX
  8
Layer0
10
0.0
 20
 0.0
 30
0.0
 70
     128
 71
-213
 72
212
 73
-214
  0
VERTEX
  8
Layer0
10
0.0
 20
 0.0
 30
0.0
 70
     128
 71
-213
 72
-214
 73
215
  0
VERTEX
  8
Layer0
10
0.0
 20
 0.0
 30
0.0
 70
     128
 71
-215
 72
214
 73
-216
  0
VERTEX
  8
Layer0
10
0.0
 20
 0.0
 30
0.0
 70
     128
 71
-215
 72
-216
 73
217
  0
VERTEX
  8
Layer0
10
0.0
 20
 0.0
 30
0.0
 70
     128
 71
-217
 72
216
 73
-27
  0
VERTEX
  8
Layer0
10
0.0
 20
 0.0
 30
0.0
 70
     128
 71
-217
 72
-27
 73
32
  0
VERTEX
  8
Layer0
10
0.0
 20
 0.0
 30
0.0
 70
     128
 71
-218
 72
-2
 73
4
  0
VERTEX
  8
Layer0
10
0.0
 20
 0.0
 30
0.0
 70
     128
 71
-2
 72
-218
 73
219
  0
VERTEX
  8
Layer0
10
0.0
 20
 0.0
 30
0.0
 70
     128
 71
-219
 72
218
 73
-220
  0
VERTEX
  8
Layer0
10
0.0
 20
 0.0
 30
0.0
 70
     128
 71
-219
 72
-220
 73
221
  0
VERTEX
  8
Layer0
10
0.0
 20
 0.0
 30
0.0
 70
     128
 71
-221
 72
220
 73
-222
  0
VERTEX
  8
Layer0
10
0.0
 20
 0.0
 30
0.0
 70
     128
 71
-221
 72
-222
 73
223
  0
VERTEX
  8
Layer0
10
0.0
 20
 0.0
 30
0.0
 70
     128
 71
-223
 72
222
 73
-224
  0
VERTEX
  8
Layer0
10
0.0
 20
 0.0
 30
0.0
 70
     128
 71
-223
 72
-224
 73
225
  0
VERTEX
  8
Layer0
10
0.0
 20
 0.0
 30
0.0
 70
     128
 71
-225
 72
224
 73
-226
  0
VERTEX
  8
Layer0
10
0.0
 20
 0.0
 30
0.0
 70
     128
 71
-225
 72
-226
 73
227
  0
VERTEX
  8
Layer0
10
0.0
 20
 0.0
 30
0.0
 70
     128
 71
-227
 72
226
 73
-228
  0
VERTEX
  8
Layer0
10
0.0
 20
 0.0
 30
0.0
 70
     128
 71
-227
 72
-228
 73
229
  0
VERTEX
  8
Layer0
10
0.0
 20
 0.0
 30
0.0
 70
     128
 71
-229
 72
228
 73
-230
  0
VERTEX
  8
Layer0
10
0.0
 20
 0.0
 30
0.0
 70
     128
 71
-229
 72
-230
 73
231
  0
VERTEX
  8
Layer0
10
0.0
 20
 0.0
 30
0.0
 70
     128
 71
-231
 72
230
 73
-232
  0
VERTEX
  8
Layer0
10
0.0
 20
 0.0
 30
0.0
 70
     128
 71
-231
 72
-232
 73
233
  0
VERTEX
  8
Layer0
10
0.0
 20
 0.0
 30
0.0
 70
     128
 71
-233
 72
232
 73
-234
  0
VERTEX
  8
Layer0
10
0.0
 20
 0.0
 30
0.0
 70
     128
 71
-233
 72
-234
 73
235
  0
VERTEX
  8
Layer0
10
0.0
 20
 0.0
 30
0.0
 70
     128
 71
-235
 72
234
 73
-236
  0
VERTEX
  8
Layer0
10
0.0
 20
 0.0
 30
0.0
 70
     128
 71
-235
 72
-236
 73
237
  0
VERTEX
  8
Layer0
10
0.0
 20
 0.0
 30
0.0
 70
     128
 71
-237
 72
236
 73
-238
  0
VERTEX
  8
Layer0
10
0.0
 20
 0.0
 30
0.0
 70
     128
 71
-237
 72
-238
 73
239
  0
VERTEX
  8
Layer0
10
0.0
 20
 0.0
 30
0.0
 70
     128
 71
-239
 72
238
 73
-173
  0
VERTEX
  8
Layer0
10
0.0
 20
 0.0
 30
0.0
 70
     128
 71
-239
 72
-173
 73
26
  0
VERTEX
  8
Layer0
10
0.0
 20
 0.0
 30
0.0
 70
     128
 71
-240
 72
241
 73
242
  0
VERTEX
  8
Layer0
10
0.0
 20
 0.0
 30
0.0
 70
     128
 71
-241
 72
-240
 73
243
  0
VERTEX
  8
Layer0
10
0.0
 20
 0.0
 30
0.0
 70
     128
 71
-243
 72
240
 73
-177
  0
VERTEX
  8
Layer0
10
0.0
 20
 0.0
 30
0.0
 70
     128
 71
-243
 72
-177
 73
244
  0
VERTEX
  8
Layer0
10
0.0
 20
 0.0
 30
0.0
 70
     128
 71
-244
 72
-177
 73
-245
  0
VERTEX
  8
Layer0
10
0.0
 20
 0.0
 30
0.0
 70
     128
 71
-245
 72
-177
 73
246
  0
VERTEX
  8
Layer0
10
0.0
 20
 0.0
 30
0.0
 70
     128
 71
-246
 72
247
 73
248
  0
VERTEX
  8
Layer0
10
0.0
 20
 0.0
 30
0.0
 70
     128
 71
-247
 72
-246
 73
249
  0
VERTEX
  8
Layer0
10
0.0
 20
 0.0
 30
0.0
 70
     128
 71
-249
 72
-246
 73
178
  0
VERTEX
  8
Layer0
10
0.0
 20
 0.0
 30
0.0
 70
     128
 71
-178
 72
-246
 73
-177
  0
VERTEX
  8
Layer0
10
0.0
 20
 0.0
 30
0.0
 70
     128
 71
-250
 72
245
 73
251
  0
VERTEX
  8
Layer0
10
0.0
 20
 0.0
 30
0.0
 70
     128
 71
-245
 72
250
 73
-244
  0
VERTEX
  8
Layer0
10
0.0
 20
 0.0
 30
0.0
 70
     128
 71
-81
 72
-252
 73
-87
  0
VERTEX
  8
Layer0
10
0.0
 20
 0.0
 30
0.0
 70
     128
 71
-252
 72
81
 73
-253
  0
VERTEX
  8
Layer0
10
0.0
 20
 0.0
 30
0.0
 70
     128
 71
-252
 72
-253
 73
254
  0
VERTEX
  8
Layer0
10
0.0
 20
 0.0
 30
0.0
 70
     128
 71
-254
 72
253
 73
255
  0
VERTEX
  8
Layer0
10
0.0
 20
 0.0
 30
0.0
 70
     128
 71
-256
 72
-257
 73
258
  0
VERTEX
  8
Layer0
10
0.0
 20
 0.0
 30
0.0
 70
     128
 71
-257
 72
256
 73
259
  0
VERTEX
  8
Layer0
10
0.0
 20
 0.0
 30
0.0
 70
     128
 71
-87
 72
-260
 73
261
  0
VERTEX
  8
Layer0
10
0.0
 20
 0.0
 30
0.0
 70
     128
 71
-260
 72
-87
 73
-252
  0
VERTEX
  8
Layer0
10
0.0
 20
 0.0
 30
0.0
 70
     128
 71
-260
 72
252
 73
-258
  0
VERTEX
  8
Layer0
10
0.0
 20
 0.0
 30
0.0
 70
     128
 71
-260
 72
-258
 73
257
  0
VERTEX
  8
Layer0
10
0.0
 20
 0.0
 30
0.0
 70
     128
 71
-261
 72
260
 73
262
  0
SEQEND
  0
POLYLINE
 8
Layer0
 66
     1
10
0.0
 20
 0.0
 30
0.0
70
    64
71
65
72
   1
  0
VERTEX
  8
Layer0
10
-264.0
20
325.2
30
0.0
 70
     192
  0
VERTEX
  8
Layer0
10
-256.4
20
295.0
30
0.0
 70
     192
  0
VERTEX
  8
Layer0
10
-264.0
20
4.79999999999999
30
0.0
 70
     192
  0
VERTEX
  8
Layer0
10
-244.0
20
325.2
30
0.0
 70
     192
  0
VERTEX
  8
Layer0
10
-251.6
20
295.0
30
0.0
 70
     192
  0
VERTEX
  8
Layer0
10
-251.6
20
35.0
30
0.0
 70
     192
  0
VERTEX
  8
Layer0
10
-209.0
20
330.0
30
0.0
 70
     192
  0
VERTEX
  8
Layer0
10
-244.0
20
330.0
30
0.0
 70
     192
  0
VERTEX
  8
Layer0
10
-244.0
20
4.8
30
0.0
 70
     192
  0
VERTEX
  8
Layer0
10
-244.0
20
6.25519837946988e-14
30
0.0
 70
     192
  0
VERTEX
  8
Layer0
10
-209.0
20
5.6399329650958e-14
30
0.0
 70
     192
  0
VERTEX
  8
Layer0
10
-197.353142970387
20
328.466662183008
30
0.0
 70
     192
  0
VERTEX
  8
Layer0
10
-197.353142970387
20
1.53333781699199
30
0.0
 70
     192
  0
VERTEX
  8
Layer0
10
-186.5
20
6.02885682970033
30
0.0
 70
     192
  0
VERTEX
  8
Layer0
10
-186.5
20
323.9711431703
30
0.0
 70
     192
  0
VERTEX
  8
Layer0
10
-177.180194846605
20
13.1801948466054
30
0.0
 70
     192
  0
VERTEX
  8
Layer0
10
-182.0
20
320.518171724394
30
0.0
 70
     192
  0
VERTEX
  8
Layer0
10
-177.180194846605
20
316.819805153395
30
0.0
 70
     192
  0
VERTEX
  8
Layer0
10
-170.0288568297
20
22.5000000000001
30
0.0
 70
     192
  0
VERTEX
  8
Layer0
10
-170.0288568297
20
307.5
30
0.0
 70
     192
  0
VERTEX
  8
Layer0
10
-168.8
20
75.0
30
0.0
 70
     192
  0
VERTEX
  8
Layer0
10
-165.533337816992
20
33.3531429703866
30
0.0
 70
     192
  0
VERTEX
  8
Layer0
10
-168.8
20
95.0
30
0.0
 70
     192
  0
VERTEX
  8
Layer0
10
-164.0
20
75.0
30
0.0
 70
     192
  0
VERTEX
  8
Layer0
10
-164.0
20
45.0
30
0.0
 70
     192
  0
VERTEX
  8
Layer0
10
-256.4
20
35.0
30
0.0
 70
     192
  0
VERTEX
  8
Layer0
10
-339.2
20
235.0
30
0.0
 70
     192
  0
VERTEX
  8
Layer0
10
-344.0
20
175.0
30
0.0
 70
     192
  0
VERTEX
  8
Layer0
10
-344.0
20
235.0
30
0.0
 70
     192
  0
VERTEX
  8
Layer0
10
-339.2
20
175.0
30
0.0
 70
     192
  0
VERTEX
  8
Layer0
10
-339.2
20
255.0
30
0.0
 70
     192
  0
VERTEX
  8
Layer0
10
-339.2
20
155.0
30
0.0
 70
     192
  0
VERTEX
  8
Layer0
10
-339.2
20
95.0
30
0.0
 70
     192
  0
VERTEX
  8
Layer0
10
-339.2
20
75.0
30
0.0
 70
     192
  0
VERTEX
  8
Layer0
10
-342.466662183008
20
296.646857029613
30
0.0
 70
     192
  0
VERTEX
  8
Layer0
10
-344.0
20
255.0
30
0.0
 70
     192
  0
VERTEX
  8
Layer0
10
-344.0
20
285.0
30
0.0
 70
     192
  0
VERTEX
  8
Layer0
10
-337.9711431703
20
307.5
30
0.0
 70
     192
  0
VERTEX
  8
Layer0
10
-337.9711431703
20
22.5
30
0.0
 70
     192
  0
VERTEX
  8
Layer0
10
-330.819805153395
20
13.1801948466054
30
0.0
 70
     192
  0
VERTEX
  8
Layer0
10
-330.819805153395
20
316.819805153395
30
0.0
 70
     192
  0
VERTEX
  8
Layer0
10
-321.5
20
323.9711431703
30
0.0
 70
     192
  0
VERTEX
  8
Layer0
10
-321.5
20
6.02885682970026
30
0.0
 70
     192
  0
VERTEX
  8
Layer0
10
-310.646857029613
20
1.53333781699193
30
0.0
 70
     192
  0
VERTEX
  8
Layer0
10
-310.646857029613
20
328.466662183008
30
0.0
 70
     192
  0
VERTEX
  8
Layer0
10
-299.0
20
330.0
30
0.0
 70
     192
  0
VERTEX
  8
Layer0
10
-299.0
20
0.0
30
0.0
 70
     192
  0
VERTEX
  8
Layer0
10
-264.0
20
330.0
30
0.0
 70
     192
  0
VERTEX
  8
Layer0
10
-264.0
20
5.43484449363777e-14
30
0.0
 70
     192
  0
VERTEX
  8
Layer0
10
-344.0
20
45.0
30
0.0
 70
     192
  0
VERTEX
  8
Layer0
10
-344.0
20
75.0
30
0.0
 70
     192
  0
VERTEX
  8
Layer0
10
-342.466662183008
20
33.3531429703866
30
0.0
 70
     192
  0
VERTEX
  8
Layer0
10
-344.0
20
95.0
30
0.0
 70
     192
  0
VERTEX
  8
Layer0
10
-344.0
20
155.0
30
0.0
 70
     192
  0
VERTEX
  8
Layer0
10
-168.8
20
255.0
30
0.0
 70
     192
  0
VERTEX
  8
Layer0
10
-165.533337816992
20
296.646857029613
30
0.0
 70
     192
  0
VERTEX
  8
Layer0
10
-164.0
20
255.0
30
0.0
 70
     192
  0
VERTEX
  8
Layer0
10
-164.0
20
285.0
30
0.0
 70
     192
  0
VERTEX
  8
Layer0
10
-164.0
20
235.0
30
0.0
 70
     192
  0
VERTEX
  8
Layer0
10
-168.8
20
175.0
30
0.0
 70
     192
  0
VERTEX
  8
Layer0
10
-168.8
20
235.0
30
0.0
 70
     192
  0
VERTEX
  8
Layer0
10
-164.0
20
175.0
30
0.0
 70
     192
  0
VERTEX
  8
Layer0
10
-168.8
20
155.0
30
0.0
 70
     192
  0
VERTEX
  8
Layer0
10
-164.0
20
95.0
30
0.0
 70
     192
  0
VERTEX
  8
Layer0
10
-164.0
20
155.0
30
0.0
 70
     192
  0
VERTEX
  8
Layer0
10
0.0
 20
 0.0
 30
0.0
 70
     128
 71
-1
 72
-2
 73
-3
  0
VERTEX
  8
Layer0
10
0.0
 20
 0.0
 30
0.0
 70
     128
 71
-2
 72
1
 73
-4
  0
VERTEX
  8
Layer0
10
0.0
 20
 0.0
 30
0.0
 70
     128
 71
-2
 72
-4
 73
5
  0
VERTEX
  8
Layer0
10
0.0
 20
 0.0
 30
0.0
 70
     128
 71
-5
 72
-4
 73
6
  0
VERTEX
  8
Layer0
10
0.0
 20
 0.0
 30
0.0
 70
     128
 71
-7
 72
4
 73
8
  0
VERTEX
  8
Layer0
10
0.0
 20
 0.0
 30
0.0
 70
     128
 71
-4
 72
-7
 73
-9
  0
VERTEX
  8
Layer0
10
0.0
 20
 0.0
 30
0.0
 70
     128
 71
-9
 72
-7
 73
10
  0
VERTEX
  8
Layer0
10
0.0
 20
 0.0
 30
0.0
 70
     128
 71
-10
 72
-7
 73
11
  0
VERTEX
  8
Layer0
10
0.0
 20
 0.0
 30
0.0
 70
     128
 71
-11
 72
7
 73
-12
  0
VERTEX
  8
Layer0
10
0.0
 20
 0.0
 30
0.0
 70
     128
 71
-11
 72
-12
 73
13
  0
VERTEX
  8
Layer0
10
0.0
 20
 0.0
 30
0.0
 70
     128
 71
-13
 72
-12
 73
14
  0
VERTEX
  8
Layer0
10
0.0
 20
 0.0
 30
0.0
 70
     128
 71
-14
 72
12
 73
-15
  0
VERTEX
  8
Layer0
10
0.0
 20
 0.0
 30
0.0
 70
     128
 71
-14
 72
-15
 73
16
  0
VERTEX
  8
Layer0
10
0.0
 20
 0.0
 30
0.0
 70
     128
 71
-16
 72
15
 73
-17
  0
VERTEX
  8
Layer0
10
0.0
 20
 0.0
 30
0.0
 70
     128
 71
-16
 72
17
 73
-18
  0
VERTEX
  8
Layer0
10
0.0
 20
 0.0
 30
0.0
 70
     128
 71
-16
 72
-18
 73
19
  0
VERTEX
  8
Layer0
10
0.0
 20
 0.0
 30
0.0
 70
     128
 71
-19
 72
18
 73
-20
  0
VERTEX
  8
Layer0
10
0.0
 20
 0.0
 30
0.0
 70
     128
 71
-19
 72
-20
 73
-21
  0
VERTEX
  8
Layer0
10
0.0
 20
 0.0
 30
0.0
 70
     128
 71
-19
 72
-21
 73
22
  0
VERTEX
  8
Layer0
10
0.0
 20
 0.0
 30
0.0
 70
     128
 71
-21
 72
-20
 73
23
  0
VERTEX
  8
Layer0
10
0.0
 20
 0.0
 30
0.0
 70
     128
 71
-22
 72
21
 73
-24
  0
VERTEX
  8
Layer0
10
0.0
 20
 0.0
 30
0.0
 70
     128
 71
-22
 72
24
 73
25
  0
VERTEX
  8
Layer0
10
0.0
 20
 0.0
 30
0.0
 70
     128
 71
-3
 72
-26
 73
9
  0
VERTEX
  8
Layer0
10
0.0
 20
 0.0
 30
0.0
 70
     128
 71
-26
 72
-3
 73
2
  0
VERTEX
  8
Layer0
10
0.0
 20
 0.0
 30
0.0
 70
     128
 71
-9
 72
26
 73
-6
  0
VERTEX
  8
Layer0
10
0.0
 20
 0.0
 30
0.0
 70
     128
 71
-9
 72
-6
 73
-4
  0
VERTEX
  8
Layer0
10
0.0
 20
 0.0
 30
0.0
 70
     128
 71
-27
 72
28
 73
29
  0
VERTEX
  8
Layer0
10
0.0
 20
 0.0
 30
0.0
 70
     128
 71
-28
 72
-27
 73
30
  0
VERTEX
  8
Layer0
10
0.0
 20
 0.0
 30
0.0
 70
     128
 71
-30
 72
27
 73
-31
  0
VERTEX
  8
Layer0
10
0.0
 20
 0.0
 30
0.0
 70
     128
 71
-30
 72
-31
 73
32
  0
VERTEX
  8
Layer0
10
0.0
 20
 0.0
 30
0.0
 70
     128
 71
-32
 72
-31
 73
-33
  0
VERTEX
  8
Layer0
10
0.0
 20
 0.0
 30
0.0
 70
     128
 71
-33
 72
-31
 73
34
  0
VERTEX
  8
Layer0
10
0.0
 20
 0.0
 30
0.0
 70
     128
 71
-35
 72
36
 73
37
  0
VERTEX
  8
Layer0
10
0.0
 20
 0.0
 30
0.0
 70
     128
 71
-36
 72
-35
 73
31
  0
VERTEX
  8
Layer0
10
0.0
 20
 0.0
 30
0.0
 70
     128
 71
-31
 72
35
 73
-38
  0
VERTEX
  8
Layer0
10
0.0
 20
 0.0
 30
0.0
 70
     128
 71
-31
 72
-38
 73
-39
  0
VERTEX
  8
Layer0
10
0.0
 20
 0.0
 30
0.0
 70
     128
 71
-39
 72
-38
 73
40
  0
VERTEX
  8
Layer0
10
0.0
 20
 0.0
 30
0.0
 70
     128
 71
-40
 72
38
 73
-41
  0
VERTEX
  8
Layer0
10
0.0
 20
 0.0
 30
0.0
 70
     128
 71
-40
 72
41
 73
-42
  0
VERTEX
  8
Layer0
10
0.0
 20
 0.0
 30
0.0
 70
     128
 71
-40
 72
-42
 73
43
  0
VERTEX
  8
Layer0
10
0.0
 20
 0.0
 30
0.0
 70
     128
 71
-43
 72
-42
 73
44
  0
VERTEX
  8
Layer0
10
0.0
 20
 0.0
 30
0.0
 70
     128
 71
-44
 72
42
 73
-45
  0
VERTEX
  8
Layer0
10
0.0
 20
 0.0
 30
0.0
 70
     128
 71
-44
 72
45
 73
-46
  0
VERTEX
  8
Layer0
10
0.0
 20
 0.0
 30
0.0
 70
     128
 71
-44
 72
-46
 73
47
  0
VERTEX
  8
Layer0
10
0.0
 20
 0.0
 30
0.0
 70
     128
 71
-47
 72
46
 73
-48
  0
VERTEX
  8
Layer0
10
0.0
 20
 0.0
 30
0.0
 70
     128
 71
-47
 72
-48
 73
49
  0
VERTEX
  8
Layer0
10
0.0
 20
 0.0
 30
0.0
 70
     128
 71
-49
 72
48
 73
-1
  0
VERTEX
  8
Layer0
10
0.0
 20
 0.0
 30
0.0
 70
     128
 71
-49
 72
-1
 73
3
  0
VERTEX
  8
Layer0
10
0.0
 20
 0.0
 30
0.0
 70
     128
 71
-34
 72
50
 73
51
  0
VERTEX
  8
Layer0
10
0.0
 20
 0.0
 30
0.0
 70
     128
 71
-50
 72
-34
 73
52
  0
VERTEX
  8
Layer0
10
0.0
 20
 0.0
 30
0.0
 70
     128
 71
-52
 72
-34
 73
39
  0
VERTEX
  8
Layer0
10
0.0
 20
 0.0
 30
0.0
 70
     128
 71
-39
 72
-34
 73
-31
  0
VERTEX
  8
Layer0
10
0.0
 20
 0.0
 30
0.0
 70
     128
 71
-32
 72
53
 73
54
  0
VERTEX
  8
Layer0
10
0.0
 20
 0.0
 30
0.0
 70
     128
 71
-53
 72
-32
 73
33
  0
VERTEX
  8
Layer0
10
0.0
 20
 0.0
 30
0.0
 70
     128
 71
-20
 72
-55
 73
-23
  0
VERTEX
  8
Layer0
10
0.0
 20
 0.0
 30
0.0
 70
     128
 71
-55
 72
20
 73
-56
  0
VERTEX
  8
Layer0
10
0.0
 20
 0.0
 30
0.0
 70
     128
 71
-55
 72
-56
 73
57
  0
VERTEX
  8
Layer0
10
0.0
 20
 0.0
 30
0.0
 70
     128
 71
-57
 72
56
 73
58
  0
VERTEX
  8
Layer0
10
0.0
 20
 0.0
 30
0.0
 70
     128
 71
-59
 72
-60
 73
61
  0
VERTEX
  8
Layer0
10
0.0
 20
 0.0
 30
0.0
 70
     128
 71
-60
 72
59
 73
62
  0
VERTEX
  8
Layer0
10
0.0
 20
 0.0
 30
0.0
 70
     128
 71
-23
 72
-63
 73
64
  0
VERTEX
  8
Layer0
10
0.0
 20
 0.0
 30
0.0
 70
     128
 71
-63
 72
-23
 73
-55
  0
VERTEX
  8
Layer0
10
0.0
 20
 0.0
 30
0.0
 70
     128
 71
-63
 72
55
 73
-61
  0
VERTEX
  8
Layer0
10
0.0
 20
 0.0
 30
0.0
 70
     128
 71
-63
 72
-61
 73
60
  0
VERTEX
  8
Layer0
10
0.0
 20
 0.0
 30
0.0
 70
     128
 71
-64
 72
63
 73
65
  0
SEQEND
  0
LINE
 8
Layer0
10
202.0
20
9.99999999999998
30
0.0
11
202.0
21
320.0
31
0.0
  0
LINE
 8
Layer0
10
202.0
20
320.0
30
0.0
11
212.0
21
320.0
31
0.0
  0
LINE
 8
Layer0
10
212.0
20
320.0
30
0.0
11
212.0
21
295.0
31
0.0
  0
LINE
 8
Layer0
10
212.0
20
9.99999999999999
30
0.0
11
202.0
21
9.99999999999998
31
0.0
  0
LINE
 8
Layer0
10
232.0
20
295.0
30
0.0
11
212.0
21
295.0
31
0.0
  0
LINE
 8
Layer0
10
212.0
20
35.0
30
0.0
11
232.0
21
35.0
31
0.0
  0
LINE
 8
Layer0
10
232.0
20
35.0
30
0.0
11
232.0
21
45.0
31
0.0
  0
LINE
 8
Layer0
10
212.0
20
35.0
30
0.0
11
212.0
21
9.99999999999999
31
0.0
  0
LINE
 8
Layer0
10
312.0
20
285.0
30
0.0
11
232.0
21
285.0
31
0.0
  0
LINE
 8
Layer0
10
232.0
20
45.0
30
0.0
11
312.0
21
45.0
31
0.0
  0
LINE
 8
Layer0
10
312.0
20
45.0
30
0.0
11
312.0
21
55.0
31
0.0
  0
LINE
 8
Layer0
10
232.0
20
285.0
30
0.0
11
232.0
21
295.0
31
0.0
  0
LINE
 8
Layer0
10
312.0
20
55.0
30
0.0
11
442.0
21
54.9999999999999
31
0.0
  0
LINE
 8
Layer0
10
312.0
20
275.0
30
0.0
11
312.0
21
285.0
31
0.0
  0
POLYLINE
 8
Layer0
 66
     1
10
0.0
 20
 0.0
 30
0.0
70
    64
71
26
72
   1
  0
VERTEX
  8
Layer0
10
427.511112605664
20
218.882285676538
30
0.0
 70
     192
  0
VERTEX
  8
Layer0
10
427.0
20
115.0
30
0.0
 70
     192
  0
VERTEX
  8
Layer0
10
427.0
20
215.0
30
0.0
 70
     192
  0
VERTEX
  8
Layer0
10
427.511112605664
20
111.117714323462
30
0.0
 70
     192
  0
VERTEX
  8
Layer0
10
429.009618943233
20
222.5
30
0.0
 70
     192
  0
VERTEX
  8
Layer0
10
429.009618943233
20
107.5
30
0.0
 70
     192
  0
VERTEX
  8
Layer0
10
431.393398282202
20
104.393398282202
30
0.0
 70
     192
  0
VERTEX
  8
Layer0
10
431.393398282202
20
225.606601717798
30
0.0
 70
     192
  0
VERTEX
  8
Layer0
10
434.5
20
227.990381056767
30
0.0
 70
     192
  0
VERTEX
  8
Layer0
10
434.5
20
102.009618943233
30
0.0
 70
     192
  0
VERTEX
  8
Layer0
10
438.117714323462
20
229.488887394336
30
0.0
 70
     192
  0
VERTEX
  8
Layer0
10
438.117714323462
20
100.511112605664
30
0.0
 70
     192
  0
VERTEX
  8
Layer0
10
442.0
20
230.0
30
0.0
 70
     192
  0
VERTEX
  8
Layer0
10
442.0
20
100.0
30
0.0
 70
     192
  0
VERTEX
  8
Layer0
10
445.882285676538
20
229.488887394336
30
0.0
 70
     192
  0
VERTEX
  8
Layer0
10
445.882285676538
20
100.511112605664
30
0.0
 70
     192
  0
VERTEX
  8
Layer0
10
449.5
20
227.990381056767
30
0.0
 70
     192
  0
VERTEX
  8
Layer0
10
449.5
20
102.009618943233
30
0.0
 70
     192
  0
VERTEX
  8
Layer0
10
452.606601717798
20
225.606601717798
30
0.0
 70
     192
  0
VERTEX
  8
Layer0
10
452.606601717798
20
104.393398282202
30
0.0
 70
     192
  0
VERTEX
  8
Layer0
10
454.990381056767
20
222.5
30
0.0
 70
     192
  0
VERTEX
  8
Layer0
10
454.990381056767
20
107.5
30
0.0
 70
     192
  0
VERTEX
  8
Layer0
10
456.488887394336
20
111.117714323462
30
0.0
 70
     192
  0
VERTEX
  8
Layer0
10
456.488887394336
20
218.882285676538
30
0.0
 70
     192
  0
VERTEX
  8
Layer0
10
457.0
20
215.0
30
0.0
 70
     192
  0
VERTEX
  8
Layer0
10
457.0
20
115.0
30
0.0
 70
     192
  0
VERTEX
  8
Layer0
10
0.0
 20
 0.0
 30
0.0
 70
     128
 71
-1
 72
2
 73
3
  0
VERTEX
  8
Layer0
10
0.0
 20
 0.0
 30
0.0
 70
     128
 71
-2
 72
-1
 73
4
  0
VERTEX
  8
Layer0
10
0.0
 20
 0.0
 30
0.0
 70
     128
 71
-4
 72
1
 73
-5
  0
VERTEX
  8
Layer0
10
0.0
 20
 0.0
 30
0.0
 70
     128
 71
-4
 72
-5
 73
6
  0
VERTEX
  8
Layer0
10
0.0
 20
 0.0
 30
0.0
 70
     128
 71
-6
 72
-5
 73
7
  0
VERTEX
  8
Layer0
10
0.0
 20
 0.0
 30
0.0
 70
     128
 71
-7
 72
5
 73
-8
  0
VERTEX
  8
Layer0
10
0.0
 20
 0.0
 30
0.0
 70
     128
 71
-7
 72
8
 73
-9
  0
VERTEX
  8
Layer0
10
0.0
 20
 0.0
 30
0.0
 70
     128
 71
-7
 72
-9
 73
10
  0
VERTEX
  8
Layer0
10
0.0
 20
 0.0
 30
0.0
 70
     128
 71
-10
 72
9
 73
-11
  0
VERTEX
  8
Layer0
10
0.0
 20
 0.0
 30
0.0
 70
     128
 71
-10
 72
-11
 73
12
  0
VERTEX
  8
Layer0
10
0.0
 20
 0.0
 30
0.0
 70
     128
 71
-12
 72
11
 73
-13
  0
VERTEX
  8
Layer0
10
0.0
 20
 0.0
 30
0.0
 70
     128
 71
-12
 72
-13
 73
14
  0
VERTEX
  8
Layer0
10
0.0
 20
 0.0
 30
0.0
 70
     128
 71
-14
 72
13
 73
-15
  0
VERTEX
  8
Layer0
10
0.0
 20
 0.0
 30
0.0
 70
     128
 71
-14
 72
-15
 73
16
  0
VERTEX
  8
Layer0
10
0.0
 20
 0.0
 30
0.0
 70
     128
 71
-16
 72
15
 73
-17
  0
VERTEX
  8
Layer0
10
0.0
 20
 0.0
 30
0.0
 70
     128
 71
-16
 72
-17
 73
18
  0
VERTEX
  8
Layer0
10
0.0
 20
 0.0
 30
0.0
 70
     128
 71
-18
 72
17
 73
-19
  0
VERTEX
  8
Layer0
10
0.0
 20
 0.0
 30
0.0
 70
     128
 71
-18
 72
-19
 73
20
  0
VERTEX
  8
Layer0
10
0.0
 20
 0.0
 30
0.0
 70
     128
 71
-20
 72
19
 73
-21
  0
VERTEX
  8
Layer0
10
0.0
 20
 0.0
 30
0.0
 70
     128
 71
-20
 72
-21
 73
22
  0
VERTEX
  8
Layer0
10
0.0
 20
 0.0
 30
0.0
 70
     128
 71
-22
 72
-21
 73
23
  0
VERTEX
  8
Layer0
10
0.0
 20
 0.0
 30
0.0
 70
     128
 71
-23
 72
21
 73
-24
  0
VERTEX
  8
Layer0
10
0.0
 20
 0.0
 30
0.0
 70
     128
 71
-23
 72
24
 73
-25
  0
VERTEX
  8
Layer0
10
0.0
 20
 0.0
 30
0.0
 70
     128
 71
-23
 72
25
 73
26
  0
SEQEND
  0
LINE
 8
Layer0
10
487.0
20
230.0
30
0.0
11
485.466662183008
21
241.646857029613
31
0.0
  0
LINE
 8
Layer0
10
485.466662183008
20
241.646857029613
30
0.0
11
480.9711431703
21
252.5
31
0.0
  0
LINE
 8
Layer0
10
480.9711431703
20
252.5
30
0.0
11
473.819805153395
21
261.819805153395
31
0.0
  0
LINE
 8
Layer0
10
473.819805153395
20
261.819805153395
30
0.0
11
464.5
21
268.9711431703
31
0.0
  0
LINE
 8
Layer0
10
464.5
20
268.9711431703
30
0.0
11
453.646857029613
21
273.466662183008
31
0.0
  0
LINE
 8
Layer0
10
453.646857029613
20
273.466662183008
30
0.0
11
442.0
21
275.0
31
0.0
  0
LINE
 8
Layer0
10
442.0
20
275.0
30
0.0
11
312.0
21
275.0
31
0.0
  0
LINE
 8
Layer0
10
442.0
20
54.9999999999999
30
0.0
11
453.646857029613
21
56.5333378169918
31
0.0
  0
LINE
 8
Layer0
10
453.646857029613
20
56.5333378169918
30
0.0
11
464.5
21
61.0288568297002
31
0.0
  0
LINE
 8
Layer0
10
464.5
20
61.0288568297002
30
0.0
11
473.819805153395
21
68.1801948466053
31
0.0
  0
LINE
 8
Layer0
10
473.819805153395
20
68.1801948466053
30
0.0
11
480.9711431703
21
77.4999999999999
31
0.0
  0
LINE
 8
Layer0
10
480.9711431703
20
77.4999999999999
30
0.0
11
485.466662183008
21
88.3531429703865
31
0.0
  0
LINE
 8
Layer0
10
485.466662183008
20
88.3531429703865
30
0.0
11
487.0
21
100.0
31
0.0
  0
LINE
 8
Layer0
10
487.0
20
100.0
30
0.0
11
487.0
21
230.0
31
0.0
  0
POLYLINE
 8
Layer0
 66
     1
10
0.0
 20
 0.0
 30
0.0
70
    64
71
40
72
   1
  0
VERTEX
  8
Layer0
10
-374.0
20
314.834522088025
30
0.0
 70
     192
  0
VERTEX
  8
Layer0
10
-379.0
20
239.634522088025
30
0.0
 70
     192
  0
VERTEX
  8
Layer0
10
-379.0
20
314.834522088025
30
0.0
 70
     192
  0
VERTEX
  8
Layer0
10
-374.0
20
239.634522088025
30
0.0
 70
     192
  0
VERTEX
  8
Layer0
10
-374.0
20
234.834522088025
30
0.0
 70
     192
  0
VERTEX
  8
Layer0
10
-374.0
20
219.634522088025
30
0.0
 70
     192
  0
VERTEX
  8
Layer0
10
-374.0
20
214.834522088025
30
0.0
 70
     192
  0
VERTEX
  8
Layer0
10
-378.829629131445
20
325.928617313538
30
0.0
 70
     192
  0
VERTEX
  8
Layer0
10
-379.0
20
319.634522088025
30
0.0
 70
     192
  0
VERTEX
  8
Layer0
10
-379.0
20
324.634522088025
30
0.0
 70
     192
  0
VERTEX
  8
Layer0
10
-374.0
20
319.634522088025
30
0.0
 70
     192
  0
VERTEX
  8
Layer0
10
-378.330127018922
20
327.134522088025
30
0.0
 70
     192
  0
VERTEX
  8
Layer0
10
-377.535533905933
20
328.170055993958
30
0.0
 70
     192
  0
VERTEX
  8
Layer0
10
-376.499999999999
20
328.964649106947
30
0.0
 70
     192
  0
VERTEX
  8
Layer0
10
-375.294095225513
20
329.46415121947
30
0.0
 70
     192
  0
VERTEX
  8
Layer0
10
-373.999999999999
20
329.634522088025
30
0.0
 70
     192
  0
VERTEX
  8
Layer0
10
-378.999999999999
20
199.834522088025
30
0.0
 70
     192
  0
VERTEX
  8
Layer0
10
-379.0
20
214.834522088025
30
0.0
 70
     192
  0
VERTEX
  8
Layer0
10
-349.0
20
199.834522088025
30
0.0
 70
     192
  0
VERTEX
  8
Layer0
10
-354.0
20
214.834522088025
30
0.0
 70
     192
  0
VERTEX
  8
Layer0
10
-349.0
20
214.834522088025
30
0.0
 70
     192
  0
VERTEX
  8
Layer0
10
-379.0
20
219.634522088025
30
0.0
 70
     192
  0
VERTEX
  8
Layer0
10
-379.0
20
234.834522088025
30
0.0
 70
     192
  0
VERTEX
  8
Layer0
10
-354.0
20
319.634522088025
30
0.0
 70
     192
  0
VERTEX
  8
Layer0
10
-353.999999999999
20
329.634522088025
30
0.0
 70
     192
  0
VERTEX
  8
Layer0
10
-354.0
20
239.634522088025
30
0.0
 70
     192
  0
VERTEX
  8
Layer0
10
-349.0
20
319.634522088025
30
0.0
 70
     192
  0
VERTEX
  8
Layer0
10
-352.705904774487
20
329.46415121947
30
0.0
 70
     192
  0
VERTEX
  8
Layer0
10
-351.5
20
328.964649106947
30
0.0
 70
     192
  0
VERTEX
  8
Layer0
10
-350.464466094067
20
328.170055993958
30
0.0
 70
     192
  0
VERTEX
  8
Layer0
10
-349.669872981078
20
327.134522088025
30
0.0
 70
     192
  0
VERTEX
  8
Layer0
10
-349.170370868554
20
325.928617313537
30
0.0
 70
     192
  0
VERTEX
  8
Layer0
10
-349.0
20
324.634522088025
30
0.0
 70
     192
  0
VERTEX
  8
Layer0
10
-353.999999999999
20
314.834522088025
30
0.0
 70
     192
  0
VERTEX
  8
Layer0
10
-349.0
20
239.634522088025
30
0.0
 70
     192
  0
VERTEX
  8
Layer0
10
-348.999999999999
20
314.834522088025
30
0.0
 70
     192
  0
VERTEX
  8
Layer0
10
-354.0
20
219.634522088025
30
0.0
 70
     192
  0
VERTEX
  8
Layer0
10
-353.999999999999
20
234.834522088025
30
0.0
 70
     192
  0
VERTEX
  8
Layer0
10
-349.0
20
219.634522088025
30
0.0
 70
     192
  0
VERTEX
  8
Layer0
10
-349.0
20
234.834522088025
30
0.0
 70
     192
  0
VERTEX
  8
Layer0
10
0.0
 20
 0.0
 30
0.0
 70
     128
 71
-1
 72
2
 73
3
  0
VERTEX
  8
Layer0
10
0.0
 20
 0.0
 30
0.0
 70
     128
 71
-2
 72
-1
 73
4
  0
VERTEX
  8
Layer0
10
0.0
 20
 0.0
 30
0.0
 70
     128
 71
-4
 72
-1
 73
5
  0
VERTEX
  8
Layer0
10
0.0
 20
 0.0
 30
0.0
 70
     128
 71
-5
 72
-1
 73
-6
  0
VERTEX
  8
Layer0
10
0.0
 20
 0.0
 30
0.0
 70
     128
 71
-6
 72
-1
 73
7
  0
VERTEX
  8
Layer0
10
0.0
 20
 0.0
 30
0.0
 70
     128
 71
-8
 72
9
 73
10
  0
VERTEX
  8
Layer0
10
0.0
 20
 0.0
 30
0.0
 70
     128
 71
-9
 72
-8
 73
11
  0
VERTEX
  8
Layer0
10
0.0
 20
 0.0
 30
0.0
 70
     128
 71
-11
 72
8
 73
-12
  0
VERTEX
  8
Layer0
10
0.0
 20
 0.0
 30
0.0
 70
     128
 71
-11
 72
12
 73
-13
  0
VERTEX
  8
Layer0
10
0.0
 20
 0.0
 30
0.0
 70
     128
 71
-11
 72
13
 73
-14
  0
VERTEX
  8
Layer0
10
0.0
 20
 0.0
 30
0.0
 70
     128
 71
-11
 72
14
 73
-15
  0
VERTEX
  8
Layer0
10
0.0
 20
 0.0
 30
0.0
 70
     128
 71
-11
 72
15
 73
-16
  0
VERTEX
  8
Layer0
10
0.0
 20
 0.0
 30
0.0
 70
     128
 71
-11
 72
-16
 73
1
  0
VERTEX
  8
Layer0
10
0.0
 20
 0.0
 30
0.0
 70
     128
 71
-7
 72
17
 73
18
  0
VERTEX
  8
Layer0
10
0.0
 20
 0.0
 30
0.0
 70
     128
 71
-17
 72
-7
 73
19
  0
VERTEX
  8
Layer0
10
0.0
 20
 0.0
 30
0.0
 70
     128
 71
-19
 72
-7
 73
-20
  0
VERTEX
  8
Layer0
10
0.0
 20
 0.0
 30
0.0
 70
     128
 71
-20
 72
-7
 73
-1
  0
VERTEX
  8
Layer0
10
0.0
 20
 0.0
 30
0.0
 70
     128
 71
-20
 72
-1
 73
-16
  0
VERTEX
  8
Layer0
10
0.0
 20
 0.0
 30
0.0
 70
     128
 71
-19
 72
20
 73
21
  0
VERTEX
  8
Layer0
10
0.0
 20
 0.0
 30
0.0
 70
     128
 71
-5
 72
22
 73
23
  0
VERTEX
  8
Layer0
10
0.0
 20
 0.0
 30
0.0
 70
     128
 71
-22
 72
-5
 73
6
  0
VERTEX
  8
Layer0
10
0.0
 20
 0.0
 30
0.0
 70
     128
 71
-16
 72
-24
 73
-20
  0
VERTEX
  8
Layer0
10
0.0
 20
 0.0
 30
0.0
 70
     128
 71
-24
 72
16
 73
-25
  0
VERTEX
  8
Layer0
10
0.0
 20
 0.0
 30
0.0
 70
     128
 71
-20
 72
-24
 73
-26
  0
VERTEX
  8
Layer0
10
0.0
 20
 0.0
 30
0.0
 70
     128
 71
-24
 72
-25
 73
27
  0
VERTEX
  8
Layer0
10
0.0
 20
 0.0
 30
0.0
 70
     128
 71
-27
 72
25
 73
-28
  0
VERTEX
  8
Layer0
10
0.0
 20
 0.0
 30
0.0
 70
     128
 71
-27
 72
28
 73
-29
  0
VERTEX
  8
Layer0
10
0.0
 20
 0.0
 30
0.0
 70
     128
 71
-27
 72
29
 73
-30
  0
VERTEX
  8
Layer0
10
0.0
 20
 0.0
 30
0.0
 70
     128
 71
-27
 72
30
 73
-31
  0
VERTEX
  8
Layer0
10
0.0
 20
 0.0
 30
0.0
 70
     128
 71
-27
 72
31
 73
-32
  0
VERTEX
  8
Layer0
10
0.0
 20
 0.0
 30
0.0
 70
     128
 71
-27
 72
32
 73
33
  0
VERTEX
  8
Layer0
10
0.0
 20
 0.0
 30
0.0
 70
     128
 71
-26
 72
-34
 73
35
  0
VERTEX
  8
Layer0
10
0.0
 20
 0.0
 30
0.0
 70
     128
 71
-34
 72
-26
 73
24
  0
VERTEX
  8
Layer0
10
0.0
 20
 0.0
 30
0.0
 70
     128
 71
-35
 72
34
 73
36
  0
VERTEX
  8
Layer0
10
0.0
 20
 0.0
 30
0.0
 70
     128
 71
-26
 72
37
 73
-20
  0
VERTEX
  8
Layer0
10
0.0
 20
 0.0
 30
0.0
 70
     128
 71
-37
 72
26
 73
-38
  0
VERTEX
  8
Layer0
10
0.0
 20
 0.0
 30
0.0
 70
     128
 71
-37
 72
-38
 73
39
  0
VERTEX
  8
Layer0
10
0.0
 20
 0.0
 30
0.0
 70
     128
 71
-39
 72
38
 73
40
  0
SEQEND
  0
POLYLINE
 8
Layer0
 66
     1
10
0.0
 20
 0.0
 30
0.0
70
    64
71
40
72
   1
  0
VERTEX
  8
Layer0
10
361.8
20
35.0
30
0.0
 70
     192
  0
VERTEX
  8
Layer0
10
356.8
20
30.0
30
0.0
 70
     192
  0
VERTEX
  8
Layer0
10
356.8
20
35.0
30
0.0
 70
     192
  0
VERTEX
  8
Layer0
10
356.8
20
9.99999999999995
30
0.0
 70
     192
  0
VERTEX
  8
Layer0
10
356.8
20
4.99999999999996
30
0.0
 70
     192
  0
VERTEX
  8
Layer0
10
361.8
20
5.0
30
0.0
 70
     192
  0
VERTEX
  8
Layer0
10
363.094095225513
20
34.8296291314454
30
0.0
 70
     192
  0
VERTEX
  8
Layer0
10
363.094095225513
20
5.17037086855462
30
0.0
 70
     192
  0
VERTEX
  8
Layer0
10
364.3
20
34.3301270189222
30
0.0
 70
     192
  0
VERTEX
  8
Layer0
10
364.3
20
5.66987298107778
30
0.0
 70
     192
  0
VERTEX
  8
Layer0
10
365.335533905933
20
33.5355339059327
30
0.0
 70
     192
  0
VERTEX
  8
Layer0
10
365.335533905933
20
6.46446609406725
30
0.0
 70
     192
  0
VERTEX
  8
Layer0
10
366.130127018922
20
32.5
30
0.0
 70
     192
  0
VERTEX
  8
Layer0
10
366.130127018922
20
7.49999999999998
30
0.0
 70
     192
  0
VERTEX
  8
Layer0
10
366.629629131445
20
31.2940952255126
30
0.0
 70
     192
  0
VERTEX
  8
Layer0
10
366.629629131445
20
8.70590477448737
30
0.0
 70
     192
  0
VERTEX
  8
Layer0
10
366.8
20
30.0
30
0.0
 70
     192
  0
VERTEX
  8
Layer0
10
366.8
20
9.99999999999995
30
0.0
 70
     192
  0
VERTEX
  8
Layer0
10
352.0
20
9.99999999999995
30
0.0
 70
     192
  0
VERTEX
  8
Layer0
10
352.0
20
30.0
30
0.0
 70
     192
  0
VERTEX
  8
Layer0
10
352.0
20
35.0
30
0.0
 70
     192
  0
VERTEX
  8
Layer0
10
276.8
20
30.0
30
0.0
 70
     192
  0
VERTEX
  8
Layer0
10
276.8
20
35.0
30
0.0
 70
     192
  0
VERTEX
  8
Layer0
10
276.8
20
9.99999999999995
30
0.0
 70
     192
  0
VERTEX
  8
Layer0
10
276.8
20
4.99999999999996
30
0.0
 70
     192
  0
VERTEX
  8
Layer0
10
352.0
20
4.99999999999996
30
0.0
 70
     192
  0
VERTEX
  8
Layer0
10
272.0
20
9.99999999999995
30
0.0
 70
     192
  0
VERTEX
  8
Layer0
10
272.0
20
30.0
30
0.0
 70
     192
  0
VERTEX
  8
Layer0
10
272.0
20
35.0
30
0.0
 70
     192
  0
VERTEX
  8
Layer0
10
256.8
20
30.0
30
0.0
 70
     192
  0
VERTEX
  8
Layer0
10
256.8
20
35.0
30
0.0
 70
     192
  0
VERTEX
  8
Layer0
10
256.8
20
9.99999999999995
30
0.0
 70
     192
  0
VERTEX
  8
Layer0
10
256.8
20
4.99999999999996
30
0.0
 70
     192
  0
VERTEX
  8
Layer0
10
272.0
20
4.99999999999996
30
0.0
 70
     192
  0
VERTEX
  8
Layer0
10
252.0
20
9.99999999999995
30
0.0
 70
     192
  0
VERTEX
  8
Layer0
10
252.0
20
30.0
30
0.0
 70
     192
  0
VERTEX
  8
Layer0
10
252.0
20
35.0
30
0.0
 70
     192
  0
VERTEX
  8
Layer0
10
237.0
20
5.0
30
0.0
 70
     192
  0
VERTEX
  8
Layer0
10
237.0
20
35.0
30
0.0
 70
     192
  0
VERTEX
  8
Layer0
10
252.0
20
4.99999999999996
30
0.0
 70
     192
  0
VERTEX
  8
Layer0
10
0.0
 20
 0.0
 30
0.0
 70
     128
 71
-1
 72
2
 73
3
  0
VERTEX
  8
Layer0
10
0.0
 20
 0.0
 30
0.0
 70
     128
 71
-2
 72
-1
 73
-4
  0
VERTEX
  8
Layer0
10
0.0
 20
 0.0
 30
0.0
 70
     128
 71
-4
 72
-1
 73
5
  0
VERTEX
  8
Layer0
10
0.0
 20
 0.0
 30
0.0
 70
     128
 71
-5
 72
-1
 73
6
  0
VERTEX
  8
Layer0
10
0.0
 20
 0.0
 30
0.0
 70
     128
 71
-6
 72
1
 73
-7
  0
VERTEX
  8
Layer0
10
0.0
 20
 0.0
 30
0.0
 70
     128
 71
-6
 72
-7
 73
8
  0
VERTEX
  8
Layer0
10
0.0
 20
 0.0
 30
0.0
 70
     128
 71
-8
 72
7
 73
-9
  0
VERTEX
  8
Layer0
10
0.0
 20
 0.0
 30
0.0
 70
     128
 71
-8
 72
-9
 73
10
  0
VERTEX
  8
Layer0
10
0.0
 20
 0.0
 30
0.0
 70
     128
 71
-10
 72
9
 73
-11
  0
VERTEX
  8
Layer0
10
0.0
 20
 0.0
 30
0.0
 70
     128
 71
-10
 72
-11
 73
12
  0
VERTEX
  8
Layer0
10
0.0
 20
 0.0
 30
0.0
 70
     128
 71
-12
 72
11
 73
-13
  0
VERTEX
  8
Layer0
10
0.0
 20
 0.0
 30
0.0
 70
     128
 71
-12
 72
-13
 73
14
  0
VERTEX
  8
Layer0
10
0.0
 20
 0.0
 30
0.0
 70
     128
 71
-14
 72
13
 73
-15
  0
VERTEX
  8
Layer0
10
0.0
 20
 0.0
 30
0.0
 70
     128
 71
-14
 72
-15
 73
16
  0
VERTEX
  8
Layer0
10
0.0
 20
 0.0
 30
0.0
 70
     128
 71
-16
 72
15
 73
-17
  0
VERTEX
  8
Layer0
10
0.0
 20
 0.0
 30
0.0
 70
     128
 71
-16
 72
17
 73
18
  0
VERTEX
  8
Layer0
10
0.0
 20
 0.0
 30
0.0
 70
     128
 71
-2
 72
-19
 73
20
  0
VERTEX
  8
Layer0
10
0.0
 20
 0.0
 30
0.0
 70
     128
 71
-19
 72
-2
 73
4
  0
VERTEX
  8
Layer0
10
0.0
 20
 0.0
 30
0.0
 70
     128
 71
-21
 72
22
 73
23
  0
VERTEX
  8
Layer0
10
0.0
 20
 0.0
 30
0.0
 70
     128
 71
-22
 72
-21
 73
-24
  0
VERTEX
  8
Layer0
10
0.0
 20
 0.0
 30
0.0
 70
     128
 71
-24
 72
-21
 73
25
  0
VERTEX
  8
Layer0
10
0.0
 20
 0.0
 30
0.0
 70
     128
 71
-25
 72
-21
 73
26
  0
VERTEX
  8
Layer0
10
0.0
 20
 0.0
 30
0.0
 70
     128
 71
-26
 72
21
 73
-20
  0
VERTEX
  8
Layer0
10
0.0
 20
 0.0
 30
0.0
 70
     128
 71
-26
 72
-20
 73
19
  0
VERTEX
  8
Layer0
10
0.0
 20
 0.0
 30
0.0
 70
     128
 71
-22
 72
-27
 73
28
  0
VERTEX
  8
Layer0
10
0.0
 20
 0.0
 30
0.0
 70
     128
 71
-27
 72
-22
 73
24
  0
VERTEX
  8
Layer0
10
0.0
 20
 0.0
 30
0.0
 70
     128
 71
-29
 72
30
 73
31
  0
VERTEX
  8
Layer0
10
0.0
 20
 0.0
 30
0.0
 70
     128
 71
-30
 72
-29
 73
-32
  0
VERTEX
  8
Layer0
10
0.0
 20
 0.0
 30
0.0
 70
     128
 71
-32
 72
-29
 73
33
  0
VERTEX
  8
Layer0
10
0.0
 20
 0.0
 30
0.0
 70
     128
 71
-33
 72
-29
 73
34
  0
VERTEX
  8
Layer0
10
0.0
 20
 0.0
 30
0.0
 70
     128
 71
-34
 72
29
 73
-28
  0
VERTEX
  8
Layer0
10
0.0
 20
 0.0
 30
0.0
 70
     128
 71
-34
 72
-28
 73
27
  0
VERTEX
  8
Layer0
10
0.0
 20
 0.0
 30
0.0
 70
     128
 71
-30
 72
-35
 73
36
  0
VERTEX
  8
Layer0
10
0.0
 20
 0.0
 30
0.0
 70
     128
 71
-35
 72
-30
 73
32
  0
VERTEX
  8
Layer0
10
0.0
 20
 0.0
 30
0.0
 70
     128
 71
-37
 72
38
 73
39
  0
VERTEX
  8
Layer0
10
0.0
 20
 0.0
 30
0.0
 70
     128
 71
-38
 72
-37
 73
40
  0
VERTEX
  8
Layer0
10
0.0
 20
 0.0
 30
0.0
 70
     128
 71
-40
 72
37
 73
-36
  0
VERTEX
  8
Layer0
10
0.0
 20
 0.0
 30
0.0
 70
     128
 71
-40
 72
-36
 73
35
  0
SEQEND
  0
POLYLINE
 8
Layer0
 66
     1
10
0.0
 20
 0.0
 30
0.0
70
    64
71
40
72
   1
  0
VERTEX
  8
Layer0
10
361.8
20
325.2
30
0.0
 70
     192
  0
VERTEX
  8
Layer0
10
356.8
20
320.2
30
0.0
 70
     192
  0
VERTEX
  8
Layer0
10
356.8
20
325.2
30
0.0
 70
     192
  0
VERTEX
  8
Layer0
10
356.8
20
300.2
30
0.0
 70
     192
  0
VERTEX
  8
Layer0
10
356.8
20
295.2
30
0.0
 70
     192
  0
VERTEX
  8
Layer0
10
361.8
20
295.2
30
0.0
 70
     192
  0
VERTEX
  8
Layer0
10
363.094095225513
20
325.029629131445
30
0.0
 70
     192
  0
VERTEX
  8
Layer0
10
363.094095225513
20
295.370370868555
30
0.0
 70
     192
  0
VERTEX
  8
Layer0
10
364.3
20
324.530127018922
30
0.0
 70
     192
  0
VERTEX
  8
Layer0
10
364.3
20
295.869872981078
30
0.0
 70
     192
  0
VERTEX
  8
Layer0
10
365.335533905933
20
323.735533905933
30
0.0
 70
     192
  0
VERTEX
  8
Layer0
10
365.335533905933
20
296.664466094067
30
0.0
 70
     192
  0
VERTEX
  8
Layer0
10
366.130127018922
20
322.7
30
0.0
 70
     192
  0
VERTEX
  8
Layer0
10
366.130127018922
20
297.7
30
0.0
 70
     192
  0
VERTEX
  8
Layer0
10
366.629629131445
20
298.905904774487
30
0.0
 70
     192
  0
VERTEX
  8
Layer0
10
366.629629131445
20
321.494095225512
30
0.0
 70
     192
  0
VERTEX
  8
Layer0
10
366.8
20
320.2
30
0.0
 70
     192
  0
VERTEX
  8
Layer0
10
366.8
20
300.2
30
0.0
 70
     192
  0
VERTEX
  8
Layer0
10
352.0
20
300.2
30
0.0
 70
     192
  0
VERTEX
  8
Layer0
10
352.0
20
320.2
30
0.0
 70
     192
  0
VERTEX
  8
Layer0
10
352.0
20
325.2
30
0.0
 70
     192
  0
VERTEX
  8
Layer0
10
276.8
20
320.2
30
0.0
 70
     192
  0
VERTEX
  8
Layer0
10
276.8
20
325.2
30
0.0
 70
     192
  0
VERTEX
  8
Layer0
10
276.8
20
300.2
30
0.0
 70
     192
  0
VERTEX
  8
Layer0
10
276.8
20
295.2
30
0.0
 70
     192
  0
VERTEX
  8
Layer0
10
352.0
20
295.2
30
0.0
 70
     192
  0
VERTEX
  8
Layer0
10
272.0
20
300.2
30
0.0
 70
     192
  0
VERTEX
  8
Layer0
10
272.0
20
320.2
30
0.0
 70
     192
  0
VERTEX
  8
Layer0
10
272.0
20
325.2
30
0.0
 70
     192
  0
VERTEX
  8
Layer0
10
256.8
20
320.2
30
0.0
 70
     192
  0
VERTEX
  8
Layer0
10
256.8
20
325.2
30
0.0
 70
     192
  0
VERTEX
  8
Layer0
10
256.8
20
300.2
30
0.0
 70
     192
  0
VERTEX
  8
Layer0
10
256.8
20
295.2
30
0.0
 70
     192
  0
VERTEX
  8
Layer0
10
272.0
20
295.2
30
0.0
 70
     192
  0
VERTEX
  8
Layer0
10
252.0
20
300.2
30
0.0
 70
     192
  0
VERTEX
  8
Layer0
10
252.0
20
320.2
30
0.0
 70
     192
  0
VERTEX
  8
Layer0
10
252.0
20
325.2
30
0.0
 70
     192
  0
VERTEX
  8
Layer0
10
237.0
20
295.2
30
0.0
 70
     192
  0
VERTEX
  8
Layer0
10
237.0
20
325.2
30
0.0
 70
     192
  0
VERTEX
  8
Layer0
10
252.0
20
295.2
30
0.0
 70
     192
  0
VERTEX
  8
Layer0
10
0.0
 20
 0.0
 30
0.0
 70
     128
 71
-1
 72
2
 73
3
  0
VERTEX
  8
Layer0
10
0.0
 20
 0.0
 30
0.0
 70
     128
 71
-2
 72
-1
 73
-4
  0
VERTEX
  8
Layer0
10
0.0
 20
 0.0
 30
0.0
 70
     128
 71
-4
 72
-1
 73
5
  0
VERTEX
  8
Layer0
10
0.0
 20
 0.0
 30
0.0
 70
     128
 71
-5
 72
-1
 73
6
  0
VERTEX
  8
Layer0
10
0.0
 20
 0.0
 30
0.0
 70
     128
 71
-6
 72
1
 73
-7
  0
VERTEX
  8
Layer0
10
0.0
 20
 0.0
 30
0.0
 70
     128
 71
-6
 72
-7
 73
8
  0
VERTEX
  8
Layer0
10
0.0
 20
 0.0
 30
0.0
 70
     128
 71
-8
 72
7
 73
-9
  0
VERTEX
  8
Layer0
10
0.0
 20
 0.0
 30
0.0
 70
     128
 71
-8
 72
-9
 73
10
  0
VERTEX
  8
Layer0
10
0.0
 20
 0.0
 30
0.0
 70
     128
 71
-10
 72
9
 73
-11
  0
VERTEX
  8
Layer0
10
0.0
 20
 0.0
 30
0.0
 70
     128
 71
-10
 72
-11
 73
12
  0
VERTEX
  8
Layer0
10
0.0
 20
 0.0
 30
0.0
 70
     128
 71
-12
 72
11
 73
-13
  0
VERTEX
  8
Layer0
10
0.0
 20
 0.0
 30
0.0
 70
     128
 71
-12
 72
-13
 73
14
  0
VERTEX
  8
Layer0
10
0.0
 20
 0.0
 30
0.0
 70
     128
 71
-14
 72
-13
 73
15
  0
VERTEX
  8
Layer0
10
0.0
 20
 0.0
 30
0.0
 70
     128
 71
-15
 72
13
 73
-16
  0
VERTEX
  8
Layer0
10
0.0
 20
 0.0
 30
0.0
 70
     128
 71
-15
 72
16
 73
-17
  0
VERTEX
  8
Layer0
10
0.0
 20
 0.0
 30
0.0
 70
     128
 71
-15
 72
17
 73
18
  0
VERTEX
  8
Layer0
10
0.0
 20
 0.0
 30
0.0
 70
     128
 71
-2
 72
-19
 73
20
  0
VERTEX
  8
Layer0
10
0.0
 20
 0.0
 30
0.0
 70
     128
 71
-19
 72
-2
 73
4
  0
VERTEX
  8
Layer0
10
0.0
 20
 0.0
 30
0.0
 70
     128
 71
-21
 72
22
 73
23
  0
VERTEX
  8
Layer0
10
0.0
 20
 0.0
 30
0.0
 70
     128
 71
-22
 72
-21
 73
-24
  0
VERTEX
  8
Layer0
10
0.0
 20
 0.0
 30
0.0
 70
     128
 71
-24
 72
-21
 73
25
  0
VERTEX
  8
Layer0
10
0.0
 20
 0.0
 30
0.0
 70
     128
 71
-25
 72
-21
 73
26
  0
VERTEX
  8
Layer0
10
0.0
 20
 0.0
 30
0.0
 70
     128
 71
-26
 72
21
 73
-20
  0
VERTEX
  8
Layer0
10
0.0
 20
 0.0
 30
0.0
 70
     128
 71
-26
 72
-20
 73
19
  0
VERTEX
  8
Layer0
10
0.0
 20
 0.0
 30
0.0
 70
     128
 71
-22
 72
-27
 73
28
  0
VERTEX
  8
Layer0
10
0.0
 20
 0.0
 30
0.0
 70
     128
 71
-27
 72
-22
 73
24
  0
VERTEX
  8
Layer0
10
0.0
 20
 0.0
 30
0.0
 70
     128
 71
-29
 72
30
 73
31
  0
VERTEX
  8
Layer0
10
0.0
 20
 0.0
 30
0.0
 70
     128
 71
-30
 72
-29
 73
-32
  0
VERTEX
  8
Layer0
10
0.0
 20
 0.0
 30
0.0
 70
     128
 71
-32
 72
-29
 73
33
  0
VERTEX
  8
Layer0
10
0.0
 20
 0.0
 30
0.0
 70
     128
 71
-33
 72
-29
 73
34
  0
VERTEX
  8
Layer0
10
0.0
 20
 0.0
 30
0.0
 70
     128
 71
-34
 72
29
 73
-28
  0
VERTEX
  8
Layer0
10
0.0
 20
 0.0
 30
0.0
 70
     128
 71
-34
 72
-28
 73
27
  0
VERTEX
  8
Layer0
10
0.0
 20
 0.0
 30
0.0
 70
     128
 71
-30
 72
-35
 73
36
  0
VERTEX
  8
Layer0
10
0.0
 20
 0.0
 30
0.0
 70
     128
 71
-35
 72
-30
 73
32
  0
VERTEX
  8
Layer0
10
0.0
 20
 0.0
 30
0.0
 70
     128
 71
-37
 72
38
 73
39
  0
VERTEX
  8
Layer0
10
0.0
 20
 0.0
 30
0.0
 70
     128
 71
-38
 72
-37
 73
40
  0
VERTEX
  8
Layer0
10
0.0
 20
 0.0
 30
0.0
 70
     128
 71
-40
 72
37
 73
-36
  0
VERTEX
  8
Layer0
10
0.0
 20
 0.0
 30
0.0
 70
     128
 71
-40
 72
-36
 73
35
  0
SEQEND
  0
POLYLINE
 8
Layer0
 66
     1
10
0.0
 20
 0.0
 30
0.0
70
    64
71
40
72
   1
  0
VERTEX
  8
Layer0
10
496.6
20
325.2
30
0.0
 70
     192
  0
VERTEX
  8
Layer0
10
491.6
20
320.2
30
0.0
 70
     192
  0
VERTEX
  8
Layer0
10
491.6
20
325.2
30
0.0
 70
     192
  0
VERTEX
  8
Layer0
10
491.6
20
300.2
30
0.0
 70
     192
  0
VERTEX
  8
Layer0
10
491.6
20
295.2
30
0.0
 70
     192
  0
VERTEX
  8
Layer0
10
496.6
20
295.2
30
0.0
 70
     192
  0
VERTEX
  8
Layer0
10
497.894095225513
20
325.029629131445
30
0.0
 70
     192
  0
VERTEX
  8
Layer0
10
497.894095225513
20
295.370370868555
30
0.0
 70
     192
  0
VERTEX
  8
Layer0
10
499.1
20
324.530127018922
30
0.0
 70
     192
  0
VERTEX
  8
Layer0
10
499.1
20
295.869872981078
30
0.0
 70
     192
  0
VERTEX
  8
Layer0
10
500.135533905933
20
323.735533905933
30
0.0
 70
     192
  0
VERTEX
  8
Layer0
10
500.135533905933
20
296.664466094067
30
0.0
 70
     192
  0
VERTEX
  8
Layer0
10
500.930127018922
20
322.7
30
0.0
 70
     192
  0
VERTEX
  8
Layer0
10
500.930127018922
20
297.7
30
0.0
 70
     192
  0
VERTEX
  8
Layer0
10
501.429629131445
20
298.905904774487
30
0.0
 70
     192
  0
VERTEX
  8
Layer0
10
501.429629131445
20
321.494095225513
30
0.0
 70
     192
  0
VERTEX
  8
Layer0
10
501.6
20
320.2
30
0.0
 70
     192
  0
VERTEX
  8
Layer0
10
501.6
20
300.2
30
0.0
 70
     192
  0
VERTEX
  8
Layer0
10
486.8
20
300.2
30
0.0
 70
     192
  0
VERTEX
  8
Layer0
10
486.8
20
320.2
30
0.0
 70
     192
  0
VERTEX
  8
Layer0
10
486.8
20
325.2
30
0.0
 70
     192
  0
VERTEX
  8
Layer0
10
411.6
20
320.2
30
0.0
 70
     192
  0
VERTEX
  8
Layer0
10
411.6
20
325.2
30
0.0
 70
     192
  0
VERTEX
  8
Layer0
10
411.6
20
300.2
30
0.0
 70
     192
  0
VERTEX
  8
Layer0
10
411.6
20
295.2
30
0.0
 70
     192
  0
VERTEX
  8
Layer0
10
486.8
20
295.2
30
0.0
 70
     192
  0
VERTEX
  8
Layer0
10
406.8
20
300.2
30
0.0
 70
     192
  0
VERTEX
  8
Layer0
10
406.8
20
320.2
30
0.0
 70
     192
  0
VERTEX
  8
Layer0
10
406.8
20
325.2
30
0.0
 70
     192
  0
VERTEX
  8
Layer0
10
391.6
20
320.2
30
0.0
 70
     192
  0
VERTEX
  8
Layer0
10
391.6
20
325.2
30
0.0
 70
     192
  0
VERTEX
  8
Layer0
10
391.6
20
300.2
30
0.0
 70
     192
  0
VERTEX
  8
Layer0
10
391.6
20
295.2
30
0.0
 70
     192
  0
VERTEX
  8
Layer0
10
406.8
20
295.2
30
0.0
 70
     192
  0
VERTEX
  8
Layer0
10
386.8
20
300.2
30
0.0
 70
     192
  0
VERTEX
  8
Layer0
10
386.8
20
320.2
30
0.0
 70
     192
  0
VERTEX
  8
Layer0
10
386.8
20
325.2
30
0.0
 70
     192
  0
VERTEX
  8
Layer0
10
371.8
20
295.2
30
0.0
 70
     192
  0
VERTEX
  8
Layer0
10
371.8
20
325.2
30
0.0
 70
     192
  0
VERTEX
  8
Layer0
10
386.8
20
295.2
30
0.0
 70
     192
  0
VERTEX
  8
Layer0
10
0.0
 20
 0.0
 30
0.0
 70
     128
 71
-1
 72
2
 73
3
  0
VERTEX
  8
Layer0
10
0.0
 20
 0.0
 30
0.0
 70
     128
 71
-2
 72
-1
 73
-4
  0
VERTEX
  8
Layer0
10
0.0
 20
 0.0
 30
0.0
 70
     128
 71
-4
 72
-1
 73
5
  0
VERTEX
  8
Layer0
10
0.0
 20
 0.0
 30
0.0
 70
     128
 71
-5
 72
-1
 73
6
  0
VERTEX
  8
Layer0
10
0.0
 20
 0.0
 30
0.0
 70
     128
 71
-6
 72
1
 73
-7
  0
VERTEX
  8
Layer0
10
0.0
 20
 0.0
 30
0.0
 70
     128
 71
-6
 72
-7
 73
8
  0
VERTEX
  8
Layer0
10
0.0
 20
 0.0
 30
0.0
 70
     128
 71
-8
 72
7
 73
-9
  0
VERTEX
  8
Layer0
10
0.0
 20
 0.0
 30
0.0
 70
     128
 71
-8
 72
-9
 73
10
  0
VERTEX
  8
Layer0
10
0.0
 20
 0.0
 30
0.0
 70
     128
 71
-10
 72
9
 73
-11
  0
VERTEX
  8
Layer0
10
0.0
 20
 0.0
 30
0.0
 70
     128
 71
-10
 72
-11
 73
12
  0
VERTEX
  8
Layer0
10
0.0
 20
 0.0
 30
0.0
 70
     128
 71
-12
 72
11
 73
-13
  0
VERTEX
  8
Layer0
10
0.0
 20
 0.0
 30
0.0
 70
     128
 71
-12
 72
-13
 73
14
  0
VERTEX
  8
Layer0
10
0.0
 20
 0.0
 30
0.0
 70
     128
 71
-14
 72
-13
 73
15
  0
VERTEX
  8
Layer0
10
0.0
 20
 0.0
 30
0.0
 70
     128
 71
-15
 72
13
 73
-16
  0
VERTEX
  8
Layer0
10
0.0
 20
 0.0
 30
0.0
 70
     128
 71
-15
 72
16
 73
-17
  0
VERTEX
  8
Layer0
10
0.0
 20
 0.0
 30
0.0
 70
     128
 71
-15
 72
17
 73
18
  0
VERTEX
  8
Layer0
10
0.0
 20
 0.0
 30
0.0
 70
     128
 71
-2
 72
-19
 73
20
  0
VERTEX
  8
Layer0
10
0.0
 20
 0.0
 30
0.0
 70
     128
 71
-19
 72
-2
 73
4
  0
VERTEX
  8
Layer0
10
0.0
 20
 0.0
 30
0.0
 70
     128
 71
-21
 72
22
 73
23
  0
VERTEX
  8
Layer0
10
0.0
 20
 0.0
 30
0.0
 70
     128
 71
-22
 72
-21
 73
-24
  0
VERTEX
  8
Layer0
10
0.0
 20
 0.0
 30
0.0
 70
     128
 71
-24
 72
-21
 73
25
  0
VERTEX
  8
Layer0
10
0.0
 20
 0.0
 30
0.0
 70
     128
 71
-25
 72
-21
 73
26
  0
VERTEX
  8
Layer0
10
0.0
 20
 0.0
 30
0.0
 70
     128
 71
-26
 72
21
 73
-20
  0
VERTEX
  8
Layer0
10
0.0
 20
 0.0
 30
0.0
 70
     128
 71
-26
 72
-20
 73
19
  0
VERTEX
  8
Layer0
10
0.0
 20
 0.0
 30
0.0
 70
     128
 71
-22
 72
-27
 73
28
  0
VERTEX
  8
Layer0
10
0.0
 20
 0.0
 30
0.0
 70
     128
 71
-27
 72
-22
 73
24
  0
VERTEX
  8
Layer0
10
0.0
 20
 0.0
 30
0.0
 70
     128
 71
-29
 72
30
 73
31
  0
VERTEX
  8
Layer0
10
0.0
 20
 0.0
 30
0.0
 70
     128
 71
-30
 72
-29
 73
-32
  0
VERTEX
  8
Layer0
10
0.0
 20
 0.0
 30
0.0
 70
     128
 71
-32
 72
-29
 73
33
  0
VERTEX
  8
Layer0
10
0.0
 20
 0.0
 30
0.0
 70
     128
 71
-33
 72
-29
 73
34
  0
VERTEX
  8
Layer0
10
0.0
 20
 0.0
 30
0.0
 70
     128
 71
-34
 72
29
 73
-28
  0
VERTEX
  8
Layer0
10
0.0
 20
 0.0
 30
0.0
 70
     128
 71
-34
 72
-28
 73
27
  0
VERTEX
  8
Layer0
10
0.0
 20
 0.0
 30
0.0
 70
     128
 71
-30
 72
-35
 73
36
  0
VERTEX
  8
Layer0
10
0.0
 20
 0.0
 30
0.0
 70
     128
 71
-35
 72
-30
 73
32
  0
VERTEX
  8
Layer0
10
0.0
 20
 0.0
 30
0.0
 70
     128
 71
-37
 72
38
 73
39
  0
VERTEX
  8
Layer0
10
0.0
 20
 0.0
 30
0.0
 70
     128
 71
-38
 72
-37
 73
40
  0
VERTEX
  8
Layer0
10
0.0
 20
 0.0
 30
0.0
 70
     128
 71
-40
 72
37
 73
-36
  0
VERTEX
  8
Layer0
10
0.0
 20
 0.0
 30
0.0
 70
     128
 71
-40
 72
-36
 73
35
  0
SEQEND
  0
POLYLINE
 8
Layer0
 66
     1
10
0.0
 20
 0.0
 30
0.0
70
    64
71
40
72
   1
  0
VERTEX
  8
Layer0
10
496.6
20
35.0
30
0.0
 70
     192
  0
VERTEX
  8
Layer0
10
491.6
20
30.0
30
0.0
 70
     192
  0
VERTEX
  8
Layer0
10
491.6
20
35.0
30
0.0
 70
     192
  0
VERTEX
  8
Layer0
10
491.6
20
9.99999999999994
30
0.0
 70
     192
  0
VERTEX
  8
Layer0
10
491.6
20
4.99999999999995
30
0.0
 70
     192
  0
VERTEX
  8
Layer0
10
496.6
20
5.0
30
0.0
 70
     192
  0
VERTEX
  8
Layer0
10
497.894095225513
20
34.8296291314454
30
0.0
 70
     192
  0
VERTEX
  8
Layer0
10
497.894095225513
20
5.17037086855462
30
0.0
 70
     192
  0
VERTEX
  8
Layer0
10
499.1
20
34.3301270189222
30
0.0
 70
     192
  0
VERTEX
  8
Layer0
10
499.1
20
5.66987298107777
30
0.0
 70
     192
  0
VERTEX
  8
Layer0
10
500.135533905933
20
33.5355339059327
30
0.0
 70
     192
  0
VERTEX
  8
Layer0
10
500.135533905933
20
6.46446609406724
30
0.0
 70
     192
  0
VERTEX
  8
Layer0
10
500.930127018922
20
32.5
30
0.0
 70
     192
  0
VERTEX
  8
Layer0
10
500.930127018922
20
7.49999999999997
30
0.0
 70
     192
  0
VERTEX
  8
Layer0
10
501.429629131445
20
31.2940952255126
30
0.0
 70
     192
  0
VERTEX
  8
Layer0
10
501.429629131445
20
8.70590477448736
30
0.0
 70
     192
  0
VERTEX
  8
Layer0
10
501.6
20
30.0
30
0.0
 70
     192
  0
VERTEX
  8
Layer0
10
501.6
20
9.99999999999994
30
0.0
 70
     192
  0
VERTEX
  8
Layer0
10
486.8
20
9.99999999999994
30
0.0
 70
     192
  0
VERTEX
  8
Layer0
10
486.8
20
30.0
30
0.0
 70
     192
  0
VERTEX
  8
Layer0
10
486.8
20
35.0
30
0.0
 70
     192
  0
VERTEX
  8
Layer0
10
411.6
20
30.0
30
0.0
 70
     192
  0
VERTEX
  8
Layer0
10
411.6
20
35.0
30
0.0
 70
     192
  0
VERTEX
  8
Layer0
10
411.6
20
9.99999999999994
30
0.0
 70
     192
  0
VERTEX
  8
Layer0
10
411.6
20
4.99999999999995
30
0.0
 70
     192
  0
VERTEX
  8
Layer0
10
486.8
20
4.99999999999995
30
0.0
 70
     192
  0
VERTEX
  8
Layer0
10
406.8
20
9.99999999999994
30
0.0
 70
     192
  0
VERTEX
  8
Layer0
10
406.8
20
30.0
30
0.0
 70
     192
  0
VERTEX
  8
Layer0
10
406.8
20
35.0
30
0.0
 70
     192
  0
VERTEX
  8
Layer0
10
391.6
20
30.0
30
0.0
 70
     192
  0
VERTEX
  8
Layer0
10
391.6
20
35.0
30
0.0
 70
     192
  0
VERTEX
  8
Layer0
10
391.6
20
9.99999999999994
30
0.0
 70
     192
  0
VERTEX
  8
Layer0
10
391.6
20
4.99999999999995
30
0.0
 70
     192
  0
VERTEX
  8
Layer0
10
406.8
20
4.99999999999995
30
0.0
 70
     192
  0
VERTEX
  8
Layer0
10
386.8
20
9.99999999999994
30
0.0
 70
     192
  0
VERTEX
  8
Layer0
10
386.8
20
30.0
30
0.0
 70
     192
  0
VERTEX
  8
Layer0
10
386.8
20
35.0
30
0.0
 70
     192
  0
VERTEX
  8
Layer0
10
371.8
20
5.0
30
0.0
 70
     192
  0
VERTEX
  8
Layer0
10
371.8
20
35.0
30
0.0
 70
     192
  0
VERTEX
  8
Layer0
10
386.8
20
4.99999999999995
30
0.0
 70
     192
  0
VERTEX
  8
Layer0
10
0.0
 20
 0.0
 30
0.0
 70
     128
 71
-1
 72
2
 73
3
  0
VERTEX
  8
Layer0
10
0.0
 20
 0.0
 30
0.0
 70
     128
 71
-2
 72
-1
 73
-4
  0
VERTEX
  8
Layer0
10
0.0
 20
 0.0
 30
0.0
 70
     128
 71
-4
 72
-1
 73
5
  0
VERTEX
  8
Layer0
10
0.0
 20
 0.0
 30
0.0
 70
     128
 71
-5
 72
-1
 73
6
  0
VERTEX
  8
Layer0
10
0.0
 20
 0.0
 30
0.0
 70
     128
 71
-6
 72
1
 73
-7
  0
VERTEX
  8
Layer0
10
0.0
 20
 0.0
 30
0.0
 70
     128
 71
-6
 72
-7
 73
8
  0
VERTEX
  8
Layer0
10
0.0
 20
 0.0
 30
0.0
 70
     128
 71
-8
 72
7
 73
-9
  0
VERTEX
  8
Layer0
10
0.0
 20
 0.0
 30
0.0
 70
     128
 71
-8
 72
-9
 73
10
  0
VERTEX
  8
Layer0
10
0.0
 20
 0.0
 30
0.0
 70
     128
 71
-10
 72
9
 73
-11
  0
VERTEX
  8
Layer0
10
0.0
 20
 0.0
 30
0.0
 70
     128
 71
-10
 72
-11
 73
12
  0
VERTEX
  8
Layer0
10
0.0
 20
 0.0
 30
0.0
 70
     128
 71
-12
 72
11
 73
-13
  0
VERTEX
  8
Layer0
10
0.0
 20
 0.0
 30
0.0
 70
     128
 71
-12
 72
-13
 73
14
  0
VERTEX
  8
Layer0
10
0.0
 20
 0.0
 30
0.0
 70
     128
 71
-14
 72
13
 73
-15
  0
VERTEX
  8
Layer0
10
0.0
 20
 0.0
 30
0.0
 70
     128
 71
-14
 72
-15
 73
16
  0
VERTEX
  8
Layer0
10
0.0
 20
 0.0
 30
0.0
 70
     128
 71
-16
 72
15
 73
-17
  0
VERTEX
  8
Layer0
10
0.0
 20
 0.0
 30
0.0
 70
     128
 71
-16
 72
17
 73
18
  0
VERTEX
  8
Layer0
10
0.0
 20
 0.0
 30
0.0
 70
     128
 71
-2
 72
-19
 73
20
  0
VERTEX
  8
Layer0
10
0.0
 20
 0.0
 30
0.0
 70
     128
 71
-19
 72
-2
 73
4
  0
VERTEX
  8
Layer0
10
0.0
 20
 0.0
 30
0.0
 70
     128
 71
-21
 72
22
 73
23
  0
VERTEX
  8
Layer0
10
0.0
 20
 0.0
 30
0.0
 70
     128
 71
-22
 72
-21
 73
-24
  0
VERTEX
  8
Layer0
10
0.0
 20
 0.0
 30
0.0
 70
     128
 71
-24
 72
-21
 73
25
  0
VERTEX
  8
Layer0
10
0.0
 20
 0.0
 30
0.0
 70
     128
 71
-25
 72
-21
 73
26
  0
VERTEX
  8
Layer0
10
0.0
 20
 0.0
 30
0.0
 70
     128
 71
-26
 72
21
 73
-20
  0
VERTEX
  8
Layer0
10
0.0
 20
 0.0
 30
0.0
 70
     128
 71
-26
 72
-20
 73
19
  0
VERTEX
  8
Layer0
10
0.0
 20
 0.0
 30
0.0
 70
     128
 71
-22
 72
-27
 73
28
  0
VERTEX
  8
Layer0
10
0.0
 20
 0.0
 30
0.0
 70
     128
 71
-27
 72
-22
 73
24
  0
VERTEX
  8
Layer0
10
0.0
 20
 0.0
 30
0.0
 70
     128
 71
-29
 72
30
 73
31
  0
VERTEX
  8
Layer0
10
0.0
 20
 0.0
 30
0.0
 70
     128
 71
-30
 72
-29
 73
-32
  0
VERTEX
  8
Layer0
10
0.0
 20
 0.0
 30
0.0
 70
     128
 71
-32
 72
-29
 73
33
  0
VERTEX
  8
Layer0
10
0.0
 20
 0.0
 30
0.0
 70
     128
 71
-33
 72
-29
 73
34
  0
VERTEX
  8
Layer0
10
0.0
 20
 0.0
 30
0.0
 70
     128
 71
-34
 72
29
 73
-28
  0
VERTEX
  8
Layer0
10
0.0
 20
 0.0
 30
0.0
 70
     128
 71
-34
 72
-28
 73
27
  0
VERTEX
  8
Layer0
10
0.0
 20
 0.0
 30
0.0
 70
     128
 71
-30
 72
-35
 73
36
  0
VERTEX
  8
Layer0
10
0.0
 20
 0.0
 30
0.0
 70
     128
 71
-35
 72
-30
 73
32
  0
VERTEX
  8
Layer0
10
0.0
 20
 0.0
 30
0.0
 70
     128
 71
-37
 72
38
 73
39
  0
VERTEX
  8
Layer0
10
0.0
 20
 0.0
 30
0.0
 70
     128
 71
-38
 72
-37
 73
40
  0
VERTEX
  8
Layer0
10
0.0
 20
 0.0
 30
0.0
 70
     128
 71
-40
 72
37
 73
-36
  0
VERTEX
  8
Layer0
10
0.0
 20
 0.0
 30
0.0
 70
     128
 71
-40
 72
-36
 73
35
  0
SEQEND
  0
POLYLINE
 8
Layer0
 66
     1
10
0.0
 20
 0.0
 30
0.0
70
    64
71
40
72
   1
  0
VERTEX
  8
Layer0
10
-373.999999999999
20
180.0
30
0.0
 70
     192
  0
VERTEX
  8
Layer0
10
-378.999999999999
20
104.800000000001
30
0.0
 70
     192
  0
VERTEX
  8
Layer0
10
-378.999999999999
20
180.0
30
0.0
 70
     192
  0
VERTEX
  8
Layer0
10
-374.0
20
104.8
30
0.0
 70
     192
  0
VERTEX
  8
Layer0
10
-373.999999999999
20
100.000000000001
30
0.0
 70
     192
  0
VERTEX
  8
Layer0
10
-373.999999999999
20
84.8000000000008
30
0.0
 70
     192
  0
VERTEX
  8
Layer0
10
-373.999999999999
20
80.0000000000006
30
0.0
 70
     192
  0
VERTEX
  8
Layer0
10
-378.829629131444
20
191.094095225513
30
0.0
 70
     192
  0
VERTEX
  8
Layer0
10
-378.999999999999
20
184.8
30
0.0
 70
     192
  0
VERTEX
  8
Layer0
10
-378.999999999999
20
189.8
30
0.0
 70
     192
  0
VERTEX
  8
Layer0
10
-373.999999999999
20
184.8
30
0.0
 70
     192
  0
VERTEX
  8
Layer0
10
-378.330127018921
20
192.3
30
0.0
 70
     192
  0
VERTEX
  8
Layer0
10
-377.535533905932
20
193.335533905933
30
0.0
 70
     192
  0
VERTEX
  8
Layer0
10
-376.499999999999
20
194.130127018923
30
0.0
 70
     192
  0
VERTEX
  8
Layer0
10
-375.294095225512
20
194.629629131445
30
0.0
 70
     192
  0
VERTEX
  8
Layer0
10
-373.999999999999
20
194.8
30
0.0
 70
     192
  0
VERTEX
  8
Layer0
10
-378.999999999999
20
65.0000000000002
30
0.0
 70
     192
  0
VERTEX
  8
Layer0
10
-378.999999999999
20
80.0000000000002
30
0.0
 70
     192
  0
VERTEX
  8
Layer0
10
-348.999999999999
20
65.0
30
0.0
 70
     192
  0
VERTEX
  8
Layer0
10
-354.0
20
80.0000000000005
30
0.0
 70
     192
  0
VERTEX
  8
Layer0
10
-348.999999999999
20
80.0000000000006
30
0.0
 70
     192
  0
VERTEX
  8
Layer0
10
-378.999999999999
20
84.8000000000001
30
0.0
 70
     192
  0
VERTEX
  8
Layer0
10
-378.999999999999
20
100.0
30
0.0
 70
     192
  0
VERTEX
  8
Layer0
10
-353.999999999999
20
184.8
30
0.0
 70
     192
  0
VERTEX
  8
Layer0
10
-353.999999999999
20
194.8
30
0.0
 70
     192
  0
VERTEX
  8
Layer0
10
-353.999999999999
20
104.8
30
0.0
 70
     192
  0
VERTEX
  8
Layer0
10
-348.999999999999
20
184.8
30
0.0
 70
     192
  0
VERTEX
  8
Layer0
10
-352.705904774487
20
194.629629131446
30
0.0
 70
     192
  0
VERTEX
  8
Layer0
10
-351.499999999999
20
194.130127018922
30
0.0
 70
     192
  0
VERTEX
  8
Layer0
10
-350.464466094066
20
193.335533905933
30
0.0
 70
     192
  0
VERTEX
  8
Layer0
10
-349.669872981077
20
192.3
30
0.0
 70
     192
  0
VERTEX
  8
Layer0
10
-349.170370868554
20
191.094095225513
30
0.0
 70
     192
  0
VERTEX
  8
Layer0
10
-348.999999999999
20
189.8
30
0.0
 70
     192
  0
VERTEX
  8
Layer0
10
-353.999999999999
20
180.0
30
0.0
 70
     192
  0
VERTEX
  8
Layer0
10
-348.999999999999
20
104.8
30
0.0
 70
     192
  0
VERTEX
  8
Layer0
10
-348.999999999999
20
180.0
30
0.0
 70
     192
  0
VERTEX
  8
Layer0
10
-353.999999999999
20
84.8000000000006
30
0.0
 70
     192
  0
VERTEX
  8
Layer0
10
-353.999999999999
20
100.000000000001
30
0.0
 70
     192
  0
VERTEX
  8
Layer0
10
-348.999999999999
20
84.8000000000006
30
0.0
 70
     192
  0
VERTEX
  8
Layer0
10
-348.999999999999
20
100.0
30
0.0
 70
     192
  0
VERTEX
  8
Layer0
10
0.0
 20
 0.0
 30
0.0
 70
     128
 71
-1
 72
2
 73
3
  0
VERTEX
  8
Layer0
10
0.0
 20
 0.0
 30
0.0
 70
     128
 71
-2
 72
-1
 73
4
  0
VERTEX
  8
Layer0
10
0.0
 20
 0.0
 30
0.0
 70
     128
 71
-4
 72
-1
 73
5
  0
VERTEX
  8
Layer0
10
0.0
 20
 0.0
 30
0.0
 70
     128
 71
-5
 72
-1
 73
-6
  0
VERTEX
  8
Layer0
10
0.0
 20
 0.0
 30
0.0
 70
     128
 71
-6
 72
-1
 73
7
  0
VERTEX
  8
Layer0
10
0.0
 20
 0.0
 30
0.0
 70
     128
 71
-8
 72
9
 73
10
  0
VERTEX
  8
Layer0
10
0.0
 20
 0.0
 30
0.0
 70
     128
 71
-9
 72
-8
 73
11
  0
VERTEX
  8
Layer0
10
0.0
 20
 0.0
 30
0.0
 70
     128
 71
-11
 72
8
 73
-12
  0
VERTEX
  8
Layer0
10
0.0
 20
 0.0
 30
0.0
 70
     128
 71
-11
 72
12
 73
-13
  0
VERTEX
  8
Layer0
10
0.0
 20
 0.0
 30
0.0
 70
     128
 71
-11
 72
13
 73
-14
  0
VERTEX
  8
Layer0
10
0.0
 20
 0.0
 30
0.0
 70
     128
 71
-11
 72
14
 73
-15
  0
VERTEX
  8
Layer0
10
0.0
 20
 0.0
 30
0.0
 70
     128
 71
-11
 72
15
 73
-16
  0
VERTEX
  8
Layer0
10
0.0
 20
 0.0
 30
0.0
 70
     128
 71
-11
 72
-16
 73
1
  0
VERTEX
  8
Layer0
10
0.0
 20
 0.0
 30
0.0
 70
     128
 71
-7
 72
17
 73
18
  0
VERTEX
  8
Layer0
10
0.0
 20
 0.0
 30
0.0
 70
     128
 71
-17
 72
-7
 73
19
  0
VERTEX
  8
Layer0
10
0.0
 20
 0.0
 30
0.0
 70
     128
 71
-19
 72
-7
 73
-20
  0
VERTEX
  8
Layer0
10
0.0
 20
 0.0
 30
0.0
 70
     128
 71
-20
 72
-7
 73
-1
  0
VERTEX
  8
Layer0
10
0.0
 20
 0.0
 30
0.0
 70
     128
 71
-20
 72
-1
 73
-16
  0
VERTEX
  8
Layer0
10
0.0
 20
 0.0
 30
0.0
 70
     128
 71
-19
 72
20
 73
21
  0
VERTEX
  8
Layer0
10
0.0
 20
 0.0
 30
0.0
 70
     128
 71
-5
 72
22
 73
23
  0
VERTEX
  8
Layer0
10
0.0
 20
 0.0
 30
0.0
 70
     128
 71
-22
 72
-5
 73
6
  0
VERTEX
  8
Layer0
10
0.0
 20
 0.0
 30
0.0
 70
     128
 71
-16
 72
-24
 73
-20
  0
VERTEX
  8
Layer0
10
0.0
 20
 0.0
 30
0.0
 70
     128
 71
-24
 72
16
 73
-25
  0
VERTEX
  8
Layer0
10
0.0
 20
 0.0
 30
0.0
 70
     128
 71
-20
 72
-24
 73
-26
  0
VERTEX
  8
Layer0
10
0.0
 20
 0.0
 30
0.0
 70
     128
 71
-24
 72
-25
 73
27
  0
VERTEX
  8
Layer0
10
0.0
 20
 0.0
 30
0.0
 70
     128
 71
-27
 72
25
 73
-28
  0
VERTEX
  8
Layer0
10
0.0
 20
 0.0
 30
0.0
 70
     128
 71
-27
 72
28
 73
-29
  0
VERTEX
  8
Layer0
10
0.0
 20
 0.0
 30
0.0
 70
     128
 71
-27
 72
29
 73
-30
  0
VERTEX
  8
Layer0
10
0.0
 20
 0.0
 30
0.0
 70
     128
 71
-27
 72
30
 73
-31
  0
VERTEX
  8
Layer0
10
0.0
 20
 0.0
 30
0.0
 70
     128
 71
-27
 72
31
 73
-32
  0
VERTEX
  8
Layer0
10
0.0
 20
 0.0
 30
0.0
 70
     128
 71
-27
 72
32
 73
33
  0
VERTEX
  8
Layer0
10
0.0
 20
 0.0
 30
0.0
 70
     128
 71
-26
 72
-34
 73
35
  0
VERTEX
  8
Layer0
10
0.0
 20
 0.0
 30
0.0
 70
     128
 71
-34
 72
-26
 73
24
  0
VERTEX
  8
Layer0
10
0.0
 20
 0.0
 30
0.0
 70
     128
 71
-35
 72
34
 73
36
  0
VERTEX
  8
Layer0
10
0.0
 20
 0.0
 30
0.0
 70
     128
 71
-26
 72
37
 73
-20
  0
VERTEX
  8
Layer0
10
0.0
 20
 0.0
 30
0.0
 70
     128
 71
-37
 72
26
 73
-38
  0
VERTEX
  8
Layer0
10
0.0
 20
 0.0
 30
0.0
 70
     128
 71
-37
 72
-38
 73
39
  0
VERTEX
  8
Layer0
10
0.0
 20
 0.0
 30
0.0
 70
     128
 71
-39
 72
38
 73
40
  0
SEQEND
  0
POLYLINE
 8
Layer0
 66
     1
10
0.0
 20
 0.0
 30
0.0
70
    64
71
40
72
   1
  0
VERTEX
  8
Layer0
10
-408.999999999999
20
314.834522088025
30
0.0
 70
     192
  0
VERTEX
  8
Layer0
10
-413.999999999999
20
239.634522088025
30
0.0
 70
     192
  0
VERTEX
  8
Layer0
10
-413.999999999999
20
314.834522088025
30
0.0
 70
     192
  0
VERTEX
  8
Layer0
10
-408.999999999999
20
239.634522088025
30
0.0
 70
     192
  0
VERTEX
  8
Layer0
10
-408.999999999999
20
234.834522088025
30
0.0
 70
     192
  0
VERTEX
  8
Layer0
10
-408.999999999999
20
219.634522088025
30
0.0
 70
     192
  0
VERTEX
  8
Layer0
10
-408.999999999999
20
214.834522088025
30
0.0
 70
     192
  0
VERTEX
  8
Layer0
10
-413.829629131444
20
325.928617313538
30
0.0
 70
     192
  0
VERTEX
  8
Layer0
10
-413.999999999999
20
319.634522088025
30
0.0
 70
     192
  0
VERTEX
  8
Layer0
10
-413.999999999999
20
324.634522088025
30
0.0
 70
     192
  0
VERTEX
  8
Layer0
10
-408.999999999999
20
319.634522088025
30
0.0
 70
     192
  0
VERTEX
  8
Layer0
10
-413.330127018921
20
327.134522088025
30
0.0
 70
     192
  0
VERTEX
  8
Layer0
10
-412.535533905932
20
328.170055993958
30
0.0
 70
     192
  0
VERTEX
  8
Layer0
10
-411.499999999999
20
328.964649106947
30
0.0
 70
     192
  0
VERTEX
  8
Layer0
10
-410.294095225512
20
329.46415121947
30
0.0
 70
     192
  0
VERTEX
  8
Layer0
10
-408.999999999999
20
329.634522088025
30
0.0
 70
     192
  0
VERTEX
  8
Layer0
10
-413.999999999999
20
199.834522088025
30
0.0
 70
     192
  0
VERTEX
  8
Layer0
10
-413.999999999999
20
214.834522088025
30
0.0
 70
     192
  0
VERTEX
  8
Layer0
10
-383.999999999999
20
199.834522088025
30
0.0
 70
     192
  0
VERTEX
  8
Layer0
10
-388.999999999999
20
214.834522088025
30
0.0
 70
     192
  0
VERTEX
  8
Layer0
10
-383.999999999999
20
214.834522088025
30
0.0
 70
     192
  0
VERTEX
  8
Layer0
10
-413.999999999999
20
219.634522088025
30
0.0
 70
     192
  0
VERTEX
  8
Layer0
10
-413.999999999999
20
234.834522088025
30
0.0
 70
     192
  0
VERTEX
  8
Layer0
10
-388.999999999999
20
319.634522088025
30
0.0
 70
     192
  0
VERTEX
  8
Layer0
10
-388.999999999999
20
329.634522088025
30
0.0
 70
     192
  0
VERTEX
  8
Layer0
10
-388.999999999999
20
239.634522088025
30
0.0
 70
     192
  0
VERTEX
  8
Layer0
10
-383.999999999999
20
319.634522088025
30
0.0
 70
     192
  0
VERTEX
  8
Layer0
10
-387.705904774486
20
329.46415121947
30
0.0
 70
     192
  0
VERTEX
  8
Layer0
10
-386.499999999999
20
328.964649106947
30
0.0
 70
     192
  0
VERTEX
  8
Layer0
10
-385.464466094066
20
328.170055993958
30
0.0
 70
     192
  0
VERTEX
  8
Layer0
10
-384.669872981077
20
327.134522088025
30
0.0
 70
     192
  0
VERTEX
  8
Layer0
10
-384.170370868554
20
325.928617313537
30
0.0
 70
     192
  0
VERTEX
  8
Layer0
10
-383.999999999999
20
324.634522088025
30
0.0
 70
     192
  0
VERTEX
  8
Layer0
10
-388.999999999999
20
314.834522088025
30
0.0
 70
     192
  0
VERTEX
  8
Layer0
10
-383.999999999999
20
239.634522088025
30
0.0
 70
     192
  0
VERTEX
  8
Layer0
10
-383.999999999999
20
314.834522088025
30
0.0
 70
     192
  0
VERTEX
  8
Layer0
10
-388.999999999999
20
219.634522088025
30
0.0
 70
     192
  0
VERTEX
  8
Layer0
10
-388.999999999999
20
234.834522088025
30
0.0
 70
     192
  0
VERTEX
  8
Layer0
10
-383.999999999999
20
219.634522088025
30
0.0
 70
     192
  0
VERTEX
  8
Layer0
10
-383.999999999999
20
234.834522088025
30
0.0
 70
     192
  0
VERTEX
  8
Layer0
10
0.0
 20
 0.0
 30
0.0
 70
     128
 71
-1
 72
2
 73
3
  0
VERTEX
  8
Layer0
10
0.0
 20
 0.0
 30
0.0
 70
     128
 71
-2
 72
-1
 73
4
  0
VERTEX
  8
Layer0
10
0.0
 20
 0.0
 30
0.0
 70
     128
 71
-4
 72
-1
 73
5
  0
VERTEX
  8
Layer0
10
0.0
 20
 0.0
 30
0.0
 70
     128
 71
-5
 72
-1
 73
-6
  0
VERTEX
  8
Layer0
10
0.0
 20
 0.0
 30
0.0
 70
     128
 71
-6
 72
-1
 73
7
  0
VERTEX
  8
Layer0
10
0.0
 20
 0.0
 30
0.0
 70
     128
 71
-8
 72
9
 73
10
  0
VERTEX
  8
Layer0
10
0.0
 20
 0.0
 30
0.0
 70
     128
 71
-9
 72
-8
 73
11
  0
VERTEX
  8
Layer0
10
0.0
 20
 0.0
 30
0.0
 70
     128
 71
-11
 72
8
 73
-12
  0
VERTEX
  8
Layer0
10
0.0
 20
 0.0
 30
0.0
 70
     128
 71
-11
 72
12
 73
-13
  0
VERTEX
  8
Layer0
10
0.0
 20
 0.0
 30
0.0
 70
     128
 71
-11
 72
13
 73
-14
  0
VERTEX
  8
Layer0
10
0.0
 20
 0.0
 30
0.0
 70
     128
 71
-11
 72
14
 73
-15
  0
VERTEX
  8
Layer0
10
0.0
 20
 0.0
 30
0.0
 70
     128
 71
-11
 72
15
 73
-16
  0
VERTEX
  8
Layer0
10
0.0
 20
 0.0
 30
0.0
 70
     128
 71
-11
 72
-16
 73
1
  0
VERTEX
  8
Layer0
10
0.0
 20
 0.0
 30
0.0
 70
     128
 71
-7
 72
17
 73
18
  0
VERTEX
  8
Layer0
10
0.0
 20
 0.0
 30
0.0
 70
     128
 71
-17
 72
-7
 73
19
  0
VERTEX
  8
Layer0
10
0.0
 20
 0.0
 30
0.0
 70
     128
 71
-19
 72
-7
 73
-20
  0
VERTEX
  8
Layer0
10
0.0
 20
 0.0
 30
0.0
 70
     128
 71
-20
 72
-7
 73
-1
  0
VERTEX
  8
Layer0
10
0.0
 20
 0.0
 30
0.0
 70
     128
 71
-20
 72
-1
 73
-16
  0
VERTEX
  8
Layer0
10
0.0
 20
 0.0
 30
0.0
 70
     128
 71
-19
 72
20
 73
21
  0
VERTEX
  8
Layer0
10
0.0
 20
 0.0
 30
0.0
 70
     128
 71
-5
 72
22
 73
23
  0
VERTEX
  8
Layer0
10
0.0
 20
 0.0
 30
0.0
 70
     128
 71
-22
 72
-5
 73
6
  0
VERTEX
  8
Layer0
10
0.0
 20
 0.0
 30
0.0
 70
     128
 71
-16
 72
-24
 73
-20
  0
VERTEX
  8
Layer0
10
0.0
 20
 0.0
 30
0.0
 70
     128
 71
-24
 72
16
 73
-25
  0
VERTEX
  8
Layer0
10
0.0
 20
 0.0
 30
0.0
 70
     128
 71
-20
 72
-24
 73
-26
  0
VERTEX
  8
Layer0
10
0.0
 20
 0.0
 30
0.0
 70
     128
 71
-24
 72
-25
 73
27
  0
VERTEX
  8
Layer0
10
0.0
 20
 0.0
 30
0.0
 70
     128
 71
-27
 72
25
 73
-28
  0
VERTEX
  8
Layer0
10
0.0
 20
 0.0
 30
0.0
 70
     128
 71
-27
 72
28
 73
-29
  0
VERTEX
  8
Layer0
10
0.0
 20
 0.0
 30
0.0
 70
     128
 71
-27
 72
29
 73
-30
  0
VERTEX
  8
Layer0
10
0.0
 20
 0.0
 30
0.0
 70
     128
 71
-27
 72
30
 73
-31
  0
VERTEX
  8
Layer0
10
0.0
 20
 0.0
 30
0.0
 70
     128
 71
-27
 72
31
 73
-32
  0
VERTEX
  8
Layer0
10
0.0
 20
 0.0
 30
0.0
 70
     128
 71
-27
 72
32
 73
33
  0
VERTEX
  8
Layer0
10
0.0
 20
 0.0
 30
0.0
 70
     128
 71
-26
 72
-34
 73
35
  0
VERTEX
  8
Layer0
10
0.0
 20
 0.0
 30
0.0
 70
     128
 71
-34
 72
-26
 73
24
  0
VERTEX
  8
Layer0
10
0.0
 20
 0.0
 30
0.0
 70
     128
 71
-35
 72
34
 73
36
  0
VERTEX
  8
Layer0
10
0.0
 20
 0.0
 30
0.0
 70
     128
 71
-26
 72
37
 73
-20
  0
VERTEX
  8
Layer0
10
0.0
 20
 0.0
 30
0.0
 70
     128
 71
-37
 72
26
 73
-38
  0
VERTEX
  8
Layer0
10
0.0
 20
 0.0
 30
0.0
 70
     128
 71
-37
 72
-38
 73
39
  0
VERTEX
  8
Layer0
10
0.0
 20
 0.0
 30
0.0
 70
     128
 71
-39
 72
38
 73
40
  0
SEQEND
  0
POLYLINE
 8
Layer0
 66
     1
10
0.0
 20
 0.0
 30
0.0
70
    64
71
40
72
   1
  0
VERTEX
  8
Layer0
10
-408.999999999998
20
180.0
30
0.0
 70
     192
  0
VERTEX
  8
Layer0
10
-413.999999999999
20
104.800000000001
30
0.0
 70
     192
  0
VERTEX
  8
Layer0
10
-413.999999999999
20
180.0
30
0.0
 70
     192
  0
VERTEX
  8
Layer0
10
-408.999999999999
20
104.8
30
0.0
 70
     192
  0
VERTEX
  8
Layer0
10
-408.999999999999
20
100.000000000001
30
0.0
 70
     192
  0
VERTEX
  8
Layer0
10
-408.999999999999
20
84.8000000000008
30
0.0
 70
     192
  0
VERTEX
  8
Layer0
10
-408.999999999999
20
80.0000000000006
30
0.0
 70
     192
  0
VERTEX
  8
Layer0
10
-413.829629131444
20
191.094095225513
30
0.0
 70
     192
  0
VERTEX
  8
Layer0
10
-413.999999999999
20
184.8
30
0.0
 70
     192
  0
VERTEX
  8
Layer0
10
-413.999999999999
20
189.8
30
0.0
 70
     192
  0
VERTEX
  8
Layer0
10
-408.999999999999
20
184.8
30
0.0
 70
     192
  0
VERTEX
  8
Layer0
10
-413.330127018921
20
192.3
30
0.0
 70
     192
  0
VERTEX
  8
Layer0
10
-412.535533905931
20
193.335533905933
30
0.0
 70
     192
  0
VERTEX
  8
Layer0
10
-411.499999999998
20
194.130127018923
30
0.0
 70
     192
  0
VERTEX
  8
Layer0
10
-410.294095225511
20
194.629629131445
30
0.0
 70
     192
  0
VERTEX
  8
Layer0
10
-408.999999999998
20
194.8
30
0.0
 70
     192
  0
VERTEX
  8
Layer0
10
-413.999999999998
20
65.0000000000002
30
0.0
 70
     192
  0
VERTEX
  8
Layer0
10
-413.999999999999
20
80.0000000000002
30
0.0
 70
     192
  0
VERTEX
  8
Layer0
10
-383.999999999999
20
65.0
30
0.0
 70
     192
  0
VERTEX
  8
Layer0
10
-388.999999999999
20
80.0000000000005
30
0.0
 70
     192
  0
VERTEX
  8
Layer0
10
-383.999999999999
20
80.0000000000006
30
0.0
 70
     192
  0
VERTEX
  8
Layer0
10
-413.999999999999
20
84.8000000000001
30
0.0
 70
     192
  0
VERTEX
  8
Layer0
10
-413.999999999999
20
100.0
30
0.0
 70
     192
  0
VERTEX
  8
Layer0
10
-388.999999999998
20
184.8
30
0.0
 70
     192
  0
VERTEX
  8
Layer0
10
-388.999999999998
20
194.8
30
0.0
 70
     192
  0
VERTEX
  8
Layer0
10
-388.999999999999
20
104.8
30
0.0
 70
     192
  0
VERTEX
  8
Layer0
10
-383.999999999999
20
184.8
30
0.0
 70
     192
  0
VERTEX
  8
Layer0
10
-387.705904774486
20
194.629629131446
30
0.0
 70
     192
  0
VERTEX
  8
Layer0
10
-386.499999999999
20
194.130127018922
30
0.0
 70
     192
  0
VERTEX
  8
Layer0
10
-385.464466094066
20
193.335533905933
30
0.0
 70
     192
  0
VERTEX
  8
Layer0
10
-384.669872981076
20
192.3
30
0.0
 70
     192
  0
VERTEX
  8
Layer0
10
-384.170370868553
20
191.094095225513
30
0.0
 70
     192
  0
VERTEX
  8
Layer0
10
-383.999999999999
20
189.8
30
0.0
 70
     192
  0
VERTEX
  8
Layer0
10
-388.999999999998
20
180.0
30
0.0
 70
     192
  0
VERTEX
  8
Layer0
10
-383.999999999999
20
104.8
30
0.0
 70
     192
  0
VERTEX
  8
Layer0
10
-383.999999999998
20
180.0
30
0.0
 70
     192
  0
VERTEX
  8
Layer0
10
-388.999999999999
20
84.8000000000006
30
0.0
 70
     192
  0
VERTEX
  8
Layer0
10
-388.999999999998
20
100.000000000001
30
0.0
 70
     192
  0
VERTEX
  8
Layer0
10
-383.999999999999
20
84.8000000000006
30
0.0
 70
     192
  0
VERTEX
  8
Layer0
10
-383.999999999999
20
100.0
30
0.0
 70
     192
  0
VERTEX
  8
Layer0
10
0.0
 20
 0.0
 30
0.0
 70
     128
 71
-1
 72
2
 73
3
  0
VERTEX
  8
Layer0
10
0.0
 20
 0.0
 30
0.0
 70
     128
 71
-2
 72
-1
 73
4
  0
VERTEX
  8
Layer0
10
0.0
 20
 0.0
 30
0.0
 70
     128
 71
-4
 72
-1
 73
5
  0
VERTEX
  8
Layer0
10
0.0
 20
 0.0
 30
0.0
 70
     128
 71
-5
 72
-1
 73
-6
  0
VERTEX
  8
Layer0
10
0.0
 20
 0.0
 30
0.0
 70
     128
 71
-6
 72
-1
 73
7
  0
VERTEX
  8
Layer0
10
0.0
 20
 0.0
 30
0.0
 70
     128
 71
-8
 72
9
 73
10
  0
VERTEX
  8
Layer0
10
0.0
 20
 0.0
 30
0.0
 70
     128
 71
-9
 72
-8
 73
11
  0
VERTEX
  8
Layer0
10
0.0
 20
 0.0
 30
0.0
 70
     128
 71
-11
 72
8
 73
-12
  0
VERTEX
  8
Layer0
10
0.0
 20
 0.0
 30
0.0
 70
     128
 71
-11
 72
12
 73
-13
  0
VERTEX
  8
Layer0
10
0.0
 20
 0.0
 30
0.0
 70
     128
 71
-11
 72
13
 73
-14
  0
VERTEX
  8
Layer0
10
0.0
 20
 0.0
 30
0.0
 70
     128
 71
-11
 72
14
 73
-15
  0
VERTEX
  8
Layer0
10
0.0
 20
 0.0
 30
0.0
 70
     128
 71
-11
 72
15
 73
-16
  0
VERTEX
  8
Layer0
10
0.0
 20
 0.0
 30
0.0
 70
     128
 71
-11
 72
-16
 73
1
  0
VERTEX
  8
Layer0
10
0.0
 20
 0.0
 30
0.0
 70
     128
 71
-7
 72
17
 73
18
  0
VERTEX
  8
Layer0
10
0.0
 20
 0.0
 30
0.0
 70
     128
 71
-17
 72
-7
 73
19
  0
VERTEX
  8
Layer0
10
0.0
 20
 0.0
 30
0.0
 70
     128
 71
-19
 72
-7
 73
-20
  0
VERTEX
  8
Layer0
10
0.0
 20
 0.0
 30
0.0
 70
     128
 71
-20
 72
-7
 73
-1
  0
VERTEX
  8
Layer0
10
0.0
 20
 0.0
 30
0.0
 70
     128
 71
-20
 72
-1
 73
-16
  0
VERTEX
  8
Layer0
10
0.0
 20
 0.0
 30
0.0
 70
     128
 71
-19
 72
20
 73
21
  0
VERTEX
  8
Layer0
10
0.0
 20
 0.0
 30
0.0
 70
     128
 71
-5
 72
22
 73
23
  0
VERTEX
  8
Layer0
10
0.0
 20
 0.0
 30
0.0
 70
     128
 71
-22
 72
-5
 73
6
  0
VERTEX
  8
Layer0
10
0.0
 20
 0.0
 30
0.0
 70
     128
 71
-16
 72
-24
 73
-20
  0
VERTEX
  8
Layer0
10
0.0
 20
 0.0
 30
0.0
 70
     128
 71
-24
 72
16
 73
-25
  0
VERTEX
  8
Layer0
10
0.0
 20
 0.0
 30
0.0
 70
     128
 71
-20
 72
-24
 73
-26
  0
VERTEX
  8
Layer0
10
0.0
 20
 0.0
 30
0.0
 70
     128
 71
-24
 72
-25
 73
27
  0
VERTEX
  8
Layer0
10
0.0
 20
 0.0
 30
0.0
 70
     128
 71
-27
 72
25
 73
-28
  0
VERTEX
  8
Layer0
10
0.0
 20
 0.0
 30
0.0
 70
     128
 71
-27
 72
28
 73
-29
  0
VERTEX
  8
Layer0
10
0.0
 20
 0.0
 30
0.0
 70
     128
 71
-27
 72
29
 73
-30
  0
VERTEX
  8
Layer0
10
0.0
 20
 0.0
 30
0.0
 70
     128
 71
-27
 72
30
 73
-31
  0
VERTEX
  8
Layer0
10
0.0
 20
 0.0
 30
0.0
 70
     128
 71
-27
 72
31
 73
-32
  0
VERTEX
  8
Layer0
10
0.0
 20
 0.0
 30
0.0
 70
     128
 71
-27
 72
32
 73
33
  0
VERTEX
  8
Layer0
10
0.0
 20
 0.0
 30
0.0
 70
     128
 71
-26
 72
-34
 73
35
  0
VERTEX
  8
Layer0
10
0.0
 20
 0.0
 30
0.0
 70
     128
 71
-34
 72
-26
 73
24
  0
VERTEX
  8
Layer0
10
0.0
 20
 0.0
 30
0.0
 70
     128
 71
-35
 72
34
 73
36
  0
VERTEX
  8
Layer0
10
0.0
 20
 0.0
 30
0.0
 70
     128
 71
-26
 72
37
 73
-20
  0
VERTEX
  8
Layer0
10
0.0
 20
 0.0
 30
0.0
 70
     128
 71
-37
 72
26
 73
-38
  0
VERTEX
  8
Layer0
10
0.0
 20
 0.0
 30
0.0
 70
     128
 71
-37
 72
-38
 73
39
  0
VERTEX
  8
Layer0
10
0.0
 20
 0.0
 30
0.0
 70
     128
 71
-39
 72
38
 73
40
  0
SEQEND
 0
ENDSEC
 0
EOF
