  0
SECTION
  2
ENTITIES
  0
ARC
  8
APS_GEOMETRY
 10
0.027344
 20
-0.033303
 40
0.033303
 50
81.972762
 51
90.0
  0
ARC
  8
APS_GEOMETRY
 10
0.019425
 20
-0.089456
 40
0.090012
 50
77.092591
 51
81.972762
  0
ARC
  8
APS_GEOMETRY
 10
0.096362
 20
0.243092
 40
0.25132
 50
256.930682
 51
258.976544
  0
ARC
  8
APS_GEOMETRY
 10
0.054764
 20
0.029555
 40
0.033769
 50
258.976544
 51
264.559668
  0
ARC
  8
APS_GEOMETRY
 10
0.052283
 20
0.002426
 40
0.006528
 50
263.659808
 51
275.946863
  0
ARC
  8
APS_GEOMETRY
 10
0.050988
 20
0.014862
 40
0.019031
 50
275.946863
 51
283.134022
  0
ARC
  8
APS_GEOMETRY
 10
0.06294
 20
-0.036362
 40
0.033568
 50
99.039483
 51
103.134022
  0
ARC
  8
APS_GEOMETRY
 10
0.05875
 20
-0.010024
 40
0.006899
 50
90.0
 51
99.039483
  0
LINE
  8
APS_GEOMETRY
 10
0.05875
 11
0.05875
 20
-0.003125
 21
-0.002969
  0
ARC
  8
APS_GEOMETRY
 10
0.063512
 20
-0.025589
 40
0.023116
 50
94.398705
 51
101.888658
  0
ARC
  8
APS_GEOMETRY
 10
0.066875
 20
-0.069305
 40
0.066962
 50
90.0
 51
94.398705
  0
ARC
  8
APS_GEOMETRY
 10
0.066875
 20
-0.117525
 40
0.115181
 50
84.499589
 51
90.0
  0
ARC
  8
APS_GEOMETRY
 10
0.068578
 20
-0.099835
 40
0.097409
 50
78.518009
 51
84.499589
  0
ARC
  8
APS_GEOMETRY
 10
0.098223
 20
0.014995
 40
0.021916
 50
242.102729
 51
249.928474
  0
ARC
  8
APS_GEOMETRY
 10
0.117728
 20
0.068376
 40
0.07875
 50
249.928474
 51
254.054604
  0
LINE
  8
APS_GEOMETRY
 10
0.096094
 11
0.103594
 20
-0.007344
 21
-0.005469
  0
ARC
  8
APS_GEOMETRY
 10
0.126647
 20
-0.097681
 40
0.09505
 50
99.008504
 51
104.036243
  0
ARC
  8
APS_GEOMETRY
 10
0.116406
 20
-0.033087
 40
0.029649
 50
90.0
 51
99.008504
  0
ARC
  8
APS_GEOMETRY
 10
0.116406
 20
-0.029089
 40
0.025651
 50
84.093859
 51
90.0
  0
ARC
  8
APS_GEOMETRY
 10
0.117652
 20
-0.01705
 40
0.013548
 50
75.963757
 51
84.093859
  0
ARC
  8
APS_GEOMETRY
 10
0.121413
 20
-0.00343
 40
0.000673
 50
225.0
 51
243.434949
  0
ARC
  8
APS_GEOMETRY
 10
0.122649
 20
-0.000959
 40
0.003436
 50
243.434949
 51
251.565051
  0
LINE
  8
APS_GEOMETRY
 10
0.121563
 11
0.1225
 20
-0.004219
 21
-0.005
  0
ARC
  8
APS_GEOMETRY
 10
0.119844
 20
-0.006992
 40
0.00332
 50
10.954063
 51
36.869898
  0
ARC
  8
APS_GEOMETRY
 10
0.105111
 20
-0.009844
 40
0.018327
 50
0.0
 51
10.954063
  0
ARC
  8
APS_GEOMETRY
 10
0.107001
 20
-0.009844
 40
0.016436
 50
354.559668
 51
0.0
  0
ARC
  8
APS_GEOMETRY
 10
-0.34316
 20
0.033029
 40
0.468635
 50
353.541184
 51
354.559668
  0
ARC
  8
APS_GEOMETRY
 10
0.25694
 20
-0.03685
 40
0.135531
 50
172.724995
 51
175.840358
  0
ARC
  8
APS_GEOMETRY
 10
0.125761
 20
-0.02731
 40
0.004006
 50
175.840358
 51
194.036243
  0
ARC
  8
APS_GEOMETRY
 10
0.12696
 20
-0.02701
 40
0.005241
 50
194.036243
 51
214.592289
  0
ARC
  8
APS_GEOMETRY
 10
0.139342
 20
-0.018471
 40
0.020283
 50
214.592289
 51
225.0
  0
ARC
  8
APS_GEOMETRY
 10
0.054436
 20
-0.103377
 40
0.099793
 50
42.089162
 51
45.0
  0
ARC
  8
APS_GEOMETRY
 10
0.122307
 20
-0.042074
 40
0.008335
 50
32.005383
 51
42.089162
  0
ARC
  8
APS_GEOMETRY
 10
0.126545
 20
-0.039543
 40
0.003401
 50
24.227745
 51
33.690068
  0
ARC
  8
APS_GEOMETRY
 10
-0.26072
 20
-0.213812
 40
0.42807
 50
23.385221
 51
24.227745
  0
ARC
  8
APS_GEOMETRY
 10
0.066618
 20
-0.072757
 40
0.071636
 50
16.990823
 51
23.749494
  0
ARC
  8
APS_GEOMETRY
 10
0.12422
 20
-0.055156
 40
0.011405
 50
0.0
 51
16.990823
  0
ARC
  8
APS_GEOMETRY
 10
0.116132
 20
-0.055156
 40
0.019493
 50
345.579227
 51
0.0
  0
ARC
  8
APS_GEOMETRY
 10
0.134219
 20
-0.059807
 40
0.000818
 50
270.0
 51
345.579227
  0
LINE
  8
APS_GEOMETRY
 10
0.134219
 11
0.133125
 20
-0.060625
 21
-0.059531
  0
LINE
  8
APS_GEOMETRY
 10
0.133125
 11
0.132969
 20
-0.059531
 21
-0.059531
  0
LINE
  8
APS_GEOMETRY
 10
0.132969
 11
0.132969
 20
-0.059531
 21
-0.059688
  0
ARC
  8
APS_GEOMETRY
 10
0.134953
 20
-0.058365
 40
0.002385
 50
213.690068
 51
227.121096
  0
ARC
  8
APS_GEOMETRY
 10
0.164187
 20
-0.026882
 40
0.045347
 50
227.121096
 51
230.194429
  0
LINE
  8
APS_GEOMETRY
 10
0.135156
 11
0.135312
 20
-0.061719
 21
-0.061719
  0
LINE
  8
APS_GEOMETRY
 10
0.135312
 11
0.135312
 20
-0.061719
 21
-0.061875
  0
ARC
  8
APS_GEOMETRY
 10
0.135312
 20
-0.065631
 40
0.003756
 50
90.0
 51
97.125016
  0
ARC
  8
APS_GEOMETRY
 10
0.136196
 20
-0.072698
 40
0.010878
 50
97.125016
 51
101.309932
  0
LINE
  8
APS_GEOMETRY
 10
0.134062
 11
0.133906
 20
-0.062031
 21
-0.062031
  0
ARC
  8
APS_GEOMETRY
 10
0.105888
 20
-0.071777
 40
0.029665
 50
11.888658
 51
19.179008
  0
ARC
  8
APS_GEOMETRY
 10
0.123976
 20
-0.067969
 40
0.01118
 50
0.0
 51
11.888658
  0
ARC
  8
APS_GEOMETRY
 10
0.13184
 20
-0.067969
 40
0.003317
 50
330.255119
 51
0.0
  0
ARC
  8
APS_GEOMETRY
 10
0.133771
 20
-0.069072
 40
0.001092
 50
277.125016
 51
330.255119
  0
ARC
  8
APS_GEOMETRY
 10
0.133587
 20
-0.067919
 40
0.00226
 50
251.200115
 51
278.130102
  0
ARC
  8
APS_GEOMETRY
 10
0.138259
 20
-0.054195
 40
0.016757
 50
241.38954
 51
251.200115
  0
ARC
  8
APS_GEOMETRY
 10
0.109389
 20
-0.107123
 40
0.043533
 50
61.38954
 51
65.224859
  0
ARC
  8
APS_GEOMETRY
 10
0.127188
 20
-0.068559
 40
0.001059
 50
65.224859
 51
90.0
  0
LINE
  8
APS_GEOMETRY
 10
0.127188
 11
0.127188
 20
-0.0675
 21
-0.067656
  0
LINE
  8
APS_GEOMETRY
 10
0.127188
 11
0.127344
 20
-0.067656
 21
-0.067656
  0
ARC
  8
APS_GEOMETRY
 10
0.136735
 20
-0.060769
 40
0.011646
 50
216.253838
 51
230.194429
  0
ARC
  8
APS_GEOMETRY
 10
0.13341
 20
-0.06476
 40
0.006451
 50
230.194429
 51
248.962489
  0
ARC
  8
APS_GEOMETRY
 10
0.13127
 20
-0.070781
 40
0.000176
 50
180.0
 51
225.0
  0
ARC
  8
APS_GEOMETRY
 10
0.131855
 20
-0.070196
 40
0.001004
 50
225.0
 51
243.434949
  0
ARC
  8
APS_GEOMETRY
 10
0.083725
 20
-0.082446
 40
0.049014
 50
9.462322
 51
13.392498
  0
ARC
  8
APS_GEOMETRY
 10
0.123716
 20
-0.075781
 40
0.008472
 50
0.0
 51
9.462322
  0
ARC
  8
APS_GEOMETRY
 10
0.128459
 20
-0.075781
 40
0.003729
 50
350.537678
 51
0.0
  0
ARC
  8
APS_GEOMETRY
 10
0.131005
 20
-0.076206
 40
0.001147
 50
333.434949
 51
350.537678
  0
ARC
  8
APS_GEOMETRY
 10
0.19998
 20
-0.478749
 40
0.407732
 50
99.593134
 51
101.173838
  0
ARC
  8
APS_GEOMETRY
 10
0.253265
 20
-0.748504
 40
0.682699
 50
101.173838
 51
102.395407
  0
LINE
  8
APS_GEOMETRY
 10
0.106719
 11
0.105469
 20
-0.081719
 21
-0.0825
  0
ARC
  8
APS_GEOMETRY
 10
0.096634
 20
-0.106595
 40
0.025664
 50
40.333142
 51
69.863697
  0
ARC
  8
APS_GEOMETRY
 10
0.105506
 20
-0.099063
 40
0.014025
 50
0.0
 51
40.333142
  0
ARC
  8
APS_GEOMETRY
 10
0.088556
 20
-0.099063
 40
0.030975
 50
347.735226
 51
0.0
  0
ARC
  8
APS_GEOMETRY
 10
0.072791
 20
-0.095635
 40
0.047109
 50
337.796521
 51
347.735226
  0
ARC
  8
APS_GEOMETRY
 10
0.095352
 20
-0.105016
 40
0.022676
 50
327.724356
 51
338.198591
  0
ARC
  8
APS_GEOMETRY
 10
0.104954
 20
-0.11108
 40
0.01132
 50
312.878904
 51
327.724356
  0
ARC
  8
APS_GEOMETRY
 10
0.100752
 20
-0.106319
 40
0.017668
 50
289.937992
 51
312.357455
  0
ARC
  8
APS_GEOMETRY
 10
0.093226
 20
-0.08557
 40
0.03974
 50
275.042451
 51
289.937992
  0
ARC
  8
APS_GEOMETRY
 10
0.096331
 20
-0.120119
 40
0.005052
 50
252.121303
 51
274.398705
  0
ARC
  8
APS_GEOMETRY
 10
0.098939
 20
-0.112034
 40
0.013547
 50
238.570434
 51
252.121303
  0
ARC
  8
APS_GEOMETRY
 10
0.05793
 20
-0.171117
 40
0.058401
 50
54.462322
 51
58.392498
  0
ARC
  8
APS_GEOMETRY
 10
0.087379
 20
-0.123263
 40
0.002212
 50
58.392498
 51
78.690068
  0
ARC
  8
APS_GEOMETRY
 10
0.181125
 20
0.217165
 40
0.350894
 50
253.810794
 51
254.577839
  0
ARC
  8
APS_GEOMETRY
 10
0.083829
 20
-0.117968
 40
0.001923
 50
243.434949
 51
253.810794
  0
ARC
  8
APS_GEOMETRY
 10
0.08764
 20
-0.105674
 40
0.014771
 50
240.255119
 51
251.565051
  0
ARC
  8
APS_GEOMETRY
 10
0.08435
 20
-0.111431
 40
0.008141
 50
225.0
 51
240.255119
  0
ARC
  8
APS_GEOMETRY
 10
0.083465
 20
-0.11206
 40
0.007073
 50
193.706961
 51
226.468801
  0
ARC
  8
APS_GEOMETRY
 10
0.114973
 20
-0.104375
 40
0.039504
 50
180.0
 51
193.706961
  0
ARC
  8
APS_GEOMETRY
 10
0.136401
 20
-0.104375
 40
0.060933
 50
174.143986
 51
180.0
  0
ARC
  8
APS_GEOMETRY
 10
0.132907
 20
-0.104017
 40
0.05742
 50
168.111342
 51
174.143986
  0
ARC
  8
APS_GEOMETRY
 10
0.080042
 20
-0.092741
 40
0.003369
 50
154.592282
 51
170.537678
  0
ARC
  8
APS_GEOMETRY
 10
0.099434
 20
-0.101953
 40
0.024838
 50
148.736268
 51
154.592282
  0
ARC
  8
APS_GEOMETRY
 10
0.05753
 20
-0.076511
 40
0.024186
 50
328.736268
 51
334.722278
  0
ARC
  8
APS_GEOMETRY
 10
0.078154
 20
-0.08625
 40
0.001377
 50
334.722278
 51
0.0
  0
LINE
  8
APS_GEOMETRY
 10
0.079531
 11
0.079375
 20
-0.08625
 21
-0.08625
  0
LINE
  8
APS_GEOMETRY
 10
0.079375
 11
0.079375
 20
-0.08625
 21
-0.086094
  0
LINE
  8
APS_GEOMETRY
 10
0.079375
 11
0.074219
 20
-0.086094
 21
-0.087031
  0
LINE
  8
APS_GEOMETRY
 10
0.074219
 11
0.074219
 20
-0.087031
 21
-0.086875
  0
LINE
  8
APS_GEOMETRY
 10
0.074219
 11
0.073906
 20
-0.086875
 21
-0.086875
  0
LINE
  8
APS_GEOMETRY
 10
0.073906
 11
0.074219
 20
-0.086875
 21
-0.086563
  0
LINE
  8
APS_GEOMETRY
 10
0.074219
 11
0.081406
 20
-0.086563
 21
-0.084688
  0
ARC
  8
APS_GEOMETRY
 10
0.093356
 20
-0.101417
 40
0.020559
 50
118.072487
 51
125.537678
  0
ARC
  8
APS_GEOMETRY
 10
0.121618
 20
-0.154408
 40
0.080615
 50
114.304549
 51
118.072487
  0
LINE
  8
APS_GEOMETRY
 10
0.088437
 11
0.100313
 20
-0.080938
 21
-0.080156
  0
ARC
  8
APS_GEOMETRY
 10
0.163753
 20
-0.333918
 40
0.261572
 50
102.907409
 51
104.036243
  0
ARC
  8
APS_GEOMETRY
 10
0.335834
 20
-1.084819
 40
1.031938
 50
102.339087
 51
102.907409
  0
ARC
  8
APS_GEOMETRY
 10
0.115312
 20
-0.017756
 40
0.058963
 50
270.0
 51
275.000645
  0
ARC
  8
APS_GEOMETRY
 10
0.109785
 20
0.045418
 40
0.122378
 50
275.000645
 51
278.471145
  0
ARC
  8
APS_GEOMETRY
 10
0.127064
 20
-0.073878
 40
0.001901
 50
293.198591
 51
325.00798
  0
ARC
  8
APS_GEOMETRY
 10
0.127327
 20
-0.074063
 40
0.001579
 50
325.00798
 51
0.0
  0
ARC
  8
APS_GEOMETRY
 10
0.125803
 20
-0.074063
 40
0.003104
 50
0.0
 51
24.775141
  0
ARC
  8
APS_GEOMETRY
 10
0.121778
 20
-0.07592
 40
0.007536
 50
24.775141
 51
40.601295
  0
ARC
  8
APS_GEOMETRY
 10
0.122857
 20
-0.074995
 40
0.006115
 50
40.601295
 51
59.743563
  0
ARC
  8
APS_GEOMETRY
 10
0.124688
 20
-0.071857
 40
0.002482
 50
59.743563
 51
90.0
  0
LINE
  8
APS_GEOMETRY
 10
0.124688
 11
0.124688
 20
-0.069375
 21
-0.069219
  0
ARC
  8
APS_GEOMETRY
 10
0.124688
 20
-0.066405
 40
0.002814
 50
270.0
 51
279.462322
  0
ARC
  8
APS_GEOMETRY
 10
0.124636
 20
-0.066095
 40
0.003128
 50
279.462322
 51
288.434949
  0
ARC
  8
APS_GEOMETRY
 10
0.143024
 20
-0.053751
 40
0.023177
 50
209.538782
 51
221.347777
  0
ARC
  8
APS_GEOMETRY
 10
0.123442
 20
-0.064848
 40
0.000669
 50
135.0
 51
209.538782
  0
ARC
  8
APS_GEOMETRY
 10
0.123346
 20
-0.064752
 40
0.000534
 50
73.393019
 51
135.0
  0
ARC
  8
APS_GEOMETRY
 10
0.11455
 20
-0.094245
 40
0.03131
 50
65.725559
 51
73.393019
  0
ARC
  8
APS_GEOMETRY
 10
0.172005
 20
0.033155
 40
0.108446
 50
245.725559
 51
248.025492
  0
ARC
  8
APS_GEOMETRY
 10
0.131875
 20
-0.066298
 40
0.001202
 50
248.025492
 51
270.0
  0
LINE
  8
APS_GEOMETRY
 10
0.131875
 11
0.131875
 20
-0.0675
 21
-0.067344
  0
LINE
  8
APS_GEOMETRY
 10
0.131875
 11
0.132031
 20
-0.067344
 21
-0.067344
  0
ARC
  8
APS_GEOMETRY
 10
0.123702
 20
-0.067344
 40
0.008329
 50
0.0
 51
21.037511
  0
ARC
  8
APS_GEOMETRY
 10
0.04601
 20
-0.097225
 40
0.091569
 50
21.037511
 51
27.349876
  0
ARC
  8
APS_GEOMETRY
 10
0.122555
 20
-0.058349
 40
0.005755
 50
33.690068
 51
39.289407
  0
ARC
  8
APS_GEOMETRY
 10
0.088208
 20
-0.086451
 40
0.050134
 50
39.289407
 51
41.185925
  0
ARC
  8
APS_GEOMETRY
 10
0.128035
 20
-0.056933
 40
0.004076
 50
108.434949
 51
120.963757
  0
ARC
  8
APS_GEOMETRY
 10
0.127344
 20
-0.05486
 40
0.001891
 50
90.0
 51
108.434949
  0
ARC
  8
APS_GEOMETRY
 10
0.127344
 20
-0.054041
 40
0.001072
 50
58.172553
 51
90.0
  0
ARC
  8
APS_GEOMETRY
 10
0.120645
 20
-0.064834
 40
0.013775
 50
49.398705
 51
58.172553
  0
ARC
  8
APS_GEOMETRY
 10
0.138574
 20
-0.043916
 40
0.013775
 50
229.398705
 51
238.172553
  0
ARC
  8
APS_GEOMETRY
 10
0.131875
 20
-0.054709
 40
0.001072
 50
238.172553
 51
270.0
  0
LINE
  8
APS_GEOMETRY
 10
0.131875
 11
0.131875
 20
-0.055781
 21
-0.055625
  0
LINE
  8
APS_GEOMETRY
 10
0.131875
 11
0.132031
 20
-0.055625
 21
-0.055625
  0
ARC
  8
APS_GEOMETRY
 10
0.112319
 20
-0.053577
 40
0.019818
 50
354.068473
 51
26.565051
  0
ARC
  8
APS_GEOMETRY
 10
0.07044
 20
-0.074516
 40
0.06664
 50
26.565051
 51
44.118596
  0
ARC
  8
APS_GEOMETRY
 10
0.256049
 20
0.109643
 40
0.194834
 50
223.505666
 51
225.0
  0
ARC
  8
APS_GEOMETRY
 10
0.433323
 20
0.277903
 40
0.439246
 50
222.510447
 51
223.505666
  0
ARC
  8
APS_GEOMETRY
 10
0.091304
 20
-0.042197
 40
0.029575
 50
51.952957
 51
60.764195
  0
ARC
  8
APS_GEOMETRY
 10
-0.15939
 20
-0.490104
 40
0.542866
 50
60.764195
 51
62.818889
  0
ARC
  8
APS_GEOMETRY
 10
-0.049727
 20
-1.3904
 40
1.390111
 50
84.289407
 51
85.065836
  0
ARC
  8
APS_GEOMETRY
 10
0.066875
 20
-0.039754
 40
0.034442
 50
85.065836
 51
90.0
  0
ARC
  8
APS_GEOMETRY
 10
0.066875
 20
-0.074234
 40
0.068921
 50
90.0
 51
96.968257
  0
ARC
  8
APS_GEOMETRY
 10
0.062561
 20
-0.038934
 40
0.033359
 50
96.968257
 51
106.990823
  0
ARC
  8
APS_GEOMETRY
 10
0.064511
 20
-0.044565
 40
0.039315
 50
107.311646
 51
125.23165
  0
ARC
  8
APS_GEOMETRY
 10
0.094195
 20
-0.086594
 40
0.090769
 50
125.23165
 51
136.99788
  0
ARC
  8
APS_GEOMETRY
 10
0.091491
 20
-0.084176
 40
0.087143
 50
136.948085
 51
147.506745
  0
ARC
  8
APS_GEOMETRY
 10
0.084247
 20
-0.079563
 40
0.078554
 50
147.506745
 51
158.629378
  0
LINE
  8
APS_GEOMETRY
 10
0.011094
 11
0.009375
 20
-0.050938
 21
-0.055313
  0
ARC
  8
APS_GEOMETRY
 10
0.029034
 20
-0.062958
 40
0.021093
 50
158.749494
 51
166.865978
  0
ARC
  8
APS_GEOMETRY
 10
0.016358
 20
-0.06
 40
0.008077
 50
166.865978
 51
180.0
  0
ARC
  8
APS_GEOMETRY
 10
0.012278
 20
-0.06
 40
0.003997
 50
180.0
 51
199.440035
  0
ARC
  8
APS_GEOMETRY
 10
0.013189
 20
-0.059679
 40
0.004963
 50
199.440035
 51
216.869898
  0
ARC
  8
APS_GEOMETRY
 10
-0.026719
 20
-0.0049
 40
0.068024
 50
301.890792
 51
308.659808
  0
ARC
  8
APS_GEOMETRY
 10
0.014987
 20
-0.057031
 40
0.001263
 50
308.659808
 51
0.0
  0
ARC
  8
APS_GEOMETRY
 10
0.012034
 20
-0.058718
 40
0.004541
 50
11.309932
 51
21.801409
  0
ARC
  8
APS_GEOMETRY
 10
0.012653
 20
-0.058594
 40
0.003909
 50
0.0
 51
11.309932
  0
ARC
  8
APS_GEOMETRY
 10
0.013707
 20
-0.058594
 40
0.002855
 50
341.565051
 51
0.0
  0
ARC
  8
APS_GEOMETRY
 10
0.002586
 20
-0.054887
 40
0.014579
 50
333.434949
 51
341.565051
  0
ARC
  8
APS_GEOMETRY
 10
0.028664
 20
-0.067926
 40
0.014579
 50
153.434949
 51
161.565051
  0
ARC
  8
APS_GEOMETRY
 10
0.017543
 20
-0.064219
 40
0.002855
 50
161.565051
 51
180.0
  0
ARC
  8
APS_GEOMETRY
 10
0.019035
 20
-0.070429
 40
0.007581
 50
124.99202
 51
151.606981
  0
ARC
  8
APS_GEOMETRY
 10
0.01824
 20
-0.07
 40
0.006678
 50
151.606981
 51
180.0
  0
ARC
  8
APS_GEOMETRY
 10
0.013919
 20
-0.07
 40
0.002356
 50
180.0
 51
218.659808
  0
ARC
  8
APS_GEOMETRY
 10
0.01405
 20
-0.069895
 40
0.002524
 50
218.659808
 51
255.963757
  0
ARC
  8
APS_GEOMETRY
 10
0.01415
 20
-0.069254
 40
0.003171
 50
257.005383
 51
292.619865
  0
ARC
  8
APS_GEOMETRY
 10
-0.007136
 20
-0.018167
 40
0.058515
 50
292.619865
 51
300.784147
  0
LINE
  8
APS_GEOMETRY
 10
0.022812
 11
0.025469
 20
-0.068438
 21
-0.067813
  0
LINE
  8
APS_GEOMETRY
 10
0.025469
 11
0.025781
 20
-0.067813
 21
-0.067813
  0
ARC
  8
APS_GEOMETRY
 10
0.068557
 20
-0.09385
 40
0.050077
 50
148.671307
 51
153.434949
  0
ARC
  8
APS_GEOMETRY
 10
0.025232
 20
-0.072188
 40
0.001638
 50
153.434949
 51
180.0
  0
ARC
  8
APS_GEOMETRY
 10
0.027538
 20
-0.07649
 40
0.005837
 50
132.510447
 51
156.037511
  0
ARC
  8
APS_GEOMETRY
 10
0.027349
 20
-0.076406
 40
0.00563
 50
156.037511
 51
180.0
  0
ARC
  8
APS_GEOMETRY
 10
0.024288
 20
-0.076513
 40
0.002571
 50
177.614056
 51
241.557071
  0
ARC
  8
APS_GEOMETRY
 10
0.029795
 20
-0.066346
 40
0.014134
 50
241.557071
 51
267.662694
  0
LINE
  8
APS_GEOMETRY
 10
0.029219
 11
0.03082
 20
-0.080469
 21
-0.080469
  0
LINE
  8
APS_GEOMETRY
 10
0.03082
 11
0.033125
 20
-0.080469
 21
-0.080469
  0
LINE
  8
APS_GEOMETRY
 10
0.033125
 11
0.042656
 20
-0.080469
 21
-0.080313
  0
ARC
  8
APS_GEOMETRY
 10
0.040361
 20
-0.156057
 40
0.07578
 50
84.369317
 51
88.264295
  0
ARC
  8
APS_GEOMETRY
 10
0.037698
 20
-0.183072
 40
0.102925
 50
81.027373
 51
84.369317
  0
ARC
  8
APS_GEOMETRY
 10
0.047616
 20
-0.120255
 40
0.03933
 50
68.895161
 51
81.027373
  0
ARC
  8
APS_GEOMETRY
 10
0.061284
 20
-0.084844
 40
0.001373
 50
0.0
 51
68.895161
  0
LINE
  8
APS_GEOMETRY
 10
0.062656
 11
0.0625
 20
-0.084844
 21
-0.084844
  0
LINE
  8
APS_GEOMETRY
 10
0.0625
 11
0.0625
 20
-0.084844
 21
-0.085
  0
ARC
  8
APS_GEOMETRY
 10
0.065415
 20
-0.102488
 40
0.01773
 50
99.462322
 51
102.528808
  0
ARC
  8
APS_GEOMETRY
 10
0.062606
 20
-0.08985
 40
0.004782
 50
102.528808
 51
108.434949
  0
LINE
  8
APS_GEOMETRY
 10
0.061094
 11
0.060938
 20
-0.085313
 21
-0.085313
  0
ARC
  8
APS_GEOMETRY
 10
0.042303
 20
-0.10022
 40
0.023863
 50
31.476839
 51
38.659808
  0
ARC
  8
APS_GEOMETRY
 10
-0.019214
 20
-0.137884
 40
0.095995
 50
27.897271
 51
31.476839
  0
ARC
  8
APS_GEOMETRY
 10
0.050522
 20
-0.097164
 40
0.015675
 50
4.92711
 51
15.524111
  0
ARC
  8
APS_GEOMETRY
 10
-0.005938
 20
-0.102031
 40
0.072345
 50
0.0
 51
4.92711
  0
ARC
  8
APS_GEOMETRY
 10
0.001235
 20
-0.102031
 40
0.065171
 50
349.487373
 51
0.0
  0
ARC
  8
APS_GEOMETRY
 10
0.059192
 20
-0.112786
 40
0.006224
 50
315.0
 51
349.487373
  0
ARC
  8
APS_GEOMETRY
 10
0.058421
 20
-0.112015
 40
0.007315
 50
298.072487
 51
315.0
  0
ARC
  8
APS_GEOMETRY
 10
0.054269
 20
-0.104229
 40
0.016139
 50
286.699244
 51
298.072487
  0
LINE
  8
APS_GEOMETRY
 10
0.058906
 11
0.058281
 20
-0.119688
 21
-0.119844
  0
ARC
  8
APS_GEOMETRY
 10
0.316406
 20
-0.95875
 40
0.87772
 50
107.102729
 51
107.241459
  0
ARC
  8
APS_GEOMETRY
 10
0.451406
 20
-1.39375
 40
1.333186
 50
107.241459
 51
107.354025
  0
ARC
  8
APS_GEOMETRY
 10
-0.000993
 20
-0.036094
 40
0.101234
 50
301.263732
 51
302.735226
  0
ARC
  8
APS_GEOMETRY
 10
0.002232
 20
-0.041406
 40
0.09502
 50
299.744881
 51
301.263732
  0
ARC
  8
APS_GEOMETRY
 10
0.043977
 20
-0.11419
 40
0.011116
 50
283.134022
 51
299.054604
  0
ARC
  8
APS_GEOMETRY
 10
0.045625
 20
-0.121252
 40
0.003864
 50
255.963757
 51
283.134022
  0
ARC
  8
APS_GEOMETRY
 10
0.261795
 20
0.898506
 40
1.046279
 50
257.735226
 51
258.023868
  0
ARC
  8
APS_GEOMETRY
 10
0.074298
 20
0.03602
 40
0.163648
 50
257.005383
 51
257.735226
  0
ARC
  8
APS_GEOMETRY
 10
0.046894
 20
-0.085863
 40
0.038731
 50
248.428693
 51
255.963757
  0
ARC
  8
APS_GEOMETRY
 10
0.035246
 20
-0.115324
 40
0.007051
 50
230.710593
 51
248.428693
  0
ARC
  8
APS_GEOMETRY
 10
0.044448
 20
-0.104078
 40
0.021582
 50
203.252592
 51
230.710593
  0
ARC
  8
APS_GEOMETRY
 10
0.052119
 20
-0.100781
 40
0.029932
 50
180.0
 51
203.252592
  0
ARC
  8
APS_GEOMETRY
 10
0.043373
 20
-0.100781
 40
0.021185
 50
152.744672
 51
180.0
  0
ARC
  8
APS_GEOMETRY
 10
0.036786
 20
-0.097388
 40
0.013776
 50
118.767649
 51
152.744672
  0
LINE
  8
APS_GEOMETRY
 10
0.030156
 11
0.035625
 20
-0.085313
 21
-0.082969
  0
LINE
  8
APS_GEOMETRY
 10
0.035625
 11
0.035625
 20
-0.082969
 21
-0.0825
  0
LINE
  8
APS_GEOMETRY
 10
0.035625
 11
0.026094
 20
-0.0825
 21
-0.0825
  0
LINE
  8
APS_GEOMETRY
 10
0.026094
 11
0.0225
 20
-0.0825
 21
-0.082969
  0
ARC
  8
APS_GEOMETRY
 10
0.022926
 20
-0.080199
 40
0.002802
 50
225.0
 51
261.253838
  0
ARC
  8
APS_GEOMETRY
 10
0.022926
 20
-0.080199
 40
0.002802
 50
188.746162
 51
225.0
  0
ARC
  8
APS_GEOMETRY
 10
0.02094
 20
-0.079841
 40
0.001109
 50
213.690068
 51
225.0
  0
ARC
  8
APS_GEOMETRY
 10
0.022338
 20
-0.078909
 40
0.002789
 50
206.565051
 51
213.690068
  0
LINE
  8
APS_GEOMETRY
 10
0.019844
 11
0.019844
 20
-0.080156
 21
-0.08
  0
ARC
  8
APS_GEOMETRY
 10
0.017894
 20
-0.072201
 40
0.008039
 50
279.462322
 51
284.036243
  0
ARC
  8
APS_GEOMETRY
 10
0.018906
 20
-0.078275
 40
0.001882
 50
270.0
 51
279.462322
  0
ARC
  8
APS_GEOMETRY
 10
0.020976
 20
-0.078087
 40
0.002927
 50
204.443955
 51
225.0
  0
ARC
  8
APS_GEOMETRY
 10
0.020204
 20
-0.078438
 40
0.002079
 50
180.0
 51
204.443955
  0
ARC
  8
APS_GEOMETRY
 10
0.019678
 20
-0.078438
 40
0.001553
 50
157.520566
 51
180.0
  0
ARC
  8
APS_GEOMETRY
 10
0.03182
 20
-0.083462
 40
0.014694
 50
150.255119
 51
157.520566
  0
ARC
  8
APS_GEOMETRY
 10
0.008285
 20
-0.070013
 40
0.012413
 50
330.255119
 51
338.83874
  0
ARC
  8
APS_GEOMETRY
 10
0.017938
 20
-0.07375
 40
0.002062
 50
338.83874
 51
0.0
  0
ARC
  8
APS_GEOMETRY
 10
0.01648
 20
-0.083137
 40
0.010025
 50
69.443955
 51
77.005383
  0
ARC
  8
APS_GEOMETRY
 10
0.017969
 20
-0.076685
 40
0.003404
 50
77.005383
 51
90.0
  0
ARC
  8
APS_GEOMETRY
 10
0.017969
 20
-0.074207
 40
0.000926
 50
90.0
 51
128.659808
  0
ARC
  8
APS_GEOMETRY
 10
0.017728
 20
-0.073906
 40
0.000541
 50
128.659808
 51
180.0
  0
ARC
  8
APS_GEOMETRY
 10
0.014532
 20
-0.081872
 40
0.008397
 50
68.198591
 51
71.565051
  0
ARC
  8
APS_GEOMETRY
 10
0.016093
 20
-0.077971
 40
0.004195
 50
63.434949
 51
68.198591
  0
LINE
  8
APS_GEOMETRY
 10
0.017969
 11
0.017813
 20
-0.074219
 21
-0.074219
  0
LINE
  8
APS_GEOMETRY
 10
0.017813
 11
0.017813
 20
-0.074219
 21
-0.074375
  0
LINE
  8
APS_GEOMETRY
 10
0.017813
 11
0.01625
 20
-0.074375
 21
-0.074375
  0
LINE
  8
APS_GEOMETRY
 10
0.01625
 11
0.01625
 20
-0.074375
 21
-0.074531
  0
ARC
  8
APS_GEOMETRY
 10
0.01625
 20
-0.075085
 40
0.000554
 50
90.0
 51
105.945396
  0
ARC
  8
APS_GEOMETRY
 10
0.01722
 20
-0.078479
 40
0.004083
 50
105.945396
 51
111.801409
  0
ARC
  8
APS_GEOMETRY
 10
0.014187
 20
-0.070896
 40
0.004083
 50
285.945396
 51
291.801409
  0
ARC
  8
APS_GEOMETRY
 10
0.015156
 20
-0.07429
 40
0.000554
 50
270.0
 51
285.945396
  0
LINE
  8
APS_GEOMETRY
 10
0.015156
 11
0.015156
 20
-0.074844
 21
-0.075
  0
ARC
  8
APS_GEOMETRY
 10
0.014575
 20
-0.074419
 40
0.000822
 50
285.945396
 51
315.0
  0
ARC
  8
APS_GEOMETRY
 10
0.014063
 20
-0.072625
 40
0.002688
 50
270.0
 51
285.945396
  0
LINE
  8
APS_GEOMETRY
 10
0.014063
 11
0.014063
 20
-0.075313
 21
-0.075625
  0
ARC
  8
APS_GEOMETRY
 10
0.012658
 20
-0.072817
 40
0.00314
 50
284.036243
 51
296.565051
  0
ARC
  8
APS_GEOMETRY
 10
0.012813
 20
-0.073433
 40
0.002504
 50
270.0
 51
284.036243
  0
ARC
  8
APS_GEOMETRY
 10
0.012813
 20
-0.074653
 40
0.001285
 50
210.529706
 51
270.0
  0
ARC
  8
APS_GEOMETRY
 10
0.036239
 20
-0.060837
 40
0.028481
 50
198.434949
 51
210.529706
  0
LINE
  8
APS_GEOMETRY
 10
0.009219
 11
0.009219
 20
-0.069844
 21
-0.069063
  0
LINE
  8
APS_GEOMETRY
 10
0.009219
 11
0.01125
 20
-0.069063
 21
-0.064844
  0
LINE
  8
APS_GEOMETRY
 10
0.01125
 11
0.012813
 20
-0.064844
 21
-0.062813
  0
LINE
  8
APS_GEOMETRY
 10
0.012813
 11
0.012813
 20
-0.062813
 21
-0.062656
  0
LINE
  8
APS_GEOMETRY
 10
0.012813
 11
0.012656
 20
-0.062656
 21
-0.062656
  0
ARC
  8
APS_GEOMETRY
 10
-0.004338
 20
-0.030557
 40
0.03632
 50
293.198591
 51
297.897271
  0
ARC
  8
APS_GEOMETRY
 10
0.009375
 20
-0.062553
 40
0.00151
 50
270.0
 51
293.198591
  0
ARC
  8
APS_GEOMETRY
 10
0.009375
 20
-0.062014
 40
0.002048
 50
216.027373
 51
270.0
  0
ARC
  8
APS_GEOMETRY
 10
0.011285
 20
-0.060625
 40
0.00441
 50
180.0
 51
216.027373
  0
ARC
  8
APS_GEOMETRY
 10
0.033183
 20
-0.060625
 40
0.026308
 50
154.422709
 51
180.0
  0
ARC
  8
APS_GEOMETRY
 10
0.159538
 20
-0.121103
 40
0.166391
 50
144.323592
 51
154.422709
  0
ARC
  8
APS_GEOMETRY
 10
0.021296
 20
-0.022523
 40
0.003442
 50
333.434949
 51
350.537678
  0
ARC
  8
APS_GEOMETRY
 10
0.013657
 20
-0.02125
 40
0.011187
 50
350.537678
 51
0.0
  0
ARC
  8
APS_GEOMETRY
 10
-0.00213
 20
-0.02125
 40
0.026974
 50
0.0
 51
5.300927
  0
ARC
  8
APS_GEOMETRY
 10
-0.088399
 20
-0.029254
 40
0.113614
 50
5.300927
 51
7.883139
  0
ARC
  8
APS_GEOMETRY
 10
0.136681
 20
0.001911
 40
0.113614
 50
185.300927
 51
187.883139
  0
ARC
  8
APS_GEOMETRY
 10
0.050412
 20
-0.006094
 40
0.026974
 50
180.0
 51
185.300927
  0
ARC
  8
APS_GEOMETRY
 10
0.039098
 20
-0.006094
 40
0.015661
 50
168.310631
 51
180.0
  0
ARC
  8
APS_GEOMETRY
 10
0.027109
 20
-0.003613
 40
0.003418
 50
143.130102
 51
168.310631
  0
LINE
  8
APS_GEOMETRY
 10
0.024375
 11
0.027344
 20
-0.001563
 21
0.0
  0
LINE
  8
APS_GEOMETRY
 10
0.02625
 11
0.026094
 20
-0.002188
 21
-0.004063
  0
LINE
  8
APS_GEOMETRY
 10
0.026094
 11
0.030781
 20
-0.004063
 21
-0.003906
  0
ARC
  8
APS_GEOMETRY
 10
0.029398
 20
-0.01013
 40
0.006375
 50
64.622256
 51
77.471192
  0
ARC
  8
APS_GEOMETRY
 10
-0.005995
 20
-0.084741
 40
0.088956
 50
61.189206
 51
64.622256
  0
ARC
  8
APS_GEOMETRY
 10
0.01089
 20
-0.054042
 40
0.05392
 50
55.653903
 51
61.189206
  0
ARC
  8
APS_GEOMETRY
 10
0.040986
 20
-0.01
 40
0.000577
 50
0.0
 51
55.653903
  0
LINE
  8
APS_GEOMETRY
 10
0.041562
 11
0.041875
 20
-0.01
 21
-0.01
  0
LINE
  8
APS_GEOMETRY
 10
0.041875
 11
0.041875
 20
-0.01
 21
-0.009844
  0
LINE
  8
APS_GEOMETRY
 10
0.041875
 11
0.049375
 20
-0.009844
 21
-0.005313
  0
ARC
  8
APS_GEOMETRY
 10
0.024396
 20
-0.130209
 40
0.12737
 50
78.690068
 51
79.765197
  0
ARC
  8
APS_GEOMETRY
 10
-0.276899
 20
-1.79892
 40
1.823063
 50
79.765197
 51
80.049373
  0
ARC
  8
APS_GEOMETRY
 10
0.024721
 20
-0.079877
 40
0.07776
 50
80.073754
 51
84.737605
  0
ARC
  8
APS_GEOMETRY
 10
0.02625
 20
-0.063274
 40
0.061086
 50
84.737605
 51
90.0
  0
LINE
  8
APS_GEOMETRY
 10
0.02625
 11
0.02625
 20
-0.005313
 21
-0.005469
  0
ARC
  8
APS_GEOMETRY
 10
0.027236
 20
-0.006455
 40
0.001394
 50
135.0
 51
169.215702
  0
ARC
  8
APS_GEOMETRY
 10
0.039287
 20
-0.00875
 40
0.013662
 50
169.215702
 51
180.0
  0
ARC
  8
APS_GEOMETRY
 10
0.078176
 20
-0.00875
 40
0.052551
 50
180.0
 51
188.569142
  0
ARC
  8
APS_GEOMETRY
 10
0.038069
 20
-0.014793
 40
0.011991
 50
188.569142
 51
206.565051
  0
ARC
  8
APS_GEOMETRY
 10
0.02881
 20
-0.019423
 40
0.001639
 50
206.565051
 51
218.659808
  0
ARC
  8
APS_GEOMETRY
 10
0.032176
 20
-0.016731
 40
0.005949
 50
218.659808
 51
225.0
  0
ARC
  8
APS_GEOMETRY
 10
0.037009
 20
-0.028848
 40
0.012012
 50
130.914383
 51
138.814075
  0
ARC
  8
APS_GEOMETRY
 10
0.136167
 20
-0.143261
 40
0.163415
 50
128.774171
 51
130.914383
  0
ARC
  8
APS_GEOMETRY
 10
0.085895
 20
-0.080677
 40
0.083141
 50
124.611142
 51
128.774171
  0
ARC
  8
APS_GEOMETRY
 10
0.039375
 20
-0.013271
 40
0.00124
 50
90.0
 51
124.611142
  0
LINE
  8
APS_GEOMETRY
 10
0.039375
 11
0.039375
 20
-0.012031
 21
-0.011563
  0
ARC
  8
APS_GEOMETRY
 10
0.021929
 20
-0.029008
 40
0.024672
 50
45.0
 51
64.536655
  0
ARC
  8
APS_GEOMETRY
 10
0.02625
 20
-0.019935
 40
0.014622
 50
64.536655
 51
90.0
  0
LINE
  8
APS_GEOMETRY
 10
0.116563
 11
0.099063
 20
-0.005313
 21
-0.008438
  0
LINE
  8
APS_GEOMETRY
 10
0.099063
 11
0.097969
 20
-0.008438
 21
-0.009219
  0
LINE
  8
APS_GEOMETRY
 10
0.097969
 11
0.105625
 20
-0.009219
 21
-0.013594
  0
ARC
  8
APS_GEOMETRY
 10
0.119795
 20
-0.026272
 40
0.019014
 50
115.463345
 51
138.17983
  0
ARC
  8
APS_GEOMETRY
 10
0.119481
 20
-0.025612
 40
0.018283
 50
92.29061
 51
115.463345
  0
ARC
  8
APS_GEOMETRY
 10
0.11875
 20
-0.006
 40
0.001344
 50
270.0
 51
283.24052
  0
ARC
  8
APS_GEOMETRY
 10
0.100266
 20
0.072557
 40
0.082046
 50
283.24052
 51
284.931417
  0
ARC
  8
APS_GEOMETRY
 10
0.118712
 20
-0.009749
 40
0.004055
 50
48.366461
 51
73.810794
  0
ARC
  8
APS_GEOMETRY
 10
0.115924
 20
-0.019353
 40
0.014055
 50
73.810794
 51
87.397438
  0
ARC
  8
APS_GEOMETRY
 10
0.141709
 20
-0.060286
 40
0.057063
 50
116.146841
 51
125.340107
  0
ARC
  8
APS_GEOMETRY
 10
0.109707
 20
-0.015156
 40
0.001739
 50
125.340107
 51
180.0
  0
LINE
  8
APS_GEOMETRY
 10
0.107969
 11
0.108125
 20
-0.015156
 21
-0.015156
  0
ARC
  8
APS_GEOMETRY
 10
0.099668
 20
-0.027372
 40
0.014858
 50
45.830315
 51
55.304846
  0
ARC
  8
APS_GEOMETRY
 10
0.063851
 20
-0.064242
 40
0.06626
 50
41.347777
 51
45.830315
  0
ARC
  8
APS_GEOMETRY
 10
0.1557
 20
0.016585
 40
0.056088
 50
221.347777
 51
226.636577
  0
ARC
  8
APS_GEOMETRY
 10
0.126746
 20
-0.014073
 40
0.013919
 50
226.636577
 51
237.264774
  0
LINE
  8
APS_GEOMETRY
 10
0.119219
 11
0.119219
 20
-0.025781
 21
-0.025469
  0
LINE
  8
APS_GEOMETRY
 10
0.119219
 11
0.119375
 20
-0.025469
 21
-0.025469
  0
ARC
  8
APS_GEOMETRY
 10
-0.539577
 20
0.084357
 40
0.668042
 50
350.537678
 51
351.596629
  0
ARC
  8
APS_GEOMETRY
 10
0.110779
 20
-0.011719
 40
0.010627
 50
351.596629
 51
0.0
  0
ARC
  8
APS_GEOMETRY
 10
0.117719
 20
-0.011719
 40
0.003687
 50
0.0
 51
29.357754
  0
ARC
  8
APS_GEOMETRY
 10
0.119691
 20
-0.01061
 40
0.001425
 50
29.357754
 51
77.471192
  0
ARC
  8
APS_GEOMETRY
 10
0.119634
 20
-0.009951
 40
0.000819
 50
63.434949
 51
87.397438
  0
ARC
  8
APS_GEOMETRY
 10
0.116563
 20
-0.077516
 40
0.068454
 50
87.397438
 51
90.0
  0
ARC
  8
APS_GEOMETRY
 10
0.046451
 20
-0.047621
 40
0.025449
 50
68.694216
 51
87.990446
  0
ARC
  8
APS_GEOMETRY
 10
0.046554
 20
-0.047358
 40
0.025167
 50
49.289153
 51
68.694216
  0
ARC
  8
APS_GEOMETRY
 10
0.048078
 20
-0.045405
 40
0.022693
 50
26.323298
 51
48.990913
  0
ARC
  8
APS_GEOMETRY
 10
0.052015
 20
-0.043458
 40
0.018301
 50
1.041627
 51
26.323298
  0
ARC
  8
APS_GEOMETRY
 10
0.056506
 20
-0.043636
 40
0.013816
 50
345.579227
 51
2.121096
  0
ARC
  8
APS_GEOMETRY
 10
0.067125
 20
-0.046367
 40
0.002852
 50
308.659808
 51
345.579227
  0
ARC
  8
APS_GEOMETRY
 10
0.053637
 20
-0.02961
 40
0.024362
 50
287.98143
 51
308.811384
  0
ARC
  8
APS_GEOMETRY
 10
0.051094
 20
-0.021774
 40
0.032601
 50
270.0
 51
287.98143
  0
ARC
  8
APS_GEOMETRY
 10
0.051094
 20
-0.022867
 40
0.031508
 50
261.253838
 51
270.0
  0
ARC
  8
APS_GEOMETRY
 10
0.052573
 20
-0.013252
 40
0.041237
 50
253.61046
 51
261.253838
  0
ARC
  8
APS_GEOMETRY
 10
0.047369
 20
-0.030303
 40
0.02341
 50
238.091893
 51
254.054604
  0
ARC
  8
APS_GEOMETRY
 10
0.038455
 20
-0.044619
 40
0.006546
 50
207.645975
 51
238.091893
  0
LINE
  8
APS_GEOMETRY
 10
0.032656
 11
0.033125
 20
-0.047656
 21
-0.041719
  0
ARC
  8
APS_GEOMETRY
 10
0.065157
 20
-0.048837
 40
0.032813
 50
143.945382
 51
167.471192
  0
ARC
  8
APS_GEOMETRY
 10
0.057863
 20
-0.043527
 40
0.023792
 50
116.24135
 51
143.945382
  0
ARC
  8
APS_GEOMETRY
 10
0.0975
 20
-0.040656
 40
0.018469
 50
71.029592
 51
90.0
  0
ARC
  8
APS_GEOMETRY
 10
0.099956
 20
-0.033512
 40
0.010914
 50
46.27303
 51
71.029592
  0
ARC
  8
APS_GEOMETRY
 10
0.099554
 20
-0.03463
 40
0.012009
 50
31.961343
 51
48.576334
  0
ARC
  8
APS_GEOMETRY
 10
0.06395
 20
-0.056844
 40
0.053975
 50
24.145542
 51
31.961343
  0
ARC
  8
APS_GEOMETRY
 10
0.067792
 20
-0.055123
 40
0.049766
 50
15.672821
 51
24.145542
  0
ARC
  8
APS_GEOMETRY
 10
0.101642
 20
-0.045625
 40
0.014608
 50
0.0
 51
15.672821
  0
ARC
  8
APS_GEOMETRY
 10
0.111884
 20
-0.045625
 40
0.004366
 50
312.510447
 51
0.0
  0
ARC
  8
APS_GEOMETRY
 10
0.102809
 20
-0.035724
 40
0.017797
 50
289.502449
 51
312.510447
  0
ARC
  8
APS_GEOMETRY
 10
0.098783
 20
-0.024411
 40
0.029805
 50
279.752425
 51
289.536655
  0
ARC
  8
APS_GEOMETRY
 10
0.09875
 20
-0.024219
 40
0.029999
 50
270.0
 51
279.752425
  0
ARC
  8
APS_GEOMETRY
 10
0.09875
 20
-0.019967
 40
0.034252
 50
256.660751
 51
270.0
  0
ARC
  8
APS_GEOMETRY
 10
0.098306
 20
-0.021841
 40
0.032326
 50
242.92792
 51
256.660751
  0
ARC
  8
APS_GEOMETRY
 10
0.089019
 20
-0.041584
 40
0.010544
 50
234.090277
 51
239.036243
  0
ARC
  8
APS_GEOMETRY
 10
0.246826
 20
0.176341
 40
0.279606
 50
233.130102
 51
234.090277
  0
ARC
  8
APS_GEOMETRY
 10
0.086127
 20
-0.044165
 40
0.007747
 50
180.0
 51
204.227745
  0
ARC
  8
APS_GEOMETRY
 10
0.096649
 20
-0.044165
 40
0.018268
 50
164.291362
 51
180.0
  0
ARC
  8
APS_GEOMETRY
 10
0.096851
 20
-0.044189
 40
0.01847
 50
132.72955
 51
164.389011
  0
ARC
  8
APS_GEOMETRY
 10
0.114544
 20
-0.063343
 40
0.044545
 50
112.496472
 51
132.72955
  0
LINE
  8
APS_GEOMETRY
 10
0.048437
 11
0.048437
 20
-0.025938
 21
-0.026094
  0
ARC
  8
APS_GEOMETRY
 10
0.052279
 20
-0.031517
 40
0.006646
 50
125.311213
 51
161.565051
  0
ARC
  8
APS_GEOMETRY
 10
0.069759
 20
-0.037344
 40
0.025072
 50
161.565051
 51
180.0
  0
ARC
  8
APS_GEOMETRY
 10
0.070834
 20
-0.037344
 40
0.026146
 50
180.0
 51
189.819301
  0
ARC
  8
APS_GEOMETRY
 10
0.063704
 20
-0.038578
 40
0.018911
 50
189.819301
 51
201.370622
  0
ARC
  8
APS_GEOMETRY
 10
0.055562
 20
-0.041622
 40
0.01022
 50
202.109448
 51
229.144624
  0
ARC
  8
APS_GEOMETRY
 10
0.051875
 20
-0.045885
 40
0.004584
 50
229.144624
 51
270.0
  0
ARC
  8
APS_GEOMETRY
 10
0.051875
 20
-0.044737
 40
0.005731
 50
270.0
 51
307.303948
  0
ARC
  8
APS_GEOMETRY
 10
0.049096
 20
-0.04109
 40
0.010317
 50
307.303948
 51
334.885165
  0
ARC
  8
APS_GEOMETRY
 10
0.042558
 20
-0.03819
 40
0.017468
 50
335.376435
 51
348.690068
  0
ARC
  8
APS_GEOMETRY
 10
0.03598
 20
-0.036875
 40
0.024176
 50
348.690068
 51
0.0
  0
ARC
  8
APS_GEOMETRY
 10
0.0432
 20
-0.036875
 40
0.016957
 50
0.0
 51
26.17529
  0
ARC
  8
APS_GEOMETRY
 10
0.055625
 20
-0.030768
 40
0.003111
 50
26.17529
 51
90.0
  0
LINE
  8
APS_GEOMETRY
 10
0.055625
 11
0.055625
 20
-0.027656
 21
-0.027813
  0
LINE
  8
APS_GEOMETRY
 10
0.055625
 11
0.055469
 20
-0.027813
 21
-0.027813
  0
ARC
  8
APS_GEOMETRY
 10
0.049372
 20
-0.029845
 40
0.006427
 50
14.036243
 51
18.434949
  0
ARC
  8
APS_GEOMETRY
 10
0.039381
 20
-0.032343
 40
0.016725
 50
11.309932
 51
14.036243
  0
ARC
  8
APS_GEOMETRY
 10
0.059711
 20
-0.037314
 40
0.009139
 50
115.463345
 51
136.33222
  0
ARC
  8
APS_GEOMETRY
 10
0.054667
 20
-0.0325
 40
0.002167
 50
136.33222
 51
180.0
  0
ARC
  8
APS_GEOMETRY
 10
0.054248
 20
-0.0325
 40
0.001748
 50
180.0
 51
242.700428
  0
ARC
  8
APS_GEOMETRY
 10
0.057344
 20
-0.026503
 40
0.008497
 50
242.700428
 51
270.0
  0
LINE
  8
APS_GEOMETRY
 10
0.057344
 11
0.057344
 20
-0.035
 21
-0.035156
  0
LINE
  8
APS_GEOMETRY
 10
0.057344
 11
0.057656
 20
-0.035156
 21
-0.035156
  0
ARC
  8
APS_GEOMETRY
 10
0.039556
 20
-0.033785
 40
0.018152
 50
328.760785
 51
355.667686
  0
ARC
  8
APS_GEOMETRY
 10
0.052365
 20
-0.041554
 40
0.003172
 50
261.119341
 51
328.760785
  0
ARC
  8
APS_GEOMETRY
 10
0.052412
 20
-0.040527
 40
0.004195
 50
208.967661
 51
262.647621
  0
ARC
  8
APS_GEOMETRY
 10
0.060702
 20
-0.035938
 40
0.013671
 50
180.0
 51
208.967661
  0
ARC
  8
APS_GEOMETRY
 10
0.067525
 20
-0.035938
 40
0.020494
 50
169.286877
 51
180.0
  0
ARC
  8
APS_GEOMETRY
 10
0.053481
 20
-0.03328
 40
0.0062
 50
149.743563
 51
169.286877
  0
LINE
  8
APS_GEOMETRY
 10
0.048125
 11
0.05
 20
-0.030156
 21
-0.027031
  0
LINE
  8
APS_GEOMETRY
 10
0.05
 11
0.05
 20
-0.027031
 21
-0.026563
  0
LINE
  8
APS_GEOMETRY
 10
0.05
 11
0.048437
 20
-0.026563
 21
-0.025938
  0
LINE
  8
APS_GEOMETRY
 10
0.099219
 11
0.100156
 20
-0.025938
 21
-0.028906
  0
LINE
  8
APS_GEOMETRY
 10
0.100156
 11
0.1
 20
-0.028906
 21
-0.028906
  0
LINE
  8
APS_GEOMETRY
 10
0.1
 11
0.1
 20
-0.028906
 21
-0.029063
  0
ARC
  8
APS_GEOMETRY
 10
0.101072
 20
-0.032707
 40
0.003799
 50
106.38954
 51
142.30576
  0
ARC
  8
APS_GEOMETRY
 10
0.100804
 20
-0.0325
 40
0.00346
 50
142.30576
 51
180.0
  0
ARC
  8
APS_GEOMETRY
 10
0.099423
 20
-0.0325
 40
0.002079
 50
180.0
 51
204.443955
  0
ARC
  8
APS_GEOMETRY
 10
0.100195
 20
-0.032149
 40
0.002927
 50
204.443955
 51
225.0
  0
LINE
  8
APS_GEOMETRY
 10
0.098125
 11
0.101563
 20
-0.034219
 21
-0.036094
  0
ARC
  8
APS_GEOMETRY
 10
0.097717
 20
-0.037632
 40
0.004141
 50
10.304846
 51
21.801409
  0
ARC
  8
APS_GEOMETRY
 10
0.096724
 20
-0.037813
 40
0.005151
 50
0.0
 51
10.304846
  0
ARC
  8
APS_GEOMETRY
 10
0.095052
 20
-0.037813
 40
0.006823
 50
340.974394
 51
0.0
  0
ARC
  8
APS_GEOMETRY
 10
0.092958
 20
-0.03709
 40
0.009038
 50
324.462322
 51
340.974394
  0
ARC
  8
APS_GEOMETRY
 10
0.096061
 20
-0.039307
 40
0.005225
 50
297.474432
 51
324.462322
  0
ARC
  8
APS_GEOMETRY
 10
0.096666
 20
-0.040472
 40
0.003912
 50
266.185925
 51
297.474432
  0
ARC
  8
APS_GEOMETRY
 10
0.096522
 20
-0.040789
 40
0.003588
 50
208.123735
 51
268.15239
  0
ARC
  8
APS_GEOMETRY
 10
0.106769
 20
-0.035313
 40
0.015206
 50
180.0
 51
208.123735
  0
ARC
  8
APS_GEOMETRY
 10
0.115271
 20
-0.035313
 40
0.023709
 50
163.300756
 51
180.0
  0
ARC
  8
APS_GEOMETRY
 10
0.093906
 20
-0.028903
 40
0.001403
 50
90.0
 51
163.300756
  0
LINE
  8
APS_GEOMETRY
 10
0.093906
 11
0.093906
 20
-0.0275
 21
-0.027188
  0
LINE
  8
APS_GEOMETRY
 10
0.093906
 11
0.09375
 20
-0.027188
 21
-0.027188
  0
LINE
  8
APS_GEOMETRY
 10
0.09375
 11
0.09375
 20
-0.027188
 21
-0.027031
  0
ARC
  8
APS_GEOMETRY
 10
0.095421
 20
-0.032546
 40
0.005762
 50
106.858399
 51
152.354025
  0
ARC
  8
APS_GEOMETRY
 10
0.103686
 20
-0.036875
 40
0.015092
 50
152.354025
 51
180.0
  0
ARC
  8
APS_GEOMETRY
 10
0.110057
 20
-0.036875
 40
0.021463
 50
180.0
 51
192.308016
  0
ARC
  8
APS_GEOMETRY
 10
0.106969
 20
-0.037549
 40
0.018302
 50
192.308016
 51
205.641006
  0
ARC
  8
APS_GEOMETRY
 10
0.099067
 20
-0.04117
 40
0.009613
 50
206.565051
 51
236.003541
  0
ARC
  8
APS_GEOMETRY
 10
0.096611
 20
-0.044811
 40
0.005221
 50
236.003541
 51
276.340192
  0
ARC
  8
APS_GEOMETRY
 10
0.096541
 20
-0.044827
 40
0.005213
 50
277.125016
 51
314.193071
  0
ARC
  8
APS_GEOMETRY
 10
0.09249
 20
-0.04066
 40
0.011025
 50
314.193071
 51
339.443955
  0
ARC
  8
APS_GEOMETRY
 10
0.083352
 20
-0.037233
 40
0.020784
 50
339.443955
 51
350.362462
  0
ARC
  8
APS_GEOMETRY
 10
0.07756
 20
-0.03625
 40
0.026658
 50
350.362462
 51
0.0
  0
ARC
  8
APS_GEOMETRY
 10
0.085756
 20
-0.03625
 40
0.018462
 50
0.0
 51
25.866357
  0
ARC
  8
APS_GEOMETRY
 10
0.098715
 20
-0.029967
 40
0.004061
 50
25.866357
 51
82.874984
  0
ARC
  8
APS_GEOMETRY
 10
0.154537
 20
-0.029219
 40
0.04813
 50
180.0
 51
182.045408
  0
ARC
  8
APS_GEOMETRY
 10
0.221739
 20
-0.026819
 40
0.115375
 50
182.045408
 51
183.366461
  0
ARC
  8
APS_GEOMETRY
 10
-0.094342
 20
-0.051064
 40
0.201663
 50
3.945186
 51
4.969741
  0
ARC
  8
APS_GEOMETRY
 10
0.093269
 20
-0.038125
 40
0.013606
 50
0.0
 51
3.945186
  0
ARC
  8
APS_GEOMETRY
 10
0.085654
 20
-0.038699
 40
0.021229
 50
346.429566
 51
1.548158
  0
ARC
  8
APS_GEOMETRY
 10
0.096452
 20
-0.041305
 40
0.010121
 50
324.462322
 51
346.429566
  0
ARC
  8
APS_GEOMETRY
 10
0.098902
 20
-0.043331
 40
0.006953
 50
308.047043
 51
326.309932
  0
ARC
  8
APS_GEOMETRY
 10
0.060605
 20
0.005605
 40
0.069093
 50
302.275644
 51
308.047043
  0
ARC
  8
APS_GEOMETRY
 10
0.096793
 20
-0.023836
 40
0.028985
 50
271.397181
 51
283.861028
  0
ARC
  8
APS_GEOMETRY
 10
0.097052
 20
-0.024886
 40
0.027904
 50
283.861028
 51
296.565051
  0
LINE
  8
APS_GEOMETRY
 10
0.109531
 11
0.114062
 20
-0.049844
 21
-0.046719
  0
ARC
  8
APS_GEOMETRY
 10
-0.106708
 20
-0.101911
 40
0.227565
 50
14.036243
 51
15.819194
  0
ARC
  8
APS_GEOMETRY
 10
0.081204
 20
-0.04867
 40
0.032257
 50
15.819194
 51
20.556045
  0
ARC
  8
APS_GEOMETRY
 10
0.084532
 20
-0.047048
 40
0.028573
 50
19.855214
 51
31.607502
  0
ARC
  8
APS_GEOMETRY
 10
0.098771
 20
-0.038286
 40
0.011854
 50
31.607502
 51
49.899092
  0
ARC
  8
APS_GEOMETRY
 10
0.052121
 20
-0.039763
 40
0.014265
 50
133.264295
 51
147.704024
  0
ARC
  8
APS_GEOMETRY
 10
0.076767
 20
-0.055342
 40
0.043423
 50
147.704024
 51
155.965712
  0
ARC
  8
APS_GEOMETRY
 10
0.074905
 20
-0.054511
 40
0.041383
 50
155.965712
 51
164.623749
  0
ARC
  8
APS_GEOMETRY
 10
0.047706
 20
-0.047031
 40
0.013175
 50
164.623749
 51
180.0
  0
ARC
  8
APS_GEOMETRY
 10
0.055632
 20
-0.018194
 40
0.035733
 50
233.806793
 51
246.297354
  0
ARC
  8
APS_GEOMETRY
 10
0.050765
 20
-0.02928
 40
0.023625
 50
246.297354
 51
261.67435
  0
LINE
  8
APS_GEOMETRY
 10
0.047344
 11
0.049375
 20
-0.052656
 21
-0.052344
  0
ARC
  8
APS_GEOMETRY
 10
0.053355
 20
-0.043246
 40
0.00993
 50
204.986433
 51
246.370622
  0
ARC
  8
APS_GEOMETRY
 10
0.068368
 20
-0.03625
 40
0.026493
 50
180.0
 51
204.986433
  0
ARC
  8
APS_GEOMETRY
 10
0.08085
 20
-0.03625
 40
0.038975
 50
176.099506
 51
180.0
  0
ARC
  8
APS_GEOMETRY
 10
0.141333
 20
-0.040374
 40
0.099599
 50
173.659808
 51
176.099506
  0
ARC
  8
APS_GEOMETRY
 10
-0.028542
 20
-0.035415
 40
0.091417
 50
356.863642
 51
2.121096
  0
ARC
  8
APS_GEOMETRY
 10
0.050497
 20
-0.039746
 40
0.01226
 50
342.474432
 51
356.863642
  0
ARC
  8
APS_GEOMETRY
 10
0.049792
 20
-0.039623
 40
0.012969
 50
324.55429
 51
342.897271
  0
ARC
  8
APS_GEOMETRY
 10
0.027738
 20
-0.023924
 40
0.04004
 50
314.144903
 51
324.55429
  0
ARC
  8
APS_GEOMETRY
 10
-0.202809
 20
0.722645
 40
0.817239
 50
288.434949
 51
289.057705
  0
ARC
  8
APS_GEOMETRY
 10
0.06388
 20
-0.049349
 40
0.000479
 50
289.057705
 51
315.0
  0
ARC
  8
APS_GEOMETRY
 10
0.061016
 20
-0.04248
 40
0.007887
 50
293.962489
 51
323.880659
  0
ARC
  8
APS_GEOMETRY
 10
0.062969
 20
-0.043906
 40
0.005468
 50
323.880659
 51
0.0
  0
ARC
  8
APS_GEOMETRY
 10
0.060381
 20
-0.043906
 40
0.008057
 50
0.0
 51
12.094757
  0
ARC
  8
APS_GEOMETRY
 10
0.046949
 20
-0.046784
 40
0.021793
 50
12.094757
 51
19.440035
  0
ARC
  8
APS_GEOMETRY
 10
0.044186
 20
-0.047525
 40
0.024647
 50
18.924644
 51
32.005383
  0
ARC
  8
APS_GEOMETRY
 10
0.057742
 20
-0.039052
 40
0.00866
 50
32.005383
 51
54.162347
  0
ARC
  8
APS_GEOMETRY
 10
0.094657
 20
-0.041758
 40
0.013274
 50
132.878904
 51
157.520566
  0
ARC
  8
APS_GEOMETRY
 10
0.115138
 20
-0.050233
 40
0.035439
 50
157.520566
 51
172.528441
  0
ARC
  8
APS_GEOMETRY
 10
0.087892
 20
-0.040802
 40
0.009249
 50
211.429566
 51
231.254033
  0
ARC
  8
APS_GEOMETRY
 10
0.096415
 20
-0.030181
 40
0.022867
 50
231.254033
 51
243.82471
  0
ARC
  8
APS_GEOMETRY
 10
0.096672
 20
-0.029659
 40
0.023449
 50
243.82471
 51
256.097313
  0
ARC
  8
APS_GEOMETRY
 10
0.093319
 20
-0.043206
 40
0.009493
 50
256.097313
 51
275.440332
  0
LINE
  8
APS_GEOMETRY
 10
0.094219
 11
0.095312
 20
-0.052656
 21
-0.052344
  0
ARC
  8
APS_GEOMETRY
 10
0.097319
 20
-0.04346
 40
0.009108
 50
205.497551
 51
257.275644
  0
ARC
  8
APS_GEOMETRY
 10
0.121281
 20
-0.032031
 40
0.035656
 50
180.0
 51
205.497551
  0
ARC
  8
APS_GEOMETRY
 10
0.053885
 20
-0.046293
 40
0.007289
 50
243.434949
 51
251.565051
  0
ARC
  8
APS_GEOMETRY
 10
0.052031
 20
-0.051854
 40
0.001428
 50
251.565051
 51
270.0
  0
ARC
  8
APS_GEOMETRY
 10
0.052031
 20
-0.052813
 40
0.000469
 50
270.0
 51
315.0
  0
ARC
  8
APS_GEOMETRY
 10
0.052031
 20
-0.052813
 40
0.000469
 50
315.0
 51
0.0
  0
LINE
  8
APS_GEOMETRY
 10
0.0525
 11
0.050625
 20
-0.052813
 21
-0.052813
  0
ARC
  8
APS_GEOMETRY
 10
0.080069
 20
-0.059361
 40
0.003932
 50
66.037511
 51
81.869898
  0
ARC
  8
APS_GEOMETRY
 10
0.076162
 20
-0.068152
 40
0.013552
 50
57.528808
 51
66.037511
  0
LINE
  8
APS_GEOMETRY
 10
0.083438
 11
0.085
 20
-0.056719
 21
-0.057969
  0
ARC
  8
APS_GEOMETRY
 10
0.083784
 20
-0.056753
 40
0.001719
 50
307.647621
 51
315.0
  0
ARC
  8
APS_GEOMETRY
 10
-0.881124
 20
1.194054
 40
1.581455
 50
307.405357
 51
307.647621
  0
ARC
  8
APS_GEOMETRY
 10
0.086138
 20
-0.070738
 40
0.010806
 50
127.69424
 51
149.264512
  0
ARC
  8
APS_GEOMETRY
 10
0.081481
 20
-0.067969
 40
0.005387
 50
149.264512
 51
180.0
  0
ARC
  8
APS_GEOMETRY
 10
0.080181
 20
-0.067969
 40
0.004087
 50
180.0
 51
230.964487
  0
ARC
  8
APS_GEOMETRY
 10
0.081875
 20
-0.065879
 40
0.006777
 50
230.964487
 51
270.0
  0
ARC
  8
APS_GEOMETRY
 10
0.081875
 20
-0.061296
 40
0.01136
 50
270.0
 51
283.134022
  0
ARC
  8
APS_GEOMETRY
 10
0.082518
 20
-0.064051
 40
0.008531
 50
283.134022
 51
298.300756
  0
ARC
  8
APS_GEOMETRY
 10
0.101683
 20
-0.083533
 40
0.019285
 50
128.659808
 51
141.632515
  0
ARC
  8
APS_GEOMETRY
 10
0.090077
 20
-0.069025
 40
0.000706
 50
56.309932
 51
128.659808
  0
ARC
  8
APS_GEOMETRY
 10
0.088757
 20
-0.069579
 40
0.002058
 50
18.434949
 51
33.690068
  0
ARC
  8
APS_GEOMETRY
 10
0.089368
 20
-0.069375
 40
0.001413
 50
0.0
 51
18.434949
  0
ARC
  8
APS_GEOMETRY
 10
0.089139
 20
-0.069375
 40
0.001642
 50
311.633539
 51
0.0
  0
ARC
  8
APS_GEOMETRY
 10
0.078289
 20
-0.057168
 40
0.017974
 50
297.407575
 51
311.633539
  0
ARC
  8
APS_GEOMETRY
 10
0.07461
 20
-0.049219
 40
0.026727
 50
288.434949
 51
296.565051
  0
ARC
  8
APS_GEOMETRY
 10
0.081406
 20
-0.069609
 40
0.005235
 50
270.0
 51
288.434949
  0
ARC
  8
APS_GEOMETRY
 10
0.081406
 20
-0.07048
 40
0.004363
 50
247.963773
 51
270.0
  0
ARC
  8
APS_GEOMETRY
 10
0.097262
 20
-0.031306
 40
0.046625
 50
241.260205
 51
247.963773
  0
LINE
  8
APS_GEOMETRY
 10
0.074844
 11
0.071562
 20
-0.072188
 21
-0.073594
  0
ARC
  8
APS_GEOMETRY
 10
0.066594
 20
-0.062001
 40
0.012612
 50
282.528808
 51
293.198591
  0
ARC
  8
APS_GEOMETRY
 10
0.067344
 20
-0.065374
 40
0.009157
 50
270.0
 51
282.528808
  0
ARC
  8
APS_GEOMETRY
 10
0.067344
 20
-0.067763
 40
0.006768
 50
249.443955
 51
270.0
  0
ARC
  8
APS_GEOMETRY
 10
0.072571
 20
-0.053824
 40
0.021655
 50
237.994617
 51
249.443955
  0
LINE
  8
APS_GEOMETRY
 10
0.061094
 11
0.05875
 20
-0.072188
 21
-0.070313
  0
LINE
  8
APS_GEOMETRY
 10
0.05875
 11
0.060156
 20
-0.070313
 21
-0.069375
  0
ARC
  8
APS_GEOMETRY
 10
0.073024
 20
-0.055478
 40
0.018939
 50
227.202598
 51
243.886087
  0
ARC
  8
APS_GEOMETRY
 10
0.068125
 20
-0.065471
 40
0.00781
 50
243.886087
 51
270.0
  0
ARC
  8
APS_GEOMETRY
 10
0.068125
 20
-0.068587
 40
0.004694
 50
270.0
 51
296.952179
  0
ARC
  8
APS_GEOMETRY
 10
0.066019
 20
-0.064446
 40
0.009339
 50
296.952179
 51
315.971022
  0
ARC
  8
APS_GEOMETRY
 10
0.0657
 20
-0.064138
 40
0.009784
 50
315.971022
 51
334.203974
  0
ARC
  8
APS_GEOMETRY
 10
0.070071
 20
-0.06625
 40
0.004929
 50
334.203974
 51
0.0
  0
ARC
  8
APS_GEOMETRY
 10
0.070329
 20
-0.06625
 40
0.004671
 50
0.0
 51
11.309932
  0
ARC
  8
APS_GEOMETRY
 10
0.072385
 20
-0.065839
 40
0.002574
 50
11.309932
 51
26.565051
  0
ARC
  8
APS_GEOMETRY
 10
0.253914
 20
0.171892
 40
0.296803
 50
231.604835
 51
232.853313
  0
ARC
  8
APS_GEOMETRY
 10
0.143664
 20
0.032766
 40
0.119289
 50
229.635463
 51
231.604835
  0
ARC
  8
APS_GEOMETRY
 10
0.037812
 20
-0.000937
 40
0.063938
 50
296.565051
 51
298.442929
  0
ARC
  8
APS_GEOMETRY
 10
0.035612
 20
0.003124
 40
0.068557
 50
298.442929
 51
300.256437
  0
ARC
  8
APS_GEOMETRY
 10
0.076079
 20
-0.035958
 40
0.020989
 50
253.61046
 51
261.119341
  0
ARC
  8
APS_GEOMETRY
 10
0.075156
 20
-0.041861
 40
0.015014
 50
261.119341
 51
270.0
  0
ARC
  8
APS_GEOMETRY
 10
0.075156
 20
-0.045337
 40
0.011538
 50
270.0
 51
284.420773
  0
ARC
  8
APS_GEOMETRY
 10
0.07535
 20
-0.046092
 40
0.010759
 50
284.420773
 51
299.357754
  0
ARC
  8
APS_GEOMETRY
 10
0.077198
 20
-0.050177
 40
0.007663
 50
276.088528
 51
296.565051
  0
ARC
  8
APS_GEOMETRY
 10
0.068906
 20
0.027557
 40
0.085838
 50
270.0
 51
276.088528
  0
ARC
  8
APS_GEOMETRY
 10
0.071212
 20
-0.057293
 40
0.002509
 50
203.198591
 51
229.398705
  0
ARC
  8
APS_GEOMETRY
 10
0.082702
 20
-0.043889
 40
0.020163
 50
229.398705
 51
238.570434
  0
ARC
  8
APS_GEOMETRY
 10
0.083581
 20
-0.04245
 40
0.02185
 50
238.570434
 51
247.0679
  0
ARC
  8
APS_GEOMETRY
 10
0.07625
 20
-0.059778
 40
0.003035
 50
247.0679
 51
270.0
  0
ARC
  8
APS_GEOMETRY
 10
0.07625
 20
-0.060173
 40
0.002639
 50
270.0
 51
296.029592
  0
ARC
  8
APS_GEOMETRY
 10
0.071892
 20
-0.051249
 40
0.012571
 50
296.029592
 51
307.874984
  0
ARC
  8
APS_GEOMETRY
 10
0.074042
 20
-0.054014
 40
0.009068
 50
307.874984
 51
323.880659
  0
ARC
  8
APS_GEOMETRY
 10
0.07989
 20
-0.058281
 40
0.001829
 50
323.880659
 51
0.0
  0
ARC
  8
APS_GEOMETRY
 10
0.080768
 20
-0.058281
 40
0.000951
 50
0.0
 51
41.185925
  0
ARC
  8
APS_GEOMETRY
 10
0.079682
 20
-0.059231
 40
0.002394
 50
41.185925
 51
66.801409
  0
LINE
  8
APS_GEOMETRY
 10
0.095938
 11
0.117969
 20
-0.059219
 21
-0.059219
  0
LINE
  8
APS_GEOMETRY
 10
0.117969
 11
0.120469
 20
-0.059219
 21
-0.059531
  0
LINE
  8
APS_GEOMETRY
 10
0.120469
 11
0.120469
 20
-0.059531
 21
-0.059688
  0
LINE
  8
APS_GEOMETRY
 10
0.120469
 11
0.095625
 20
-0.059688
 21
-0.059688
  0
LINE
  8
APS_GEOMETRY
 10
0.095625
 11
0.095938
 20
-0.059688
 21
-0.059375
  0
LINE
  8
APS_GEOMETRY
 10
0.095938
 11
0.095938
 20
-0.059375
 21
-0.059219
  0
LINE
  8
APS_GEOMETRY
 10
0.088594
 11
0.095625
 20
-0.059688
 21
-0.059688
  0
LINE
  8
APS_GEOMETRY
 10
0.095625
 11
0.095625
 20
-0.059688
 21
-0.059844
  0
LINE
  8
APS_GEOMETRY
 10
0.095625
 11
0.095469
 20
-0.059844
 21
-0.059844
  0
LINE
  8
APS_GEOMETRY
 10
0.095469
 11
0.095469
 20
-0.059844
 21
-0.06
  0
ARC
  8
APS_GEOMETRY
 10
0.090736
 20
-0.029237
 40
0.031125
 50
274.969741
 51
278.746162
  0
ARC
  8
APS_GEOMETRY
 10
0.091875
 20
-0.042336
 40
0.017977
 50
270.0
 51
274.969741
  0
ARC
  8
APS_GEOMETRY
 10
0.091875
 20
-0.048908
 40
0.011405
 50
259.215702
 51
270.0
  0
ARC
  8
APS_GEOMETRY
 10
0.090436
 20
-0.056464
 40
0.003712
 50
240.255119
 51
259.215702
  0
LINE
  8
APS_GEOMETRY
 10
0.120469
 11
0.126875
 20
-0.059688
 21
-0.06
  0
LINE
  8
APS_GEOMETRY
 10
0.126875
 11
0.126875
 20
-0.06
 21
-0.060313
  0
ARC
  8
APS_GEOMETRY
 10
0.126875
 20
-0.006299
 40
0.054014
 50
264.427802
 51
270.0
  0
ARC
  8
APS_GEOMETRY
 10
0.121913
 20
-0.05716
 40
0.002911
 50
240.255119
 51
264.427802
  0
LINE
  8
APS_GEOMETRY
 10
0.126875
 11
0.13
 20
-0.060313
 21
-0.060313
  0
LINE
  8
APS_GEOMETRY
 10
0.13
 11
0.13
 20
-0.060313
 21
-0.060781
  0
LINE
  8
APS_GEOMETRY
 10
0.13
 11
0.126875
 20
-0.060781
 21
-0.060313
  0
LINE
  8
APS_GEOMETRY
 10
0.032031
 11
0.054062
 20
-0.060781
 21
-0.060781
  0
LINE
  8
APS_GEOMETRY
 10
0.054062
 11
0.056563
 20
-0.060781
 21
-0.061094
  0
LINE
  8
APS_GEOMETRY
 10
0.056563
 11
0.056563
 20
-0.061094
 21
-0.06125
  0
LINE
  8
APS_GEOMETRY
 10
0.056563
 11
0.031719
 20
-0.06125
 21
-0.06125
  0
LINE
  8
APS_GEOMETRY
 10
0.031719
 11
0.032031
 20
-0.06125
 21
-0.060938
  0
LINE
  8
APS_GEOMETRY
 10
0.032031
 11
0.032031
 20
-0.060938
 21
-0.060781
  0
LINE
  8
APS_GEOMETRY
 10
0.025781
 11
0.031719
 20
-0.06125
 21
-0.06125
  0
LINE
  8
APS_GEOMETRY
 10
0.031719
 11
0.031719
 20
-0.06125
 21
-0.061406
  0
LINE
  8
APS_GEOMETRY
 10
0.031719
 11
0.031562
 20
-0.061406
 21
-0.061406
  0
LINE
  8
APS_GEOMETRY
 10
0.031562
 11
0.031562
 20
-0.061406
 21
-0.061719
  0
LINE
  8
APS_GEOMETRY
 10
0.031562
 11
0.025313
 20
-0.061719
 21
-0.061875
  0
LINE
  8
APS_GEOMETRY
 10
0.025313
 11
0.025781
 20
-0.061875
 21
-0.061406
  0
LINE
  8
APS_GEOMETRY
 10
0.025781
 11
0.025781
 20
-0.061406
 21
-0.06125
  0
LINE
  8
APS_GEOMETRY
 10
0.056563
 11
0.063594
 20
-0.06125
 21
-0.06125
  0
LINE
  8
APS_GEOMETRY
 10
0.063594
 11
0.063594
 20
-0.06125
 21
-0.061875
  0
ARC
  8
APS_GEOMETRY
 10
0.063594
 20
0.004404
 40
0.066279
 50
264.920392
 51
270.0
  0
ARC
  8
APS_GEOMETRY
 10
0.057978
 20
-0.058773
 40
0.002853
 50
240.255119
 51
264.920392
  0
LINE
  8
APS_GEOMETRY
 10
0.0225
 11
0.025313
 20
-0.061875
 21
-0.061875
  0
LINE
  8
APS_GEOMETRY
 10
0.025313
 11
0.025313
 20
-0.061875
 21
-0.062031
  0
LINE
  8
APS_GEOMETRY
 10
0.025313
 11
0.025156
 20
-0.062031
 21
-0.062031
  0
LINE
  8
APS_GEOMETRY
 10
0.025156
 11
0.025156
 20
-0.062031
 21
-0.062188
  0
LINE
  8
APS_GEOMETRY
 10
0.025156
 11
0.022188
 20
-0.062188
 21
-0.062344
  0
LINE
  8
APS_GEOMETRY
 10
0.022188
 11
0.0225
 20
-0.062344
 21
-0.062031
  0
LINE
  8
APS_GEOMETRY
 10
0.0225
 11
0.0225
 20
-0.062031
 21
-0.061875
  0
LINE
  8
APS_GEOMETRY
 10
0.135312
 11
0.137188
 20
-0.061875
 21
-0.062188
  0
LINE
  8
APS_GEOMETRY
 10
0.137188
 11
0.137344
 20
-0.062188
 21
-0.062188
  0
LINE
  8
APS_GEOMETRY
 10
0.137344
 11
0.137344
 20
-0.062188
 21
-0.062344
  0
LINE
  8
APS_GEOMETRY
 10
0.137344
 11
0.135312
 20
-0.062344
 21
-0.061875
  0
LINE
  8
APS_GEOMETRY
 10
0.019844
 11
0.022188
 20
-0.062344
 21
-0.062344
  0
LINE
  8
APS_GEOMETRY
 10
0.022188
 11
0.022188
 20
-0.062344
 21
-0.0625
  0
LINE
  8
APS_GEOMETRY
 10
0.022188
 11
0.022031
 20
-0.0625
 21
-0.0625
  0
LINE
  8
APS_GEOMETRY
 10
0.022031
 11
0.022031
 20
-0.0625
 21
-0.062656
  0
LINE
  8
APS_GEOMETRY
 10
0.022031
 11
0.019531
 20
-0.062656
 21
-0.062813
  0
LINE
  8
APS_GEOMETRY
 10
0.019531
 11
0.019844
 20
-0.062813
 21
-0.0625
  0
LINE
  8
APS_GEOMETRY
 10
0.019844
 11
0.019844
 20
-0.0625
 21
-0.062344
  0
LINE
  8
APS_GEOMETRY
 10
0.088125
 11
0.090156
 20
-0.062344
 21
-0.062656
  0
LINE
  8
APS_GEOMETRY
 10
0.090156
 11
0.090313
 20
-0.062656
 21
-0.062656
  0
LINE
  8
APS_GEOMETRY
 10
0.090313
 11
0.090313
 20
-0.062656
 21
-0.062813
  0
LINE
  8
APS_GEOMETRY
 10
0.090313
 11
0.088125
 20
-0.062813
 21
-0.062344
  0
LINE
  8
APS_GEOMETRY
 10
0.137344
 11
0.139375
 20
-0.062344
 21
-0.062656
  0
LINE
  8
APS_GEOMETRY
 10
0.139375
 11
0.139531
 20
-0.062656
 21
-0.062656
  0
LINE
  8
APS_GEOMETRY
 10
0.139531
 11
0.139531
 20
-0.062656
 21
-0.062813
  0
LINE
  8
APS_GEOMETRY
 10
0.139531
 11
0.137344
 20
-0.062813
 21
-0.062344
  0
LINE
  8
APS_GEOMETRY
 10
0.017187
 11
0.019531
 20
-0.062813
 21
-0.062813
  0
LINE
  8
APS_GEOMETRY
 10
0.019531
 11
0.019531
 20
-0.062813
 21
-0.063125
  0
LINE
  8
APS_GEOMETRY
 10
0.019531
 11
0.019375
 20
-0.063125
 21
-0.063125
  0
LINE
  8
APS_GEOMETRY
 10
0.019375
 11
0.019375
 20
-0.063125
 21
-0.063281
  0
LINE
  8
APS_GEOMETRY
 10
0.019375
 11
0.016875
 20
-0.063281
 21
-0.063438
  0
LINE
  8
APS_GEOMETRY
 10
0.016875
 11
0.017187
 20
-0.063438
 21
-0.063125
  0
LINE
  8
APS_GEOMETRY
 10
0.017187
 11
0.017187
 20
-0.063125
 21
-0.062813
  0
LINE
  8
APS_GEOMETRY
 10
0.090313
 11
0.095156
 20
-0.062813
 21
-0.063281
  0
LINE
  8
APS_GEOMETRY
 10
0.095156
 11
0.095156
 20
-0.063281
 21
-0.063438
  0
ARC
  8
APS_GEOMETRY
 10
0.095156
 20
-0.050092
 40
0.013346
 50
262.647621
 51
270.0
  0
ARC
  8
APS_GEOMETRY
 10
0.099337
 20
-0.017688
 40
0.046018
 50
258.690068
 51
262.647621
  0
LINE
  8
APS_GEOMETRY
 10
0.139531
 11
0.140937
 20
-0.062813
 21
-0.063281
  0
LINE
  8
APS_GEOMETRY
 10
0.140937
 11
0.141094
 20
-0.063281
 21
-0.063281
  0
LINE
  8
APS_GEOMETRY
 10
0.141094
 11
0.141094
 20
-0.063281
 21
-0.063438
  0
LINE
  8
APS_GEOMETRY
 10
0.141094
 11
0.139531
 20
-0.063438
 21
-0.062813
  0
LINE
  8
APS_GEOMETRY
 10
0.014844
 11
0.016875
 20
-0.063438
 21
-0.063438
  0
LINE
  8
APS_GEOMETRY
 10
0.016875
 11
0.016875
 20
-0.063438
 21
-0.063594
  0
LINE
  8
APS_GEOMETRY
 10
0.016875
 11
0.016719
 20
-0.063594
 21
-0.063594
  0
LINE
  8
APS_GEOMETRY
 10
0.016719
 11
0.016719
 20
-0.063594
 21
-0.06375
  0
LINE
  8
APS_GEOMETRY
 10
0.016719
 11
0.014844
 20
-0.06375
 21
-0.063438
  0
LINE
  8
APS_GEOMETRY
 10
0.095156
 11
0.099844
 20
-0.063438
 21
-0.06375
  0
LINE
  8
APS_GEOMETRY
 10
0.099844
 11
0.099844
 20
-0.06375
 21
-0.063906
  0
ARC
  8
APS_GEOMETRY
 10
0.099029
 20
-0.054949
 40
0.008994
 50
264.289407
 51
275.194429
  0
ARC
  8
APS_GEOMETRY
 10
0.100917
 20
-0.036073
 40
0.027964
 50
258.111342
 51
264.289407
  0
LINE
  8
APS_GEOMETRY
 10
0.141094
 11
0.142969
 20
-0.063438
 21
-0.06375
  0
LINE
  8
APS_GEOMETRY
 10
0.142969
 11
0.143125
 20
-0.06375
 21
-0.06375
  0
LINE
  8
APS_GEOMETRY
 10
0.143125
 11
0.143125
 20
-0.06375
 21
-0.063906
  0
LINE
  8
APS_GEOMETRY
 10
0.143125
 11
0.141094
 20
-0.063906
 21
-0.063438
  0
LINE
  8
APS_GEOMETRY
 10
0.062656
 11
0.064688
 20
-0.063906
 21
-0.063906
  0
LINE
  8
APS_GEOMETRY
 10
0.064688
 11
0.064688
 20
-0.063906
 21
-0.064531
  0
LINE
  8
APS_GEOMETRY
 10
0.064688
 11
0.062344
 20
-0.064531
 21
-0.064531
  0
LINE
  8
APS_GEOMETRY
 10
0.062344
 11
0.062656
 20
-0.064531
 21
-0.064063
  0
LINE
  8
APS_GEOMETRY
 10
0.062656
 11
0.062656
 20
-0.064063
 21
-0.063906
  0
LINE
  8
APS_GEOMETRY
 10
0.099844
 11
0.103594
 20
-0.063906
 21
-0.064219
  0
LINE
  8
APS_GEOMETRY
 10
0.103594
 11
0.103594
 20
-0.064219
 21
-0.064531
  0
LINE
  8
APS_GEOMETRY
 10
0.103594
 11
0.099844
 20
-0.064531
 21
-0.063906
  0
LINE
  8
APS_GEOMETRY
 10
0.143125
 11
0.144531
 20
-0.063906
 21
-0.064219
  0
LINE
  8
APS_GEOMETRY
 10
0.144531
 11
0.144844
 20
-0.064219
 21
-0.064219
  0
LINE
  8
APS_GEOMETRY
 10
0.144844
 11
0.144844
 20
-0.064219
 21
-0.064531
  0
LINE
  8
APS_GEOMETRY
 10
0.144844
 11
0.143125
 20
-0.064531
 21
-0.063906
  0
LINE
  8
APS_GEOMETRY
 10
0.057344
 11
0.062344
 20
-0.064531
 21
-0.064531
  0
LINE
  8
APS_GEOMETRY
 10
0.062344
 11
0.062344
 20
-0.064531
 21
-0.064688
  0
LINE
  8
APS_GEOMETRY
 10
0.062344
 11
0.062188
 20
-0.064688
 21
-0.064688
  0
LINE
  8
APS_GEOMETRY
 10
0.062188
 11
0.062188
 20
-0.064688
 21
-0.064844
  0
LINE
  8
APS_GEOMETRY
 10
0.062188
 11
0.057031
 20
-0.064844
 21
-0.065
  0
LINE
  8
APS_GEOMETRY
 10
0.057031
 11
0.057344
 20
-0.065
 21
-0.064688
  0
LINE
  8
APS_GEOMETRY
 10
0.057344
 11
0.057344
 20
-0.064688
 21
-0.064531
  0
LINE
  8
APS_GEOMETRY
 10
0.103594
 11
0.106719
 20
-0.064531
 21
-0.064844
  0
LINE
  8
APS_GEOMETRY
 10
0.106719
 11
0.106719
 20
-0.064844
 21
-0.065
  0
LINE
  8
APS_GEOMETRY
 10
0.106719
 11
0.103594
 20
-0.065
 21
-0.064531
  0
LINE
  8
APS_GEOMETRY
 10
0.144844
 11
0.14625
 20
-0.064531
 21
-0.064844
  0
LINE
  8
APS_GEOMETRY
 10
0.14625
 11
0.146406
 20
-0.064844
 21
-0.064844
  0
LINE
  8
APS_GEOMETRY
 10
0.146406
 11
0.146406
 20
-0.064844
 21
-0.065
  0
LINE
  8
APS_GEOMETRY
 10
0.146406
 11
0.144844
 20
-0.065
 21
-0.064531
  0
LINE
  8
APS_GEOMETRY
 10
0.009375
 11
0.011094
 20
-0.065
 21
-0.065
  0
LINE
  8
APS_GEOMETRY
 10
0.011094
 11
0.011094
 20
-0.065
 21
-0.065469
  0
LINE
  8
APS_GEOMETRY
 10
0.011094
 11
0.008906
 20
-0.065469
 21
-0.065469
  0
LINE
  8
APS_GEOMETRY
 10
0.008906
 11
0.009375
 20
-0.065469
 21
-0.065156
  0
LINE
  8
APS_GEOMETRY
 10
0.009375
 11
0.009375
 20
-0.065156
 21
-0.065
  0
LINE
  8
APS_GEOMETRY
 10
0.052656
 11
0.057031
 20
-0.065
 21
-0.065
  0
LINE
  8
APS_GEOMETRY
 10
0.057031
 11
0.057031
 20
-0.065
 21
-0.065156
  0
LINE
  8
APS_GEOMETRY
 10
0.057031
 11
0.056875
 20
-0.065156
 21
-0.065156
  0
LINE
  8
APS_GEOMETRY
 10
0.056875
 11
0.056875
 20
-0.065156
 21
-0.065313
  0
LINE
  8
APS_GEOMETRY
 10
0.056875
 11
0.052344
 20
-0.065313
 21
-0.065469
  0
LINE
  8
APS_GEOMETRY
 10
0.052344
 11
0.052656
 20
-0.065469
 21
-0.065156
  0
LINE
  8
APS_GEOMETRY
 10
0.052656
 11
0.052656
 20
-0.065156
 21
-0.065
  0
ARC
  8
APS_GEOMETRY
 10
0.088909
 20
-0.064216
 40
0.001109
 50
225.0
 51
236.309932
  0
ARC
  8
APS_GEOMETRY
 10
0.089841
 20
-0.062818
 40
0.002789
 50
236.309932
 51
243.434949
  0
LINE
  8
APS_GEOMETRY
 10
0.088594
 11
0.08875
 20
-0.065313
 21
-0.065313
  0
LINE
  8
APS_GEOMETRY
 10
0.08875
 11
0.08875
 20
-0.065313
 21
-0.065469
  0
LINE
  8
APS_GEOMETRY
 10
0.08875
 11
0.088125
 20
-0.065469
 21
-0.065469
  0
LINE
  8
APS_GEOMETRY
 10
0.088125
 11
0.088125
 20
-0.065469
 21
-0.065
  0
LINE
  8
APS_GEOMETRY
 10
0.106719
 11
0.109844
 20
-0.065
 21
-0.065313
  0
LINE
  8
APS_GEOMETRY
 10
0.109844
 11
0.109844
 20
-0.065313
 21
-0.065469
  0
LINE
  8
APS_GEOMETRY
 10
0.109844
 11
0.106719
 20
-0.065469
 21
-0.065
  0
LINE
  8
APS_GEOMETRY
 10
0.146406
 11
0.147188
 20
-0.065
 21
-0.065313
  0
LINE
  8
APS_GEOMETRY
 10
0.147188
 11
0.147344
 20
-0.065313
 21
-0.065313
  0
LINE
  8
APS_GEOMETRY
 10
0.147344
 11
0.147344
 20
-0.065313
 21
-0.065469
  0
LINE
  8
APS_GEOMETRY
 10
0.147344
 11
0.146406
 20
-0.065469
 21
-0.065
  0
LINE
  8
APS_GEOMETRY
 10
0.007813
 11
0.008906
 20
-0.065469
 21
-0.065469
  0
LINE
  8
APS_GEOMETRY
 10
0.008906
 11
0.008906
 20
-0.065469
 21
-0.065625
  0
LINE
  8
APS_GEOMETRY
 10
0.008906
 11
0.00875
 20
-0.065625
 21
-0.065625
  0
LINE
  8
APS_GEOMETRY
 10
0.00875
 11
0.00875
 20
-0.065625
 21
-0.065938
  0
ARC
  8
APS_GEOMETRY
 10
0.00875
 20
-0.070163
 40
0.004225
 50
90.0
 51
96.340192
  0
ARC
  8
APS_GEOMETRY
 10
0.010206
 20
-0.083268
 40
0.017411
 50
96.340192
 51
99.462322
  0
LINE
  8
APS_GEOMETRY
 10
0.007344
 11
0.007813
 20
-0.066094
 21
-0.065625
  0
LINE
  8
APS_GEOMETRY
 10
0.007813
 11
0.007813
 20
-0.065625
 21
-0.065469
  0
LINE
  8
APS_GEOMETRY
 10
0.048906
 11
0.052344
 20
-0.065469
 21
-0.065469
  0
LINE
  8
APS_GEOMETRY
 10
0.052344
 11
0.052344
 20
-0.065469
 21
-0.065625
  0
LINE
  8
APS_GEOMETRY
 10
0.052344
 11
0.052188
 20
-0.065625
 21
-0.065625
  0
LINE
  8
APS_GEOMETRY
 10
0.052188
 11
0.052188
 20
-0.065625
 21
-0.065938
  0
LINE
  8
APS_GEOMETRY
 10
0.052188
 11
0.048594
 20
-0.065938
 21
-0.066094
  0
LINE
  8
APS_GEOMETRY
 10
0.048594
 11
0.048906
 20
-0.066094
 21
-0.065625
  0
LINE
  8
APS_GEOMETRY
 10
0.048906
 11
0.048906
 20
-0.065625
 21
-0.065469
  0
LINE
  8
APS_GEOMETRY
 10
0.08875
 11
0.090781
 20
-0.065469
 21
-0.065938
  0
LINE
  8
APS_GEOMETRY
 10
0.090781
 11
0.090938
 20
-0.065938
 21
-0.065938
  0
LINE
  8
APS_GEOMETRY
 10
0.090938
 11
0.090938
 20
-0.065938
 21
-0.066094
  0
LINE
  8
APS_GEOMETRY
 10
0.090938
 11
0.08875
 20
-0.066094
 21
-0.065469
  0
LINE
  8
APS_GEOMETRY
 10
0.109844
 11
0.113125
 20
-0.065469
 21
-0.065938
  0
LINE
  8
APS_GEOMETRY
 10
0.113125
 11
0.113125
 20
-0.065938
 21
-0.066094
  0
LINE
  8
APS_GEOMETRY
 10
0.113125
 11
0.109844
 20
-0.066094
 21
-0.065469
  0
LINE
  8
APS_GEOMETRY
 10
0.147344
 11
0.148281
 20
-0.065469
 21
-0.065938
  0
LINE
  8
APS_GEOMETRY
 10
0.148281
 11
0.148438
 20
-0.065938
 21
-0.065938
  0
LINE
  8
APS_GEOMETRY
 10
0.148438
 11
0.148438
 20
-0.065938
 21
-0.066094
  0
LINE
  8
APS_GEOMETRY
 10
0.148438
 11
0.147344
 20
-0.066094
 21
-0.065469
  0
LINE
  8
APS_GEOMETRY
 10
0.006094
 11
0.007344
 20
-0.066094
 21
-0.066094
  0
LINE
  8
APS_GEOMETRY
 10
0.007344
 11
0.007344
 20
-0.066094
 21
-0.06625
  0
LINE
  8
APS_GEOMETRY
 10
0.007344
 11
0.007187
 20
-0.06625
 21
-0.06625
  0
LINE
  8
APS_GEOMETRY
 10
0.007187
 11
0.007187
 20
-0.06625
 21
-0.066406
  0
ARC
  8
APS_GEOMETRY
 10
0.004325
 20
-0.049232
 40
0.017411
 50
276.340192
 51
279.462322
  0
ARC
  8
APS_GEOMETRY
 10
0.005781
 20
-0.062337
 40
0.004225
 50
270.0
 51
276.340192
  0
LINE
  8
APS_GEOMETRY
 10
0.005781
 11
0.006094
 20
-0.066563
 21
-0.06625
  0
LINE
  8
APS_GEOMETRY
 10
0.006094
 11
0.006094
 20
-0.06625
 21
-0.066094
  0
LINE
  8
APS_GEOMETRY
 10
0.045781
 11
0.048594
 20
-0.066094
 21
-0.066094
  0
LINE
  8
APS_GEOMETRY
 10
0.048594
 11
0.048594
 20
-0.066094
 21
-0.06625
  0
LINE
  8
APS_GEOMETRY
 10
0.048594
 11
0.048437
 20
-0.06625
 21
-0.06625
  0
LINE
  8
APS_GEOMETRY
 10
0.048437
 11
0.048437
 20
-0.06625
 21
-0.066406
  0
LINE
  8
APS_GEOMETRY
 10
0.048437
 11
0.045469
 20
-0.066406
 21
-0.066563
  0
LINE
  8
APS_GEOMETRY
 10
0.045469
 11
0.045781
 20
-0.066563
 21
-0.06625
  0
LINE
  8
APS_GEOMETRY
 10
0.045781
 11
0.045781
 20
-0.06625
 21
-0.066094
  0
LINE
  8
APS_GEOMETRY
 10
0.090938
 11
0.092812
 20
-0.066094
 21
-0.066406
  0
LINE
  8
APS_GEOMETRY
 10
0.092812
 11
0.092969
 20
-0.066406
 21
-0.066406
  0
LINE
  8
APS_GEOMETRY
 10
0.092969
 11
0.092969
 20
-0.066406
 21
-0.066563
  0
LINE
  8
APS_GEOMETRY
 10
0.092969
 11
0.090938
 20
-0.066563
 21
-0.066094
  0
LINE
  8
APS_GEOMETRY
 10
0.113125
 11
0.115
 20
-0.066094
 21
-0.066406
  0
LINE
  8
APS_GEOMETRY
 10
0.115
 11
0.115156
 20
-0.066406
 21
-0.066406
  0
LINE
  8
APS_GEOMETRY
 10
0.115156
 11
0.115156
 20
-0.066406
 21
-0.066563
  0
LINE
  8
APS_GEOMETRY
 10
0.115156
 11
0.113125
 20
-0.066563
 21
-0.066094
  0
LINE
  8
APS_GEOMETRY
 10
0.148438
 11
0.149844
 20
-0.066094
 21
-0.066406
  0
LINE
  8
APS_GEOMETRY
 10
0.149844
 11
0.15
 20
-0.066406
 21
-0.066406
  0
LINE
  8
APS_GEOMETRY
 10
0.15
 11
0.15
 20
-0.066406
 21
-0.066563
  0
LINE
  8
APS_GEOMETRY
 10
0.15
 11
0.148438
 20
-0.066563
 21
-0.066094
  0
LINE
  8
APS_GEOMETRY
 10
0.005156
 11
0.005781
 20
-0.066563
 21
-0.066563
  0
LINE
  8
APS_GEOMETRY
 10
0.005781
 11
0.005781
 20
-0.066563
 21
-0.066719
  0
LINE
  8
APS_GEOMETRY
 10
0.005781
 11
0.005625
 20
-0.066719
 21
-0.066719
  0
LINE
  8
APS_GEOMETRY
 10
0.005625
 11
0.005625
 20
-0.066719
 21
-0.066875
  0
ARC
  8
APS_GEOMETRY
 10
0.007654
 20
-0.07499
 40
0.008365
 50
104.036243
 51
108.434949
  0
ARC
  8
APS_GEOMETRY
 10
0.005784
 20
-0.06938
 40
0.002451
 50
108.434949
 51
116.565051
  0
LINE
  8
APS_GEOMETRY
 10
0.004687
 11
0.005156
 20
-0.067188
 21
-0.066719
  0
LINE
  8
APS_GEOMETRY
 10
0.005156
 11
0.005156
 20
-0.066719
 21
-0.066563
  0
LINE
  8
APS_GEOMETRY
 10
0.042656
 11
0.045469
 20
-0.066563
 21
-0.066563
  0
LINE
  8
APS_GEOMETRY
 10
0.045469
 11
0.045469
 20
-0.066563
 21
-0.066719
  0
LINE
  8
APS_GEOMETRY
 10
0.045469
 11
0.045313
 20
-0.066719
 21
-0.066719
  0
LINE
  8
APS_GEOMETRY
 10
0.045313
 11
0.045313
 20
-0.066719
 21
-0.066875
  0
LINE
  8
APS_GEOMETRY
 10
0.045313
 11
0.042344
 20
-0.066875
 21
-0.067188
  0
LINE
  8
APS_GEOMETRY
 10
0.042344
 11
0.042656
 20
-0.067188
 21
-0.066719
  0
LINE
  8
APS_GEOMETRY
 10
0.042656
 11
0.042656
 20
-0.066719
 21
-0.066563
  0
LINE
  8
APS_GEOMETRY
 10
0.06375
 11
0.063438
 20
-0.066563
 21
-0.067188
  0
LINE
  8
APS_GEOMETRY
 10
0.063438
 11
0.06375
 20
-0.067188
 21
-0.066719
  0
LINE
  8
APS_GEOMETRY
 10
0.06375
 11
0.06375
 20
-0.066719
 21
-0.066563
  0
LINE
  8
APS_GEOMETRY
 10
0.092969
 11
0.095
 20
-0.066563
 21
-0.066875
  0
LINE
  8
APS_GEOMETRY
 10
0.095
 11
0.095156
 20
-0.066875
 21
-0.066875
  0
LINE
  8
APS_GEOMETRY
 10
0.095156
 11
0.095156
 20
-0.066875
 21
-0.067188
  0
LINE
  8
APS_GEOMETRY
 10
0.095156
 11
0.092969
 20
-0.067188
 21
-0.066563
  0
LINE
  8
APS_GEOMETRY
 10
0.115156
 11
0.117188
 20
-0.066563
 21
-0.066875
  0
LINE
  8
APS_GEOMETRY
 10
0.117188
 11
0.117344
 20
-0.066875
 21
-0.066875
  0
LINE
  8
APS_GEOMETRY
 10
0.117344
 11
0.117344
 20
-0.066875
 21
-0.067188
  0
LINE
  8
APS_GEOMETRY
 10
0.117344
 11
0.115156
 20
-0.067188
 21
-0.066563
  0
ARC
  8
APS_GEOMETRY
 10
0.151096
 20
-0.06437
 40
0.002451
 50
243.434949
 51
251.565051
  0
ARC
  8
APS_GEOMETRY
 10
0.152966
 20
-0.05876
 40
0.008365
 50
251.565051
 51
255.963757
  0
LINE
  8
APS_GEOMETRY
 10
0.150937
 11
0.151094
 20
-0.066875
 21
-0.066875
  0
LINE
  8
APS_GEOMETRY
 10
0.151094
 11
0.151094
 20
-0.066875
 21
-0.067188
  0
LINE
  8
APS_GEOMETRY
 10
0.151094
 11
0.15
 20
-0.067188
 21
-0.066563
  0
LINE
  8
APS_GEOMETRY
 10
0.126562
 11
0.126875
 20
-0.066875
 21
-0.067188
  0
LINE
  8
APS_GEOMETRY
 10
0.126875
 11
0.126562
 20
-0.067188
 21
-0.066875
  0
LINE
  8
APS_GEOMETRY
 10
0.004063
 11
0.004687
 20
-0.067188
 21
-0.067188
  0
LINE
  8
APS_GEOMETRY
 10
0.004687
 11
0.004687
 20
-0.067188
 21
-0.067344
  0
LINE
  8
APS_GEOMETRY
 10
0.004687
 11
0.004531
 20
-0.067344
 21
-0.067344
  0
LINE
  8
APS_GEOMETRY
 10
0.004531
 11
0.004531
 20
-0.067344
 21
-0.0675
  0
ARC
  8
APS_GEOMETRY
 10
0.003284
 20
-0.063759
 40
0.003944
 50
281.309932
 51
288.434949
  0
ARC
  8
APS_GEOMETRY
 10
0.00375
 20
-0.066088
 40
0.001568
 50
270.0
 51
281.309932
  0
LINE
  8
APS_GEOMETRY
 10
0.00375
 11
0.004063
 20
-0.067656
 21
-0.067344
  0
LINE
  8
APS_GEOMETRY
 10
0.004063
 11
0.004063
 20
-0.067344
 21
-0.067188
  0
LINE
  8
APS_GEOMETRY
 10
0.039375
 11
0.042344
 20
-0.067188
 21
-0.067188
  0
LINE
  8
APS_GEOMETRY
 10
0.042344
 11
0.042344
 20
-0.067188
 21
-0.067344
  0
LINE
  8
APS_GEOMETRY
 10
0.042344
 11
0.042031
 20
-0.067344
 21
-0.067344
  0
LINE
  8
APS_GEOMETRY
 10
0.042031
 11
0.042031
 20
-0.067344
 21
-0.0675
  0
LINE
  8
APS_GEOMETRY
 10
0.042031
 11
0.039063
 20
-0.0675
 21
-0.067656
  0
LINE
  8
APS_GEOMETRY
 10
0.039063
 11
0.039375
 20
-0.067656
 21
-0.067344
  0
LINE
  8
APS_GEOMETRY
 10
0.039375
 11
0.039375
 20
-0.067344
 21
-0.067188
  0
LINE
  8
APS_GEOMETRY
 10
0.061719
 11
0.063438
 20
-0.067188
 21
-0.067188
  0
LINE
  8
APS_GEOMETRY
 10
0.063438
 11
0.063438
 20
-0.067188
 21
-0.067344
  0
LINE
  8
APS_GEOMETRY
 10
0.063438
 11
0.063281
 20
-0.067344
 21
-0.067344
  0
LINE
  8
APS_GEOMETRY
 10
0.063281
 11
0.063281
 20
-0.067344
 21
-0.0675
  0
LINE
  8
APS_GEOMETRY
 10
0.063281
 11
0.06125
 20
-0.0675
 21
-0.067656
  0
LINE
  8
APS_GEOMETRY
 10
0.06125
 11
0.061719
 20
-0.067656
 21
-0.067344
  0
LINE
  8
APS_GEOMETRY
 10
0.061719
 11
0.061719
 20
-0.067344
 21
-0.067188
  0
LINE
  8
APS_GEOMETRY
 10
0.095156
 11
0.096563
 20
-0.067188
 21
-0.0675
  0
LINE
  8
APS_GEOMETRY
 10
0.096563
 11
0.096719
 20
-0.0675
 21
-0.0675
  0
LINE
  8
APS_GEOMETRY
 10
0.096719
 11
0.096719
 20
-0.0675
 21
-0.067656
  0
LINE
  8
APS_GEOMETRY
 10
0.096719
 11
0.095156
 20
-0.067656
 21
-0.067188
  0
LINE
  8
APS_GEOMETRY
 10
0.117344
 11
0.119219
 20
-0.067188
 21
-0.0675
  0
LINE
  8
APS_GEOMETRY
 10
0.119219
 11
0.119375
 20
-0.0675
 21
-0.0675
  0
LINE
  8
APS_GEOMETRY
 10
0.119375
 11
0.119375
 20
-0.0675
 21
-0.067656
  0
LINE
  8
APS_GEOMETRY
 10
0.119375
 11
0.117344
 20
-0.067656
 21
-0.067188
  0
LINE
  8
APS_GEOMETRY
 10
0.151094
 11
0.152031
 20
-0.067188
 21
-0.0675
  0
LINE
  8
APS_GEOMETRY
 10
0.152031
 11
0.152188
 20
-0.0675
 21
-0.0675
  0
LINE
  8
APS_GEOMETRY
 10
0.152188
 11
0.152188
 20
-0.0675
 21
-0.067656
  0
LINE
  8
APS_GEOMETRY
 10
0.152188
 11
0.151094
 20
-0.067656
 21
-0.067188
  0
LINE
  8
APS_GEOMETRY
 10
0.0025
 11
0.00375
 20
-0.067656
 21
-0.067656
  0
LINE
  8
APS_GEOMETRY
 10
0.00375
 11
0.00375
 20
-0.067656
 21
-0.067813
  0
LINE
  8
APS_GEOMETRY
 10
0.00375
 11
0.003594
 20
-0.067813
 21
-0.067813
  0
LINE
  8
APS_GEOMETRY
 10
0.003594
 11
0.003594
 20
-0.067813
 21
-0.067969
  0
ARC
  8
APS_GEOMETRY
 10
0.000731
 20
-0.050794
 40
0.017411
 50
276.340192
 51
279.462322
  0
ARC
  8
APS_GEOMETRY
 10
0.002188
 20
-0.0639
 40
0.004225
 50
270.0
 51
276.340192
  0
LINE
  8
APS_GEOMETRY
 10
0.002188
 11
0.0025
 20
-0.068125
 21
-0.067813
  0
LINE
  8
APS_GEOMETRY
 10
0.0025
 11
0.0025
 20
-0.067813
 21
-0.067656
  0
LINE
  8
APS_GEOMETRY
 10
0.037344
 11
0.039063
 20
-0.067656
 21
-0.067656
  0
LINE
  8
APS_GEOMETRY
 10
0.039063
 11
0.039063
 20
-0.067656
 21
-0.067813
  0
LINE
  8
APS_GEOMETRY
 10
0.039063
 11
0.038906
 20
-0.067813
 21
-0.067813
  0
LINE
  8
APS_GEOMETRY
 10
0.038906
 11
0.038906
 20
-0.067813
 21
-0.067969
  0
LINE
  8
APS_GEOMETRY
 10
0.038906
 11
0.037031
 20
-0.067969
 21
-0.068125
  0
LINE
  8
APS_GEOMETRY
 10
0.037031
 11
0.037344
 20
-0.068125
 21
-0.067813
  0
LINE
  8
APS_GEOMETRY
 10
0.037344
 11
0.037344
 20
-0.067813
 21
-0.067656
  0
LINE
  8
APS_GEOMETRY
 10
0.059531
 11
0.06125
 20
-0.067656
 21
-0.067656
  0
LINE
  8
APS_GEOMETRY
 10
0.06125
 11
0.06125
 20
-0.067656
 21
-0.067813
  0
LINE
  8
APS_GEOMETRY
 10
0.06125
 11
0.061094
 20
-0.067813
 21
-0.067813
  0
LINE
  8
APS_GEOMETRY
 10
0.061094
 11
0.061094
 20
-0.067813
 21
-0.067969
  0
LINE
  8
APS_GEOMETRY
 10
0.061094
 11
0.059219
 20
-0.067969
 21
-0.068125
  0
LINE
  8
APS_GEOMETRY
 10
0.059219
 11
0.059531
 20
-0.068125
 21
-0.067813
  0
LINE
  8
APS_GEOMETRY
 10
0.059531
 11
0.059531
 20
-0.067813
 21
-0.067656
  0
LINE
  8
APS_GEOMETRY
 10
0.096719
 11
0.098594
 20
-0.067656
 21
-0.067969
  0
LINE
  8
APS_GEOMETRY
 10
0.098594
 11
0.09875
 20
-0.067969
 21
-0.067969
  0
LINE
  8
APS_GEOMETRY
 10
0.09875
 11
0.09875
 20
-0.067969
 21
-0.068125
  0
LINE
  8
APS_GEOMETRY
 10
0.09875
 11
0.096719
 20
-0.068125
 21
-0.067656
  0
LINE
  8
APS_GEOMETRY
 10
0.119375
 11
0.120781
 20
-0.067656
 21
-0.067969
  0
LINE
  8
APS_GEOMETRY
 10
0.120781
 11
0.120937
 20
-0.067969
 21
-0.067969
  0
LINE
  8
APS_GEOMETRY
 10
0.120937
 11
0.120937
 20
-0.067969
 21
-0.068125
  0
LINE
  8
APS_GEOMETRY
 10
0.120937
 11
0.119375
 20
-0.068125
 21
-0.067656
  0
LINE
  8
APS_GEOMETRY
 10
0.001406
 11
0.002188
 20
-0.068125
 21
-0.068125
  0
LINE
  8
APS_GEOMETRY
 10
0.002188
 11
0.002188
 20
-0.068125
 21
-0.068281
  0
LINE
  8
APS_GEOMETRY
 10
0.002188
 11
0.001875
 20
-0.068281
 21
-0.068281
  0
LINE
  8
APS_GEOMETRY
 10
0.001875
 11
0.001875
 20
-0.068281
 21
-0.068594
  0
ARC
  8
APS_GEOMETRY
 10
0.001875
 20
-0.070929
 40
0.002336
 50
90.0
 51
101.309932
  0
ARC
  8
APS_GEOMETRY
 10
0.001669
 20
-0.069901
 40
0.001287
 50
101.309932
 51
116.565051
  0
LINE
  8
APS_GEOMETRY
 10
0.001094
 11
0.001406
 20
-0.06875
 21
-0.068281
  0
LINE
  8
APS_GEOMETRY
 10
0.001406
 11
0.001406
 20
-0.068281
 21
-0.068125
  0
LINE
  8
APS_GEOMETRY
 10
0.035156
 11
0.037031
 20
-0.068125
 21
-0.068125
  0
LINE
  8
APS_GEOMETRY
 10
0.037031
 11
0.037031
 20
-0.068125
 21
-0.068281
  0
LINE
  8
APS_GEOMETRY
 10
0.037031
 11
0.036875
 20
-0.068281
 21
-0.068281
  0
LINE
  8
APS_GEOMETRY
 10
0.036875
 11
0.036875
 20
-0.068281
 21
-0.068594
  0
LINE
  8
APS_GEOMETRY
 10
0.036875
 11
0.034844
 20
-0.068594
 21
-0.06875
  0
LINE
  8
APS_GEOMETRY
 10
0.034844
 11
0.035156
 20
-0.06875
 21
-0.068281
  0
LINE
  8
APS_GEOMETRY
 10
0.035156
 11
0.035156
 20
-0.068281
 21
-0.068125
  0
LINE
  8
APS_GEOMETRY
 10
0.057344
 11
0.059219
 20
-0.068125
 21
-0.068125
  0
LINE
  8
APS_GEOMETRY
 10
0.059219
 11
0.059219
 20
-0.068125
 21
-0.068281
  0
LINE
  8
APS_GEOMETRY
 10
0.059219
 11
0.059063
 20
-0.068281
 21
-0.068281
  0
LINE
  8
APS_GEOMETRY
 10
0.059063
 11
0.059063
 20
-0.068281
 21
-0.068594
  0
LINE
  8
APS_GEOMETRY
 10
0.059063
 11
0.057031
 20
-0.068594
 21
-0.06875
  0
LINE
  8
APS_GEOMETRY
 10
0.057031
 11
0.057344
 20
-0.06875
 21
-0.068281
  0
LINE
  8
APS_GEOMETRY
 10
0.057344
 11
0.057344
 20
-0.068281
 21
-0.068125
  0
LINE
  8
APS_GEOMETRY
 10
0.09875
 11
0.100781
 20
-0.068125
 21
-0.068594
  0
LINE
  8
APS_GEOMETRY
 10
0.100781
 11
0.100938
 20
-0.068594
 21
-0.068594
  0
LINE
  8
APS_GEOMETRY
 10
0.100938
 11
0.100938
 20
-0.068594
 21
-0.06875
  0
LINE
  8
APS_GEOMETRY
 10
0.100938
 11
0.09875
 20
-0.06875
 21
-0.068125
  0
LINE
  8
APS_GEOMETRY
 10
0.120937
 11
0.122969
 20
-0.068125
 21
-0.068594
  0
LINE
  8
APS_GEOMETRY
 10
0.122969
 11
0.123125
 20
-0.068594
 21
-0.068594
  0
LINE
  8
APS_GEOMETRY
 10
0.123125
 11
0.123125
 20
-0.068594
 21
-0.06875
  0
LINE
  8
APS_GEOMETRY
 10
0.123125
 11
0.120937
 20
-0.06875
 21
-0.068125
  0
LINE
  8
APS_GEOMETRY
 10
0.000312
 11
0.001094
 20
-0.06875
 21
-0.06875
  0
LINE
  8
APS_GEOMETRY
 10
0.001094
 11
0.001094
 20
-0.06875
 21
-0.068906
  0
LINE
  8
APS_GEOMETRY
 10
0.001094
 11
0.000938
 20
-0.068906
 21
-0.068906
  0
LINE
  8
APS_GEOMETRY
 10
0.000938
 11
0.000938
 20
-0.068906
 21
-0.069063
  0
ARC
  8
APS_GEOMETRY
 10
-0.001012
 20
-0.061263
 40
0.008039
 50
279.462322
 51
284.036243
  0
ARC
  8
APS_GEOMETRY
 10
0.0
 20
-0.067337
 40
0.001882
 50
270.0
 51
279.462322
  0
LINE
  8
APS_GEOMETRY
 10
0.0
 11
0.000312
 20
-0.069219
 21
-0.068906
  0
LINE
  8
APS_GEOMETRY
 10
0.000312
 11
0.000312
 20
-0.068906
 21
-0.06875
  0
LINE
  8
APS_GEOMETRY
 10
0.033125
 11
0.034844
 20
-0.06875
 21
-0.06875
  0
LINE
  8
APS_GEOMETRY
 10
0.034844
 11
0.034844
 20
-0.06875
 21
-0.068906
  0
LINE
  8
APS_GEOMETRY
 10
0.034844
 11
0.034687
 20
-0.068906
 21
-0.068906
  0
LINE
  8
APS_GEOMETRY
 10
0.034687
 11
0.034687
 20
-0.068906
 21
-0.069063
  0
LINE
  8
APS_GEOMETRY
 10
0.034687
 11
0.032812
 20
-0.069063
 21
-0.069219
  0
LINE
  8
APS_GEOMETRY
 10
0.032812
 11
0.033125
 20
-0.069219
 21
-0.068906
  0
LINE
  8
APS_GEOMETRY
 10
0.033125
 11
0.033125
 20
-0.068906
 21
-0.06875
  0
LINE
  8
APS_GEOMETRY
 10
0.055781
 11
0.057031
 20
-0.06875
 21
-0.06875
  0
LINE
  8
APS_GEOMETRY
 10
0.057031
 11
0.057031
 20
-0.06875
 21
-0.068906
  0
LINE
  8
APS_GEOMETRY
 10
0.057031
 11
0.056875
 20
-0.068906
 21
-0.068906
  0
LINE
  8
APS_GEOMETRY
 10
0.056875
 11
0.056875
 20
-0.068906
 21
-0.069063
  0
ARC
  8
APS_GEOMETRY
 10
0.054013
 20
-0.051888
 40
0.017411
 50
276.340192
 51
279.462322
  0
ARC
  8
APS_GEOMETRY
 10
0.055469
 20
-0.064993
 40
0.004225
 50
270.0
 51
276.340192
  0
LINE
  8
APS_GEOMETRY
 10
0.055469
 11
0.055781
 20
-0.069219
 21
-0.068906
  0
LINE
  8
APS_GEOMETRY
 10
0.055781
 11
0.055781
 20
-0.068906
 21
-0.06875
  0
LINE
  8
APS_GEOMETRY
 10
0.100938
 11
0.102344
 20
-0.06875
 21
-0.069063
  0
LINE
  8
APS_GEOMETRY
 10
0.102344
 11
0.1025
 20
-0.069063
 21
-0.069063
  0
LINE
  8
APS_GEOMETRY
 10
0.1025
 11
0.1025
 20
-0.069063
 21
-0.069219
  0
LINE
  8
APS_GEOMETRY
 10
0.1025
 11
0.100938
 20
-0.069219
 21
-0.06875
  0
LINE
  8
APS_GEOMETRY
 10
0.123125
 11
0.124531
 20
-0.06875
 21
-0.069063
  0
LINE
  8
APS_GEOMETRY
 10
0.124531
 11
0.124688
 20
-0.069063
 21
-0.069063
  0
LINE
  8
APS_GEOMETRY
 10
0.124688
 11
0.124688
 20
-0.069063
 21
-0.069219
  0
LINE
  8
APS_GEOMETRY
 10
0.124688
 11
0.123125
 20
-0.069219
 21
-0.06875
  0
LINE
  8
APS_GEOMETRY
 10
0.031562
 11
0.032812
 20
-0.069219
 21
-0.069219
  0
LINE
  8
APS_GEOMETRY
 10
0.032812
 11
0.032812
 20
-0.069219
 21
-0.069375
  0
LINE
  8
APS_GEOMETRY
 10
0.032812
 11
0.032656
 20
-0.069375
 21
-0.069375
  0
LINE
  8
APS_GEOMETRY
 10
0.032656
 11
0.032656
 20
-0.069375
 21
-0.069531
  0
ARC
  8
APS_GEOMETRY
 10
0.029794
 20
-0.052357
 40
0.017411
 50
276.340192
 51
279.462322
  0
ARC
  8
APS_GEOMETRY
 10
0.03125
 20
-0.065462
 40
0.004225
 50
270.0
 51
276.340192
  0
LINE
  8
APS_GEOMETRY
 10
0.03125
 11
0.031562
 20
-0.069688
 21
-0.069375
  0
LINE
  8
APS_GEOMETRY
 10
0.031562
 11
0.031562
 20
-0.069375
 21
-0.069219
  0
LINE
  8
APS_GEOMETRY
 10
0.05375
 11
0.055469
 20
-0.069219
 21
-0.069219
  0
LINE
  8
APS_GEOMETRY
 10
0.055469
 11
0.055469
 20
-0.069219
 21
-0.069375
  0
LINE
  8
APS_GEOMETRY
 10
0.055469
 11
0.055313
 20
-0.069375
 21
-0.069375
  0
LINE
  8
APS_GEOMETRY
 10
0.055313
 11
0.055313
 20
-0.069375
 21
-0.069531
  0
LINE
  8
APS_GEOMETRY
 10
0.055313
 11
0.053438
 20
-0.069531
 21
-0.069688
  0
LINE
  8
APS_GEOMETRY
 10
0.053438
 11
0.05375
 20
-0.069688
 21
-0.069375
  0
LINE
  8
APS_GEOMETRY
 10
0.05375
 11
0.05375
 20
-0.069375
 21
-0.069219
  0
LINE
  8
APS_GEOMETRY
 10
0.1025
 11
0.103906
 20
-0.069219
 21
-0.069531
  0
LINE
  8
APS_GEOMETRY
 10
0.103906
 11
0.104062
 20
-0.069531
 21
-0.069531
  0
LINE
  8
APS_GEOMETRY
 10
0.104062
 11
0.104062
 20
-0.069531
 21
-0.069688
  0
LINE
  8
APS_GEOMETRY
 10
0.104062
 11
0.1025
 20
-0.069688
 21
-0.069219
  0
LINE
  8
APS_GEOMETRY
 10
0.029375
 11
0.03125
 20
-0.069688
 21
-0.069688
  0
LINE
  8
APS_GEOMETRY
 10
0.03125
 11
0.03125
 20
-0.069688
 21
-0.07
  0
LINE
  8
APS_GEOMETRY
 10
0.03125
 11
0.030938
 20
-0.07
 21
-0.07
  0
LINE
  8
APS_GEOMETRY
 10
0.030938
 11
0.030938
 20
-0.07
 21
-0.070156
  0
LINE
  8
APS_GEOMETRY
 10
0.030938
 11
0.029062
 20
-0.070156
 21
-0.070313
  0
LINE
  8
APS_GEOMETRY
 10
0.029062
 11
0.029375
 20
-0.070313
 21
-0.07
  0
LINE
  8
APS_GEOMETRY
 10
0.029375
 11
0.029375
 20
-0.07
 21
-0.069688
  0
LINE
  8
APS_GEOMETRY
 10
0.051562
 11
0.053438
 20
-0.069688
 21
-0.069688
  0
LINE
  8
APS_GEOMETRY
 10
0.053438
 11
0.053438
 20
-0.069688
 21
-0.07
  0
LINE
  8
APS_GEOMETRY
 10
0.053438
 11
0.053125
 20
-0.07
 21
-0.07
  0
LINE
  8
APS_GEOMETRY
 10
0.053125
 11
0.053125
 20
-0.07
 21
-0.070156
  0
LINE
  8
APS_GEOMETRY
 10
0.053125
 11
0.05125
 20
-0.070156
 21
-0.070313
  0
LINE
  8
APS_GEOMETRY
 10
0.05125
 11
0.051562
 20
-0.070313
 21
-0.07
  0
LINE
  8
APS_GEOMETRY
 10
0.051562
 11
0.051562
 20
-0.07
 21
-0.069688
  0
LINE
  8
APS_GEOMETRY
 10
0.104062
 11
0.105469
 20
-0.069688
 21
-0.070156
  0
LINE
  8
APS_GEOMETRY
 10
0.105469
 11
0.105625
 20
-0.070156
 21
-0.070156
  0
LINE
  8
APS_GEOMETRY
 10
0.105625
 11
0.105625
 20
-0.070156
 21
-0.070313
  0
LINE
  8
APS_GEOMETRY
 10
0.105625
 11
0.104062
 20
-0.070313
 21
-0.069688
  0
LINE
  8
APS_GEOMETRY
 10
0.027813
 11
0.029062
 20
-0.070313
 21
-0.070313
  0
LINE
  8
APS_GEOMETRY
 10
0.029062
 11
0.029062
 20
-0.070313
 21
-0.070469
  0
LINE
  8
APS_GEOMETRY
 10
0.029062
 11
0.028906
 20
-0.070469
 21
-0.070469
  0
LINE
  8
APS_GEOMETRY
 10
0.028906
 11
0.028906
 20
-0.070469
 21
-0.070625
  0
ARC
  8
APS_GEOMETRY
 10
0.026044
 20
-0.053451
 40
0.017411
 50
276.340192
 51
279.462322
  0
ARC
  8
APS_GEOMETRY
 10
0.0275
 20
-0.066556
 40
0.004225
 50
270.0
 51
276.340192
  0
LINE
  8
APS_GEOMETRY
 10
0.0275
 11
0.027813
 20
-0.070781
 21
-0.070469
  0
LINE
  8
APS_GEOMETRY
 10
0.027813
 11
0.027813
 20
-0.070469
 21
-0.070313
  0
LINE
  8
APS_GEOMETRY
 10
0.05
 11
0.05125
 20
-0.070313
 21
-0.070313
  0
LINE
  8
APS_GEOMETRY
 10
0.05125
 11
0.05125
 20
-0.070313
 21
-0.070469
  0
LINE
  8
APS_GEOMETRY
 10
0.05125
 11
0.051094
 20
-0.070469
 21
-0.070469
  0
LINE
  8
APS_GEOMETRY
 10
0.051094
 11
0.051094
 20
-0.070469
 21
-0.070625
  0
ARC
  8
APS_GEOMETRY
 10
0.048231
 20
-0.053451
 40
0.017411
 50
276.340192
 51
279.462322
  0
ARC
  8
APS_GEOMETRY
 10
0.049688
 20
-0.066556
 40
0.004225
 50
270.0
 51
276.340192
  0
LINE
  8
APS_GEOMETRY
 10
0.049688
 11
0.05
 20
-0.070781
 21
-0.070469
  0
LINE
  8
APS_GEOMETRY
 10
0.05
 11
0.05
 20
-0.070469
 21
-0.070313
  0
LINE
  8
APS_GEOMETRY
 10
0.105625
 11
0.107656
 20
-0.070313
 21
-0.070625
  0
LINE
  8
APS_GEOMETRY
 10
0.107656
 11
0.107813
 20
-0.070625
 21
-0.070625
  0
LINE
  8
APS_GEOMETRY
 10
0.107813
 11
0.107813
 20
-0.070625
 21
-0.070781
  0
LINE
  8
APS_GEOMETRY
 10
0.107813
 11
0.105625
 20
-0.070781
 21
-0.070313
  0
LINE
  8
APS_GEOMETRY
 10
0.02625
 11
0.0275
 20
-0.070781
 21
-0.070781
  0
LINE
  8
APS_GEOMETRY
 10
0.0275
 11
0.0275
 20
-0.070781
 21
-0.070938
  0
LINE
  8
APS_GEOMETRY
 10
0.0275
 11
0.027344
 20
-0.070938
 21
-0.070938
  0
LINE
  8
APS_GEOMETRY
 10
0.027344
 11
0.027344
 20
-0.070938
 21
-0.071094
  0
ARC
  8
APS_GEOMETRY
 10
0.025831
 20
-0.066557
 40
0.004782
 50
282.528808
 51
288.434949
  0
ARC
  8
APS_GEOMETRY
 10
0.023023
 20
-0.053918
 40
0.01773
 50
279.462322
 51
282.528808
  0
LINE
  8
APS_GEOMETRY
 10
0.025937
 11
0.02625
 20
-0.071406
 21
-0.070938
  0
LINE
  8
APS_GEOMETRY
 10
0.02625
 11
0.02625
 20
-0.070938
 21
-0.070781
  0
LINE
  8
APS_GEOMETRY
 10
0.048437
 11
0.049688
 20
-0.070781
 21
-0.070781
  0
LINE
  8
APS_GEOMETRY
 10
0.049688
 11
0.049688
 20
-0.070781
 21
-0.070938
  0
LINE
  8
APS_GEOMETRY
 10
0.049688
 11
0.049531
 20
-0.070938
 21
-0.070938
  0
LINE
  8
APS_GEOMETRY
 10
0.049531
 11
0.049531
 20
-0.070938
 21
-0.071094
  0
ARC
  8
APS_GEOMETRY
 10
0.052446
 20
-0.088582
 40
0.01773
 50
99.462322
 51
102.528808
  0
ARC
  8
APS_GEOMETRY
 10
0.049637
 20
-0.075943
 40
0.004782
 50
102.528808
 51
108.434949
  0
LINE
  8
APS_GEOMETRY
 10
0.048125
 11
0.048437
 20
-0.071406
 21
-0.070938
  0
LINE
  8
APS_GEOMETRY
 10
0.048437
 11
0.048437
 20
-0.070938
 21
-0.070781
  0
LINE
  8
APS_GEOMETRY
 10
0.107813
 11
0.109219
 20
-0.070781
 21
-0.071094
  0
LINE
  8
APS_GEOMETRY
 10
0.109219
 11
0.109375
 20
-0.071094
 21
-0.071094
  0
LINE
  8
APS_GEOMETRY
 10
0.109375
 11
0.109375
 20
-0.071094
 21
-0.071406
  0
LINE
  8
APS_GEOMETRY
 10
0.109375
 11
0.107813
 20
-0.071406
 21
-0.070781
  0
LINE
  8
APS_GEOMETRY
 10
0.02375
 11
0.025937
 20
-0.071406
 21
-0.071406
  0
LINE
  8
APS_GEOMETRY
 10
0.025937
 11
0.025937
 20
-0.071406
 21
-0.071563
  0
LINE
  8
APS_GEOMETRY
 10
0.025937
 11
0.025781
 20
-0.071563
 21
-0.071563
  0
LINE
  8
APS_GEOMETRY
 10
0.025781
 11
0.025781
 20
-0.071563
 21
-0.071719
  0
LINE
  8
APS_GEOMETRY
 10
0.025781
 11
0.02375
 20
-0.071719
 21
-0.071406
  0
LINE
  8
APS_GEOMETRY
 10
0.046875
 11
0.048125
 20
-0.071406
 21
-0.071406
  0
LINE
  8
APS_GEOMETRY
 10
0.048125
 11
0.048125
 20
-0.071406
 21
-0.071563
  0
LINE
  8
APS_GEOMETRY
 10
0.048125
 11
0.047969
 20
-0.071563
 21
-0.071563
  0
LINE
  8
APS_GEOMETRY
 10
0.047969
 11
0.047969
 20
-0.071563
 21
-0.071719
  0
ARC
  8
APS_GEOMETRY
 10
0.045106
 20
-0.054544
 40
0.017411
 50
276.340192
 51
279.462322
  0
ARC
  8
APS_GEOMETRY
 10
0.046563
 20
-0.06765
 40
0.004225
 50
270.0
 51
276.340192
  0
LINE
  8
APS_GEOMETRY
 10
0.046563
 11
0.046875
 20
-0.071875
 21
-0.071563
  0
LINE
  8
APS_GEOMETRY
 10
0.046875
 11
0.046875
 20
-0.071563
 21
-0.071406
  0
LINE
  8
APS_GEOMETRY
 10
0.109375
 11
0.110781
 20
-0.071406
 21
-0.071719
  0
LINE
  8
APS_GEOMETRY
 10
0.110781
 11
0.110937
 20
-0.071719
 21
-0.071719
  0
LINE
  8
APS_GEOMETRY
 10
0.110937
 11
0.110937
 20
-0.071719
 21
-0.071875
  0
LINE
  8
APS_GEOMETRY
 10
0.110937
 11
0.109375
 20
-0.071875
 21
-0.071406
  0
LINE
  8
APS_GEOMETRY
 10
0.131563
 11
0.132969
 20
-0.071406
 21
-0.071719
  0
LINE
  8
APS_GEOMETRY
 10
0.132969
 11
0.133125
 20
-0.071719
 21
-0.071719
  0
LINE
  8
APS_GEOMETRY
 10
0.133125
 11
0.133125
 20
-0.071719
 21
-0.071875
  0
LINE
  8
APS_GEOMETRY
 10
0.133125
 11
0.131563
 20
-0.071875
 21
-0.071406
  0
LINE
  8
APS_GEOMETRY
 10
0.044687
 11
0.046563
 20
-0.071875
 21
-0.071875
  0
LINE
  8
APS_GEOMETRY
 10
0.046563
 11
0.046563
 20
-0.071875
 21
-0.072031
  0
LINE
  8
APS_GEOMETRY
 10
0.046563
 11
0.04625
 20
-0.072031
 21
-0.072031
  0
LINE
  8
APS_GEOMETRY
 10
0.04625
 11
0.04625
 20
-0.072031
 21
-0.072188
  0
LINE
  8
APS_GEOMETRY
 10
0.04625
 11
0.044375
 20
-0.072188
 21
-0.072344
  0
LINE
  8
APS_GEOMETRY
 10
0.044375
 11
0.044687
 20
-0.072344
 21
-0.072031
  0
LINE
  8
APS_GEOMETRY
 10
0.044687
 11
0.044687
 20
-0.072031
 21
-0.071875
  0
LINE
  8
APS_GEOMETRY
 10
0.110937
 11
0.112344
 20
-0.071875
 21
-0.072188
  0
LINE
  8
APS_GEOMETRY
 10
0.112344
 11
0.1125
 20
-0.072188
 21
-0.072188
  0
LINE
  8
APS_GEOMETRY
 10
0.1125
 11
0.1125
 20
-0.072188
 21
-0.072344
  0
LINE
  8
APS_GEOMETRY
 10
0.1125
 11
0.110937
 20
-0.072344
 21
-0.071875
  0
LINE
  8
APS_GEOMETRY
 10
0.133125
 11
0.134062
 20
-0.071875
 21
-0.072188
  0
LINE
  8
APS_GEOMETRY
 10
0.134062
 11
0.134219
 20
-0.072188
 21
-0.072188
  0
LINE
  8
APS_GEOMETRY
 10
0.134219
 11
0.134219
 20
-0.072188
 21
-0.072344
  0
LINE
  8
APS_GEOMETRY
 10
0.134219
 11
0.133125
 20
-0.072344
 21
-0.071875
  0
LINE
  8
APS_GEOMETRY
 10
0.043125
 11
0.044375
 20
-0.072344
 21
-0.072344
  0
LINE
  8
APS_GEOMETRY
 10
0.044375
 11
0.044375
 20
-0.072344
 21
-0.0725
  0
LINE
  8
APS_GEOMETRY
 10
0.044375
 11
0.044219
 20
-0.0725
 21
-0.0725
  0
LINE
  8
APS_GEOMETRY
 10
0.044219
 11
0.044219
 20
-0.0725
 21
-0.072813
  0
ARC
  8
APS_GEOMETRY
 10
0.044219
 20
-0.077038
 40
0.004225
 50
90.0
 51
96.340192
  0
ARC
  8
APS_GEOMETRY
 10
0.045675
 20
-0.090143
 40
0.017411
 50
96.340192
 51
99.462322
  0
LINE
  8
APS_GEOMETRY
 10
0.042812
 11
0.043125
 20
-0.072969
 21
-0.0725
  0
LINE
  8
APS_GEOMETRY
 10
0.043125
 11
0.043125
 20
-0.0725
 21
-0.072344
  0
LINE
  8
APS_GEOMETRY
 10
0.1125
 11
0.113906
 20
-0.072344
 21
-0.072813
  0
LINE
  8
APS_GEOMETRY
 10
0.113906
 11
0.114062
 20
-0.072813
 21
-0.072813
  0
LINE
  8
APS_GEOMETRY
 10
0.114062
 11
0.114062
 20
-0.072813
 21
-0.072969
  0
LINE
  8
APS_GEOMETRY
 10
0.114062
 11
0.1125
 20
-0.072969
 21
-0.072344
  0
LINE
  8
APS_GEOMETRY
 10
0.134219
 11
0.135625
 20
-0.072344
 21
-0.072813
  0
LINE
  8
APS_GEOMETRY
 10
0.135625
 11
0.135781
 20
-0.072813
 21
-0.072813
  0
LINE
  8
APS_GEOMETRY
 10
0.135781
 11
0.135781
 20
-0.072813
 21
-0.072969
  0
LINE
  8
APS_GEOMETRY
 10
0.135781
 11
0.134219
 20
-0.072969
 21
-0.072344
  0
LINE
  8
APS_GEOMETRY
 10
0.041562
 11
0.042812
 20
-0.072969
 21
-0.072969
  0
LINE
  8
APS_GEOMETRY
 10
0.042812
 11
0.042812
 20
-0.072969
 21
-0.073125
  0
LINE
  8
APS_GEOMETRY
 10
0.042812
 11
0.042656
 20
-0.073125
 21
-0.073125
  0
LINE
  8
APS_GEOMETRY
 10
0.042656
 11
0.042656
 20
-0.073125
 21
-0.073281
  0
ARC
  8
APS_GEOMETRY
 10
0.039794
 20
-0.056107
 40
0.017411
 50
276.340192
 51
279.462322
  0
ARC
  8
APS_GEOMETRY
 10
0.04125
 20
-0.069212
 40
0.004225
 50
270.0
 51
276.340192
  0
LINE
  8
APS_GEOMETRY
 10
0.04125
 11
0.041562
 20
-0.073438
 21
-0.073125
  0
LINE
  8
APS_GEOMETRY
 10
0.041562
 11
0.041562
 20
-0.073125
 21
-0.072969
  0
LINE
  8
APS_GEOMETRY
 10
0.114062
 11
0.115
 20
-0.072969
 21
-0.073281
  0
LINE
  8
APS_GEOMETRY
 10
0.115
 11
0.115156
 20
-0.073281
 21
-0.073281
  0
LINE
  8
APS_GEOMETRY
 10
0.115156
 11
0.115156
 20
-0.073281
 21
-0.073438
  0
LINE
  8
APS_GEOMETRY
 10
0.115156
 11
0.114062
 20
-0.073438
 21
-0.072969
  0
LINE
  8
APS_GEOMETRY
 10
0.135781
 11
0.136719
 20
-0.072969
 21
-0.073281
  0
LINE
  8
APS_GEOMETRY
 10
0.136719
 11
0.136875
 20
-0.073281
 21
-0.073281
  0
LINE
  8
APS_GEOMETRY
 10
0.136875
 11
0.136875
 20
-0.073281
 21
-0.073438
  0
LINE
  8
APS_GEOMETRY
 10
0.136875
 11
0.135781
 20
-0.073438
 21
-0.072969
  0
LINE
  8
APS_GEOMETRY
 10
0.017969
 11
0.019062
 20
-0.073438
 21
-0.073438
  0
LINE
  8
APS_GEOMETRY
 10
0.019062
 11
0.019062
 20
-0.073438
 21
-0.073594
  0
LINE
  8
APS_GEOMETRY
 10
0.019062
 11
0.018906
 20
-0.073594
 21
-0.073594
  0
LINE
  8
APS_GEOMETRY
 10
0.018906
 11
0.018906
 20
-0.073594
 21
-0.07375
  0
ARC
  8
APS_GEOMETRY
 10
0.016956
 20
-0.065951
 40
0.008039
 50
279.462322
 51
284.036243
  0
ARC
  8
APS_GEOMETRY
 10
0.017969
 20
-0.072025
 40
0.001882
 50
270.0
 51
279.462322
  0
LINE
  8
APS_GEOMETRY
 10
0.017969
 11
0.017969
 20
-0.073906
 21
-0.073438
  0
LINE
  8
APS_GEOMETRY
 10
0.04
 11
0.04125
 20
-0.073438
 21
-0.073438
  0
LINE
  8
APS_GEOMETRY
 10
0.04125
 11
0.04125
 20
-0.073438
 21
-0.073594
  0
LINE
  8
APS_GEOMETRY
 10
0.04125
 11
0.041094
 20
-0.073594
 21
-0.073594
  0
LINE
  8
APS_GEOMETRY
 10
0.041094
 11
0.041094
 20
-0.073594
 21
-0.07375
  0
ARC
  8
APS_GEOMETRY
 10
0.038231
 20
-0.056576
 40
0.017411
 50
276.340192
 51
279.462322
  0
ARC
  8
APS_GEOMETRY
 10
0.039688
 20
-0.069681
 40
0.004225
 50
270.0
 51
276.340192
  0
LINE
  8
APS_GEOMETRY
 10
0.039688
 11
0.04
 20
-0.073906
 21
-0.073594
  0
LINE
  8
APS_GEOMETRY
 10
0.04
 11
0.04
 20
-0.073594
 21
-0.073438
  0
LINE
  8
APS_GEOMETRY
 10
0.115156
 11
0.116563
 20
-0.073438
 21
-0.07375
  0
LINE
  8
APS_GEOMETRY
 10
0.116563
 11
0.116719
 20
-0.07375
 21
-0.07375
  0
LINE
  8
APS_GEOMETRY
 10
0.116719
 11
0.116719
 20
-0.07375
 21
-0.073906
  0
LINE
  8
APS_GEOMETRY
 10
0.116719
 11
0.115156
 20
-0.073906
 21
-0.073438
  0
LINE
  8
APS_GEOMETRY
 10
0.136875
 11
0.137656
 20
-0.073438
 21
-0.07375
  0
LINE
  8
APS_GEOMETRY
 10
0.137656
 11
0.137969
 20
-0.07375
 21
-0.07375
  0
LINE
  8
APS_GEOMETRY
 10
0.137969
 11
0.137969
 20
-0.07375
 21
-0.073906
  0
LINE
  8
APS_GEOMETRY
 10
0.137969
 11
0.136875
 20
-0.073906
 21
-0.073438
  0
LINE
  8
APS_GEOMETRY
 10
0.038437
 11
0.039688
 20
-0.073906
 21
-0.073906
  0
LINE
  8
APS_GEOMETRY
 10
0.039688
 11
0.039688
 20
-0.073906
 21
-0.074219
  0
LINE
  8
APS_GEOMETRY
 10
0.039688
 11
0.039375
 20
-0.074219
 21
-0.074219
  0
LINE
  8
APS_GEOMETRY
 10
0.039375
 11
0.039375
 20
-0.074219
 21
-0.074375
  0
ARC
  8
APS_GEOMETRY
 10
0.039375
 20
-0.0786
 40
0.004225
 50
90.0
 51
96.340192
  0
ARC
  8
APS_GEOMETRY
 10
0.040831
 20
-0.091706
 40
0.017411
 50
96.340192
 51
99.462322
  0
LINE
  8
APS_GEOMETRY
 10
0.037969
 11
0.038437
 20
-0.074531
 21
-0.074219
  0
LINE
  8
APS_GEOMETRY
 10
0.038437
 11
0.038437
 20
-0.074219
 21
-0.073906
  0
LINE
  8
APS_GEOMETRY
 10
0.116719
 11
0.118125
 20
-0.073906
 21
-0.074375
  0
LINE
  8
APS_GEOMETRY
 10
0.118125
 11
0.118281
 20
-0.074375
 21
-0.074375
  0
LINE
  8
APS_GEOMETRY
 10
0.118281
 11
0.118281
 20
-0.074375
 21
-0.074531
  0
LINE
  8
APS_GEOMETRY
 10
0.118281
 11
0.116719
 20
-0.074531
 21
-0.073906
  0
LINE
  8
APS_GEOMETRY
 10
0.137969
 11
0.13875
 20
-0.073906
 21
-0.074375
  0
LINE
  8
APS_GEOMETRY
 10
0.13875
 11
0.138906
 20
-0.074375
 21
-0.074375
  0
LINE
  8
APS_GEOMETRY
 10
0.138906
 11
0.138906
 20
-0.074375
 21
-0.074531
  0
LINE
  8
APS_GEOMETRY
 10
0.138906
 11
0.137969
 20
-0.074531
 21
-0.073906
  0
LINE
  8
APS_GEOMETRY
 10
0.037344
 11
0.037969
 20
-0.074531
 21
-0.074531
  0
LINE
  8
APS_GEOMETRY
 10
0.037969
 11
0.037969
 20
-0.074531
 21
-0.074688
  0
LINE
  8
APS_GEOMETRY
 10
0.037969
 11
0.037813
 20
-0.074688
 21
-0.074688
  0
LINE
  8
APS_GEOMETRY
 10
0.037813
 11
0.037813
 20
-0.074688
 21
-0.074844
  0
ARC
  8
APS_GEOMETRY
 10
0.037813
 20
-0.076412
 40
0.001568
 50
90.0
 51
101.309932
  0
ARC
  8
APS_GEOMETRY
 10
0.038278
 20
-0.078741
 40
0.003944
 50
101.309932
 51
108.434949
  0
LINE
  8
APS_GEOMETRY
 10
0.037031
 11
0.037344
 20
-0.075
 21
-0.074688
  0
LINE
  8
APS_GEOMETRY
 10
0.037344
 11
0.037344
 20
-0.074688
 21
-0.074531
  0
LINE
  8
APS_GEOMETRY
 10
0.118281
 11
0.119219
 20
-0.074531
 21
-0.074844
  0
LINE
  8
APS_GEOMETRY
 10
0.119219
 11
0.119375
 20
-0.074844
 21
-0.074844
  0
LINE
  8
APS_GEOMETRY
 10
0.119375
 11
0.119375
 20
-0.074844
 21
-0.075
  0
LINE
  8
APS_GEOMETRY
 10
0.119375
 11
0.118281
 20
-0.075
 21
-0.074531
  0
LINE
  8
APS_GEOMETRY
 10
0.138906
 11
0.139844
 20
-0.074531
 21
-0.074844
  0
LINE
  8
APS_GEOMETRY
 10
0.139844
 11
0.14
 20
-0.074844
 21
-0.074844
  0
LINE
  8
APS_GEOMETRY
 10
0.14
 11
0.14
 20
-0.074844
 21
-0.075
  0
LINE
  8
APS_GEOMETRY
 10
0.14
 11
0.138906
 20
-0.075
 21
-0.074531
  0
LINE
  8
APS_GEOMETRY
 10
0.035781
 11
0.037031
 20
-0.075
 21
-0.075
  0
LINE
  8
APS_GEOMETRY
 10
0.037031
 11
0.037031
 20
-0.075
 21
-0.075156
  0
LINE
  8
APS_GEOMETRY
 10
0.037031
 11
0.036875
 20
-0.075156
 21
-0.075156
  0
LINE
  8
APS_GEOMETRY
 10
0.036875
 11
0.036875
 20
-0.075156
 21
-0.075313
  0
ARC
  8
APS_GEOMETRY
 10
0.03979
 20
-0.092801
 40
0.01773
 50
99.462322
 51
102.528808
  0
ARC
  8
APS_GEOMETRY
 10
0.036981
 20
-0.080162
 40
0.004782
 50
102.528808
 51
108.434949
  0
LINE
  8
APS_GEOMETRY
 10
0.035469
 11
0.035781
 20
-0.075625
 21
-0.075156
  0
LINE
  8
APS_GEOMETRY
 10
0.035781
 11
0.035781
 20
-0.075156
 21
-0.075
  0
LINE
  8
APS_GEOMETRY
 10
0.119375
 11
0.120781
 20
-0.075
 21
-0.075313
  0
LINE
  8
APS_GEOMETRY
 10
0.120781
 11
0.120937
 20
-0.075313
 21
-0.075313
  0
LINE
  8
APS_GEOMETRY
 10
0.120937
 11
0.120937
 20
-0.075313
 21
-0.075625
  0
LINE
  8
APS_GEOMETRY
 10
0.120937
 11
0.119375
 20
-0.075625
 21
-0.075
  0
LINE
  8
APS_GEOMETRY
 10
0.14
 11
0.140937
 20
-0.075
 21
-0.075313
  0
LINE
  8
APS_GEOMETRY
 10
0.140937
 11
0.141094
 20
-0.075313
 21
-0.075313
  0
LINE
  8
APS_GEOMETRY
 10
0.141094
 11
0.141094
 20
-0.075313
 21
-0.075625
  0
LINE
  8
APS_GEOMETRY
 10
0.141094
 11
0.14
 20
-0.075625
 21
-0.075
  0
LINE
  8
APS_GEOMETRY
 10
0.034219
 11
0.035469
 20
-0.075625
 21
-0.075625
  0
LINE
  8
APS_GEOMETRY
 10
0.035469
 11
0.035469
 20
-0.075625
 21
-0.075781
  0
LINE
  8
APS_GEOMETRY
 10
0.035469
 11
0.035156
 20
-0.075781
 21
-0.075781
  0
LINE
  8
APS_GEOMETRY
 10
0.035156
 11
0.035156
 20
-0.075781
 21
-0.075938
  0
ARC
  8
APS_GEOMETRY
 10
0.032294
 20
-0.058763
 40
0.017411
 50
276.340192
 51
279.462322
  0
ARC
  8
APS_GEOMETRY
 10
0.03375
 20
-0.071868
 40
0.004225
 50
270.0
 51
276.340192
  0
LINE
  8
APS_GEOMETRY
 10
0.03375
 11
0.034219
 20
-0.076094
 21
-0.075781
  0
LINE
  8
APS_GEOMETRY
 10
0.034219
 11
0.034219
 20
-0.075781
 21
-0.075625
  0
LINE
  8
APS_GEOMETRY
 10
0.141094
 11
0.142031
 20
-0.075625
 21
-0.075938
  0
LINE
  8
APS_GEOMETRY
 10
0.142031
 11
0.142187
 20
-0.075938
 21
-0.075938
  0
LINE
  8
APS_GEOMETRY
 10
0.142187
 11
0.142187
 20
-0.075938
 21
-0.076094
  0
LINE
  8
APS_GEOMETRY
 10
0.142187
 11
0.141094
 20
-0.076094
 21
-0.075625
  0
LINE
  8
APS_GEOMETRY
 10
0.033125
 11
0.03375
 20
-0.076094
 21
-0.076094
  0
LINE
  8
APS_GEOMETRY
 10
0.03375
 11
0.03375
 20
-0.076094
 21
-0.07625
  0
LINE
  8
APS_GEOMETRY
 10
0.03375
 11
0.033594
 20
-0.07625
 21
-0.07625
  0
LINE
  8
APS_GEOMETRY
 10
0.033594
 11
0.033594
 20
-0.07625
 21
-0.076406
  0
ARC
  8
APS_GEOMETRY
 10
0.033018
 20
-0.075255
 40
0.001287
 50
281.309932
 51
296.565051
  0
ARC
  8
APS_GEOMETRY
 10
0.032812
 20
-0.074227
 40
0.002336
 50
270.0
 51
281.309932
  0
LINE
  8
APS_GEOMETRY
 10
0.032812
 11
0.033125
 20
-0.076563
 21
-0.07625
  0
LINE
  8
APS_GEOMETRY
 10
0.033125
 11
0.033125
 20
-0.07625
 21
-0.076094
  0
LINE
  8
APS_GEOMETRY
 10
0.142187
 11
0.142969
 20
-0.076094
 21
-0.076406
  0
LINE
  8
APS_GEOMETRY
 10
0.142969
 11
0.143125
 20
-0.076406
 21
-0.076406
  0
LINE
  8
APS_GEOMETRY
 10
0.143125
 11
0.143125
 20
-0.076406
 21
-0.076563
  0
LINE
  8
APS_GEOMETRY
 10
0.143125
 11
0.142187
 20
-0.076563
 21
-0.076094
  0
LINE
  8
APS_GEOMETRY
 10
0.010938
 11
0.011562
 20
-0.076563
 21
-0.076563
  0
LINE
  8
APS_GEOMETRY
 10
0.011562
 11
0.011562
 20
-0.076563
 21
-0.076875
  0
LINE
  8
APS_GEOMETRY
 10
0.011562
 11
0.011406
 20
-0.076875
 21
-0.076875
  0
LINE
  8
APS_GEOMETRY
 10
0.011406
 11
0.011406
 20
-0.076875
 21
-0.077031
  0
ARC
  8
APS_GEOMETRY
 10
0.011406
 20
-0.078599
 40
0.001568
 50
90.0
 51
101.309932
  0
ARC
  8
APS_GEOMETRY
 10
0.011872
 20
-0.080929
 40
0.003944
 50
101.309932
 51
108.434949
  0
LINE
  8
APS_GEOMETRY
 10
0.010625
 11
0.010938
 20
-0.077188
 21
-0.076875
  0
LINE
  8
APS_GEOMETRY
 10
0.010938
 11
0.010938
 20
-0.076875
 21
-0.076563
  0
LINE
  8
APS_GEOMETRY
 10
0.031562
 11
0.032812
 20
-0.076563
 21
-0.076563
  0
LINE
  8
APS_GEOMETRY
 10
0.032812
 11
0.032812
 20
-0.076563
 21
-0.076875
  0
LINE
  8
APS_GEOMETRY
 10
0.032812
 11
0.032656
 20
-0.076875
 21
-0.076875
  0
LINE
  8
APS_GEOMETRY
 10
0.032656
 11
0.032656
 20
-0.076875
 21
-0.077031
  0
ARC
  8
APS_GEOMETRY
 10
0.032656
 20
-0.081257
 40
0.004225
 50
90.0
 51
96.340192
  0
ARC
  8
APS_GEOMETRY
 10
0.034112
 20
-0.094362
 40
0.017411
 50
96.340192
 51
99.462322
  0
LINE
  8
APS_GEOMETRY
 10
0.03125
 11
0.031562
 20
-0.077188
 21
-0.076875
  0
LINE
  8
APS_GEOMETRY
 10
0.031562
 11
0.031562
 20
-0.076875
 21
-0.076563
  0
LINE
  8
APS_GEOMETRY
 10
0.009844
 11
0.010625
 20
-0.077188
 21
-0.077188
  0
LINE
  8
APS_GEOMETRY
 10
0.010625
 11
0.010625
 20
-0.077188
 21
-0.077344
  0
LINE
  8
APS_GEOMETRY
 10
0.010625
 11
0.010469
 20
-0.077344
 21
-0.077344
  0
LINE
  8
APS_GEOMETRY
 10
0.010469
 11
0.010469
 20
-0.077344
 21
-0.0775
  0
ARC
  8
APS_GEOMETRY
 10
0.010469
 20
-0.079382
 40
0.001882
 50
90.0
 51
99.462322
  0
ARC
  8
APS_GEOMETRY
 10
0.011481
 20
-0.085455
 40
0.008039
 50
99.462322
 51
104.036243
  0
LINE
  8
APS_GEOMETRY
 10
0.009531
 11
0.009844
 20
-0.077656
 21
-0.077344
  0
LINE
  8
APS_GEOMETRY
 10
0.009844
 11
0.009844
 20
-0.077344
 21
-0.077188
  0
LINE
  8
APS_GEOMETRY
 10
0.030469
 11
0.03125
 20
-0.077188
 21
-0.077188
  0
LINE
  8
APS_GEOMETRY
 10
0.03125
 11
0.03125
 20
-0.077188
 21
-0.077344
  0
LINE
  8
APS_GEOMETRY
 10
0.03125
 11
0.030938
 20
-0.077344
 21
-0.077344
  0
LINE
  8
APS_GEOMETRY
 10
0.030938
 11
0.030938
 20
-0.077344
 21
-0.0775
  0
ARC
  8
APS_GEOMETRY
 10
0.030938
 20
-0.079068
 40
0.001568
 50
90.0
 51
101.309932
  0
ARC
  8
APS_GEOMETRY
 10
0.031403
 20
-0.081398
 40
0.003944
 50
101.309932
 51
108.434949
  0
LINE
  8
APS_GEOMETRY
 10
0.030156
 11
0.030469
 20
-0.077656
 21
-0.077344
  0
LINE
  8
APS_GEOMETRY
 10
0.030469
 11
0.030469
 20
-0.077344
 21
-0.077188
  0
LINE
  8
APS_GEOMETRY
 10
0.14375
 11
0.144531
 20
-0.077188
 21
-0.0775
  0
LINE
  8
APS_GEOMETRY
 10
0.144531
 11
0.144844
 20
-0.0775
 21
-0.0775
  0
LINE
  8
APS_GEOMETRY
 10
0.144844
 11
0.144844
 20
-0.0775
 21
-0.077656
  0
LINE
  8
APS_GEOMETRY
 10
0.144844
 11
0.14375
 20
-0.077656
 21
-0.077188
  0
LINE
  8
APS_GEOMETRY
 10
0.00875
 11
0.009531
 20
-0.077656
 21
-0.077656
  0
LINE
  8
APS_GEOMETRY
 10
0.009531
 11
0.009531
 20
-0.077656
 21
-0.077813
  0
LINE
  8
APS_GEOMETRY
 10
0.009531
 11
0.009375
 20
-0.077813
 21
-0.077813
  0
LINE
  8
APS_GEOMETRY
 10
0.009375
 11
0.009375
 20
-0.077813
 21
-0.077969
  0
ARC
  8
APS_GEOMETRY
 10
0.011404
 20
-0.086084
 40
0.008365
 50
104.036243
 51
108.434949
  0
ARC
  8
APS_GEOMETRY
 10
0.009534
 20
-0.080474
 40
0.002451
 50
108.434949
 51
116.565051
  0
LINE
  8
APS_GEOMETRY
 10
0.008438
 11
0.00875
 20
-0.078281
 21
-0.077813
  0
LINE
  8
APS_GEOMETRY
 10
0.00875
 11
0.00875
 20
-0.077813
 21
-0.077656
  0
LINE
  8
APS_GEOMETRY
 10
0.028906
 11
0.030156
 20
-0.077656
 21
-0.077656
  0
LINE
  8
APS_GEOMETRY
 10
0.030156
 11
0.030156
 20
-0.077656
 21
-0.077813
  0
LINE
  8
APS_GEOMETRY
 10
0.030156
 11
0.03
 20
-0.077813
 21
-0.077813
  0
LINE
  8
APS_GEOMETRY
 10
0.03
 11
0.03
 20
-0.077813
 21
-0.077969
  0
ARC
  8
APS_GEOMETRY
 10
0.032915
 20
-0.095457
 40
0.01773
 50
99.462322
 51
102.528808
  0
ARC
  8
APS_GEOMETRY
 10
0.030106
 20
-0.082818
 40
0.004782
 50
102.528808
 51
108.434949
  0
LINE
  8
APS_GEOMETRY
 10
0.028594
 11
0.028906
 20
-0.078281
 21
-0.077813
  0
LINE
  8
APS_GEOMETRY
 10
0.028906
 11
0.028906
 20
-0.077813
 21
-0.077656
  0
LINE
  8
APS_GEOMETRY
 10
0.027813
 11
0.028594
 20
-0.078281
 21
-0.078281
  0
LINE
  8
APS_GEOMETRY
 10
0.028594
 11
0.028594
 20
-0.078281
 21
-0.078438
  0
LINE
  8
APS_GEOMETRY
 10
0.028594
 11
0.028281
 20
-0.078438
 21
-0.078438
  0
LINE
  8
APS_GEOMETRY
 10
0.028281
 11
0.028281
 20
-0.078438
 21
-0.078594
  0
ARC
  8
APS_GEOMETRY
 10
0.028281
 20
-0.080162
 40
0.001568
 50
90.0
 51
101.309932
  0
ARC
  8
APS_GEOMETRY
 10
0.028747
 20
-0.082491
 40
0.003944
 50
101.309932
 51
108.434949
  0
LINE
  8
APS_GEOMETRY
 10
0.0275
 11
0.027813
 20
-0.07875
 21
-0.078438
  0
LINE
  8
APS_GEOMETRY
 10
0.027813
 11
0.027813
 20
-0.078438
 21
-0.078281
  0
LINE
  8
APS_GEOMETRY
 10
0.126875
 11
0.127656
 20
-0.078281
 21
-0.078594
  0
LINE
  8
APS_GEOMETRY
 10
0.127656
 11
0.127813
 20
-0.078594
 21
-0.078594
  0
LINE
  8
APS_GEOMETRY
 10
0.127813
 11
0.127813
 20
-0.078594
 21
-0.07875
  0
LINE
  8
APS_GEOMETRY
 10
0.127813
 11
0.126875
 20
-0.07875
 21
-0.078281
  0
ARC
  8
APS_GEOMETRY
 10
0.145312
 20
-0.080133
 40
0.001852
 50
71.565051
 51
90.0
  0
ARC
  8
APS_GEOMETRY
 10
0.145613
 20
-0.07923
 40
0.0009
 50
45.0
 51
71.565051
  0
LINE
  8
APS_GEOMETRY
 10
0.14625
 11
0.146406
 20
-0.078594
 21
-0.078594
  0
LINE
  8
APS_GEOMETRY
 10
0.146406
 11
0.146406
 20
-0.078594
 21
-0.07875
  0
LINE
  8
APS_GEOMETRY
 10
0.146406
 11
0.145312
 20
-0.07875
 21
-0.078281
  0
LINE
  8
APS_GEOMETRY
 10
0.007187
 11
0.007969
 20
-0.07875
 21
-0.07875
  0
LINE
  8
APS_GEOMETRY
 10
0.007969
 11
0.007969
 20
-0.07875
 21
-0.078906
  0
LINE
  8
APS_GEOMETRY
 10
0.007969
 11
0.007813
 20
-0.078906
 21
-0.078906
  0
LINE
  8
APS_GEOMETRY
 10
0.007813
 11
0.007813
 20
-0.078906
 21
-0.079063
  0
ARC
  8
APS_GEOMETRY
 10
0.007299
 20
-0.078036
 40
0.001147
 50
279.462322
 51
296.565051
  0
ARC
  8
APS_GEOMETRY
 10
0.006875
 20
-0.07549
 40
0.003729
 50
270.0
 51
279.462322
  0
LINE
  8
APS_GEOMETRY
 10
0.006875
 11
0.007187
 20
-0.079219
 21
-0.078906
  0
LINE
  8
APS_GEOMETRY
 10
0.007187
 11
0.007187
 20
-0.078906
 21
-0.07875
  0
LINE
  8
APS_GEOMETRY
 10
0.026719
 11
0.0275
 20
-0.07875
 21
-0.07875
  0
LINE
  8
APS_GEOMETRY
 10
0.0275
 11
0.0275
 20
-0.07875
 21
-0.078906
  0
LINE
  8
APS_GEOMETRY
 10
0.0275
 11
0.027344
 20
-0.078906
 21
-0.078906
  0
LINE
  8
APS_GEOMETRY
 10
0.027344
 11
0.027344
 20
-0.078906
 21
-0.079063
  0
ARC
  8
APS_GEOMETRY
 10
0.026831
 20
-0.078036
 40
0.001147
 50
279.462322
 51
296.565051
  0
ARC
  8
APS_GEOMETRY
 10
0.026406
 20
-0.07549
 40
0.003729
 50
270.0
 51
279.462322
  0
LINE
  8
APS_GEOMETRY
 10
0.026406
 11
0.026719
 20
-0.079219
 21
-0.078906
  0
LINE
  8
APS_GEOMETRY
 10
0.026719
 11
0.026719
 20
-0.078906
 21
-0.07875
  0
LINE
  8
APS_GEOMETRY
 10
0.127813
 11
0.12875
 20
-0.07875
 21
-0.079063
  0
LINE
  8
APS_GEOMETRY
 10
0.12875
 11
0.128906
 20
-0.079063
 21
-0.079063
  0
LINE
  8
APS_GEOMETRY
 10
0.128906
 11
0.128906
 20
-0.079063
 21
-0.079219
  0
LINE
  8
APS_GEOMETRY
 10
0.128906
 11
0.127813
 20
-0.079219
 21
-0.07875
  0
LINE
  8
APS_GEOMETRY
 10
0.025781
 11
0.026406
 20
-0.079219
 21
-0.079219
  0
LINE
  8
APS_GEOMETRY
 10
0.026406
 11
0.026406
 20
-0.079219
 21
-0.079375
  0
LINE
  8
APS_GEOMETRY
 10
0.026406
 11
0.02625
 20
-0.079375
 21
-0.079375
  0
LINE
  8
APS_GEOMETRY
 10
0.02625
 11
0.02625
 20
-0.079375
 21
-0.079688
  0
ARC
  8
APS_GEOMETRY
 10
0.02625
 20
-0.081569
 40
0.001882
 50
90.0
 51
99.462322
  0
ARC
  8
APS_GEOMETRY
 10
0.027262
 20
-0.087643
 40
0.008039
 50
99.462322
 51
104.036243
  0
LINE
  8
APS_GEOMETRY
 10
0.025313
 11
0.025781
 20
-0.079844
 21
-0.079375
  0
LINE
  8
APS_GEOMETRY
 10
0.025781
 11
0.025781
 20
-0.079375
 21
-0.079219
  0
LINE
  8
APS_GEOMETRY
 10
0.128906
 11
0.129844
 20
-0.079219
 21
-0.079688
  0
LINE
  8
APS_GEOMETRY
 10
0.129844
 11
0.13
 20
-0.079688
 21
-0.079688
  0
LINE
  8
APS_GEOMETRY
 10
0.13
 11
0.13
 20
-0.079688
 21
-0.079844
  0
LINE
  8
APS_GEOMETRY
 10
0.13
 11
0.128906
 20
-0.079844
 21
-0.079219
  0
LINE
  8
APS_GEOMETRY
 10
0.146875
 11
0.147813
 20
-0.079219
 21
-0.079688
  0
LINE
  8
APS_GEOMETRY
 10
0.147813
 11
0.147969
 20
-0.079688
 21
-0.079688
  0
LINE
  8
APS_GEOMETRY
 10
0.147969
 11
0.147969
 20
-0.079688
 21
-0.079844
  0
LINE
  8
APS_GEOMETRY
 10
0.147969
 11
0.146875
 20
-0.079844
 21
-0.079219
  0
LINE
  8
APS_GEOMETRY
 10
0.13
 11
0.130937
 20
-0.079844
 21
-0.080156
  0
LINE
  8
APS_GEOMETRY
 10
0.130937
 11
0.131094
 20
-0.080156
 21
-0.080156
  0
LINE
  8
APS_GEOMETRY
 10
0.131094
 11
0.131094
 20
-0.080156
 21
-0.080313
  0
LINE
  8
APS_GEOMETRY
 10
0.131094
 11
0.13
 20
-0.080313
 21
-0.079844
  0
LINE
  8
APS_GEOMETRY
 10
0.131094
 11
0.131875
 20
-0.080313
 21
-0.080625
  0
LINE
  8
APS_GEOMETRY
 10
0.131875
 11
0.132031
 20
-0.080625
 21
-0.080625
  0
LINE
  8
APS_GEOMETRY
 10
0.132031
 11
0.132031
 20
-0.080625
 21
-0.080781
  0
LINE
  8
APS_GEOMETRY
 10
0.132031
 11
0.131094
 20
-0.080781
 21
-0.080313
  0
LINE
  8
APS_GEOMETRY
 10
0.004531
 11
0.005313
 20
-0.080781
 21
-0.080781
  0
LINE
  8
APS_GEOMETRY
 10
0.005313
 11
0.005313
 20
-0.080781
 21
-0.081094
  0
LINE
  8
APS_GEOMETRY
 10
0.005313
 11
0.005156
 20
-0.081094
 21
-0.081094
  0
LINE
  8
APS_GEOMETRY
 10
0.005156
 11
0.005156
 20
-0.081094
 21
-0.08125
  0
ARC
  8
APS_GEOMETRY
 10
0.005156
 20
-0.084979
 40
0.003729
 50
90.0
 51
99.462322
  0
ARC
  8
APS_GEOMETRY
 10
0.004732
 20
-0.082432
 40
0.001147
 50
99.462322
 51
116.565051
  0
LINE
  8
APS_GEOMETRY
 10
0.004219
 11
0.004531
 20
-0.081406
 21
-0.081094
  0
LINE
  8
APS_GEOMETRY
 10
0.004531
 11
0.004531
 20
-0.081094
 21
-0.080781
  0
LINE
  8
APS_GEOMETRY
 10
0.132656
 11
0.133438
 20
-0.081406
 21
-0.081719
  0
LINE
  8
APS_GEOMETRY
 10
0.133438
 11
0.13375
 20
-0.081719
 21
-0.081719
  0
LINE
  8
APS_GEOMETRY
 10
0.13375
 11
0.13375
 20
-0.081719
 21
-0.081875
  0
LINE
  8
APS_GEOMETRY
 10
0.13375
 11
0.132656
 20
-0.081875
 21
-0.081406
  0
LINE
  8
APS_GEOMETRY
 10
0.13375
 11
0.134531
 20
-0.081875
 21
-0.082188
  0
LINE
  8
APS_GEOMETRY
 10
0.134531
 11
0.134688
 20
-0.082188
 21
-0.082188
  0
LINE
  8
APS_GEOMETRY
 10
0.134688
 11
0.134688
 20
-0.082188
 21
-0.0825
  0
LINE
  8
APS_GEOMETRY
 10
0.134688
 11
0.13375
 20
-0.0825
 21
-0.081875
  0
LINE
  8
APS_GEOMETRY
 10
0.018906
 11
0.019531
 20
-0.082969
 21
-0.082969
  0
LINE
  8
APS_GEOMETRY
 10
0.019531
 11
0.019531
 20
-0.082969
 21
-0.083125
  0
LINE
  8
APS_GEOMETRY
 10
0.019531
 11
0.019375
 20
-0.083125
 21
-0.083125
  0
LINE
  8
APS_GEOMETRY
 10
0.019375
 11
0.019375
 20
-0.083125
 21
-0.083281
  0
ARC
  8
APS_GEOMETRY
 10
0.017425
 20
-0.075482
 40
0.008039
 50
279.462322
 51
284.036243
  0
ARC
  8
APS_GEOMETRY
 10
0.018438
 20
-0.081556
 40
0.001882
 50
270.0
 51
279.462322
  0
LINE
  8
APS_GEOMETRY
 10
0.018438
 11
0.018906
 20
-0.083438
 21
-0.083125
  0
LINE
  8
APS_GEOMETRY
 10
0.018906
 11
0.018906
 20
-0.083125
 21
-0.082969
  0
LINE
  8
APS_GEOMETRY
 10
0.135312
 11
0.136094
 20
-0.082969
 21
-0.083281
  0
LINE
  8
APS_GEOMETRY
 10
0.136094
 11
0.13625
 20
-0.083281
 21
-0.083281
  0
LINE
  8
APS_GEOMETRY
 10
0.13625
 11
0.13625
 20
-0.083281
 21
-0.083438
  0
LINE
  8
APS_GEOMETRY
 10
0.13625
 11
0.135312
 20
-0.083438
 21
-0.082969
  0
LINE
  8
APS_GEOMETRY
 10
0.017813
 11
0.018438
 20
-0.083438
 21
-0.083438
  0
LINE
  8
APS_GEOMETRY
 10
0.018438
 11
0.018438
 20
-0.083438
 21
-0.083594
  0
LINE
  8
APS_GEOMETRY
 10
0.018438
 11
0.018281
 20
-0.083594
 21
-0.083594
  0
LINE
  8
APS_GEOMETRY
 10
0.018281
 11
0.018281
 20
-0.083594
 21
-0.083906
  0
ARC
  8
APS_GEOMETRY
 10
0.018281
 20
-0.086968
 40
0.003061
 50
90.0
 51
101.309932
  0
ARC
  8
APS_GEOMETRY
 10
0.01775
 20
-0.084313
 40
0.000354
 50
101.309932
 51
135.0
  0
LINE
  8
APS_GEOMETRY
 10
0.0175
 11
0.017813
 20
-0.084063
 21
-0.083594
  0
LINE
  8
APS_GEOMETRY
 10
0.017813
 11
0.017813
 20
-0.083594
 21
-0.083438
  0
ARC
  8
APS_GEOMETRY
 10
0.045696
 20
-0.073466
 40
0.010683
 50
279.462322
 51
291.037511
  0
ARC
  8
APS_GEOMETRY
 10
0.039742
 20
-0.03774
 40
0.046902
 50
273.945186
 51
279.462322
  0
ARC
  8
APS_GEOMETRY
 10
0.048587
 20
-0.165996
 40
0.081658
 50
93.945186
 51
97.125016
  0
ARC
  8
APS_GEOMETRY
 10
0.04001
 20
-0.097381
 40
0.012509
 50
97.125016
 51
105.255119
  0
ARC
  8
APS_GEOMETRY
 10
0.040646
 20
-0.098468
 40
0.013729
 50
106.620757
 51
145.64062
  0
ARC
  8
APS_GEOMETRY
 10
0.043801
 20
-0.100625
 40
0.017551
 50
145.64062
 51
180.0
  0
ARC
  8
APS_GEOMETRY
 10
0.045578
 20
-0.100625
 40
0.019328
 50
180.0
 51
192.804266
  0
ARC
  8
APS_GEOMETRY
 10
0.067124
 20
-0.095728
 40
0.041423
 50
192.804266
 51
201.540976
  0
ARC
  8
APS_GEOMETRY
 10
0.046373
 20
-0.10398
 40
0.019092
 50
201.370622
 51
222.397438
  0
ARC
  8
APS_GEOMETRY
 10
0.035156
 20
-0.114222
 40
0.003903
 50
222.397438
 51
270.0
  0
LINE
  8
APS_GEOMETRY
 10
0.035156
 11
0.035156
 20
-0.118125
 21
-0.117969
  0
LINE
  8
APS_GEOMETRY
 10
0.035156
 11
0.035469
 20
-0.117969
 21
-0.117969
  0
LINE
  8
APS_GEOMETRY
 10
0.035469
 11
0.035469
 20
-0.117969
 21
-0.105469
  0
LINE
  8
APS_GEOMETRY
 10
0.035469
 11
0.035937
 20
-0.105469
 21
-0.105469
  0
ARC
  8
APS_GEOMETRY
 10
0.064232
 20
-0.105469
 40
0.028294
 50
180.0
 51
207.012665
  0
ARC
  8
APS_GEOMETRY
 10
0.044063
 20
-0.115751
 40
0.005655
 50
207.012665
 51
270.0
  0
ARC
  8
APS_GEOMETRY
 10
0.044063
 20
-0.114742
 40
0.006664
 50
270.0
 51
301.70143
  0
ARC
  8
APS_GEOMETRY
 10
0.045316
 20
-0.116772
 40
0.004278
 50
301.70143
 51
341.565051
  0
LINE
  8
APS_GEOMETRY
 10
0.049375
 11
0.049688
 20
-0.118125
 21
-0.110938
  0
ARC
  8
APS_GEOMETRY
 10
0.084436
 20
-0.11196
 40
0.034763
 50
171.579346
 51
178.315316
  0
ARC
  8
APS_GEOMETRY
 10
0.050191
 20
-0.106894
 40
0.001147
 50
75.963757
 51
171.384352
  0
ARC
  8
APS_GEOMETRY
 10
0.050248
 20
-0.106998
 40
0.001237
 50
12.994617
 51
79.695154
  0
ARC
  8
APS_GEOMETRY
 10
0.017272
 20
-0.114608
 40
0.035079
 50
1.145763
 51
12.994617
  0
ARC
  8
APS_GEOMETRY
 10
0.055
 20
-0.113906
 40
0.002656
 50
180.0
 51
225.0
  0
ARC
  8
APS_GEOMETRY
 10
0.055
 20
-0.113906
 40
0.002656
 50
225.0
 51
270.0
  0
ARC
  8
APS_GEOMETRY
 10
0.055
 20
-0.105751
 40
0.010811
 50
270.0
 51
294.70243
  0
ARC
  8
APS_GEOMETRY
 10
0.055793
 20
-0.107475
 40
0.008914
 50
294.70243
 51
321.952957
  0
ARC
  8
APS_GEOMETRY
 10
0.06156
 20
-0.111967
 40
0.001604
 50
321.340192
 51
355.601295
  0
ARC
  8
APS_GEOMETRY
 10
-0.031041
 20
-0.104844
 40
0.094478
 50
355.601295
 51
0.0
  0
ARC
  8
APS_GEOMETRY
 10
-0.023554
 20
-0.104844
 40
0.086991
 50
0.0
 51
7.125016
  0
ARC
  8
APS_GEOMETRY
 10
0.048606
 20
-0.095824
 40
0.01427
 50
7.125016
 51
24.775141
  0
ARC
  8
APS_GEOMETRY
 10
0.052817
 20
-0.093896
 40
0.009639
 50
24.863697
 51
61.966148
  0
ARC
  8
APS_GEOMETRY
 10
0.049531
 20
-0.100068
 40
0.01663
 50
61.966148
 51
90.0
  0
ARC
  8
APS_GEOMETRY
 10
0.052032
 20
-0.016407
 40
0.076131
 50
296.565051
 51
298.300756
  0
ARC
  8
APS_GEOMETRY
 10
0.054062
 20
-0.020468
 40
0.07159
 50
294.775141
 51
296.565051
  0
ARC
  8
APS_GEOMETRY
 10
0.094544
 20
-0.101191
 40
0.018896
 50
123.690068
 51
132.137595
  0
ARC
  8
APS_GEOMETRY
 10
0.086385
 20
-0.092174
 40
0.006735
 50
132.137595
 51
146.309932
  0
ARC
  8
APS_GEOMETRY
 10
0.08851
 20
-0.093478
 40
0.009228
 50
146.888658
 51
172.69424
  0
ARC
  8
APS_GEOMETRY
 10
0.191787
 20
-0.106719
 40
0.113349
 50
172.69424
 51
180.0
  0
ARC
  8
APS_GEOMETRY
 10
0.114804
 20
-0.106719
 40
0.036366
 50
180.0
 51
187.495858
  0
ARC
  8
APS_GEOMETRY
 10
0.081373
 20
-0.111118
 40
0.002647
 50
187.495858
 51
215.537678
  0
ARC
  8
APS_GEOMETRY
 10
0.083543
 20
-0.109629
 40
0.005279
 50
214.99202
 51
235.145544
  0
ARC
  8
APS_GEOMETRY
 10
0.091529
 20
-0.098163
 40
0.019252
 50
235.145544
 51
245.65891
  0
ARC
  8
APS_GEOMETRY
 10
0.092765
 20
-0.095431
 40
0.02225
 50
245.65891
 51
254.814163
  0
ARC
  8
APS_GEOMETRY
 10
0.089063
 20
-0.10907
 40
0.008117
 50
254.814163
 51
270.0
  0
LINE
  8
APS_GEOMETRY
 10
0.089063
 11
0.089063
 20
-0.117188
 21
-0.117031
  0
LINE
  8
APS_GEOMETRY
 10
0.089063
 11
0.089219
 20
-0.117031
 21
-0.117031
  0
ARC
  8
APS_GEOMETRY
 10
0.105313
 20
-0.117031
 40
0.016094
 50
170.036196
 51
180.0
  0
ARC
  8
APS_GEOMETRY
 10
0.252264
 20
-0.142847
 40
0.165296
 50
166.930682
 51
170.036196
  0
LINE
  8
APS_GEOMETRY
 10
0.09125
 11
0.091562
 20
-0.105469
 21
-0.106094
  0
ARC
  8
APS_GEOMETRY
 10
0.087693
 20
-0.108029
 40
0.004326
 50
8.426969
 51
26.565051
  0
ARC
  8
APS_GEOMETRY
 10
0.072276
 20
-0.110313
 40
0.019911
 50
0.0
 51
8.426969
  0
LINE
  8
APS_GEOMETRY
 10
0.092188
 11
0.092188
 20
-0.110313
 21
-0.114531
  0
ARC
  8
APS_GEOMETRY
 10
0.100318
 20
-0.114531
 40
0.008131
 50
180.0
 51
221.855043
  0
ARC
  8
APS_GEOMETRY
 10
0.098906
 20
-0.115796
 40
0.006235
 50
221.855043
 51
270.0
  0
ARC
  8
APS_GEOMETRY
 10
0.098906
 20
-0.118089
 40
0.003942
 50
270.0
 51
315.855097
  0
ARC
  8
APS_GEOMETRY
 10
0.095032
 20
-0.114328
 40
0.009342
 50
315.855097
 51
345.17352
  0
ARC
  8
APS_GEOMETRY
 10
0.024683
 20
-0.099079
 40
0.081316
 50
347.471192
 51
348.486169
  0
ARC
  8
APS_GEOMETRY
 10
-1.869975
 20
0.28687
 40
2.014884
 50
348.486169
 51
348.690068
  0
LINE
  8
APS_GEOMETRY
 10
0.105781
 11
0.106719
 20
-0.108281
 21
-0.105469
  0
ARC
  8
APS_GEOMETRY
 10
0.193441
 20
-0.105469
 40
0.086722
 50
180.0
 51
183.814075
  0
ARC
  8
APS_GEOMETRY
 10
0.199769
 20
-0.105047
 40
0.093064
 50
183.814075
 51
187.495858
  0
ARC
  8
APS_GEOMETRY
 10
0.107775
 20
-0.113753
 40
0.003445
 50
265.426079
 51
319.497152
  0
ARC
  8
APS_GEOMETRY
 10
0.09649
 20
-0.104114
 40
0.018286
 50
319.497152
 51
342.255328
  0
ARC
  8
APS_GEOMETRY
 10
0.071337
 20
-0.096245
 40
0.044641
 50
342.474432
 51
350.406866
  0
ARC
  8
APS_GEOMETRY
 10
0.085236
 20
-0.098594
 40
0.030545
 50
350.406866
 51
0.0
  0
ARC
  8
APS_GEOMETRY
 10
0.10121
 20
-0.098594
 40
0.014572
 50
0.0
 51
6.709837
  0
ARC
  8
APS_GEOMETRY
 10
0.110931
 20
-0.09745
 40
0.004783
 50
6.709837
 51
18.434949
  0
ARC
  8
APS_GEOMETRY
 10
0.102818
 20
-0.099891
 40
0.013254
 50
17.354025
 51
65.432829
  0
ARC
  8
APS_GEOMETRY
 10
0.088125
 20
-0.132031
 40
0.048594
 50
65.432829
 51
90.0
  0
LINE
  8
APS_GEOMETRY
 10
0.136875
 11
0.137656
 20
-0.084063
 21
-0.084375
  0
LINE
  8
APS_GEOMETRY
 10
0.137656
 11
0.137969
 20
-0.084375
 21
-0.084375
  0
LINE
  8
APS_GEOMETRY
 10
0.137969
 11
0.137969
 20
-0.084375
 21
-0.084531
  0
LINE
  8
APS_GEOMETRY
 10
0.137969
 11
0.136875
 20
-0.084531
 21
-0.084063
  0
LINE
  8
APS_GEOMETRY
 10
0.01625
 11
0.016875
 20
-0.084531
 21
-0.084531
  0
LINE
  8
APS_GEOMETRY
 10
0.016875
 11
0.016875
 20
-0.084531
 21
-0.084688
  0
LINE
  8
APS_GEOMETRY
 10
0.016875
 11
0.016719
 20
-0.084688
 21
-0.084688
  0
LINE
  8
APS_GEOMETRY
 10
0.016719
 11
0.016719
 20
-0.084688
 21
-0.084844
  0
ARC
  8
APS_GEOMETRY
 10
0.016206
 20
-0.083818
 40
0.001147
 50
279.462322
 51
296.565051
  0
ARC
  8
APS_GEOMETRY
 10
0.015781
 20
-0.081271
 40
0.003729
 50
270.0
 51
279.462322
  0
LINE
  8
APS_GEOMETRY
 10
0.015781
 11
0.01625
 20
-0.085
 21
-0.084688
  0
LINE
  8
APS_GEOMETRY
 10
0.01625
 11
0.01625
 20
-0.084688
 21
-0.084531
  0
LINE
  8
APS_GEOMETRY
 10
0.014687
 11
0.015313
 20
-0.085625
 21
-0.085625
  0
LINE
  8
APS_GEOMETRY
 10
0.015313
 11
0.015313
 20
-0.085625
 21
-0.085781
  0
LINE
  8
APS_GEOMETRY
 10
0.015313
 11
0.015156
 20
-0.085781
 21
-0.085781
  0
LINE
  8
APS_GEOMETRY
 10
0.015156
 11
0.015156
 20
-0.085781
 21
-0.085938
  0
ARC
  8
APS_GEOMETRY
 10
0.013206
 20
-0.078138
 40
0.008039
 50
279.462322
 51
284.036243
  0
ARC
  8
APS_GEOMETRY
 10
0.014219
 20
-0.084212
 40
0.001882
 50
270.0
 51
279.462322
  0
LINE
  8
APS_GEOMETRY
 10
0.014219
 11
0.014687
 20
-0.086094
 21
-0.085781
  0
LINE
  8
APS_GEOMETRY
 10
0.014687
 11
0.014687
 20
-0.085781
 21
-0.085625
  0
LINE
  8
APS_GEOMETRY
 10
0.138906
 11
0.139844
 20
-0.085625
 21
-0.085938
  0
LINE
  8
APS_GEOMETRY
 10
0.139844
 11
0.14
 20
-0.085938
 21
-0.085938
  0
LINE
  8
APS_GEOMETRY
 10
0.14
 11
0.14
 20
-0.085938
 21
-0.086094
  0
LINE
  8
APS_GEOMETRY
 10
0.14
 11
0.138906
 20
-0.086094
 21
-0.085625
  0
LINE
  8
APS_GEOMETRY
 10
0.0125
 11
0.013281
 20
-0.087188
 21
-0.087188
  0
LINE
  8
APS_GEOMETRY
 10
0.013281
 11
0.013281
 20
-0.087188
 21
-0.087344
  0
LINE
  8
APS_GEOMETRY
 10
0.013281
 11
0.012969
 20
-0.087344
 21
-0.087344
  0
LINE
  8
APS_GEOMETRY
 10
0.012969
 11
0.012969
 20
-0.087344
 21
-0.0875
  0
ARC
  8
APS_GEOMETRY
 10
0.011722
 20
-0.083759
 40
0.003944
 50
281.309932
 51
288.434949
  0
ARC
  8
APS_GEOMETRY
 10
0.012188
 20
-0.086088
 40
0.001568
 50
270.0
 51
281.309932
  0
LINE
  8
APS_GEOMETRY
 10
0.012188
 11
0.0125
 20
-0.087656
 21
-0.087344
  0
LINE
  8
APS_GEOMETRY
 10
0.0125
 11
0.0125
 20
-0.087344
 21
-0.087188
  0
LINE
  8
APS_GEOMETRY
 10
0.141563
 11
0.1425
 20
-0.087656
 21
-0.088125
  0
LINE
  8
APS_GEOMETRY
 10
0.1425
 11
0.142656
 20
-0.088125
 21
-0.088125
  0
LINE
  8
APS_GEOMETRY
 10
0.142656
 11
0.142656
 20
-0.088125
 21
-0.088281
  0
LINE
  8
APS_GEOMETRY
 10
0.142656
 11
0.141563
 20
-0.088281
 21
-0.087656
  0
LINE
  8
APS_GEOMETRY
 10
0.009844
 11
0.010625
 20
-0.089375
 21
-0.089375
  0
LINE
  8
APS_GEOMETRY
 10
0.010625
 11
0.010625
 20
-0.089375
 21
-0.089531
  0
LINE
  8
APS_GEOMETRY
 10
0.010625
 11
0.010469
 20
-0.089531
 21
-0.089531
  0
LINE
  8
APS_GEOMETRY
 10
0.010469
 11
0.010469
 20
-0.089531
 21
-0.089688
  0
ARC
  8
APS_GEOMETRY
 10
0.010469
 20
-0.091569
 40
0.001882
 50
90.0
 51
99.462322
  0
ARC
  8
APS_GEOMETRY
 10
0.011481
 20
-0.097643
 40
0.008039
 50
99.462322
 51
104.036243
  0
LINE
  8
APS_GEOMETRY
 10
0.009531
 11
0.009844
 20
-0.089844
 21
-0.089531
  0
LINE
  8
APS_GEOMETRY
 10
0.009844
 11
0.009844
 20
-0.089531
 21
-0.089375
  0
ENDSEC
  0
EOF
