0
SECTION
2
HEADER
9
$ACADVER
1
AC1006
9
$EXTMIN
10
0.760266736642
20
0.426843149662
9
$EXTMAX
10
12.27855689013
20
7.377273323781
0
ENDSEC
0
SECTION
2
TABLES
0
TABLE
2
LTYPE
70
1
0
LTYPE
2
0
70
0
3
Solid Line
72
65
73
0
40
0.0
0
ENDTAB
0
TABLE
2
LAYER
70
1
0
LAYER
2
1
70
0
62
7
6
0
0
ENDTAB
0
ENDSEC
0
SECTION
2
BLOCKS
0
ENDSEC
0
SECTION
2
ENTITIES
0
POLYLINE
8
1
66
1
70
1
0
VERTEX
8
1
10
7.129058441157
20
3.381717735181
42
-0.750727256065
0
VERTEX
8
1
10
6.797691369862
20
4.001386720375
42
0.60857336727
0
VERTEX
8
1
10
6.398195116927
20
5.340963692777
0
VERTEX
8
1
10
6.207286957369
20
5.37772858827
42
-0.420600925725
0
VERTEX
8
1
10
6.178165242652
20
5.509797541265
0
VERTEX
8
1
10
6.208165099777
20
5.556869639557
0
VERTEX
8
1
10
7.139932737779
20
5.600074246044
42
-0.359755859685
0
VERTEX
8
1
10
8.617202439797
20
2.415988416485
42
-0.221322829986
0
VERTEX
8
1
10
7.235123374835
20
0.655195802249
42
-0.165231743336
0
VERTEX
8
1
10
6.888549837704
20
0.609122597229
0
VERTEX
8
1
10
6.166162700259
20
0.660988744049
0
VERTEX
8
1
10
6.161096666694
20
0.827662971233
42
0.693071182156
0
VERTEX
8
1
10
6.773925394522
20
2.210188184543
42
-0.763342480459
0
VERTEX
8
1
10
7.126106221333
20
2.779464891089
0
SEQEND
0
POLYLINE
8
1
66
1
70
1
0
VERTEX
8
1
10
3.977798536023
20
5.470685546305
0
VERTEX
8
1
10
3.756579531254
20
4.780600697193
0
VERTEX
8
1
10
3.857936046065
20
4.734342472432
42
-0.839816791643
0
VERTEX
8
1
10
5.511483716655
20
4.413090599173
0
VERTEX
8
1
10
5.495203442734
20
2.330809238784
42
1.222315238739
0
VERTEX
8
1
10
6.465146424414
20
2.631923419371
42
-0.253378755693
0
VERTEX
8
1
10
6.465732491324
20
3.538094581996
42
0.257585730814
0
VERTEX
8
1
10
6.238018927761
20
4.795659669625
0
VERTEX
8
1
10
5.717097725171
20
5.482053890899
42
-0.627246543321
0
VERTEX
8
1
10
6.005675115352
20
5.904945326085
0
VERTEX
8
1
10
6.900373277422
20
5.815751289023
42
0.872424548746
0
VERTEX
8
1
10
6.948600416029
20
5.950904518034
0
VERTEX
8
1
10
6.137109029425
20
6.347402212003
42
0.203839260747
0
VERTEX
8
1
10
4.190711218999
20
5.775551918236
42
0.138130421834
0
SEQEND
0
POLYLINE
8
1
66
1
70
1
0
VERTEX
8
1
10
4.203220838024
20
1.2150405964
42
0.769909965171
0
VERTEX
8
1
10
5.230308538572
20
1.238926356877
0
VERTEX
8
1
10
5.230308538572
20
4.582932823778
42
0.777508960193
0
VERTEX
8
1
10
4.203220838024
20
4.630704344734
0
SEQEND
0
POLYLINE
8
1
66
1
70
1
0
VERTEX
8
1
10
1.195922490956
20
5.536528766306
0
VERTEX
8
1
10
0.974703486186
20
4.846443917194
0
VERTEX
8
1
10
1.076060000998
20
4.800185692433
42
-0.839816791643
0
VERTEX
8
1
10
2.729607671588
20
4.478933819174
0
VERTEX
8
1
10
2.713327397667
20
2.396652458785
42
1.222315238739
0
VERTEX
8
1
10
3.683270379347
20
2.697766639373
42
-0.253378755693
0
VERTEX
8
1
10
3.683856446256
20
3.603937801997
42
0.257585730814
0
VERTEX
8
1
10
3.456142882694
20
4.861502889626
0
VERTEX
8
1
10
2.935221680104
20
5.547897110901
42
-0.627246543321
0
VERTEX
8
1
10
3.223799070285
20
5.970788546087
0
VERTEX
8
1
10
4.118497232355
20
5.881594509025
42
0.872424548746
0
VERTEX
8
1
10
4.166724370961
20
6.016747738035
0
VERTEX
8
1
10
3.355232984357
20
6.413245432005
42
0.203839260747
0
VERTEX
8
1
10
1.408835173931
20
5.841395138238
42
0.138130421834
0
SEQEND
0
POLYLINE
8
1
66
1
70
1
0
VERTEX
8
1
10
3.790061046675
20
1.341042044794
0
VERTEX
8
1
10
4.011280051444
20
2.031126893906
0
VERTEX
8
1
10
3.909923536633
20
2.077385118667
42
-0.839816791643
0
VERTEX
8
1
10
2.256375866043
20
2.398636991926
0
VERTEX
8
1
10
2.272656139964
20
4.480918352315
42
1.222315238739
0
VERTEX
8
1
10
1.302713158284
20
4.179804171727
42
-0.253378755693
0
VERTEX
8
1
10
1.302127091375
20
3.273633009103
42
0.257585730814
0
VERTEX
8
1
10
1.529840654937
20
2.016067921474
0
VERTEX
8
1
10
2.050761857527
20
1.3296737002
42
-0.627246543321
0
VERTEX
8
1
10
1.762184467346
20
0.906782265014
0
VERTEX
8
1
10
0.867486305276
20
0.995976302075
42
0.872424548746
0
VERTEX
8
1
10
0.81925916667
20
0.860823073065
0
VERTEX
8
1
10
1.630750553274
20
0.464325379096
42
0.203839260747
0
VERTEX
8
1
10
3.5771483637
20
1.036175672862
42
0.138130421834
0
SEQEND
0
POLYLINE
8
1
66
1
70
1
0
VERTEX
8
1
10
8.976854288139
20
1.396109451404
42
0.769909965171
0
VERTEX
8
1
10
10.003941988687
20
1.419995211882
0
VERTEX
8
1
10
10.003941988687
20
4.764001678782
42
0.777508960193
0
VERTEX
8
1
10
8.976854288139
20
4.811773199738
0
SEQEND
0
POLYLINE
8
1
66
1
70
1
0
VERTEX
8
1
10
11.612769238352
20
5.483557398094
42
0.279972415021
0
VERTEX
8
1
10
12.148059517875
20
6.364593821109
42
1.618410667522
0
VERTEX
8
1
10
10.560076900958
20
5.570189221299
0
VERTEX
8
1
10
11.247061090456
20
1.127691462544
42
0.769909965171
0
VERTEX
8
1
10
12.258433940246
20
1.308258992511
0
SEQEND
0
CIRCLE
8
1
10
11.155363682844
20
6.364593821109
40
0.621620491405
0
CIRCLE
8
1
10
4.714055454617
20
1.33012739774
40
0.203125
0
CIRCLE
8
1
10
6.008616249514
20
2.37527026191
40
0.203125
0
CIRCLE
8
1
10
6.038629456326
20
3.968248376778
40
0.203125
0
CIRCLE
8
1
10
4.717003374733
20
4.505037363001
40
0.203125
0
CIRCLE
8
1
10
3.226740204447
20
2.441113481912
40
0.203125
0
CIRCLE
8
1
10
3.256753411259
20
4.034091596779
40
0.203125
0
CIRCLE
8
1
10
1.729230126372
20
2.843479214321
40
0.203125
0
CIRCLE
8
1
10
1.759243333184
20
4.436457329188
40
0.203125
0
CIRCLE
8
1
10
9.487688904732
20
1.511196252744
40
0.203125
0
CIRCLE
8
1
10
9.490636824848
20
4.686106218006
40
0.203125
0
CIRCLE
8
1
10
11.734307370319
20
1.31949354833
40
0.203125
0
CIRCLE
8
1
10
11.25202227198
20
4.457560319715
40
0.203125
0
POLYLINE
8
1
66
1
70
1
0
VERTEX
8
1
10
8.201061606354
20
3.378673160257
0
VERTEX
8
1
10
8.520066408859
20
3.378673160257
0
VERTEX
8
1
10
8.520066408859
20
2.791172648978
0
VERTEX
8
1
10
8.201061606354
20
2.791172648978
0
SEQEND
0
POLYLINE
8
1
66
1
0
VERTEX
8
1
10
1.761638119732
20
2.849008883595
0
VERTEX
8
1
10
1.910038754117
20
2.872513778579
42
25.108818551141
0
VERTEX
8
1
10
1.912355126819
20
2.843479214321
0
VERTEX
8
1
10
1.911354080643
20
2.862600696204
0
SEQEND
0
POLYLINE
8
1
66
1
0
VERTEX
8
1
10
1.791651326544
20
4.441986998462
0
VERTEX
8
1
10
1.940051960929
20
4.465491893446
42
25.10881855114
0
VERTEX
8
1
10
1.942368333631
20
4.436457329188
0
VERTEX
8
1
10
1.941367287455
20
4.455578811071
0
SEQEND
0
POLYLINE
8
1
66
1
0
VERTEX
8
1
10
1.504823092387
20
5.068448755047
0
VERTEX
8
1
10
1.558102587002
20
4.928230007222
0
VERTEX
8
1
10
1.581847068758
20
4.937048615127
42
-0.484078931356
0
VERTEX
8
1
10
2.29266401006
20
4.481846827732
0
VERTEX
8
1
10
2.276374437989
20
2.398376214418
42
0.850808553349
0
VERTEX
8
1
10
3.898609207008
20
2.104533354978
0
VERTEX
8
1
10
4.035750016026
20
2.041943492064
0
VERTEX
8
1
10
3.809030929152
20
1.334701331656
42
-0.138216243903
0
VERTEX
8
1
10
3.589837173159
20
1.020716233651
0
VERTEX
8
1
10
3.533166180378
20
0.975445077216
42
-0.196955615614
0
VERTEX
8
1
10
1.625031275909
20
0.444860157956
0
VERTEX
8
1
10
0.810273907328
20
0.842953622803
42
-0.868233565813
0
VERTEX
8
1
10
0.870474062536
20
1.015777585601
0
VERTEX
8
1
10
1.764665821285
20
0.92663403278
42
0.626229179208
0
VERTEX
8
1
10
2.03404395174
20
1.318619117807
0
VERTEX
8
1
10
1.514114893106
20
2.003706036029
42
-0.257862888931
0
VERTEX
8
1
10
1.283730943113
20
3.281667918381
42
0.253853104787
0
VERTEX
8
1
10
1.285142406556
20
4.170250590689
42
-0.444594941902
0
VERTEX
8
1
10
1.548848298973
20
4.924442868493
0
SEQEND
0
POLYLINE
8
1
66
1
0
VERTEX
8
1
10
3.259148197807
20
2.446643151186
0
VERTEX
8
1
10
3.407548832192
20
2.47014804617
42
25.108818551139
0
VERTEX
8
1
10
3.409865204894
20
2.441113481912
0
VERTEX
8
1
10
3.408864158718
20
2.460234963795
0
SEQEND
0
POLYLINE
8
1
66
1
0
VERTEX
8
1
10
3.289161404619
20
4.039621266053
0
VERTEX
8
1
10
3.437562039004
20
4.063126161037
42
25.10881855114
0
VERTEX
8
1
10
3.439878411706
20
4.034091596779
0
VERTEX
8
1
10
3.43887736553
20
4.053213078662
0
SEQEND
0
POLYLINE
8
1
66
1
0
VERTEX
8
1
10
1.592398581991
20
6.182111864864
0
VERTEX
8
1
10
1.672472162552
20
6.055272503922
42
-0.170443148898
0
VERTEX
8
1
10
3.360952261722
20
6.432710653145
0
VERTEX
8
1
10
4.175709630304
20
6.034617188297
42
-0.868233565814
0
VERTEX
8
1
10
4.115509475095
20
5.861793225499
0
VERTEX
8
1
10
3.221317716346
20
5.950936778321
42
0.626229179208
0
VERTEX
8
1
10
2.951939585891
20
5.558951693294
0
VERTEX
8
1
10
3.471868644525
20
4.873864775071
42
-0.257862888931
0
VERTEX
8
1
10
3.702252594518
20
3.595902892719
42
0.253853104787
0
VERTEX
8
1
10
3.700841131075
20
2.707320220411
42
-0.464401601128
0
VERTEX
8
1
10
3.404136476501
20
1.940522198603
42
-0.484078935983
0
VERTEX
8
1
10
2.693319527571
20
2.395723983368
0
VERTEX
8
1
10
2.709609099642
20
4.479194596682
42
0.850808553349
0
VERTEX
8
1
10
1.087374330624
20
4.773037456122
0
VERTEX
8
1
10
0.950233521604
20
4.835627319036
0
VERTEX
8
1
10
1.176952608479
20
5.542869479444
42
-0.138216243904
0
VERTEX
8
1
10
1.396146364473
20
5.856854577449
0
VERTEX
8
1
10
1.452817357254
20
5.902125733884
42
-0.024693441384
0
VERTEX
8
1
10
1.663996966489
20
6.049965144835
0
SEQEND
0
POLYLINE
8
1
66
1
0
VERTEX
8
1
10
6.041024242874
20
2.380799931184
0
VERTEX
8
1
10
6.189424877259
20
2.404304826168
42
25.108818551136
0
VERTEX
8
1
10
6.191741249961
20
2.37527026191
0
VERTEX
8
1
10
6.190740203785
20
2.394391743793
0
SEQEND
0
POLYLINE
8
1
66
1
0
VERTEX
8
1
10
6.071037449686
20
3.973778046052
0
VERTEX
8
1
10
6.219438084071
20
3.997282941036
42
25.108818551135
0
VERTEX
8
1
10
6.221754456773
20
3.968248376778
0
VERTEX
8
1
10
6.220753410597
20
3.987369858661
0
SEQEND
0
POLYLINE
8
1
66
1
0
VERTEX
8
1
10
3.753409210352
20
5.327602035154
0
VERTEX
8
1
10
3.896249275092
20
5.281812105113
0
VERTEX
8
1
10
3.958828653546
20
5.477026259443
42
-0.138216243903
0
VERTEX
8
1
10
4.17802240954
20
5.791011357446
0
VERTEX
8
1
10
4.234693402322
20
5.836282513882
42
-0.196955615614
0
VERTEX
8
1
10
6.14282830679
20
6.366867433143
0
VERTEX
8
1
10
6.957585675372
20
5.968773968296
42
-0.868233565814
0
VERTEX
8
1
10
6.897385520162
20
5.795950005497
0
VERTEX
8
1
10
6.003193761413
20
5.885093558319
42
0.626229179208
0
VERTEX
8
1
10
5.733815630958
20
5.493108473292
0
VERTEX
8
1
10
6.253744689592
20
4.80802155507
42
-0.257862888931
0
VERTEX
8
1
10
6.484128639586
20
3.530059672718
42
0.253853104787
0
VERTEX
8
1
10
6.482717176143
20
2.641477000408
42
-0.464401604633
0
VERTEX
8
1
10
6.186012515701
20
1.874678976578
42
-0.484078932424
0
VERTEX
8
1
10
5.475195572638
20
2.329880763367
0
VERTEX
8
1
10
5.491485144709
20
4.413351376681
42
0.850808553349
0
VERTEX
8
1
10
3.869250375691
20
4.707194236121
0
VERTEX
8
1
10
3.732109566672
20
4.769784099035
0
VERTEX
8
1
10
3.893196613279
20
5.272289434721
0
SEQEND
0
POLYLINE
8
1
66
1
0
VERTEX
8
1
10
4.746463447977
20
1.335657067014
0
VERTEX
8
1
10
4.894864082362
20
1.359161961998
42
25.108818551136
0
VERTEX
8
1
10
4.897180455064
20
1.33012739774
0
VERTEX
8
1
10
4.896179408888
20
1.349248879623
0
SEQEND
0
POLYLINE
8
1
66
1
0
VERTEX
8
1
10
4.749411368093
20
4.510567032275
0
VERTEX
8
1
10
4.897812002478
20
4.534071927259
42
25.10881855114
0
VERTEX
8
1
10
4.90012837518
20
4.505037363001
0
VERTEX
8
1
10
4.899127329004
20
4.524158844884
0
SEQEND
0
POLYLINE
8
1
66
1
0
VERTEX
8
1
10
4.033220832511
20
4.322395701
0
VERTEX
8
1
10
4.183220838471
20
4.322395701
0
VERTEX
8
1
10
4.183220838471
20
4.633653131771
42
-0.781199265251
0
VERTEX
8
1
10
5.250308538125
20
4.584946451167
0
VERTEX
8
1
10
5.250308538125
20
1.236584571953
42
-0.773707103554
0
VERTEX
8
1
10
4.183220838471
20
1.212230483781
0
VERTEX
8
1
10
4.183220838471
20
4.312395701224
0
SEQEND
0
POLYLINE
8
1
66
1
0
VERTEX
8
1
10
8.360564007607
20
3.219220030163
0
VERTEX
8
1
10
8.360564007607
20
3.358673160704
0
VERTEX
8
1
10
8.221061605907
20
3.358673160704
0
VERTEX
8
1
10
8.221061605907
20
2.811172648531
0
VERTEX
8
1
10
8.500066409306
20
2.811172648531
0
VERTEX
8
1
10
8.500066409306
20
3.358673160704
0
VERTEX
8
1
10
8.370564007383
20
3.358673160704
0
SEQEND
0
POLYLINE
8
1
66
1
0
VERTEX
8
1
10
6.035992535328
20
0.956881370005
0
VERTEX
8
1
10
6.140432398769
20
0.849213748538
42
0.70361850255
0
VERTEX
8
1
10
6.759603680248
20
2.196220822699
42
-0.734736932616
0
VERTEX
8
1
10
7.105269551419
20
2.805410481962
0
VERTEX
8
1
10
7.10623214035
20
2.805201298672
0
VERTEX
8
1
10
7.108941104387
20
3.357829962304
42
-0.72606403345
0
VERTEX
8
1
10
6.783712459538
20
4.015690218139
0
VERTEX
8
1
10
6.783808558822
20
4.015783509592
42
0.60857336727
0
VERTEX
8
1
10
6.394465696791
20
5.321314483949
0
VERTEX
8
1
10
6.394413031732
20
5.321324552936
0
VERTEX
8
1
10
6.200037856881
20
5.35875712264
42
-0.430293097788
0
VERTEX
8
1
10
6.161359881878
20
5.520641550524
0
VERTEX
8
1
10
6.196875067868
20
5.57636762678
0
VERTEX
8
1
10
7.144013628675
20
5.62028495889
42
-0.360240944759
0
VERTEX
8
1
10
8.63661620192
20
2.411174357905
42
-0.221306661651
0
VERTEX
8
1
10
7.244086901123
20
0.637316623984
42
-0.164708326173
0
VERTEX
8
1
10
6.885893712221
20
0.58926181924
0
VERTEX
8
1
10
6.146720497025
20
0.642333177405
0
VERTEX
8
1
10
6.140736206685
20
0.839218364789
0
SEQEND
0
POLYLINE
8
1
66
1
0
VERTEX
8
1
10
9.520096898092
20
1.516725922018
0
VERTEX
8
1
10
9.668497532477
20
1.540230817002
42
25.108818551133
0
VERTEX
8
1
10
9.670813905179
20
1.511196252744
0
VERTEX
8
1
10
9.669812859003
20
1.530317734627
0
SEQEND
0
POLYLINE
8
1
66
1
0
VERTEX
8
1
10
9.523044818208
20
4.69163588728
0
VERTEX
8
1
10
9.671445452593
20
4.715140782264
42
25.108818551138
0
VERTEX
8
1
10
9.673761825295
20
4.686106218006
0
VERTEX
8
1
10
9.672760779119
20
4.705227699889
0
SEQEND
0
POLYLINE
8
1
66
1
0
VERTEX
8
1
10
9.110082314904
20
5.249388271328
0
VERTEX
8
1
10
9.190811049209
20
5.122964882488
42
-0.525177364281
0
VERTEX
8
1
10
10.02394198824
20
4.766015306171
0
VERTEX
8
1
10
10.02394198824
20
1.417653426958
42
-0.773707103554
0
VERTEX
8
1
10
8.956854288586
20
1.393299338785
0
VERTEX
8
1
10
8.956854288586
20
4.814721986775
42
-0.176853775717
0
VERTEX
8
1
10
9.182400016331
20
5.11755619491
0
SEQEND
0
POLYLINE
8
1
66
1
0
VERTEX
8
1
10
11.766715363679
20
1.325023217605
0
VERTEX
8
1
10
11.915115998064
20
1.348528112588
42
25.10881855114
0
VERTEX
8
1
10
11.917432370766
20
1.31949354833
0
VERTEX
8
1
10
11.91643132459
20
1.338615030214
0
SEQEND
0
POLYLINE
8
1
66
1
0
VERTEX
8
1
10
11.284430265339
20
4.463089988989
0
VERTEX
8
1
10
11.432830899725
20
4.486594883973
42
25.108818551134
0
VERTEX
8
1
10
11.435147272427
20
4.457560319715
0
VERTEX
8
1
10
11.434146226251
20
4.476681801598
0
SEQEND
0
POLYLINE
8
1
66
1
0
VERTEX
8
1
10
11.605012069448
20
6.40393295751
0
VERTEX
8
1
10
11.75469482709
20
6.417028501929
42
45.829351174485
0
VERTEX
8
1
10
11.756984174696
20
6.364593821109
42
0.017662826229
0
VERTEX
8
1
10
11.755483584642
20
6.407059332796
0
SEQEND
0
POLYLINE
8
1
66
1
0
VERTEX
8
1
10
10.048305890139
20
6.009279300326
0
VERTEX
8
1
10
10.190500202905
20
6.057036804502
42
-0.363090924808
0
VERTEX
8
1
10
10.682148575789
20
7.25992633802
42
-0.564955407156
0
VERTEX
8
1
10
12.168059517428
20
6.364593821109
42
-0.276144236197
0
VERTEX
8
1
10
11.63471222298
20
5.472530017083
0
VERTEX
8
1
10
12.27855689013
20
1.309001169509
42
-0.773707103554
0
VERTEX
8
1
10
11.227725467591
20
1.121857904157
0
VERTEX
8
1
10
10.541550771417
20
5.559120939412
42
-0.151436073322
0
VERTEX
8
1
10
10.193584130239
20
6.047524513897
0
SEQEND
0
ENDSEC
0
EOF
