  0
SECTION
  2
HEADER
  9
$ACADVER
  1
AC1009
  9
$DWGCODEPAGE
  3
ansi_1254
  9
$INSBASE
 10
0.0
 20
0.0
 30
0.0
  9
$EXTMIN
 10
-4672.62092672482
 20
0.0
 30
0.0
  9
$EXTMAX
 10
-3612.62092672482
 20
2180.000000000004
 30
0.0
  9
$LIMMIN
 10
0.0
 20
0.0
  9
$LIMMAX
 10
12.0
 20
9.0
  9
$ORTHOMODE
 70
     0
  9
$REGENMODE
 70
     1
  9
$FILLMODE
 70
     1
  9
$QTEXTMODE
 70
     0
  9
$MIRRTEXT
 70
     1
  9
$DRAGMODE
 70
     2
  9
$LTSCALE
 40
1.0
  9
$OSMODE
 70
    37
  9
$ATTMODE
 70
     1
  9
$TEXTSIZE
 40
0.2
  9
$TRACEWID
 40
0.05
  9
$TEXTSTYLE
  7
STANDARD
  9
$CLAYER
  8
0
  9
$CELTYPE
  6
BYLAYER
  9
$CECOLOR
 62
   256
  9
$DIMSCALE
 40
1.0
  9
$DIMASZ
 40
0.18
  9
$DIMEXO
 40
0.0625
  9
$DIMDLI
 40
0.38
  9
$DIMRND
 40
0.0
  9
$DIMDLE
 40
0.0
  9
$DIMEXE
 40
0.18
  9
$DIMTP
 40
0.0
  9
$DIMTM
 40
0.0
  9
$DIMTXT
 40
0.18
  9
$DIMCEN
 40
0.09
  9
$DIMTSZ
 40
0.0
  9
$DIMTOL
 70
     0
  9
$DIMLIM
 70
     0
  9
$DIMTIH
 70
     1
  9
$DIMTOH
 70
     1
  9
$DIMSE1
 70
     0
  9
$DIMSE2
 70
     0
  9
$DIMTAD
 70
     0
  9
$DIMZIN
 70
     0
  9
$DIMBLK
  1

  9
$DIMASO
 70
     1
  9
$DIMSHO
 70
     1
  9
$DIMPOST
  1

  9
$DIMAPOST
  1

  9
$DIMALT
 70
     0
  9
$DIMALTD
 70
     2
  9
$DIMALTF
 40
25.4
  9
$DIMLFAC
 40
1.0
  9
$DIMTOFL
 70
     0
  9
$DIMTVP
 40
0.0
  9
$DIMTIX
 70
     0
  9
$DIMSOXD
 70
     0
  9
$DIMSAH
 70
     0
  9
$DIMBLK1
  1

  9
$DIMBLK2
  1

  9
$DIMSTYLE
  2
STANDARD
  9
$DIMCLRD
 70
     0
  9
$DIMCLRE
 70
     0
  9
$DIMCLRT
 70
     0
  9
$DIMTFAC
 40
1.0
  9
$DIMGAP
 40
0.09
  9
$LUNITS
 70
     2
  9
$LUPREC
 70
     4
  9
$SKETCHINC
 40
0.1
  9
$FILLETRAD
 40
0.5
  9
$AUNITS
 70
     0
  9
$AUPREC
 70
     0
  9
$MENU
  1
.
  9
$ELEVATION
 40
0.0
  9
$PELEVATION
 40
0.0
  9
$THICKNESS
 40
0.0
  9
$LIMCHECK
 70
     0
  9
$CHAMFERA
 40
0.0
  9
$CHAMFERB
 40
0.0
  9
$SKPOLY
 70
     0
  9
$TDCREATE
 40
2454910.5
  9
$TDUPDATE
 40
2457468.726542928
  9
$TDINDWG
 40
0.0000000116
  9
$TDUSRTIMER
 40
0.0000000116
  9
$USRTIMER
 70
     1
  9
$ANGBASE
 50
0.0
  9
$ANGDIR
 70
     0
  9
$PDMODE
 70
     0
  9
$PDSIZE
 40
0.0
  9
$PLINEWID
 40
0.0
  9
$COORDS
 70
     1
  9
$SPLFRAME
 70
     0
  9
$SPLINETYPE
 70
     6
  9
$SPLINESEGS
 70
     8
  9
$ATTDIA
 70
     0
  9
$ATTREQ
 70
     1
  9
$HANDLING
 70
     1
  9
$HANDSEED
  5
1B4
  9
$SURFTAB1
 70
     6
  9
$SURFTAB2
 70
     6
  9
$SURFTYPE
 70
     6
  9
$SURFU
 70
     6
  9
$SURFV
 70
     6
  9
$UCSNAME
  2

  9
$UCSORG
 10
0.0
 20
0.0
 30
0.0
  9
$UCSXDIR
 10
1.0
 20
0.0
 30
0.0
  9
$UCSYDIR
 10
0.0
 20
1.0
 30
0.0
  9
$PUCSNAME
  2

  9
$PUCSORG
 10
0.0
 20
0.0
 30
0.0
  9
$PUCSXDIR
 10
1.0
 20
0.0
 30
0.0
  9
$PUCSYDIR
 10
0.0
 20
1.0
 30
0.0
  9
$USERI1
 70
     0
  9
$USERI2
 70
     0
  9
$USERI3
 70
     0
  9
$USERI4
 70
     0
  9
$USERI5
 70
     0
  9
$USERR1
 40
0.0
  9
$USERR2
 40
0.0
  9
$USERR3
 40
0.0
  9
$USERR4
 40
0.0
  9
$USERR5
 40
0.0
  9
$WORLDVIEW
 70
     1
  9
$SHADEDGE
 70
     3
  9
$SHADEDIF
 70
    70
  9
$TILEMODE
 70
     1
  9
$MAXACTVP
 70
    64
  9
$PLIMCHECK
 70
     0
  9
$PEXTMIN
 10
1.000000000000000E 20
 20
1.000000000000000E 20
 30
1.000000000000000E 20
  9
$PEXTMAX
 10
-1.000000000000000E 20
 20
-1.000000000000000E 20
 30
-1.000000000000000E 20
  9
$PLIMMIN
 10
0.0
 20
0.0
  9
$PLIMMAX
 10
12.0
 20
9.0
  9
$UNITMODE
 70
     0
  9
$VISRETAIN
 70
     1
  9
$PLINEGEN
 70
     0
  9
$PSLTSCALE
 70
     1
  0
ENDSEC
  0
SECTION
  2
TABLES
  0
TABLE
  2
VPORT
 70
     1
  0
VPORT
  2
*ACTIVE
 70
     0
 10
0.0
 20
0.0
 11
1.0
 21
1.0
 12
10.42990654205607
 22
4.5
 13
0.0
 23
0.0
 14
0.5
 24
0.5
 15
0.5
 25
0.5
 16
0.0
 26
0.0
 36
1.0
 17
0.0
 27
0.0
 37
0.0
 40
9.0
 41
1.972972972850329
 42
50.0
 43
0.0
 44
0.0
 50
0.0
 51
0.0
 71
     0
 72
   100
 73
     1
 74
     3
 75
     0
 76
     0
 77
     0
 78
     0
  0
ENDTAB
  0
TABLE
  2
LTYPE
 70
     2
  0
LTYPE
  2
CONTINUOUS
 70
     0
  3
Solid line
 72
    65
 73
     0
 40
0.0
  0
LTYPE
  2
CONTINUOUS2
 70
     0
  3
Solid Line
 72
    65
 73
     0
 40
0.0
  0
ENDTAB
  0
TABLE
  2
LAYER
 70
     5
  0
LAYER
  2
0
 70
     0
 62
     7
  6
CONTINUOUS
  0
LAYER
  2
2
 70
     0
 62
     2
  6
CONTINUOUS
  0
LAYER
  2
7
 70
     0
 62
    18
  6
CONTINUOUS
  0
LAYER
  2
3
 70
     0
 62
     3
  6
CONTINUOUS
  0
LAYER
  2
4
 70
     0
 62
     4
  6
CONTINUOUS
  0
ENDTAB
  0
TABLE
  2
STYLE
 70
     1
  0
STYLE
  2
STANDARD
 70
     0
 40
0.0
 41
1.0
 50
0.0
 71
     0
 42
0.2
  3
txt
  4

  0
ENDTAB
  0
TABLE
  2
VIEW
 70
     0
  0
ENDTAB
  0
TABLE
  2
UCS
 70
     0
  0
ENDTAB
  0
TABLE
  2
APPID
 70
     1
  0
APPID
  2
ACAD
 70
     0
  0
ENDTAB
  0
TABLE
  2
DIMSTYLE
 70
     1
  0
DIMSTYLE
  2
STANDARD
 70
     0
  3

  4

  5

  6

  7

 40
1.0
 41
0.18
 42
0.0625
 43
0.38
 44
0.18
 45
0.0
 46
0.0
 47
0.0
 48
0.0
140
0.18
141
0.09
142
0.0
143
25.4
144
1.0
145
0.0
146
1.0
147
0.09
 71
     0
 72
     0
 73
     1
 74
     1
 75
     0
 76
     0
 77
     0
 78
     0
170
     0
171
     2
172
     0
173
     0
174
     0
175
     0
176
     0
177
     0
178
     0
  0
ENDTAB
  0
ENDSEC
  0
SECTION
  2
BLOCKS
  0
BLOCK
  8
0
  2
$MODEL_SPACE
 70
     0
 10
0.0
 20
0.0
 30
0.0
  3
$MODEL_SPACE
  1

  0
ENDBLK
  5
21
  8
0
  0
BLOCK
 67
     1
  8
0
  2
$PAPER_SPACE
 70
     0
 10
0.0
 20
0.0
 30
0.0
  3
$PAPER_SPACE
  1

  0
ENDBLK
  5
1D
 67
     1
  8
0
  0
ENDSEC
  0
SECTION
  2
ENTITIES
  0
POLYLINE
  5
6C
  8
2
 66
     1
 10
0.0
 20
0.0
 30
0.0
  0
VERTEX
  5
AD
  8
2
 10
-4672.62092672482
 20
0.0
 30
0.0
  0
VERTEX
  5
AE
  8
2
 10
-3612.62092672482
 20
0.0
 30
0.0
  0
SEQEND
  5
17D
  8
2
  0
POLYLINE
  5
6E
  8
7
 66
     1
 10
0.0
 20
0.0
 30
0.0
 70
     1
  0
VERTEX
  5
AF
  8
7
 10
-4544.901832582327
 20
785.4083126077894
 30
0.0
  0
VERTEX
  5
B0
  8
7
 10
-4544.901832582327
 20
1014.591687392211
 30
0.0
  0
VERTEX
  5
B1
  8
7
 10
-4520.017039955608
 20
1014.591687392211
 30
0.0
  0
VERTEX
  5
B2
  8
7
 10
-4520.017039955608
 20
785.4083126077894
 30
0.0
  0
SEQEND
  5
17E
  8
7
  0
POLYLINE
  5
6F
  8
7
 66
     1
 10
0.0
 20
0.0
 30
0.0
  0
VERTEX
  5
B3
  8
7
 10
-3692.62092672482
 20
0.0
 30
0.0
  0
VERTEX
  5
B4
  8
7
 10
-3692.62092672482
 20
2100.0
 30
0.0
  0
VERTEX
  5
B5
  8
7
 10
-4592.62092672482
 20
2100.0
 30
0.0
  0
VERTEX
  5
B6
  8
7
 10
-4592.62092672482
 20
0.0
 30
0.0
  0
SEQEND
  5
17F
  8
7
  0
POLYLINE
  5
70
  8
7
 66
     1
 10
0.0
 20
0.0
 30
0.0
 70
     1
  0
VERTEX
  5
B7
  8
7
 10
-4472.62092672482
 20
1920.365276374796
 30
0.0
 42
0.1378912160724543
  0
VERTEX
  5
B8
  8
7
 10
-4290.565032389088
 20
1958.604751833216
 30
0.0
 42
-0.0982587508472945
  0
VERTEX
  5
B9
  8
7
 10
-4142.62092672482
 20
1980.365276374821
 30
0.0
 42
-0.0982587508472945
  0
VERTEX
  5
BA
  8
7
 10
-3994.676821060551
 20
1958.604751833216
 30
0.0
 42
0.1378912160724543
  0
VERTEX
  5
BB
  8
7
 10
-3812.62092672479
 20
1920.365276374851
 30
0.0
  0
VERTEX
  5
BC
  8
7
 10
-3812.620926724849
 20
939.6776952179098
 30
0.0
 42
0.1378912160724543
  0
VERTEX
  5
BD
  8
7
 10
-3994.676821060551
 20
901.4382197594932
 30
0.0
 42
-0.0982587508472945
  0
VERTEX
  5
BE
  8
7
 10
-4142.62092672482
 20
879.677695217888
 30
0.0
 42
-0.0982587508472945
  0
VERTEX
  5
BF
  8
7
 10
-4290.565032389088
 20
901.4382197594932
 30
0.0
 42
0.1378912160724543
  0
VERTEX
  5
C0
  8
7
 10
-4472.62092672482
 20
939.6776952179098
 30
0.0
  0
SEQEND
  5
180
  8
7
  0
POLYLINE
  5
71
  8
7
 66
     1
 10
0.0
 20
0.0
 30
0.0
 70
     1
  0
VERTEX
  5
C1
  8
7
 10
-4442.62092672482
 20
1889.658917932251
 30
0.0
 42
0.114641794533124
  0
VERTEX
  5
C2
  8
7
 10
-4278.615511520606
 20
1931.008237699079
 30
0.0
 42
-0.0978969226876536
  0
VERTEX
  5
C3
  8
7
 10
-4142.62092672482
 20
1950.324795306977
 30
0.0
 42
-0.0978969226876426
  0
VERTEX
  5
C4
  8
7
 10
-4006.626341929063
 20
1931.008237699079
 30
0.0
 42
0.1146417945331062
  0
VERTEX
  5
C5
  8
7
 10
-3842.62092672482
 20
1889.658917932393
 30
0.0
  0
VERTEX
  5
C6
  8
7
 10
-3842.620926724849
 20
970.3840536602984
 30
0.0
 42
0.114641794533092
  0
VERTEX
  5
C7
  8
7
 10
-4006.626341929063
 20
929.0347338936299
 30
0.0
 42
-0.0978969226876536
  0
VERTEX
  5
C8
  8
7
 10
-4142.62092672482
 20
909.7181762857326
 30
0.0
 42
-0.0978969226876381
  0
VERTEX
  5
C9
  8
7
 10
-4278.615511520577
 20
929.0347338936263
 30
0.0
 42
0.1146417945331073
  0
VERTEX
  5
CA
  8
7
 10
-4442.62092672482
 20
970.3840536602984
 30
0.0
  0
SEQEND
  5
181
  8
7
  0
POLYLINE
  5
72
  8
7
 66
     1
 10
0.0
 20
0.0
 30
0.0
 70
     1
  0
VERTEX
  5
CB
  8
7
 10
-4442.62092672482
 20
639.3768503406136
 30
0.0
  0
VERTEX
  5
CC
  8
7
 10
-4442.62092672482
 20
229.7394182044009
 30
0.0
  0
VERTEX
  5
CD
  8
7
 10
-3842.62092672479
 20
229.7394182044009
 30
0.0
  0
VERTEX
  5
CE
  8
7
 10
-3842.620926724732
 20
639.3768503406136
 30
0.0
 42
-0.1146417945330634
  0
VERTEX
  5
CF
  8
7
 10
-4006.626341928946
 20
680.7261701071293
 30
0.0
 42
0.0978969226876536
  0
VERTEX
  5
D0
  8
7
 10
-4142.620926724732
 20
700.0427277150266
 30
0.0
 42
0.0978969226876411
  0
VERTEX
  5
D1
  8
7
 10
-4278.615511520489
 20
680.7261701071293
 30
0.0
 42
-0.1146417945331451
  0
SEQEND
  5
182
  8
7
  0
POLYLINE
  5
73
  8
7
 66
     1
 10
0.0
 20
0.0
 30
0.0
 70
     1
  0
VERTEX
  5
D2
  8
7
 10
-4472.620926724761
 20
670.0832087828458
 30
0.0
  0
VERTEX
  5
D3
  8
7
 10
-4472.62092672482
 20
199.7394182044009
 30
0.0
  0
VERTEX
  5
D4
  8
7
 10
-3812.62092672482
 20
199.7394182044009
 30
0.0
  0
VERTEX
  5
D5
  8
7
 10
-3812.620926724732
 20
670.0832087828494
 30
0.0
 42
-0.1378912160724543
  0
VERTEX
  5
D6
  8
7
 10
-3994.676821060435
 20
708.322684241266
 30
0.0
 42
0.0982587508472945
  0
VERTEX
  5
D7
  8
7
 10
-4142.620926724732
 20
730.0832087828712
 30
0.0
 42
0.0982587508472945
  0
VERTEX
  5
D8
  8
7
 10
-4290.565032389
 20
708.322684241266
 30
0.0
 42
-0.1378912160724543
  0
SEQEND
  5
183
  8
7
  0
POLYLINE
  5
74
  8
7
 66
     1
 10
0.0
 20
0.0
 30
0.0
  0
VERTEX
  5
D9
  8
7
 10
-4672.62092672482
 20
150.0
 30
0.0
  0
VERTEX
  5
DA
  8
7
 10
-4592.62092672482
 20
150.0
 30
0.0
  0
SEQEND
  5
184
  8
7
  0
POLYLINE
  5
75
  8
7
 66
     1
 10
0.0
 20
0.0
 30
0.0
  0
VERTEX
  5
DB
  8
7
 10
-4544.901832582327
 20
809.7619147225305
 30
0.0
 42
0.0344317431957447
  0
VERTEX
  5
DC
  8
7
 10
-4557.344228895687
 20
807.188383317789
 30
0.0
  0
VERTEX
  5
DD
  8
7
 10
-4557.344228895687
 20
750.7828533638713
 30
0.0
 42
0.137250155047855
  0
VERTEX
  5
DE
  8
7
 10
-4507.574643642249
 20
750.7828533638713
 30
0.0
  0
VERTEX
  5
DF
  8
7
 10
-4507.574643642249
 20
807.188383317789
 30
0.0
 42
0.0344317431957447
  0
VERTEX
  5
E0
  8
7
 10
-4520.017039955608
 20
809.7619147225305
 30
0.0
  0
SEQEND
  5
185
  8
7
  0
POLYLINE
  5
76
  8
7
 66
     1
 10
0.0
 20
0.0
 30
0.0
  0
VERTEX
  5
E1
  8
7
 10
-3692.62092672482
 20
150.0
 30
0.0
  0
VERTEX
  5
E2
  8
7
 10
-3612.62092672482
 20
150.0
 30
0.0
  0
SEQEND
  5
186
  8
7
  0
POLYLINE
  5
77
  8
7
 66
     1
 10
0.0
 20
0.0
 30
0.0
 70
     1
  0
VERTEX
  5
E3
  8
7
 10
-4537.924740801376
 20
1055.993682920831
 30
0.0
  0
VERTEX
  5
E4
  8
7
 10
-4526.994131736588
 20
1055.993682920831
 30
0.0
  0
VERTEX
  5
E5
  8
7
 10
-4526.994131736588
 20
1071.592080253071
 30
0.0
  0
VERTEX
  5
E6
  8
7
 10
-4537.924740801376
 20
1071.592080253071
 30
0.0
  0
SEQEND
  5
187
  8
7
  0
POLYLINE
  5
78
  8
7
 66
     1
 10
0.0
 20
0.0
 30
0.0
  0
VERTEX
  5
E7
  8
7
 10
-4520.017039955608
 20
997.6665111812508
 30
0.0
 42
0.0480068602429621
  0
VERTEX
  5
E8
  8
7
 10
-4490.984781891093
 20
1002.855246078409
 30
0.0
  0
VERTEX
  5
E9
  8
7
 10
-4490.984781891093
 20
1102.394416585321
 30
0.0
 42
0.1372501550478549
  0
VERTEX
  5
EA
  8
7
 10
-4573.934090646842
 20
1102.394416585321
 30
0.0
  0
VERTEX
  5
EB
  8
7
 10
-4573.934090646842
 20
1002.855246078409
 30
0.0
 42
0.0480068602429671
  0
VERTEX
  5
EC
  8
7
 10
-4544.901832582327
 20
997.6665111812508
 30
0.0
  0
SEQEND
  5
188
  8
7
  0
POLYLINE
  5
7A
  8
3
 66
     1
 10
0.0
 20
0.0
 30
0.0
 70
     1
  0
VERTEX
  5
ED
  8
3
 10
-4457.62092672482
 20
1904.683276776261
 30
0.0
 42
0.1257733815640799
  0
VERTEX
  5
EE
  8
3
 10
-4284.570460965086
 20
1944.815049571949
 30
0.0
 42
-0.0980704352796185
  0
VERTEX
  5
EF
  8
3
 10
-4142.62092672482
 20
1965.34585998418
 30
0.0
 42
-0.0980704352796108
  0
VERTEX
  5
F0
  8
3
 10
-4000.671392484583
 20
1944.815049571949
 30
0.0
 42
0.1257733815640679
  0
VERTEX
  5
F1
  8
3
 10
-3827.62092672482
 20
1904.683276776359
 30
0.0
  0
VERTEX
  5
F2
  8
3
 10
-3827.620926724849
 20
955.3596948164522
 30
0.0
 42
0.1257733815640746
  0
VERTEX
  5
F3
  8
3
 10
-4000.671392484583
 20
915.2279220207602
 30
0.0
 42
-0.0980704352796185
  0
VERTEX
  5
F4
  8
3
 10
-4142.62092672482
 20
894.6971116085297
 30
0.0
 42
-0.0980704352796087
  0
VERTEX
  5
F5
  8
3
 10
-4284.570460965057
 20
915.2279220207565
 30
0.0
 42
0.1257733815640848
  0
VERTEX
  5
F6
  8
3
 10
-4457.62092672482
 20
955.3596948164486
 30
0.0
  0
SEQEND
  5
189
  8
3
  0
POLYLINE
  5
7B
  8
3
 66
     1
 10
0.0
 20
0.0
 30
0.0
  0
VERTEX
  5
F7
  8
3
 10
-4592.62092672482
 20
2100.0
 30
0.0
  0
VERTEX
  5
F8
  8
3
 10
-4533.0957507984
 20
2030.553961419178
 30
0.0
  0
SEQEND
  5
18A
  8
3
  0
POLYLINE
  5
7C
  8
3
 66
     1
 10
0.0
 20
0.0
 30
0.0
  0
VERTEX
  5
F9
  8
3
 10
-4484.286397789203
 20
1973.609716241781
 30
0.0
  0
VERTEX
  5
FA
  8
3
 10
-4386.667691770808
 20
1859.721225886986
 30
0.0
  0
SEQEND
  5
18B
  8
3
  0
POLYLINE
  5
7D
  8
3
 66
     1
 10
0.0
 20
0.0
 30
0.0
  0
VERTEX
  5
FB
  8
3
 10
-4337.85833876161
 20
1802.776980709589
 30
0.0
  0
VERTEX
  5
FC
  8
3
 10
-4240.239632743215
 20
1688.888490354795
 30
0.0
  0
SEQEND
  5
18C
  8
3
  0
POLYLINE
  5
7E
  8
3
 66
     1
 10
0.0
 20
0.0
 30
0.0
  0
VERTEX
  5
FD
  8
3
 10
-4191.430279734017
 20
1631.944245177397
 30
0.0
  0
VERTEX
  5
FE
  8
3
 10
-4093.811573715622
 20
1518.055754822603
 30
0.0
  0
SEQEND
  5
18D
  8
3
  0
POLYLINE
  5
7F
  8
3
 66
     1
 10
0.0
 20
0.0
 30
0.0
  0
VERTEX
  5
FF
  8
3
 10
-4045.002220706424
 20
1461.111509645205
 30
0.0
  0
VERTEX
  5
100
  8
3
 10
-3947.383514688029
 20
1347.223019290411
 30
0.0
  0
SEQEND
  5
18E
  8
3
  0
POLYLINE
  5
80
  8
3
 66
     1
 10
0.0
 20
0.0
 30
0.0
  0
VERTEX
  5
101
  8
3
 10
-3898.574161678831
 20
1290.278774113014
 30
0.0
  0
VERTEX
  5
102
  8
3
 10
-3800.955455660436
 20
1176.390283758219
 30
0.0
  0
SEQEND
  5
18F
  8
3
  0
POLYLINE
  5
81
  8
3
 66
     1
 10
0.0
 20
0.0
 30
0.0
  0
VERTEX
  5
103
  8
3
 10
-3752.146102651238
 20
1119.446038580822
 30
0.0
  0
VERTEX
  5
104
  8
3
 10
-3692.62092672482
 20
1050.0
 30
0.0
  0
VERTEX
  5
105
  8
3
 10
-3751.072350275272
 20
982.131402655308
 30
0.0
  0
SEQEND
  5
190
  8
3
  0
POLYLINE
  5
82
  8
3
 66
     1
 10
0.0
 20
0.0
 30
0.0
  0
VERTEX
  5
106
  8
3
 10
-3800.015922331465
 20
925.3024773233946
 30
0.0
  0
VERTEX
  5
107
  8
3
 10
-3897.903066443852
 20
811.6446266595675
 30
0.0
  0
SEQEND
  5
191
  8
3
  0
POLYLINE
  5
83
  8
3
 66
     1
 10
0.0
 20
0.0
 30
0.0
  0
VERTEX
  5
108
  8
3
 10
-3946.846638500046
 20
754.815701327654
 30
0.0
  0
VERTEX
  5
109
  8
3
 10
-4044.733782612433
 20
641.157850663827
 30
0.0
  0
SEQEND
  5
192
  8
3
  0
POLYLINE
  5
84
  8
3
 66
     1
 10
0.0
 20
0.0
 30
0.0
  0
VERTEX
  5
10A
  8
3
 10
-4093.677354668626
 20
584.3289253319135
 30
0.0
  0
VERTEX
  5
10B
  8
3
 10
-4191.564498781013
 20
470.6710746680866
 30
0.0
  0
SEQEND
  5
193
  8
3
  0
POLYLINE
  5
85
  8
3
 66
     1
 10
0.0
 20
0.0
 30
0.0
  0
VERTEX
  5
10C
  8
3
 10
-4240.508070837206
 20
413.8421493361731
 30
0.0
  0
VERTEX
  5
10D
  8
3
 10
-4338.395214949594
 20
300.184298672346
 30
0.0
  0
SEQEND
  5
194
  8
3
  0
POLYLINE
  5
86
  8
3
 66
     1
 10
0.0
 20
0.0
 30
0.0
  0
VERTEX
  5
10E
  8
3
 10
-4387.338787005787
 20
243.3553733404326
 30
0.0
  0
VERTEX
  5
10F
  8
3
 10
-4485.225931118173
 20
129.6975226766056
 30
0.0
  0
SEQEND
  5
195
  8
3
  0
POLYLINE
  5
87
  8
3
 66
     1
 10
0.0
 20
0.0
 30
0.0
  0
VERTEX
  5
110
  8
3
 10
-4534.169503174367
 20
72.86859734469215
 30
0.0
  0
VERTEX
  5
111
  8
3
 10
-4592.62092672482
 20
5.000000000000227
 30
0.0
  0
SEQEND
  5
196
  8
3
  0
POLYLINE
  5
88
  8
3
 66
     1
 10
0.0
 20
0.0
 30
0.0
  0
VERTEX
  5
112
  8
3
 10
-3677.62092672482
 20
150.0
 30
0.0
  0
VERTEX
  5
113
  8
3
 10
-3677.62092672482
 20
2115.0
 30
0.0
  0
VERTEX
  5
114
  8
3
 10
-4607.62092672482
 20
2115.0
 30
0.0
  0
VERTEX
  5
115
  8
3
 10
-4607.62092672482
 20
150.0
 30
0.0
  0
SEQEND
  5
197
  8
3
  0
POLYLINE
  5
89
  8
3
 66
     1
 10
0.0
 20
0.0
 30
0.0
  0
VERTEX
  5
116
  8
3
 10
-3627.62092672482
 20
150.0
 30
0.0
  0
VERTEX
  5
117
  8
3
 10
-3627.62092672482
 20
2165.000000000011
 30
0.0
  0
VERTEX
  5
118
  8
3
 10
-4657.62092672482
 20
2165.000000000007
 30
0.0
  0
VERTEX
  5
119
  8
3
 10
-4657.62092672482
 20
150.0
 30
0.0
  0
SEQEND
  5
198
  8
3
  0
POLYLINE
  5
8A
  8
3
 66
     1
 10
0.0
 20
0.0
 30
0.0
 70
     1
  0
VERTEX
  5
11A
  8
3
 10
-4457.62092672482
 20
654.4012091844779
 30
0.0
  0
VERTEX
  5
11B
  8
3
 10
-4457.62092672482
 20
214.7394182044009
 30
0.0
  0
VERTEX
  5
11C
  8
3
 10
-3827.62092672482
 20
214.7394182044009
 30
0.0
  0
VERTEX
  5
11D
  8
3
 10
-3827.620926724732
 20
654.4012091844743
 30
0.0
 42
-0.1257733815640448
  0
VERTEX
  5
11E
  8
3
 10
-4000.671392484466
 20
694.532981979999
 30
0.0
 42
0.0980704352796185
  0
VERTEX
  5
11F
  8
3
 10
-4142.620926724732
 20
715.0637923922295
 30
0.0
 42
0.0980704352796087
  0
VERTEX
  5
120
  8
3
 10
-4284.570460964969
 20
694.5329819800027
 30
0.0
 42
-0.1257733815641272
  0
SEQEND
  5
199
  8
3
  0
POLYLINE
  5
8B
  8
3
 66
     1
 10
0.0
 20
0.0
 30
0.0
 70
     1
  0
VERTEX
  5
121
  8
3
 10
-4392.62092672482
 20
593.1609862289733
 30
0.0
  0
VERTEX
  5
122
  8
3
 10
-4392.62092672482
 20
279.7394182044009
 30
0.0
  0
VERTEX
  5
123
  8
3
 10
-3892.62092672479
 20
279.7394182044009
 30
0.0
  0
VERTEX
  5
124
  8
3
 10
-3892.620926724761
 20
593.1609862289879
 30
0.0
 42
-0.0830842189064814
  0
VERTEX
  5
125
  8
3
 10
-4026.188072050063
 20
634.5790555827625
 30
0.0
 42
0.097455388180804
  0
VERTEX
  5
126
  8
3
 10
-4142.620926724732
 20
649.9574657330777
 30
0.0
 42
0.0974553881807887
  0
VERTEX
  5
127
  8
3
 10
-4259.053781399343
 20
634.5790555827698
 30
0.0
 42
-0.0830842189065601
  0
SEQEND
  5
19A
  8
3
  0
POLYLINE
  5
8C
  8
3
 66
     1
 10
0.0
 20
0.0
 30
0.0
 70
     1
  0
VERTEX
  5
128
  8
3
 10
-4387.62092672482
 20
588.8162536807722
 30
0.0
  0
VERTEX
  5
129
  8
3
 10
-4387.62092672482
 20
284.7394182044009
 30
0.0
  0
VERTEX
  5
12A
  8
3
 10
-3897.62092672479
 20
284.7394182044009
 30
0.0
  0
VERTEX
  5
12B
  8
3
 10
-3897.620926724761
 20
588.8162536807904
 30
0.0
 42
-0.0803099984859028
  0
VERTEX
  5
12C
  8
3
 10
-4028.11943957796
 20
629.9536325958252
 30
0.0
 42
0.097425923796126
  0
VERTEX
  5
12D
  8
3
 10
-4142.620926724732
 20
644.9473673388966
 30
0.0
 42
0.0974259237961104
  0
VERTEX
  5
12E
  8
3
 10
-4257.122413871446
 20
629.9536325958325
 30
0.0
 42
-0.0803099984859853
  0
SEQEND
  5
19B
  8
3
  0
POLYLINE
  5
8D
  8
3
 66
     1
 10
0.0
 20
0.0
 30
0.0
  0
VERTEX
  5
12F
  8
3
 10
-4592.62092672482
 20
5.0
 30
0.0
  0
VERTEX
  5
130
  8
3
 10
-3692.62092672482
 20
5.0
 30
0.0
  0
SEQEND
  5
19C
  8
3
  0
POLYLINE
  5
8E
  8
3
 66
     1
 10
0.0
 20
0.0
 30
0.0
  0
VERTEX
  5
131
  8
3
 10
-4442.62092672482
 20
229.7394182044009
 30
0.0
  0
VERTEX
  5
132
  8
3
 10
-4472.62092672482
 20
199.7394182044009
 30
0.0
  0
SEQEND
  5
19D
  8
3
  0
POLYLINE
  5
8F
  8
3
 66
     1
 10
0.0
 20
0.0
 30
0.0
  0
VERTEX
  5
133
  8
3
 10
-4442.62092672482
 20
639.3768503406136
 30
0.0
  0
VERTEX
  5
134
  8
3
 10
-4472.620926724703
 20
670.0832087828494
 30
0.0
  0
SEQEND
  5
19E
  8
3
  0
POLYLINE
  5
90
  8
3
 66
     1
 10
0.0
 20
0.0
 30
0.0
  0
VERTEX
  5
135
  8
3
 10
-4554.026256545461
 20
804.6346157990811
 30
0.0
  0
VERTEX
  5
136
  8
3
 10
-4557.344228895716
 20
807.188383317789
 30
0.0
  0
SEQEND
  5
19F
  8
3
  0
POLYLINE
  5
91
  8
3
 66
     1
 10
0.0
 20
0.0
 30
0.0
  0
VERTEX
  5
137
  8
3
 10
-4554.026256545461
 20
753.3366208825864
 30
0.0
  0
VERTEX
  5
138
  8
3
 10
-4557.344228895716
 20
750.7828533638713
 30
0.0
  0
SEQEND
  5
1A0
  8
3
  0
POLYLINE
  5
92
  8
3
 66
     1
 10
0.0
 20
0.0
 30
0.0
  0
VERTEX
  5
139
  8
3
 10
-4510.892615992474
 20
753.3366208825828
 30
0.0
  0
VERTEX
  5
13A
  8
3
 10
-4507.574643642249
 20
750.7828533638713
 30
0.0
  0
SEQEND
  5
1A1
  8
3
  0
POLYLINE
  5
93
  8
3
 66
     1
 10
0.0
 20
0.0
 30
0.0
  0
VERTEX
  5
13B
  8
3
 10
-4510.892615992474
 20
804.6346157990811
 30
0.0
  0
VERTEX
  5
13C
  8
3
 10
-4507.574643642249
 20
807.188383317789
 30
0.0
  0
SEQEND
  5
1A2
  8
3
  0
POLYLINE
  5
94
  8
3
 66
     1
 10
0.0
 20
0.0
 30
0.0
 70
     1
  0
VERTEX
  5
13D
  8
3
 10
-4515.869574517812
 20
781.4740976036082
 30
0.0
  0
VERTEX
  5
13E
  8
3
 10
-4549.049298020123
 20
781.4740976036119
 30
0.0
  0
VERTEX
  5
13F
  8
3
 10
-4549.049298020123
 20
757.3155137134963
 30
0.0
 42
0.0996494814182195
  0
VERTEX
  5
140
  8
3
 10
-4515.869574517812
 20
757.3155137134963
 30
0.0
  0
SEQEND
  5
1A3
  8
3
  0
POLYLINE
  5
95
  8
3
 66
     1
 10
0.0
 20
0.0
 30
0.0
  0
VERTEX
  5
141
  8
3
 10
-4544.901832582327
 20
806.4122660627945
 30
0.0
 42
0.0261170045998071
  0
VERTEX
  5
142
  8
3
 10
-4554.026256545461
 20
804.6346157990811
 30
0.0
  0
VERTEX
  5
143
  8
3
 10
-4554.026256545461
 20
753.3366208825864
 30
0.0
 42
0.1229312796659984
  0
VERTEX
  5
144
  8
3
 10
-4510.892615992474
 20
753.3366208825828
 30
0.0
  0
VERTEX
  5
145
  8
3
 10
-4510.892615992474
 20
804.6346157990811
 30
0.0
 42
0.0261170045998157
  0
VERTEX
  5
146
  8
3
 10
-4520.017039955608
 20
806.4122660627945
 30
0.0
  0
SEQEND
  5
1A4
  8
3
  0
POLYLINE
  5
96
  8
3
 66
     1
 10
0.0
 20
0.0
 30
0.0
  0
VERTEX
  5
147
  8
3
 10
-3812.62092672482
 20
199.7394182044009
 30
0.0
  0
VERTEX
  5
148
  8
3
 10
-3842.62092672479
 20
229.7394182044009
 30
0.0
  0
SEQEND
  5
1A5
  8
3
  0
POLYLINE
  5
97
  8
3
 66
     1
 10
0.0
 20
0.0
 30
0.0
  0
VERTEX
  5
149
  8
3
 10
-3812.620926724732
 20
670.0832087828494
 30
0.0
  0
VERTEX
  5
14A
  8
3
 10
-3842.620926724732
 20
639.3768503406136
 30
0.0
  0
SEQEND
  5
1A6
  8
3
  0
POLYLINE
  5
98
  8
3
 66
     1
 10
0.0
 20
0.0
 30
0.0
 70
     1
  0
VERTEX
  5
14B
  8
3
 10
-4392.62092672482
 20
1843.443053820694
 30
0.0
 42
0.0830842189065671
  0
VERTEX
  5
14C
  8
3
 10
-4259.053781399401
 20
1884.861123174731
 30
0.0
 42
-0.097455388180757
  0
VERTEX
  5
14D
  8
3
 10
-4142.62092672482
 20
1900.239533325028
 30
0.0
 42
-0.097455388180775
  0
VERTEX
  5
14E
  8
3
 10
-4026.188072050209
 20
1884.861123174724
 30
0.0
 42
0.0830842189065332
  0
VERTEX
  5
14F
  8
3
 10
-3892.62092672482
 20
1843.443053820851
 30
0.0
  0
VERTEX
  5
150
  8
3
 10
-3892.620926724849
 20
1016.599917771891
 30
0.0
 42
0.0830842189065269
  0
VERTEX
  5
151
  8
3
 10
-4026.188072050209
 20
975.1818484179857
 30
0.0
 42
-0.0974553881807816
  0
VERTEX
  5
152
  8
3
 10
-4142.62092672482
 20
959.8034382676815
 30
0.0
 42
-0.0974553881807704
  0
VERTEX
  5
153
  8
3
 10
-4259.053781399431
 20
975.1818484179857
 30
0.0
 42
0.0830842189065355
  0
VERTEX
  5
154
  8
3
 10
-4392.62092672482
 20
1016.599917771891
 30
0.0
  0
SEQEND
  5
1A7
  8
3
  0
POLYLINE
  5
99
  8
3
 66
     1
 10
0.0
 20
0.0
 30
0.0
 70
     1
  0
VERTEX
  5
155
  8
3
 10
-4387.62092672482
 20
1839.098321272504
 30
0.0
 42
0.0803099984859868
  0
VERTEX
  5
156
  8
3
 10
-4257.122413871533
 20
1880.235700187794
 30
0.0
 42
-0.0974259237960753
  0
VERTEX
  5
157
  8
3
 10
-4142.62092672482
 20
1895.229434930843
 30
0.0
 42
-0.0974259237960929
  0
VERTEX
  5
158
  8
3
 10
-4028.119439578106
 20
1880.23570018779
 30
0.0
 42
0.0803099984859492
  0
VERTEX
  5
159
  8
3
 10
-3897.62092672482
 20
1839.098321272711
 30
0.0
  0
VERTEX
  5
15A
  8
3
 10
-3897.620926724849
 20
1020.944650319943
 30
0.0
 42
0.0803099984859236
  0
VERTEX
  5
15B
  8
3
 10
-4028.119439578106
 20
979.8072714049231
 30
0.0
 42
-0.0974259237961003
  0
VERTEX
  5
15C
  8
3
 10
-4142.62092672482
 20
964.8135366618662
 30
0.0
 42
-0.0974259237960891
  0
VERTEX
  5
15D
  8
3
 10
-4257.122413871533
 20
979.8072714049194
 30
0.0
 42
0.0803099984859305
  0
VERTEX
  5
15E
  8
3
 10
-4387.62092672482
 20
1020.944650319943
 30
0.0
  0
SEQEND
  5
1A8
  8
3
  0
POLYLINE
  5
9A
  8
3
 66
     1
 10
0.0
 20
0.0
 30
0.0
  0
VERTEX
  5
15F
  8
3
 10
-4568.957132121504
 20
1098.569410166241
 30
0.0
  0
VERTEX
  5
160
  8
3
 10
-4573.934090646871
 20
1102.394416585321
 30
0.0
  0
SEQEND
  5
1A9
  8
3
  0
POLYLINE
  5
9B
  8
3
 66
     1
 10
0.0
 20
0.0
 30
0.0
  0
VERTEX
  5
161
  8
3
 10
-4495.961740416431
 20
1098.569410166241
 30
0.0
  0
VERTEX
  5
162
  8
3
 10
-4490.984781891093
 20
1102.394416585321
 30
0.0
  0
SEQEND
  5
1AA
  8
3
  0
POLYLINE
  5
9C
  8
3
 66
     1
 10
0.0
 20
0.0
 30
0.0
  0
VERTEX
  5
163
  8
3
 10
-4442.62092672482
 20
970.3840536602984
 30
0.0
  0
VERTEX
  5
164
  8
3
 10
-4472.62092672482
 20
939.6776952179098
 30
0.0
  0
SEQEND
  5
1AB
  8
3
  0
POLYLINE
  5
9D
  8
3
 66
     1
 10
0.0
 20
0.0
 30
0.0
  0
VERTEX
  5
165
  8
3
 10
-4495.961740416431
 20
1001.552111728615
 30
0.0
  0
VERTEX
  5
166
  8
3
 10
-4495.961740416431
 20
1098.569410166241
 30
0.0
 42
0.1244037611604228
  0
VERTEX
  5
167
  8
3
 10
-4568.957132121504
 20
1098.569410166241
 30
0.0
  0
VERTEX
  5
168
  8
3
 10
-4568.957132121504
 20
1001.552111728615
 30
0.0
  0
SEQEND
  5
1AC
  8
3
  0
POLYLINE
  5
9E
  8
3
 66
     1
 10
0.0
 20
0.0
 30
0.0
  0
VERTEX
  5
169
  8
3
 10
-4563.980173596166
 20
1099.736706030832
 30
0.0
  0
VERTEX
  5
16A
  8
3
 10
-4563.980173596166
 20
1032.274659058774
 30
0.0
  0
VERTEX
  5
16B
  8
3
 10
-4500.938698941798
 20
1032.274659058774
 30
0.0
  0
VERTEX
  5
16C
  8
3
 10
-4500.938698941798
 20
1099.736706030828
 30
0.0
  0
SEQEND
  5
1AD
  8
3
  0
POLYLINE
  5
9F
  8
3
 66
     1
 10
0.0
 20
0.0
 30
0.0
  0
VERTEX
  5
16D
  8
3
 10
-4442.62092672482
 20
1889.658917932251
 30
0.0
  0
VERTEX
  5
16E
  8
3
 10
-4472.62092672482
 20
1920.365276374792
 30
0.0
  0
SEQEND
  5
1AE
  8
3
  0
POLYLINE
  5
A0
  8
3
 66
     1
 10
0.0
 20
0.0
 30
0.0
  0
VERTEX
  5
16F
  8
3
 10
-3812.620926724849
 20
939.6776952179098
 30
0.0
  0
VERTEX
  5
170
  8
3
 10
-3842.620926724849
 20
970.3840536602984
 30
0.0
  0
SEQEND
  5
1AF
  8
3
  0
POLYLINE
  5
A1
  8
3
 66
     1
 10
0.0
 20
0.0
 30
0.0
  0
VERTEX
  5
171
  8
3
 10
-3812.62092672479
 20
1920.365276374851
 30
0.0
  0
VERTEX
  5
172
  8
3
 10
-3842.62092672482
 20
1889.658917932393
 30
0.0
  0
SEQEND
  5
1B0
  8
3
  0
POLYLINE
  5
A2
  8
3
 66
     1
 10
0.0
 20
0.0
 30
0.0
  0
VERTEX
  5
173
  8
3
 10
-4607.62092672482
 20
2115.0
 30
0.0
  0
VERTEX
  5
174
  8
3
 10
-4657.62092672482
 20
2165.000000000007
 30
0.0
  0
SEQEND
  5
1B1
  8
3
  0
POLYLINE
  5
A3
  8
3
 66
     1
 10
0.0
 20
0.0
 30
0.0
  0
VERTEX
  5
175
  8
3
 10
-3677.62092672482
 20
2115.0
 30
0.0
  0
VERTEX
  5
176
  8
3
 10
-3627.62092672482
 20
2165.000000000011
 30
0.0
  0
SEQEND
  5
1B2
  8
3
  0
POLYLINE
  5
A5
  8
4
 66
     1
 10
0.0
 20
0.0
 30
0.0
  0
VERTEX
  5
177
  8
4
 10
-3612.62092672482
 20
0.0
 30
0.0
  0
VERTEX
  5
178
  8
4
 10
-3612.62092672482
 20
2180.000000000004
 30
0.0
  0
VERTEX
  5
179
  8
4
 10
-4672.62092672482
 20
2180.000000000004
 30
0.0
  0
VERTEX
  5
17A
  8
4
 10
-4672.62092672482
 20
0.0
 30
0.0
  0
SEQEND
  5
1B3
  8
4
  0
ENDSEC
  0
EOF
