  0
SECTION
  2
HEADER
  9
$ACADVER
  1
AC1006
  9
$EXTMIN
 10
0.000000
 20
0.000000
 30
0.000000
  9
$EXTMAX
 10
400.000000
 20
400.000000
 30
0.000000
  0
ENDSEC
  0
SECTION
  2
ENTITIES
  0
POLYLINE
  8
0
 66
1
 70
1
  0
VERTEX
  8
0
 10
104.186973
 20
376.689778
 42
-0.021430
  0
VERTEX
  8
0
 10
101.780517
 20
371.824413
 42
-0.003722
  0
VERTEX
  8
0
 10
96.776724
 20
362.870917
 42
-0.001339
  0
VERTEX
  8
0
 10
91.317542
 20
353.330628
 42
-0.099959
  0
VERTEX
  8
0
 10
90.146530
 20
352.000000
 42
0.052627
  0
VERTEX
  8
0
 10
89.762926
 20
351.639024
 42
0.004623
  0
VERTEX
  8
0
 10
88.901162
 20
350.618750
 42
0.006018
  0
VERTEX
  8
0
 10
87.896760
 20
349.376928
 42
0.004647
  0
VERTEX
  8
0
 10
86.830851
 20
348.000000
 42
-0.006936
  0
VERTEX
  8
0
 10
85.607739
 20
346.434856
 42
-0.004215
  0
VERTEX
  8
0
 10
84.120566
 20
344.616874
 42
-0.004222
  0
VERTEX
  8
0
 10
82.614687
 20
342.838130
 42
-0.007437
  0
VERTEX
  8
0
 10
81.336540
 20
341.397868
 42
0.001584
  0
VERTEX
  8
0
 10
80.098282
 20
340.035022
 42
0.001133
  0
VERTEX
  8
0
 10
78.721088
 20
338.502613
 42
0.001143
  0
VERTEX
  8
0
 10
77.415276
 20
337.036261
 42
0.002452
  0
VERTEX
  8
0
 10
76.416100
 20
335.897868
 42
-0.021166
  0
VERTEX
  8
0
 10
75.216222
 20
334.629822
 42
-0.004813
  0
VERTEX
  8
0
 10
73.073304
 20
332.588749
 42
-0.004973
  0
VERTEX
  8
0
 10
70.554058
 20
330.281562
 42
-0.004817
  0
VERTEX
  8
0
 10
67.962696
 20
328.000000
 42
0.002443
  0
VERTEX
  8
0
 10
65.314103
 20
325.690280
 42
0.002272
  0
VERTEX
  8
0
 10
62.623132
 20
323.298553
 42
0.002264
  0
VERTEX
  8
0
 10
60.249933
 20
321.150404
 42
0.007679
  0
VERTEX
  8
0
 10
58.729870
 20
319.718477
 42
0.000000
  0
VERTEX
  8
0
 10
55.866548
 20
316.936954
 42
0.000000
  0
VERTEX
  8
0
 10
60.183274
 20
311.872793
 42
-0.027943
  0
VERTEX
  8
0
 10
69.073174
 20
300.179161
 42
-0.046422
  0
VERTEX
  8
0
 10
75.020264
 20
289.328475
 42
-0.048672
  0
VERTEX
  8
0
 10
78.683473
 20
277.944637
 42
-0.034574
  0
VERTEX
  8
0
 10
80.621479
 20
264.667148
 42
-0.043467
  0
VERTEX
  8
0
 10
80.512934
 20
254.854573
 42
-0.028725
  0
VERTEX
  8
0
 10
78.766936
 20
243.707905
 42
-0.018941
  0
VERTEX
  8
0
 10
74.972977
 20
228.892043
 42
-0.005590
  0
VERTEX
  8
0
 10
68.052572
 20
206.500000
 42
0.016804
  0
VERTEX
  8
0
 10
65.297409
 20
196.821040
 42
0.008716
  0
VERTEX
  8
0
 10
62.477494
 20
184.572565
 42
0.008567
  0
VERTEX
  8
0
 10
60.150242
 20
172.582696
 42
0.023263
  0
VERTEX
  8
0
 10
59.045037
 20
164.000000
 42
0.043216
  0
VERTEX
  8
0
 10
59.137662
 20
144.813839
 42
0.044781
  0
VERTEX
  8
0
 10
62.545019
 20
126.163901
 42
0.046157
  0
VERTEX
  8
0
 10
69.072201
 20
108.951453
 42
0.052665
  0
VERTEX
  8
0
 10
78.425423
 20
94.030830
 42
0.041014
  0
VERTEX
  8
0
 10
88.856466
 20
82.769773
 42
0.040114
  0
VERTEX
  8
0
 10
101.059214
 20
73.270275
 42
0.034700
  0
VERTEX
  8
0
 10
116.170864
 20
64.779365
 42
0.019629
  0
VERTEX
  8
0
 10
135.500000
 20
56.532047
 42
-0.000008
  0
VERTEX
  8
0
 10
142.011053
 20
54.051092
 42
-0.000006
  0
VERTEX
  8
0
 10
149.178125
 20
51.319951
 42
-0.000006
  0
VERTEX
  8
0
 10
155.922732
 20
48.749620
 42
-0.000013
  0
VERTEX
  8
0
 10
161.000000
 20
46.814481
 42
-0.022533
  0
VERTEX
  8
0
 10
170.506375
 20
42.691467
 42
-0.035612
  0
VERTEX
  8
0
 10
178.189729
 20
38.236213
 42
-0.042083
  0
VERTEX
  8
0
 10
184.089201
 20
33.457838
 42
-0.065349
  0
VERTEX
  8
0
 10
188.178024
 20
28.353484
 42
0.010972
  0
VERTEX
  8
0
 10
189.477412
 20
26.311947
 42
0.017529
  0
VERTEX
  8
0
 10
190.684970
 20
24.634013
 42
0.011750
  0
VERTEX
  8
0
 10
191.732551
 20
23.344796
 42
0.314944
  0
VERTEX
  8
0
 10
192.137858
 20
23.239265
 42
0.134450
  0
VERTEX
  8
0
 10
192.541760
 20
23.529323
 42
0.006056
  0
VERTEX
  8
0
 10
193.612005
 20
24.884130
 42
0.009788
  0
VERTEX
  8
0
 10
194.843251
 20
26.548564
 42
0.006816
  0
VERTEX
  8
0
 10
196.170064
 20
28.472669
 42
-0.079421
  0
VERTEX
  8
0
 10
202.907256
 20
35.725260
 42
-0.046391
  0
VERTEX
  8
0
 10
212.912514
 20
42.152387
 42
-0.030244
  0
VERTEX
  8
0
 10
227.912157
 20
48.811449
 42
-0.009279
  0
VERTEX
  8
0
 10
251.294193
 20
57.050484
 42
0.027362
  0
VERTEX
  8
0
 10
258.594634
 20
59.923559
 42
0.010146
  0
VERTEX
  8
0
 10
268.541833
 20
64.727773
 42
0.010310
  0
VERTEX
  8
0
 10
278.531056
 20
70.066703
 42
0.020540
  0
VERTEX
  8
0
 10
286.161937
 20
74.771878
 42
0.032315
  0
VERTEX
  8
0
 10
292.465260
 20
79.645906
 42
0.016413
  0
VERTEX
  8
0
 10
299.763879
 20
86.522618
 42
0.016370
  0
VERTEX
  8
0
 10
306.520817
 20
93.781618
 42
0.036227
  0
VERTEX
  8
0
 10
311.063196
 20
99.826382
 42
0.039539
  0
VERTEX
  8
0
 10
314.301842
 20
105.854975
 42
0.013464
  0
VERTEX
  8
0
 10
318.055819
 20
115.065708
 42
0.013790
  0
VERTEX
  8
0
 10
321.432515
 20
124.843929
 42
0.025286
  0
VERTEX
  8
0
 10
323.553078
 20
133.000000
 42
0.019092
  0
VERTEX
  8
0
 10
324.363933
 20
137.850855
 42
0.014445
  0
VERTEX
  8
0
 10
324.895214
 20
143.223879
 42
0.011903
  0
VERTEX
  8
0
 10
325.187098
 20
149.583355
 42
0.006250
  0
VERTEX
  8
0
 10
325.262786
 20
157.500000
 42
0.009930
  0
VERTEX
  8
0
 10
325.003989
 20
168.850139
 42
0.033257
  0
VERTEX
  8
0
 10
324.193775
 20
176.243933
 42
0.024558
  0
VERTEX
  8
0
 10
322.302952
 20
184.515200
 42
0.003624
  0
VERTEX
  8
0
 10
317.543172
 20
201.000000
 42
0.000001
  0
VERTEX
  8
0
 10
315.907274
 20
206.515343
 42
0.000001
  0
VERTEX
  8
0
 10
314.053357
 20
212.765625
 42
0.000001
  0
VERTEX
  8
0
 10
312.269527
 20
218.779530
 42
0.000002
  0
VERTEX
  8
0
 10
310.869324
 20
223.500000
 42
0.000402
  0
VERTEX
  8
0
 10
309.621224
 20
227.695254
 42
0.000364
  0
VERTEX
  8
0
 10
308.324020
 20
232.031250
 42
0.000364
  0
VERTEX
  8
0
 10
307.156619
 20
235.912786
 42
0.001163
  0
VERTEX
  8
0
 10
306.369870
 20
238.500000
 42
-0.036463
  0
VERTEX
  8
0
 10
305.737166
 20
241.268995
 42
-0.009291
  0
VERTEX
  8
0
 10
305.125456
 20
245.835454
 42
-0.009344
  0
VERTEX
  8
0
 10
304.616115
 20
251.130590
 42
-0.008921
  0
VERTEX
  8
0
 10
304.295576
 20
256.523591
 42
-0.006349
  0
VERTEX
  8
0
 10
304.080896
 20
263.968525
 42
-0.023414
  0
VERTEX
  8
0
 10
304.225271
 20
268.671366
 42
-0.030303
  0
VERTEX
  8
0
 10
304.784647
 20
272.696173
 42
-0.016797
  0
VERTEX
  8
0
 10
305.926555
 20
277.523591
 42
-0.038032
  0
VERTEX
  8
0
 10
309.495435
 20
287.552149
 42
-0.024942
  0
VERTEX
  8
0
 10
315.027684
 20
298.502788
 42
-0.024691
  0
VERTEX
  8
0
 10
321.213333
 20
308.216329
 42
-0.072090
  0
VERTEX
  8
0
 10
326.676066
 20
313.959833
 42
0.027284
  0
VERTEX
  8
0
 10
327.612895
 20
314.783272
 42
0.037873
  0
VERTEX
  8
0
 10
328.349111
 20
315.623588
 42
0.042080
  0
VERTEX
  8
0
 10
328.816383
 20
316.369491
 42
0.212055
  0
VERTEX
  8
0
 10
328.844037
 20
316.848947
 42
0.115720
  0
VERTEX
  8
0
 10
328.448281
 20
317.439099
 42
0.001722
  0
VERTEX
  8
0
 10
325.369811
 20
320.285311
 42
0.004574
  0
VERTEX
  8
0
 10
321.740655
 20
323.556868
 42
0.002993
  0
VERTEX
  8
0
 10
317.500000
 20
327.264887
 42
-0.002609
  0
VERTEX
  8
0
 10
313.091965
 20
331.113287
 42
-0.003038
  0
VERTEX
  8
0
 10
308.943843
 20
334.818157
 42
-0.002698
  0
VERTEX
  8
0
 10
305.471105
 20
337.992173
 42
-0.018245
  0
VERTEX
  8
0
 10
303.819467
 20
339.633830
 42
-0.037301
  0
VERTEX
  8
0
 10
299.647627
 20
344.820560
 42
-0.009203
  0
VERTEX
  8
0
 10
293.615653
 20
353.939483
 42
-0.009906
  0
VERTEX
  8
0
 10
287.672322
 20
363.716810
 42
-0.019519
  0
VERTEX
  8
0
 10
283.414921
 20
371.750000
 42
0.008523
  0
VERTEX
  8
0
 10
281.634717
 20
375.295290
 42
0.013247
  0
VERTEX
  8
0
 10
279.967974
 20
378.282812
 42
0.007429
  0
VERTEX
  8
0
 10
278.491113
 20
380.690343
 42
0.256860
  0
VERTEX
  8
0
 10
277.928110
 20
381.000000
 42
0.122569
  0
VERTEX
  8
0
 10
277.277502
 20
380.838079
 42
0.007599
  0
VERTEX
  8
0
 10
275.522185
 20
379.872209
 42
0.010891
  0
VERTEX
  8
0
 10
273.452314
 20
378.631420
 42
0.007839
  0
VERTEX
  8
0
 10
271.195131
 20
377.160712
 42
-0.025874
  0
VERTEX
  8
0
 10
267.940952
 20
375.203782
 42
-0.028821
  0
VERTEX
  8
0
 10
264.614746
 20
373.670031
 42
-0.024783
  0
VERTEX
  8
0
 10
260.732973
 20
372.362627
 42
-0.012551
  0
VERTEX
  8
0
 10
255.734293
 20
371.085104
 42
0.000000
  0
VERTEX
  8
0
 10
245.968586
 20
368.848784
 42
0.000000
  0
VERTEX
  8
0
 10
220.248019
 20
372.487279
 42
0.006066
  0
VERTEX
  8
0
 10
201.639749
 20
374.889781
 42
0.031343
  0
VERTEX
  8
0
 10
191.280153
 20
375.445614
 42
0.029185
  0
VERTEX
  8
0
 10
180.627110
 20
374.726329
 42
0.004810
  0
VERTEX
  8
0
 10
160.195151
 20
371.942996
 42
-0.009896
  0
VERTEX
  8
0
 10
149.735026
 20
370.626287
 42
-0.021905
  0
VERTEX
  8
0
 10
141.709965
 20
370.131116
 42
-0.027459
  0
VERTEX
  8
0
 10
134.946306
 20
370.382051
 42
-0.030667
  0
VERTEX
  8
0
 10
128.500000
 20
371.378097
 42
-0.024055
  0
VERTEX
  8
0
 10
122.967283
 20
372.866024
 42
-0.023105
  0
VERTEX
  8
0
 10
117.526523
 20
374.895439
 42
-0.023246
  0
VERTEX
  8
0
 10
112.944417
 20
377.107168
 42
-0.084965
  0
VERTEX
  8
0
 10
110.416316
 20
379.092470
 42
0.069862
  0
VERTEX
  8
0
 10
108.598132
 20
380.610696
 42
0.235294
  0
VERTEX
  8
0
 10
107.099621
 20
380.752059
 42
0.164927
  0
VERTEX
  8
0
 10
105.707219
 20
379.591024
 42
0.033107
  0
SEQEND
  0
POLYLINE
  8
0
 66
1
 70
1
  0
VERTEX
  8
0
 10
112.505755
 20
374.159495
 42
0.036603
  0
VERTEX
  8
0
 10
118.067765
 20
371.302973
 42
0.035951
  0
VERTEX
  8
0
 10
124.019929
 20
369.268160
 42
0.032242
  0
VERTEX
  8
0
 10
130.768444
 20
367.948776
 42
0.020471
  0
VERTEX
  8
0
 10
138.750000
 20
367.247208
 42
0.000000
  0
VERTEX
  8
0
 10
150.000000
 20
366.721034
 42
0.000000
  0
VERTEX
  8
0
 10
149.978038
 20
336.110517
 42
-0.000665
  0
VERTEX
  8
0
 10
149.935777
 20
315.479580
 42
-0.016789
  0
VERTEX
  8
0
 10
149.727190
 20
309.837655
 42
-0.349781
  0
VERTEX
  8
0
 10
149.029406
 20
309.078786
 42
-0.336620
  0
VERTEX
  8
0
 10
148.103669
 20
309.578599
 42
0.030536
  0
VERTEX
  8
0
 10
147.191036
 20
311.300476
 42
0.022096
  0
VERTEX
  8
0
 10
145.977847
 20
313.102201
 42
0.022443
  0
VERTEX
  8
0
 10
144.667764
 20
314.716715
 42
0.044460
  0
VERTEX
  8
0
 10
143.468083
 20
315.846446
 42
0.000000
  0
VERTEX
  8
0
 10
140.684905
 20
318.035694
 42
0.000000
  0
VERTEX
  8
0
 10
142.775840
 20
320.267847
 42
0.109905
  0
VERTEX
  8
0
 10
146.262506
 20
326.166961
 42
0.123759
  0
VERTEX
  8
0
 10
146.713241
 20
332.725671
 42
0.122254
  0
VERTEX
  8
0
 10
144.003617
 20
338.777812
 42
0.105628
  0
VERTEX
  8
0
 10
138.649228
 20
343.251887
 42
0.044256
  0
VERTEX
  8
0
 10
135.890867
 20
344.408811
 42
0.040138
  0
VERTEX
  8
0
 10
132.880403
 20
345.108771
 42
0.024402
  0
VERTEX
  8
0
 10
128.673247
 20
345.528439
 42
0.005527
  0
VERTEX
  8
0
 10
121.500000
 20
345.812460
 42
0.000000
  0
VERTEX
  8
0
 10
108.500000
 20
346.183317
 42
0.000000
  0
VERTEX
  8
0
 10
108.500000
 20
361.090623
 42
-0.003143
  0
VERTEX
  8
0
 10
108.535933
 20
366.806598
 42
-0.005240
  0
VERTEX
  8
0
 10
108.646875
 20
371.618114
 42
-0.001103
  0
VERTEX
  8
0
 10
108.796408
 20
375.800274
 42
-0.404714
  0
VERTEX
  8
0
 10
109.000000
 20
375.995226
 42
-0.113376
  0
VERTEX
  8
0
 10
109.319731
 20
375.919961
 42
-0.006349
  0
VERTEX
  8
0
 10
110.236065
 20
375.454865
 42
-0.009508
  0
VERTEX
  8
0
 10
111.317922
 20
374.861888
 42
-0.006804
  0
SEQEND
  0
POLYLINE
  8
0
 66
1
 70
1
  0
VERTEX
  8
0
 10
276.000000
 20
361.000000
 42
0.000000
  0
VERTEX
  8
0
 10
276.000000
 20
346.000000
 42
0.000000
  0
VERTEX
  8
0
 10
271.000000
 20
346.000000
 42
0.009771
  0
VERTEX
  8
0
 10
267.816243
 20
345.937780
 42
0.123780
  0
VERTEX
  8
0
 10
266.675028
 20
345.602951
 42
0.222512
  0
VERTEX
  8
0
 10
266.144952
 20
344.830150
 42
0.040853
  0
VERTEX
  8
0
 10
266.000000
 20
343.059017
 42
-0.031089
  0
VERTEX
  8
0
 10
265.927138
 20
341.888333
 42
-0.036876
  0
VERTEX
  8
0
 10
265.709194
 20
340.802220
 42
-0.040041
  0
VERTEX
  8
0
 10
265.391801
 20
339.937530
 42
-0.147402
  0
VERTEX
  8
0
 10
265.010023
 20
339.506194
 42
0.084019
  0
VERTEX
  8
0
 10
264.393758
 20
338.964359
 42
0.002546
  0
VERTEX
  8
0
 10
262.252251
 20
336.298974
 42
0.004970
  0
VERTEX
  8
0
 10
259.769082
 20
333.111366
 42
0.003407
  0
VERTEX
  8
0
 10
257.012045
 20
329.447177
 42
-0.003663
  0
VERTEX
  8
0
 10
254.284221
 20
325.825666
 42
-0.005844
  0
VERTEX
  8
0
 10
251.894215
 20
322.775108
 42
-0.001694
  0
VERTEX
  8
0
 10
249.789617
 20
320.170690
 42
-0.225656
  0
VERTEX
  8
0
 10
249.430666
 20
320.000000
 42
-0.404083
  0
VERTEX
  8
0
 10
249.202333
 20
320.220542
 42
-0.002014
  0
VERTEX
  8
0
 10
249.095276
 20
323.708645
 42
-0.007097
  0
VERTEX
  8
0
 10
249.044493
 20
327.784093
 42
-0.004255
  0
VERTEX
  8
0
 10
249.094084
 20
332.625173
 42
0.000000
  0
VERTEX
  8
0
 10
249.330881
 20
345.250346
 42
0.000000
  0
VERTEX
  8
0
 10
241.632363
 20
345.199554
 42
0.000000
  0
VERTEX
  8
0
 10
233.933846
 20
345.148762
 42
0.000000
  0
VERTEX
  8
0
 10
234.216923
 20
355.824381
 42
0.000000
  0
VERTEX
  8
0
 10
234.500000
 20
366.500000
 42
0.000000
  0
VERTEX
  8
0
 10
245.500000
 20
367.143073
 42
0.021228
  0
VERTEX
  8
0
 10
253.893497
 20
367.992386
 42
0.027301
  0
VERTEX
  8
0
 10
261.496990
 20
369.516933
 42
0.030504
  0
VERTEX
  8
0
 10
267.778625
 20
371.553101
 42
0.073742
  0
VERTEX
  8
0
 10
272.000000
 20
373.979439
 42
-0.012947
  0
VERTEX
  8
0
 10
273.012184
 20
374.737767
 42
-0.016455
  0
VERTEX
  8
0
 10
273.985937
 20
375.381584
 42
-0.014503
  0
VERTEX
  8
0
 10
274.823383
 20
375.863609
 42
-0.116431
  0
VERTEX
  8
0
 10
275.250000
 20
375.977764
 42
-0.405406
  0
VERTEX
  8
0
 10
275.553583
 20
375.700189
 42
-0.002443
  0
VERTEX
  8
0
 10
275.779688
 20
371.587218
 42
-0.007822
  0
VERTEX
  8
0
 10
275.946100
 20
366.750113
 42
-0.004687
  0
SEQEND
  0
POLYLINE
  8
0
 66
1
 70
1
  0
VERTEX
  8
0
 10
207.202020
 20
317.252849
 42
-0.002430
  0
VERTEX
  8
0
 10
207.037181
 20
306.950445
 42
-0.003901
  0
VERTEX
  8
0
 10
206.785353
 20
298.165868
 42
-0.000850
  0
VERTEX
  8
0
 10
206.491798
 20
290.476973
 42
-0.195399
  0
VERTEX
  8
0
 10
206.202020
 20
289.838050
 42
-0.110975
  0
VERTEX
  8
0
 10
204.484349
 20
288.813041
 42
-0.005709
  0
VERTEX
  8
0
 10
198.278599
 20
286.855518
 42
-0.010029
  0
VERTEX
  8
0
 10
191.771350
 20
285.025950
 42
-0.017955
  0
VERTEX
  8
0
 10
186.349927
 20
283.824316
 42
-0.012975
  0
VERTEX
  8
0
 10
182.523615
 20
283.221484
 42
-0.062276
  0
VERTEX
  8
0
 10
180.320565
 20
283.208434
 42
-0.070021
  0
VERTEX
  8
0
 10
178.303585
 20
283.741288
 42
-0.018992
  0
VERTEX
  8
0
 10
175.304043
 20
285.139064
 42
-0.082097
  0
VERTEX
  8
0
 10
170.714146
 20
288.541353
 42
-0.101849
  0
VERTEX
  8
0
 10
167.868562
 20
293.019283
 42
-0.108049
  0
VERTEX
  8
0
 10
167.120415
 20
298.043150
 42
-0.102815
  0
VERTEX
  8
0
 10
168.510350
 20
303.020016
 42
-0.129870
  0
VERTEX
  8
0
 10
172.128487
 20
307.018175
 42
-0.185659
  0
VERTEX
  8
0
 10
176.758860
 20
308.004240
 42
-0.205382
  0
VERTEX
  8
0
 10
180.521595
 20
305.632356
 42
-0.151959
  0
VERTEX
  8
0
 10
182.000000
 20
300.880196
 42
-0.080503
  0
VERTEX
  8
0
 10
181.556566
 20
298.143903
 42
-0.129874
  0
VERTEX
  8
0
 10
180.271406
 20
296.180707
 42
-0.142687
  0
VERTEX
  8
0
 10
178.284688
 20
295.222453
 42
-0.105825
  0
VERTEX
  8
0
 10
175.836596
 20
295.332480
 42
0.274836
  0
VERTEX
  8
0
 10
173.729586
 20
294.725118
 42
0.226451
  0
VERTEX
  8
0
 10
173.008045
 20
292.459584
 42
0.119753
  0
VERTEX
  8
0
 10
174.311760
 20
289.151715
 42
0.106255
  0
VERTEX
  8
0
 10
177.035802
 20
286.637923
 42
0.093308
  0
VERTEX
  8
0
 10
180.217388
 20
285.485608
 42
0.067428
  0
VERTEX
  8
0
 10
183.997295
 20
285.384447
 42
0.058628
  0
VERTEX
  8
0
 10
188.167948
 20
286.339081
 42
0.042725
  0
VERTEX
  8
0
 10
192.500000
 20
288.312952
 42
0.000000
  0
VERTEX
  8
0
 10
196.500000
 20
290.565830
 42
0.000000
  0
VERTEX
  8
0
 10
196.500000
 20
316.032915
 42
0.000000
  0
VERTEX
  8
0
 10
196.500000
 20
341.500000
 42
0.000000
  0
VERTEX
  8
0
 10
189.719649
 20
341.796382
 42
-0.020839
  0
VERTEX
  8
0
 10
183.872447
 20
342.296691
 42
-0.787069
  0
VERTEX
  8
0
 10
183.785443
 20
343.083319
 42
-0.076740
  0
VERTEX
  8
0
 10
187.593809
 20
343.832183
 42
-0.010228
  0
VERTEX
  8
0
 10
195.809017
 20
344.000830
 42
0.000000
  0
VERTEX
  8
0
 10
207.500000
 20
344.001659
 42
0.000000
  0
SEQEND
  0
POLYLINE
  8
0
 66
1
 70
1
  0
VERTEX
  8
0
 10
110.794245
 20
315.917560
 42
-0.002074
  0
VERTEX
  8
0
 10
110.866140
 20
305.631678
 42
-0.003057
  0
VERTEX
  8
0
 10
110.836587
 20
296.599221
 42
-0.001421
  0
VERTEX
  8
0
 10
110.742572
 20
288.910256
 42
-0.057625
  0
VERTEX
  8
0
 10
110.525193
 20
287.250000
 42
-0.548675
  0
VERTEX
  8
0
 10
109.670954
 20
286.965174
 42
-0.206204
  0
VERTEX
  8
0
 10
108.934551
 20
288.371856
 42
-0.016574
  0
VERTEX
  8
0
 10
108.580150
 20
296.721076
 42
-0.002319
  0
VERTEX
  8
0
 10
108.500000
 20
313.999355
 42
-0.002337
  0
VERTEX
  8
0
 10
108.558860
 20
326.592589
 42
-0.006380
  0
VERTEX
  8
0
 10
108.755758
 20
335.497369
 42
-0.002348
  0
VERTEX
  8
0
 10
109.026673
 20
342.341305
 42
-0.497676
  0
VERTEX
  8
0
 10
109.500000
 20
342.667188
 42
-0.307442
  0
VERTEX
  8
0
 10
109.959435
 20
342.067382
 42
-0.002189
  0
VERTEX
  8
0
 10
110.312004
 20
335.386580
 42
-0.006483
  0
VERTEX
  8
0
 10
110.607820
 20
327.029041
 42
-0.002819
  0
SEQEND
  0
POLYLINE
  8
0
 66
1
 70
1
  0
VERTEX
  8
0
 10
236.000000
 20
313.500000
 42
-0.002588
  0
VERTEX
  8
0
 10
235.937719
 20
301.465842
 42
-0.006030
  0
VERTEX
  8
0
 10
235.735748
 20
292.454717
 42
-0.002133
  0
VERTEX
  8
0
 10
235.457731
 20
285.281021
 42
-0.248488
  0
VERTEX
  8
0
 10
235.000000
 20
284.500000
 42
-0.572266
  0
VERTEX
  8
0
 10
234.523934
 20
284.751475
 42
-0.002698
  0
VERTEX
  8
0
 10
234.253224
 20
291.538467
 42
-0.006386
  0
VERTEX
  8
0
 10
234.057821
 20
300.543027
 42
-0.002231
  0
VERTEX
  8
0
 10
234.000000
 20
313.500000
 42
-0.002231
  0
VERTEX
  8
0
 10
234.057821
 20
326.456973
 42
-0.006386
  0
VERTEX
  8
0
 10
234.253224
 20
335.461533
 42
-0.002698
  0
VERTEX
  8
0
 10
234.523934
 20
342.248525
 42
-0.572266
  0
VERTEX
  8
0
 10
235.000000
 20
342.500000
 42
-0.248488
  0
VERTEX
  8
0
 10
235.457731
 20
341.718979
 42
-0.002133
  0
VERTEX
  8
0
 10
235.735748
 20
334.545283
 42
-0.006030
  0
VERTEX
  8
0
 10
235.937719
 20
325.534158
 42
-0.002588
  0
SEQEND
  0
POLYLINE
  8
0
 66
1
 70
1
  0
VERTEX
  8
0
 10
276.000000
 20
316.559017
 42
-0.002475
  0
VERTEX
  8
0
 10
275.940008
 20
304.441602
 42
-0.007765
  0
VERTEX
  8
0
 10
275.732991
 20
296.303039
 42
-0.004325
  0
VERTEX
  8
0
 10
275.437517
 20
290.352019
 42
-0.244442
  0
VERTEX
  8
0
 10
274.888197
 20
289.430902
 42
-0.327891
  0
VERTEX
  8
0
 10
273.704622
 20
289.525927
 42
-0.129131
  0
VERTEX
  8
0
 10
272.726519
 20
290.955154
 42
-0.040596
  0
VERTEX
  8
0
 10
271.806076
 20
294.385313
 42
-0.006149
  0
VERTEX
  8
0
 10
270.612625
 20
301.391733
 42
0.009863
  0
VERTEX
  8
0
 10
268.680537
 20
312.246790
 42
0.057442
  0
VERTEX
  8
0
 10
266.908014
 20
317.768301
 42
0.121830
  0
VERTEX
  8
0
 10
264.584990
 20
320.713438
 42
0.128946
  0
VERTEX
  8
0
 10
261.204091
 20
322.158825
 42
-0.265562
  0
VERTEX
  8
0
 10
260.356201
 20
322.825977
 42
-0.214431
  0
VERTEX
  8
0
 10
260.400323
 20
324.002826
 42
-0.040645
  0
VERTEX
  8
0
 10
261.864385
 20
326.438711
 42
-0.002989
  0
VERTEX
  8
0
 10
266.450650
 20
332.750000
 42
-0.005936
  0
VERTEX
  8
0
 10
269.414052
 20
336.678608
 42
-0.009214
  0
VERTEX
  8
0
 10
272.072280
 20
339.989062
 42
-0.004106
  0
VERTEX
  8
0
 10
274.388686
 20
342.721440
 42
-0.218216
  0
VERTEX
  8
0
 10
274.996560
 20
343.000000
 42
-0.400268
  0
VERTEX
  8
0
 10
275.466292
 20
342.552222
 42
-0.002479
  0
VERTEX
  8
0
 10
275.740512
 20
336.162418
 42
-0.006839
  0
VERTEX
  8
0
 10
275.939767
 20
327.948767
 42
-0.002644
  0
SEQEND
  0
POLYLINE
  8
0
 66
1
 70
1
  0
VERTEX
  8
0
 10
131.234223
 20
339.082029
 42
-0.029379
  0
VERTEX
  8
0
 10
133.018769
 20
337.288338
 42
-0.084080
  0
VERTEX
  8
0
 10
133.944437
 20
335.799782
 42
-0.076132
  0
VERTEX
  8
0
 10
134.377210
 20
334.004900
 42
-0.021160
  0
VERTEX
  8
0
 10
134.500000
 20
331.104756
 42
-0.066109
  0
VERTEX
  8
0
 10
133.972380
 20
327.131663
 42
-0.101324
  0
VERTEX
  8
0
 10
132.417085
 20
324.039365
 42
-0.105136
  0
VERTEX
  8
0
 10
129.821796
 20
321.882838
 42
-0.075615
  0
VERTEX
  8
0
 10
126.250000
 20
320.647907
 42
0.000000
  0
VERTEX
  8
0
 10
123.000000
 20
320.050000
 42
0.000000
  0
VERTEX
  8
0
 10
123.000000
 20
331.025000
 42
0.000000
  0
VERTEX
  8
0
 10
123.000000
 20
342.000000
 42
0.000000
  0
VERTEX
  8
0
 10
125.484223
 20
342.000000
 42
-0.084825
  0
VERTEX
  8
0
 10
126.665397
 20
341.798161
 42
-0.032791
  0
VERTEX
  8
0
 10
128.198028
 20
341.142846
 42
-0.031304
  0
VERTEX
  8
0
 10
129.801283
 20
340.198736
 42
-0.033620
  0
SEQEND
  0
POLYLINE
  8
0
 66
1
 70
1
  0
VERTEX
  8
0
 10
128.096473
 20
315.000000
 42
-0.107562
  0
VERTEX
  8
0
 10
129.076152
 20
314.786781
 42
-0.027426
  0
VERTEX
  8
0
 10
130.523207
 20
314.027093
 42
-0.026663
  0
VERTEX
  8
0
 10
132.117903
 20
312.955679
 42
-0.024234
  0
VERTEX
  8
0
 10
133.643416
 20
311.687975
 42
-0.027805
  0
VERTEX
  8
0
 10
135.579190
 20
309.705107
 42
-0.068332
  0
VERTEX
  8
0
 10
136.694992
 20
308.006978
 42
-0.064585
  0
VERTEX
  8
0
 10
137.346654
 20
306.013136
 42
-0.022781
  0
VERTEX
  8
0
 10
137.771127
 20
303.030125
 42
-0.083437
  0
VERTEX
  8
0
 10
137.350091
 20
297.084394
 42
-0.111341
  0
VERTEX
  8
0
 10
134.959710
 20
292.246992
 42
-0.118856
  0
VERTEX
  8
0
 10
130.868862
 20
289.114640
 42
-0.104597
  0
VERTEX
  8
0
 10
125.598871
 20
288.000000
 42
0.000000
  0
VERTEX
  8
0
 10
123.000000
 20
288.000000
 42
0.000000
  0
VERTEX
  8
0
 10
123.000000
 20
302.106989
 42
-0.002771
  0
VERTEX
  8
0
 10
123.045152
 20
310.254230
 42
-0.026395
  0
VERTEX
  8
0
 10
123.267275
 20
313.727752
 42
-0.090232
  0
VERTEX
  8
0
 10
123.744121
 20
315.287955
 42
-0.382297
  0
VERTEX
  8
0
 10
124.581787
 20
315.606989
 42
0.031694
  0
VERTEX
  8
0
 10
125.326573
 20
315.374116
 42
0.017167
  0
VERTEX
  8
0
 10
126.266714
 20
315.178303
 42
0.017039
  0
VERTEX
  8
0
 10
127.241089
 20
315.044033
 42
0.025722
  0
SEQEND
  0
POLYLINE
  8
0
 66
1
 70
1
  0
VERTEX
  8
0
 10
255.386826
 20
310.750000
 42
-0.069680
  0
VERTEX
  8
0
 10
256.042643
 20
309.312235
 42
-0.009648
  0
VERTEX
  8
0
 10
256.918634
 20
306.141055
 42
-0.010900
  0
VERTEX
  8
0
 10
257.806793
 20
302.320619
 42
-0.009041
  0
VERTEX
  8
0
 10
258.589290
 20
298.219548
 42
0.010731
  0
VERTEX
  8
0
 10
259.395011
 20
294.072949
 42
0.011975
  0
VERTEX
  8
0
 10
260.352456
 20
290.114706
 42
0.011348
  0
VERTEX
  8
0
 10
261.322808
 20
286.789972
 42
0.060001
  0
VERTEX
  8
0
 10
262.106679
 20
285.064978
 42
0.096389
  0
VERTEX
  8
0
 10
264.289574
 20
282.667408
 42
0.112488
  0
VERTEX
  8
0
 10
267.101074
 20
281.425292
 42
0.112250
  0
VERTEX
  8
0
 10
270.177895
 20
281.522507
 42
0.095663
  0
VERTEX
  8
0
 10
273.113250
 20
282.925608
 42
0.000000
  0
VERTEX
  8
0
 10
276.000000
 20
285.059875
 42
0.000000
  0
VERTEX
  8
0
 10
276.000000
 20
178.652382
 42
-0.000462
  0
VERTEX
  8
0
 10
275.949065
 20
123.521541
 42
-0.002483
  0
VERTEX
  8
0
 10
275.744558
 20
93.506265
 42
-0.000773
  0
VERTEX
  8
0
 10
275.467637
 20
72.726473
 42
-0.219213
  0
VERTEX
  8
0
 10
274.734202
 20
71.194370
 42
-0.054998
  0
VERTEX
  8
0
 10
272.520002
 20
69.734695
 42
-0.001942
  0
VERTEX
  8
0
 10
263.375244
 20
65.100163
 42
-0.001040
  0
VERTEX
  8
0
 10
253.808253
 20
60.323144
 42
-0.115769
  0
VERTEX
  8
0
 10
252.431322
 20
60.000000
 42
0.080338
  0
VERTEX
  8
0
 10
251.905861
 20
59.915023
 42
0.003338
  0
VERTEX
  8
0
 10
250.098853
 20
59.301445
 42
0.005710
  0
VERTEX
  8
0
 10
247.963495
 20
58.533008
 42
0.004017
  0
VERTEX
  8
0
 10
245.578461
 20
57.621940
 42
-0.005529
  0
VERTEX
  8
0
 10
243.048256
 20
56.664181
 42
-0.005367
  0
VERTEX
  8
0
 10
240.472376
 20
55.752799
 42
-0.005307
  0
VERTEX
  8
0
 10
238.190374
 20
54.999809
 42
-0.019751
  0
VERTEX
  8
0
 10
236.731757
 20
54.598309
 42
0.000000
  0
VERTEX
  8
0
 10
233.963514
 20
53.952738
 42
0.000000
  0
VERTEX
  8
0
 10
234.000266
 20
101.726369
 42
0.000038
  0
VERTEX
  8
0
 10
234.013021
 20
120.131467
 42
0.000061
  0
VERTEX
  8
0
 10
234.020785
 20
135.836195
 42
0.000010
  0
VERTEX
  8
0
 10
234.025695
 20
149.758721
 42
0.003760
  0
VERTEX
  8
0
 10
234.018509
 20
150.758549
 42
0.417238
  0
VERTEX
  8
0
 10
233.664466
 20
151.098800
 42
0.070604
  0
VERTEX
  8
0
 10
232.637750
 20
150.926789
 42
0.037536
  0
VERTEX
  8
0
 10
231.004531
 20
150.270663
 42
0.012949
  0
VERTEX
  8
0
 10
228.750000
 20
149.088500
 42
-0.023765
  0
VERTEX
  8
0
 10
226.111887
 20
147.777133
 42
-0.009588
  0
VERTEX
  8
0
 10
222.398438
 20
146.230622
 42
-0.009462
  0
VERTEX
  8
0
 10
218.330417
 20
144.715559
 42
-0.011845
  0
VERTEX
  8
0
 10
214.500000
 20
143.472054
 42
0.016615
  0
VERTEX
  8
0
 10
207.195261
 20
141.023382
 42
0.028374
  0
VERTEX
  8
0
 10
201.305342
 20
138.439560
 42
0.034064
  0
VERTEX
  8
0
 10
196.924450
 20
135.823999
 42
0.096401
  0
VERTEX
  8
0
 10
194.450505
 20
133.284116
 42
0.000000
  0
VERTEX
  8
0
 10
192.867201
 20
130.867690
 42
0.000000
  0
VERTEX
  8
0
 10
188.683601
 20
134.714798
 42
0.027210
  0
VERTEX
  8
0
 10
185.419991
 20
137.403526
 42
0.048819
  0
VERTEX
  8
0
 10
182.440035
 20
139.178272
 42
0.029749
  0
VERTEX
  8
0
 10
178.301608
 20
140.831731
 42
0.004751
  0
VERTEX
  8
0
 10
170.000000
 20
143.501277
 42
-0.011608
  0
VERTEX
  8
0
 10
166.369340
 20
144.723966
 42
-0.009088
  0
VERTEX
  8
0
 10
162.487589
 20
146.212734
 42
-0.009207
  0
VERTEX
  8
0
 10
158.924562
 20
147.731001
 42
-0.022139
  0
VERTEX
  8
0
 10
156.362005
 20
149.018223
 42
0.013253
  0
VERTEX
  8
0
 10
154.348586
 20
150.074809
 42
0.020553
  0
VERTEX
  8
0
 10
152.553519
 20
150.867117
 42
0.015872
  0
VERTEX
  8
0
 10
151.082082
 20
151.392293
 42
0.281198
  0
VERTEX
  8
0
 10
150.612005
 20
151.278671
 42
0.195447
  0
VERTEX
  8
0
 10
150.361307
 20
150.684674
 42
0.000214
  0
VERTEX
  8
0
 10
150.179776
 20
136.628731
 42
0.001937
  0
VERTEX
  8
0
 10
150.044048
 20
120.867034
 42
0.001184
  0
VERTEX
  8
0
 10
150.000000
 20
102.265946
 42
0.000000
  0
VERTEX
  8
0
 10
150.000000
 20
53.865225
 42
0.000000
  0
VERTEX
  8
0
 10
147.750000
 20
54.541651
 42
-0.017037
  0
VERTEX
  8
0
 10
140.886182
 20
56.862883
 42
-0.007364
  0
VERTEX
  8
0
 10
131.905775
 20
60.396850
 42
-0.007309
  0
VERTEX
  8
0
 10
123.107228
 20
64.160992
 42
-0.018874
  0
VERTEX
  8
0
 10
116.908578
 20
67.205995
 42
0.000000
  0
VERTEX
  8
0
 10
108.941908
 20
71.500000
 42
0.000000
  0
VERTEX
  8
0
 10
108.908694
 20
176.500000
 42
0.000000
  0
VERTEX
  8
0
 10
108.875480
 20
281.500000
 42
0.000000
  0
VERTEX
  8
0
 10
122.687740
 20
282.063698
 42
0.005306
  0
VERTEX
  8
0
 10
130.150990
 20
282.447650
 42
0.021804
  0
VERTEX
  8
0
 10
134.653108
 20
282.924913
 42
0.035528
  0
VERTEX
  8
0
 10
137.841435
 20
283.638693
 42
0.047008
  0
VERTEX
  8
0
 10
140.597245
 20
284.756092
 42
0.047198
  0
VERTEX
  8
0
 10
143.498339
 20
286.629900
 42
0.052364
  0
VERTEX
  8
0
 10
145.886943
 20
288.957408
 42
0.052430
  0
VERTEX
  8
0
 10
147.737578
 20
291.727640
 42
0.047520
  0
VERTEX
  8
0
 10
149.044276
 20
294.913572
 42
-0.808898
  0
VERTEX
  8
0
 10
149.364718
 20
294.886674
 42
-0.016360
  0
VERTEX
  8
0
 10
149.631648
 20
292.056861
 42
-0.010053
  0
VERTEX
  8
0
 10
149.828161
 20
287.292844
 42
-0.003997
  0
VERTEX
  8
0
 10
149.914047
 20
280.750000
 42
0.004595
  0
VERTEX
  8
0
 10
150.012675
 20
273.863698
 42
0.009926
  0
VERTEX
  8
0
 10
150.242374
 20
268.569924
 42
0.004571
  0
VERTEX
  8
0
 10
150.544934
 20
264.395744
 42
0.390540
  0
VERTEX
  8
0
 10
150.974320
 20
264.000000
 42
0.185006
  0
VERTEX
  8
0
 10
151.445320
 20
264.180452
 42
0.033771
  0
VERTEX
  8
0
 10
152.108158
 20
264.861937
 42
0.032314
  0
VERTEX
  8
0
 10
152.813673
 20
265.810693
 42
0.024392
  0
VERTEX
  8
0
 10
153.466001
 20
266.934253
 42
0.000000
  0
VERTEX
  8
0
 10
154.983362
 20
269.868506
 42
0.000000
  0
VERTEX
  8
0
 10
159.241681
 20
267.533035
 42
0.037734
  0
VERTEX
  8
0
 10
163.778172
 20
265.473227
 42
0.059174
  0
VERTEX
  8
0
 10
167.941641
 20
264.487055
 42
0.044866
  0
VERTEX
  8
0
 10
172.985723
 20
264.362464
 42
0.013247
  0
VERTEX
  8
0
 10
180.690780
 20
265.069215
 42
-0.010950
  0
VERTEX
  8
0
 10
186.611054
 20
265.639690
 42
-0.018716
  0
VERTEX
  8
0
 10
191.572381
 20
265.822029
 42
-0.017559
  0
VERTEX
  8
0
 10
196.745917
 20
265.636702
 42
-0.008359
  0
VERTEX
  8
0
 10
203.383305
 20
265.053511
 42
0.014151
  0
VERTEX
  8
0
 10
212.126547
 20
264.387246
 42
0.044003
  0
VERTEX
  8
0
 10
218.026870
 20
264.624534
 42
0.064171
  0
VERTEX
  8
0
 10
222.448898
 20
265.783434
 42
0.070627
  0
VERTEX
  8
0
 10
226.277182
 20
268.003391
 42
-0.012841
  0
VERTEX
  8
0
 10
228.437374
 20
269.614562
 42
-0.209095
  0
VERTEX
  8
0
 10
229.303548
 20
269.792767
 42
-0.230438
  0
VERTEX
  8
0
 10
229.975702
 20
269.268611
 42
-0.015706
  0
VERTEX
  8
0
 10
231.000000
 20
267.000000
 42
0.020348
  0
VERTEX
  8
0
 10
231.531740
 20
265.850864
 42
0.028939
  0
VERTEX
  8
0
 10
232.102387
 20
264.881250
 42
0.028541
  0
VERTEX
  8
0
 10
232.639098
 20
264.170637
 42
0.220172
  0
VERTEX
  8
0
 10
233.007821
 20
264.000000
 42
0.351364
  0
VERTEX
  8
0
 10
233.740907
 20
264.587718
 42
0.023354
  0
VERTEX
  8
0
 10
234.237060
 20
267.434735
 42
0.024475
  0
VERTEX
  8
0
 10
234.536512
 20
271.321171
 42
0.012833
  0
VERTEX
  8
0
 10
234.547644
 20
276.171840
 42
0.000000
  0
VERTEX
  8
0
 10
234.408647
 20
282.118658
 42
0.000000
  0
VERTEX
  8
0
 10
241.910010
 20
281.899627
 42
0.000000
  0
VERTEX
  8
0
 10
249.411373
 20
281.680596
 42
0.000000
  0
VERTEX
  8
0
 10
249.118069
 20
295.414742
 42
-0.003811
  0
VERTEX
  8
0
 10
249.011522
 20
303.174359
 42
-0.024604
  0
VERTEX
  8
0
 10
249.180228
 20
307.087152
 42
-0.051488
  0
VERTEX
  8
0
 10
249.649034
 20
309.458602
 42
-0.109815
  0
VERTEX
  8
0
 10
250.567370
 20
311.074443
 42
-0.036195
  0
VERTEX
  8
0
 10
252.087291
 20
312.527394
 42
-0.191733
  0
VERTEX
  8
0
 10
253.162287
 20
312.873701
 42
-0.197870
  0
VERTEX
  8
0
 10
254.159917
 20
312.382017
 42
-0.038797
  0
SEQEND
  0
POLYLINE
  8
0
 66
1
 70
1
  0
VERTEX
  8
0
 10
179.851428
 20
117.471562
 42
-0.076247
  0
VERTEX
  8
0
 10
182.827862
 20
114.071711
 42
-0.068539
  0
VERTEX
  8
0
 10
184.781055
 20
109.813186
 42
-0.056486
  0
VERTEX
  8
0
 10
185.755854
 20
104.465732
 42
-0.030637
  0
VERTEX
  8
0
 10
185.797370
 20
97.774071
 42
-0.013785
  0
VERTEX
  8
0
 10
185.442724
 20
93.491298
 42
-0.028643
  0
VERTEX
  8
0
 10
184.884190
 20
90.187147
 42
-0.033551
  0
VERTEX
  8
0
 10
184.023779
 20
87.322720
 42
-0.028609
  0
VERTEX
  8
0
 10
182.748714
 20
84.437186
 42
-0.019326
  0
VERTEX
  8
0
 10
180.657565
 20
80.715603
 42
-0.058602
  0
VERTEX
  8
0
 10
178.862213
 20
78.438489
 42
-0.108116
  0
VERTEX
  8
0
 10
177.289812
 20
77.429111
 42
-0.231208
  0
VERTEX
  8
0
 10
175.889296
 20
77.568419
 42
0.026052
  0
VERTEX
  8
0
 10
175.410971
 20
77.830650
 42
0.272171
  0
VERTEX
  8
0
 10
175.196668
 20
77.813021
 42
0.357556
  0
VERTEX
  8
0
 10
175.147109
 20
77.634277
 42
0.034329
  0
VERTEX
  8
0
 10
175.373281
 20
77.205035
 42
-0.459654
  0
VERTEX
  8
0
 10
175.060621
 20
76.222655
 42
-0.052622
  0
VERTEX
  8
0
 10
172.533443
 20
75.452490
 42
-0.044586
  0
VERTEX
  8
0
 10
169.226697
 20
75.115524
 42
-0.064676
  0
VERTEX
  8
0
 10
166.315823
 20
75.456870
 42
-0.081866
  0
VERTEX
  8
0
 10
163.835552
 20
76.532727
 42
-0.077076
  0
VERTEX
  8
0
 10
161.772689
 20
78.365810
 42
-0.082671
  0
VERTEX
  8
0
 10
160.474706
 20
80.604167
 42
-0.120915
  0
VERTEX
  8
0
 10
160.203514
 20
82.855746
 42
-0.096097
  0
VERTEX
  8
0
 10
160.877853
 20
84.943636
 42
-0.126612
  0
VERTEX
  8
0
 10
162.244986
 20
86.393927
 42
-0.144983
  0
VERTEX
  8
0
 10
163.994398
 20
86.887637
 42
-0.141375
  0
VERTEX
  8
0
 10
165.750000
 20
86.356495
 42
-0.085654
  0
VERTEX
  8
0
 10
166.792406
 20
85.393989
 42
-0.129106
  0
VERTEX
  8
0
 10
167.268542
 20
84.260073
 42
-0.097919
  0
VERTEX
  8
0
 10
167.189217
 20
82.804970
 42
-0.035200
  0
VERTEX
  8
0
 10
166.533527
 20
80.826692
 42
0.089771
  0
VERTEX
  8
0
 10
166.361511
 20
80.024993
 42
0.120786
  0
VERTEX
  8
0
 10
166.514343
 20
79.301239
 42
0.103990
  0
VERTEX
  8
0
 10
167.012370
 20
78.653877
 42
0.054156
  0
VERTEX
  8
0
 10
167.856966
 20
78.076550
 42
0.123016
  0
VERTEX
  8
0
 10
169.968730
 20
77.544979
 42
0.089809
  0
VERTEX
  8
0
 10
172.359777
 20
77.973518
 42
0.081727
  0
VERTEX
  8
0
 10
174.645394
 20
79.280875
 42
0.077176
  0
VERTEX
  8
0
 10
176.444080
 20
81.274312
 42
0.070452
  0
VERTEX
  8
0
 10
177.637118
 20
83.812647
 42
0.018370
  0
VERTEX
  8
0
 10
178.806980
 20
88.175839
 42
0.013098
  0
VERTEX
  8
0
 10
179.699333
 20
92.599981
 42
0.183626
  0
VERTEX
  8
0
 10
179.397626
 20
94.165645
 42
0.272447
  0
VERTEX
  8
0
 10
179.057147
 20
94.345176
 42
0.044841
  0
VERTEX
  8
0
 10
178.290043
 20
94.239918
 42
0.038689
  0
VERTEX
  8
0
 10
177.311575
 20
93.933674
 42
0.025047
  0
VERTEX
  8
0
 10
176.233065
 20
93.438071
 42
-0.066988
  0
VERTEX
  8
0
 10
173.313432
 20
92.382055
 42
-0.058980
  0
VERTEX
  8
0
 10
170.086941
 20
92.073129
 42
-0.060429
  0
VERTEX
  8
0
 10
166.958490
 20
92.523825
 42
-0.079228
  0
VERTEX
  8
0
 10
164.328385
 20
93.704404
 42
-0.120286
  0
VERTEX
  8
0
 10
161.324029
 20
96.920731
 42
-0.074414
  0
VERTEX
  8
0
 10
159.476396
 20
101.779800
 42
-0.068221
  0
VERTEX
  8
0
 10
159.031812
 20
107.426296
 42
-0.069555
  0
VERTEX
  8
0
 10
160.130646
 20
112.944925
 42
-0.149477
  0
VERTEX
  8
0
 10
163.240134
 20
117.190153
 42
-0.104434
  0
VERTEX
  8
0
 10
168.660147
 20
119.700470
 42
-0.101161
  0
VERTEX
  8
0
 10
174.785979
 20
119.847467
 42
-0.131211
  0
SEQEND
  0
POLYLINE
  8
0
 66
1
 70
1
  0
VERTEX
  8
0
 10
216.799660
 20
118.595014
 42
-0.083840
  0
VERTEX
  8
0
 10
221.624454
 20
114.949637
 42
-0.089115
  0
VERTEX
  8
0
 10
224.863578
 20
109.991666
 42
-0.073760
  0
VERTEX
  8
0
 10
226.564948
 20
103.429693
 42
-0.038572
  0
VERTEX
  8
0
 10
226.813064
 20
94.973245
 42
-0.009263
  0
VERTEX
  8
0
 10
226.469594
 20
89.800250
 42
-0.041642
  0
VERTEX
  8
0
 10
225.962789
 20
86.813094
 42
-0.058931
  0
VERTEX
  8
0
 10
225.057557
 20
84.472414
 42
-0.032082
  0
VERTEX
  8
0
 10
223.442211
 20
81.842977
 42
-0.032332
  0
VERTEX
  8
0
 10
222.036686
 20
80.103732
 42
-0.022384
  0
VERTEX
  8
0
 10
220.241091
 20
78.321302
 42
-0.022647
  0
VERTEX
  8
0
 10
218.353327
 20
76.757950
 42
-0.042411
  0
VERTEX
  8
0
 10
216.676396
 20
75.702823
 42
-0.023016
  0
VERTEX
  8
0
 10
214.439137
 20
74.674548
 42
-0.071127
  0
VERTEX
  8
0
 10
212.828351
 20
74.275612
 42
-0.072980
  0
VERTEX
  8
0
 10
211.193295
 20
74.349137
 42
-0.025119
  0
VERTEX
  8
0
 10
208.888129
 20
74.915371
 42
-0.069329
  0
VERTEX
  8
0
 10
205.659254
 20
76.394373
 42
-0.052650
  0
VERTEX
  8
0
 10
202.611523
 20
78.824722
 42
-0.051419
  0
VERTEX
  8
0
 10
200.066770
 20
81.910065
 42
-0.058129
  0
VERTEX
  8
0
 10
198.326078
 20
85.330085
 42
-0.051126
  0
VERTEX
  8
0
 10
197.871657
 20
87.091294
 42
-0.012523
  0
VERTEX
  8
0
 10
197.496995
 20
90.065713
 42
-0.012698
  0
VERTEX
  8
0
 10
197.238415
 20
93.513314
 42
-0.012368
  0
VERTEX
  8
0
 10
197.152156
 20
97.000000
 42
-0.032867
  0
VERTEX
  8
0
 10
197.669131
 20
104.856066
 42
-0.070868
  0
VERTEX
  8
0
 10
199.299494
 20
110.680757
 42
-0.087849
  0
VERTEX
  8
0
 10
202.199403
 20
115.014959
 42
-0.077626
  0
VERTEX
  8
0
 10
206.526814
 20
118.311086
 42
-0.047150
  0
VERTEX
  8
0
 10
209.224357
 20
119.457211
 42
-0.070091
  0
VERTEX
  8
0
 10
211.750759
 20
119.884605
 42
-0.072486
  0
VERTEX
  8
0
 10
214.233731
 20
119.592546
 42
-0.054542
  0
SEQEND
  0
POLYLINE
  8
0
 66
1
 70
1
  0
VERTEX
  8
0
 10
152.783669
 20
262.248983
 42
-0.030491
  0
VERTEX
  8
0
 10
150.154966
 20
258.241324
 42
-0.022446
  0
VERTEX
  8
0
 10
146.789076
 20
254.132847
 42
-0.020726
  0
VERTEX
  8
0
 10
142.761375
 20
250.001553
 42
-0.017004
  0
VERTEX
  8
0
 10
138.137751
 20
245.924640
 42
0.000000
  0
VERTEX
  8
0
 10
133.793723
 20
242.349281
 42
0.000000
  0
VERTEX
  8
0
 10
136.970508
 20
238.924640
 42
-0.060614
  0
VERTEX
  8
0
 10
141.987658
 20
231.996882
 42
-0.098181
  0
VERTEX
  8
0
 10
144.198908
 20
225.093196
 42
-0.081290
  0
VERTEX
  8
0
 10
143.808112
 20
216.954876
 42
-0.031094
  0
VERTEX
  8
0
 10
140.748265
 20
206.000000
 42
0.013844
  0
VERTEX
  8
0
 10
138.177773
 20
197.887648
 42
0.021519
  0
VERTEX
  8
0
 10
136.461165
 20
190.753715
 42
0.025192
  0
VERTEX
  8
0
 10
135.592617
 20
184.709910
 42
0.053826
  0
VERTEX
  8
0
 10
135.664165
 20
180.000000
 42
0.070217
  0
VERTEX
  8
0
 10
138.991625
 20
167.638211
 42
0.098600
  0
VERTEX
  8
0
 10
145.423398
 20
158.231030
 42
0.081537
  0
VERTEX
  8
0
 10
155.975561
 20
150.827469
 42
0.035069
  0
VERTEX
  8
0
 10
172.000000
 20
144.445948
 42
-0.009886
  0
VERTEX
  8
0
 10
178.730357
 20
142.150807
 42
-0.024607
  0
VERTEX
  8
0
 10
183.524453
 20
140.137323
 42
-0.033708
  0
VERTEX
  8
0
 10
186.978447
 20
138.186138
 42
-0.063576
  0
VERTEX
  8
0
 10
189.404988
 20
136.106410
 42
0.043911
  0
VERTEX
  8
0
 10
191.050977
 20
134.579752
 42
0.159903
  0
VERTEX
  8
0
 10
192.376036
 20
134.106676
 42
0.193470
  0
VERTEX
  8
0
 10
193.564286
 20
134.549088
 42
0.068585
  0
VERTEX
  8
0
 10
194.748282
 20
135.968543
 42
-0.094663
  0
VERTEX
  8
0
 10
196.508215
 20
137.869063
 42
-0.046663
  0
VERTEX
  8
0
 10
199.340154
 20
139.573409
 42
-0.027365
  0
VERTEX
  8
0
 10
203.852540
 20
141.448264
 42
-0.006606
  0
VERTEX
  8
0
 10
211.518959
 20
144.038804
 42
0.027747
  0
VERTEX
  8
0
 10
226.156630
 20
149.684767
 42
0.061069
  0
VERTEX
  8
0
 10
236.390772
 20
155.897564
 42
0.077773
  0
VERTEX
  8
0
 10
243.246670
 20
163.286790
 42
0.077666
  0
VERTEX
  8
0
 10
247.521297
 20
172.420616
 42
0.052194
  0
VERTEX
  8
0
 10
248.724026
 20
179.090463
 42
0.044566
  0
VERTEX
  8
0
 10
248.617108
 20
186.236916
 42
0.035598
  0
VERTEX
  8
0
 10
247.134521
 20
194.612468
 42
0.016958
  0
VERTEX
  8
0
 10
244.105671
 20
205.134570
 42
-0.022038
  0
VERTEX
  8
0
 10
240.872863
 20
216.809943
 42
-0.072630
  0
VERTEX
  8
0
 10
240.227678
 20
224.752785
 42
-0.099144
  0
VERTEX
  8
0
 10
241.937578
 20
231.139413
 42
-0.065732
  0
VERTEX
  8
0
 10
246.176017
 20
237.462626
 42
0.016388
  0
VERTEX
  8
0
 10
248.506596
 20
240.292095
 42
0.057948
  0
VERTEX
  8
0
 10
249.715775
 20
242.307135
 42
0.170399
  0
VERTEX
  8
0
 10
249.817234
 20
243.468308
 42
0.342636
  0
VERTEX
  8
0
 10
249.132436
 20
244.000000
 42
-0.198786
  0
VERTEX
  8
0
 10
247.150402
 20
244.820423
 42
-0.005233
  0
VERTEX
  8
0
 10
240.342133
 20
251.765976
 42
-0.009284
  0
VERTEX
  8
0
 10
234.006193
 20
258.616648
 42
-0.074152
  0
VERTEX
  8
0
 10
231.654681
 20
262.207522
 42
0.013704
  0
VERTEX
  8
0
 10
230.931847
 20
263.669571
 42
0.016633
  0
VERTEX
  8
0
 10
230.172449
 20
264.996422
 42
0.015314
  0
VERTEX
  8
0
 10
229.469625
 20
266.060513
 42
0.101062
  0
VERTEX
  8
0
 10
229.007536
 20
266.495342
 42
0.191371
  0
VERTEX
  8
0
 10
228.406173
 20
266.601920
 42
0.023683
  0
VERTEX
  8
0
 10
227.091762
 20
266.266126
 42
0.025224
  0
VERTEX
  8
0
 10
225.506032
 20
265.691032
 42
0.018350
  0
VERTEX
  8
0
 10
223.804266
 20
264.900144
 42
-0.035180
  0
VERTEX
  8
0
 10
220.995942
 20
263.708121
 42
-0.060294
  0
VERTEX
  8
0
 10
218.510975
 20
263.176806
 42
-0.035174
  0
VERTEX
  8
0
 10
215.173535
 20
263.110453
 42
-0.005352
  0
VERTEX
  8
0
 10
208.519970
 20
263.517789
 42
0.005738
  0
VERTEX
  8
0
 10
199.329021
 20
264.073358
 42
0.012333
  0
VERTEX
  8
0
 10
192.234398
 20
264.245320
 42
0.012346
  0
VERTEX
  8
0
 10
185.144381
 20
264.067173
 42
0.005761
  0
VERTEX
  8
0
 10
175.969689
 20
263.503751
 42
-0.005854
  0
VERTEX
  8
0
 10
169.690649
 20
263.119322
 42
-0.035488
  0
VERTEX
  8
0
 10
166.433614
 20
263.189375
 42
-0.059194
  0
VERTEX
  8
0
 10
163.990275
 20
263.711942
 42
-0.035714
  0
VERTEX
  8
0
 10
161.259527
 20
264.867599
 42
0.007097
  0
VERTEX
  8
0
 10
159.600959
 20
265.684280
 42
0.009552
  0
VERTEX
  8
0
 10
158.075492
 20
266.373309
 42
0.007018
  0
VERTEX
  8
0
 10
156.787778
 20
266.904306
 42
0.094874
  0
VERTEX
  8
0
 10
156.289838
 20
266.998983
 42
0.224479
  0
VERTEX
  8
0
 10
155.861731
 20
266.795908
 42
0.012593
  0
VERTEX
  8
0
 10
154.934093
 20
265.603251
 42
0.017385
  0
VERTEX
  8
0
 10
153.881793
 20
264.068740
 42
0.011694
  0
SEQEND
  0
POLYLINE
  8
0
 66
1
 70
1
  0
VERTEX
  8
0
 10
192.589919
 20
242.000000
 42
0.135847
  0
VERTEX
  8
0
 10
193.022181
 20
242.119651
 42
0.018132
  0
VERTEX
  8
0
 10
193.823102
 20
242.640213
 42
0.019884
  0
VERTEX
  8
0
 10
194.745509
 20
243.344879
 42
0.015517
  0
VERTEX
  8
0
 10
195.691015
 20
244.179449
 42
0.000000
  0
VERTEX
  8
0
 10
198.010932
 20
246.358898
 42
0.000000
  0
VERTEX
  8
0
 10
197.381329
 20
241.765447
 42
0.015660
  0
VERTEX
  8
0
 10
197.108815
 20
239.177119
 42
0.080390
  0
VERTEX
  8
0
 10
197.233625
 20
237.743698
 42
0.126817
  0
VERTEX
  8
0
 10
197.775285
 20
236.751195
 42
0.065264
  0
VERTEX
  8
0
 10
198.875863
 20
235.845452
 42
-0.033951
  0
VERTEX
  8
0
 10
200.618578
 20
234.585131
 42
-0.306825
  0
VERTEX
  8
0
 10
200.866517
 20
233.727369
 42
-0.290143
  0
VERTEX
  8
0
 10
200.158374
 20
233.140543
 42
-0.031813
  0
VERTEX
  8
0
 10
197.951726
 20
233.000000
 42
0.045884
  0
VERTEX
  8
0
 10
196.337469
 20
232.851550
 42
0.110687
  0
VERTEX
  8
0
 10
195.240970
 20
232.382930
 42
0.102049
  0
VERTEX
  8
0
 10
194.396286
 20
231.463480
 42
0.035420
  0
VERTEX
  8
0
 10
193.578607
 20
229.849120
 42
0.000000
  0
VERTEX
  8
0
 10
192.253761
 20
226.698241
 42
0.000000
  0
VERTEX
  8
0
 10
190.866169
 20
229.599120
 42
0.048893
  0
VERTEX
  8
0
 10
190.029680
 20
230.982416
 42
0.076304
  0
VERTEX
  8
0
 10
189.038853
 20
231.956549
 42
0.074542
  0
VERTEX
  8
0
 10
187.783724
 20
232.603265
 42
0.044515
  0
VERTEX
  8
0
 10
186.148356
 20
233.000000
 42
0.000000
  0
VERTEX
  8
0
 10
182.818137
 20
233.500000
 42
0.000000
  0
VERTEX
  8
0
 10
185.418360
 20
235.933043
 42
0.033161
  0
VERTEX
  8
0
 10
186.562444
 20
237.155473
 42
0.066507
  0
VERTEX
  8
0
 10
187.255937
 20
238.278534
 42
0.084038
  0
VERTEX
  8
0
 10
187.533964
 20
239.355286
 42
0.090861
  0
VERTEX
  8
0
 10
187.429945
 20
240.433043
 42
-0.001499
  0
VERTEX
  8
0
 10
186.160429
 20
244.942118
 42
-0.156785
  0
VERTEX
  8
0
 10
186.185572
 20
245.576821
 42
-0.486849
  0
VERTEX
  8
0
 10
186.554738
 20
245.696715
 42
-0.006664
  0
VERTEX
  8
0
 10
188.789384
 20
244.149972
 42
0.011290
  0
VERTEX
  8
0
 10
190.002764
 20
243.326610
 42
0.014701
  0
VERTEX
  8
0
 10
191.151276
 20
242.631554
 42
0.012316
  0
VERTEX
  8
0
 10
192.130815
 20
242.108843
 42
0.116918
  0
SEQEND
  0
POLYLINE
  8
0
 66
1
 70
1
  0
VERTEX
  8
0
 10
224.295172
 20
208.000000
 42
-0.053046
  0
VERTEX
  8
0
 10
226.506202
 20
202.690692
 42
-0.032932
  0
VERTEX
  8
0
 10
227.999068
 20
196.100500
 42
-0.033094
  0
VERTEX
  8
0
 10
228.603845
 20
189.455694
 42
-0.059034
  0
VERTEX
  8
0
 10
228.092996
 20
183.998022
 42
-0.075643
  0
VERTEX
  8
0
 10
224.195033
 20
173.712749
 42
-0.074248
  0
VERTEX
  8
0
 10
217.395552
 20
164.978456
 42
-0.073422
  0
VERTEX
  8
0
 10
208.264972
 20
158.535411
 42
-0.071405
  0
VERTEX
  8
0
 10
197.575747
 20
154.929370
 42
-0.037951
  0
VERTEX
  8
0
 10
192.021763
 20
154.333207
 42
-0.044098
  0
VERTEX
  8
0
 10
186.718870
 20
154.636202
 42
-0.043052
  0
VERTEX
  8
0
 10
181.446177
 20
155.877808
 42
-0.033457
  0
VERTEX
  8
0
 10
175.980557
 20
158.087545
 42
-0.057319
  0
VERTEX
  8
0
 10
168.587152
 20
162.780809
 42
-0.061622
  0
VERTEX
  8
0
 10
162.652801
 20
168.930419
 42
-0.060990
  0
VERTEX
  8
0
 10
158.349472
 20
176.400025
 42
-0.054296
  0
VERTEX
  8
0
 10
155.765627
 20
184.984834
 42
-0.058018
  0
VERTEX
  8
0
 10
155.346412
 20
191.143615
 42
-0.040476
  0
VERTEX
  8
0
 10
156.242131
 20
198.056666
 42
-0.040174
  0
VERTEX
  8
0
 10
158.256563
 20
204.805544
 42
-0.053715
  0
VERTEX
  8
0
 10
161.192755
 20
210.477292
 42
-0.008901
  0
VERTEX
  8
0
 10
163.455039
 20
213.764096
 42
-0.157824
  0
VERTEX
  8
0
 10
164.477195
 20
214.520543
 42
-0.611915
  0
VERTEX
  8
0
 10
164.876669
 20
214.129892
 42
-0.019272
  0
VERTEX
  8
0
 10
163.906248
 20
211.388688
 42
0.051186
  0
VERTEX
  8
0
 10
163.458985
 20
209.812543
 42
0.013941
  0
VERTEX
  8
0
 10
163.081066
 20
207.248474
 42
0.013950
  0
VERTEX
  8
0
 10
162.813301
 20
204.299740
 42
0.014095
  0
VERTEX
  8
0
 10
162.711603
 20
201.350799
 42
0.048822
  0
VERTEX
  8
0
 10
163.294896
 20
194.978432
 42
0.057014
  0
VERTEX
  8
0
 10
165.105635
 20
189.181354
 42
0.056368
  0
VERTEX
  8
0
 10
168.200576
 20
183.890346
 42
0.046080
  0
VERTEX
  8
0
 10
172.594798
 20
179.019383
 42
0.035402
  0
VERTEX
  8
0
 10
177.680443
 20
174.957566
 42
0.062551
  0
VERTEX
  8
0
 10
182.442633
 20
172.489060
 42
0.065223
  0
VERTEX
  8
0
 10
187.525795
 20
171.336211
 42
0.042087
  0
VERTEX
  8
0
 10
193.571815
 20
171.283978
 42
0.028491
  0
VERTEX
  8
0
 10
199.131836
 20
172.024754
 42
0.056638
  0
VERTEX
  8
0
 10
203.368167
 20
173.347165
 42
0.055669
  0
VERTEX
  8
0
 10
207.245967
 20
175.603388
 42
0.026641
  0
VERTEX
  8
0
 10
211.691137
 20
179.282949
 42
0.065928
  0
VERTEX
  8
0
 10
217.553066
 20
186.321824
 42
0.081188
  0
VERTEX
  8
0
 10
220.882207
 20
194.179896
 42
0.080241
  0
VERTEX
  8
0
 10
221.558053
 20
202.763565
 42
0.062638
  0
VERTEX
  8
0
 10
219.636015
 20
211.930423
 42
-0.002119
  0
VERTEX
  8
0
 10
218.630031
 20
214.890985
 42
-0.115628
  0
VERTEX
  8
0
 10
218.575510
 20
215.475013
 42
-0.608666
  0
VERTEX
  8
0
 10
218.810707
 20
215.558242
 42
-0.011683
  0
VERTEX
  8
0
 10
219.978312
 20
214.410581
 42
-0.033517
  0
VERTEX
  8
0
 10
220.857314
 20
213.374665
 42
-0.010996
  0
VERTEX
  8
0
 10
222.011589
 20
211.739358
 42
-0.010899
  0
VERTEX
  8
0
 10
223.216549
 20
209.862962
 42
-0.012115
  0
SEQEND
  0
POLYLINE
  8
0
 66
1
 70
1
  0
VERTEX
  8
0
 10
133.819484
 20
116.145261
 42
0.005636
  0
VERTEX
  8
0
 10
131.254237
 20
113.927500
 42
0.008568
  0
VERTEX
  8
0
 10
129.080958
 20
111.937983
 42
0.004048
  0
VERTEX
  8
0
 10
127.290148
 20
110.213558
 42
0.177789
  0
VERTEX
  8
0
 10
127.069484
 20
109.750000
 42
0.250328
  0
VERTEX
  8
0
 10
127.190231
 20
109.462961
 42
0.078027
  0
VERTEX
  8
0
 10
127.607911
 20
109.220313
 42
0.056906
  0
VERTEX
  8
0
 10
128.238891
 20
109.054577
 42
0.035808
  0
VERTEX
  8
0
 10
129.000000
 20
109.000000
 42
-0.239111
  0
VERTEX
  8
0
 10
130.114280
 20
108.434812
 42
-0.124085
  0
VERTEX
  8
0
 10
130.715238
 20
106.952079
 42
-0.032206
  0
VERTEX
  8
0
 10
130.957495
 20
103.674279
 42
-0.002346
  0
VERTEX
  8
0
 10
131.000000
 20
94.616631
 42
-0.002590
  0
VERTEX
  8
0
 10
130.953864
 20
85.710644
 42
-0.030763
  0
VERTEX
  8
0
 10
130.706147
 20
82.269716
 42
-0.099127
  0
VERTEX
  8
0
 10
130.118126
 20
80.558478
 42
-0.199180
  0
VERTEX
  8
0
 10
129.000000
 20
79.710251
 42
0.083343
  0
VERTEX
  8
0
 10
128.120600
 20
79.315340
 42
0.103336
  0
VERTEX
  8
0
 10
127.493194
 20
78.676633
 42
0.091055
  0
VERTEX
  8
0
 10
127.122623
 20
77.772352
 42
0.051875
  0
VERTEX
  8
0
 10
127.000000
 20
76.593620
 42
0.000000
  0
VERTEX
  8
0
 10
127.000000
 20
74.000000
 42
0.000000
  0
VERTEX
  8
0
 10
136.500000
 20
74.000000
 42
0.000000
  0
VERTEX
  8
0
 10
146.000000
 20
74.000000
 42
0.000000
  0
VERTEX
  8
0
 10
146.000000
 20
76.593620
 42
0.051875
  0
VERTEX
  8
0
 10
145.877377
 20
77.772352
 42
0.091055
  0
VERTEX
  8
0
 10
145.506806
 20
78.676633
 42
0.103336
  0
VERTEX
  8
0
 10
144.879400
 20
79.315340
 42
0.083343
  0
VERTEX
  8
0
 10
144.000000
 20
79.710251
 42
-0.235842
  0
VERTEX
  8
0
 10
142.848401
 20
80.718242
 42
-0.073365
  0
VERTEX
  8
0
 10
142.281034
 20
83.015691
 42
-0.022282
  0
VERTEX
  8
0
 10
142.041994
 20
87.690874
 42
-0.001632
  0
VERTEX
  8
0
 10
142.000000
 20
100.557614
 42
0.003454
  0
VERTEX
  8
0
 10
141.945949
 20
108.382024
 42
0.005566
  0
VERTEX
  8
0
 10
141.779687
 20
115.045132
 42
0.001448
  0
VERTEX
  8
0
 10
141.554446
 20
120.821408
 42
0.251171
  0
VERTEX
  8
0
 10
141.250000
 20
121.336244
 42
0.288226
  0
VERTEX
  8
0
 10
140.726067
 20
121.327526
 42
0.007978
  0
VERTEX
  8
0
 10
138.757911
 20
119.998782
 42
0.014060
  0
VERTEX
  8
0
 10
136.434344
 20
118.276339
 42
0.008896
  0
SEQEND
  0
POLYLINE
  8
0
 66
1
 70
1
  0
VERTEX
  8
0
 10
243.011857
 20
119.750000
 42
0.059633
  0
VERTEX
  8
0
 10
239.834557
 20
117.619280
 42
0.100135
  0
VERTEX
  8
0
 10
237.868256
 20
115.092738
 42
0.117635
  0
VERTEX
  8
0
 10
237.222547
 20
112.304166
 42
0.105610
  0
VERTEX
  8
0
 10
237.862619
 20
109.402173
 42
0.167457
  0
VERTEX
  8
0
 10
239.650568
 20
107.518605
 42
0.119693
  0
VERTEX
  8
0
 10
242.495120
 20
106.818429
 42
0.119997
  0
VERTEX
  8
0
 10
245.338386
 20
107.501447
 42
0.168740
  0
VERTEX
  8
0
 10
247.124320
 20
109.373507
 42
0.040794
  0
VERTEX
  8
0
 10
247.558423
 20
110.577731
 42
0.065417
  0
VERTEX
  8
0
 10
247.703910
 20
111.658630
 42
0.069779
  0
VERTEX
  8
0
 10
247.562627
 20
112.689638
 42
0.054022
  0
VERTEX
  8
0
 10
247.138065
 20
113.742024
 42
-0.067413
  0
VERTEX
  8
0
 10
246.537311
 20
115.353808
 42
-0.266667
  0
VERTEX
  8
0
 10
246.837230
 20
116.326632
 42
-0.163469
  0
VERTEX
  8
0
 10
248.025353
 20
116.866457
 42
-0.025604
  0
VERTEX
  8
0
 10
250.631483
 20
117.000000
 42
-0.088828
  0
VERTEX
  8
0
 10
253.085751
 20
116.560516
 42
-0.146813
  0
VERTEX
  8
0
 10
254.754012
 20
115.302990
 42
-0.115321
  0
VERTEX
  8
0
 10
255.704155
 20
113.078680
 42
-0.043546
  0
VERTEX
  8
0
 10
256.000000
 20
109.688186
 42
-0.064902
  0
VERTEX
  8
0
 10
255.657668
 20
107.061984
 42
-0.133166
  0
VERTEX
  8
0
 10
254.627274
 20
105.279010
 42
-0.114590
  0
VERTEX
  8
0
 10
252.714952
 20
104.096478
 42
-0.041214
  0
VERTEX
  8
0
 10
249.589230
 20
103.320767
 42
0.024507
  0
VERTEX
  8
0
 10
247.619278
 20
102.901134
 42
0.121713
  0
VERTEX
  8
0
 10
246.633853
 20
102.361361
 42
0.158032
  0
VERTEX
  8
0
 10
246.148993
 20
101.502569
 42
0.050167
  0
VERTEX
  8
0
 10
246.000000
 20
100.021338
 42
0.040650
  0
VERTEX
  8
0
 10
246.120443
 20
98.542313
 42
0.168868
  0
VERTEX
  8
0
 10
246.541156
 20
97.766846
 42
0.149165
  0
VERTEX
  8
0
 10
247.387575
 20
97.365283
 42
0.029611
  0
VERTEX
  8
0
 10
249.076783
 20
97.216880
 42
-0.068526
  0
VERTEX
  8
0
 10
252.302388
 20
96.678901
 42
-0.102203
  0
VERTEX
  8
0
 10
254.796141
 20
95.297716
 42
-0.103135
  0
VERTEX
  8
0
 10
256.523547
 20
93.052356
 42
-0.070829
  0
VERTEX
  8
0
 10
257.503121
 20
89.981527
 42
-0.080835
  0
VERTEX
  8
0
 10
257.534144
 20
84.852869
 42
-0.151257
  0
VERTEX
  8
0
 10
255.725530
 20
81.160824
 42
-0.165675
  0
VERTEX
  8
0
 10
252.292354
 20
79.344216
 42
-0.101400
  0
VERTEX
  8
0
 10
247.669551
 20
79.546801
 42
-0.019584
  0
VERTEX
  8
0
 10
246.091319
 20
80.009300
 42
-0.238829
  0
VERTEX
  8
0
 10
245.662639
 20
80.444638
 42
-0.210104
  0
VERTEX
  8
0
 10
245.730290
 20
81.084318
 42
-0.015124
  0
VERTEX
  8
0
 10
246.683053
 20
82.639031
 42
0.160750
  0
VERTEX
  8
0
 10
247.562030
 20
85.926415
 42
0.170156
  0
VERTEX
  8
0
 10
246.280837
 20
89.003038
 42
0.171965
  0
VERTEX
  8
0
 10
243.373249
 20
90.585900
 42
0.163772
  0
VERTEX
  8
0
 10
240.049580
 20
90.026534
 42
0.170695
  0
VERTEX
  8
0
 10
237.663625
 20
87.420129
 42
0.135252
  0
VERTEX
  8
0
 10
237.149077
 20
83.610886
 42
0.113237
  0
VERTEX
  8
0
 10
238.685606
 20
79.530240
 42
0.098357
  0
VERTEX
  8
0
 10
241.911085
 20
76.280936
 42
0.087730
  0
VERTEX
  8
0
 10
245.475570
 20
74.697756
 42
0.047824
  0
VERTEX
  8
0
 10
250.225267
 20
73.992560
 42
0.047753
  0
VERTEX
  8
0
 10
255.038315
 20
74.202607
 42
0.085384
  0
VERTEX
  8
0
 10
258.799660
 20
75.404986
 42
0.048888
  0
VERTEX
  8
0
 10
262.380382
 20
77.737947
 42
0.084180
  0
VERTEX
  8
0
 10
264.741221
 20
80.388334
 42
0.086338
  0
VERTEX
  8
0
 10
266.059695
 20
83.619083
 42
0.053858
  0
VERTEX
  8
0
 10
266.500000
 20
87.694888
 42
0.019055
  0
VERTEX
  8
0
 10
266.369922
 20
91.106898
 42
0.089972
  0
VERTEX
  8
0
 10
265.876642
 20
92.994020
 42
0.086058
  0
VERTEX
  8
0
 10
264.742348
 20
94.627968
 42
0.016615
  0
VERTEX
  8
0
 10
262.121391
 20
97.114324
 42
-0.015507
  0
VERTEX
  8
0
 10
260.540436
 20
98.607446
 42
-0.034463
  0
VERTEX
  8
0
 10
259.456198
 20
99.858583
 42
-0.067491
  0
VERTEX
  8
0
 10
258.988631
 20
100.693739
 42
-0.529028
  0
VERTEX
  8
0
 10
259.197077
 20
101.000000
 42
0.237189
  0
VERTEX
  8
0
 10
262.505526
 20
102.663016
 42
0.103676
  0
VERTEX
  8
0
 10
264.621180
 20
107.244126
 42
0.092421
  0
VERTEX
  8
0
 10
264.851256
 20
112.756963
 42
0.153032
  0
VERTEX
  8
0
 10
262.858378
 20
116.921639
 42
0.085682
  0
VERTEX
  8
0
 10
258.709997
 20
120.074116
 42
0.084531
  0
VERTEX
  8
0
 10
253.725432
 20
121.672013
 42
0.081469
  0
VERTEX
  8
0
 10
248.333859
 20
121.558662
 42
0.072125
  0
SEQEND
  0
POLYLINE
  8
0
 66
1
 70
1
  0
VERTEX
  8
0
 10
167.529874
 20
116.033011
 42
0.119404
  0
VERTEX
  8
0
 10
166.193572
 20
113.574561
 42
0.030706
  0
VERTEX
  8
0
 10
165.294456
 20
109.111731
 42
0.032125
  0
VERTEX
  8
0
 10
164.944307
 20
104.335926
 42
0.063802
  0
VERTEX
  8
0
 10
165.392105
 20
100.573863
 42
0.083162
  0
VERTEX
  8
0
 10
166.429572
 20
98.198863
 42
0.064048
  0
VERTEX
  8
0
 10
168.266679
 20
96.042875
 42
0.066871
  0
VERTEX
  8
0
 10
170.482989
 20
94.514803
 42
0.118063
  0
VERTEX
  8
0
 10
172.632798
 20
94.000000
 42
0.076296
  0
VERTEX
  8
0
 10
173.687439
 20
94.161873
 42
0.033113
  0
VERTEX
  8
0
 10
175.013342
 20
94.677357
 42
0.031795
  0
VERTEX
  8
0
 10
176.377093
 20
95.423379
 42
0.036574
  0
VERTEX
  8
0
 10
177.569236
 20
96.305896
 42
0.048073
  0
VERTEX
  8
0
 10
179.043917
 20
97.843972
 42
0.095697
  0
VERTEX
  8
0
 10
179.816348
 20
99.336868
 42
0.060935
  0
VERTEX
  8
0
 10
180.164109
 20
101.426108
 42
0.010806
  0
VERTEX
  8
0
 10
180.250000
 20
105.399989
 42
0.014080
  0
VERTEX
  8
0
 10
180.152555
 20
108.859698
 42
0.037460
  0
VERTEX
  8
0
 10
179.829474
 20
111.308028
 42
0.050960
  0
VERTEX
  8
0
 10
179.228865
 20
113.196526
 42
0.057437
  0
VERTEX
  8
0
 10
178.275658
 20
114.844093
 42
0.106062
  0
VERTEX
  8
0
 10
175.939332
 20
116.894090
 42
0.100003
  0
VERTEX
  8
0
 10
172.918061
 20
117.860339
 42
0.105509
  0
VERTEX
  8
0
 10
169.892557
 20
117.556632
 42
0.131995
  0
SEQEND
  0
POLYLINE
  8
0
 66
1
 70
1
  0
VERTEX
  8
0
 10
209.749978
 20
117.919889
 42
0.114217
  0
VERTEX
  8
0
 10
207.180562
 20
115.502795
 42
0.084451
  0
VERTEX
  8
0
 10
205.583976
 20
111.927445
 42
0.049738
  0
VERTEX
  8
0
 10
204.740057
 20
106.421419
 42
0.013104
  0
VERTEX
  8
0
 10
204.503681
 20
97.500000
 42
0.016055
  0
VERTEX
  8
0
 10
204.799883
 20
88.195964
 42
0.051173
  0
VERTEX
  8
0
 10
205.827020
 20
82.072499
 42
0.084908
  0
VERTEX
  8
0
 10
207.649210
 20
78.180317
 42
0.153058
  0
VERTEX
  8
0
 10
210.406749
 20
76.041192
 42
0.078392
  0
VERTEX
  8
0
 10
212.474042
 20
75.623104
 42
0.166178
  0
VERTEX
  8
0
 10
214.022124
 20
76.078779
 42
0.104202
  0
VERTEX
  8
0
 10
215.428635
 20
77.596056
 42
0.021125
  0
VERTEX
  8
0
 10
217.190504
 20
80.839356
 42
0.034088
  0
VERTEX
  8
0
 10
218.391192
 20
83.783431
 42
0.043408
  0
VERTEX
  8
0
 10
219.066203
 20
86.636364
 42
0.029028
  0
VERTEX
  8
0
 10
219.391962
 20
90.348587
 42
0.007064
  0
VERTEX
  8
0
 10
219.486454
 20
96.500000
 42
0.021320
  0
VERTEX
  8
0
 10
219.149804
 20
104.626736
 42
0.041679
  0
VERTEX
  8
0
 10
218.070957
 20
111.013302
 42
0.054800
  0
VERTEX
  8
0
 10
216.347244
 20
115.590728
 42
0.153633
  0
VERTEX
  8
0
 10
213.978675
 20
118.011413
 42
0.012062
  0
VERTEX
  8
0
 10
212.528047
 20
118.743314
 42
0.116723
  0
VERTEX
  8
0
 10
211.858464
 20
118.886559
 42
0.115298
  0
VERTEX
  8
0
 10
211.192451
 20
118.715629
 42
0.011652
  0
SEQEND
  0
ENDSEC
  0
EOF
