  0
SECTION
  2
HEADER
  9
$ACADVER
  1
AC1015
  9
$ACADMAINTVER
 70
     6
  9
$DWGCODEPAGE
  3
ANSI_1252
  9
$INSBASE
 10
0.0
 20
0.0
 30
0.0
  9
$EXTMIN
 10
-7.85164
 20
-9.16883
 30
0.0
  9
$EXTMAX
 10
2.28098
 20
12.34053
 30
0.0
  9
$LIMMIN
 10
0.0
 20
0.0
  9
$LIMMAX
 10
12.0
 20
9.0
  9
$ORTHOMODE
 70
     0
  9
$REGENMODE
 70
     1
  9
$FILLMODE
 70
     1
  9
$QTEXTMODE
 70
     0
  9
$MIRRTEXT
 70
     1
  9
$LTSCALE
 40
1.0
  9
$ATTMODE
 70
     1
  9
$TEXTSIZE
 40
0.2
  9
$TRACEWID
 40
0.05
  9
$TEXTSTYLE
  7
Standard
  9
$CLAYER
  8
0
  9
$CELTYPE
  6
ByLayer
  9
$CECOLOR
 62
   256
  9
$CELTSCALE
 40
1.0
  9
$DISPSILH
 70
     0
  9
$DIMSCALE
 40
1.0
  9
$DIMASZ
 40
0.18
  9
$DIMEXO
 40
0.0625
  9
$DIMDLI
 40
0.38
  9
$DIMRND
 40
0.0
  9
$DIMDLE
 40
0.0
  9
$DIMEXE
 40
0.18
  9
$DIMTP
 40
0.0
  9
$DIMTM
 40
0.0
  9
$DIMTXT
 40
0.18
  9
$DIMCEN
 40
0.09
  9
$DIMTSZ
 40
0.0
  9
$DIMTOL
 70
     0
  9
$DIMLIM
 70
     0
  9
$DIMTIH
 70
     1
  9
$DIMTOH
 70
     1
  9
$DIMSE1
 70
     0
  9
$DIMSE2
 70
     0
  9
$DIMTAD
 70
     0
  9
$DIMZIN
 70
     0
  9
$DIMBLK
  1

  9
$DIMASO
 70
     1
  9
$DIMSHO
 70
     1
  9
$DIMPOST
  1

  9
$DIMAPOST
  1

  9
$DIMALT
 70
     0
  9
$DIMALTD
 70
     2
  9
$DIMALTF
 40
25.4
  9
$DIMLFAC
 40
1.0
  9
$DIMTOFL
 70
     0
  9
$DIMTVP
 40
0.0
  9
$DIMTIX
 70
     0
  9
$DIMSOXD
 70
     0
  9
$DIMSAH
 70
     0
  9
$DIMBLK1
  1

  9
$DIMBLK2
  1

  9
$DIMSTYLE
  2
Standard
  9
$DIMCLRD
 70
     0
  9
$DIMCLRE
 70
     0
  9
$DIMCLRT
 70
     0
  9
$DIMTFAC
 40
1.0
  9
$DIMGAP
 40
0.09
  9
$DIMJUST
 70
     0
  9
$DIMSD1
 70
     0
  9
$DIMSD2
 70
     0
  9
$DIMTOLJ
 70
     1
  9
$DIMTZIN
 70
     0
  9
$DIMALTZ
 70
     0
  9
$DIMALTTZ
 70
     0
  9
$DIMUPT
 70
     0
  9
$DIMDEC
 70
     4
  9
$DIMTDEC
 70
     4
  9
$DIMALTU
 70
     2
  9
$DIMALTTD
 70
     2
  9
$DIMTXSTY
  7
Standard
  9
$DIMAUNIT
 70
     0
  9
$DIMADEC
 70
     0
  9
$DIMALTRND
 40
0.0
  9
$DIMAZIN
 70
     0
  9
$DIMDSEP
 70
    46
  9
$DIMATFIT
 70
     3
  9
$DIMFRAC
 70
     0
  9
$DIMLDRBLK
  1

  9
$DIMLUNIT
 70
     2
  9
$DIMLWD
 70
    -2
  9
$DIMLWE
 70
    -2
  9
$DIMTMOVE
 70
     0
  9
$LUNITS
 70
     2
  9
$LUPREC
 70
     4
  9
$SKETCHINC
 40
0.1
  9
$FILLETRAD
 40
0.5
  9
$AUNITS
 70
     0
  9
$AUPREC
 70
     0
  9
$MENU
  1
.
  9
$ELEVATION
 40
0.0
  9
$PELEVATION
 40
0.0
  9
$THICKNESS
 40
0.0
  9
$LIMCHECK
 70
     0
  9
$CHAMFERA
 40
0.5
  9
$CHAMFERB
 40
0.5
  9
$CHAMFERC
 40
1.0
  9
$CHAMFERD
 40
0.0
  9
$SKPOLY
 70
     0
  9
$TDCREATE
 40
2458031.535980729
  9
$TDUCREATE
 40
2458031.306814062
  9
$TDUPDATE
 40
2458031.535980914
  9
$TDUUPDATE
 40
2458031.306814248
  9
$TDINDWG
 40
0.0000000116
  9
$TDUSRTIMER
 40
0.0000000116
  9
$USRTIMER
 70
     1
  9
$ANGBASE
 50
0.0
  9
$ANGDIR
 70
     0
  9
$PDMODE
 70
     0
  9
$PDSIZE
 40
0.0
  9
$PLINEWID
 40
0.0
  9
$SPLFRAME
 70
     0
  9
$SPLINETYPE
 70
     6
  9
$SPLINESEGS
 70
     8
  9
$HANDSEED
  5
81
  9
$SURFTAB1
 70
     6
  9
$SURFTAB2
 70
     6
  9
$SURFTYPE
 70
     6
  9
$SURFU
 70
     6
  9
$SURFV
 70
     6
  9
$UCSBASE
  2

  9
$UCSNAME
  2

  9
$UCSORG
 10
0.0
 20
0.0
 30
0.0
  9
$UCSXDIR
 10
1.0
 20
0.0
 30
0.0
  9
$UCSYDIR
 10
0.0
 20
1.0
 30
0.0
  9
$UCSORTHOREF
  2

  9
$UCSORTHOVIEW
 70
     0
  9
$UCSORGTOP
 10
0.0
 20
0.0
 30
0.0
  9
$UCSORGBOTTOM
 10
0.0
 20
0.0
 30
0.0
  9
$UCSORGLEFT
 10
0.0
 20
0.0
 30
0.0
  9
$UCSORGRIGHT
 10
0.0
 20
0.0
 30
0.0
  9
$UCSORGFRONT
 10
0.0
 20
0.0
 30
0.0
  9
$UCSORGBACK
 10
0.0
 20
0.0
 30
0.0
  9
$PUCSBASE
  2

  9
$PUCSNAME
  2

  9
$PUCSORG
 10
0.0
 20
0.0
 30
0.0
  9
$PUCSXDIR
 10
1.0
 20
0.0
 30
0.0
  9
$PUCSYDIR
 10
0.0
 20
1.0
 30
0.0
  9
$PUCSORTHOREF
  2

  9
$PUCSORTHOVIEW
 70
     0
  9
$PUCSORGTOP
 10
0.0
 20
0.0
 30
0.0
  9
$PUCSORGBOTTOM
 10
0.0
 20
0.0
 30
0.0
  9
$PUCSORGLEFT
 10
0.0
 20
0.0
 30
0.0
  9
$PUCSORGRIGHT
 10
0.0
 20
0.0
 30
0.0
  9
$PUCSORGFRONT
 10
0.0
 20
0.0
 30
0.0
  9
$PUCSORGBACK
 10
0.0
 20
0.0
 30
0.0
  9
$USERI1
 70
     0
  9
$USERI2
 70
     0
  9
$USERI3
 70
     0
  9
$USERI4
 70
     0
  9
$USERI5
 70
     0
  9
$USERR1
 40
0.0
  9
$USERR2
 40
0.0
  9
$USERR3
 40
0.0
  9
$USERR4
 40
0.0
  9
$USERR5
 40
0.0
  9
$WORLDVIEW
 70
     1
  9
$SHADEDGE
 70
     3
  9
$SHADEDIF
 70
    70
  9
$TILEMODE
 70
     1
  9
$MAXACTVP
 70
    64
  9
$PINSBASE
 10
0.0
 20
0.0
 30
0.0
  9
$PLIMCHECK
 70
     0
  9
$PEXTMIN
 10
1.000000000000000E+20
 20
1.000000000000000E+20
 30
1.000000000000000E+20
  9
$PEXTMAX
 10
-1.000000000000000E+20
 20
-1.000000000000000E+20
 30
-1.000000000000000E+20
  9
$PLIMMIN
 10
0.0
 20
0.0
  9
$PLIMMAX
 10
12.0
 20
9.0
  9
$UNITMODE
 70
     0
  9
$VISRETAIN
 70
     1
  9
$PLINEGEN
 70
     0
  9
$PSLTSCALE
 70
     1
  9
$TREEDEPTH
 70
  3020
  9
$CMLSTYLE
  2
Standard
  9
$CMLJUST
 70
     0
  9
$CMLSCALE
 40
1.0
  9
$PROXYGRAPHICS
 70
     1
  9
$MEASUREMENT
 70
     0
  9
$CELWEIGHT
370
    -1
  9
$ENDCAPS
280
     0
  9
$JOINSTYLE
280
     0
  9
$LWDISPLAY
290
     0
  9
$INSUNITS
 70
     5
  9
$HYPERLINKBASE
  1

  9
$STYLESHEET
  1

  9
$XEDIT
290
     1
  9
$CEPSNTYPE
380
     0
  9
$PSTYLEMODE
290
     1
  9
$FINGERPRINTGUID
  2
{9351ACEA-D51E-4E30-937F-60D60DE24FFC}
  9
$VERSIONGUID
  2
{FAEB1C32-E019-11D5-929B-00C0DF256EC4}
  9
$EXTNAMES
290
     1
  9
$PSVPSCALE
 40
0.0
  9
$OLESTARTUP
290
     0
  0
ENDSEC
  0
SECTION
  2
CLASSES
  0
CLASS
  1
ACDBDICTIONARYWDFLT
  2
AcDbDictionaryWithDefault
  3
ObjectDBX Classes
 90
        0
280
     0
281
     0
  0
CLASS
  1
VISUALSTYLE
  2
AcDbVisualStyle
  3
ObjectDBX Classes
 90
     4095
280
     0
281
     0
  0
CLASS
  1
MATERIAL
  2
AcDbMaterial
  3
ObjectDBX Classes
 90
     1153
280
     0
281
     0
  0
CLASS
  1
DICTIONARYVAR
  2
AcDbDictionaryVar
  3
ObjectDBX Classes
 90
        0
280
     0
281
     0
  0
CLASS
  1
ACDBPLACEHOLDER
  2
AcDbPlaceHolder
  3
ObjectDBX Classes
 90
        0
280
     0
281
     0
  0
CLASS
  1
LAYOUT
  2
AcDbLayout
  3
ObjectDBX Classes
 90
        0
280
     0
281
     0
  0
ENDSEC
  0
SECTION
  2
TABLES
  0
TABLE
  2
VPORT
  5
8
330
0
100
AcDbSymbolTable
 70
     1
  0
VPORT
  5
29
330
8
100
AcDbSymbolTableRecord
100
AcDbViewportTableRecord
  2
*Active
 70
     0
 10
0.0
 20
0.0
 11
1.0
 21
1.0
 12
10.42990654205607
 22
4.5
 13
0.0
 23
0.0
 14
0.5
 24
0.5
 15
0.5
 25
0.5
 16
0.0
 26
0.0
 36
1.0
 17
0.0
 27
0.0
 37
0.0
 40
9.0
 41
1.972972972850329
 42
50.0
 43
0.0
 44
0.0
 50
0.0
 51
0.0
 71
     0
 72
   100
 73
     1
 74
     3
 75
     0
 76
     0
 77
     0
 78
     0
281
     0
 65
     1
110
0.0
120
0.0
130
0.0
111
1.0
121
0.0
131
0.0
112
0.0
122
1.0
132
0.0
 79
     0
146
0.0
  0
ENDTAB
  0
TABLE
  2
LTYPE
  5
5
330
0
100
AcDbSymbolTable
 70
     1
  0
LTYPE
  5
14
330
5
100
AcDbSymbolTableRecord
100
AcDbLinetypeTableRecord
  2
ByBlock
 70
     0
  3

 72
    65
 73
     0
 40
0.0
  0
LTYPE
  5
15
330
5
100
AcDbSymbolTableRecord
100
AcDbLinetypeTableRecord
  2
ByLayer
 70
     0
  3

 72
    65
 73
     0
 40
0.0
  0
LTYPE
  5
16
330
5
100
AcDbSymbolTableRecord
100
AcDbLinetypeTableRecord
  2
Continuous
 70
     0
  3
Solid line
 72
    65
 73
     0
 40
0.0
  0
ENDTAB
  0
TABLE
  2
LAYER
  5
2
330
0
100
AcDbSymbolTable
 70
     2
  0
LAYER
  5
10
330
2
100
AcDbSymbolTableRecord
100
AcDbLayerTableRecord
  2
0
 70
     0
 62
     7
  6
Continuous
370
    -3
390
F
  0
LAYER
  5
40
330
2
100
AcDbSymbolTableRecord
100
AcDbLayerTableRecord
  2
Layer 1
 70
     0
 62
     7
  6
Continuous
370
    -3
390
F
  0
ENDTAB
  0
TABLE
  2
STYLE
  5
3
330
0
100
AcDbSymbolTable
 70
     1
  0
STYLE
  5
11
330
3
100
AcDbSymbolTableRecord
100
AcDbTextStyleTableRecord
  2
Standard
 70
     0
 40
0.0
 41
1.0
 50
0.0
 71
     0
 42
0.2
  3
txt
  4

  0
ENDTAB
  0
TABLE
  2
VIEW
  5
6
330
0
100
AcDbSymbolTable
 70
     0
  0
ENDTAB
  0
TABLE
  2
UCS
  5
7
330
0
100
AcDbSymbolTable
 70
     0
  0
ENDTAB
  0
TABLE
  2
APPID
  5
9
330
0
100
AcDbSymbolTable
 70
     2
  0
APPID
  5
12
330
9
100
AcDbSymbolTableRecord
100
AcDbRegAppTableRecord
  2
ACAD
 70
     0
  0
APPID
  5
3F
330
9
100
AcDbSymbolTableRecord
100
AcDbRegAppTableRecord
  2
ODA
 70
     0
  0
ENDTAB
  0
TABLE
  2
DIMSTYLE
  5
A
330
0
100
AcDbSymbolTable
 70
     1
100
AcDbDimStyleTable
  0
DIMSTYLE
105
27
330
A
100
AcDbSymbolTableRecord
100
AcDbDimStyleTableRecord
  2
Standard
 70
     0
178
     0
340
11
  0
ENDTAB
  0
TABLE
  2
BLOCK_RECORD
  5
1
330
0
100
AcDbSymbolTable
 70
     1
  0
BLOCK_RECORD
  5
1F
330
1
100
AcDbSymbolTableRecord
100
AcDbBlockTableRecord
  2
*Model_Space
340
22
  0
BLOCK_RECORD
  5
1B
330
1
100
AcDbSymbolTableRecord
100
AcDbBlockTableRecord
  2
*Paper_Space
340
1E
  0
BLOCK_RECORD
  5
23
330
1
100
AcDbSymbolTableRecord
100
AcDbBlockTableRecord
  2
*Paper_Space0
340
26
  0
ENDTAB
  0
ENDSEC
  0
SECTION
  2
BLOCKS
  0
BLOCK
  5
20
330
1F
100
AcDbEntity
  8
0
100
AcDbBlockBegin
  2
*Model_Space
 70
     0
 10
0.0
 20
0.0
 30
0.0
  3
*Model_Space
  1

  0
ENDBLK
  5
21
330
1F
100
AcDbEntity
  8
0
100
AcDbBlockEnd
  0
BLOCK
  5
1C
330
1B
100
AcDbEntity
 67
     1
  8
0
100
AcDbBlockBegin
  2
*Paper_Space
 70
     0
 10
0.0
 20
0.0
 30
0.0
  3
*Paper_Space
  1

  0
ENDBLK
  5
1D
330
1B
100
AcDbEntity
 67
     1
  8
0
100
AcDbBlockEnd
  0
BLOCK
  5
24
330
23
100
AcDbEntity
  8
0
100
AcDbBlockBegin
  2
*Paper_Space0
 70
     0
 10
0.0
 20
0.0
 30
0.0
  3
*Paper_Space0
  1

  0
ENDBLK
  5
25
330
23
100
AcDbEntity
  8
0
100
AcDbBlockEnd
  0
ENDSEC
  0
SECTION
  2
ENTITIES
  0
SPLINE
  5
41
330
1F
100
AcDbEntity
  8
Layer 1
 62
   177
100
AcDbSpline
210
0.0
220
0.0
230
1.0
 70
    27
 71
     3
 72
     8
 73
     4
 74
     0
 42
0.0000000001
 43
0.0000000001
 12
1.0
 22
0.0
 32
0.0
 13
1.0
 23
0.0
 33
0.0
 40
0.0
 40
0.0
 40
0.0
 40
0.0
 40
1.0
 40
1.0
 40
1.0
 40
1.0
 10
2.27717
 20
12.33672
 30
0.0
 10
2.27717
 20
12.33672
 30
0.0
 10
2.27717
 20
12.33672
 30
0.0
 10
2.27717
 20
12.33672
 30
0.0
  0
SPLINE
  5
42
330
1F
100
AcDbEntity
  8
Layer 1
 62
   177
100
AcDbSpline
210
0.0
220
0.0
230
1.0
 70
    24
 71
     3
 72
     8
 73
     4
 74
     0
 42
0.0000000001
 43
0.0000000001
 12
1.0
 22
0.0
 32
0.0
 13
1.0
 23
0.0
 33
0.0
 40
0.0
 40
0.0
 40
0.0
 40
0.0
 40
1.0
 40
1.0
 40
1.0
 40
1.0
 10
-3.95351
 20
12.33672
 30
0.0
 10
-3.95351
 20
12.33672
 30
0.0
 10
2.27717
 20
12.33672
 30
0.0
 10
2.27717
 20
12.33672
 30
0.0
  0
SPLINE
  5
43
330
1F
100
AcDbEntity
  8
Layer 1
 62
   177
100
AcDbSpline
210
0.0
220
0.0
230
1.0
 70
    11
 71
     3
 72
    72
 73
    68
 74
     0
 42
0.0000000001
 43
0.0000000001
 12
1.0
 22
0.0
 32
0.0
 13
1.0
 23
0.0
 33
0.0
 40
0.0
 40
0.0
 40
0.0
 40
0.0
 40
0.0555555555555556
 40
0.0555555555555556
 40
0.0555555555555556
 40
0.0555555555555556
 40
0.1111111111111111
 40
0.1111111111111111
 40
0.1111111111111111
 40
0.1111111111111111
 40
0.1666666666666667
 40
0.1666666666666667
 40
0.1666666666666667
 40
0.1666666666666667
 40
0.2222222222222222
 40
0.2222222222222222
 40
0.2222222222222222
 40
0.2222222222222222
 40
0.2777777777777778
 40
0.2777777777777778
 40
0.2777777777777778
 40
0.2777777777777778
 40
0.3333333333333333
 40
0.3333333333333333
 40
0.3333333333333333
 40
0.3333333333333333
 40
0.3888888888888889
 40
0.3888888888888889
 40
0.3888888888888889
 40
0.3888888888888889
 40
0.4444444444444444
 40
0.4444444444444444
 40
0.4444444444444444
 40
0.4444444444444444
 40
0.5
 40
0.5
 40
0.5
 40
0.5
 40
0.5555555555555556
 40
0.5555555555555556
 40
0.5555555555555556
 40
0.5555555555555556
 40
0.6111111111111112
 40
0.6111111111111112
 40
0.6111111111111112
 40
0.6111111111111112
 40
0.6666666666666666
 40
0.6666666666666666
 40
0.6666666666666666
 40
0.6666666666666666
 40
0.7222222222222222
 40
0.7222222222222222
 40
0.7222222222222222
 40
0.7222222222222222
 40
0.7777777777777778
 40
0.7777777777777778
 40
0.7777777777777778
 40
0.7777777777777778
 40
0.8333333333333334
 40
0.8333333333333334
 40
0.8333333333333334
 40
0.8333333333333334
 40
0.8888888888888888
 40
0.8888888888888888
 40
0.8888888888888888
 40
0.8888888888888888
 40
1.0
 40
1.0
 40
1.0
 40
1.0
 10
-0.05918
 20
2.99073
 30
0.0
 10
-0.05918
 20
2.99073
 30
0.0
 10
-3.95351
 20
2.99073
 30
0.0
 10
-3.95351
 20
2.99073
 30
0.0
 10
-3.95351
 20
2.99073
 30
0.0
 10
-3.95351
 20
2.99073
 30
0.0
 10
-7.06883
 20
2.99073
 30
0.0
 10
-7.06883
 20
2.99073
 30
0.0
 10
-7.06883
 20
2.99073
 30
0.0
 10
-7.06883
 20
2.99073
 30
0.0
 10
-7.06883
 20
3.76908
 30
0.0
 10
-7.06883
 20
3.76908
 30
0.0
 10
-7.06883
 20
3.76908
 30
0.0
 10
-7.06883
 20
3.76908
 30
0.0
 10
-0.83816
 20
3.76908
 30
0.0
 10
-0.83816
 20
3.76908
 30
0.0
 10
-0.83816
 20
3.76908
 30
0.0
 10
-0.83816
 20
3.76908
 30
0.0
 10
-0.83816
 20
4.54808
 30
0.0
 10
-0.83816
 20
4.54808
 30
0.0
 10
-0.83816
 20
4.54808
 30
0.0
 10
-0.83816
 20
4.54808
 30
0.0
 10
-0.83816
 20
5.32706
 30
0.0
 10
-0.83816
 20
5.32706
 30
0.0
 10
-0.83816
 20
5.32706
 30
0.0
 10
-0.83816
 20
5.32706
 30
0.0
 10
-0.83816
 20
6.10606
 30
0.0
 10
-0.83816
 20
6.10606
 30
0.0
 10
-0.83816
 20
6.10606
 30
0.0
 10
-0.83816
 20
6.10606
 30
0.0
 10
-2.39616
 20
6.10606
 30
0.0
 10
-2.39616
 20
6.10606
 30
0.0
 10
-2.39616
 20
6.10606
 30
0.0
 10
-2.39616
 20
6.10606
 30
0.0
 10
-2.39616
 20
6.88505
 30
0.0
 10
-2.39616
 20
6.88505
 30
0.0
 10
-2.39616
 20
6.88505
 30
0.0
 10
-2.39616
 20
6.88505
 30
0.0
 10
-2.39553
 20
6.88505
 30
0.0
 10
-2.39553
 20
6.88505
 30
0.0
 10
-2.39553
 20
6.88505
 30
0.0
 10
-2.39553
 20
6.88505
 30
0.0
 10
-1.61716
 20
6.88505
 30
0.0
 10
-1.61716
 20
6.88505
 30
0.0
 10
-1.61716
 20
6.88505
 30
0.0
 10
-1.61716
 20
6.88505
 30
0.0
 10
-0.83816
 20
6.88505
 30
0.0
 10
-0.83816
 20
6.88505
 30
0.0
 10
-0.83816
 20
6.88505
 30
0.0
 10
-0.83816
 20
6.88505
 30
0.0
 10
-0.83816
 20
7.66402
 30
0.0
 10
-0.83816
 20
7.66402
 30
0.0
 10
-0.83816
 20
7.66402
 30
0.0
 10
-0.83816
 20
7.66402
 30
0.0
 10
-0.83816
 20
8.4424
 30
0.0
 10
-0.83816
 20
8.4424
 30
0.0
 10
-0.83816
 20
8.4424
 30
0.0
 10
-0.83816
 20
8.4424
 30
0.0
 10
-0.05918
 20
8.4424
 30
0.0
 10
-0.05918
 20
8.4424
 30
0.0
 10
-0.05918
 20
8.4424
 30
0.0
 10
-0.05918
 20
8.4424
 30
0.0
 10
-0.05918
 20
2.99073
 30
0.0
 10
-0.05918
 20
2.99073
 30
0.0
 10
-0.05918
 20
2.99073
 30
0.0
 10
-0.05918
 20
2.99073
 30
0.0
 10
-0.05918
 20
2.99073
 30
0.0
 10
-0.05918
 20
2.99073
 30
0.0
  0
SPLINE
  5
44
330
1F
100
AcDbEntity
  8
Layer 1
 62
   177
100
AcDbSpline
210
0.0
220
0.0
230
1.0
 70
    11
 71
     3
 72
    60
 73
    56
 74
     0
 42
0.0000000001
 43
0.0000000001
 12
1.0
 22
0.0
 32
0.0
 13
1.0
 23
0.0
 33
0.0
 40
0.0
 40
0.0
 40
0.0
 40
0.0
 40
0.0666666666666667
 40
0.0666666666666667
 40
0.0666666666666667
 40
0.0666666666666667
 40
0.1333333333333333
 40
0.1333333333333333
 40
0.1333333333333333
 40
0.1333333333333333
 40
0.2
 40
0.2
 40
0.2
 40
0.2
 40
0.2666666666666667
 40
0.2666666666666667
 40
0.2666666666666667
 40
0.2666666666666667
 40
0.3333333333333333
 40
0.3333333333333333
 40
0.3333333333333333
 40
0.3333333333333333
 40
0.4
 40
0.4
 40
0.4
 40
0.4
 40
0.4666666666666667
 40
0.4666666666666667
 40
0.4666666666666667
 40
0.4666666666666667
 40
0.5333333333333333
 40
0.5333333333333333
 40
0.5333333333333333
 40
0.5333333333333333
 40
0.6
 40
0.6
 40
0.6
 40
0.6
 40
0.6666666666666666
 40
0.6666666666666666
 40
0.6666666666666666
 40
0.6666666666666666
 40
0.7333333333333333
 40
0.7333333333333333
 40
0.7333333333333333
 40
0.7333333333333333
 40
0.8
 40
0.8
 40
0.8
 40
0.8
 40
0.8666666666666667
 40
0.8666666666666667
 40
0.8666666666666667
 40
0.8666666666666667
 40
1.0
 40
1.0
 40
1.0
 40
1.0
 10
1.49817
 20
8.4424
 30
0.0
 10
1.49817
 20
8.4424
 30
0.0
 10
1.49817
 20
2.99073
 30
0.0
 10
1.49817
 20
2.99073
 30
0.0
 10
1.49817
 20
2.99073
 30
0.0
 10
1.49817
 20
2.99073
 30
0.0
 10
0.71982
 20
2.99073
 30
0.0
 10
0.71982
 20
2.99073
 30
0.0
 10
0.71982
 20
2.99073
 30
0.0
 10
0.71982
 20
2.99073
 30
0.0
 10
0.71982
 20
9.2214
 30
0.0
 10
0.71982
 20
9.2214
 30
0.0
 10
0.71982
 20
9.2214
 30
0.0
 10
0.71982
 20
9.2214
 30
0.0
 10
-1.61716
 20
9.2214
 30
0.0
 10
-1.61716
 20
9.2214
 30
0.0
 10
-1.61716
 20
9.2214
 30
0.0
 10
-1.61716
 20
9.2214
 30
0.0
 10
-1.61716
 20
7.66402
 30
0.0
 10
-1.61716
 20
7.66402
 30
0.0
 10
-1.61716
 20
7.66402
 30
0.0
 10
-1.61716
 20
7.66402
 30
0.0
 10
-2.39553
 20
7.66402
 30
0.0
 10
-2.39553
 20
7.66402
 30
0.0
 10
-2.39553
 20
7.66402
 30
0.0
 10
-2.39553
 20
7.66402
 30
0.0
 10
-2.39553
 20
9.2214
 30
0.0
 10
-2.39553
 20
9.2214
 30
0.0
 10
-2.39553
 20
9.2214
 30
0.0
 10
-2.39553
 20
9.2214
 30
0.0
 10
-2.39616
 20
9.2214
 30
0.0
 10
-2.39616
 20
9.2214
 30
0.0
 10
-2.39616
 20
9.2214
 30
0.0
 10
-2.39616
 20
9.2214
 30
0.0
 10
-3.17451
 20
9.2214
 30
0.0
 10
-3.17451
 20
9.2214
 30
0.0
 10
-3.17451
 20
9.2214
 30
0.0
 10
-3.17451
 20
9.2214
 30
0.0
 10
-3.95351
 20
9.2214
 30
0.0
 10
-3.95351
 20
9.2214
 30
0.0
 10
-3.95351
 20
9.2214
 30
0.0
 10
-3.95351
 20
9.2214
 30
0.0
 10
-3.95351
 20
10.00037
 30
0.0
 10
-3.95351
 20
10.00037
 30
0.0
 10
-3.95351
 20
10.00037
 30
0.0
 10
-3.95351
 20
10.00037
 30
0.0
 10
1.49817
 20
10.00037
 30
0.0
 10
1.49817
 20
10.00037
 30
0.0
 10
1.49817
 20
10.00037
 30
0.0
 10
1.49817
 20
10.00037
 30
0.0
 10
1.49817
 20
8.4424
 30
0.0
 10
1.49817
 20
8.4424
 30
0.0
 10
1.49817
 20
8.4424
 30
0.0
 10
1.49817
 20
8.4424
 30
0.0
 10
1.49817
 20
8.4424
 30
0.0
 10
1.49817
 20
8.4424
 30
0.0
  0
SPLINE
  5
45
330
1F
100
AcDbEntity
  8
Layer 1
 62
   177
100
AcDbSpline
210
0.0
220
0.0
230
1.0
 70
    11
 71
     3
 72
    72
 73
    68
 74
     0
 42
0.0000000001
 43
0.0000000001
 12
1.0
 22
0.0
 32
0.0
 13
1.0
 23
0.0
 33
0.0
 40
0.0
 40
0.0
 40
0.0
 40
0.0
 40
0.0555555555555556
 40
0.0555555555555556
 40
0.0555555555555556
 40
0.0555555555555556
 40
0.1111111111111111
 40
0.1111111111111111
 40
0.1111111111111111
 40
0.1111111111111111
 40
0.1666666666666667
 40
0.1666666666666667
 40
0.1666666666666667
 40
0.1666666666666667
 40
0.2222222222222222
 40
0.2222222222222222
 40
0.2222222222222222
 40
0.2222222222222222
 40
0.2777777777777778
 40
0.2777777777777778
 40
0.2777777777777778
 40
0.2777777777777778
 40
0.3333333333333333
 40
0.3333333333333333
 40
0.3333333333333333
 40
0.3333333333333333
 40
0.3888888888888889
 40
0.3888888888888889
 40
0.3888888888888889
 40
0.3888888888888889
 40
0.4444444444444444
 40
0.4444444444444444
 40
0.4444444444444444
 40
0.4444444444444444
 40
0.5
 40
0.5
 40
0.5
 40
0.5
 40
0.5555555555555556
 40
0.5555555555555556
 40
0.5555555555555556
 40
0.5555555555555556
 40
0.6111111111111112
 40
0.6111111111111112
 40
0.6111111111111112
 40
0.6111111111111112
 40
0.6666666666666666
 40
0.6666666666666666
 40
0.6666666666666666
 40
0.6666666666666666
 40
0.7222222222222222
 40
0.7222222222222222
 40
0.7222222222222222
 40
0.7222222222222222
 40
0.7777777777777778
 40
0.7777777777777778
 40
0.7777777777777778
 40
0.7777777777777778
 40
0.8333333333333334
 40
0.8333333333333334
 40
0.8333333333333334
 40
0.8333333333333334
 40
0.8888888888888888
 40
0.8888888888888888
 40
0.8888888888888888
 40
0.8888888888888888
 40
1.0
 40
1.0
 40
1.0
 40
1.0
 10
1.49817
 20
10.77937
 30
0.0
 10
1.49817
 20
10.77937
 30
0.0
 10
-4.73251
 20
10.77937
 30
0.0
 10
-4.73251
 20
10.77937
 30
0.0
 10
-4.73251
 20
10.77937
 30
0.0
 10
-4.73251
 20
10.77937
 30
0.0
 10
-4.73251
 20
10.77875
 30
0.0
 10
-4.73251
 20
10.77875
 30
0.0
 10
-4.73251
 20
10.77875
 30
0.0
 10
-4.73251
 20
10.77875
 30
0.0
 10
-4.73251
 20
10.00037
 30
0.0
 10
-4.73251
 20
10.00037
 30
0.0
 10
-4.73251
 20
10.00037
 30
0.0
 10
-4.73251
 20
10.00037
 30
0.0
 10
-4.73251
 20
9.2214
 30
0.0
 10
-4.73251
 20
9.2214
 30
0.0
 10
-4.73251
 20
9.2214
 30
0.0
 10
-4.73251
 20
9.2214
 30
0.0
 10
-4.73251
 20
8.4424
 30
0.0
 10
-4.73251
 20
8.4424
 30
0.0
 10
-4.73251
 20
8.4424
 30
0.0
 10
-4.73251
 20
8.4424
 30
0.0
 10
-3.17451
 20
8.4424
 30
0.0
 10
-3.17451
 20
8.4424
 30
0.0
 10
-3.17451
 20
8.4424
 30
0.0
 10
-3.17451
 20
8.4424
 30
0.0
 10
-3.17451
 20
7.66402
 30
0.0
 10
-3.17451
 20
7.66402
 30
0.0
 10
-3.17451
 20
7.66402
 30
0.0
 10
-3.17451
 20
7.66402
 30
0.0
 10
-4.73251
 20
7.66402
 30
0.0
 10
-4.73251
 20
7.66402
 30
0.0
 10
-4.73251
 20
7.66402
 30
0.0
 10
-4.73251
 20
7.66402
 30
0.0
 10
-4.73251
 20
7.6634
 30
0.0
 10
-4.73251
 20
7.6634
 30
0.0
 10
-4.73251
 20
7.6634
 30
0.0
 10
-4.73251
 20
7.6634
 30
0.0
 10
-4.73251
 20
6.88505
 30
0.0
 10
-4.73251
 20
6.88505
 30
0.0
 10
-4.73251
 20
6.88505
 30
0.0
 10
-4.73251
 20
6.88505
 30
0.0
 10
-4.73251
 20
6.10606
 30
0.0
 10
-4.73251
 20
6.10606
 30
0.0
 10
-4.73251
 20
6.10606
 30
0.0
 10
-4.73251
 20
6.10606
 30
0.0
 10
-5.51148
 20
6.10606
 30
0.0
 10
-5.51148
 20
6.10606
 30
0.0
 10
-5.51148
 20
6.10606
 30
0.0
 10
-5.51148
 20
6.10606
 30
0.0
 10
-5.51148
 20
11.55772
 30
0.0
 10
-5.51148
 20
11.55772
 30
0.0
 10
-5.51148
 20
11.55772
 30
0.0
 10
-5.51148
 20
11.55772
 30
0.0
 10
-1.61716
 20
11.55772
 30
0.0
 10
-1.61716
 20
11.55772
 30
0.0
 10
-1.61716
 20
11.55772
 30
0.0
 10
-1.61716
 20
11.55772
 30
0.0
 10
1.49817
 20
11.55772
 30
0.0
 10
1.49817
 20
11.55772
 30
0.0
 10
1.49817
 20
11.55772
 30
0.0
 10
1.49817
 20
11.55772
 30
0.0
 10
1.49817
 20
10.77937
 30
0.0
 10
1.49817
 20
10.77937
 30
0.0
 10
1.49817
 20
10.77937
 30
0.0
 10
1.49817
 20
10.77937
 30
0.0
 10
1.49817
 20
10.77937
 30
0.0
 10
1.49817
 20
10.77937
 30
0.0
  0
SPLINE
  5
46
330
1F
100
AcDbEntity
  8
Layer 1
 62
   177
100
AcDbSpline
210
0.0
220
0.0
230
1.0
 70
    11
 71
     3
 72
    52
 73
    48
 74
     0
 42
0.0000000001
 43
0.0000000001
 12
1.0
 22
0.0
 32
0.0
 13
1.0
 23
0.0
 33
0.0
 40
0.0
 40
0.0
 40
0.0
 40
0.0
 40
0.0769230769230769
 40
0.0769230769230769
 40
0.0769230769230769
 40
0.0769230769230769
 40
0.1538461538461539
 40
0.1538461538461539
 40
0.1538461538461539
 40
0.1538461538461539
 40
0.2307692307692308
 40
0.2307692307692308
 40
0.2307692307692308
 40
0.2307692307692308
 40
0.3076923076923077
 40
0.3076923076923077
 40
0.3076923076923077
 40
0.3076923076923077
 40
0.3846153846153846
 40
0.3846153846153846
 40
0.3846153846153846
 40
0.3846153846153846
 40
0.4615384615384616
 40
0.4615384615384616
 40
0.4615384615384616
 40
0.4615384615384616
 40
0.5384615384615384
 40
0.5384615384615384
 40
0.5384615384615384
 40
0.5384615384615384
 40
0.6153846153846154
 40
0.6153846153846154
 40
0.6153846153846154
 40
0.6153846153846154
 40
0.6923076923076923
 40
0.6923076923076923
 40
0.6923076923076923
 40
0.6923076923076923
 40
0.7692307692307693
 40
0.7692307692307693
 40
0.7692307692307693
 40
0.7692307692307693
 40
0.8461538461538461
 40
0.8461538461538461
 40
0.8461538461538461
 40
0.8461538461538461
 40
1.0
 40
1.0
 40
1.0
 40
1.0
 10
-3.95351
 20
12.33672
 30
0.0
 10
-3.95351
 20
12.33672
 30
0.0
 10
-7.84783
 20
12.33672
 30
0.0
 10
-7.84783
 20
12.33672
 30
0.0
 10
-7.84783
 20
12.33672
 30
0.0
 10
-7.84783
 20
12.33672
 30
0.0
 10
-7.84783
 20
11.55772
 30
0.0
 10
-7.84783
 20
11.55772
 30
0.0
 10
-7.84783
 20
11.55772
 30
0.0
 10
-7.84783
 20
11.55772
 30
0.0
 10
-7.84783
 20
5.32706
 30
0.0
 10
-7.84783
 20
5.32706
 30
0.0
 10
-7.84783
 20
5.32706
 30
0.0
 10
-7.84783
 20
5.32706
 30
0.0
 10
-7.84783
 20
2.99073
 30
0.0
 10
-7.84783
 20
2.99073
 30
0.0
 10
-7.84783
 20
2.99073
 30
0.0
 10
-7.84783
 20
2.99073
 30
0.0
 10
-7.84783
 20
2.21173
 30
0.0
 10
-7.84783
 20
2.21173
 30
0.0
 10
-7.84783
 20
2.21173
 30
0.0
 10
-7.84783
 20
2.21173
 30
0.0
 10
-1.61716
 20
2.21173
 30
0.0
 10
-1.61716
 20
2.21173
 30
0.0
 10
-1.61716
 20
2.21173
 30
0.0
 10
-1.61716
 20
2.21173
 30
0.0
 10
1.49817
 20
2.21173
 30
0.0
 10
1.49817
 20
2.21173
 30
0.0
 10
1.49817
 20
2.21173
 30
0.0
 10
1.49817
 20
2.21173
 30
0.0
 10
2.27717
 20
2.21173
 30
0.0
 10
2.27717
 20
2.21173
 30
0.0
 10
2.27717
 20
2.21173
 30
0.0
 10
2.27717
 20
2.21173
 30
0.0
 10
2.27717
 20
2.99073
 30
0.0
 10
2.27717
 20
2.99073
 30
0.0
 10
2.27717
 20
2.99073
 30
0.0
 10
2.27717
 20
2.99073
 30
0.0
 10
2.27717
 20
6.10606
 30
0.0
 10
2.27717
 20
6.10606
 30
0.0
 10
2.27717
 20
6.10606
 30
0.0
 10
2.27717
 20
6.10606
 30
0.0
 10
2.27717
 20
12.33672
 30
0.0
 10
2.27717
 20
12.33672
 30
0.0
 10
2.27717
 20
12.33672
 30
0.0
 10
2.27717
 20
12.33672
 30
0.0
 10
-3.95351
 20
12.33672
 30
0.0
 10
-3.95351
 20
12.33672
 30
0.0
  0
SPLINE
  5
47
330
1F
100
AcDbEntity
  8
Layer 1
 62
   177
100
AcDbSpline
210
0.0
220
0.0
230
1.0
 70
    11
 71
     3
 72
    64
 73
    60
 74
     0
 42
0.0000000001
 43
0.0000000001
 12
1.0
 22
0.0
 32
0.0
 13
1.0
 23
0.0
 33
0.0
 40
0.0
 40
0.0
 40
0.0
 40
0.0
 40
0.0625
 40
0.0625
 40
0.0625
 40
0.0625
 40
0.125
 40
0.125
 40
0.125
 40
0.125
 40
0.1875
 40
0.1875
 40
0.1875
 40
0.1875
 40
0.25
 40
0.25
 40
0.25
 40
0.25
 40
0.3125
 40
0.3125
 40
0.3125
 40
0.3125
 40
0.375
 40
0.375
 40
0.375
 40
0.375
 40
0.4375
 40
0.4375
 40
0.4375
 40
0.4375
 40
0.5
 40
0.5
 40
0.5
 40
0.5
 40
0.5625
 40
0.5625
 40
0.5625
 40
0.5625
 40
0.625
 40
0.625
 40
0.625
 40
0.625
 40
0.6875
 40
0.6875
 40
0.6875
 40
0.6875
 40
0.75
 40
0.75
 40
0.75
 40
0.75
 40
0.8125
 40
0.8125
 40
0.8125
 40
0.8125
 40
0.875
 40
0.875
 40
0.875
 40
0.875
 40
1.0
 40
1.0
 40
1.0
 40
1.0
 10
-7.06883
 20
5.32706
 30
0.0
 10
-7.06883
 20
5.32706
 30
0.0
 10
-7.06883
 20
11.55772
 30
0.0
 10
-7.06883
 20
11.55772
 30
0.0
 10
-7.06883
 20
11.55772
 30
0.0
 10
-7.06883
 20
11.55772
 30
0.0
 10
-6.29048
 20
11.55772
 30
0.0
 10
-6.29048
 20
11.55772
 30
0.0
 10
-6.29048
 20
11.55772
 30
0.0
 10
-6.29048
 20
11.55772
 30
0.0
 10
-6.29048
 20
5.32706
 30
0.0
 10
-6.29048
 20
5.32706
 30
0.0
 10
-6.29048
 20
5.32706
 30
0.0
 10
-6.29048
 20
5.32706
 30
0.0
 10
-6.28986
 20
5.32706
 30
0.0
 10
-6.28986
 20
5.32706
 30
0.0
 10
-6.28986
 20
5.32706
 30
0.0
 10
-6.28986
 20
5.32706
 30
0.0
 10
-5.51148
 20
5.32706
 30
0.0
 10
-5.51148
 20
5.32706
 30
0.0
 10
-5.51148
 20
5.32706
 30
0.0
 10
-5.51148
 20
5.32706
 30
0.0
 10
-4.73251
 20
5.32706
 30
0.0
 10
-4.73251
 20
5.32706
 30
0.0
 10
-4.73251
 20
5.32706
 30
0.0
 10
-4.73251
 20
5.32706
 30
0.0
 10
-3.95351
 20
5.32706
 30
0.0
 10
-3.95351
 20
5.32706
 30
0.0
 10
-3.95351
 20
5.32706
 30
0.0
 10
-3.95351
 20
5.32706
 30
0.0
 10
-3.95351
 20
6.88505
 30
0.0
 10
-3.95351
 20
6.88505
 30
0.0
 10
-3.95351
 20
6.88505
 30
0.0
 10
-3.95351
 20
6.88505
 30
0.0
 10
-3.17451
 20
6.88505
 30
0.0
 10
-3.17451
 20
6.88505
 30
0.0
 10
-3.17451
 20
6.88505
 30
0.0
 10
-3.17451
 20
6.88505
 30
0.0
 10
-3.17451
 20
5.32706
 30
0.0
 10
-3.17451
 20
5.32706
 30
0.0
 10
-3.17451
 20
5.32706
 30
0.0
 10
-3.17451
 20
5.32706
 30
0.0
 10
-2.39616
 20
5.32706
 30
0.0
 10
-2.39616
 20
5.32706
 30
0.0
 10
-2.39616
 20
5.32706
 30
0.0
 10
-2.39616
 20
5.32706
 30
0.0
 10
-1.61716
 20
5.32706
 30
0.0
 10
-1.61716
 20
5.32706
 30
0.0
 10
-1.61716
 20
5.32706
 30
0.0
 10
-1.61716
 20
5.32706
 30
0.0
 10
-1.61716
 20
4.54808
 30
0.0
 10
-1.61716
 20
4.54808
 30
0.0
 10
-1.61716
 20
4.54808
 30
0.0
 10
-1.61716
 20
4.54808
 30
0.0
 10
-7.06883
 20
4.54808
 30
0.0
 10
-7.06883
 20
4.54808
 30
0.0
 10
-7.06883
 20
4.54808
 30
0.0
 10
-7.06883
 20
4.54808
 30
0.0
 10
-7.06883
 20
5.32706
 30
0.0
 10
-7.06883
 20
5.32706
 30
0.0
  0
SPLINE
  5
48
330
1F
100
AcDbEntity
  8
Layer 1
370
     9
100
AcDbSpline
210
0.0
220
0.0
230
1.0
 70
    27
 71
     3
 72
     8
 73
     4
 74
     0
 42
0.0000000001
 43
0.0000000001
 12
1.0
 22
0.0
 32
0.0
 13
1.0
 23
0.0
 33
0.0
 40
0.0
 40
0.0
 40
0.0
 40
0.0
 40
1.0
 40
1.0
 40
1.0
 40
1.0
 10
2.27717
 20
12.33672
 30
0.0
 10
2.27717
 20
12.33672
 30
0.0
 10
2.27717
 20
12.33672
 30
0.0
 10
2.27717
 20
12.33672
 30
0.0
  0
SPLINE
  5
49
330
1F
100
AcDbEntity
  8
Layer 1
370
     9
100
AcDbSpline
210
0.0
220
0.0
230
1.0
 70
    24
 71
     3
 72
     8
 73
     4
 74
     0
 42
0.0000000001
 43
0.0000000001
 12
1.0
 22
0.0
 32
0.0
 13
1.0
 23
0.0
 33
0.0
 40
0.0
 40
0.0
 40
0.0
 40
0.0
 40
1.0
 40
1.0
 40
1.0
 40
1.0
 10
-3.95351
 20
12.33672
 30
0.0
 10
-3.95351
 20
12.33672
 30
0.0
 10
2.27717
 20
12.33672
 30
0.0
 10
2.27717
 20
12.33672
 30
0.0
  0
SPLINE
  5
4A
330
1F
100
AcDbEntity
  8
Layer 1
370
     9
100
AcDbSpline
210
0.0
220
0.0
230
1.0
 70
    11
 71
     3
 72
    72
 73
    68
 74
     0
 42
0.0000000001
 43
0.0000000001
 12
1.0
 22
0.0
 32
0.0
 13
1.0
 23
0.0
 33
0.0
 40
0.0
 40
0.0
 40
0.0
 40
0.0
 40
0.0555555555555556
 40
0.0555555555555556
 40
0.0555555555555556
 40
0.0555555555555556
 40
0.1111111111111111
 40
0.1111111111111111
 40
0.1111111111111111
 40
0.1111111111111111
 40
0.1666666666666667
 40
0.1666666666666667
 40
0.1666666666666667
 40
0.1666666666666667
 40
0.2222222222222222
 40
0.2222222222222222
 40
0.2222222222222222
 40
0.2222222222222222
 40
0.2777777777777778
 40
0.2777777777777778
 40
0.2777777777777778
 40
0.2777777777777778
 40
0.3333333333333333
 40
0.3333333333333333
 40
0.3333333333333333
 40
0.3333333333333333
 40
0.3888888888888889
 40
0.3888888888888889
 40
0.3888888888888889
 40
0.3888888888888889
 40
0.4444444444444444
 40
0.4444444444444444
 40
0.4444444444444444
 40
0.4444444444444444
 40
0.5
 40
0.5
 40
0.5
 40
0.5
 40
0.5555555555555556
 40
0.5555555555555556
 40
0.5555555555555556
 40
0.5555555555555556
 40
0.6111111111111112
 40
0.6111111111111112
 40
0.6111111111111112
 40
0.6111111111111112
 40
0.6666666666666666
 40
0.6666666666666666
 40
0.6666666666666666
 40
0.6666666666666666
 40
0.7222222222222222
 40
0.7222222222222222
 40
0.7222222222222222
 40
0.7222222222222222
 40
0.7777777777777778
 40
0.7777777777777778
 40
0.7777777777777778
 40
0.7777777777777778
 40
0.8333333333333334
 40
0.8333333333333334
 40
0.8333333333333334
 40
0.8333333333333334
 40
0.8888888888888888
 40
0.8888888888888888
 40
0.8888888888888888
 40
0.8888888888888888
 40
1.0
 40
1.0
 40
1.0
 40
1.0
 10
-0.05918
 20
2.99073
 30
0.0
 10
-0.05918
 20
2.99073
 30
0.0
 10
-3.95351
 20
2.99073
 30
0.0
 10
-3.95351
 20
2.99073
 30
0.0
 10
-3.95351
 20
2.99073
 30
0.0
 10
-3.95351
 20
2.99073
 30
0.0
 10
-7.06883
 20
2.99073
 30
0.0
 10
-7.06883
 20
2.99073
 30
0.0
 10
-7.06883
 20
2.99073
 30
0.0
 10
-7.06883
 20
2.99073
 30
0.0
 10
-7.06883
 20
3.76908
 30
0.0
 10
-7.06883
 20
3.76908
 30
0.0
 10
-7.06883
 20
3.76908
 30
0.0
 10
-7.06883
 20
3.76908
 30
0.0
 10
-0.83816
 20
3.76908
 30
0.0
 10
-0.83816
 20
3.76908
 30
0.0
 10
-0.83816
 20
3.76908
 30
0.0
 10
-0.83816
 20
3.76908
 30
0.0
 10
-0.83816
 20
4.54808
 30
0.0
 10
-0.83816
 20
4.54808
 30
0.0
 10
-0.83816
 20
4.54808
 30
0.0
 10
-0.83816
 20
4.54808
 30
0.0
 10
-0.83816
 20
5.32706
 30
0.0
 10
-0.83816
 20
5.32706
 30
0.0
 10
-0.83816
 20
5.32706
 30
0.0
 10
-0.83816
 20
5.32706
 30
0.0
 10
-0.83816
 20
6.10606
 30
0.0
 10
-0.83816
 20
6.10606
 30
0.0
 10
-0.83816
 20
6.10606
 30
0.0
 10
-0.83816
 20
6.10606
 30
0.0
 10
-2.39616
 20
6.10606
 30
0.0
 10
-2.39616
 20
6.10606
 30
0.0
 10
-2.39616
 20
6.10606
 30
0.0
 10
-2.39616
 20
6.10606
 30
0.0
 10
-2.39616
 20
6.88505
 30
0.0
 10
-2.39616
 20
6.88505
 30
0.0
 10
-2.39616
 20
6.88505
 30
0.0
 10
-2.39616
 20
6.88505
 30
0.0
 10
-2.39553
 20
6.88505
 30
0.0
 10
-2.39553
 20
6.88505
 30
0.0
 10
-2.39553
 20
6.88505
 30
0.0
 10
-2.39553
 20
6.88505
 30
0.0
 10
-1.61716
 20
6.88505
 30
0.0
 10
-1.61716
 20
6.88505
 30
0.0
 10
-1.61716
 20
6.88505
 30
0.0
 10
-1.61716
 20
6.88505
 30
0.0
 10
-0.83816
 20
6.88505
 30
0.0
 10
-0.83816
 20
6.88505
 30
0.0
 10
-0.83816
 20
6.88505
 30
0.0
 10
-0.83816
 20
6.88505
 30
0.0
 10
-0.83816
 20
7.66402
 30
0.0
 10
-0.83816
 20
7.66402
 30
0.0
 10
-0.83816
 20
7.66402
 30
0.0
 10
-0.83816
 20
7.66402
 30
0.0
 10
-0.83816
 20
8.4424
 30
0.0
 10
-0.83816
 20
8.4424
 30
0.0
 10
-0.83816
 20
8.4424
 30
0.0
 10
-0.83816
 20
8.4424
 30
0.0
 10
-0.05918
 20
8.4424
 30
0.0
 10
-0.05918
 20
8.4424
 30
0.0
 10
-0.05918
 20
8.4424
 30
0.0
 10
-0.05918
 20
8.4424
 30
0.0
 10
-0.05918
 20
2.99073
 30
0.0
 10
-0.05918
 20
2.99073
 30
0.0
 10
-0.05918
 20
2.99073
 30
0.0
 10
-0.05918
 20
2.99073
 30
0.0
 10
-0.05918
 20
2.99073
 30
0.0
 10
-0.05918
 20
2.99073
 30
0.0
  0
SPLINE
  5
4B
330
1F
100
AcDbEntity
  8
Layer 1
370
     9
100
AcDbSpline
210
0.0
220
0.0
230
1.0
 70
    11
 71
     3
 72
    60
 73
    56
 74
     0
 42
0.0000000001
 43
0.0000000001
 12
1.0
 22
0.0
 32
0.0
 13
1.0
 23
0.0
 33
0.0
 40
0.0
 40
0.0
 40
0.0
 40
0.0
 40
0.0666666666666667
 40
0.0666666666666667
 40
0.0666666666666667
 40
0.0666666666666667
 40
0.1333333333333333
 40
0.1333333333333333
 40
0.1333333333333333
 40
0.1333333333333333
 40
0.2
 40
0.2
 40
0.2
 40
0.2
 40
0.2666666666666667
 40
0.2666666666666667
 40
0.2666666666666667
 40
0.2666666666666667
 40
0.3333333333333333
 40
0.3333333333333333
 40
0.3333333333333333
 40
0.3333333333333333
 40
0.4
 40
0.4
 40
0.4
 40
0.4
 40
0.4666666666666667
 40
0.4666666666666667
 40
0.4666666666666667
 40
0.4666666666666667
 40
0.5333333333333333
 40
0.5333333333333333
 40
0.5333333333333333
 40
0.5333333333333333
 40
0.6
 40
0.6
 40
0.6
 40
0.6
 40
0.6666666666666666
 40
0.6666666666666666
 40
0.6666666666666666
 40
0.6666666666666666
 40
0.7333333333333333
 40
0.7333333333333333
 40
0.7333333333333333
 40
0.7333333333333333
 40
0.8
 40
0.8
 40
0.8
 40
0.8
 40
0.8666666666666667
 40
0.8666666666666667
 40
0.8666666666666667
 40
0.8666666666666667
 40
1.0
 40
1.0
 40
1.0
 40
1.0
 10
1.49817
 20
8.4424
 30
0.0
 10
1.49817
 20
8.4424
 30
0.0
 10
1.49817
 20
2.99073
 30
0.0
 10
1.49817
 20
2.99073
 30
0.0
 10
1.49817
 20
2.99073
 30
0.0
 10
1.49817
 20
2.99073
 30
0.0
 10
0.71982
 20
2.99073
 30
0.0
 10
0.71982
 20
2.99073
 30
0.0
 10
0.71982
 20
2.99073
 30
0.0
 10
0.71982
 20
2.99073
 30
0.0
 10
0.71982
 20
9.2214
 30
0.0
 10
0.71982
 20
9.2214
 30
0.0
 10
0.71982
 20
9.2214
 30
0.0
 10
0.71982
 20
9.2214
 30
0.0
 10
-1.61716
 20
9.2214
 30
0.0
 10
-1.61716
 20
9.2214
 30
0.0
 10
-1.61716
 20
9.2214
 30
0.0
 10
-1.61716
 20
9.2214
 30
0.0
 10
-1.61716
 20
7.66402
 30
0.0
 10
-1.61716
 20
7.66402
 30
0.0
 10
-1.61716
 20
7.66402
 30
0.0
 10
-1.61716
 20
7.66402
 30
0.0
 10
-2.39553
 20
7.66402
 30
0.0
 10
-2.39553
 20
7.66402
 30
0.0
 10
-2.39553
 20
7.66402
 30
0.0
 10
-2.39553
 20
7.66402
 30
0.0
 10
-2.39553
 20
9.2214
 30
0.0
 10
-2.39553
 20
9.2214
 30
0.0
 10
-2.39553
 20
9.2214
 30
0.0
 10
-2.39553
 20
9.2214
 30
0.0
 10
-2.39616
 20
9.2214
 30
0.0
 10
-2.39616
 20
9.2214
 30
0.0
 10
-2.39616
 20
9.2214
 30
0.0
 10
-2.39616
 20
9.2214
 30
0.0
 10
-3.17451
 20
9.2214
 30
0.0
 10
-3.17451
 20
9.2214
 30
0.0
 10
-3.17451
 20
9.2214
 30
0.0
 10
-3.17451
 20
9.2214
 30
0.0
 10
-3.95351
 20
9.2214
 30
0.0
 10
-3.95351
 20
9.2214
 30
0.0
 10
-3.95351
 20
9.2214
 30
0.0
 10
-3.95351
 20
9.2214
 30
0.0
 10
-3.95351
 20
10.00037
 30
0.0
 10
-3.95351
 20
10.00037
 30
0.0
 10
-3.95351
 20
10.00037
 30
0.0
 10
-3.95351
 20
10.00037
 30
0.0
 10
1.49817
 20
10.00037
 30
0.0
 10
1.49817
 20
10.00037
 30
0.0
 10
1.49817
 20
10.00037
 30
0.0
 10
1.49817
 20
10.00037
 30
0.0
 10
1.49817
 20
8.4424
 30
0.0
 10
1.49817
 20
8.4424
 30
0.0
 10
1.49817
 20
8.4424
 30
0.0
 10
1.49817
 20
8.4424
 30
0.0
 10
1.49817
 20
8.4424
 30
0.0
 10
1.49817
 20
8.4424
 30
0.0
  0
SPLINE
  5
4C
330
1F
100
AcDbEntity
  8
Layer 1
370
     9
100
AcDbSpline
210
0.0
220
0.0
230
1.0
 70
    11
 71
     3
 72
    72
 73
    68
 74
     0
 42
0.0000000001
 43
0.0000000001
 12
1.0
 22
0.0
 32
0.0
 13
1.0
 23
0.0
 33
0.0
 40
0.0
 40
0.0
 40
0.0
 40
0.0
 40
0.0555555555555556
 40
0.0555555555555556
 40
0.0555555555555556
 40
0.0555555555555556
 40
0.1111111111111111
 40
0.1111111111111111
 40
0.1111111111111111
 40
0.1111111111111111
 40
0.1666666666666667
 40
0.1666666666666667
 40
0.1666666666666667
 40
0.1666666666666667
 40
0.2222222222222222
 40
0.2222222222222222
 40
0.2222222222222222
 40
0.2222222222222222
 40
0.2777777777777778
 40
0.2777777777777778
 40
0.2777777777777778
 40
0.2777777777777778
 40
0.3333333333333333
 40
0.3333333333333333
 40
0.3333333333333333
 40
0.3333333333333333
 40
0.3888888888888889
 40
0.3888888888888889
 40
0.3888888888888889
 40
0.3888888888888889
 40
0.4444444444444444
 40
0.4444444444444444
 40
0.4444444444444444
 40
0.4444444444444444
 40
0.5
 40
0.5
 40
0.5
 40
0.5
 40
0.5555555555555556
 40
0.5555555555555556
 40
0.5555555555555556
 40
0.5555555555555556
 40
0.6111111111111112
 40
0.6111111111111112
 40
0.6111111111111112
 40
0.6111111111111112
 40
0.6666666666666666
 40
0.6666666666666666
 40
0.6666666666666666
 40
0.6666666666666666
 40
0.7222222222222222
 40
0.7222222222222222
 40
0.7222222222222222
 40
0.7222222222222222
 40
0.7777777777777778
 40
0.7777777777777778
 40
0.7777777777777778
 40
0.7777777777777778
 40
0.8333333333333334
 40
0.8333333333333334
 40
0.8333333333333334
 40
0.8333333333333334
 40
0.8888888888888888
 40
0.8888888888888888
 40
0.8888888888888888
 40
0.8888888888888888
 40
1.0
 40
1.0
 40
1.0
 40
1.0
 10
1.49817
 20
10.77937
 30
0.0
 10
1.49817
 20
10.77937
 30
0.0
 10
-4.73251
 20
10.77937
 30
0.0
 10
-4.73251
 20
10.77937
 30
0.0
 10
-4.73251
 20
10.77937
 30
0.0
 10
-4.73251
 20
10.77937
 30
0.0
 10
-4.73251
 20
10.77875
 30
0.0
 10
-4.73251
 20
10.77875
 30
0.0
 10
-4.73251
 20
10.77875
 30
0.0
 10
-4.73251
 20
10.77875
 30
0.0
 10
-4.73251
 20
10.00037
 30
0.0
 10
-4.73251
 20
10.00037
 30
0.0
 10
-4.73251
 20
10.00037
 30
0.0
 10
-4.73251
 20
10.00037
 30
0.0
 10
-4.73251
 20
9.2214
 30
0.0
 10
-4.73251
 20
9.2214
 30
0.0
 10
-4.73251
 20
9.2214
 30
0.0
 10
-4.73251
 20
9.2214
 30
0.0
 10
-4.73251
 20
8.4424
 30
0.0
 10
-4.73251
 20
8.4424
 30
0.0
 10
-4.73251
 20
8.4424
 30
0.0
 10
-4.73251
 20
8.4424
 30
0.0
 10
-3.17451
 20
8.4424
 30
0.0
 10
-3.17451
 20
8.4424
 30
0.0
 10
-3.17451
 20
8.4424
 30
0.0
 10
-3.17451
 20
8.4424
 30
0.0
 10
-3.17451
 20
7.66402
 30
0.0
 10
-3.17451
 20
7.66402
 30
0.0
 10
-3.17451
 20
7.66402
 30
0.0
 10
-3.17451
 20
7.66402
 30
0.0
 10
-4.73251
 20
7.66402
 30
0.0
 10
-4.73251
 20
7.66402
 30
0.0
 10
-4.73251
 20
7.66402
 30
0.0
 10
-4.73251
 20
7.66402
 30
0.0
 10
-4.73251
 20
7.6634
 30
0.0
 10
-4.73251
 20
7.6634
 30
0.0
 10
-4.73251
 20
7.6634
 30
0.0
 10
-4.73251
 20
7.6634
 30
0.0
 10
-4.73251
 20
6.88505
 30
0.0
 10
-4.73251
 20
6.88505
 30
0.0
 10
-4.73251
 20
6.88505
 30
0.0
 10
-4.73251
 20
6.88505
 30
0.0
 10
-4.73251
 20
6.10606
 30
0.0
 10
-4.73251
 20
6.10606
 30
0.0
 10
-4.73251
 20
6.10606
 30
0.0
 10
-4.73251
 20
6.10606
 30
0.0
 10
-5.51148
 20
6.10606
 30
0.0
 10
-5.51148
 20
6.10606
 30
0.0
 10
-5.51148
 20
6.10606
 30
0.0
 10
-5.51148
 20
6.10606
 30
0.0
 10
-5.51148
 20
11.55772
 30
0.0
 10
-5.51148
 20
11.55772
 30
0.0
 10
-5.51148
 20
11.55772
 30
0.0
 10
-5.51148
 20
11.55772
 30
0.0
 10
-1.61716
 20
11.55772
 30
0.0
 10
-1.61716
 20
11.55772
 30
0.0
 10
-1.61716
 20
11.55772
 30
0.0
 10
-1.61716
 20
11.55772
 30
0.0
 10
1.49817
 20
11.55772
 30
0.0
 10
1.49817
 20
11.55772
 30
0.0
 10
1.49817
 20
11.55772
 30
0.0
 10
1.49817
 20
11.55772
 30
0.0
 10
1.49817
 20
10.77937
 30
0.0
 10
1.49817
 20
10.77937
 30
0.0
 10
1.49817
 20
10.77937
 30
0.0
 10
1.49817
 20
10.77937
 30
0.0
 10
1.49817
 20
10.77937
 30
0.0
 10
1.49817
 20
10.77937
 30
0.0
  0
SPLINE
  5
4D
330
1F
100
AcDbEntity
  8
Layer 1
370
     9
100
AcDbSpline
210
0.0
220
0.0
230
1.0
 70
     8
 71
     3
 72
    48
 73
    44
 74
     0
 42
0.0000000001
 43
0.0000000001
 12
1.0
 22
0.0
 32
0.0
 13
1.0
 23
0.0
 33
0.0
 40
0.0
 40
0.0
 40
0.0
 40
0.0
 40
0.0833333333333333
 40
0.0833333333333333
 40
0.0833333333333333
 40
0.0833333333333333
 40
0.1666666666666667
 40
0.1666666666666667
 40
0.1666666666666667
 40
0.1666666666666667
 40
0.25
 40
0.25
 40
0.25
 40
0.25
 40
0.3333333333333333
 40
0.3333333333333333
 40
0.3333333333333333
 40
0.3333333333333333
 40
0.4166666666666667
 40
0.4166666666666667
 40
0.4166666666666667
 40
0.4166666666666667
 40
0.5
 40
0.5
 40
0.5
 40
0.5
 40
0.5833333333333334
 40
0.5833333333333334
 40
0.5833333333333334
 40
0.5833333333333334
 40
0.6666666666666666
 40
0.6666666666666666
 40
0.6666666666666666
 40
0.6666666666666666
 40
0.75
 40
0.75
 40
0.75
 40
0.75
 40
0.8333333333333334
 40
0.8333333333333334
 40
0.8333333333333334
 40
0.8333333333333334
 40
1.0
 40
1.0
 40
1.0
 40
1.0
 10
-3.95351
 20
12.33672
 30
0.0
 10
-3.95351
 20
12.33672
 30
0.0
 10
-7.84783
 20
12.33672
 30
0.0
 10
-7.84783
 20
12.33672
 30
0.0
 10
-7.84783
 20
12.33672
 30
0.0
 10
-7.84783
 20
12.33672
 30
0.0
 10
-7.84783
 20
11.55772
 30
0.0
 10
-7.84783
 20
11.55772
 30
0.0
 10
-7.84783
 20
11.55772
 30
0.0
 10
-7.84783
 20
11.55772
 30
0.0
 10
-7.84783
 20
5.32706
 30
0.0
 10
-7.84783
 20
5.32706
 30
0.0
 10
-7.84783
 20
5.32706
 30
0.0
 10
-7.84783
 20
5.32706
 30
0.0
 10
-7.84783
 20
2.99073
 30
0.0
 10
-7.84783
 20
2.99073
 30
0.0
 10
-7.84783
 20
2.99073
 30
0.0
 10
-7.84783
 20
2.99073
 30
0.0
 10
-7.84783
 20
2.21173
 30
0.0
 10
-7.84783
 20
2.21173
 30
0.0
 10
-7.84783
 20
2.21173
 30
0.0
 10
-7.84783
 20
2.21173
 30
0.0
 10
-1.61716
 20
2.21173
 30
0.0
 10
-1.61716
 20
2.21173
 30
0.0
 10
-1.61716
 20
2.21173
 30
0.0
 10
-1.61716
 20
2.21173
 30
0.0
 10
1.49817
 20
2.21173
 30
0.0
 10
1.49817
 20
2.21173
 30
0.0
 10
1.49817
 20
2.21173
 30
0.0
 10
1.49817
 20
2.21173
 30
0.0
 10
2.27717
 20
2.21173
 30
0.0
 10
2.27717
 20
2.21173
 30
0.0
 10
2.27717
 20
2.21173
 30
0.0
 10
2.27717
 20
2.21173
 30
0.0
 10
2.27717
 20
2.99073
 30
0.0
 10
2.27717
 20
2.99073
 30
0.0
 10
2.27717
 20
2.99073
 30
0.0
 10
2.27717
 20
2.99073
 30
0.0
 10
2.27717
 20
6.10606
 30
0.0
 10
2.27717
 20
6.10606
 30
0.0
 10
2.27717
 20
6.10606
 30
0.0
 10
2.27717
 20
6.10606
 30
0.0
 10
2.27717
 20
12.33672
 30
0.0
 10
2.27717
 20
12.33672
 30
0.0
  0
SPLINE
  5
4E
330
1F
100
AcDbEntity
  8
Layer 1
370
     9
100
AcDbSpline
210
0.0
220
0.0
230
1.0
 70
     8
 71
     3
 72
    60
 73
    56
 74
     0
 42
0.0000000001
 43
0.0000000001
 12
1.0
 22
0.0
 32
0.0
 13
1.0
 23
0.0
 33
0.0
 40
0.0
 40
0.0
 40
0.0
 40
0.0
 40
0.0666666666666667
 40
0.0666666666666667
 40
0.0666666666666667
 40
0.0666666666666667
 40
0.1333333333333333
 40
0.1333333333333333
 40
0.1333333333333333
 40
0.1333333333333333
 40
0.2
 40
0.2
 40
0.2
 40
0.2
 40
0.2666666666666667
 40
0.2666666666666667
 40
0.2666666666666667
 40
0.2666666666666667
 40
0.3333333333333333
 40
0.3333333333333333
 40
0.3333333333333333
 40
0.3333333333333333
 40
0.4
 40
0.4
 40
0.4
 40
0.4
 40
0.4666666666666667
 40
0.4666666666666667
 40
0.4666666666666667
 40
0.4666666666666667
 40
0.5333333333333333
 40
0.5333333333333333
 40
0.5333333333333333
 40
0.5333333333333333
 40
0.6
 40
0.6
 40
0.6
 40
0.6
 40
0.6666666666666666
 40
0.6666666666666666
 40
0.6666666666666666
 40
0.6666666666666666
 40
0.7333333333333333
 40
0.7333333333333333
 40
0.7333333333333333
 40
0.7333333333333333
 40
0.8
 40
0.8
 40
0.8
 40
0.8
 40
0.8666666666666667
 40
0.8666666666666667
 40
0.8666666666666667
 40
0.8666666666666667
 40
1.0
 40
1.0
 40
1.0
 40
1.0
 10
-7.06883
 20
5.32706
 30
0.0
 10
-7.06883
 20
5.32706
 30
0.0
 10
-7.06883
 20
11.55772
 30
0.0
 10
-7.06883
 20
11.55772
 30
0.0
 10
-7.06883
 20
11.55772
 30
0.0
 10
-7.06883
 20
11.55772
 30
0.0
 10
-6.29048
 20
11.55772
 30
0.0
 10
-6.29048
 20
11.55772
 30
0.0
 10
-6.29048
 20
11.55772
 30
0.0
 10
-6.29048
 20
11.55772
 30
0.0
 10
-6.29048
 20
5.32706
 30
0.0
 10
-6.29048
 20
5.32706
 30
0.0
 10
-6.29048
 20
5.32706
 30
0.0
 10
-6.29048
 20
5.32706
 30
0.0
 10
-6.28986
 20
5.32706
 30
0.0
 10
-6.28986
 20
5.32706
 30
0.0
 10
-6.28986
 20
5.32706
 30
0.0
 10
-6.28986
 20
5.32706
 30
0.0
 10
-5.51148
 20
5.32706
 30
0.0
 10
-5.51148
 20
5.32706
 30
0.0
 10
-5.51148
 20
5.32706
 30
0.0
 10
-5.51148
 20
5.32706
 30
0.0
 10
-4.73251
 20
5.32706
 30
0.0
 10
-4.73251
 20
5.32706
 30
0.0
 10
-4.73251
 20
5.32706
 30
0.0
 10
-4.73251
 20
5.32706
 30
0.0
 10
-3.95351
 20
5.32706
 30
0.0
 10
-3.95351
 20
5.32706
 30
0.0
 10
-3.95351
 20
5.32706
 30
0.0
 10
-3.95351
 20
5.32706
 30
0.0
 10
-3.95351
 20
6.88505
 30
0.0
 10
-3.95351
 20
6.88505
 30
0.0
 10
-3.95351
 20
6.88505
 30
0.0
 10
-3.95351
 20
6.88505
 30
0.0
 10
-3.17451
 20
6.88505
 30
0.0
 10
-3.17451
 20
6.88505
 30
0.0
 10
-3.17451
 20
6.88505
 30
0.0
 10
-3.17451
 20
6.88505
 30
0.0
 10
-3.17451
 20
5.32706
 30
0.0
 10
-3.17451
 20
5.32706
 30
0.0
 10
-3.17451
 20
5.32706
 30
0.0
 10
-3.17451
 20
5.32706
 30
0.0
 10
-2.39616
 20
5.32706
 30
0.0
 10
-2.39616
 20
5.32706
 30
0.0
 10
-2.39616
 20
5.32706
 30
0.0
 10
-2.39616
 20
5.32706
 30
0.0
 10
-1.61716
 20
5.32706
 30
0.0
 10
-1.61716
 20
5.32706
 30
0.0
 10
-1.61716
 20
5.32706
 30
0.0
 10
-1.61716
 20
5.32706
 30
0.0
 10
-1.61716
 20
4.54808
 30
0.0
 10
-1.61716
 20
4.54808
 30
0.0
 10
-1.61716
 20
4.54808
 30
0.0
 10
-1.61716
 20
4.54808
 30
0.0
 10
-7.06883
 20
4.54808
 30
0.0
 10
-7.06883
 20
4.54808
 30
0.0
  0
SPLINE
  5
4F
330
1F
100
AcDbEntity
  8
Layer 1
 62
   242
370
     9
100
AcDbSpline
210
0.0
220
0.0
230
1.0
 70
    27
 71
     3
 72
     8
 73
     4
 74
     0
 42
0.0000000001
 43
0.0000000001
 12
1.0
 22
0.0
 32
0.0
 13
1.0
 23
0.0
 33
0.0
 40
0.0
 40
0.0
 40
0.0
 40
0.0
 40
1.0
 40
1.0
 40
1.0
 40
1.0
 10
2.27717
 20
0.95997
 30
0.0
 10
2.27717
 20
0.95997
 30
0.0
 10
2.27717
 20
0.95997
 30
0.0
 10
2.27717
 20
0.95997
 30
0.0
  0
SPLINE
  5
50
330
1F
100
AcDbEntity
  8
Layer 1
 62
   242
370
     9
100
AcDbSpline
210
0.0
220
0.0
230
1.0
 70
    24
 71
     3
 72
     8
 73
     4
 74
     0
 42
0.0000000001
 43
0.0000000001
 12
1.0
 22
0.0
 32
0.0
 13
1.0
 23
0.0
 33
0.0
 40
0.0
 40
0.0
 40
0.0
 40
0.0
 40
1.0
 40
1.0
 40
1.0
 40
1.0
 10
-3.95351
 20
0.95997
 30
0.0
 10
-3.95351
 20
0.95997
 30
0.0
 10
2.27717
 20
0.95997
 30
0.0
 10
2.27717
 20
0.95997
 30
0.0
  0
SPLINE
  5
51
330
1F
100
AcDbEntity
  8
Layer 1
 62
   242
370
     9
100
AcDbSpline
210
0.0
220
0.0
230
1.0
 70
    11
 71
     3
 72
    72
 73
    68
 74
     0
 42
0.0000000001
 43
0.0000000001
 12
1.0
 22
0.0
 32
0.0
 13
1.0
 23
0.0
 33
0.0
 40
0.0
 40
0.0
 40
0.0
 40
0.0
 40
0.0555555555555556
 40
0.0555555555555556
 40
0.0555555555555556
 40
0.0555555555555556
 40
0.1111111111111111
 40
0.1111111111111111
 40
0.1111111111111111
 40
0.1111111111111111
 40
0.1666666666666667
 40
0.1666666666666667
 40
0.1666666666666667
 40
0.1666666666666667
 40
0.2222222222222222
 40
0.2222222222222222
 40
0.2222222222222222
 40
0.2222222222222222
 40
0.2777777777777778
 40
0.2777777777777778
 40
0.2777777777777778
 40
0.2777777777777778
 40
0.3333333333333333
 40
0.3333333333333333
 40
0.3333333333333333
 40
0.3333333333333333
 40
0.3888888888888889
 40
0.3888888888888889
 40
0.3888888888888889
 40
0.3888888888888889
 40
0.4444444444444444
 40
0.4444444444444444
 40
0.4444444444444444
 40
0.4444444444444444
 40
0.5
 40
0.5
 40
0.5
 40
0.5
 40
0.5555555555555556
 40
0.5555555555555556
 40
0.5555555555555556
 40
0.5555555555555556
 40
0.6111111111111112
 40
0.6111111111111112
 40
0.6111111111111112
 40
0.6111111111111112
 40
0.6666666666666666
 40
0.6666666666666666
 40
0.6666666666666666
 40
0.6666666666666666
 40
0.7222222222222222
 40
0.7222222222222222
 40
0.7222222222222222
 40
0.7222222222222222
 40
0.7777777777777778
 40
0.7777777777777778
 40
0.7777777777777778
 40
0.7777777777777778
 40
0.8333333333333334
 40
0.8333333333333334
 40
0.8333333333333334
 40
0.8333333333333334
 40
0.8888888888888888
 40
0.8888888888888888
 40
0.8888888888888888
 40
0.8888888888888888
 40
1.0
 40
1.0
 40
1.0
 40
1.0
 10
-0.05918
 20
-8.38602
 30
0.0
 10
-0.05918
 20
-8.38602
 30
0.0
 10
-3.95351
 20
-8.38602
 30
0.0
 10
-3.95351
 20
-8.38602
 30
0.0
 10
-3.95351
 20
-8.38602
 30
0.0
 10
-3.95351
 20
-8.38602
 30
0.0
 10
-7.06883
 20
-8.38602
 30
0.0
 10
-7.06883
 20
-8.38602
 30
0.0
 10
-7.06883
 20
-8.38602
 30
0.0
 10
-7.06883
 20
-8.38602
 30
0.0
 10
-7.06883
 20
-7.60767
 30
0.0
 10
-7.06883
 20
-7.60767
 30
0.0
 10
-7.06883
 20
-7.60767
 30
0.0
 10
-7.06883
 20
-7.60767
 30
0.0
 10
-0.83816
 20
-7.60767
 30
0.0
 10
-0.83816
 20
-7.60767
 30
0.0
 10
-0.83816
 20
-7.60767
 30
0.0
 10
-0.83816
 20
-7.60767
 30
0.0
 10
-0.83816
 20
-6.82867
 30
0.0
 10
-0.83816
 20
-6.82867
 30
0.0
 10
-0.83816
 20
-6.82867
 30
0.0
 10
-0.83816
 20
-6.82867
 30
0.0
 10
-0.83816
 20
-6.04969
 30
0.0
 10
-0.83816
 20
-6.04969
 30
0.0
 10
-0.83816
 20
-6.04969
 30
0.0
 10
-0.83816
 20
-6.04969
 30
0.0
 10
-0.83816
 20
-5.27069
 30
0.0
 10
-0.83816
 20
-5.27069
 30
0.0
 10
-0.83816
 20
-5.27069
 30
0.0
 10
-0.83816
 20
-5.27069
 30
0.0
 10
-2.39616
 20
-5.27069
 30
0.0
 10
-2.39616
 20
-5.27069
 30
0.0
 10
-2.39616
 20
-5.27069
 30
0.0
 10
-2.39616
 20
-5.27069
 30
0.0
 10
-2.39616
 20
-4.4917
 30
0.0
 10
-2.39616
 20
-4.4917
 30
0.0
 10
-2.39616
 20
-4.4917
 30
0.0
 10
-2.39616
 20
-4.4917
 30
0.0
 10
-2.39553
 20
-4.4917
 30
0.0
 10
-2.39553
 20
-4.4917
 30
0.0
 10
-2.39553
 20
-4.4917
 30
0.0
 10
-2.39553
 20
-4.4917
 30
0.0
 10
-1.61716
 20
-4.4917
 30
0.0
 10
-1.61716
 20
-4.4917
 30
0.0
 10
-1.61716
 20
-4.4917
 30
0.0
 10
-1.61716
 20
-4.4917
 30
0.0
 10
-0.83816
 20
-4.4917
 30
0.0
 10
-0.83816
 20
-4.4917
 30
0.0
 10
-0.83816
 20
-4.4917
 30
0.0
 10
-0.83816
 20
-4.4917
 30
0.0
 10
-0.83816
 20
-3.71273
 30
0.0
 10
-0.83816
 20
-3.71273
 30
0.0
 10
-0.83816
 20
-3.71273
 30
0.0
 10
-0.83816
 20
-3.71273
 30
0.0
 10
-0.83816
 20
-2.93435
 30
0.0
 10
-0.83816
 20
-2.93435
 30
0.0
 10
-0.83816
 20
-2.93435
 30
0.0
 10
-0.83816
 20
-2.93435
 30
0.0
 10
-0.05918
 20
-2.93435
 30
0.0
 10
-0.05918
 20
-2.93435
 30
0.0
 10
-0.05918
 20
-2.93435
 30
0.0
 10
-0.05918
 20
-2.93435
 30
0.0
 10
-0.05918
 20
-8.38602
 30
0.0
 10
-0.05918
 20
-8.38602
 30
0.0
 10
-0.05918
 20
-8.38602
 30
0.0
 10
-0.05918
 20
-8.38602
 30
0.0
 10
-0.05918
 20
-8.38602
 30
0.0
 10
-0.05918
 20
-8.38602
 30
0.0
  0
SPLINE
  5
52
330
1F
100
AcDbEntity
  8
Layer 1
 62
   242
370
     9
100
AcDbSpline
210
0.0
220
0.0
230
1.0
 70
    11
 71
     3
 72
    60
 73
    56
 74
     0
 42
0.0000000001
 43
0.0000000001
 12
1.0
 22
0.0
 32
0.0
 13
1.0
 23
0.0
 33
0.0
 40
0.0
 40
0.0
 40
0.0
 40
0.0
 40
0.0666666666666667
 40
0.0666666666666667
 40
0.0666666666666667
 40
0.0666666666666667
 40
0.1333333333333333
 40
0.1333333333333333
 40
0.1333333333333333
 40
0.1333333333333333
 40
0.2
 40
0.2
 40
0.2
 40
0.2
 40
0.2666666666666667
 40
0.2666666666666667
 40
0.2666666666666667
 40
0.2666666666666667
 40
0.3333333333333333
 40
0.3333333333333333
 40
0.3333333333333333
 40
0.3333333333333333
 40
0.4
 40
0.4
 40
0.4
 40
0.4
 40
0.4666666666666667
 40
0.4666666666666667
 40
0.4666666666666667
 40
0.4666666666666667
 40
0.5333333333333333
 40
0.5333333333333333
 40
0.5333333333333333
 40
0.5333333333333333
 40
0.6
 40
0.6
 40
0.6
 40
0.6
 40
0.6666666666666666
 40
0.6666666666666666
 40
0.6666666666666666
 40
0.6666666666666666
 40
0.7333333333333333
 40
0.7333333333333333
 40
0.7333333333333333
 40
0.7333333333333333
 40
0.8
 40
0.8
 40
0.8
 40
0.8
 40
0.8666666666666667
 40
0.8666666666666667
 40
0.8666666666666667
 40
0.8666666666666667
 40
1.0
 40
1.0
 40
1.0
 40
1.0
 10
1.49817
 20
-2.93435
 30
0.0
 10
1.49817
 20
-2.93435
 30
0.0
 10
1.49817
 20
-8.38602
 30
0.0
 10
1.49817
 20
-8.38602
 30
0.0
 10
1.49817
 20
-8.38602
 30
0.0
 10
1.49817
 20
-8.38602
 30
0.0
 10
0.71982
 20
-8.38602
 30
0.0
 10
0.71982
 20
-8.38602
 30
0.0
 10
0.71982
 20
-8.38602
 30
0.0
 10
0.71982
 20
-8.38602
 30
0.0
 10
0.71982
 20
-2.15535
 30
0.0
 10
0.71982
 20
-2.15535
 30
0.0
 10
0.71982
 20
-2.15535
 30
0.0
 10
0.71982
 20
-2.15535
 30
0.0
 10
-1.61716
 20
-2.15535
 30
0.0
 10
-1.61716
 20
-2.15535
 30
0.0
 10
-1.61716
 20
-2.15535
 30
0.0
 10
-1.61716
 20
-2.15535
 30
0.0
 10
-1.61716
 20
-3.71273
 30
0.0
 10
-1.61716
 20
-3.71273
 30
0.0
 10
-1.61716
 20
-3.71273
 30
0.0
 10
-1.61716
 20
-3.71273
 30
0.0
 10
-2.39553
 20
-3.71273
 30
0.0
 10
-2.39553
 20
-3.71273
 30
0.0
 10
-2.39553
 20
-3.71273
 30
0.0
 10
-2.39553
 20
-3.71273
 30
0.0
 10
-2.39553
 20
-2.15535
 30
0.0
 10
-2.39553
 20
-2.15535
 30
0.0
 10
-2.39553
 20
-2.15535
 30
0.0
 10
-2.39553
 20
-2.15535
 30
0.0
 10
-2.39616
 20
-2.15535
 30
0.0
 10
-2.39616
 20
-2.15535
 30
0.0
 10
-2.39616
 20
-2.15535
 30
0.0
 10
-2.39616
 20
-2.15535
 30
0.0
 10
-3.17451
 20
-2.15535
 30
0.0
 10
-3.17451
 20
-2.15535
 30
0.0
 10
-3.17451
 20
-2.15535
 30
0.0
 10
-3.17451
 20
-2.15535
 30
0.0
 10
-3.95351
 20
-2.15535
 30
0.0
 10
-3.95351
 20
-2.15535
 30
0.0
 10
-3.95351
 20
-2.15535
 30
0.0
 10
-3.95351
 20
-2.15535
 30
0.0
 10
-3.95351
 20
-1.37638
 30
0.0
 10
-3.95351
 20
-1.37638
 30
0.0
 10
-3.95351
 20
-1.37638
 30
0.0
 10
-3.95351
 20
-1.37638
 30
0.0
 10
1.49817
 20
-1.37638
 30
0.0
 10
1.49817
 20
-1.37638
 30
0.0
 10
1.49817
 20
-1.37638
 30
0.0
 10
1.49817
 20
-1.37638
 30
0.0
 10
1.49817
 20
-2.93435
 30
0.0
 10
1.49817
 20
-2.93435
 30
0.0
 10
1.49817
 20
-2.93435
 30
0.0
 10
1.49817
 20
-2.93435
 30
0.0
 10
1.49817
 20
-2.93435
 30
0.0
 10
1.49817
 20
-2.93435
 30
0.0
  0
SPLINE
  5
53
330
1F
100
AcDbEntity
  8
Layer 1
 62
   242
370
     9
100
AcDbSpline
210
0.0
220
0.0
230
1.0
 70
    11
 71
     3
 72
    72
 73
    68
 74
     0
 42
0.0000000001
 43
0.0000000001
 12
1.0
 22
0.0
 32
0.0
 13
1.0
 23
0.0
 33
0.0
 40
0.0
 40
0.0
 40
0.0
 40
0.0
 40
0.0555555555555556
 40
0.0555555555555556
 40
0.0555555555555556
 40
0.0555555555555556
 40
0.1111111111111111
 40
0.1111111111111111
 40
0.1111111111111111
 40
0.1111111111111111
 40
0.1666666666666667
 40
0.1666666666666667
 40
0.1666666666666667
 40
0.1666666666666667
 40
0.2222222222222222
 40
0.2222222222222222
 40
0.2222222222222222
 40
0.2222222222222222
 40
0.2777777777777778
 40
0.2777777777777778
 40
0.2777777777777778
 40
0.2777777777777778
 40
0.3333333333333333
 40
0.3333333333333333
 40
0.3333333333333333
 40
0.3333333333333333
 40
0.3888888888888889
 40
0.3888888888888889
 40
0.3888888888888889
 40
0.3888888888888889
 40
0.4444444444444444
 40
0.4444444444444444
 40
0.4444444444444444
 40
0.4444444444444444
 40
0.5
 40
0.5
 40
0.5
 40
0.5
 40
0.5555555555555556
 40
0.5555555555555556
 40
0.5555555555555556
 40
0.5555555555555556
 40
0.6111111111111112
 40
0.6111111111111112
 40
0.6111111111111112
 40
0.6111111111111112
 40
0.6666666666666666
 40
0.6666666666666666
 40
0.6666666666666666
 40
0.6666666666666666
 40
0.7222222222222222
 40
0.7222222222222222
 40
0.7222222222222222
 40
0.7222222222222222
 40
0.7777777777777778
 40
0.7777777777777778
 40
0.7777777777777778
 40
0.7777777777777778
 40
0.8333333333333334
 40
0.8333333333333334
 40
0.8333333333333334
 40
0.8333333333333334
 40
0.8888888888888888
 40
0.8888888888888888
 40
0.8888888888888888
 40
0.8888888888888888
 40
1.0
 40
1.0
 40
1.0
 40
1.0
 10
1.49817
 20
-0.59738
 30
0.0
 10
1.49817
 20
-0.59738
 30
0.0
 10
-4.73251
 20
-0.59738
 30
0.0
 10
-4.73251
 20
-0.59738
 30
0.0
 10
-4.73251
 20
-0.59738
 30
0.0
 10
-4.73251
 20
-0.59738
 30
0.0
 10
-4.73251
 20
-0.598
 30
0.0
 10
-4.73251
 20
-0.598
 30
0.0
 10
-4.73251
 20
-0.598
 30
0.0
 10
-4.73251
 20
-0.598
 30
0.0
 10
-4.73251
 20
-1.37638
 30
0.0
 10
-4.73251
 20
-1.37638
 30
0.0
 10
-4.73251
 20
-1.37638
 30
0.0
 10
-4.73251
 20
-1.37638
 30
0.0
 10
-4.73251
 20
-2.15535
 30
0.0
 10
-4.73251
 20
-2.15535
 30
0.0
 10
-4.73251
 20
-2.15535
 30
0.0
 10
-4.73251
 20
-2.15535
 30
0.0
 10
-4.73251
 20
-2.93435
 30
0.0
 10
-4.73251
 20
-2.93435
 30
0.0
 10
-4.73251
 20
-2.93435
 30
0.0
 10
-4.73251
 20
-2.93435
 30
0.0
 10
-3.17451
 20
-2.93435
 30
0.0
 10
-3.17451
 20
-2.93435
 30
0.0
 10
-3.17451
 20
-2.93435
 30
0.0
 10
-3.17451
 20
-2.93435
 30
0.0
 10
-3.17451
 20
-3.71273
 30
0.0
 10
-3.17451
 20
-3.71273
 30
0.0
 10
-3.17451
 20
-3.71273
 30
0.0
 10
-3.17451
 20
-3.71273
 30
0.0
 10
-4.73251
 20
-3.71273
 30
0.0
 10
-4.73251
 20
-3.71273
 30
0.0
 10
-4.73251
 20
-3.71273
 30
0.0
 10
-4.73251
 20
-3.71273
 30
0.0
 10
-4.73251
 20
-3.71335
 30
0.0
 10
-4.73251
 20
-3.71335
 30
0.0
 10
-4.73251
 20
-3.71335
 30
0.0
 10
-4.73251
 20
-3.71335
 30
0.0
 10
-4.73251
 20
-4.4917
 30
0.0
 10
-4.73251
 20
-4.4917
 30
0.0
 10
-4.73251
 20
-4.4917
 30
0.0
 10
-4.73251
 20
-4.4917
 30
0.0
 10
-4.73251
 20
-5.27069
 30
0.0
 10
-4.73251
 20
-5.27069
 30
0.0
 10
-4.73251
 20
-5.27069
 30
0.0
 10
-4.73251
 20
-5.27069
 30
0.0
 10
-5.51148
 20
-5.27069
 30
0.0
 10
-5.51148
 20
-5.27069
 30
0.0
 10
-5.51148
 20
-5.27069
 30
0.0
 10
-5.51148
 20
-5.27069
 30
0.0
 10
-5.51148
 20
0.18097
 30
0.0
 10
-5.51148
 20
0.18097
 30
0.0
 10
-5.51148
 20
0.18097
 30
0.0
 10
-5.51148
 20
0.18097
 30
0.0
 10
-1.61716
 20
0.18097
 30
0.0
 10
-1.61716
 20
0.18097
 30
0.0
 10
-1.61716
 20
0.18097
 30
0.0
 10
-1.61716
 20
0.18097
 30
0.0
 10
1.49817
 20
0.18097
 30
0.0
 10
1.49817
 20
0.18097
 30
0.0
 10
1.49817
 20
0.18097
 30
0.0
 10
1.49817
 20
0.18097
 30
0.0
 10
1.49817
 20
-0.59738
 30
0.0
 10
1.49817
 20
-0.59738
 30
0.0
 10
1.49817
 20
-0.59738
 30
0.0
 10
1.49817
 20
-0.59738
 30
0.0
 10
1.49817
 20
-0.59738
 30
0.0
 10
1.49817
 20
-0.59738
 30
0.0
  0
SPLINE
  5
54
330
1F
100
AcDbEntity
  8
Layer 1
 62
   242
370
     9
100
AcDbSpline
210
0.0
220
0.0
230
1.0
 70
     8
 71
     3
 72
    48
 73
    44
 74
     0
 42
0.0000000001
 43
0.0000000001
 12
1.0
 22
0.0
 32
0.0
 13
1.0
 23
0.0
 33
0.0
 40
0.0
 40
0.0
 40
0.0
 40
0.0
 40
0.0833333333333333
 40
0.0833333333333333
 40
0.0833333333333333
 40
0.0833333333333333
 40
0.1666666666666667
 40
0.1666666666666667
 40
0.1666666666666667
 40
0.1666666666666667
 40
0.25
 40
0.25
 40
0.25
 40
0.25
 40
0.3333333333333333
 40
0.3333333333333333
 40
0.3333333333333333
 40
0.3333333333333333
 40
0.4166666666666667
 40
0.4166666666666667
 40
0.4166666666666667
 40
0.4166666666666667
 40
0.5
 40
0.5
 40
0.5
 40
0.5
 40
0.5833333333333334
 40
0.5833333333333334
 40
0.5833333333333334
 40
0.5833333333333334
 40
0.6666666666666666
 40
0.6666666666666666
 40
0.6666666666666666
 40
0.6666666666666666
 40
0.75
 40
0.75
 40
0.75
 40
0.75
 40
0.8333333333333334
 40
0.8333333333333334
 40
0.8333333333333334
 40
0.8333333333333334
 40
1.0
 40
1.0
 40
1.0
 40
1.0
 10
-3.95351
 20
0.95997
 30
0.0
 10
-3.95351
 20
0.95997
 30
0.0
 10
-7.84783
 20
0.95997
 30
0.0
 10
-7.84783
 20
0.95997
 30
0.0
 10
-7.84783
 20
0.95997
 30
0.0
 10
-7.84783
 20
0.95997
 30
0.0
 10
-7.84783
 20
0.18097
 30
0.0
 10
-7.84783
 20
0.18097
 30
0.0
 10
-7.84783
 20
0.18097
 30
0.0
 10
-7.84783
 20
0.18097
 30
0.0
 10
-7.84783
 20
-6.04969
 30
0.0
 10
-7.84783
 20
-6.04969
 30
0.0
 10
-7.84783
 20
-6.04969
 30
0.0
 10
-7.84783
 20
-6.04969
 30
0.0
 10
-7.84783
 20
-8.38602
 30
0.0
 10
-7.84783
 20
-8.38602
 30
0.0
 10
-7.84783
 20
-8.38602
 30
0.0
 10
-7.84783
 20
-8.38602
 30
0.0
 10
-7.84783
 20
-9.16502
 30
0.0
 10
-7.84783
 20
-9.16502
 30
0.0
 10
-7.84783
 20
-9.16502
 30
0.0
 10
-7.84783
 20
-9.16502
 30
0.0
 10
-1.61716
 20
-9.16502
 30
0.0
 10
-1.61716
 20
-9.16502
 30
0.0
 10
-1.61716
 20
-9.16502
 30
0.0
 10
-1.61716
 20
-9.16502
 30
0.0
 10
1.49817
 20
-9.16502
 30
0.0
 10
1.49817
 20
-9.16502
 30
0.0
 10
1.49817
 20
-9.16502
 30
0.0
 10
1.49817
 20
-9.16502
 30
0.0
 10
2.27717
 20
-9.16502
 30
0.0
 10
2.27717
 20
-9.16502
 30
0.0
 10
2.27717
 20
-9.16502
 30
0.0
 10
2.27717
 20
-9.16502
 30
0.0
 10
2.27717
 20
-8.38602
 30
0.0
 10
2.27717
 20
-8.38602
 30
0.0
 10
2.27717
 20
-8.38602
 30
0.0
 10
2.27717
 20
-8.38602
 30
0.0
 10
2.27717
 20
-5.27069
 30
0.0
 10
2.27717
 20
-5.27069
 30
0.0
 10
2.27717
 20
-5.27069
 30
0.0
 10
2.27717
 20
-5.27069
 30
0.0
 10
2.27717
 20
0.95997
 30
0.0
 10
2.27717
 20
0.95997
 30
0.0
  0
SPLINE
  5
55
330
1F
100
AcDbEntity
  8
Layer 1
 62
   242
370
     9
100
AcDbSpline
210
0.0
220
0.0
230
1.0
 70
     8
 71
     3
 72
    60
 73
    56
 74
     0
 42
0.0000000001
 43
0.0000000001
 12
1.0
 22
0.0
 32
0.0
 13
1.0
 23
0.0
 33
0.0
 40
0.0
 40
0.0
 40
0.0
 40
0.0
 40
0.0666666666666667
 40
0.0666666666666667
 40
0.0666666666666667
 40
0.0666666666666667
 40
0.1333333333333333
 40
0.1333333333333333
 40
0.1333333333333333
 40
0.1333333333333333
 40
0.2
 40
0.2
 40
0.2
 40
0.2
 40
0.2666666666666667
 40
0.2666666666666667
 40
0.2666666666666667
 40
0.2666666666666667
 40
0.3333333333333333
 40
0.3333333333333333
 40
0.3333333333333333
 40
0.3333333333333333
 40
0.4
 40
0.4
 40
0.4
 40
0.4
 40
0.4666666666666667
 40
0.4666666666666667
 40
0.4666666666666667
 40
0.4666666666666667
 40
0.5333333333333333
 40
0.5333333333333333
 40
0.5333333333333333
 40
0.5333333333333333
 40
0.6
 40
0.6
 40
0.6
 40
0.6
 40
0.6666666666666666
 40
0.6666666666666666
 40
0.6666666666666666
 40
0.6666666666666666
 40
0.7333333333333333
 40
0.7333333333333333
 40
0.7333333333333333
 40
0.7333333333333333
 40
0.8
 40
0.8
 40
0.8
 40
0.8
 40
0.8666666666666667
 40
0.8666666666666667
 40
0.8666666666666667
 40
0.8666666666666667
 40
1.0
 40
1.0
 40
1.0
 40
1.0
 10
-7.06883
 20
-6.04969
 30
0.0
 10
-7.06883
 20
-6.04969
 30
0.0
 10
-7.06883
 20
0.18097
 30
0.0
 10
-7.06883
 20
0.18097
 30
0.0
 10
-7.06883
 20
0.18097
 30
0.0
 10
-7.06883
 20
0.18097
 30
0.0
 10
-6.29048
 20
0.18097
 30
0.0
 10
-6.29048
 20
0.18097
 30
0.0
 10
-6.29048
 20
0.18097
 30
0.0
 10
-6.29048
 20
0.18097
 30
0.0
 10
-6.29048
 20
-6.04969
 30
0.0
 10
-6.29048
 20
-6.04969
 30
0.0
 10
-6.29048
 20
-6.04969
 30
0.0
 10
-6.29048
 20
-6.04969
 30
0.0
 10
-6.28986
 20
-6.04969
 30
0.0
 10
-6.28986
 20
-6.04969
 30
0.0
 10
-6.28986
 20
-6.04969
 30
0.0
 10
-6.28986
 20
-6.04969
 30
0.0
 10
-5.51148
 20
-6.04969
 30
0.0
 10
-5.51148
 20
-6.04969
 30
0.0
 10
-5.51148
 20
-6.04969
 30
0.0
 10
-5.51148
 20
-6.04969
 30
0.0
 10
-4.73251
 20
-6.04969
 30
0.0
 10
-4.73251
 20
-6.04969
 30
0.0
 10
-4.73251
 20
-6.04969
 30
0.0
 10
-4.73251
 20
-6.04969
 30
0.0
 10
-3.95351
 20
-6.04969
 30
0.0
 10
-3.95351
 20
-6.04969
 30
0.0
 10
-3.95351
 20
-6.04969
 30
0.0
 10
-3.95351
 20
-6.04969
 30
0.0
 10
-3.95351
 20
-4.4917
 30
0.0
 10
-3.95351
 20
-4.4917
 30
0.0
 10
-3.95351
 20
-4.4917
 30
0.0
 10
-3.95351
 20
-4.4917
 30
0.0
 10
-3.17451
 20
-4.4917
 30
0.0
 10
-3.17451
 20
-4.4917
 30
0.0
 10
-3.17451
 20
-4.4917
 30
0.0
 10
-3.17451
 20
-4.4917
 30
0.0
 10
-3.17451
 20
-6.04969
 30
0.0
 10
-3.17451
 20
-6.04969
 30
0.0
 10
-3.17451
 20
-6.04969
 30
0.0
 10
-3.17451
 20
-6.04969
 30
0.0
 10
-2.39616
 20
-6.04969
 30
0.0
 10
-2.39616
 20
-6.04969
 30
0.0
 10
-2.39616
 20
-6.04969
 30
0.0
 10
-2.39616
 20
-6.04969
 30
0.0
 10
-1.61716
 20
-6.04969
 30
0.0
 10
-1.61716
 20
-6.04969
 30
0.0
 10
-1.61716
 20
-6.04969
 30
0.0
 10
-1.61716
 20
-6.04969
 30
0.0
 10
-1.61716
 20
-6.82867
 30
0.0
 10
-1.61716
 20
-6.82867
 30
0.0
 10
-1.61716
 20
-6.82867
 30
0.0
 10
-1.61716
 20
-6.82867
 30
0.0
 10
-7.06883
 20
-6.82867
 30
0.0
 10
-7.06883
 20
-6.82867
 30
0.0
  0
ENDSEC
  0
SECTION
  2
OBJECTS
  0
DICTIONARY
  5
C
330
0
100
AcDbDictionary
281
     1
  3
ACAD_GROUP
350
D
  3
ACAD_LAYOUT
350
1A
  3
ACAD_MATERIAL
350
3B
  3
ACAD_MLEADERSTYLE
350
58
  3
ACAD_MLINESTYLE
350
17
  3
ACAD_PLOTSETTINGS
350
19
  3
ACAD_PLOTSTYLENAME
350
E
  3
ACAD_VISUALSTYLE
350
2A
  3
AcDbVariableDictionary
350
56
  0
DICTIONARY
  5
D
102
{ACAD_REACTORS
330
C
102
}
330
C
100
AcDbDictionary
281
     1
  0
DICTIONARY
  5
1A
102
{ACAD_REACTORS
330
C
102
}
330
C
100
AcDbDictionary
281
     1
  3
Layout1
350
1E
  3
Layout2
350
26
  3
Model
350
22
  0
DICTIONARY
  5
3B
102
{ACAD_REACTORS
330
C
102
}
330
C
100
AcDbDictionary
281
     1
  3
ByBlock
350
3D
  3
ByLayer
350
3C
  3
Global
350
3E
  0
DICTIONARY
  5
58
102
{ACAD_REACTORS
330
C
102
}
330
C
100
AcDbDictionary
281
     1
  0
DICTIONARY
  5
17
102
{ACAD_REACTORS
330
C
102
}
330
C
100
AcDbDictionary
281
     1
  3
Standard
350
18
  0
DICTIONARY
  5
19
102
{ACAD_REACTORS
330
C
102
}
330
C
100
AcDbDictionary
281
     1
  0
ACDBDICTIONARYWDFLT
  5
E
102
{ACAD_REACTORS
330
C
102
}
330
C
100
AcDbDictionary
281
     1
  3
Normal
350
F
100
AcDbDictionaryWithDefault
340
F
  0
DICTIONARY
  5
2A
102
{ACAD_REACTORS
330
C
102
}
330
C
100
AcDbDictionary
281
     1
  3
2dWireframe
350
2F
  3
3D Hidden
350
31
  3
3dWireframe
350
30
  3
Basic
350
32
  3
Brighten
350
36
  3
ColorChange
350
3A
  3
Conceptual
350
34
  3
Dim
350
35
  3
Facepattern
350
39
  3
Flat
350
2B
  3
FlatWithEdges
350
2C
  3
Gouraud
350
2D
  3
GouraudWithEdges
350
2E
  3
Linepattern
350
38
  3
Realistic
350
33
  3
Thicken
350
37
  0
DICTIONARY
  5
56
102
{ACAD_REACTORS
330
C
102
}
330
C
100
AcDbDictionary
281
     1
  3
DIMASSOC
350
59
  3
HIDETEXT
350
5A
  0
LAYOUT
  5
1E
102
{ACAD_REACTORS
330
1A
102
}
330
1A
100
AcDbPlotSettings
  1

  2
none_device
  4

  6

 40
0.0
 41
0.0
 42
0.0
 43
0.0
 44
0.0
 45
0.0
 46
0.0
 47
0.0
 48
0.0
 49
0.0
140
0.0
141
0.0
142
1.0
143
1.0
 70
   688
 72
     0
 73
     0
 74
     5
  7

 75
    16
147
1.0
148
0.0
149
0.0
100
AcDbLayout
  1
Layout1
 70
     1
 71
     1
 10
0.0
 20
0.0
 11
12.0
 21
9.0
 12
0.0
 22
0.0
 32
0.0
 14
1.000000000000000E+20
 24
1.000000000000000E+20
 34
1.000000000000000E+20
 15
-1.000000000000000E+20
 25
-1.000000000000000E+20
 35
-1.000000000000000E+20
146
0.0
 13
0.0
 23
0.0
 33
0.0
 16
1.0
 26
0.0
 36
0.0
 17
0.0
 27
1.0
 37
0.0
 76
     0
330
1B
  0
LAYOUT
  5
26
102
{ACAD_REACTORS
330
1A
102
}
330
1A
100
AcDbPlotSettings
  1

  2
none_device
  4

  6

 40
0.0
 41
0.0
 42
0.0
 43
0.0
 44
0.0
 45
0.0
 46
0.0
 47
0.0
 48
0.0
 49
0.0
140
0.0
141
0.0
142
1.0
143
1.0
 70
   688
 72
     0
 73
     0
 74
     5
  7

 75
    16
147
1.0
148
0.0
149
0.0
100
AcDbLayout
  1
Layout2
 70
     1
 71
     2
 10
0.0
 20
0.0
 11
0.0
 21
0.0
 12
0.0
 22
0.0
 32
0.0
 14
0.0
 24
0.0
 34
0.0
 15
0.0
 25
0.0
 35
0.0
146
0.0
 13
0.0
 23
0.0
 33
0.0
 16
1.0
 26
0.0
 36
0.0
 17
0.0
 27
1.0
 37
0.0
 76
     0
330
23
  0
LAYOUT
  5
22
102
{ACAD_REACTORS
330
1A
102
}
330
1A
100
AcDbPlotSettings
  1

  2
none_device
  4

  6

 40
0.0
 41
0.0
 42
0.0
 43
0.0
 44
0.0
 45
0.0
 46
0.0
 47
0.0
 48
0.0
 49
0.0
140
0.0
141
0.0
142
1.0
143
1.0
 70
  1712
 72
     0
 73
     0
 74
     0
  7

 75
     0
147
1.0
148
0.0
149
0.0
100
AcDbLayout
  1
Model
 70
     1
 71
     0
 10
0.0
 20
0.0
 11
12.0
 21
9.0
 12
0.0
 22
0.0
 32
0.0
 14
-7.85164
 24
-9.16883
 34
0.0
 15
2.28098
 25
12.34053
 35
0.0
146
0.0
 13
0.0
 23
0.0
 33
0.0
 16
1.0
 26
0.0
 36
0.0
 17
0.0
 27
1.0
 37
0.0
 76
     0
330
1F
331
29
  0
MATERIAL
  5
3D
102
{ACAD_REACTORS
330
3B
102
}
102
{ACAD_XDICTIONARY
360
7D
102
}
330
3B
100
AcDbMaterial
  1
ByBlock
  0
MATERIAL
  5
3C
102
{ACAD_REACTORS
330
3B
102
}
102
{ACAD_XDICTIONARY
360
7B
102
}
330
3B
100
AcDbMaterial
  1
ByLayer
  0
MATERIAL
  5
3E
102
{ACAD_REACTORS
330
3B
102
}
102
{ACAD_XDICTIONARY
360
7F
102
}
330
3B
100
AcDbMaterial
  1
Global
  0
MLINESTYLE
  5
18
102
{ACAD_REACTORS
330
17
102
}
330
17
100
AcDbMlineStyle
  2
Standard
 70
     0
  3

 62
   256
 51
90.0
 52
90.0
 71
     2
 49
0.5
 62
   256
  6
BYLAYER
 49
-0.5
 62
   256
  6
BYLAYER
  0
ACDBPLACEHOLDER
  5
F
102
{ACAD_REACTORS
330
E
102
}
330
E
  0
VISUALSTYLE
  5
2F
102
{ACAD_REACTORS
330
2A
102
}
102
{ACAD_XDICTIONARY
360
63
102
}
330
2A
100
AcDbVisualStyle
  2
2dWireframe
 70
     4
 71
     0
 72
     2
 73
     0
 90
        0
 40
-0.6
 41
-30.0
 62
     5
 63
     7
 74
     1
 91
        4
 64
     7
 65
   257
 75
     1
175
     1
 42
1.0
 92
        0
 66
   257
 43
1.0
 76
     1
 77
     6
 78
     2
 67
     7
 79
     5
170
     0
171
     0
290
     0
174
     0
 93
        1
 44
0.0
173
     0
291
     0
 45
0.0
1001
ACAD
1000
AcDbSavedByObjectVersion
1070
     0
  0
VISUALSTYLE
  5
31
102
{ACAD_REACTORS
330
2A
102
}
102
{ACAD_XDICTIONARY
360
67
102
}
330
2A
100
AcDbVisualStyle
  2
3D Hidden
 70
     6
 71
     1
 72
     2
 73
     2
 90
        0
 40
-0.6
 41
-30.0
 62
     5
 63
     7
 74
     2
 91
        2
 64
     7
 65
   257
 75
     2
175
     1
 42
40.0
 92
        0
 66
   257
 43
1.0
 76
     1
 77
     6
 78
     2
 67
     7
 79
     3
170
     0
171
     0
290
     0
174
     0
 93
        1
 44
0.0
173
     0
291
     0
 45
0.0
1001
ACAD
1000
AcDbSavedByObjectVersion
1070
     0
  0
VISUALSTYLE
  5
30
102
{ACAD_REACTORS
330
2A
102
}
102
{ACAD_XDICTIONARY
360
65
102
}
330
2A
100
AcDbVisualStyle
  2
3dWireframe
 70
     5
 71
     0
 72
     2
 73
     0
 90
        0
 40
-0.6
 41
-30.0
 62
     5
 63
     7
 74
     1
 91
        4
 64
     7
 65
   257
 75
     1
175
     1
 42
1.0
 92
        0
 66
   257
 43
1.0
 76
     1
 77
     6
 78
     2
 67
     7
 79
     5
170
     0
171
     0
290
     0
174
     0
 93
        1
 44
0.0
173
     0
291
     0
 45
0.0
1001
ACAD
1000
AcDbSavedByObjectVersion
1070
     0
  0
VISUALSTYLE
  5
32
102
{ACAD_REACTORS
330
2A
102
}
102
{ACAD_XDICTIONARY
360
69
102
}
330
2A
100
AcDbVisualStyle
  2
Basic
 70
     7
 71
     1
 72
     0
 73
     1
 90
        0
 40
-0.6
 41
-30.0
 62
     5
 63
     7
 74
     0
 91
        4
 64
     7
 65
   257
 75
     1
175
     1
 42
1.0
 92
        8
 66
     7
 43
1.0
 76
     1
 77
     6
 78
     2
 67
     7
 79
     5
170
     0
171
     0
290
     0
174
     0
 93
        1
 44
0.0
173
     0
291
     1
 45
0.0
1001
ACAD
1000
AcDbSavedByObjectVersion
1070
     0
  0
VISUALSTYLE
  5
36
102
{ACAD_REACTORS
330
2A
102
}
102
{ACAD_XDICTIONARY
360
71
102
}
330
2A
100
AcDbVisualStyle
  2
Brighten
 70
    12
 71
     2
 72
     2
 73
     0
 90
        0
 40
-0.6
 41
-30.0
 62
     5
 63
     7
 74
     1
 91
        4
 64
     7
 65
   257
 75
     1
175
     1
 42
1.0
 92
        8
 66
     7
 43
1.0
 76
     1
 77
     6
 78
     2
 67
     7
 79
     5
170
     0
171
     0
290
     0
174
     0
 93
        1
 44
50.0
173
     0
291
     1
 45
0.0
1001
ACAD
1000
AcDbSavedByObjectVersion
1070
     0
  0
VISUALSTYLE
  5
3A
102
{ACAD_REACTORS
330
2A
102
}
102
{ACAD_XDICTIONARY
360
79
102
}
330
2A
100
AcDbVisualStyle
  2
ColorChange
 70
    16
 71
     2
 72
     2
 73
     3
 90
        0
 40
-0.6
 41
-30.0
 62
     5
 63
     8
 74
     1
 91
        4
 64
     7
 65
   257
 75
     1
175
     1
 42
1.0
 92
        8
 66
     8
 43
1.0
 76
     1
 77
     6
 78
     2
 67
     7
 79
     5
170
     0
171
     0
290
     0
174
     0
 93
        1
 44
0.0
173
     0
291
     1
 45
0.0
1001
ACAD
1000
AcDbSavedByObjectVersion
1070
     0
  0
VISUALSTYLE
  5
34
102
{ACAD_REACTORS
330
2A
102
}
102
{ACAD_XDICTIONARY
360
6D
102
}
330
2A
100
AcDbVisualStyle
  2
Conceptual
 70
     9
 71
     3
 72
     2
 73
     0
 90
        0
 40
-0.6
 41
-30.0
 62
     5
 63
     7
 74
     2
 91
        2
 64
     7
 65
   257
 75
     1
175
     1
 42
40.0
 92
        8
 66
     7
 43
1.0
 76
     1
 77
     6
 78
     2
 67
     7
 79
     3
170
     0
171
     0
290
     0
174
     0
 93
        1
 44
0.0
173
     0
291
     0
 45
0.0
1001
ACAD
1000
AcDbSavedByObjectVersion
1070
     0
  0
VISUALSTYLE
  5
35
102
{ACAD_REACTORS
330
2A
102
}
102
{ACAD_XDICTIONARY
360
6F
102
}
330
2A
100
AcDbVisualStyle
  2
Dim
 70
    11
 71
     2
 72
     2
 73
     0
 90
        0
 40
-0.6
 41
-30.0
 62
     5
 63
     7
 74
     1
 91
        4
 64
     7
 65
   257
 75
     1
175
     1
 42
1.0
 92
        8
 66
     7
 43
1.0
 76
     1
 77
     6
 78
     2
 67
     7
 79
     5
170
     0
171
     0
290
     0
174
     0
 93
        1
 44
-50.0
173
     0
291
     1
 45
0.0
1001
ACAD
1000
AcDbSavedByObjectVersion
1070
     0
  0
VISUALSTYLE
  5
39
102
{ACAD_REACTORS
330
2A
102
}
102
{ACAD_XDICTIONARY
360
77
102
}
330
2A
100
AcDbVisualStyle
  2
Facepattern
 70
    15
 71
     2
 72
     2
 73
     0
 90
        0
 40
-0.6
 41
-30.0
 62
     5
 63
     7
 74
     1
 91
        4
 64
     7
 65
   257
 75
     1
175
     1
 42
1.0
 92
        8
 66
     7
 43
1.0
 76
     1
 77
     6
 78
     2
 67
     7
 79
     5
170
     0
171
     0
290
     0
174
     0
 93
        1
 44
0.0
173
     0
291
     1
 45
0.0
1001
ACAD
1000
AcDbSavedByObjectVersion
1070
     0
  0
VISUALSTYLE
  5
2B
102
{ACAD_REACTORS
330
2A
102
}
102
{ACAD_XDICTIONARY
360
5B
102
}
330
2A
100
AcDbVisualStyle
  2
Flat
 70
     0
 71
     2
 72
     1
 73
     1
 90
        2
 40
-0.6
 41
30.0
 62
     5
 63
     7
 74
     0
 91
        4
 64
     7
 65
   257
 75
     1
175
     1
 42
1.0
 92
        8
 66
     7
 43
1.0
 76
     1
 77
     6
 78
     2
 67
     7
 79
     5
170
     0
171
     0
290
     0
174
     0
 93
       13
 44
0.0
173
     0
291
     1
 45
0.0
1001
ACAD
1000
AcDbSavedByObjectVersion
1070
     0
  0
VISUALSTYLE
  5
2C
102
{ACAD_REACTORS
330
2A
102
}
102
{ACAD_XDICTIONARY
360
5D
102
}
330
2A
100
AcDbVisualStyle
  2
FlatWithEdges
 70
     1
 71
     2
 72
     1
 73
     1
 90
        2
 40
-0.6
 41
30.0
 62
     5
 63
     7
 74
     1
 91
        4
 64
     7
 65
   257
 75
     1
175
     1
 42
1.0
 92
        0
 66
   257
 43
1.0
 76
     1
 77
     6
 78
     2
 67
     7
 79
     5
170
     0
171
     0
290
     0
174
     0
 93
       13
 44
0.0
173
     0
291
     1
 45
0.0
1001
ACAD
1000
AcDbSavedByObjectVersion
1070
     0
  0
VISUALSTYLE
  5
2D
102
{ACAD_REACTORS
330
2A
102
}
102
{ACAD_XDICTIONARY
360
5F
102
}
330
2A
100
AcDbVisualStyle
  2
Gouraud
 70
     2
 71
     2
 72
     2
 73
     1
 90
        2
 40
-0.6
 41
30.0
 62
     5
 63
     7
 74
     0
 91
        4
 64
     7
 65
   257
 75
     1
175
     1
 42
1.0
 92
        0
 66
     7
 43
1.0
 76
     1
 77
     6
 78
     2
 67
     7
 79
     5
170
     0
171
     0
290
     0
174
     0
 93
       13
 44
0.0
173
     0
291
     1
 45
0.0
1001
ACAD
1000
AcDbSavedByObjectVersion
1070
     0
  0
VISUALSTYLE
  5
2E
102
{ACAD_REACTORS
330
2A
102
}
102
{ACAD_XDICTIONARY
360
61
102
}
330
2A
100
AcDbVisualStyle
  2
GouraudWithEdges
 70
     3
 71
     2
 72
     2
 73
     1
 90
        2
 40
-0.6
 41
30.0
 62
     5
 63
     7
 74
     1
 91
        4
 64
     7
 65
   257
 75
     1
175
     1
 42
1.0
 92
        0
 66
   257
 43
1.0
 76
     1
 77
     6
 78
     2
 67
     7
 79
     5
170
     0
171
     0
290
     0
174
     0
 93
       13
 44
0.0
173
     0
291
     1
 45
0.0
1001
ACAD
1000
AcDbSavedByObjectVersion
1070
     0
  0
VISUALSTYLE
  5
38
102
{ACAD_REACTORS
330
2A
102
}
102
{ACAD_XDICTIONARY
360
75
102
}
330
2A
100
AcDbVisualStyle
  2
Linepattern
 70
    14
 71
     2
 72
     2
 73
     0
 90
        0
 40
-0.6
 41
-30.0
 62
     5
 63
     7
 74
     1
 91
        4
 64
     7
 65
   257
 75
     7
175
     7
 42
1.0
 92
        8
 66
     7
 43
1.0
 76
     1
 77
     6
 78
     2
 67
     7
 79
     5
170
     0
171
     0
290
     0
174
     0
 93
        1
 44
0.0
173
     0
291
     1
 45
0.0
1001
ACAD
1000
AcDbSavedByObjectVersion
1070
     0
  0
VISUALSTYLE
  5
33
102
{ACAD_REACTORS
330
2A
102
}
102
{ACAD_XDICTIONARY
360
6B
102
}
330
2A
100
AcDbVisualStyle
  2
Realistic
 70
     8
 71
     2
 72
     2
 73
     0
 90
        0
 40
-0.6
 41
-30.0
 62
     5
 63
     7
 74
     1
 91
        0
 64
     7
 65
   257
 75
     1
175
     1
 42
1.0
 92
        8
 66
     8
 43
1.0
 76
     1
 77
     6
 78
     2
 67
     7
 79
     5
170
     0
171
     0
290
     0
174
     0
 93
       13
 44
0.0
173
     0
291
     0
 45
0.0
1001
ACAD
1000
AcDbSavedByObjectVersion
1070
     0
  0
VISUALSTYLE
  5
37
102
{ACAD_REACTORS
330
2A
102
}
102
{ACAD_XDICTIONARY
360
73
102
}
330
2A
100
AcDbVisualStyle
  2
Thicken
 70
    13
 71
     2
 72
     2
 73
     0
 90
        0
 40
-0.6
 41
-30.0
 62
     5
 63
     7
 74
     1
 91
        4
 64
     7
 65
   257
 75
     1
175
     1
 42
1.0
 92
       12
 66
     7
 43
1.0
 76
     1
 77
     6
 78
     2
 67
     7
 79
     5
170
     0
171
     0
290
     0
174
     0
 93
        1
 44
0.0
173
     0
291
     1
 45
0.0
1001
ACAD
1000
AcDbSavedByObjectVersion
1070
     0
  0
DICTIONARYVAR
  5
59
102
{ACAD_REACTORS
330
56
102
}
330
56
100
DictionaryVariables
280
     0
  1
2
  0
DICTIONARYVAR
  5
5A
102
{ACAD_REACTORS
330
56
102
}
330
56
100
DictionaryVariables
280
     0
  1
1
  0
DICTIONARY
  5
7D
330
3D
100
AcDbDictionary
280
     1
281
     1
  3
ACAD_XREC_ROUNDTRIP
360
7E
  0
DICTIONARY
  5
7B
330
3C
100
AcDbDictionary
280
     1
281
     1
  3
ACAD_XREC_ROUNDTRIP
360
7C
  0
DICTIONARY
  5
7F
330
3E
100
AcDbDictionary
280
     1
281
     1
  3
ACAD_XREC_ROUNDTRIP
360
80
  0
DICTIONARY
  5
63
330
2F
100
AcDbDictionary
280
     1
281
     1
  3
ACAD_XREC_ROUNDTRIP
360
64
  0
DICTIONARY
  5
67
330
31
100
AcDbDictionary
280
     1
281
     1
  3
ACAD_XREC_ROUNDTRIP
360
68
  0
DICTIONARY
  5
65
330
30
100
AcDbDictionary
280
     1
281
     1
  3
ACAD_XREC_ROUNDTRIP
360
66
  0
DICTIONARY
  5
69
330
32
100
AcDbDictionary
280
     1
281
     1
  3
ACAD_XREC_ROUNDTRIP
360
6A
  0
DICTIONARY
  5
71
330
36
100
AcDbDictionary
280
     1
281
     1
  3
ACAD_XREC_ROUNDTRIP
360
72
  0
DICTIONARY
  5
79
330
3A
100
AcDbDictionary
280
     1
281
     1
  3
ACAD_XREC_ROUNDTRIP
360
7A
  0
DICTIONARY
  5
6D
330
34
100
AcDbDictionary
280
     1
281
     1
  3
ACAD_XREC_ROUNDTRIP
360
6E
  0
DICTIONARY
  5
6F
330
35
100
AcDbDictionary
280
     1
281
     1
  3
ACAD_XREC_ROUNDTRIP
360
70
  0
DICTIONARY
  5
77
330
39
100
AcDbDictionary
280
     1
281
     1
  3
ACAD_XREC_ROUNDTRIP
360
78
  0
DICTIONARY
  5
5B
330
2B
100
AcDbDictionary
280
     1
281
     1
  3
ACAD_XREC_ROUNDTRIP
360
5C
  0
DICTIONARY
  5
5D
330
2C
100
AcDbDictionary
280
     1
281
     1
  3
ACAD_XREC_ROUNDTRIP
360
5E
  0
DICTIONARY
  5
5F
330
2D
100
AcDbDictionary
280
     1
281
     1
  3
ACAD_XREC_ROUNDTRIP
360
60
  0
DICTIONARY
  5
61
330
2E
100
AcDbDictionary
280
     1
281
     1
  3
ACAD_XREC_ROUNDTRIP
360
62
  0
DICTIONARY
  5
75
330
38
100
AcDbDictionary
280
     1
281
     1
  3
ACAD_XREC_ROUNDTRIP
360
76
  0
DICTIONARY
  5
6B
330
33
100
AcDbDictionary
280
     1
281
     1
  3
ACAD_XREC_ROUNDTRIP
360
6C
  0
DICTIONARY
  5
73
330
37
100
AcDbDictionary
280
     1
281
     1
  3
ACAD_XREC_ROUNDTRIP
360
74
  0
XRECORD
  5
7E
102
{ACAD_REACTORS
330
7D
102
}
330
7D
100
AcDbXrecord
280
     1
102
MATERIAL
148
0.0
149
0.0
149
0.0
 93
        0
 94
      127
282
     0
 72
     1
 77
     1
171
     1
175
     1
179
     1
273
     0
  0
XRECORD
  5
7C
102
{ACAD_REACTORS
330
7B
102
}
330
7B
100
AcDbXrecord
280
     1
102
MATERIAL
148
0.0
149
0.0
149
0.0
 93
        0
 94
      127
282
     0
 72
     1
 77
     1
171
     1
175
     1
179
     1
273
     0
  0
XRECORD
  5
80
102
{ACAD_REACTORS
330
7F
102
}
330
7F
100
AcDbXrecord
280
     1
102
MATERIAL
148
0.0
149
0.0
149
0.0
 93
        0
 94
      127
282
     0
 72
     1
 77
     1
171
     1
175
     1
179
     1
273
     0
  0
XRECORD
  5
64
102
{ACAD_REACTORS
330
63
102
}
330
63
100
AcDbXrecord
280
     1
102
RTVSPropertyOp0
 70
     1
102
RTVSPropertyOp1
 70
     1
102
RTVSPropertyOp2
 70
     1
102
RTVSPropertyOp3
 70
     1
102
RTVSPropertyOp4
 70
     1
102
RTVSPropertyOp5
 70
     1
102
RTVSPropertyOp6
 70
     1
102
RTVSPropertyOp7
 70
     1
102
RTVSPropertyOp8
 70
     1
102
RTVSPropertyOp9
 70
     1
102
RTVSPropertyOp10
 70
     1
102
RTVSPropertyOp11
 70
     1
102
RTVSPropertyOp12
 70
     1
102
RTVSPropertyOp13
 70
     1
102
RTVSPropertyOp14
 70
     1
102
RTVSPropertyOp15
 70
     1
102
RTVSPropertyOp16
 70
     1
102
RTVSPropertyOp17
 70
     1
102
RTVSPropertyOp18
 70
     1
102
RTVSPropertyOp19
 70
     1
102
RTVSPropertyOp20
 70
     1
102
RTVSPropertyOp21
 70
     1
102
RTVSPropertyOp22
 70
     1
102
RTVSPropertyOp23
 70
     1
102
RTVSPropertyOp24
 70
     1
102
RTVSPropertyOp25
 70
     1
102
RTVSPropertyOp26
 70
     1
102
RTVSPropertyOp27
 70
     1
102
RTVSPropertyOp28
 70
     1
102
RTVSPropertyOp29
 70
     1
102
RTVSPropertyOp30
 70
     1
102
RTVSPropertyOp31
 70
     1
102
RTVSPropertyOp32
 70
     1
  0
XRECORD
  5
68
102
{ACAD_REACTORS
330
67
102
}
330
67
100
AcDbXrecord
280
     1
102
RTVSPropertyOp0
 70
     1
102
RTVSPropertyOp1
 70
     1
102
RTVSPropertyOp2
 70
     1
102
RTVSPropertyOp3
 70
     1
102
RTVSPropertyOp4
 70
     1
102
RTVSPropertyOp5
 70
     1
102
RTVSPropertyOp6
 70
     1
102
RTVSPropertyOp7
 70
     1
102
RTVSPropertyOp8
 70
     1
102
RTVSPropertyOp9
 70
     1
102
RTVSPropertyOp10
 70
     1
102
RTVSPropertyOp11
 70
     1
102
RTVSPropertyOp12
 70
     1
102
RTVSPropertyOp13
 70
     1
102
RTVSPropertyOp14
 70
     1
102
RTVSPropertyOp15
 70
     1
102
RTVSPropertyOp16
 70
     1
102
RTVSPropertyOp17
 70
     1
102
RTVSPropertyOp18
 70
     1
102
RTVSPropertyOp19
 70
     1
102
RTVSPropertyOp20
 70
     1
102
RTVSPropertyOp21
 70
     1
102
RTVSPropertyOp22
 70
     1
102
RTVSPropertyOp23
 70
     1
102
RTVSPropertyOp24
 70
     1
102
RTVSPropertyOp25
 70
     1
102
RTVSPropertyOp26
 70
     1
102
RTVSPropertyOp27
 70
     1
102
RTVSPropertyOp28
 70
     1
102
RTVSPropertyOp29
 70
     1
102
RTVSPropertyOp30
 70
     1
102
RTVSPropertyOp31
 70
     1
102
RTVSPropertyOp32
 70
     1
  0
XRECORD
  5
66
102
{ACAD_REACTORS
330
65
102
}
330
65
100
AcDbXrecord
280
     1
102
RTVSPropertyOp0
 70
     1
102
RTVSPropertyOp1
 70
     1
102
RTVSPropertyOp2
 70
     1
102
RTVSPropertyOp3
 70
     1
102
RTVSPropertyOp4
 70
     1
102
RTVSPropertyOp5
 70
     1
102
RTVSPropertyOp6
 70
     1
102
RTVSPropertyOp7
 70
     1
102
RTVSPropertyOp8
 70
     1
102
RTVSPropertyOp9
 70
     1
102
RTVSPropertyOp10
 70
     1
102
RTVSPropertyOp11
 70
     1
102
RTVSPropertyOp12
 70
     1
102
RTVSPropertyOp13
 70
     1
102
RTVSPropertyOp14
 70
     1
102
RTVSPropertyOp15
 70
     1
102
RTVSPropertyOp16
 70
     1
102
RTVSPropertyOp17
 70
     1
102
RTVSPropertyOp18
 70
     1
102
RTVSPropertyOp19
 70
     1
102
RTVSPropertyOp20
 70
     1
102
RTVSPropertyOp21
 70
     1
102
RTVSPropertyOp22
 70
     1
102
RTVSPropertyOp23
 70
     1
102
RTVSPropertyOp24
 70
     1
102
RTVSPropertyOp25
 70
     1
102
RTVSPropertyOp26
 70
     1
102
RTVSPropertyOp27
 70
     1
102
RTVSPropertyOp28
 70
     1
102
RTVSPropertyOp29
 70
     1
102
RTVSPropertyOp30
 70
     1
102
RTVSPropertyOp31
 70
     1
102
RTVSPropertyOp32
 70
     1
  0
XRECORD
  5
6A
102
{ACAD_REACTORS
330
69
102
}
330
69
100
AcDbXrecord
280
     1
102
RTVSPropertyOp0
 70
     1
102
RTVSPropertyOp1
 70
     1
102
RTVSPropertyOp2
 70
     1
102
RTVSPropertyOp3
 70
     1
102
RTVSPropertyOp4
 70
     1
102
RTVSPropertyOp5
 70
     1
102
RTVSPropertyOp6
 70
     1
102
RTVSPropertyOp7
 70
     1
102
RTVSPropertyOp8
 70
     1
102
RTVSPropertyOp9
 70
     1
102
RTVSPropertyOp10
 70
     1
102
RTVSPropertyOp11
 70
     1
102
RTVSPropertyOp12
 70
     1
102
RTVSPropertyOp13
 70
     1
102
RTVSPropertyOp14
 70
     1
102
RTVSPropertyOp15
 70
     1
102
RTVSPropertyOp16
 70
     1
102
RTVSPropertyOp17
 70
     1
102
RTVSPropertyOp18
 70
     1
102
RTVSPropertyOp19
 70
     1
102
RTVSPropertyOp20
 70
     1
102
RTVSPropertyOp21
 70
     1
102
RTVSPropertyOp22
 70
     1
102
RTVSPropertyOp23
 70
     1
102
RTVSPropertyOp24
 70
     1
102
RTVSPropertyOp25
 70
     1
102
RTVSPropertyOp26
 70
     1
102
RTVSPropertyOp27
 70
     1
102
RTVSPropertyOp28
 70
     1
102
RTVSPropertyOp29
 70
     1
102
RTVSPropertyOp30
 70
     1
102
RTVSPropertyOp31
 70
     1
102
RTVSPropertyOp32
 70
     1
  0
XRECORD
  5
72
102
{ACAD_REACTORS
330
71
102
}
330
71
100
AcDbXrecord
280
     1
102
RTVSPropertyOp0
 70
     1
102
RTVSPropertyOp1
 70
     1
102
RTVSPropertyOp2
 70
     1
102
RTVSPropertyOp3
 70
     1
102
RTVSPropertyOp4
 70
     1
102
RTVSPropertyOp5
 70
     1
102
RTVSPropertyOp6
 70
     1
102
RTVSPropertyOp7
 70
     1
102
RTVSPropertyOp8
 70
     1
102
RTVSPropertyOp9
 70
     1
102
RTVSPropertyOp10
 70
     1
102
RTVSPropertyOp11
 70
     1
102
RTVSPropertyOp12
 70
     1
102
RTVSPropertyOp13
 70
     1
102
RTVSPropertyOp14
 70
     1
102
RTVSPropertyOp15
 70
     1
102
RTVSPropertyOp16
 70
     1
102
RTVSPropertyOp17
 70
     1
102
RTVSPropertyOp18
 70
     1
102
RTVSPropertyOp19
 70
     1
102
RTVSPropertyOp20
 70
     1
102
RTVSPropertyOp21
 70
     1
102
RTVSPropertyOp22
 70
     1
102
RTVSPropertyOp23
 70
     1
102
RTVSPropertyOp24
 70
     1
102
RTVSPropertyOp25
 70
     1
102
RTVSPropertyOp26
 70
     1
102
RTVSPropertyOp27
 70
     1
102
RTVSPropertyOp28
 70
     1
102
RTVSPropertyOp29
 70
     1
102
RTVSPropertyOp30
 70
     1
102
RTVSPropertyOp31
 70
     1
102
RTVSPropertyOp32
 70
     1
  0
XRECORD
  5
7A
102
{ACAD_REACTORS
330
79
102
}
330
79
100
AcDbXrecord
280
     1
102
RTVSPropertyOp0
 70
     1
102
RTVSPropertyOp1
 70
     1
102
RTVSPropertyOp2
 70
     1
102
RTVSPropertyOp3
 70
     1
102
RTVSPropertyOp4
 70
     1
102
RTVSPropertyOp5
 70
     1
102
RTVSPropertyOp6
 70
     1
102
RTVSPropertyOp7
 70
     1
102
RTVSPropertyOp8
 70
     1
102
RTVSPropertyOp9
 70
     1
102
RTVSPropertyOp10
 70
     1
102
RTVSPropertyOp11
 70
     1
102
RTVSPropertyOp12
 70
     1
102
RTVSPropertyOp13
 70
     1
102
RTVSPropertyOp14
 70
     1
102
RTVSPropertyOp15
 70
     1
102
RTVSPropertyOp16
 70
     1
102
RTVSPropertyOp17
 70
     1
102
RTVSPropertyOp18
 70
     1
102
RTVSPropertyOp19
 70
     1
102
RTVSPropertyOp20
 70
     1
102
RTVSPropertyOp21
 70
     1
102
RTVSPropertyOp22
 70
     1
102
RTVSPropertyOp23
 70
     1
102
RTVSPropertyOp24
 70
     1
102
RTVSPropertyOp25
 70
     1
102
RTVSPropertyOp26
 70
     1
102
RTVSPropertyOp27
 70
     1
102
RTVSPropertyOp28
 70
     1
102
RTVSPropertyOp29
 70
     1
102
RTVSPropertyOp30
 70
     1
102
RTVSPropertyOp31
 70
     1
102
RTVSPropertyOp32
 70
     1
  0
XRECORD
  5
6E
102
{ACAD_REACTORS
330
6D
102
}
330
6D
100
AcDbXrecord
280
     1
102
RTVSPropertyOp0
 70
     1
102
RTVSPropertyOp1
 70
     1
102
RTVSPropertyOp2
 70
     1
102
RTVSPropertyOp3
 70
     1
102
RTVSPropertyOp4
 70
     1
102
RTVSPropertyOp5
 70
     1
102
RTVSPropertyOp6
 70
     1
102
RTVSPropertyOp7
 70
     1
102
RTVSPropertyOp8
 70
     1
102
RTVSPropertyOp9
 70
     1
102
RTVSPropertyOp10
 70
     1
102
RTVSPropertyOp11
 70
     1
102
RTVSPropertyOp12
 70
     1
102
RTVSPropertyOp13
 70
     1
102
RTVSPropertyOp14
 70
     1
102
RTVSPropertyOp15
 70
     1
102
RTVSPropertyOp16
 70
     1
102
RTVSPropertyOp17
 70
     1
102
RTVSPropertyOp18
 70
     1
102
RTVSPropertyOp19
 70
     1
102
RTVSPropertyOp20
 70
     1
102
RTVSPropertyOp21
 70
     1
102
RTVSPropertyOp22
 70
     1
102
RTVSPropertyOp23
 70
     1
102
RTVSPropertyOp24
 70
     1
102
RTVSPropertyOp25
 70
     1
102
RTVSPropertyOp26
 70
     1
102
RTVSPropertyOp27
 70
     1
102
RTVSPropertyOp28
 70
     1
102
RTVSPropertyOp29
 70
     1
102
RTVSPropertyOp30
 70
     1
102
RTVSPropertyOp31
 70
     1
102
RTVSPropertyOp32
 70
     1
  0
XRECORD
  5
70
102
{ACAD_REACTORS
330
6F
102
}
330
6F
100
AcDbXrecord
280
     1
102
RTVSPropertyOp0
 70
     1
102
RTVSPropertyOp1
 70
     1
102
RTVSPropertyOp2
 70
     1
102
RTVSPropertyOp3
 70
     1
102
RTVSPropertyOp4
 70
     1
102
RTVSPropertyOp5
 70
     1
102
RTVSPropertyOp6
 70
     1
102
RTVSPropertyOp7
 70
     1
102
RTVSPropertyOp8
 70
     1
102
RTVSPropertyOp9
 70
     1
102
RTVSPropertyOp10
 70
     1
102
RTVSPropertyOp11
 70
     1
102
RTVSPropertyOp12
 70
     1
102
RTVSPropertyOp13
 70
     1
102
RTVSPropertyOp14
 70
     1
102
RTVSPropertyOp15
 70
     1
102
RTVSPropertyOp16
 70
     1
102
RTVSPropertyOp17
 70
     1
102
RTVSPropertyOp18
 70
     1
102
RTVSPropertyOp19
 70
     1
102
RTVSPropertyOp20
 70
     1
102
RTVSPropertyOp21
 70
     1
102
RTVSPropertyOp22
 70
     1
102
RTVSPropertyOp23
 70
     1
102
RTVSPropertyOp24
 70
     1
102
RTVSPropertyOp25
 70
     1
102
RTVSPropertyOp26
 70
     1
102
RTVSPropertyOp27
 70
     1
102
RTVSPropertyOp28
 70
     1
102
RTVSPropertyOp29
 70
     1
102
RTVSPropertyOp30
 70
     1
102
RTVSPropertyOp31
 70
     1
102
RTVSPropertyOp32
 70
     1
  0
XRECORD
  5
78
102
{ACAD_REACTORS
330
77
102
}
330
77
100
AcDbXrecord
280
     1
102
RTVSPropertyOp0
 70
     1
102
RTVSPropertyOp1
 70
     1
102
RTVSPropertyOp2
 70
     1
102
RTVSPropertyOp3
 70
     1
102
RTVSPropertyOp4
 70
     1
102
RTVSPropertyOp5
 70
     1
102
RTVSPropertyOp6
 70
     1
102
RTVSPropertyOp7
 70
     1
102
RTVSPropertyOp8
 70
     1
102
RTVSPropertyOp9
 70
     1
102
RTVSPropertyOp10
 70
     1
102
RTVSPropertyOp11
 70
     1
102
RTVSPropertyOp12
 70
     1
102
RTVSPropertyOp13
 70
     1
102
RTVSPropertyOp14
 70
     1
102
RTVSPropertyOp15
 70
     1
102
RTVSPropertyOp16
 70
     1
102
RTVSPropertyOp17
 70
     1
102
RTVSPropertyOp18
 70
     1
102
RTVSPropertyOp19
 70
     1
102
RTVSPropertyOp20
 70
     1
102
RTVSPropertyOp21
 70
     1
102
RTVSPropertyOp22
 70
     1
102
RTVSPropertyOp23
 70
     1
102
RTVSPropertyOp24
 70
     1
102
RTVSPropertyOp25
 70
     1
102
RTVSPropertyOp26
 70
     1
102
RTVSPropertyOp27
 70
     1
102
RTVSPropertyOp28
 70
     1
102
RTVSPropertyOp29
 70
     1
102
RTVSPropertyOp30
 70
     1
102
RTVSPropertyOp31
 70
     1
102
RTVSPropertyOp32
 70
     1
  0
XRECORD
  5
5C
102
{ACAD_REACTORS
330
5B
102
}
330
5B
100
AcDbXrecord
280
     1
102
RTVSPropertyOp0
 70
     1
102
RTVSPropertyOp1
 70
     1
102
RTVSPropertyOp2
 70
     1
102
RTVSPropertyOp3
 70
     1
102
RTVSPropertyOp4
 70
     1
102
RTVSPropertyOp5
 70
     1
102
RTVSPropertyOp6
 70
     1
102
RTVSPropertyOp7
 70
     1
102
RTVSPropertyOp8
 70
     1
102
RTVSPropertyOp9
 70
     1
102
RTVSPropertyOp10
 70
     1
102
RTVSPropertyOp11
 70
     1
102
RTVSPropertyOp12
 70
     1
102
RTVSPropertyOp13
 70
     1
102
RTVSPropertyOp14
 70
     1
102
RTVSPropertyOp15
 70
     1
102
RTVSPropertyOp16
 70
     1
102
RTVSPropertyOp17
 70
     1
102
RTVSPropertyOp18
 70
     1
102
RTVSPropertyOp19
 70
     1
102
RTVSPropertyOp20
 70
     1
102
RTVSPropertyOp21
 70
     1
102
RTVSPropertyOp22
 70
     1
102
RTVSPropertyOp23
 70
     1
102
RTVSPropertyOp24
 70
     1
102
RTVSPropertyOp25
 70
     1
102
RTVSPropertyOp26
 70
     1
102
RTVSPropertyOp27
 70
     1
102
RTVSPropertyOp28
 70
     1
102
RTVSPropertyOp29
 70
     1
102
RTVSPropertyOp30
 70
     1
102
RTVSPropertyOp31
 70
     1
102
RTVSPropertyOp32
 70
     1
  0
XRECORD
  5
5E
102
{ACAD_REACTORS
330
5D
102
}
330
5D
100
AcDbXrecord
280
     1
102
RTVSPropertyOp0
 70
     1
102
RTVSPropertyOp1
 70
     1
102
RTVSPropertyOp2
 70
     1
102
RTVSPropertyOp3
 70
     1
102
RTVSPropertyOp4
 70
     1
102
RTVSPropertyOp5
 70
     1
102
RTVSPropertyOp6
 70
     1
102
RTVSPropertyOp7
 70
     1
102
RTVSPropertyOp8
 70
     1
102
RTVSPropertyOp9
 70
     1
102
RTVSPropertyOp10
 70
     1
102
RTVSPropertyOp11
 70
     1
102
RTVSPropertyOp12
 70
     1
102
RTVSPropertyOp13
 70
     1
102
RTVSPropertyOp14
 70
     1
102
RTVSPropertyOp15
 70
     1
102
RTVSPropertyOp16
 70
     1
102
RTVSPropertyOp17
 70
     1
102
RTVSPropertyOp18
 70
     1
102
RTVSPropertyOp19
 70
     1
102
RTVSPropertyOp20
 70
     1
102
RTVSPropertyOp21
 70
     1
102
RTVSPropertyOp22
 70
     1
102
RTVSPropertyOp23
 70
     1
102
RTVSPropertyOp24
 70
     1
102
RTVSPropertyOp25
 70
     1
102
RTVSPropertyOp26
 70
     1
102
RTVSPropertyOp27
 70
     1
102
RTVSPropertyOp28
 70
     1
102
RTVSPropertyOp29
 70
     1
102
RTVSPropertyOp30
 70
     1
102
RTVSPropertyOp31
 70
     1
102
RTVSPropertyOp32
 70
     1
  0
XRECORD
  5
60
102
{ACAD_REACTORS
330
5F
102
}
330
5F
100
AcDbXrecord
280
     1
102
RTVSPropertyOp0
 70
     1
102
RTVSPropertyOp1
 70
     1
102
RTVSPropertyOp2
 70
     1
102
RTVSPropertyOp3
 70
     1
102
RTVSPropertyOp4
 70
     1
102
RTVSPropertyOp5
 70
     1
102
RTVSPropertyOp6
 70
     1
102
RTVSPropertyOp7
 70
     1
102
RTVSPropertyOp8
 70
     1
102
RTVSPropertyOp9
 70
     1
102
RTVSPropertyOp10
 70
     1
102
RTVSPropertyOp11
 70
     1
102
RTVSPropertyOp12
 70
     1
102
RTVSPropertyOp13
 70
     1
102
RTVSPropertyOp14
 70
     1
102
RTVSPropertyOp15
 70
     1
102
RTVSPropertyOp16
 70
     1
102
RTVSPropertyOp17
 70
     1
102
RTVSPropertyOp18
 70
     1
102
RTVSPropertyOp19
 70
     1
102
RTVSPropertyOp20
 70
     1
102
RTVSPropertyOp21
 70
     1
102
RTVSPropertyOp22
 70
     1
102
RTVSPropertyOp23
 70
     1
102
RTVSPropertyOp24
 70
     1
102
RTVSPropertyOp25
 70
     1
102
RTVSPropertyOp26
 70
     1
102
RTVSPropertyOp27
 70
     1
102
RTVSPropertyOp28
 70
     1
102
RTVSPropertyOp29
 70
     1
102
RTVSPropertyOp30
 70
     1
102
RTVSPropertyOp31
 70
     1
102
RTVSPropertyOp32
 70
     1
  0
XRECORD
  5
62
102
{ACAD_REACTORS
330
61
102
}
330
61
100
AcDbXrecord
280
     1
102
RTVSPropertyOp0
 70
     1
102
RTVSPropertyOp1
 70
     1
102
RTVSPropertyOp2
 70
     1
102
RTVSPropertyOp3
 70
     1
102
RTVSPropertyOp4
 70
     1
102
RTVSPropertyOp5
 70
     1
102
RTVSPropertyOp6
 70
     1
102
RTVSPropertyOp7
 70
     1
102
RTVSPropertyOp8
 70
     1
102
RTVSPropertyOp9
 70
     1
102
RTVSPropertyOp10
 70
     1
102
RTVSPropertyOp11
 70
     1
102
RTVSPropertyOp12
 70
     1
102
RTVSPropertyOp13
 70
     1
102
RTVSPropertyOp14
 70
     1
102
RTVSPropertyOp15
 70
     1
102
RTVSPropertyOp16
 70
     1
102
RTVSPropertyOp17
 70
     1
102
RTVSPropertyOp18
 70
     1
102
RTVSPropertyOp19
 70
     1
102
RTVSPropertyOp20
 70
     1
102
RTVSPropertyOp21
 70
     1
102
RTVSPropertyOp22
 70
     1
102
RTVSPropertyOp23
 70
     1
102
RTVSPropertyOp24
 70
     1
102
RTVSPropertyOp25
 70
     1
102
RTVSPropertyOp26
 70
     1
102
RTVSPropertyOp27
 70
     1
102
RTVSPropertyOp28
 70
     1
102
RTVSPropertyOp29
 70
     1
102
RTVSPropertyOp30
 70
     1
102
RTVSPropertyOp31
 70
     1
102
RTVSPropertyOp32
 70
     1
  0
XRECORD
  5
76
102
{ACAD_REACTORS
330
75
102
}
330
75
100
AcDbXrecord
280
     1
102
RTVSPropertyOp0
 70
     1
102
RTVSPropertyOp1
 70
     1
102
RTVSPropertyOp2
 70
     1
102
RTVSPropertyOp3
 70
     1
102
RTVSPropertyOp4
 70
     1
102
RTVSPropertyOp5
 70
     1
102
RTVSPropertyOp6
 70
     1
102
RTVSPropertyOp7
 70
     1
102
RTVSPropertyOp8
 70
     1
102
RTVSPropertyOp9
 70
     1
102
RTVSPropertyOp10
 70
     1
102
RTVSPropertyOp11
 70
     1
102
RTVSPropertyOp12
 70
     1
102
RTVSPropertyOp13
 70
     1
102
RTVSPropertyOp14
 70
     1
102
RTVSPropertyOp15
 70
     1
102
RTVSPropertyOp16
 70
     1
102
RTVSPropertyOp17
 70
     1
102
RTVSPropertyOp18
 70
     1
102
RTVSPropertyOp19
 70
     1
102
RTVSPropertyOp20
 70
     1
102
RTVSPropertyOp21
 70
     1
102
RTVSPropertyOp22
 70
     1
102
RTVSPropertyOp23
 70
     1
102
RTVSPropertyOp24
 70
     1
102
RTVSPropertyOp25
 70
     1
102
RTVSPropertyOp26
 70
     1
102
RTVSPropertyOp27
 70
     1
102
RTVSPropertyOp28
 70
     1
102
RTVSPropertyOp29
 70
     1
102
RTVSPropertyOp30
 70
     1
102
RTVSPropertyOp31
 70
     1
102
RTVSPropertyOp32
 70
     1
  0
XRECORD
  5
6C
102
{ACAD_REACTORS
330
6B
102
}
330
6B
100
AcDbXrecord
280
     1
102
RTVSPropertyOp0
 70
     1
102
RTVSPropertyOp1
 70
     1
102
RTVSPropertyOp2
 70
     1
102
RTVSPropertyOp3
 70
     1
102
RTVSPropertyOp4
 70
     1
102
RTVSPropertyOp5
 70
     1
102
RTVSPropertyOp6
 70
     1
102
RTVSPropertyOp7
 70
     1
102
RTVSPropertyOp8
 70
     1
102
RTVSPropertyOp9
 70
     1
102
RTVSPropertyOp10
 70
     1
102
RTVSPropertyOp11
 70
     1
102
RTVSPropertyOp12
 70
     1
102
RTVSPropertyOp13
 70
     1
102
RTVSPropertyOp14
 70
     1
102
RTVSPropertyOp15
 70
     1
102
RTVSPropertyOp16
 70
     1
102
RTVSPropertyOp17
 70
     1
102
RTVSPropertyOp18
 70
     1
102
RTVSPropertyOp19
 70
     1
102
RTVSPropertyOp20
 70
     1
102
RTVSPropertyOp21
 70
     1
102
RTVSPropertyOp22
 70
     1
102
RTVSPropertyOp23
 70
     1
102
RTVSPropertyOp24
 70
     1
102
RTVSPropertyOp25
 70
     1
102
RTVSPropertyOp26
 70
     1
102
RTVSPropertyOp27
 70
     1
102
RTVSPropertyOp28
 70
     1
102
RTVSPropertyOp29
 70
     1
102
RTVSPropertyOp30
 70
     1
102
RTVSPropertyOp31
 70
     1
102
RTVSPropertyOp32
 70
     1
  0
XRECORD
  5
74
102
{ACAD_REACTORS
330
73
102
}
330
73
100
AcDbXrecord
280
     1
102
RTVSPropertyOp0
 70
     1
102
RTVSPropertyOp1
 70
     1
102
RTVSPropertyOp2
 70
     1
102
RTVSPropertyOp3
 70
     1
102
RTVSPropertyOp4
 70
     1
102
RTVSPropertyOp5
 70
     1
102
RTVSPropertyOp6
 70
     1
102
RTVSPropertyOp7
 70
     1
102
RTVSPropertyOp8
 70
     1
102
RTVSPropertyOp9
 70
     1
102
RTVSPropertyOp10
 70
     1
102
RTVSPropertyOp11
 70
     1
102
RTVSPropertyOp12
 70
     1
102
RTVSPropertyOp13
 70
     1
102
RTVSPropertyOp14
 70
     1
102
RTVSPropertyOp15
 70
     1
102
RTVSPropertyOp16
 70
     1
102
RTVSPropertyOp17
 70
     1
102
RTVSPropertyOp18
 70
     1
102
RTVSPropertyOp19
 70
     1
102
RTVSPropertyOp20
 70
     1
102
RTVSPropertyOp21
 70
     1
102
RTVSPropertyOp22
 70
     1
102
RTVSPropertyOp23
 70
     1
102
RTVSPropertyOp24
 70
     1
102
RTVSPropertyOp25
 70
     1
102
RTVSPropertyOp26
 70
     1
102
RTVSPropertyOp27
 70
     1
102
RTVSPropertyOp28
 70
     1
102
RTVSPropertyOp29
 70
     1
102
RTVSPropertyOp30
 70
     1
102
RTVSPropertyOp31
 70
     1
102
RTVSPropertyOp32
 70
     1
  0
ENDSEC
  0
EOF
