  0
SECTION
  2
HEADER
  9
$ACADVER
  1
AC1009
  9
$INSBASE
 10
0.0
 20
0.0
 30
0.0
  9
$EXTMIN
 10
-0.0000000000000568
 20
0.0
 30
0.0
  9
$EXTMAX
 10
802.67869282442177
 20
964.06891260999987
 30
0.0
  9
$LIMMIN
 10
0.0
 20
0.0
  9
$LIMMAX
 10
12.0
 20
9.0
  9
$ORTHOMODE
 70
     0
  9
$REGENMODE
 70
     1
  9
$FILLMODE
 70
     1
  9
$QTEXTMODE
 70
     0
  9
$MIRRTEXT
 70
     0
  9
$DRAGMODE
 70
     2
  9
$LTSCALE
 40
1.0
  9
$OSMODE
 70
   167
  9
$ATTMODE
 70
     1
  9
$TEXTSIZE
 40
0.2
  9
$TRACEWID
 40
0.05
  9
$TEXTSTYLE
  7
STANDARD
  9
$CLAYER
  8
0
  9
$CELTYPE
  6
CONTINUOUS
  9
$CECOLOR
 62
   256
  9
$DIMSCALE
 40
1.0
  9
$DIMASZ
 40
0.18
  9
$DIMEXO
 40
0.0625
  9
$DIMDLI
 40
0.38
  9
$DIMRND
 40
0.0
  9
$DIMDLE
 40
0.0
  9
$DIMEXE
 40
0.18
  9
$DIMTP
 40
0.0
  9
$DIMTM
 40
0.0
  9
$DIMTXT
 40
0.18
  9
$DIMCEN
 40
0.09
  9
$DIMTSZ
 40
0.0
  9
$DIMTOL
 70
     0
  9
$DIMLIM
 70
     0
  9
$DIMTIH
 70
     1
  9
$DIMTOH
 70
     1
  9
$DIMSE1
 70
     0
  9
$DIMSE2
 70
     0
  9
$DIMTAD
 70
     0
  9
$DIMZIN
 70
     0
  9
$DIMBLK
  1

  9
$DIMASO
 70
     1
  9
$DIMSHO
 70
     1
  9
$DIMPOST
  1

  9
$DIMAPOST
  1

  9
$DIMALT
 70
     0
  9
$DIMALTD
 70
     2
  9
$DIMALTF
 40
25.399999999999999
  9
$DIMLFAC
 40
1.0
  9
$DIMTOFL
 70
     0
  9
$DIMTVP
 40
0.0
  9
$DIMTIX
 70
     0
  9
$DIMSOXD
 70
     0
  9
$DIMSAH
 70
     0
  9
$DIMBLK1
  1

  9
$DIMBLK2
  1

  9
$DIMSTYLE
  2
STANDARD
  9
$DIMCLRD
 70
     0
  9
$DIMCLRE
 70
     0
  9
$DIMCLRT
 70
     0
  9
$DIMTFAC
 40
1.0
  9
$DIMGAP
 40
0.09
  9
$LUNITS
 70
     2
  9
$LUPREC
 70
     4
  9
$SKETCHINC
 40
0.1
  9
$FILLETRAD
 40
0.0
  9
$AUNITS
 70
     0
  9
$AUPREC
 70
     0
  9
$MENU
  1
.
  9
$ELEVATION
 40
0.0
  9
$PELEVATION
 40
0.0
  9
$THICKNESS
 40
0.0
  9
$LIMCHECK
 70
     0
  9
$BLIPMODE
 70
     0
  9
$CHAMFERA
 40
0.0
  9
$CHAMFERB
 40
0.0
  9
$SKPOLY
 70
     0
  9
$TDCREATE
 40
2455328.0487232301
  9
$TDUPDATE
 40
2455328.049091435
  9
$TDINDWG
 40
0.0003691088
  9
$TDUSRTIMER
 40
0.0003691088
  9
$USRTIMER
 70
     1
  9
$ANGBASE
 50
0.0
  9
$ANGDIR
 70
     0
  9
$PDMODE
 70
     0
  9
$PDSIZE
 40
0.0
  9
$PLINEWID
 40
0.0
  9
$COORDS
 70
     1
  9
$SPLFRAME
 70
     0
  9
$SPLINETYPE
 70
     6
  9
$SPLINESEGS
 70
     8
  9
$ATTDIA
 70
     0
  9
$ATTREQ
 70
     1
  9
$HANDLING
 70
     1
  9
$HANDSEED
  5
BFA
  9
$SURFTAB1
 70
     6
  9
$SURFTAB2
 70
     6
  9
$SURFTYPE
 70
     6
  9
$SURFU
 70
     6
  9
$SURFV
 70
     6
  9
$UCSNAME
  2

  9
$UCSORG
 10
0.0
 20
0.0
 30
0.0
  9
$UCSXDIR
 10
1.0
 20
0.0
 30
0.0
  9
$UCSYDIR
 10
0.0
 20
1.0
 30
0.0
  9
$PUCSNAME
  2

  9
$PUCSORG
 10
0.0
 20
0.0
 30
0.0
  9
$PUCSXDIR
 10
1.0
 20
0.0
 30
0.0
  9
$PUCSYDIR
 10
0.0
 20
1.0
 30
0.0
  9
$USERI1
 70
     0
  9
$USERI2
 70
     0
  9
$USERI3
 70
     0
  9
$USERI4
 70
     0
  9
$USERI5
 70
     0
  9
$USERR1
 40
0.0
  9
$USERR2
 40
0.0
  9
$USERR3
 40
0.0
  9
$USERR4
 40
0.0
  9
$USERR5
 40
0.0
  9
$WORLDVIEW
 70
     1
  9
$SHADEDGE
 70
     3
  9
$SHADEDIF
 70
    70
  9
$TILEMODE
 70
     1
  9
$MAXACTVP
 70
    64
  9
$PLIMCHECK
 70
     0
  9
$PEXTMIN
 10
1.0000000000000000E+020
 20
1.0000000000000000E+020
 30
1.0000000000000000E+020
  9
$PEXTMAX
 10
-1.0000000000000000E+020
 20
-1.0000000000000000E+020
 30
-1.0000000000000000E+020
  9
$PLIMMIN
 10
0.0
 20
0.0
  9
$PLIMMAX
 10
12.0
 20
9.0
  9
$UNITMODE
 70
     0
  9
$VISRETAIN
 70
     1
  9
$PLINEGEN
 70
     0
  9
$PSLTSCALE
 70
     1
  0
ENDSEC
  0
SECTION
  2
TABLES
  0
TABLE
  2
VPORT
 70
     1
  0
VPORT
  2
*ACTIVE
 70
     0
 10
0.0
 20
0.0
 11
1.0
 21
1.0
 12
7.8038793103448274
 22
4.5
 13
0.0
 23
0.0
 14
1.0
 24
1.0
 15
0.0
 25
0.0
 16
0.0
 26
0.0
 36
1.0
 17
0.0
 27
0.0
 37
0.0
 40
9.0
 41
1.7341954022988499
 42
50.0
 43
0.0
 44
0.0
 50
0.0
 51
0.0
 71
     0
 72
   100
 73
     1
 74
     1
 75
     0
 76
     0
 77
     0
 78
     0
  0
ENDTAB
  0
TABLE
  2
LTYPE
 70
     1
  0
LTYPE
  2
CONTINUOUS
 70
     0
  3
Solid line
 72
    65
 73
     0
 40
0.0
  0
ENDTAB
  0
TABLE
  2
LAYER
 70
     2
  0
LAYER
  2
0
 70
     0
 62
     7
  6
CONTINUOUS
  0
LAYER
  2
CYAN
 70
     0
 62
     1
  6
CONTINUOUS
  0
ENDTAB
  0
TABLE
  2
STYLE
 70
     2
  0
STYLE
  2
STANDARD
 70
     0
 40
0.0
 41
1.0
 50
0.0
 71
     0
 42
0.2
  3
txt
  4

  0
STYLE
  2
ANNOTATIVE
 70
     0
 40
0.0
 41
1.0
 50
0.0
 71
     0
 42
0.2
  3
txt
  4

  0
ENDTAB
  0
TABLE
  2
VIEW
 70
     0
  0
ENDTAB
  0
TABLE
  2
UCS
 70
     0
  0
ENDTAB
  0
TABLE
  2
APPID
 70
     3
  0
APPID
  2
ACAD
 70
     0
  0
APPID
  2
ACADANNOTATIVE
 70
     0
  0
APPID
  2
ACAD_MLEADERVER
 70
     0
  0
ENDTAB
  0
TABLE
  2
DIMSTYLE
 70
     2
  0
DIMSTYLE
  2
STANDARD
 70
     0
  3

  4

  5

  6

  7

 40
1.0
 41
0.18
 42
0.0625
 43
0.38
 44
0.18
 45
0.0
 46
0.0
 47
0.0
 48
0.0
140
0.18
141
0.09
142
0.0
143
25.399999999999999
144
1.0
145
0.0
146
1.0
147
0.09
 71
     0
 72
     0
 73
     1
 74
     1
 75
     0
 76
     0
 77
     0
 78
     0
170
     0
171
     2
172
     0
173
     0
174
     0
175
     0
176
     0
177
     0
178
     0
  0
DIMSTYLE
  2
ANNOTATIVE
 70
     0
  3

  4

  5

  6

  7

 40
1.0
 41
0.18
 42
0.0625
 43
0.38
 44
0.18
 45
0.0
 46
0.0
 47
0.0
 48
0.0
140
0.18
141
0.09
142
0.0
143
25.399999999999999
144
1.0
145
0.0
146
1.0
147
0.09
 71
     0
 72
     0
 73
     1
 74
     1
 75
     0
 76
     0
 77
     0
 78
     0
170
     0
171
     2
172
     0
173
     0
174
     0
175
     0
176
     0
177
     0
178
     0
  0
ENDTAB
  0
ENDSEC
  0
SECTION
  2
BLOCKS
  0
BLOCK
  8
0
  2
$MODEL_SPACE
 70
     0
 10
0.0
 20
0.0
 30
0.0
  3
$MODEL_SPACE
  1

  0
ENDBLK
  5
76
  8
0
  0
BLOCK
 67
     1
  8
0
  2
$PAPER_SPACE
 70
     0
 10
0.0
 20
0.0
 30
0.0
  3
$PAPER_SPACE
  1

  0
ENDBLK
  5
72
 67
     1
  8
0
  0
ENDSEC
  0
SECTION
  2
ENTITIES
  0
POLYLINE
  5
7B
  8
CYAN
 66
     1
 10
0.0
 20
0.0
 30
0.0
 70
     1
  0
VERTEX
  5
844
  8
CYAN
 10
99.055128420000003
 20
10.554202802500001
 30
0.0
 42
-0.25304434
  0
VERTEX
  5
845
  8
CYAN
 10
94.296604492499995
 20
10.953701152500001
 30
0.0
 42
-0.25304434
  0
VERTEX
  5
846
  8
CYAN
 10
92.025383590000004
 20
15.154261175
 30
0.0
  0
VERTEX
  5
847
  8
CYAN
 10
92.028410607500007
 20
28.209789860000001
 30
0.0
 42
0.34939932
  0
VERTEX
  5
848
  8
CYAN
 10
90.234638344999993
 20
30.071902037499999
 30
0.0
 42
0.34939932
  0
VERTEX
  5
849
  8
CYAN
 10
88.017611740000007
 20
28.741536024999998
 30
0.0
 42
0.14269292
  0
VERTEX
  5
84A
  8
CYAN
 10
86.472823549999987
 20
8.1265343575000006
 30
0.0
 42
0.29817379
  0
VERTEX
  5
84B
  8
CYAN
 10
94.087791859999996
 20
0.0
 30
0.0
 42
0.01507438
  0
VERTEX
  5
84C
  8
CYAN
 10
96.072506669999996
 20
0.2290443625
 30
0.0
 42
0.29209963
  0
VERTEX
  5
84D
  8
CYAN
 10
96.683065452500003
 20
0.7646114575000002
 30
0.0
 42
0.29209963
  0
VERTEX
  5
84E
  8
CYAN
 10
96.45391094
 20
1.5437791849999991
 30
0.0
  0
VERTEX
  5
84F
  8
CYAN
 10
95.049374582499993
 20
2.7566044024999989
 30
0.0
  0
VERTEX
  5
850
  8
CYAN
 10
96.034164442500014
 20
3.9199883249999989
 30
0.0
  0
VERTEX
  5
851
  8
CYAN
 10
99.54752335000002
 20
0.9242495
 30
0.0
 42
0.0472051
  0
VERTEX
  5
852
  8
CYAN
 10
105.42296531
 20
3.0371080725000001
 30
0.0
  0
VERTEX
  5
853
  8
CYAN
 10
102.795513675
 20
5.8280186799999987
 30
0.0
  0
VERTEX
  5
854
  8
CYAN
 10
103.89533022000001
 20
6.876375917499999
 30
0.0
  0
VERTEX
  5
855
  8
CYAN
 10
106.83960974
 20
3.7555203475000001
 30
0.0
 42
0.05053256
  0
VERTEX
  5
856
  8
CYAN
 10
112.39519679750001
 20
7.4656354225000001
 30
0.0
  0
VERTEX
  5
857
  8
CYAN
 10
109.00090059999999
 20
10.66822048
 30
0.0
  0
VERTEX
  5
858
  8
CYAN
 10
110.0371497675
 20
11.768037025
 30
0.0
  0
VERTEX
  5
859
  8
CYAN
 10
113.5505086725
 20
8.4564793199999997
 30
0.0
 42
0.04788363
  0
VERTEX
  5
85A
  8
CYAN
 10
117.81860407000001
 20
13.13524016
 30
0.0
  0
VERTEX
  5
85B
  8
CYAN
 10
114.18214643
 20
16.052276517500001
 30
0.0
  0
VERTEX
  5
85C
  8
CYAN
 10
115.130612075
 20
17.239876585000001
 30
0.0
  0
VERTEX
  5
85D
  8
CYAN
 10
118.7065293525
 20
14.371272514999999
 30
0.0
 42
0.03307194
  0
VERTEX
  5
85E
  8
CYAN
 10
122.0180870575
 20
20.57665944
 30
0.0
  0
VERTEX
  5
85F
  8
CYAN
 10
118.0365493675
 20
22.358564042499999
 30
0.0
  0
VERTEX
  5
860
  8
CYAN
 10
118.6813042025
 20
23.722740160000001
 30
0.0
  0
VERTEX
  5
861
  8
CYAN
 10
122.6244996675
 20
21.966060707499999
 30
0.0
 42
0.03106605
  0
VERTEX
  5
862
  8
CYAN
 10
124.7857905275
 20
28.209789860000001
 30
0.0
  0
VERTEX
  5
863
  8
CYAN
 10
120.8173699125
 20
29.308597397500002
 30
0.0
  0
VERTEX
  5
864
  8
CYAN
 10
121.2340893925
 20
30.774683122500001
 30
0.0
  0
VERTEX
  5
865
  8
CYAN
 10
125.1772848575
 20
29.701100735000001
 30
0.0
 42
0.03045216
  0
VERTEX
  5
866
  8
CYAN
 10
126.3487408275
 20
36.070955637499999
 30
0.0
  0
VERTEX
  5
867
  8
CYAN
 10
122.5357071375
 20
36.815602067500002
 30
0.0
  0
VERTEX
  5
868
  8
CYAN
 10
122.73851734500001
 20
38.320030019999997
 30
0.0
  0
VERTEX
  5
869
  8
CYAN
 10
126.5041277525
 20
37.574374582499999
 30
0.0
 42
0.02841437
  0
VERTEX
  5
86A
  8
CYAN
 10
126.71904603
 20
43.615293530000002
 30
0.0
  0
VERTEX
  5
86B
  8
CYAN
 10
122.96554369499999
 20
44.347831887499993
 30
0.0
  0
VERTEX
  5
86C
  8
CYAN
 10
123.015993995
 20
45.889593062499991
 30
0.0
  0
VERTEX
  5
86D
  8
CYAN
 10
126.79472148000001
 20
45.143937625
 30
0.0
 42
0.03287729
  0
VERTEX
  5
86E
  8
CYAN
 10
126.563659105
 20
51.715593730000002
 30
0.0
 42
-0.20184992
  0
VERTEX
  5
86F
  8
CYAN
 10
127.682098885
 20
54.365144542499998
 30
0.0
 42
-0.20184992
  0
VERTEX
  5
870
  8
CYAN
 10
130.35853068750001
 20
55.417636757499999
 30
0.0
 42
0.14118571
  0
VERTEX
  5
871
  8
CYAN
 10
137.01897932
 20
56.720263510000002
 30
0.0
 42
0.35160523
  0
VERTEX
  5
872
  8
CYAN
 10
137.40542862000001
 20
57.5779186125
 30
0.0
  0
VERTEX
  5
873
  8
CYAN
 10
135.552893595
 20
64.9598065375
 30
0.0
  0
VERTEX
  5
874
  8
CYAN
 10
137.0320963975
 20
65.327084722500004
 30
0.0
  0
VERTEX
  5
875
  8
CYAN
 10
138.88967645
 20
57.907863575
 30
0.0
 42
0.4135070800000001
  0
VERTEX
  5
876
  8
CYAN
 10
139.50819713249999
 20
57.541594397499999
 30
0.0
  0
VERTEX
  5
877
  8
CYAN
 10
140.09039359499999
 20
57.692945297500003
 30
0.0
 42
0.33680066
  0
VERTEX
  5
878
  8
CYAN
 10
140.64635590500001
 20
58.426492662500003
 30
0.0
  0
VERTEX
  5
879
  8
CYAN
 10
140.696806205
 20
66.249316210000003
 30
0.0
 42
0.17737588
  0
VERTEX
  5
87A
  8
CYAN
 10
133.89711474250001
 20
88.718870914999997
 30
0.0
 42
0.17659898
  0
VERTEX
  5
87B
  8
CYAN
 10
129.85301867999999
 20
90.460415277500005
 30
0.0
 42
0.2359124
  0
VERTEX
  5
87C
  8
CYAN
 10
129.4401965225
 20
90.281473625000004
 30
0.0
 42
0.2359124
  0
VERTEX
  5
87D
  8
CYAN
 10
129.33539859999999
 20
89.843912607499988
 30
0.0
  0
VERTEX
  5
87E
  8
CYAN
 10
131.66014843249999
 20
80.517670112499985
 30
0.0
  0
VERTEX
  5
87F
  8
CYAN
 10
130.19507171500001
 20
80.150391927499996
 30
0.0
  0
VERTEX
  5
880
  8
CYAN
 10
127.667511675
 20
90.273749164999984
 30
0.0
 42
0.31464179
  0
VERTEX
  5
881
  8
CYAN
 10
127.2245580375
 20
90.653135422500014
 30
0.0
 42
-0.00994167
  0
VERTEX
  5
882
  8
CYAN
 10
119.920363575
 20
91.499691459999994
 30
0.0
  0
VERTEX
  5
883
  8
CYAN
 10
119.8567961975
 20
81.389451300000005
 30
0.0
  0
VERTEX
  5
884
  8
CYAN
 10
118.3402601725
 20
81.389451300000005
 30
0.0
  0
VERTEX
  5
885
  8
CYAN
 10
118.466385925
 20
102.46960473750001
 30
0.0
  0
VERTEX
  5
886
  8
CYAN
 10
109.759673115
 20
102.46960473750001
 30
0.0
  0
VERTEX
  5
887
  8
CYAN
 10
109.759673115
 20
103.934681455
 30
0.0
  0
VERTEX
  5
888
  8
CYAN
 10
118.466385925
 20
103.934681455
 30
0.0
  0
VERTEX
  5
889
  8
CYAN
 10
118.542061375
 20
115.3092061375
 30
0.0
 42
0.34479252
  0
VERTEX
  5
88A
  8
CYAN
 10
115.19317044749999
 20
119.6317878575
 30
0.0
  0
VERTEX
  5
88B
  8
CYAN
 10
115.19317044749999
 20
112.73119579750001
 30
0.0
  0
VERTEX
  5
88C
  8
CYAN
 10
113.6766344225
 20
112.73119579750001
 30
0.0
  0
VERTEX
  5
88D
  8
CYAN
 10
113.6766344225
 20
119.75791361
 30
0.0
 42
-0.27028323
  0
VERTEX
  5
88E
  8
CYAN
 10
107.09892428249999
 20
122.53268011999999
 30
0.0
 42
0.24999545
  0
VERTEX
  5
88F
  8
CYAN
 10
105.12070550999999
 20
123.0310762475
 30
0.0
 42
0.24999545
  0
VERTEX
  5
890
  8
CYAN
 10
103.60473648999999
 20
121.66594396249999
 30
0.0
  0
VERTEX
  5
891
  8
CYAN
 10
105.2605153425
 20
119.1131587725
 30
0.0
  0
VERTEX
  5
892
  8
CYAN
 10
104.02145597000001
 20
118.317053035
 30
0.0
  0
VERTEX
  5
893
  8
CYAN
 10
101.08928452249999
 20
122.85354402999999
 30
0.0
 42
0.3485596
  0
VERTEX
  5
894
  8
CYAN
 10
96.223857572499995
 20
116.471581055
 30
0.0
  0
VERTEX
  5
895
  8
CYAN
 10
103.1880170125
 20
113.969246165
 30
0.0
  0
VERTEX
  5
896
  8
CYAN
 10
102.70773015250001
 20
112.59195296750001
 30
0.0
  0
VERTEX
  5
897
  8
CYAN
 10
87.870296865
 20
117.8115410275
 30
0.0
 42
0.36663078
  0
VERTEX
  5
898
  8
CYAN
 10
84.218704134999996
 20
116.40902268249999
 30
0.0
 42
0.20528912
  0
VERTEX
  5
899
  8
CYAN
 10
83.959389592500017
 20
109.4297281525
 30
0.0
 42
0.27587016
  0
VERTEX
  5
89A
  8
CYAN
 10
85.263825252499984
 20
108.605561395
 30
0.0
 42
0.27587016
  0
VERTEX
  5
89B
  8
CYAN
 10
86.608030352499995
 20
109.36313375500001
 30
0.0
  0
VERTEX
  5
89C
  8
CYAN
 10
88.211340895000006
 20
112.20045863999999
 30
0.0
 42
-0.35786431
  0
VERTEX
  5
89D
  8
CYAN
 10
89.804561375000006
 20
112.819988325
 30
0.0
 42
-0.26916279
  0
VERTEX
  5
89E
  8
CYAN
 10
94.769879919999994
 20
107.29668946
 30
0.0
 42
0.28235561
  0
VERTEX
  5
89F
  8
CYAN
 10
102.3404519675
 20
97.6405020025
 30
0.0
 42
-0.4082282300000001
  0
VERTEX
  5
8A0
  8
CYAN
 10
105.348298865
 20
94.116044029999998
 30
0.0
  0
VERTEX
  5
8A1
  8
CYAN
 10
105.146497665
 20
90.147623414999998
 30
0.0
 42
-0.28555351
  0
VERTEX
  5
8A2
  8
CYAN
 10
102.669387925
 20
86.595922282499998
 30
0.0
 42
-0.06798974
  0
VERTEX
  5
8A3
  8
CYAN
 10
95.011032354999998
 20
85.939059372499983
 30
0.0
 42
0.35556729
  0
VERTEX
  5
8A4
  8
CYAN
 10
91.964843229999985
 20
83.260148432500003
 30
0.0
 42
0.01786216
  0
VERTEX
  5
8A5
  8
CYAN
 10
91.363475649999984
 20
72.947098065000006
 30
0.0
  0
VERTEX
  5
8A6
  8
CYAN
 10
91.358430619999993
 20
72.567711807500004
 30
0.0
 42
0.00212111
  0
VERTEX
  5
8A7
  8
CYAN
 10
91.339259507500003
 20
71.340760507499994
 30
0.0
  0
VERTEX
  5
8A8
  8
CYAN
 10
91.334214477499998
 20
70.836257505000006
 30
0.0
 42
0.02147565
  0
VERTEX
  5
8A9
  8
CYAN
 10
91.769096064999999
 20
58.425483655000001
 30
0.0
 42
0.36205528
  0
VERTEX
  5
8AA
  8
CYAN
 10
96.122956972500006
 20
53.596380920000001
 30
0.0
  0
VERTEX
  5
8AB
  8
CYAN
 10
96.122956972500006
 20
67.727510007500001
 30
0.0
  0
VERTEX
  5
8AC
  8
CYAN
 10
97.589042695000003
 20
67.727510007500001
 30
0.0
  0
VERTEX
  5
8AD
  8
CYAN
 10
97.589042695000003
 20
53.47227318249999
 30
0.0
  0
VERTEX
  5
8AE
  8
CYAN
 10
113.171122415
 20
52.296781187500002
 30
0.0
 42
-0.38793397
  0
VERTEX
  5
8AF
  8
CYAN
 10
117.557271515
 20
47.646272515
 30
0.0
 42
-0.06215803
  0
VERTEX
  5
8B0
  8
CYAN
 10
115.6361240825
 20
29.726325885000001
 30
0.0
 42
-0.22556692
  0
VERTEX
  5
8B1
  8
CYAN
 10
99.055128420000003
 20
10.554202802500001
 30
0.0
  0
SEQEND
  5
8B2
  8
CYAN
  0
POLYLINE
  5
EB
  8
CYAN
 66
     1
 10
0.0
 20
0.0
 30
0.0
 70
     1
  0
VERTEX
  5
8B3
  8
CYAN
 10
143.13557371499999
 20
138.2721647775
 30
0.0
 42
0.39804018
  0
VERTEX
  5
8B4
  8
CYAN
 10
147.210948965
 20
136.7949799875
 30
0.0
 42
0.02247646
  0
VERTEX
  5
8B5
  8
CYAN
 10
149.28950133500001
 20
137.67685123499999
 30
0.0
  0
VERTEX
  5
8B6
  8
CYAN
 10
149.75263509000001
 20
137.888742495
 30
0.0
  0
VERTEX
  5
8B7
  8
CYAN
 10
144.41196631
 20
146.4239242825
 30
0.0
  0
VERTEX
  5
8B8
  8
CYAN
 10
145.701475985
 20
147.22003002
 30
0.0
  0
VERTEX
  5
8B9
  8
CYAN
 10
151.1612074725
 20
138.487083055
 30
0.0
 42
0.22270269
  0
VERTEX
  5
8BA
  8
CYAN
 10
152.94014240999999
 20
139.24088164
 30
0.0
 42
0.22270269
  0
VERTEX
  5
8BB
  8
CYAN
 10
153.4990743825
 20
141.090318545
 30
0.0
 42
0.04096139
  0
VERTEX
  5
8BC
  8
CYAN
 10
153.54952468249999
 20
170.99120246749999
 30
0.0
 42
0.19156009
  0
VERTEX
  5
8BD
  8
CYAN
 10
142.20325216750001
 20
214.76087391499999
 30
0.0
 42
0.39109135
  0
VERTEX
  5
8BE
  8
CYAN
 10
126.5041277525
 20
221.54240326999999
 30
0.0
 42
0.23195912
  0
VERTEX
  5
8BF
  8
CYAN
 10
120.22306537750001
 20
213.99806537750001
 30
0.0
 42
0.07594386
  0
VERTEX
  5
8C0
  8
CYAN
 10
119.14847398249999
 20
177.4871831225
 30
0.0
 42
0.02785605
  0
VERTEX
  5
8C1
  8
CYAN
 10
117.6450550375
 20
165.13997664999999
 30
0.0
 42
0.15552875
  0
VERTEX
  5
8C2
  8
CYAN
 10
123.5346230825
 20
154.334531355
 30
0.0
 42
0.18820351
  0
VERTEX
  5
8C3
  8
CYAN
 10
129.2587141425
 20
151.46895430250001
 30
0.0
 42
-0.17864056
  0
VERTEX
  5
8C4
  8
CYAN
 10
139.13990994
 20
144.86702801749999
 30
0.0
 42
-0.05868416
  0
VERTEX
  5
8C5
  8
CYAN
 10
143.13557371499999
 20
138.2721647775
 30
0.0
  0
SEQEND
  5
8C6
  8
CYAN
  0
POLYLINE
  5
100
  8
CYAN
 66
     1
 10
0.0
 20
0.0
 30
0.0
 70
     1
  0
VERTEX
  5
8C7
  8
CYAN
 10
143.173915945
 20
171.686407605
 30
0.0
 42
0.4079767000000001
  0
VERTEX
  5
8C8
  8
CYAN
 10
144.178140945
 20
170.912828125
 30
0.0
 42
0.4079767000000001
  0
VERTEX
  5
8C9
  8
CYAN
 10
144.97297365
 20
171.90031687749999
 30
0.0
 42
0.07939118
  0
VERTEX
  5
8CA
  8
CYAN
 10
135.66691127499999
 20
213.0879419625
 30
0.0
 42
0.09388269
  0
VERTEX
  5
8CB
  8
CYAN
 10
132.64594729749999
 20
217.814126085
 30
0.0
 42
0.37290044
  0
VERTEX
  5
8CC
  8
CYAN
 10
130.05524826749999
 20
218.07846669750001
 30
0.0
 42
0.37290044
  0
VERTEX
  5
8CD
  8
CYAN
 10
129.42419112749999
 20
215.5519346225
 30
0.0
 42
-0.08318241
  0
VERTEX
  5
8CE
  8
CYAN
 10
143.173915945
 20
171.686407605
 30
0.0
  0
SEQEND
  5
8CF
  8
CYAN
  0
POLYLINE
  5
10A
  8
CYAN
 66
     1
 10
0.0
 20
0.0
 30
0.0
 70
     1
  0
VERTEX
  5
8D0
  8
CYAN
 10
135.71736157500001
 20
187.92635924000001
 30
0.0
 42
0.36254478
  0
VERTEX
  5
8D1
  8
CYAN
 10
136.4346061075
 20
187.7231100125
 30
0.0
 42
0.36254478
  0
VERTEX
  5
8D2
  8
CYAN
 10
136.76269179499999
 20
188.3925200125
 30
0.0
 42
0.09072705
  0
VERTEX
  5
8D3
  8
CYAN
 10
124.9976817875
 20
215.28555703750001
 30
0.0
 42
0.28706032
  0
VERTEX
  5
8D4
  8
CYAN
 10
124.441929265
 20
215.5462312825
 30
0.0
 42
0.28706032
  0
VERTEX
  5
8D5
  8
CYAN
 10
123.96445964
 20
215.1604402925
 30
0.0
 42
0.23346482
  0
VERTEX
  5
8D6
  8
CYAN
 10
125.496130755
 20
201.06361741250001
 30
0.0
 42
0.04413355
  0
VERTEX
  5
8D7
  8
CYAN
 10
131.84984155999999
 20
192.80389426249999
 30
0.0
 42
-0.03588286
  0
VERTEX
  5
8D8
  8
CYAN
 10
135.71736157500001
 20
187.92635924000001
 30
0.0
  0
SEQEND
  5
8D9
  8
CYAN
  0
POLYLINE
  5
115
  8
CYAN
 66
     1
 10
0.0
 20
0.0
 30
0.0
 70
     1
  0
VERTEX
  5
8DA
  8
CYAN
 10
121.044396265
 20
167.98335556999999
 30
0.0
 42
0.31787391
  0
VERTEX
  5
8DB
  8
CYAN
 10
132.02641761250001
 20
152.99457138
 30
0.0
 42
0.24610557
  0
VERTEX
  5
8DC
  8
CYAN
 10
133.416330415
 20
153.23340275999999
 30
0.0
 42
0.24610557
  0
VERTEX
  5
8DD
  8
CYAN
 10
134.0111324225
 20
154.51211641
 30
0.0
 42
0.17348791
  0
VERTEX
  5
8DE
  8
CYAN
 10
132.70951467750001
 20
159.49055203500001
 30
0.0
 42
-0.12555404
  0
VERTEX
  5
8DF
  8
CYAN
 10
127.1236574375
 20
168.38796697750001
 30
0.0
 42
0.17521599
  0
VERTEX
  5
8E0
  8
CYAN
 10
122.81318379
 20
170.83177952
 30
0.0
 42
0.36267579
  0
VERTEX
  5
8E1
  8
CYAN
 10
121.46918779249999
 20
170.05787191499999
 30
0.0
 42
0.07664491
  0
VERTEX
  5
8E2
  8
CYAN
 10
121.044396265
 20
167.98335556999999
 30
0.0
  0
SEQEND
  5
8E3
  8
CYAN
  0
POLYLINE
  5
120
  8
CYAN
 66
     1
 10
0.0
 20
0.0
 30
0.0
 70
     1
  0
VERTEX
  5
8E4
  8
CYAN
 10
143.51495997250001
 20
157.63297198250001
 30
0.0
 42
0.09851933
  0
VERTEX
  5
8E5
  8
CYAN
 10
122.6517428275
 20
194.92986991250001
 30
0.0
 42
-0.4080058700000001
  0
VERTEX
  5
8E6
  8
CYAN
 10
122.7707821125
 20
196.68948645
 30
0.0
 42
-0.4080058700000001
  0
VERTEX
  5
8E7
  8
CYAN
 10
124.53253002
 20
196.6078468975
 30
0.0
 42
-0.1326822
  0
VERTEX
  5
8E8
  8
CYAN
 10
144.92353235499999
 20
158.02043028750001
 30
0.0
 42
-0.4000659800000001
  0
VERTEX
  5
8E9
  8
CYAN
 10
144.40379214999999
 20
157.15579958500001
 30
0.0
 42
-0.4000659800000001
  0
VERTEX
  5
8EA
  8
CYAN
 10
143.51495997250001
 20
157.63297198250001
 30
0.0
  0
SEQEND
  5
8EB
  8
CYAN
  0
POLYLINE
  5
129
  8
CYAN
 66
     1
 10
0.0
 20
0.0
 30
0.0
 70
     1
  0
VERTEX
  5
8EC
  8
CYAN
 10
126.3648849225
 20
172.25548699250001
 30
0.0
 42
-0.01547197
  0
VERTEX
  5
8ED
  8
CYAN
 10
129.119471315
 20
170.34543862500001
 30
0.0
 42
0.33827317
  0
VERTEX
  5
8EE
  8
CYAN
 10
132.37950480500001
 20
170.40753928500001
 30
0.0
 42
0.33827317
  0
VERTEX
  5
8EF
  8
CYAN
 10
133.17668445749999
 20
173.56921280750001
 30
0.0
 42
0.01460392
  0
VERTEX
  5
8F0
  8
CYAN
 10
129.82274849999999
 20
179.46786190750001
 30
0.0
 42
0.10265901
  0
VERTEX
  5
8F1
  8
CYAN
 10
124.2035940625
 20
185.49869079499999
 30
0.0
 42
0.26157763
  0
VERTEX
  5
8F2
  8
CYAN
 10
122.9956606825
 20
185.6295645925
 30
0.0
 42
0.26157763
  0
VERTEX
  5
8F3
  8
CYAN
 10
122.25520347
 20
184.66626084000001
 30
0.0
 42
0.09580498
  0
VERTEX
  5
8F4
  8
CYAN
 10
122.548824215
 20
177.66375917249999
 30
0.0
 42
0.1928731
  0
VERTEX
  5
8F5
  8
CYAN
 10
126.3648849225
 20
172.25548699250001
 30
0.0
  0
SEQEND
  5
8F6
  8
CYAN
  0
POLYLINE
  5
135
  8
CYAN
 66
     1
 10
0.0
 20
0.0
 30
0.0
 70
     1
  0
VERTEX
  5
8F7
  8
CYAN
 10
148.06255003250001
 20
178.0048032025
 30
0.0
 42
0.37940013
  0
VERTEX
  5
8F8
  8
CYAN
 10
148.7746468375
 20
177.52045110750001
 30
0.0
 42
0.37940013
  0
VERTEX
  5
8F9
  8
CYAN
 10
149.34096063999999
 20
178.16927118000001
 30
0.0
 42
0.08897169
  0
VERTEX
  5
8FA
  8
CYAN
 10
142.12454969999999
 20
210.93976817750001
 30
0.0
 42
0.39704248
  0
VERTEX
  5
8FB
  8
CYAN
 10
140.84064437000001
 20
211.516458825
 30
0.0
 42
0.39704248
  0
VERTEX
  5
8FC
  8
CYAN
 10
140.18927618500001
 20
210.268779185
 30
0.0
 42
-0.00755847
  0
VERTEX
  5
8FD
  8
CYAN
 10
144.3685790525
 20
194.1922865249999
 30
0.0
 42
-0.00755517
  0
VERTEX
  5
8FE
  8
CYAN
 10
148.06255003250001
 20
178.0048032025
 30
0.0
  0
SEQEND
  5
8FF
  8
CYAN
  0
POLYLINE
  5
13F
  8
CYAN
 66
     1
 10
0.0
 20
0.0
 30
0.0
 70
     1
  0
VERTEX
  5
900
  8
CYAN
 10
147.698298865
 20
160.11008172000001
 30
0.0
 42
0.03339495
  0
VERTEX
  5
901
  8
CYAN
 10
148.6033772525
 20
168.4131921275
 30
0.0
 42
-0.37032058
  0
VERTEX
  5
902
  8
CYAN
 10
149.370539425
 20
169.23641516500001
 30
0.0
 42
-0.37032058
  0
VERTEX
  5
903
  8
CYAN
 10
150.30052534999999
 20
168.60288525749999
 30
0.0
 42
-0.04020562
  0
VERTEX
  5
904
  8
CYAN
 10
150.5739659775
 20
159.25141761250001
 30
0.0
 42
-0.04015744
  0
VERTEX
  5
905
  8
CYAN
 10
149.3530687125
 20
149.98773349000001
 30
0.0
 42
-0.34498474
  0
VERTEX
  5
906
  8
CYAN
 10
148.81120329500001
 20
149.52184436249999
 30
0.0
 42
-0.34498474
  0
VERTEX
  5
907
  8
CYAN
 10
148.229036025
 20
149.9362741825
 30
0.0
 42
-0.11481731
  0
VERTEX
  5
908
  8
CYAN
 10
147.698298865
 20
160.11008172000001
 30
0.0
  0
SEQEND
  5
909
  8
CYAN
  0
POLYLINE
  5
14A
  8
CYAN
 66
     1
 10
0.0
 20
0.0
 30
0.0
 70
     1
  0
VERTEX
  5
90A
  8
CYAN
 10
11.601551035
 20
155.2567628425
 30
0.0
 42
-0.17851858
  0
VERTEX
  5
90B
  8
CYAN
 10
21.467611742500001
 20
148.64474649749999
 30
0.0
 42
-0.05882864
  0
VERTEX
  5
90C
  8
CYAN
 10
25.471347564999999
 20
142.034748165
 30
0.0
 42
0.39582796
  0
VERTEX
  5
90D
  8
CYAN
 10
29.549749832500002
 20
140.54141928000001
 30
0.0
 42
-0.00624753
  0
VERTEX
  5
90E
  8
CYAN
 10
31.619221147499999
 20
141.44347064749999
 30
0.0
  0
VERTEX
  5
90F
  8
CYAN
 10
32.097489992500002
 20
141.6301367575
 30
0.0
  0
VERTEX
  5
910
  8
CYAN
 10
26.753794195000001
 20
150.18953468999999
 30
0.0
  0
VERTEX
  5
911
  8
CYAN
 10
28.043303869999999
 20
150.99875750499999
 30
0.0
  0
VERTEX
  5
912
  8
CYAN
 10
33.489918279999998
 20
142.25269346249999
 30
0.0
 42
0.22281783
  0
VERTEX
  5
913
  8
CYAN
 10
35.270982987499998
 20
143.00472844500001
 30
0.0
 42
0.22281783
  0
VERTEX
  5
914
  8
CYAN
 10
35.831821214999998
 20
144.85491994750001
 30
0.0
 42
0.04096595
  0
VERTEX
  5
915
  8
CYAN
 10
35.916577717499997
 20
174.7578218825
 30
0.0
 42
0.19156752
  0
VERTEX
  5
916
  8
CYAN
 10
24.605620412499999
 20
218.53455636999999
 30
0.0
 42
0.39075351
  0
VERTEX
  5
917
  8
CYAN
 10
8.9095230149999995
 20
225.32113075500001
 30
0.0
 42
0.23183699
  0
VERTEX
  5
918
  8
CYAN
 10
2.6284606400000001
 20
217.78890093499999
 30
0.0
 42
0.07592106
  0
VERTEX
  5
919
  8
CYAN
 10
1.5165360249999991
 20
181.2911357575
 30
0.0
 42
0.02785853
  0
VERTEX
  5
91A
  8
CYAN
 10
0.0
 20
168.943929285
 30
0.0
 42
0.15559365
  0
VERTEX
  5
91B
  8
CYAN
 10
5.889568044999999
 20
158.12637591750001
 30
0.0
 42
0.18791782
  0
VERTEX
  5
91C
  8
CYAN
 10
11.601551035
 20
155.2567628425
 30
0.0
  0
SEQEND
  5
91D
  8
CYAN
  0
POLYLINE
  5
15F
  8
CYAN
 66
     1
 10
0.0
 20
0.0
 30
0.0
 70
     1
  0
VERTEX
  5
91E
  8
CYAN
 10
25.532896932500002
 20
175.451009005
 30
0.0
 42
0.38549323
  0
VERTEX
  5
91F
  8
CYAN
 10
26.534229012499999
 20
174.74074339000001
 30
0.0
 42
0.38549323
  0
VERTEX
  5
920
  8
CYAN
 10
27.340026685000002
 20
175.66693629
 30
0.0
 42
0.06180758
  0
VERTEX
  5
921
  8
CYAN
 10
18.072306537500001
 20
216.86666944500001
 30
0.0
 42
0.09408689
  0
VERTEX
  5
922
  8
CYAN
 10
15.0513425625
 20
221.60496164
 30
0.0
 42
0.37180676
  0
VERTEX
  5
923
  8
CYAN
 10
12.454161107499999
 20
221.88042028000001
 30
0.0
 42
0.37493687
  0
VERTEX
  5
924
  8
CYAN
 10
11.816469312500001
 20
219.33066210749999
 30
0.0
 42
-0.08319278
  0
VERTEX
  5
925
  8
CYAN
 10
25.532896932500002
 20
175.451009005
 30
0.0
  0
SEQEND
  5
926
  8
CYAN
  0
POLYLINE
  5
169
  8
CYAN
 66
     1
 10
0.0
 20
0.0
 30
0.0
 70
     1
  0
VERTEX
  5
927
  8
CYAN
 10
7.2789693125000001
 20
205.89675617
 30
0.0
 42
0.01891779
  0
VERTEX
  5
928
  8
CYAN
 10
7.886390927499999
 20
204.8483989325
 30
0.0
 42
0.04413606
  0
VERTEX
  5
929
  8
CYAN
 10
14.225975650000001
 20
196.57858572500001
 30
0.0
 42
-0.03588288
  0
VERTEX
  5
92A
  8
CYAN
 10
18.097531687499998
 20
191.705086725
 30
0.0
 42
0.36254478
  0
VERTEX
  5
92B
  8
CYAN
 10
18.814776219999999
 20
191.50183749749999
 30
0.0
 42
0.36254478
  0
VERTEX
  5
92C
  8
CYAN
 10
19.142861907499999
 20
192.17124749749999
 30
0.0
 42
0.09075393
  0
VERTEX
  5
92D
  8
CYAN
 10
7.3929869925
 20
219.07841060749999
 30
0.0
 42
0.2800927899999999
  0
VERTEX
  5
92E
  8
CYAN
 10
6.8420776249999991
 20
219.3269290575
 30
0.0
 42
0.2800927899999999
  0
VERTEX
  5
92F
  8
CYAN
 10
6.3678368924999988
 20
218.95228485749999
 30
0.0
 42
0.2135659
  0
VERTEX
  5
930
  8
CYAN
 10
7.2789693125000001
 20
205.89675617
 30
0.0
  0
SEQEND
  5
931
  8
CYAN
  0
POLYLINE
  5
175
  8
CYAN
 66
     1
 10
0.0
 20
0.0
 30
0.0
 70
     1
  0
VERTEX
  5
932
  8
CYAN
 10
6.5080887250000004
 20
162.53573215500001
 30
0.0
 42
-0.18998182
  0
VERTEX
  5
933
  8
CYAN
 10
3.4003502325000001
 20
171.7752001325
 30
0.0
 42
-0.07659866
  0
VERTEX
  5
934
  8
CYAN
 10
3.8281687799999999
 20
173.84769846500001
 30
0.0
 42
-0.35853289
  0
VERTEX
  5
935
  8
CYAN
 10
5.1691377574999988
 20
174.6185790525
 30
0.0
 42
-0.17550706
  0
VERTEX
  5
936
  8
CYAN
 10
9.4866744500000006
 20
172.17779353
 30
0.0
 42
0.12562077
  0
VERTEX
  5
937
  8
CYAN
 10
15.064459640000001
 20
163.26927952
 30
0.0
 42
-0.17371245
  0
VERTEX
  5
938
  8
CYAN
 10
16.353969312499999
 20
158.28983489000001
 30
0.0
 42
-0.24914245
  0
VERTEX
  5
939
  8
CYAN
 10
15.764450374999999
 20
157.00436576999999
 30
0.0
 42
-0.24914245
  0
VERTEX
  5
93A
  8
CYAN
 10
14.3692545025
 20
156.77329886499999
 30
0.0
 42
-0.15508428
  0
VERTEX
  5
93B
  8
CYAN
 10
6.5080887250000004
 20
162.53573215500001
 30
0.0
  0
SEQEND
  5
93C
  8
CYAN
  0
POLYLINE
  5
181
  8
CYAN
 66
     1
 10
0.0
 20
0.0
 30
0.0
 70
     1
  0
VERTEX
  5
93D
  8
CYAN
 10
25.869904937499999
 20
161.39959139499999
 30
0.0
 42
0.40088627
  0
VERTEX
  5
93E
  8
CYAN
 10
26.759719667500001
 20
160.9220080625
 30
0.0
 42
0.40088627
  0
VERTEX
  5
93F
  8
CYAN
 10
27.277468312500002
 20
161.78906771250001
 30
0.0
 42
0.13323644
  0
VERTEX
  5
940
  8
CYAN
 10
6.9096731150000004
 20
200.3966644425
 30
0.0
 42
0.40758014
  0
VERTEX
  5
941
  8
CYAN
 10
5.1516124249999988
 20
200.47748759250001
 30
0.0
 42
0.40758014
  0
VERTEX
  5
942
  8
CYAN
 10
5.0309039350000004
 20
198.721714475
 30
0.0
 42
-0.09024156
  0
VERTEX
  5
943
  8
CYAN
 10
25.869904937499999
 20
161.39959139499999
 30
0.0
  0
SEQEND
  5
944
  8
CYAN
  0
POLYLINE
  5
18A
  8
CYAN
 66
     1
 10
0.0
 20
0.0
 30
0.0
 70
     1
  0
VERTEX
  5
945
  8
CYAN
 10
8.7309289524999993
 20
176.032196465
 30
0.0
 42
-0.19341008
  0
VERTEX
  5
946
  8
CYAN
 10
4.913859239999999
 20
181.45459473
 30
0.0
 42
-0.09587046
  0
VERTEX
  5
947
  8
CYAN
 10
4.6252835225000002
 20
188.45709639750001
 30
0.0
 42
-0.25835964
  0
VERTEX
  5
948
  8
CYAN
 10
5.3776523125000004
 20
189.41022408500001
 30
0.0
 42
-0.25835964
  0
VERTEX
  5
949
  8
CYAN
 10
6.5847731825000002
 20
189.27842728499999
 30
0.0
 42
-0.10246886
  0
VERTEX
  5
94A
  8
CYAN
 10
12.189801535000001
 20
183.25869746500001
 30
0.0
 42
-0.01462409
  0
VERTEX
  5
94B
  8
CYAN
 10
15.534656437500001
 20
177.34390427
 30
0.0
 42
-0.33843341
  0
VERTEX
  5
94C
  8
CYAN
 10
14.735273755
 20
174.18305789749999
 30
0.0
 42
-0.33843341
  0
VERTEX
  5
94D
  8
CYAN
 10
11.4754252825
 20
174.12517511749999
 30
0.0
 42
0.01542708
  0
VERTEX
  5
94E
  8
CYAN
 10
8.7309289524999993
 20
176.032196465
 30
0.0
  0
SEQEND
  5
94F
  8
CYAN
  0
POLYLINE
  5
196
  8
CYAN
 66
     1
 10
0.0
 20
0.0
 30
0.0
 70
     1
  0
VERTEX
  5
950
  8
CYAN
 10
30.4296030675
 20
181.77041360999999
 30
0.0
 42
0.41424299
  0
VERTEX
  5
951
  8
CYAN
 10
31.151555177500001
 20
181.21388256750001
 30
0.0
 42
0.41424299
  0
VERTEX
  5
952
  8
CYAN
 10
31.708013675
 20
181.93589059249999
 30
0.0
 42
0.08895407
  0
VERTEX
  5
953
  8
CYAN
 10
24.5178368925
 20
214.70537858500001
 30
0.0
 42
0.39605586
  0
VERTEX
  5
954
  8
CYAN
 10
23.237762472499998
 20
215.28492049499999
 30
0.0
 42
0.39605586
  0
VERTEX
  5
955
  8
CYAN
 10
22.5795363575
 20
214.04347064749999
 30
0.0
 42
-0.01511587
  0
VERTEX
  5
956
  8
CYAN
 10
30.4296030675
 20
181.77041360999999
 30
0.0
  0
SEQEND
  5
957
  8
CYAN
  0
POLYLINE
  5
19F
  8
CYAN
 66
     1
 10
0.0
 20
0.0
 30
0.0
 70
     1
  0
VERTEX
  5
958
  8
CYAN
 10
31.692878584999999
 20
153.74123582499999
 30
0.0
 42
0.08053661
  0
VERTEX
  5
959
  8
CYAN
 10
32.650425282500002
 20
172.36849566500001
 30
0.0
 42
0.36408302
  0
VERTEX
  5
95A
  8
CYAN
 10
31.725179332500002
 20
172.984362355
 30
0.0
 42
0.36408302
  0
VERTEX
  5
95B
  8
CYAN
 10
30.958322214999999
 20
172.17981154
 30
0.0
 42
-0.03340034
  0
VERTEX
  5
95C
  8
CYAN
 10
30.040126749999999
 20
163.87670113499999
 30
0.0
 42
0.11480288
  0
VERTEX
  5
95D
  8
CYAN
 10
30.566827884999999
 20
153.70188458999999
 30
0.0
 42
0.34603708
  0
VERTEX
  5
95E
  8
CYAN
 10
31.145322542500001
 20
153.2789000475
 30
0.0
 42
0.34603708
  0
VERTEX
  5
95F
  8
CYAN
 10
31.692878584999999
 20
153.74123582499999
 30
0.0
  0
SEQEND
  5
960
  8
CYAN
  0
POLYLINE
  5
1A9
  8
CYAN
 66
     1
 10
0.0
 20
0.0
 30
0.0
 70
     1
  0
VERTEX
  5
961
  8
CYAN
 10
3.2479903275000002
 20
29.776776184999999
 30
0.0
  0
VERTEX
  5
962
  8
CYAN
 10
9.9457721825000007
 20
32.064192794999997
 30
0.0
  0
VERTEX
  5
963
  8
CYAN
 10
9.4533772524999993
 20
33.505053369999999
 30
0.0
  0
VERTEX
  5
964
  8
CYAN
 10
2.748532355
 20
31.213600735
 30
0.0
 42
-0.22938868
  0
VERTEX
  5
965
  8
CYAN
 10
2.4613331275000001
 20
33.635525819999998
 30
0.0
 42
-0.22938868
  0
VERTEX
  5
966
  8
CYAN
 10
4.1833388925000001
 20
35.362633422499997
 30
0.0
 42
-0.0553845
  0
VERTEX
  5
967
  8
CYAN
 10
9.2384589725000001
 20
37.359456305000002
 30
0.0
 42
0.21979875
  0
VERTEX
  5
968
  8
CYAN
 10
13.623599065000001
 20
46.16807871999999
 30
0.0
  0
VERTEX
  5
969
  8
CYAN
 10
13.606445965000001
 20
46.546455969999997
 30
0.0
 42
0.21162992
  0
VERTEX
  5
96A
  8
CYAN
 10
9.2384589725000001
 20
54.988809205000003
 30
0.0
 42
-0.0553845
  0
VERTEX
  5
96B
  8
CYAN
 10
4.1833388925000001
 20
56.985632087500001
 30
0.0
 42
-0.2298108
  0
VERTEX
  5
96C
  8
CYAN
 10
2.463284794999999
 20
58.711480022499991
 30
0.0
 42
-0.2298108
  0
VERTEX
  5
96D
  8
CYAN
 10
2.7545863900000001
 20
61.130628752500002
 30
0.0
  0
VERTEX
  5
96E
  8
CYAN
 10
9.4533772524999993
 20
58.843212142500001
 30
0.0
  0
VERTEX
  5
96F
  8
CYAN
 10
9.9457721825000007
 20
60.284072715000001
 30
0.0
  0
VERTEX
  5
970
  8
CYAN
 10
3.2419362899999991
 20
62.572498332499997
 30
0.0
 42
-0.22913862
  0
VERTEX
  5
971
  8
CYAN
 10
4.4968087074999987
 20
64.660434207500003
 30
0.0
 42
-0.22913862
  0
VERTEX
  5
972
  8
CYAN
 10
6.9127001325000004
 20
64.972923614999999
 30
0.0
  0
VERTEX
  5
973
  8
CYAN
 10
14.1028769175
 20
62.513975985000002
 30
0.0
 42
0.14457
  0
VERTEX
  5
974
  8
CYAN
 10
19.184231154999999
 20
63.140568712499999
 30
0.0
  0
VERTEX
  5
975
  8
CYAN
 10
23.695496997500001
 20
58.918887592499999
 30
0.0
  0
VERTEX
  5
976
  8
CYAN
 10
24.731746165000001
 20
60.031821215000001
 30
0.0
  0
VERTEX
  5
977
  8
CYAN
 10
20.22048032
 20
64.252493329999993
 30
0.0
  0
VERTEX
  5
978
  8
CYAN
 10
21.851034022499999
 20
65.983947632500005
 30
0.0
 42
-0.20451185
  0
VERTEX
  5
979
  8
CYAN
 10
22.755268905000001
 20
66.384856427499997
 30
0.0
 42
-0.20451185
  0
VERTEX
  5
97A
  8
CYAN
 10
23.6702718475
 20
66.009172782500002
 30
0.0
  0
VERTEX
  5
97B
  8
CYAN
 10
29.1431204125
 20
60.435423614999998
 30
0.0
 42
0.4157080500000001
  0
VERTEX
  5
97C
  8
CYAN
 10
38.860857237499999
 20
60.372865242499991
 30
0.0
  0
VERTEX
  5
97D
  8
CYAN
 10
41.060490327499991
 20
62.508930954999997
 30
0.0
 42
-0.34735841
  0
VERTEX
  5
97E
  8
CYAN
 10
45.988475649999991
 20
63.140568712499999
 30
0.0
  0
VERTEX
  5
97F
  8
CYAN
 10
42.437783522499991
 20
57.845305202500001
 30
0.0
  0
VERTEX
  5
980
  8
CYAN
 10
43.70105903999999
 20
57.010857237499998
 30
0.0
  0
VERTEX
  5
981
  8
CYAN
 10
47.25276017249999
 20
62.306120747500003
 30
0.0
 42
-0.34763047
  0
VERTEX
  5
982
  8
CYAN
 10
48.542269847500002
 20
57.504261175000003
 30
0.0
  0
VERTEX
  5
983
  8
CYAN
 10
47.392003002499997
 20
54.647765177499991
 30
0.0
 42
0.16903174
  0
VERTEX
  5
984
  8
CYAN
 10
48.858088725000002
 20
46.925842227499992
 30
0.0
  0
VERTEX
  5
985
  8
CYAN
 10
30.57086391
 20
46.925842227499992
 30
0.0
  0
VERTEX
  5
986
  8
CYAN
 10
30.57086391
 20
45.409306205
 30
0.0
  0
VERTEX
  5
987
  8
CYAN
 10
48.851025685000003
 20
45.413342227500003
 30
0.0
 42
0.16877805
  0
VERTEX
  5
988
  8
CYAN
 10
47.392003002499997
 20
37.700500332499999
 30
0.0
  0
VERTEX
  5
989
  8
CYAN
 10
48.536215810000002
 20
34.841986325000001
 30
0.0
 42
-0.31285202
  0
VERTEX
  5
98A
  8
CYAN
 10
47.640218480000001
 20
30.370071715000002
 30
0.0
  0
VERTEX
  5
98B
  8
CYAN
 10
47.232580052499991
 20
30.0714059375
 30
0.0
  0
VERTEX
  5
98C
  8
CYAN
 10
43.70105903999999
 20
35.337408272499999
 30
0.0
  0
VERTEX
  5
98D
  8
CYAN
 10
42.437783522499991
 20
34.502960307499997
 30
0.0
  0
VERTEX
  5
98E
  8
CYAN
 10
45.988475649999991
 20
29.207696797499999
 30
0.0
 42
-0.34674099
  0
VERTEX
  5
98F
  8
CYAN
 10
41.060490327499991
 20
29.839334557499999
 30
0.0
  0
VERTEX
  5
990
  8
CYAN
 10
38.860857237499999
 20
31.9754002675
 30
0.0
 42
0.41573885
  0
VERTEX
  5
991
  8
CYAN
 10
29.1431204125
 20
31.911832887500001
 30
0.0
  0
VERTEX
  5
992
  8
CYAN
 10
23.6702718475
 20
26.339092727499999
 30
0.0
 42
-0.20436129
  0
VERTEX
  5
993
  8
CYAN
 10
22.755273214999999
 20
25.9637198625
 30
0.0
 42
-0.20436129
  0
VERTEX
  5
994
  8
CYAN
 10
21.851034022499999
 20
26.3643178775
 30
0.0
  0
VERTEX
  5
995
  8
CYAN
 10
20.22048032
 20
28.095772182499999
 30
0.0
  0
VERTEX
  5
996
  8
CYAN
 10
24.731746165000001
 20
32.316444294999997
 30
0.0
  0
VERTEX
  5
997
  8
CYAN
 10
23.695496997500001
 20
33.428368912499998
 30
0.0
  0
VERTEX
  5
998
  8
CYAN
 10
19.181204135000002
 20
29.200633754999998
 30
0.0
 42
0.14457563
  0
VERTEX
  5
999
  8
CYAN
 10
14.103885925
 20
29.827226485000001
 30
0.0
  0
VERTEX
  5
99A
  8
CYAN
 10
6.910682122499999
 20
27.380386925
 30
0.0
 42
-0.22914515
  0
VERTEX
  5
99B
  8
CYAN
 10
4.4997844450000004
 20
27.692782412500001
 30
0.0
 42
-0.22914515
  0
VERTEX
  5
99C
  8
CYAN
 10
3.2479903275000002
 20
29.776776184999999
 30
0.0
  0
SEQEND
  5
99D
  8
CYAN
  0
POLYLINE
  5
1E7
  8
CYAN
 66
     1
 10
0.0
 20
0.0
 30
0.0
 70
     1
  0
VERTEX
  5
99E
  8
CYAN
 10
155.776400935
 20
117.6702801875
 30
0.0
 42
0.19751874
  0
VERTEX
  5
99F
  8
CYAN
 10
192.03704970000001
 20
106.80933956
 30
0.0
 42
0.22818605
  0
VERTEX
  5
9A0
  8
CYAN
 10
195.5499062625
 20
108.9517667925
 30
0.0
 42
0.22818605
  0
VERTEX
  5
9A1
  8
CYAN
 10
196.066010675
 20
113.0338975975
 30
0.0
 42
-0.07364012
  0
VERTEX
  5
9A2
  8
CYAN
 10
194.20943962749999
 20
123.52352401500001
 30
0.0
  0
VERTEX
  5
9A3
  8
CYAN
 10
179.54959139499999
 20
123.52352401500001
 30
0.0
  0
VERTEX
  5
9A4
  8
CYAN
 10
179.54959139499999
 20
125.04006004
 30
0.0
  0
VERTEX
  5
9A5
  8
CYAN
 10
194.20943962749999
 20
125.04006004
 30
0.0
 42
-0.00734718
  0
VERTEX
  5
9A6
  8
CYAN
 10
194.22053869250001
 20
125.5445630425
 30
0.0
 42
-0.07427623
  0
VERTEX
  5
9A7
  8
CYAN
 10
196.1376501
 20
135.8051450975
 30
0.0
 42
0.22307879
  0
VERTEX
  5
9A8
  8
CYAN
 10
195.707462655
 20
139.809208985
 30
0.0
 42
0.22307879
  0
VERTEX
  5
9A9
  8
CYAN
 10
192.3518595724999
 20
142.03575717250001
 30
0.0
 42
0.24449222
  0
VERTEX
  5
9AA
  8
CYAN
 10
155.47470813999999
 20
129.31118245499999
 30
0.0
 42
0.1921427
  0
VERTEX
  5
9AB
  8
CYAN
 10
154.60292695250001
 20
127.1377835225
 30
0.0
  0
VERTEX
  5
9AC
  8
CYAN
 10
154.6079719825
 20
120.1241827875
 30
0.0
 42
0.22623438
  0
VERTEX
  5
9AD
  8
CYAN
 10
155.776400935
 20
117.6702801875
 30
0.0
  0
SEQEND
  5
9AE
  8
CYAN
  0
POLYLINE
  5
1F9
  8
CYAN
 66
     1
 10
0.0
 20
0.0
 30
0.0
 70
     1
  0
VERTEX
  5
9AF
  8
CYAN
 10
62.001400934999992
 20
78.747873582500006
 30
0.0
 42
-0.26511558
  0
VERTEX
  5
9B0
  8
CYAN
 10
64.477692570000002
 20
78.326179030000006
 30
0.0
 42
-0.26511558
  0
VERTEX
  5
9B1
  8
CYAN
 10
65.375517012499984
 20
75.980170112500005
 30
0.0
 42
0.21500641
  0
VERTEX
  5
9B2
  8
CYAN
 10
66.223325404999997
 20
72.886831285
 30
0.0
 42
0.21500641
  0
VERTEX
  5
9B3
  8
CYAN
 10
69.102785190000006
 20
71.473949300000001
 30
0.0
  0
VERTEX
  5
9B4
  8
CYAN
 10
69.773774182500006
 20
81.364226149999979
 30
0.0
  0
VERTEX
  5
9B5
  8
CYAN
 10
71.277193130000001
 20
81.186641094999999
 30
0.0
  0
VERTEX
  5
9B6
  8
CYAN
 10
70.632438292499998
 20
71.468904269999996
 30
0.0
 42
0.2163565
  0
VERTEX
  5
9B7
  8
CYAN
 10
74.348607404999996
 20
73.844104402499994
 30
0.0
 42
0.19287232
  0
VERTEX
  5
9B8
  8
CYAN
 10
76.332313209999995
 20
88.769321215000005
 30
0.0
 42
-0.15252575
  0
VERTEX
  5
9B9
  8
CYAN
 10
75.231487657499997
 20
94.772906937499997
 30
0.0
  0
VERTEX
  5
9BA
  8
CYAN
 10
75.232496664999985
 20
95.152293194999984
 30
0.0
  0
VERTEX
  5
9BB
  8
CYAN
 10
75.232496664999985
 20
112.50316044
 30
0.0
 42
0.20316808
  0
VERTEX
  5
9BC
  8
CYAN
 10
70.948257172500007
 20
119.4289776525
 30
0.0
 42
0.09738112
  0
VERTEX
  5
9BD
  8
CYAN
 10
66.992953635000006
 20
120.286632755
 30
0.0
  0
VERTEX
  5
9BE
  8
CYAN
 10
64.275700467500002
 20
101.79962475000001
 30
0.0
  0
VERTEX
  5
9BF
  8
CYAN
 10
62.77228152
 20
102.0145430275
 30
0.0
  0
VERTEX
  5
9C0
  8
CYAN
 10
65.4633005325
 20
120.36432621749999
 30
0.0
  0
VERTEX
  5
9C1
  8
CYAN
 10
64.955770512499996
 20
120.37744329500001
 30
0.0
 42
0.05176089
  0
VERTEX
  5
9C2
  8
CYAN
 10
56.882713475000003
 20
119.6963642425
 30
0.0
 42
0.22081156
  0
VERTEX
  5
9C3
  8
CYAN
 10
48.8701967975
 20
112.27613409
 30
0.0
 42
0.13405998
  0
VERTEX
  5
9C4
  8
CYAN
 10
49.581546029999998
 20
81.436874582499996
 30
0.0
 42
0.39022496
  0
VERTEX
  5
9C5
  8
CYAN
 10
58.031971315
 20
77.361499332500003
 30
0.0
  0
VERTEX
  5
9C6
  8
CYAN
 10
62.001400934999992
 20
78.747873582500006
 30
0.0
  0
SEQEND
  5
9C7
  8
CYAN
  0
POLYLINE
  5
213
  8
CYAN
 66
     1
 10
0.0
 20
0.0
 30
0.0
 70
     1
  0
VERTEX
  5
9C8
  8
CYAN
 10
53.156454302500002
 20
51.564242827500003
 30
0.0
 42
0.00265956
  0
VERTEX
  5
9C9
  8
CYAN
 10
53.15443629
 20
33.832980319999997
 30
0.0
 42
0.20313683
  0
VERTEX
  5
9CA
  8
CYAN
 10
57.438675785000001
 20
26.908172114999999
 30
0.0
 42
0.09738328
  0
VERTEX
  5
9CB
  8
CYAN
 10
61.39397932
 20
26.048499
 30
0.0
  0
VERTEX
  5
9CC
  8
CYAN
 10
64.111232487500004
 20
44.537525017500002
 30
0.0
  0
VERTEX
  5
9CD
  8
CYAN
 10
65.615660439999999
 20
44.322606737500003
 30
0.0
  0
VERTEX
  5
9CE
  8
CYAN
 10
62.923632422499999
 20
25.972823550000001
 30
0.0
 42
0.05500662
  0
VERTEX
  5
9CF
  8
CYAN
 10
71.504219480000003
 20
26.642803534999999
 30
0.0
 42
0.22074982
  0
VERTEX
  5
9D0
  8
CYAN
 10
79.508664109999984
 20
34.064042694999998
 30
0.0
 42
0.05886859
  0
VERTEX
  5
9D1
  8
CYAN
 10
81.162424949999988
 20
48.194162775000002
 30
0.0
  0
VERTEX
  5
9D2
  8
CYAN
 10
81.159397932499985
 20
48.69866577749999
 30
0.0
 42
0.0678149
  0
VERTEX
  5
9D3
  8
CYAN
 10
78.796305869999998
 20
64.897248164999993
 30
0.0
 42
0.39068273
  0
VERTEX
  5
9D4
  8
CYAN
 10
70.354961639999999
 20
68.978677452499994
 30
0.0
  0
VERTEX
  5
9D5
  8
CYAN
 10
66.3986491
 20
67.601384254999999
 30
0.0
 42
-0.26563084
  0
VERTEX
  5
9D6
  8
CYAN
 10
63.91547478999999
 20
68.009968845000003
 30
0.0
 42
-0.26563084
  0
VERTEX
  5
9D7
  8
CYAN
 10
63.007379919999998
 20
70.356979652500002
 30
0.0
 42
0.2149216
  0
VERTEX
  5
9D8
  8
CYAN
 10
62.1593311775
 20
73.4450095025
 30
0.0
 42
0.2149216
  0
VERTEX
  5
9D9
  8
CYAN
 10
59.284147765
 20
74.85512842
 30
0.0
  0
VERTEX
  5
9DA
  8
CYAN
 10
58.614167777500001
 20
64.972923614999999
 30
0.0
  0
VERTEX
  5
9DB
  8
CYAN
 10
57.1097398275
 20
65.149499667499995
 30
0.0
  0
VERTEX
  5
9DC
  8
CYAN
 10
57.76761174
 20
74.868245497499998
 30
0.0
 42
0.21690454
  0
VERTEX
  5
9DD
  8
CYAN
 10
54.039334557499991
 20
72.492036357499984
 30
0.0
 42
0.19290453
  0
VERTEX
  5
9DE
  8
CYAN
 10
52.049574717500001
 20
57.565810540000001
 30
0.0
 42
-0.15258631
  0
VERTEX
  5
9DF
  8
CYAN
 10
53.156454302500002
 20
51.564242827500003
 30
0.0
  0
SEQEND
  5
9E0
  8
CYAN
  0
POLYLINE
  5
22D
  8
CYAN
 66
     1
 10
0.0
 20
0.0
 30
0.0
 70
     1
  0
VERTEX
  5
9E1
  8
CYAN
 10
146.7498332225
 20
45.978385590000002
 30
0.0
 42
-0.17684919
  0
VERTEX
  5
9E2
  8
CYAN
 10
143.9266344225
 20
70.11784523
 30
0.0
 42
-0.36786433
  0
VERTEX
  5
9E3
  8
CYAN
 10
145.59224157
 20
71.304579072500005
 30
0.0
 42
-0.36786433
  0
VERTEX
  5
9E4
  8
CYAN
 10
147.03033689
 20
69.850458639999985
 30
0.0
  0
VERTEX
  5
9E5
  8
CYAN
 10
147.58428118750001
 20
62.015527017499991
 30
0.0
  0
VERTEX
  5
9E6
  8
CYAN
 10
149.0877001325
 20
62.116427617500001
 30
0.0
  0
VERTEX
  5
9E7
  8
CYAN
 10
148.00100066749999
 20
77.862975317500002
 30
0.0
 42
-0.25037606
  0
VERTEX
  5
9E8
  8
CYAN
 10
152.30875466750001
 20
78.921843782500005
 30
0.0
 42
-0.25037606
  0
VERTEX
  5
9E9
  8
CYAN
 10
155.58368078749999
 20
75.929719812499997
 30
0.0
  0
VERTEX
  5
9EA
  8
CYAN
 10
157.55527852
 20
70.343862575000003
 30
0.0
 42
0.21513708
  0
VERTEX
  5
9EB
  8
CYAN
 10
161.159447965
 20
66.576234154999995
 30
0.0
 42
0.01316576
  0
VERTEX
  5
9EC
  8
CYAN
 10
161.66294196250001
 20
66.388559040000004
 30
0.0
  0
VERTEX
  5
9ED
  8
CYAN
 10
161.6245997325
 20
56.644588057500002
 30
0.0
  0
VERTEX
  5
9EE
  8
CYAN
 10
163.1411357575
 20
56.644588057500002
 30
0.0
  0
VERTEX
  5
9EF
  8
CYAN
 10
163.11591060750001
 20
66.388559040000004
 30
0.0
 42
0.23713081
  0
VERTEX
  5
9F0
  8
CYAN
 10
167.2104569725
 20
70.343862575000003
 30
0.0
  0
VERTEX
  5
9F1
  8
CYAN
 10
169.19517178000001
 20
75.929719812499997
 30
0.0
 42
-0.24996372
  0
VERTEX
  5
9F2
  8
CYAN
 10
172.46450329000001
 20
78.914565725000003
 30
0.0
 42
-0.24996372
  0
VERTEX
  5
9F3
  8
CYAN
 10
176.7647348225
 20
77.862975317500002
 30
0.0
  0
VERTEX
  5
9F4
  8
CYAN
 10
175.67803535749999
 20
62.116427617500001
 30
0.0
  0
VERTEX
  5
9F5
  8
CYAN
 10
177.19457138000001
 20
62.015527017499991
 30
0.0
  0
VERTEX
  5
9F6
  8
CYAN
 10
177.73842561750001
 20
69.851467645
 30
0.0
 42
-0.36418091
  0
VERTEX
  5
9F7
  8
CYAN
 10
179.18137988000001
 20
71.289412145
 30
0.0
 42
-0.36418091
  0
VERTEX
  5
9F8
  8
CYAN
 10
180.847173115
 20
70.116836225
 30
0.0
 42
-0.17687821
  0
VERTEX
  5
9F9
  8
CYAN
 10
178.0159022675
 20
45.978385590000002
 30
0.0
 42
-0.35987132
  0
VERTEX
  5
9FA
  8
CYAN
 10
166.95618745749999
 20
41.120021680000001
 30
0.0
 42
0.13990213
  0
VERTEX
  5
9FB
  8
CYAN
 10
157.8206470975
 20
41.125066709999999
 30
0.0
 42
-0.36029651
  0
VERTEX
  5
9FC
  8
CYAN
 10
146.7498332225
 20
45.978385590000002
 30
0.0
  0
SEQEND
  5
9FD
  8
CYAN
  0
POLYLINE
  5
24B
  8
CYAN
 66
     1
 10
0.0
 20
0.0
 30
0.0
 70
     1
  0
VERTEX
  5
9FE
  8
CYAN
 10
10.612725149999999
 20
70.4659523025
 30
0.0
 42
-0.23427032
  0
VERTEX
  5
9FF
  8
CYAN
 10
2.3277768524999991
 20
90.766144095000016
 30
0.0
 42
-0.29643809
  0
VERTEX
  5
A00
  8
CYAN
 10
9.1375583724999991
 20
101.3193378925
 30
0.0
 42
-0.08574172
  0
VERTEX
  5
A01
  8
CYAN
 10
20.916694462500001
 20
102.9539276175
 30
0.0
  0
VERTEX
  5
A02
  8
CYAN
 10
21.421197464999999
 20
102.94787358249999
 30
0.0
  0
VERTEX
  5
A03
  8
CYAN
 10
21.421197464999999
 20
91.562249832500001
 30
0.0
  0
VERTEX
  5
A04
  8
CYAN
 10
22.937733489999999
 20
91.562249832500001
 30
0.0
  0
VERTEX
  5
A05
  8
CYAN
 10
22.936724482500001
 20
102.93172948749999
 30
0.0
 42
-0.08930923
  0
VERTEX
  5
A06
  8
CYAN
 10
35.205228484999999
 20
101.31025683750001
 30
0.0
 42
-0.2964164
  0
VERTEX
  5
A07
  8
CYAN
 10
42.007946965000002
 20
90.766144095000016
 30
0.0
 42
-0.23436774
  0
VERTEX
  5
A08
  8
CYAN
 10
33.734097732499997
 20
70.480078384999999
 30
0.0
 42
-0.34382123
  0
VERTEX
  5
A09
  8
CYAN
 10
32.498461612500002
 20
70.392706469999993
 30
0.0
 42
-0.34382123
  0
VERTEX
  5
A0A
  8
CYAN
 10
32.112625082500003
 20
71.569804869999999
 30
0.0
  0
VERTEX
  5
A0B
  8
CYAN
 10
38.1404269525
 20
88.529177785000002
 30
0.0
  0
VERTEX
  5
A0C
  8
CYAN
 10
36.712683454999997
 20
89.034689792500004
 30
0.0
  0
VERTEX
  5
A0D
  8
CYAN
 10
30.0270096725
 20
70.229844897500001
 30
0.0
  0
VERTEX
  5
A0E
  8
CYAN
 10
26.046480987500001
 20
69.586099064999999
 30
0.0
  0
VERTEX
  5
A0F
  8
CYAN
 10
29.484164442499999
 20
85.547565042499997
 30
0.0
  0
VERTEX
  5
A10
  8
CYAN
 10
28.004961640000001
 20
85.863383922500006
 30
0.0
  0
VERTEX
  5
A11
  8
CYAN
 10
24.732755170000001
 20
70.725266844999993
 30
0.0
 42
-0.35311736
  0
VERTEX
  5
A12
  8
CYAN
 10
22.167667009999999
 20
68.653982012499995
 30
0.0
 42
-0.35311736
  0
VERTEX
  5
A13
  8
CYAN
 10
19.600950635
 20
70.723248832500005
 30
0.0
  0
VERTEX
  5
A14
  8
CYAN
 10
16.340852235
 20
85.863383922500006
 30
0.0
  0
VERTEX
  5
A15
  8
CYAN
 10
14.8616494325
 20
85.547565042499997
 30
0.0
  0
VERTEX
  5
A16
  8
CYAN
 10
18.2993328875
 20
69.586099064999999
 30
0.0
  0
VERTEX
  5
A17
  8
CYAN
 10
14.318804202500001
 20
70.229844897500001
 30
0.0
  0
VERTEX
  5
A18
  8
CYAN
 10
7.6331304199999988
 20
89.034689792500004
 30
0.0
  0
VERTEX
  5
A19
  8
CYAN
 10
6.2053869249999991
 20
88.529177785000002
 30
0.0
  0
VERTEX
  5
A1A
  8
CYAN
 10
12.2331887925
 20
71.569804869999999
 30
0.0
 42
-0.33749961
  0
VERTEX
  5
A1B
  8
CYAN
 10
11.843397475
 20
70.400668850000002
 30
0.0
 42
-0.33749961
  0
VERTEX
  5
A1C
  8
CYAN
 10
10.612725149999999
 20
70.4659523025
 30
0.0
  0
SEQEND
  5
A1D
  8
CYAN
  0
POLYLINE
  5
26C
  8
CYAN
 66
     1
 10
0.0
 20
0.0
 30
0.0
 70
     1
  0
VERTEX
  5
A1E
  8
CYAN
 10
95.251175784999987
 20
173.5591227475
 30
0.0
 42
-0.18755345
  0
VERTEX
  5
A1F
  8
CYAN
 10
103.23846731250001
 20
173.25137591750001
 30
0.0
 42
0.09317286
  0
VERTEX
  5
A20
  8
CYAN
 10
104.94469646500001
 20
172.85988158750001
 30
0.0
  0
VERTEX
  5
A21
  8
CYAN
 10
107.4389593075
 20
172.75797198250001
 30
0.0
 42
0.26533932
  0
VERTEX
  5
A22
  8
CYAN
 10
111.60918112
 20
174.93036190749999
 30
0.0
 42
0.19943659
  0
VERTEX
  5
A23
  8
CYAN
 10
115.5513675775
 20
196.61793695750001
 30
0.0
 42
0.21200935
  0
VERTEX
  5
A24
  8
CYAN
 10
113.2816807625
 20
199.726148435
 30
0.0
 42
0.21200935
  0
VERTEX
  5
A25
  8
CYAN
 10
109.4539442975
 20
200.12725983999999
 30
0.0
 42
-0.06298175
  0
VERTEX
  5
A26
  8
CYAN
 10
100.4394846575
 20
198.4169946625
 30
0.0
  0
VERTEX
  5
A27
  8
CYAN
 10
99.934981655000001
 20
198.41295864
 30
0.0
  0
VERTEX
  5
A28
  8
CYAN
 10
99.934981655000001
 20
187.50257671750001
 30
0.0
  0
VERTEX
  5
A29
  8
CYAN
 10
98.421472647499996
 20
187.50257671750001
 30
0.0
  0
VERTEX
  5
A2A
  8
CYAN
 10
98.421472647499996
 20
198.4169946625
 30
0.0
 42
-0.07394963
  0
VERTEX
  5
A2B
  8
CYAN
 10
88.313250499999995
 20
199.74989159500001
 30
0.0
 42
0.22460066
  0
VERTEX
  5
A2C
  8
CYAN
 10
84.306213049999997
 20
199.09065548999999
 30
0.0
 42
0.22460066
  0
VERTEX
  5
A2D
  8
CYAN
 10
82.274349567499996
 20
195.57462475
 30
0.0
 42
0.1450341
  0
VERTEX
  5
A2E
  8
CYAN
 10
86.420355237500004
 20
175.89799866499999
 30
0.0
 42
0.26523041
  0
VERTEX
  5
A2F
  8
CYAN
 10
90.412991994999999
 20
173.425933955
 30
0.0
  0
VERTEX
  5
A30
  8
CYAN
 10
93.526784522499995
 20
173.29980820500001
 30
0.0
 42
0.09498745
  0
VERTEX
  5
A31
  8
CYAN
 10
95.251175784999987
 20
173.5591227475
 30
0.0
  0
SEQEND
  5
A32
  8
CYAN
  0
POLYLINE
  5
282
  8
CYAN
 66
     1
 10
0.0
 20
0.0
 30
0.0
 70
     1
  0
VERTEX
  5
A33
  8
CYAN
 10
2.336857905
 20
16.658689124999999
 30
0.0
 42
0.31201392
  0
VERTEX
  5
A34
  8
CYAN
 10
15.236577434999999
 20
0.9234739775000002
 30
0.0
 42
0.31201392
  0
VERTEX
  5
A35
  8
CYAN
 10
34.5140593725
 20
7.4333472325000001
 30
0.0
 42
0.18503482
  0
VERTEX
  5
A36
  8
CYAN
 10
37.177835222500001
 20
17.567803534999999
 30
0.0
  0
VERTEX
  5
A37
  8
CYAN
 10
37.11325884
 20
17.947189792500001
 30
0.0
  0
VERTEX
  5
A38
  8
CYAN
 10
22.255645430000001
 20
17.947189792500001
 30
0.0
  0
VERTEX
  5
A39
  8
CYAN
 10
22.255645430000001
 20
19.463725817499999
 30
0.0
  0
VERTEX
  5
A3A
  8
CYAN
 10
36.577476650000001
 20
19.463725817499999
 30
0.0
  0
VERTEX
  5
A3B
  8
CYAN
 10
36.577476650000001
 20
19.96822882
 30
0.0
 42
0.14575276
  0
VERTEX
  5
A3C
  8
CYAN
 10
35.3727234825
 20
20.980261840000001
 30
0.0
 42
0.15806454
  0
VERTEX
  5
A3D
  8
CYAN
 10
5.7856404274999989
 20
21.721881255
 30
0.0
 42
0.35385256
  0
VERTEX
  5
A3E
  8
CYAN
 10
2.336857905
 20
16.658689124999999
 30
0.0
  0
SEQEND
  5
A3F
  8
CYAN
  0
POLYLINE
  5
290
  8
CYAN
 66
     1
 10
0.0
 20
0.0
 30
0.0
 70
     1
  0
VERTEX
  5
A40
  8
CYAN
 10
41.77991160749999
 20
16.658689124999999
 30
0.0
 42
0.31189002
  0
VERTEX
  5
A41
  8
CYAN
 10
54.680665842499991
 20
0.9291912175
 30
0.0
 42
0.31189002
  0
VERTEX
  5
A42
  8
CYAN
 10
73.956104069999995
 20
7.4333472325000001
 30
0.0
 42
0.18503482
  0
VERTEX
  5
A43
  8
CYAN
 10
76.619879920000002
 20
17.567803534999999
 30
0.0
  0
VERTEX
  5
A44
  8
CYAN
 10
76.571447632499996
 20
17.947189792500001
 30
0.0
  0
VERTEX
  5
A45
  8
CYAN
 10
61.697690127500003
 20
17.947189792500001
 30
0.0
  0
VERTEX
  5
A46
  8
CYAN
 10
61.697690127500003
 20
19.463725817499999
 30
0.0
  0
VERTEX
  5
A47
  8
CYAN
 10
76.019521347500003
 20
19.463725817499999
 30
0.0
  0
VERTEX
  5
A48
  8
CYAN
 10
76.019521347500003
 20
19.96822882
 30
0.0
 42
0.14562619
  0
VERTEX
  5
A49
  8
CYAN
 10
74.815777185000002
 20
20.980261840000001
 30
0.0
 42
0.15806454
  0
VERTEX
  5
A4A
  8
CYAN
 10
45.228694130000001
 20
21.721881255
 30
0.0
 42
0.35316267
  0
VERTEX
  5
A4B
  8
CYAN
 10
41.77991160749999
 20
16.658689124999999
 30
0.0
  0
SEQEND
  5
A4C
  8
CYAN
  0
POLYLINE
  5
29E
  8
CYAN
 66
     1
 10
0.0
 20
0.0
 30
0.0
 70
     1
  0
VERTEX
  5
A4D
  8
CYAN
 10
161.4944379575
 20
180.5737324875
 30
0.0
 42
0.30504057
  0
VERTEX
  5
A4E
  8
CYAN
 10
163.95621316
 20
180.33350322999999
 30
0.0
 42
0.30504057
  0
VERTEX
  5
A4F
  8
CYAN
 10
165.1066794525
 20
182.52313208749999
 30
0.0
 42
0.03997039
  0
VERTEX
  5
A50
  8
CYAN
 10
164.0956554375
 20
187.99396264250001
 30
0.0
 42
0.03489365
  0
VERTEX
  5
A51
  8
CYAN
 10
164.00080887249999
 20
188.364267845
 30
0.0
 42
-0.23437744
  0
VERTEX
  5
A52
  8
CYAN
 10
165.07685599499999
 20
196.03345039000001
 30
0.0
 42
-0.23437744
  0
VERTEX
  5
A53
  8
CYAN
 10
171.83372248250001
 20
199.81749499750001
 30
0.0
  0
VERTEX
  5
A54
  8
CYAN
 10
171.83372248250001
 20
204.17337391500001
 30
0.0
  0
VERTEX
  5
A55
  8
CYAN
 10
173.34723148750001
 20
204.17337391500001
 30
0.0
  0
VERTEX
  5
A56
  8
CYAN
 10
173.34723148750001
 20
199.81749499750001
 30
0.0
 42
-0.23437262
  0
VERTEX
  5
A57
  8
CYAN
 10
180.10453730750001
 20
196.0336560474999
 30
0.0
 42
-0.23437262
  0
VERTEX
  5
A58
  8
CYAN
 10
181.18115410249999
 20
188.364267845
 30
0.0
 42
0.0349061
  0
VERTEX
  5
A59
  8
CYAN
 10
181.08630753750001
 20
187.99396264250001
 30
0.0
 42
0.03997153
  0
VERTEX
  5
A5A
  8
CYAN
 10
180.0752835225
 20
182.52313208749999
 30
0.0
 42
0.30509532
  0
VERTEX
  5
A5B
  8
CYAN
 10
181.22560799999999
 20
180.3332404425
 30
0.0
 42
0.30509532
  0
VERTEX
  5
A5C
  8
CYAN
 10
183.68752501750001
 20
180.5737324875
 30
0.0
 42
0.3168249
  0
VERTEX
  5
A5D
  8
CYAN
 10
189.03892369249999
 20
199.95696703749999
 30
0.0
 42
0.3168249
  0
VERTEX
  5
A5E
  8
CYAN
 10
172.59047698500001
 20
211.523982655
 30
0.0
 42
0.31683105
  0
VERTEX
  5
A5F
  8
CYAN
 10
156.14227631750001
 20
199.9567043525
 30
0.0
 42
0.31683105
  0
VERTEX
  5
A60
  8
CYAN
 10
161.4944379575
 20
180.5737324875
 30
0.0
  0
SEQEND
  5
A61
  8
CYAN
  0
POLYLINE
  5
2B4
  8
CYAN
 66
     1
 10
0.0
 20
0.0
 30
0.0
 70
     1
  0
VERTEX
  5
A62
  8
CYAN
 10
4.7514092725000001
 20
117.7106404275
 30
0.0
 42
-0.26448973
  0
VERTEX
  5
A63
  8
CYAN
 10
2.1733989325
 20
122.19668111999999
 30
0.0
  0
VERTEX
  5
A64
  8
CYAN
 10
6.4959806550000003
 20
121.70428619
 30
0.0
  0
VERTEX
  5
A65
  8
CYAN
 10
6.672556704999999
 20
123.2077051375
 30
0.0
  0
VERTEX
  5
A66
  8
CYAN
 10
2.16633589
 20
123.7394513
 30
0.0
  0
VERTEX
  5
A67
  8
CYAN
 10
2.1673448975
 20
124.2288192125
 30
0.0
 42
-0.215549
  0
VERTEX
  5
A68
  8
CYAN
 10
2.8757259949999989
 20
126.0031203975
 30
0.0
 42
-0.215549
  0
VERTEX
  5
A69
  8
CYAN
 10
4.6757338224999989
 20
126.64337058
 30
0.0
 42
0.04233126
  0
VERTEX
  5
A6A
  8
CYAN
 10
6.104486324999999
 20
126.3295697125
 30
0.0
  0
VERTEX
  5
A6B
  8
CYAN
 10
6.4697464975000001
 20
126.2841644425
 30
0.0
 42
0.07313282
  0
VERTEX
  5
A6C
  8
CYAN
 10
8.9851984649999999
 20
126.43047031250001
 30
0.0
 42
-0.34716246
  0
VERTEX
  5
A6D
  8
CYAN
 10
15.266260839999999
 20
123.90291027249999
 30
0.0
 42
0.05687603
  0
VERTEX
  5
A6E
  8
CYAN
 10
29.9008839225
 20
114.537316545
 30
0.0
 42
0.21848633
  0
VERTEX
  5
A6F
  8
CYAN
 10
33.80765820500001
 20
114.0246864975
 30
0.0
 42
0.21848633
  0
VERTEX
  5
A70
  8
CYAN
 10
36.743962642500001
 20
116.6521931275
 30
0.0
 42
-0.26252709
  0
VERTEX
  5
A71
  8
CYAN
 10
84.951242494999988
 20
151.60517011249999
 30
0.0
  0
VERTEX
  5
A72
  8
CYAN
 10
84.953260507500005
 20
151.59205303499999
 30
0.0
 42
-0.3957304
  0
VERTEX
  5
A73
  8
CYAN
 10
85.740139545000005
 20
151.01640962499999
 30
0.0
 42
-0.3957304
  0
VERTEX
  5
A74
  8
CYAN
 10
85.215602067500015
 20
150.19457972000001
 30
0.0
 42
0.23563437
  0
VERTEX
  5
A75
  8
CYAN
 10
40.667986992499991
 20
112.32658438999999
 30
0.0
 42
-0.2253601
  0
VERTEX
  5
A76
  8
CYAN
 10
35.222602142500001
 20
107.5281942325
 30
0.0
 42
-0.2253601
  0
VERTEX
  5
A77
  8
CYAN
 10
28.062474982499999
 20
108.7153519025
 30
0.0
 42
0.1216339
  0
VERTEX
  5
A78
  8
CYAN
 10
4.7514092725000001
 20
117.7106404275
 30
0.0
  0
SEQEND
  5
A79
  8
CYAN
  0
POLYLINE
  5
2CD
  8
CYAN
 66
     1
 10
0.0
 20
0.0
 30
0.0
 70
     1
  0
VERTEX
  5
A7A
  8
CYAN
 10
4.8381837900000004
 20
136.27130586999999
 30
0.0
 42
-0.12158983
  0
VERTEX
  5
A7B
  8
CYAN
 10
28.142186457499999
 20
127.28711641
 30
0.0
 42
0.22573579
  0
VERTEX
  5
A7C
  8
CYAN
 10
35.305723295
 20
126.0904717725
 30
0.0
 42
0.22573579
  0
VERTEX
  5
A7D
  8
CYAN
 10
40.753752502499999
 20
130.89330387000001
 30
0.0
 42
-0.23557502
  0
VERTEX
  5
A7E
  8
CYAN
 10
85.292286524999994
 20
168.75625417000001
 30
0.0
 42
0.39315718
  0
VERTEX
  5
A7F
  8
CYAN
 10
85.819830222500002
 20
169.57536004249999
 30
0.0
 42
0.39315718
  0
VERTEX
  5
A80
  8
CYAN
 10
85.041044029999995
 20
170.16079052750001
 30
0.0
  0
VERTEX
  5
A81
  8
CYAN
 10
85.040035022500007
 20
170.16987158000001
 30
0.0
 42
0.26256318
  0
VERTEX
  5
A82
  8
CYAN
 10
36.826701135
 20
135.2138675775
 30
0.0
 42
-0.21824184
  0
VERTEX
  5
A83
  8
CYAN
 10
33.885574210000001
 20
132.5881886075
 30
0.0
 42
-0.21824184
  0
VERTEX
  5
A84
  8
CYAN
 10
29.976559372499999
 20
133.1020180125
 30
0.0
 42
-0.0568754
  0
VERTEX
  5
A85
  8
CYAN
 10
15.34193629
 20
142.46761174
 30
0.0
 42
0.34644606
  0
VERTEX
  5
A86
  8
CYAN
 10
9.0739909950000008
 20
144.99517177999999
 30
0.0
 42
-0.07313282
  0
VERTEX
  5
A87
  8
CYAN
 10
6.5585390249999991
 20
144.84886591
 30
0.0
  0
VERTEX
  5
A88
  8
CYAN
 10
6.1801617750000002
 20
144.89427118
 30
0.0
 42
-0.0419927
  0
VERTEX
  5
A89
  8
CYAN
 10
4.7625083400000001
 20
145.20504503000001
 30
0.0
 42
0.21586261
  0
VERTEX
  5
A8A
  8
CYAN
 10
2.9628662800000001
 20
144.56574801249999
 30
0.0
 42
0.21586261
  0
VERTEX
  5
A8B
  8
CYAN
 10
2.256137424999999
 20
142.7915026675
 30
0.0
  0
VERTEX
  5
A8C
  8
CYAN
 10
2.259164442499999
 20
142.28195463750001
 30
0.0
 42
-0.00675691
  0
VERTEX
  5
A8D
  8
CYAN
 10
6.7613492324999989
 20
141.77240660499999
 30
0.0
  0
VERTEX
  5
A8E
  8
CYAN
 10
6.5847731825000002
 20
140.26898765749999
 30
0.0
  0
VERTEX
  5
A8F
  8
CYAN
 10
2.249074382499999
 20
140.76138258750001
 30
0.0
 42
0.26503264
  0
VERTEX
  5
A90
  8
CYAN
 10
4.8381837900000004
 20
136.27130586999999
 30
0.0
  0
SEQEND
  5
A91
  8
CYAN
  0
POLYLINE
  5
2E6
  8
CYAN
 66
     1
 10
0.0
 20
0.0
 30
0.0
 70
     1
  0
VERTEX
  5
A92
  8
CYAN
 10
177.88372248249999
 20
147.85368578999999
 30
0.0
 42
0.29142928
  0
VERTEX
  5
A93
  8
CYAN
 10
193.4695394375
 20
157.79193531499999
 30
0.0
 42
0.29142928
  0
VERTEX
  5
A94
  8
CYAN
 10
191.05225984
 20
176.11796197499999
 30
0.0
 42
0.2985939
  0
VERTEX
  5
A95
  8
CYAN
 10
188.69343238249999
 20
176.827719935
 30
0.0
 42
0.2985939
  0
VERTEX
  5
A96
  8
CYAN
 10
187.10200133500001
 20
174.94751500999999
 30
0.0
 42
0.01330811
  0
VERTEX
  5
A97
  8
CYAN
 10
187.13328052
 20
169.35358572499999
 30
0.0
 42
-0.11815312
  0
VERTEX
  5
A98
  8
CYAN
 10
186.3462558375
 20
165.20556204249999
 30
0.0
 42
0.0063288
  0
VERTEX
  5
A99
  8
CYAN
 10
186.18985990749999
 20
164.84534689750001
 30
0.0
 42
-0.3038231
  0
VERTEX
  5
A9A
  8
CYAN
 10
178.64047698499999
 20
159.85984823250001
 30
0.0
  0
VERTEX
  5
A9B
  8
CYAN
 10
178.64047698499999
 20
154.91370079999999
 30
0.0
  0
VERTEX
  5
A9C
  8
CYAN
 10
177.12696797749999
 20
154.91370079999999
 30
0.0
  0
VERTEX
  5
A9D
  8
CYAN
 10
177.12696797749999
 20
159.85984823250001
 30
0.0
 42
-0.30380233
  0
VERTEX
  5
A9E
  8
CYAN
 10
169.57758505749999
 20
164.84534689750001
 30
0.0
 42
0.0063288
  0
VERTEX
  5
A9F
  8
CYAN
 10
169.42118912500001
 20
165.20556204249999
 30
0.0
 42
-0.11815312
  0
VERTEX
  5
AA0
  8
CYAN
 10
168.63416444250001
 20
169.35358572499999
 30
0.0
 42
0.01330806
  0
VERTEX
  5
AA1
  8
CYAN
 10
168.66645263500001
 20
174.94751500999999
 30
0.0
 42
0.29860135
  0
VERTEX
  5
AA2
  8
CYAN
 10
167.07452853500001
 20
176.82808936500001
 30
0.0
 42
0.29860135
  0
VERTEX
  5
AA3
  8
CYAN
 10
164.7151851225
 20
176.11796197499999
 30
0.0
 42
0.29142928
  0
VERTEX
  5
AA4
  8
CYAN
 10
162.297905525
 20
157.79193531499999
 30
0.0
 42
0.29142928
  0
VERTEX
  5
AA5
  8
CYAN
 10
177.88372248249999
 20
147.85368578999999
 30
0.0
  0
SEQEND
  5
AA6
  8
CYAN
  0
POLYLINE
  5
2FC
  8
CYAN
 66
     1
 10
0.0
 20
0.0
 30
0.0
 70
     1
  0
VERTEX
  5
AA7
  8
CYAN
 10
51.630837225000001
 20
186.27360740500001
 30
0.0
  0
VERTEX
  5
AA8
  8
CYAN
 10
51.476459304999999
 20
186.61465143500001
 30
0.0
 42
-0.11848011
  0
VERTEX
  5
AA9
  8
CYAN
 10
50.691452634999997
 20
190.77781020750001
 30
0.0
 42
0.01330975
  0
VERTEX
  5
AAA
  8
CYAN
 10
50.726767844999998
 20
196.3727485
 30
0.0
 42
0.29811886
  0
VERTEX
  5
AAB
  8
CYAN
 10
49.141595947500001
 20
198.25456414249999
 30
0.0
 42
0.29811886
  0
VERTEX
  5
AAC
  8
CYAN
 10
46.782563375000002
 20
197.55530353500001
 30
0.0
 42
0.29056912
  0
VERTEX
  5
AAD
  8
CYAN
 10
44.298150712499996
 20
179.27332759500001
 30
0.0
 42
0.29056912
  0
VERTEX
  5
AAE
  8
CYAN
 10
59.783929434999997
 20
169.24369111249999
 30
0.0
 42
0.29056912
  0
VERTEX
  5
AAF
  8
CYAN
 10
75.451020874999998
 20
178.987673685
 30
0.0
 42
0.29056912
  0
VERTEX
  5
AB0
  8
CYAN
 10
73.302268179999984
 20
197.3121330875
 30
0.0
 42
0.31416151
  0
VERTEX
  5
AB1
  8
CYAN
 10
70.566414405000003
 20
198.115086725
 30
0.0
 42
0.31416151
  0
VERTEX
  5
AB2
  8
CYAN
 10
68.866677784999993
 20
195.82586724500001
 30
0.0
 42
0.03140772
  0
VERTEX
  5
AB3
  8
CYAN
 10
69.037199799999996
 20
189.2209139425
 30
0.0
 42
-0.32330456
  0
VERTEX
  5
AB4
  8
CYAN
 10
61.178052035
 20
181.3607571725
 30
0.0
  0
VERTEX
  5
AB5
  8
CYAN
 10
60.673549032499999
 20
181.31434289500001
 30
0.0
  0
VERTEX
  5
AB6
  8
CYAN
 10
60.673549032499999
 20
176.32279019250001
 30
0.0
  0
VERTEX
  5
AB7
  8
CYAN
 10
59.160040027500003
 20
176.32279019250001
 30
0.0
  0
VERTEX
  5
AB8
  8
CYAN
 10
59.160040027500003
 20
181.26893762500001
 30
0.0
 42
-0.26665136
  0
VERTEX
  5
AB9
  8
CYAN
 10
51.630837225000001
 20
186.27360740500001
 30
0.0
  0
SEQEND
  5
ABA
  8
CYAN
  0
POLYLINE
  5
311
  8
CYAN
 66
     1
 10
0.0
 20
0.0
 30
0.0
 70
     1
  0
VERTEX
  5
ABB
  8
CYAN
 10
42.477134757499989
 20
205.60717144750001
 30
0.0
 42
-0.29055837
  0
VERTEX
  5
ABC
  8
CYAN
 10
40.093192774999999
 20
223.89794396249999
 30
0.0
 42
-0.29055837
  0
VERTEX
  5
ABD
  8
CYAN
 10
55.62930139249999
 20
233.841025355
 30
0.0
 42
-0.29055837
  0
VERTEX
  5
ABE
  8
CYAN
 10
71.239881627499983
 20
224.01527737999999
 30
0.0
 42
-0.29055837
  0
VERTEX
  5
ABF
  8
CYAN
 10
68.993812542499995
 20
205.70706304250001
 30
0.0
 42
-0.31451535
  0
VERTEX
  5
AC0
  8
CYAN
 10
66.251422039999994
 20
204.91892945999999
 30
0.0
 42
-0.31451535
  0
VERTEX
  5
AC1
  8
CYAN
 10
64.566294194999998
 20
207.221581055
 30
0.0
 42
-0.03136833
  0
VERTEX
  5
AC2
  8
CYAN
 10
64.775158439999998
 20
213.816444295
 30
0.0
 42
0.32328225
  0
VERTEX
  5
AC3
  8
CYAN
 10
56.965451967500002
 20
221.7159523025
 30
0.0
  0
VERTEX
  5
AC4
  8
CYAN
 10
56.460948965
 20
221.78456471000001
 30
0.0
  0
VERTEX
  5
AC5
  8
CYAN
 10
56.452876917499999
 20
226.75896431000001
 30
0.0
  0
VERTEX
  5
AC6
  8
CYAN
 10
54.937349900000001
 20
226.75896431000001
 30
0.0
  0
VERTEX
  5
AC7
  8
CYAN
 10
54.939367912500003
 20
221.813825885
 30
0.0
 42
0.26689443
  0
VERTEX
  5
AC8
  8
CYAN
 10
47.38594896499999
 20
216.85153435500001
 30
0.0
 42
0.00877353
  0
VERTEX
  5
AC9
  8
CYAN
 10
47.22450800499999
 20
216.51049032750001
 30
0.0
 42
0.11843931
  0
VERTEX
  5
ACA
  8
CYAN
 10
46.427393262499997
 20
212.3503585725
 30
0.0
 42
-0.01330444
  0
VERTEX
  5
ACB
  8
CYAN
 10
46.430420279999993
 20
206.75743829250001
 30
0.0
 42
-0.29820697
  0
VERTEX
  5
ACC
  8
CYAN
 10
44.830276157500002
 20
204.8883384925
 30
0.0
 42
-0.29820697
  0
VERTEX
  5
ACD
  8
CYAN
 10
42.477134757499989
 20
205.60717144750001
 30
0.0
  0
SEQEND
  5
ACE
  8
CYAN
  0
POLYLINE
  5
326
  8
CYAN
 66
     1
 10
0.0
 20
0.0
 30
0.0
 70
     1
  0
VERTEX
  5
ACF
  8
CYAN
 10
149.51753668999999
 20
81.288550700000002
 30
0.0
 42
-0.22664453
  0
VERTEX
  5
AD0
  8
CYAN
 10
146.070260805
 20
82.590447557499999
 30
0.0
 42
-0.22664453
  0
VERTEX
  5
AD1
  8
CYAN
 10
144.91747831999999
 20
86.090410272499994
 30
0.0
 42
0.07086273
  0
VERTEX
  5
AD2
  8
CYAN
 10
144.6400016675
 20
111.7322798525
 30
0.0
 42
0.17820088
  0
VERTEX
  5
AD3
  8
CYAN
 10
133.88500667
 20
131.06887091499999
 30
0.0
  0
VERTEX
  5
AD4
  8
CYAN
 10
128.57662608499999
 20
132.90122581750001
 30
0.0
 42
-0.41424534
  0
VERTEX
  5
AD5
  8
CYAN
 10
127.6416284725
 20
134.79669570999999
 30
0.0
 42
-0.41424534
  0
VERTEX
  5
AD6
  8
CYAN
 10
129.5371998
 20
135.7314876575
 30
0.0
  0
VERTEX
  5
AD7
  8
CYAN
 10
138.219696465
 20
132.74886591000001
 30
0.0
 42
-0.23275017
  0
VERTEX
  5
AD8
  8
CYAN
 10
149.67695964000001
 20
103.88524016
 30
0.0
 42
0.06477364
  0
VERTEX
  5
AD9
  8
CYAN
 10
150.2884172775
 20
91.701492662500002
 30
0.0
 42
0.39823835
  0
VERTEX
  5
ADA
  8
CYAN
 10
157.32623415500001
 20
86.543453970000002
 30
0.0
 42
0.06052172
  0
VERTEX
  5
ADB
  8
CYAN
 10
170.963959305
 20
90.627910272500003
 30
0.0
 42
-0.26440714
  0
VERTEX
  5
ADC
  8
CYAN
 10
181.75527851999999
 20
87.567595062500004
 30
0.0
 42
-0.1191604
  0
VERTEX
  5
ADD
  8
CYAN
 10
182.04688125499999
 20
85.028935957499996
 30
0.0
  0
VERTEX
  5
ADE
  8
CYAN
 10
182.0004669775
 20
84.640468644999999
 30
0.0
  0
VERTEX
  5
ADF
  8
CYAN
 10
177.0805537025
 20
86.216536024999996
 30
0.0
  0
VERTEX
  5
AE0
  8
CYAN
 10
176.61338392249999
 20
84.763567377499996
 30
0.0
  0
VERTEX
  5
AE1
  8
CYAN
 10
181.47881087499999
 20
83.208689125000006
 30
0.0
 42
-0.11835832
  0
VERTEX
  5
AE2
  8
CYAN
 10
179.8230320225
 20
81.288550700000002
 30
0.0
 42
0.01935618
  0
VERTEX
  5
AE3
  8
CYAN
 10
165.52642595
 20
81.909089392499979
 30
0.0
  0
VERTEX
  5
AE4
  8
CYAN
 10
165.0219229475
 20
81.910098399999995
 30
0.0
 42
0.02098987
  0
VERTEX
  5
AE5
  8
CYAN
 10
149.51753668999999
 20
81.288550700000002
 30
0.0
  0
SEQEND
  5
AE6
  8
CYAN
  0
POLYLINE
  5
33F
  8
CYAN
 66
     1
 10
0.0
 20
0.0
 30
0.0
 70
     1
  0
VERTEX
  5
AE7
  8
CYAN
 10
198.38773348999999
 20
41.504452967500001
 30
0.0
 42
0.41421356
  0
VERTEX
  5
AE8
  8
CYAN
 10
200.44812375000001
 20
41.996847897499997
 30
0.0
 42
0.41421356
  0
VERTEX
  5
AE9
  8
CYAN
 10
199.95572881999999
 20
44.057238157500002
 30
0.0
  0
VERTEX
  5
AEA
  8
CYAN
 10
195.15084222749999
 20
46.975283522499993
 30
0.0
 42
-0.17825439
  0
VERTEX
  5
AEB
  8
CYAN
 10
188.81832054750001
 20
68.182571714999995
 30
0.0
 42
-0.07086549
  0
VERTEX
  5
AEC
  8
CYAN
 10
194.078268845
 20
93.281596064999988
 30
0.0
 42
0.22635154
  0
VERTEX
  5
AED
  8
CYAN
 10
193.70720227999999
 20
96.941954734999996
 30
0.0
 42
0.22635154
  0
VERTEX
  5
AEE
  8
CYAN
 10
190.6284773175
 20
98.95624583
 30
0.0
 42
-0.04105544
  0
VERTEX
  5
AEF
  8
CYAN
 10
161.02928618999999
 20
105.49359573
 30
0.0
 42
0.11834161
  0
VERTEX
  5
AF0
  8
CYAN
 10
158.99613909249999
 20
103.9730236825
 30
0.0
  0
VERTEX
  5
AF1
  8
CYAN
 10
163.4065043375
 20
101.40712141500001
 30
0.0
  0
VERTEX
  5
AF2
  8
CYAN
 10
162.64874082750001
 20
100.09339559750001
 30
0.0
  0
VERTEX
  5
AF3
  8
CYAN
 10
158.25451967999999
 20
102.649207805
 30
0.0
  0
VERTEX
  5
AF4
  8
CYAN
 10
158.02043028750001
 20
102.20120914
 30
0.0
 42
0.11406169
  0
VERTEX
  5
AF5
  8
CYAN
 10
157.79542194749999
 20
99.764459639999984
 30
0.0
 42
0.26387346
  0
VERTEX
  5
AF6
  8
CYAN
 10
167.6645096725
 20
94.474241160000005
 30
0.0
 42
-0.06054163
  0
VERTEX
  5
AF7
  8
CYAN
 10
181.87030520249999
 20
95.518562375000002
 30
0.0
 42
-0.39848283
  0
VERTEX
  5
AF8
  8
CYAN
 10
187.63072048000001
 20
88.959014342499984
 30
0.0
 42
-0.06477895
  0
VERTEX
  5
AF9
  8
CYAN
 10
185.59858238749999
 20
76.928635757500004
 30
0.0
 42
0.23277638
  0
VERTEX
  5
AFA
  8
CYAN
 10
190.56490994000001
 20
46.26897932
 30
0.0
  0
VERTEX
  5
AFB
  8
CYAN
 10
198.38773348999999
 20
41.504452967500001
 30
0.0
  0
SEQEND
  5
AFC
  8
CYAN
  0
POLYLINE
  5
356
  8
CYAN
 66
     1
 10
0.0
 20
0.0
 30
0.0
 70
     1
  0
VERTEX
  5
AFD
  8
CYAN
 10
174.31285023250001
 20
4.7917695125000002
 30
0.0
 42
-0.39022799
  0
VERTEX
  5
AFE
  8
CYAN
 10
174.1595302325
 20
8.293334905
 30
0.0
 42
-0.39022799
  0
VERTEX
  5
AFF
  8
CYAN
 10
177.63651601000001
 20
8.7349649775000007
 30
0.0
 42
0.26102232
  0
VERTEX
  5
B00
  8
CYAN
 10
185.48840591749999
 20
7.9811645000000002
 30
0.0
 42
0.26102232
  0
VERTEX
  5
B01
  8
CYAN
 10
190.23193795750001
 20
14.283488992500001
 30
0.0
  0
VERTEX
  5
B02
  8
CYAN
 10
190.2349649775
 20
14.787991995000001
 30
0.0
  0
VERTEX
  5
B03
  8
CYAN
 10
194.67257338249999
 20
14.787991995000001
 30
0.0
  0
VERTEX
  5
B04
  8
CYAN
 10
194.67257338249999
 20
16.304528017500001
 30
0.0
  0
VERTEX
  5
B05
  8
CYAN
 10
190.2349649775
 20
16.304528017500001
 30
0.0
  0
VERTEX
  5
B06
  8
CYAN
 10
190.20267678499999
 20
16.683914274999999
 30
0.0
 42
0.25253046
  0
VERTEX
  5
B07
  8
CYAN
 10
185.50954260500001
 20
22.747817467499999
 30
0.0
 42
0.25253046
  0
VERTEX
  5
B08
  8
CYAN
 10
177.86455136750001
 20
22.155753834999999
 30
0.0
 42
-0.35912048
  0
VERTEX
  5
B09
  8
CYAN
 10
174.33748565249999
 20
22.686685215000001
 30
0.0
 42
-0.35912048
  0
VERTEX
  5
B0A
  8
CYAN
 10
174.18672448250001
 20
26.250300200000002
 30
0.0
 42
-0.30492704
  0
VERTEX
  5
B0B
  8
CYAN
 10
190.9395837925
 20
29.836923854999998
 30
0.0
 42
-0.30492704
  0
VERTEX
  5
B0C
  8
CYAN
 10
200.58245643750001
 20
15.67580909
 30
0.0
 42
-0.30492704
  0
VERTEX
  5
B0D
  8
CYAN
 10
191.10671245500001
 20
1.402321772499999
 30
0.0
 42
-0.30492704
  0
VERTEX
  5
B0E
  8
CYAN
 10
174.31285023250001
 20
4.7917695125000002
 30
0.0
  0
SEQEND
  5
B0F
  8
CYAN
  0
POLYLINE
  5
36A
  8
CYAN
 66
     1
 10
0.0
 20
0.0
 30
0.0
 70
     1
  0
VERTEX
  5
B10
  8
CYAN
 10
155.54634756499999
 20
10.5289776525
 30
0.0
 42
-0.01457432
  0
VERTEX
  5
B11
  8
CYAN
 10
156.05085056749999
 20
10.635932287499999
 30
0.0
 42
0.25083091
  0
VERTEX
  5
B12
  8
CYAN
 10
162.0141727475
 20
15.362402872500001
 30
0.0
 42
0.25083091
  0
VERTEX
  5
B13
  8
CYAN
 10
161.3874833225
 20
22.9458055375
 30
0.0
 42
-0.36191149
  0
VERTEX
  5
B14
  8
CYAN
 10
161.8935937775
 20
26.498255839999999
 30
0.0
 42
-0.36191149
  0
VERTEX
  5
B15
  8
CYAN
 10
165.4790026675
 20
26.642803534999999
 30
0.0
 42
-0.30500634
  0
VERTEX
  5
B16
  8
CYAN
 10
169.0746472575
 20
9.8875661625000006
 30
0.0
 42
-0.30500634
  0
VERTEX
  5
B17
  8
CYAN
 10
154.911933455
 20
0.239552005
 30
0.0
 42
-0.30500634
  0
VERTEX
  5
B18
  8
CYAN
 10
140.63583184749999
 20
9.7189803824999998
 30
0.0
 42
-0.30500634
  0
VERTEX
  5
B19
  8
CYAN
 10
144.03258005250001
 20
26.515668779999999
 30
0.0
 42
-0.38927522
  0
VERTEX
  5
B1A
  8
CYAN
 10
147.52857509
 20
26.651362745
 30
0.0
 42
-0.38927522
  0
VERTEX
  5
B1B
  8
CYAN
 10
147.963667445
 20
23.17989493
 30
0.0
 42
0.26962828
  0
VERTEX
  5
B1C
  8
CYAN
 10
147.3182720675
 20
15.090602652499999
 30
0.0
 42
0.26962828
  0
VERTEX
  5
B1D
  8
CYAN
 10
154.02981154
 20
10.5289776525
 30
0.0
  0
VERTEX
  5
B1E
  8
CYAN
 10
154.02981154
 20
6.1438375575000004
 30
0.0
  0
VERTEX
  5
B1F
  8
CYAN
 10
155.54634756499999
 20
6.1438375575000004
 30
0.0
  0
VERTEX
  5
B20
  8
CYAN
 10
155.54634756499999
 20
10.5289776525
 30
0.0
  0
SEQEND
  5
B21
  8
CYAN
  0
POLYLINE
  5
37D
  8
CYAN
 66
     1
 10
0.0
 20
0.0
 30
0.0
 70
     1
  0
VERTEX
  5
B22
  8
CYAN
 10
85.065260172500004
 20
203.48321381
 30
0.0
 42
0.12378953
  0
VERTEX
  5
B23
  8
CYAN
 10
105.96782855249999
 20
204.3549949975
 30
0.0
 42
0.3143559
  0
VERTEX
  5
B24
  8
CYAN
 10
108.60940626999999
 20
207.678660775
 30
0.0
  0
VERTEX
  5
B25
  8
CYAN
 10
102.543262175
 20
207.678660775
 30
0.0
  0
VERTEX
  5
B26
  8
CYAN
 10
102.543262175
 20
209.19519679749999
 30
0.0
  0
VERTEX
  5
B27
  8
CYAN
 10
108.64774850000001
 20
209.19519679749999
 30
0.0
  0
VERTEX
  5
B28
  8
CYAN
 10
108.6316044025
 20
209.69969979999999
 30
0.0
 42
0.34122671
  0
VERTEX
  5
B29
  8
CYAN
 10
106.1827468325
 20
212.6459973325
 30
0.0
  0
VERTEX
  5
B2A
  8
CYAN
 10
99.888567377499996
 20
213.99201134
 30
0.0
 42
0.33110774
  0
VERTEX
  5
B2B
  8
CYAN
 10
96.122956972500006
 20
211.73587391500001
 30
0.0
 42
-0.30351741
  0
VERTEX
  5
B2C
  8
CYAN
 10
91.662141427500003
 20
208.75325216749999
 30
0.0
  0
VERTEX
  5
B2D
  8
CYAN
 10
88.186115744999995
 20
208.75123415499999
 30
0.0
 42
-0.22494915
  0
VERTEX
  5
B2E
  8
CYAN
 10
85.1976033575
 20
210.16886708499999
 30
0.0
 42
-0.22494915
  0
VERTEX
  5
B2F
  8
CYAN
 10
84.40234323
 20
213.37954469749999
 30
0.0
 42
0.21997629
  0
VERTEX
  5
B30
  8
CYAN
 10
79.9634852975
 20
232.20426844249999
 30
0.0
 42
0.21997629
  0
VERTEX
  5
B31
  8
CYAN
 10
62.747056370000003
 20
241.0172281525
 30
0.0
  0
VERTEX
  5
B32
  8
CYAN
 10
57.792836892499999
 20
241.00512008000001
 30
0.0
 42
0.41231494
  0
VERTEX
  5
B33
  8
CYAN
 10
56.781791327500002
 20
240.0006121975
 30
0.0
 42
0.41231494
  0
VERTEX
  5
B34
  8
CYAN
 10
57.779719812499998
 20
238.9830720475
 30
0.0
  0
VERTEX
  5
B35
  8
CYAN
 10
62.378769179999999
 20
238.97399099500001
 30
0.0
 42
-0.2445965
  0
VERTEX
  5
B36
  8
CYAN
 10
80.654894929999983
 20
223.64012675000001
 30
0.0
 42
-0.04720231
  0
VERTEX
  5
B37
  8
CYAN
 10
79.677168112499984
 20
212.21716978000001
 30
0.0
 42
0.20562714
  0
VERTEX
  5
B38
  8
CYAN
 10
80.495986392500001
 20
206.69333918500001
 30
0.0
 42
0.20562714
  0
VERTEX
  5
B39
  8
CYAN
 10
85.065260172500004
 20
203.48321381
 30
0.0
  0
SEQEND
  5
B3A
  8
CYAN
  0
POLYLINE
  5
397
  8
CYAN
 66
     1
 10
0.0
 20
0.0
 30
0.0
 70
     1
  0
VERTEX
  5
B3B
  8
CYAN
 10
110.2399599725
 20
0.2290443625
 30
0.0
 42
-0.41231494
  0
VERTEX
  5
B3C
  8
CYAN
 10
109.22891441
 20
1.233552245
 30
0.0
 42
-0.41231494
  0
VERTEX
  5
B3D
  8
CYAN
 10
110.226842895
 20
2.2510923950000001
 30
0.0
  0
VERTEX
  5
B3E
  8
CYAN
 10
114.82589226250001
 20
2.2571464300000001
 30
0.0
 42
0.24473626
  0
VERTEX
  5
B3F
  8
CYAN
 10
133.10908105499999
 20
17.594037692499999
 30
0.0
 42
0.04725891
  0
VERTEX
  5
B40
  8
CYAN
 10
132.12429119500001
 20
29.030111739999999
 30
0.0
 42
-0.20562714
  0
VERTEX
  5
B41
  8
CYAN
 10
132.943109475
 20
34.553942335000002
 30
0.0
 42
-0.20562714
  0
VERTEX
  5
B42
  8
CYAN
 10
137.512383255
 20
37.764067712500001
 30
0.0
 42
-0.12378832
  0
VERTEX
  5
B43
  8
CYAN
 10
158.41495163499999
 20
36.891277517500001
 30
0.0
 42
-0.27703638
  0
VERTEX
  5
B44
  8
CYAN
 10
160.9899349575
 20
34.072114742499998
 30
0.0
 42
-0.00504017
  0
VERTEX
  5
B45
  8
CYAN
 10
161.08679953250001
 20
33.567611739999997
 30
0.0
  0
VERTEX
  5
B46
  8
CYAN
 10
154.99038525750001
 20
33.567611739999997
 30
0.0
  0
VERTEX
  5
B47
  8
CYAN
 10
154.99038525750001
 20
32.051075717499998
 30
0.0
  0
VERTEX
  5
B48
  8
CYAN
 10
161.08679953250001
 20
32.051075717499998
 30
0.0
  0
VERTEX
  5
B49
  8
CYAN
 10
161.0807454975
 20
31.672698465
 30
0.0
 42
-0.35239577
  0
VERTEX
  5
B4A
  8
CYAN
 10
158.6298699125
 20
28.601284190000001
 30
0.0
  0
VERTEX
  5
B4B
  8
CYAN
 10
152.33569046
 20
27.249216144999998
 30
0.0
 42
-0.33083327
  0
VERTEX
  5
B4C
  8
CYAN
 10
148.5700800525
 20
29.4982905275
 30
0.0
 42
0.30393868
  0
VERTEX
  5
B4D
  8
CYAN
 10
144.10926451
 20
32.4940293525
 30
0.0
  0
VERTEX
  5
B4E
  8
CYAN
 10
140.63323882500001
 20
32.4940293525
 30
0.0
 42
0.22512535
  0
VERTEX
  5
B4F
  8
CYAN
 10
137.64677686499999
 20
31.0769862125
 30
0.0
 42
0.22512535
  0
VERTEX
  5
B50
  8
CYAN
 10
136.85451133999999
 20
27.867736825000001
 30
0.0
 42
-0.21994326
  0
VERTEX
  5
B51
  8
CYAN
 10
132.41836161250001
 20
9.0449688449999996
 30
0.0
 42
-0.21994326
  0
VERTEX
  5
B52
  8
CYAN
 10
115.20628752499999
 20
0.2290443625
 30
0.0
  0
VERTEX
  5
B53
  8
CYAN
 10
110.2399599725
 20
0.2290443625
 30
0.0
  0
SEQEND
  5
B54
  8
CYAN
  0
POLYLINE
  5
3B2
  8
CYAN
 66
     1
 10
0.0
 20
0.0
 30
0.0
 70
     1
  0
VERTEX
  5
B55
  8
CYAN
 10
146.55307705249999
 20
215.97672614999999
 30
0.0
 42
0.29316816
  0
VERTEX
  5
B56
  8
CYAN
 10
161.38576089750001
 20
213.88242735750001
 30
0.0
 42
0.29316816
  0
VERTEX
  5
B57
  8
CYAN
 10
169.47381673000001
 20
226.491073215
 30
0.0
 42
0.29316816
  0
VERTEX
  5
B58
  8
CYAN
 10
161.38576089750001
 20
239.099719075
 30
0.0
 42
0.29316816
  0
VERTEX
  5
B59
  8
CYAN
 10
146.55307705249999
 20
237.00542028000001
 30
0.0
 42
0.36118311
  0
VERTEX
  5
B5A
  8
CYAN
 10
146.11040411499999
 20
234.28733829250001
 30
0.0
 42
0.36118311
  0
VERTEX
  5
B5B
  8
CYAN
 10
148.701250835
 20
233.35382755250001
 30
0.0
 42
-0.22568066
  0
VERTEX
  5
B5C
  8
CYAN
 10
155.27758919499999
 20
232.73882752750001
 30
0.0
 42
-0.22568066
  0
VERTEX
  5
B5D
  8
CYAN
 10
158.95073382250001
 20
227.2493412275
 30
0.0
  0
VERTEX
  5
B5E
  8
CYAN
 10
162.83036190749999
 20
227.2493412275
 30
0.0
  0
VERTEX
  5
B5F
  8
CYAN
 10
162.83036190749999
 20
225.7328052025
 30
0.0
  0
VERTEX
  5
B60
  8
CYAN
 10
158.88716644499999
 20
225.7328052025
 30
0.0
  0
VERTEX
  5
B61
  8
CYAN
 10
158.866986325
 20
225.2283022025
 30
0.0
 42
-0.21700609
  0
VERTEX
  5
B62
  8
CYAN
 10
155.06216176250001
 20
220.10721064250001
 30
0.0
 42
-0.21700609
  0
VERTEX
  5
B63
  8
CYAN
 10
148.701250835
 20
219.61621080750001
 30
0.0
 42
0.36040992
  0
VERTEX
  5
B64
  8
CYAN
 10
146.11963686000001
 20
218.68627307
 30
0.0
 42
0.36040992
  0
VERTEX
  5
B65
  8
CYAN
 10
146.55307705249999
 20
215.97672614999999
 30
0.0
  0
SEQEND
  5
B66
  8
CYAN
  0
POLYLINE
  5
3C5
  8
CYAN
 66
     1
 10
0.0
 20
0.0
 30
0.0
 70
     1
  0
VERTEX
  5
B67
  8
CYAN
 10
59.619137757499999
 20
125.9370663775
 30
0.0
 42
-0.22812088
  0
VERTEX
  5
B68
  8
CYAN
 10
74.619021015000001
 20
123.029111075
 30
0.0
 42
0.21393465
  0
VERTEX
  5
B69
  8
CYAN
 10
82.256187457500005
 20
121.29563876
 30
0.0
 42
0.20846565
  0
VERTEX
  5
B6A
  8
CYAN
 10
86.052330514999994
 20
123.94732095000001
 30
0.0
 42
0.20846565
  0
VERTEX
  5
B6B
  8
CYAN
 10
86.693795864999984
 20
128.53323882500001
 30
0.0
  0
VERTEX
  5
B6C
  8
CYAN
 10
77.035590392499984
 20
128.48985156750001
 30
0.0
  0
VERTEX
  5
B6D
  8
CYAN
 10
77.034581387499998
 20
129.98822548250001
 30
0.0
  0
VERTEX
  5
B6E
  8
CYAN
 10
86.693795864999984
 20
130.03363075499999
 30
0.0
 42
0.0303241
  0
VERTEX
  5
B6F
  8
CYAN
 10
86.813867577500005
 20
130.53914276250001
 30
0.0
 42
0.4099187000000001
  0
VERTEX
  5
B70
  8
CYAN
 10
82.183539025000002
 20
137.2278435625
 30
0.0
 42
0.21346548
  0
VERTEX
  5
B71
  8
CYAN
 10
74.5625166775
 20
135.4287858575
 30
0.0
 42
-0.22808429
  0
VERTEX
  5
B72
  8
CYAN
 10
59.58079553000001
 20
132.38562375000001
 30
0.0
 42
0.23148062
  0
VERTEX
  5
B73
  8
CYAN
 10
58.226951190000001
 20
132.096294255
 30
0.0
 42
0.23148062
  0
VERTEX
  5
B74
  8
CYAN
 10
57.624332887500003
 20
130.84991661000001
 30
0.0
  0
VERTEX
  5
B75
  8
CYAN
 10
57.634422947499992
 20
127.457638425
 30
0.0
 42
0.23238509
  0
VERTEX
  5
B76
  8
CYAN
 10
58.253250414999997
 20
126.20980536
 30
0.0
 42
0.23238509
  0
VERTEX
  5
B77
  8
CYAN
 10
59.619137757499999
 20
125.9370663775
 30
0.0
  0
SEQEND
  5
B78
  8
CYAN
  0
POLYLINE
  5
3D8
  8
CYAN
 66
     1
 10
0.0
 20
0.0
 30
0.0
 70
     1
  0
VERTEX
  5
B79
  8
CYAN
 10
124.9331054025
 20
97.994663107500003
 30
0.0
 42
-0.32932366
  0
VERTEX
  5
B7A
  8
CYAN
 10
123.4639741325
 20
98.052574899999996
 30
0.0
 42
-0.32932366
  0
VERTEX
  5
B7B
  8
CYAN
 10
123.08763342250001
 20
99.473865910000001
 30
0.0
 42
0.09090539
  0
VERTEX
  5
B7C
  8
CYAN
 10
124.2883505675
 20
106.5500250175
 30
0.0
  0
VERTEX
  5
B7D
  8
CYAN
 10
124.061324215
 20
116.16787024750001
 30
0.0
 42
-0.23099658
  0
VERTEX
  5
B7E
  8
CYAN
 10
125.96430954
 20
120.3703802525
 30
0.0
 42
-0.05706493
  0
VERTEX
  5
B7F
  8
CYAN
 10
127.43745830500001
 20
121.026234155
 30
0.0
  0
VERTEX
  5
B80
  8
CYAN
 10
127.81482655000001
 20
121.13419779749999
 30
0.0
 42
-0.05925755
  0
VERTEX
  5
B81
  8
CYAN
 10
129.47060540250001
 20
121.3642511675
 30
0.0
  0
VERTEX
  5
B82
  8
CYAN
 10
129.97510840499999
 20
121.37131420999999
 30
0.0
  0
VERTEX
  5
B83
  8
CYAN
 10
129.9761174125
 20
113.1731404275
 30
0.0
  0
VERTEX
  5
B84
  8
CYAN
 10
131.49164443000001
 20
113.1731404275
 30
0.0
  0
VERTEX
  5
B85
  8
CYAN
 10
131.49164443000001
 20
121.36626918
 30
0.0
 42
-0.14552932
  0
VERTEX
  5
B86
  8
CYAN
 10
135.39750667000001
 20
120.36331721249999
 30
0.0
 42
-0.2306839
  0
VERTEX
  5
B87
  8
CYAN
 10
137.30553702500001
 20
116.16787024750001
 30
0.0
  0
VERTEX
  5
B88
  8
CYAN
 10
137.07851067499999
 20
106.5500250175
 30
0.0
 42
0.09092909
  0
VERTEX
  5
B89
  8
CYAN
 10
138.28830887250001
 20
99.471847897499998
 30
0.0
 42
-0.33449913
  0
VERTEX
  5
B8A
  8
CYAN
 10
137.91740132499999
 20
98.034754024999998
 30
0.0
 42
-0.33449913
  0
VERTEX
  5
B8B
  8
CYAN
 10
136.4337558375
 20
97.994663107500003
 30
0.0
 42
-0.09696144
  0
VERTEX
  5
B8C
  8
CYAN
 10
135.2834889925
 20
99.157038025000006
 30
0.0
 42
0.16291737
  0
VERTEX
  5
B8D
  8
CYAN
 10
131.11024015999999
 20
103.10729653
 30
0.0
 42
0.21916151
  0
VERTEX
  5
B8E
  8
CYAN
 10
130.26469313000001
 20
103.11738659
 30
0.0
 42
0.16309614
  0
VERTEX
  5
B8F
  8
CYAN
 10
126.08337224749999
 20
99.157038025000006
 30
0.0
 42
-0.09714065
  0
VERTEX
  5
B90
  8
CYAN
 10
124.9331054025
 20
97.994663107500003
 30
0.0
  0
SEQEND
  5
B91
  8
CYAN
  0
POLYLINE
  5
3F2
  8
CYAN
 66
     1
 10
0.0
 20
0.0
 30
0.0
 70
     1
  0
VERTEX
  5
B92
  8
CYAN
 10
93.951576049999986
 20
151.1975316875
 30
0.0
 42
0.31513175
  0
VERTEX
  5
B93
  8
CYAN
 10
96.401437560000005
 20
150.73979811500001
 30
0.0
 42
0.31513175
  0
VERTEX
  5
B94
  8
CYAN
 10
97.670772182500016
 20
152.88458972500001
 30
0.0
 42
-0.00088234
  0
VERTEX
  5
B95
  8
CYAN
 10
97.521439292500006
 20
154.8844396275
 30
0.0
 42
-0.16286948
  0
VERTEX
  5
B96
  8
CYAN
 10
98.00979820000002
 20
156.82576717750001
 30
0.0
 42
-0.02744172
  0
VERTEX
  5
B97
  8
CYAN
 10
98.231779520000003
 20
157.13452301500001
 30
0.0
 42
-0.19577194
  0
VERTEX
  5
B98
  8
CYAN
 10
100.32748499
 20
158.26360073500001
 30
0.0
  0
VERTEX
  5
B99
  8
CYAN
 10
100.3103318875
 20
162.5579302875
 30
0.0
  0
VERTEX
  5
B9A
  8
CYAN
 10
101.82686791250001
 20
162.5579302875
 30
0.0
  0
VERTEX
  5
B9B
  8
CYAN
 10
101.833930955
 20
158.270663775
 30
0.0
 42
-0.40383492
  0
VERTEX
  5
B9C
  8
CYAN
 10
104.65107571750001
 20
154.9015927275
 30
0.0
  0
VERTEX
  5
B9D
  8
CYAN
 10
104.51183288750001
 20
152.9118328875
 30
0.0
 42
0.31603523
  0
VERTEX
  5
B9E
  8
CYAN
 10
105.7960715525
 20
150.76412533999999
 30
0.0
 42
0.31603523
  0
VERTEX
  5
B9F
  8
CYAN
 10
108.252218145
 20
151.24293695750001
 30
0.0
 42
0.30161148
  0
VERTEX
  5
BA0
  8
CYAN
 10
110.26871914
 20
162.1001928025
 30
0.0
 42
0.30161148
  0
VERTEX
  5
BA1
  8
CYAN
 10
101.04805899
 20
168.17684543249999
 30
0.0
 42
0.30161148
  0
VERTEX
  5
BA2
  8
CYAN
 10
91.866171722499999
 20
162.04176377499999
 30
0.0
 42
0.30161148
  0
VERTEX
  5
BA3
  8
CYAN
 10
93.951576049999986
 20
151.1975316875
 30
0.0
  0
SEQEND
  5
BA4
  8
CYAN
  0
POLYLINE
  5
406
  8
CYAN
 66
     1
 10
0.0
 20
0.0
 30
0.0
 70
     1
  0
VERTEX
  5
BA5
  8
CYAN
 10
100.2447464975
 20
26.247273182499999
 30
0.0
 42
0.02000638
  0
VERTEX
  5
BA6
  8
CYAN
 10
100.61807872
 20
26.152426617500002
 30
0.0
  0
VERTEX
  5
BA7
  8
CYAN
 10
102.7430453625
 20
26.269471315000001
 30
0.0
  0
VERTEX
  5
BA8
  8
CYAN
 10
102.7420363575
 20
30.845313542500001
 30
0.0
  0
VERTEX
  5
BA9
  8
CYAN
 10
104.2545363575
 20
30.845313542500001
 30
0.0
  0
VERTEX
  5
BAA
  8
CYAN
 10
104.2555453625
 20
26.269471315000001
 30
0.0
  0
VERTEX
  5
BAB
  8
CYAN
 10
106.3795030025
 20
26.152426617500002
 30
0.0
 42
0.23662362
  0
VERTEX
  5
BAC
  8
CYAN
 10
109.4650433625
 20
28.4428702475
 30
0.0
 42
0.14240034
  0
VERTEX
  5
BAD
  8
CYAN
 10
110.2248248825
 20
32.509164442500001
 30
0.0
 42
-0.18807888
  0
VERTEX
  5
BAE
  8
CYAN
 10
113.014726485
 20
42.139117745
 30
0.0
 42
0.34801404
  0
VERTEX
  5
BAF
  8
CYAN
 10
112.9178965225
 20
43.655685257499989
 30
0.0
 42
0.34801404
  0
VERTEX
  5
BB0
  8
CYAN
 10
111.4194879925
 20
43.908914275000001
 30
0.0
 42
0.09521438
  0
VERTEX
  5
BB1
  8
CYAN
 10
108.3753168775
 20
41.6638759175
 30
0.0
 42
-0.06137402
  0
VERTEX
  5
BB2
  8
CYAN
 10
104.3090226825
 20
36.687458305
 30
0.0
 42
-0.2271531
  0
VERTEX
  5
BB3
  8
CYAN
 10
103.55136500250001
 20
36.330725465
 30
0.0
 42
-0.2271531
  0
VERTEX
  5
BB4
  8
CYAN
 10
102.798540695
 20
36.69754836500001
 30
0.0
 42
-0.06143279
  0
VERTEX
  5
BB5
  8
CYAN
 10
98.721147432500004
 20
41.665893930000003
 30
0.0
 42
0.09516688
  0
VERTEX
  5
BB6
  8
CYAN
 10
95.672940292500002
 20
43.907905270000001
 30
0.0
 42
0.34992187
  0
VERTEX
  5
BB7
  8
CYAN
 10
94.172143375000005
 20
43.657091094999998
 30
0.0
 42
0.34992187
  0
VERTEX
  5
BB8
  8
CYAN
 10
94.082746830000005
 20
42.138108739999993
 30
0.0
 42
-0.18822074
  0
VERTEX
  5
BB9
  8
CYAN
 10
96.874666445000003
 20
32.505128419999998
 30
0.0
 42
0.14259699
  0
VERTEX
  5
BBA
  8
CYAN
 10
97.633438960000021
 20
28.439843230000001
 30
0.0
 42
0.20424439
  0
VERTEX
  5
BBB
  8
CYAN
 10
100.2447464975
 20
26.247273182499999
 30
0.0
  0
SEQEND
  5
BBC
  8
CYAN
  0
POLYLINE
  5
41F
  8
CYAN
 66
     1
 10
0.0
 20
0.0
 30
0.0
 70
     1
  0
VERTEX
  5
BBD
  8
CYAN
 10
133.05055870499999
 20
163.1562708475
 30
0.0
 42
0.15168242
  0
VERTEX
  5
BBE
  8
CYAN
 10
139.35684623
 20
156.39492161499999
 30
0.0
 42
0.2760067
  0
VERTEX
  5
BBF
  8
CYAN
 10
139.95376368250001
 20
156.43259262749999
 30
0.0
 42
0.2760067
  0
VERTEX
  5
BC0
  8
CYAN
 10
140.2034022675
 20
156.97610907250001
 30
0.0
 42
0.13253643
  0
VERTEX
  5
BC1
  8
CYAN
 10
135.6659022675
 20
167.6796447625
 30
0.0
 42
0.41476174
  0
VERTEX
  5
BC2
  8
CYAN
 10
134.1372581725
 20
167.8693378925
 30
0.0
 42
0.35198568
  0
VERTEX
  5
BC3
  8
CYAN
 10
133.05055870499999
 20
163.1562708475
 30
0.0
  0
SEQEND
  5
BC4
  8
CYAN
  0
POLYLINE
  5
428
  8
CYAN
 66
     1
 10
0.0
 20
0.0
 30
0.0
 70
     1
  0
VERTEX
  5
BC5
  8
CYAN
 10
15.40550367
 20
166.93499833249999
 30
0.0
 42
0.1515771
  0
VERTEX
  5
BC6
  8
CYAN
 10
21.697665109999999
 20
160.17062208249999
 30
0.0
 42
0.29172993
  0
VERTEX
  5
BC7
  8
CYAN
 10
22.314293235000001
 20
160.18828568250001
 30
0.0
 42
0.29172993
  0
VERTEX
  5
BC8
  8
CYAN
 10
22.558347232500001
 20
160.7548365575
 30
0.0
 42
0.13263124
  0
VERTEX
  5
BC9
  8
CYAN
 10
18.0218562375
 20
171.45938125500001
 30
0.0
 42
0.41438045
  0
VERTEX
  5
BCA
  8
CYAN
 10
16.492203135
 20
171.64806537749999
 30
0.0
 42
0.35207534
  0
VERTEX
  5
BCB
  8
CYAN
 10
15.40550367
 20
166.93499833249999
 30
0.0
  0
SEQEND
  5
BCC
  8
CYAN
  0
POLYLINE
  5
431
  8
CYAN
 66
     1
 10
0.0
 20
0.0
 30
0.0
 70
     1
  0
VERTEX
  5
BCD
  8
CYAN
 10
118.83971814500001
 20
232.12284022750001
 30
0.0
  0
VERTEX
  5
BCE
  8
CYAN
 10
118.8457721825
 20
232.62734323000001
 30
0.0
  0
VERTEX
  5
BCF
  8
CYAN
 10
112.18229653
 20
232.5213975975
 30
0.0
  0
VERTEX
  5
BD0
  8
CYAN
 10
112.15707138
 20
234.03894262750001
 30
0.0
  0
VERTEX
  5
BD1
  8
CYAN
 10
117.9114326225
 20
234.13782521749999
 30
0.0
 42
0.01416451
  0
VERTEX
  5
BD2
  8
CYAN
 10
117.7409106075
 20
234.98841727749999
 30
0.0
 42
0.26772923
  0
VERTEX
  5
BD3
  8
CYAN
 10
116.01752835249999
 20
236.83792528250001
 30
0.0
 42
0.11075882
  0
VERTEX
  5
BD4
  8
CYAN
 10
93.532838560000002
 20
238.53002835250001
 30
0.0
 42
0.37267458
  0
VERTEX
  5
BD5
  8
CYAN
 10
87.493937625000001
 20
231.52349065999999
 30
0.0
 42
0.22901728
  0
VERTEX
  5
BD6
  8
CYAN
 10
93.323679067499995
 20
219.5296131325
 30
0.0
 42
0.22901728
  0
VERTEX
  5
BD7
  8
CYAN
 10
106.34418779249999
 20
216.6477151425
 30
0.0
 42
0.29390052
  0
VERTEX
  5
BD8
  8
CYAN
 10
118.83971814500001
 20
232.12284022750001
 30
0.0
  0
SEQEND
  5
BD9
  8
CYAN
  0
POLYLINE
  5
43F
  8
CYAN
 66
     1
 10
0.0
 20
0.0
 30
0.0
 70
     1
  0
VERTEX
  5
BDA
  8
CYAN
 10
110.7263008675
 20
230.87570880499999
 30
0.0
 42
0.0977601
  0
VERTEX
  5
BDB
  8
CYAN
 10
94.027251500000006
 20
231.401400935
 30
0.0
 42
0.21828054
  0
VERTEX
  5
BDC
  8
CYAN
 10
91.875533515000001
 20
229.95179630249999
 30
0.0
 42
0.21828054
  0
VERTEX
  5
BDD
  8
CYAN
 10
91.569312874999994
 20
227.3754669775
 30
0.0
 42
0.31624442
  0
VERTEX
  5
BDE
  8
CYAN
 10
101.997925255
 20
219.54682872250001
 30
0.0
 42
0.31624442
  0
VERTEX
  5
BDF
  8
CYAN
 10
112.8966727825
 20
226.70649599750001
 30
0.0
 42
0.21746043
  0
VERTEX
  5
BE0
  8
CYAN
 10
112.7631278225
 20
229.28649925249999
 30
0.0
 42
0.21746043
  0
VERTEX
  5
BE1
  8
CYAN
 10
110.7263008675
 20
230.87570880499999
 30
0.0
  0
SEQEND
  5
BE2
  8
CYAN
  0
POLYLINE
  5
449
  8
CYAN
 66
     1
 10
0.0
 20
0.0
 30
0.0
 70
     1
  0
VERTEX
  5
BE3
  8
CYAN
 10
121.3884673125
 20
140.70185123499999
 30
0.0
  0
VERTEX
  5
BE4
  8
CYAN
 10
121.39653936000001
 20
141.20635423499999
 30
0.0
  0
VERTEX
  5
BE5
  8
CYAN
 10
114.74416277500001
 20
141.18314709750001
 30
0.0
  0
VERTEX
  5
BE6
  8
CYAN
 10
114.74517178000001
 20
142.68757504999999
 30
0.0
  0
VERTEX
  5
BE7
  8
CYAN
 10
120.4995330225
 20
142.71885423500001
 30
0.0
 42
0.0141627
  0
VERTEX
  5
BE8
  8
CYAN
 10
120.3391010675
 20
143.57146431000001
 30
0.0
 42
0.26891686
  0
VERTEX
  5
BE9
  8
CYAN
 10
118.63186290749999
 20
145.44720647
 30
0.0
 42
0.11071948
  0
VERTEX
  5
BEA
  8
CYAN
 10
96.178452302500006
 20
147.4177951975
 30
0.0
 42
0.3732979
  0
VERTEX
  5
BEB
  8
CYAN
 10
90.049749832499984
 20
140.481887925
 30
0.0
 42
0.22886172
  0
VERTEX
  5
BEC
  8
CYAN
 10
95.730248572500003
 20
128.425470045
 30
0.0
 42
0.22886172
  0
VERTEX
  5
BED
  8
CYAN
 10
108.70526184249999
 20
125.3800950625
 30
0.0
 42
0.29399543
  0
VERTEX
  5
BEE
  8
CYAN
 10
121.3884673125
 20
140.70185123499999
 30
0.0
  0
SEQEND
  5
BEF
  8
CYAN
  0
POLYLINE
  5
457
  8
CYAN
 66
     1
 10
0.0
 20
0.0
 30
0.0
 70
     1
  0
VERTEX
  5
BF0
  8
CYAN
 10
104.9668945975
 20
140.73212141499999
 30
0.0
 42
0.04878808
  0
VERTEX
  5
BF1
  8
CYAN
 10
96.581045697500016
 20
140.28412274749999
 30
0.0
 42
0.21876346
  0
VERTEX
  5
BF2
  8
CYAN
 10
94.408660795000003
 20
138.85962999
 30
0.0
 42
0.21876346
  0
VERTEX
  5
BF3
  8
CYAN
 10
94.074674782499997
 20
136.2834139425
 30
0.0
 42
0.31566599
  0
VERTEX
  5
BF4
  8
CYAN
 10
104.40623316999999
 20
128.34201931749999
 30
0.0
 42
0.31566599
  0
VERTEX
  5
BF5
  8
CYAN
 10
115.392953635
 20
135.34907438249999
 30
0.0
 42
0.22008142
  0
VERTEX
  5
BF6
  8
CYAN
 10
115.29673562249999
 20
137.941377625
 30
0.0
 42
0.22008142
  0
VERTEX
  5
BF7
  8
CYAN
 10
113.2589059375
 20
139.54653936
 30
0.0
 42
0.04866643
  0
VERTEX
  5
BF8
  8
CYAN
 10
104.9668945975
 20
140.73212141499999
 30
0.0
  0
SEQEND
  5
BF9
  8
CYAN
  0
ENDSEC
  0
EOF
