  0
SECTION
  2
HEADER
  9
$ACADVER
  1
AC1009
  9
$DWGCODEPAGE
  3
ansi_1252
  9
$INSBASE
 10
0.0
 20
0.0
 30
0.0
  9
$EXTMIN
 10
1.000000000000000E+20
 20
1.000000000000000E+20
 30
1.000000000000000E+20
  9
$EXTMAX
 10
-1.000000000000000E+20
 20
-1.000000000000000E+20
 30
-1.000000000000000E+20
  9
$LIMMIN
 10
0.0
 20
0.0
  9
$LIMMAX
 10
12.0
 20
9.0
  9
$ORTHOMODE
 70
     0
  9
$REGENMODE
 70
     1
  9
$FILLMODE
 70
     1
  9
$QTEXTMODE
 70
     0
  9
$MIRRTEXT
 70
     1
  9
$DRAGMODE
 70
     2
  9
$LTSCALE
 40
1.0
  9
$OSMODE
 70
    37
  9
$ATTMODE
 70
     1
  9
$TEXTSIZE
 40
0.2
  9
$TRACEWID
 40
0.05
  9
$TEXTSTYLE
  7
STANDARD
  9
$CLAYER
  8
0
  9
$CELTYPE
  6
BYLAYER
  9
$CECOLOR
 62
    18
  9
$DIMSCALE
 40
1.0
  9
$DIMASZ
 40
0.18
  9
$DIMEXO
 40
0.0625
  9
$DIMDLI
 40
0.38
  9
$DIMRND
 40
0.0
  9
$DIMDLE
 40
0.0
  9
$DIMEXE
 40
0.18
  9
$DIMTP
 40
0.0
  9
$DIMTM
 40
0.0
  9
$DIMTXT
 40
0.18
  9
$DIMCEN
 40
0.09
  9
$DIMTSZ
 40
0.0
  9
$DIMTOL
 70
     0
  9
$DIMLIM
 70
     0
  9
$DIMTIH
 70
     1
  9
$DIMTOH
 70
     1
  9
$DIMSE1
 70
     0
  9
$DIMSE2
 70
     0
  9
$DIMTAD
 70
     0
  9
$DIMZIN
 70
     0
  9
$DIMBLK
  1

  9
$DIMASO
 70
     1
  9
$DIMSHO
 70
     1
  9
$DIMPOST
  1

  9
$DIMAPOST
  1

  9
$DIMALT
 70
     0
  9
$DIMALTD
 70
     2
  9
$DIMALTF
 40
25.4
  9
$DIMLFAC
 40
1.0
  9
$DIMTOFL
 70
     0
  9
$DIMTVP
 40
0.0
  9
$DIMTIX
 70
     0
  9
$DIMSOXD
 70
     0
  9
$DIMSAH
 70
     0
  9
$DIMBLK1
  1

  9
$DIMBLK2
  1

  9
$DIMSTYLE
  2
STANDARD
  9
$DIMCLRD
 70
    18
  9
$DIMCLRE
 70
    18
  9
$DIMCLRT
 70
    18
  9
$DIMTFAC
 40
1.0
  9
$DIMGAP
 40
0.09
  9
$LUNITS
 70
     2
  9
$LUPREC
 70
     4
  9
$SKETCHINC
 40
0.1
  9
$FILLETRAD
 40
0.5
  9
$AUNITS
 70
     0
  9
$AUPREC
 70
     0
  9
$MENU
  1
.
  9
$ELEVATION
 40
0.0
  9
$PELEVATION
 40
0.0
  9
$THICKNESS
 40
0.0
  9
$LIMCHECK
 70
     0
  9
$CHAMFERA
 40
0.0
  9
$CHAMFERB
 40
0.0
  9
$SKPOLY
 70
     0
  9
$TDCREATE
 40
2458001.439489016
  9
$TDUPDATE
 40
2458001.439489329
  9
$TDINDWG
 40
0.0000000116
  9
$TDUSRTIMER
 40
0.0000000116
  9
$USRTIMER
 70
     1
  9
$ANGBASE
 50
0.0
  9
$ANGDIR
 70
     0
  9
$PDMODE
 70
     0
  9
$PDSIZE
 40
0.0
  9
$PLINEWID
 40
0.0
  9
$COORDS
 70
     1
  9
$SPLFRAME
 70
     0
  9
$SPLINETYPE
 70
     6
  9
$SPLINESEGS
 70
     8
  9
$ATTDIA
 70
     0
  9
$ATTREQ
 70
     1
  9
$HANDLING
 70
     1
  9
$HANDSEED
  5
98D
  9
$SURFTAB1
 70
     6
  9
$SURFTAB2
 70
     6
  9
$SURFTYPE
 70
     6
  9
$SURFU
 70
     6
  9
$SURFV
 70
     6
  9
$UCSNAME
  2

  9
$UCSORG
 10
0.0
 20
0.0
 30
0.0
  9
$UCSXDIR
 10
1.0
 20
0.0
 30
0.0
  9
$UCSYDIR
 10
0.0
 20
1.0
 30
0.0
  9
$PUCSNAME
  2

  9
$PUCSORG
 10
0.0
 20
0.0
 30
0.0
  9
$PUCSXDIR
 10
1.0
 20
0.0
 30
0.0
  9
$PUCSYDIR
 10
0.0
 20
1.0
 30
0.0
  9
$USERI1
 70
     0
  9
$USERI2
 70
     0
  9
$USERI3
 70
     0
  9
$USERI4
 70
     0
  9
$USERI5
 70
     0
  9
$USERR1
 40
0.0
  9
$USERR2
 40
0.0
  9
$USERR3
 40
0.0
  9
$USERR4
 40
0.0
  9
$USERR5
 40
0.0
  9
$WORLDVIEW
 70
     1
  9
$SHADEDGE
 70
     3
  9
$SHADEDIF
 70
    70
  9
$TILEMODE
 70
     1
  9
$MAXACTVP
 70
     2
  9
$PLIMCHECK
 70
     0
  9
$PEXTMIN
 10
1.000000000000000E+20
 20
1.000000000000000E+20
 30
1.000000000000000E+20
  9
$PEXTMAX
 10
-1.000000000000000E+20
 20
-1.000000000000000E+20
 30
-1.000000000000000E+20
  9
$PLIMMIN
 10
-0.25
 20
-0.25
  9
$PLIMMAX
 10
10.75
 20
8.25
  9
$UNITMODE
 70
     0
  9
$VISRETAIN
 70
     1
  9
$PLINEGEN
 70
     0
  9
$PSLTSCALE
 70
     1
  0
ENDSEC
  0
SECTION
  2
TABLES
  0
TABLE
  2
VPORT
 70
     1
  0
VPORT
  2
*ACTIVE
 70
     0
 10
0.0
 20
0.0
 11
1.0
 21
1.0
 12
116.5
 22
127.7763523427558
 13
0.0
 23
0.0
 14
0.5
 24
0.5
 15
0.5
 25
0.5
 16
0.0
 26
0.0
 36
1.0
 17
0.0
 27
0.0
 37
0.0
 40
280.2083897558048
 41
2.005326231691079
 42
50.0
 43
0.0
 44
0.0
 50
0.0
 51
0.0
 71
     0
 72
   100
 73
     1
 74
     3
 75
     0
 76
     0
 77
     0
 78
     0
  0
ENDTAB
  0
TABLE
  2
LTYPE
 70
    48
  0
LTYPE
  2
CONTINUOUS
 70
     0
  3
Solid line
 72
    65
 73
     0
 40
0.0
  0
LTYPE
  2
BORDERX2
 70
     0
  3
Border (2x) ____  ____  .  ____  ____  .  ___
 72
    65
 73
     6
 40
88.89999999999999
 49
25.4
 49
-12.7
 49
25.4
 49
-12.7
 49
0.0
 49
-12.7
  0
LTYPE
  2
BATTING
 70
     0
  3
Batting SSSSSSSSSSSSSSSSSSSSSSSSSSSSSSSSSSSSSSSSSSSSSSS
 72
    65
 73
     4
 40
10.16254
 49
0.00254
 49
-2.54
 49
-5.08
 49
-2.54
  0
LTYPE
  2
BORDER
 70
     0
  3
Border __ __ . __ __ . __ __ . __ __ . __ __ .
 72
    65
 73
     6
 40
44.45
 49
12.7
 49
-6.35
 49
12.7
 49
-6.35
 49
0.0
 49
-6.35
  0
LTYPE
  2
ACAD_ISO14W100
 70
     0
  3
ISO dash triple-dot __ . . . __ . . . __ . . . _
 72
    65
 73
     8
 40
24.0
 49
12.0
 49
-3.0
 49
0.0
 49
-3.0
 49
0.0
 49
-3.0
 49
0.0
 49
-3.0
  0
LTYPE
  2
ACAD_ISO15W100
 70
     0
  3
ISO double-dash triple-dot __ __ . . . __ __ . .
 72
    65
 73
    10
 40
39.0
 49
12.0
 49
-3.0
 49
12.0
 49
-3.0
 49
0.0
 49
-3.0
 49
0.0
 49
-3.0
 49
0.0
 49
-3.0
  0
LTYPE
  2
ACAD_ISO12W100
 70
     0
  3
ISO dash double-dot __ . . __ . . __ . . __ . . 
 72
    65
 73
     6
 40
21.0
 49
12.0
 49
-3.0
 49
0.0
 49
-3.0
 49
0.0
 49
-3.0
  0
LTYPE
  2
ACAD_ISO13W100
 70
     0
  3
ISO double-dash double-dot __ __ . . __ __ . . _
 72
    65
 73
     8
 40
36.0
 49
12.0
 49
-3.0
 49
12.0
 49
-3.0
 49
0.0
 49
-3.0
 49
0.0
 49
-3.0
  0
LTYPE
  2
ACAD_ISO10W100
 70
     0
  3
ISO dash dot __ . __ . __ . __ . __ . __ . __ . 
 72
    65
 73
     4
 40
18.0
 49
12.0
 49
-3.0
 49
0.0
 49
-3.0
  0
LTYPE
  2
ACAD_ISO11W100
 70
     0
  3
ISO double-dash dot __ __ . __ __ . __ __ . __ _
 72
    65
 73
     6
 40
33.0
 49
12.0
 49
-3.0
 49
12.0
 49
-3.0
 49
0.0
 49
-3.0
  0
LTYPE
  2
HIDDEN
 70
     0
  3
Hidden __ __ __ __ __ __ __ __ __ __ __ __ __ __
 72
    65
 73
     2
 40
9.524999999999999
 49
6.35
 49
-3.175
  0
LTYPE
  2
HIDDEN2
 70
     0
  3
Hidden (.5x) _ _ _ _ _ _ _ _ _ _ _ _ _ _ _ _ _ 
 72
    65
 73
     2
 40
4.762499999999999
 49
3.175
 49
-1.5875
  0
LTYPE
  2
FENCELINE2
 70
     0
  3
Fenceline square ----[]-----[]----[]-----[]----[]---
 72
    65
 73
     4
 40
36.83
 49
6.35
 49
-2.54
 49
-2.54
 49
25.4
  0
LTYPE
  2
GAS_LINE
 70
     0
  3
Gas line ----GAS----GAS----GAS----GAS----GAS----GAS--
 72
    65
 73
     3
 40
24.13
 49
12.7
 49
-5.08
 49
-6.35
  0
LTYPE
  2
DRAINAGE2
 70
     0
  3
Drainage reversed----<----<----<----
 72
    65
 73
     2
 40
10.16
 49
5.08
 49
5.08
  0
LTYPE
  2
FENCELINE1
 70
     0
  3
Fenceline circle ----0-----0----0-----0----0-----0--
 72
    65
 73
     4
 40
36.83
 49
6.35
 49
-2.54
 49
-2.54
 49
25.4
  0
LTYPE
  2
DOTX2
 70
     0
  3
Dot (2x) .  .  .  .  .  .  .  .  .  .  .  .  .  .
 72
    65
 73
     2
 40
12.7
 49
0.0
 49
-12.7
  0
LTYPE
  2
DRAINAGE
 70
     0
  3
Drainage ---->---->---->----
 72
    65
 73
     2
 40
10.16
 49
5.08
 49
5.08
  0
LTYPE
  2
DOT
 70
     0
  3
Dot . . . . . . . . . . . . . . . . . . . . . . . .
 72
    65
 73
     2
 40
6.35
 49
0.0
 49
-6.35
  0
LTYPE
  2
DOT2
 70
     0
  3
Dot (.5x) ........................................
 72
    65
 73
     2
 40
3.175
 49
0.0
 49
-3.175
  0
LTYPE
  2
DIVIDE2
 70
     0
  3
Divide (.5x) __..__..__..__..__..__..__..__.._
 72
    65
 73
     6
 40
15.875
 49
6.35
 49
-3.175
 49
0.0
 49
-3.175
 49
0.0
 49
-3.175
  0
LTYPE
  2
DIVIDEX2
 70
     0
  3
Divide (2x) ________  .  .  ________  .  .  _
 72
    65
 73
     6
 40
63.5
 49
25.4
 49
-12.7
 49
0.0
 49
-12.7
 49
0.0
 49
-12.7
  0
LTYPE
  2
DASHEDX2
 70
     0
  3
Dashed (2x) ____  ____  ____  ____  ____  ___
 72
    65
 73
     2
 40
38.09999999999999
 49
25.4
 49
-12.7
  0
LTYPE
  2
DIVIDE
 70
     0
  3
Divide ____ . . ____ . . ____ . . ____ . . ____
 72
    65
 73
     6
 40
31.75
 49
12.7
 49
-6.35
 49
0.0
 49
-6.35
 49
0.0
 49
-6.35
  0
LTYPE
  2
DASHED
 70
     0
  3
Dashed __ __ __ __ __ __ __ __ __ __ __ __ __ _
 72
    65
 73
     2
 40
19.05
 49
12.7
 49
-6.35
  0
LTYPE
  2
DASHED2
 70
     0
  3
Dashed (.5x) _ _ _ _ _ _ _ _ _ _ _ _ _ _ _ _ _ 
 72
    65
 73
     2
 40
9.524999999999999
 49
6.35
 49
-3.175
  0
LTYPE
  2
ZIGZAG
 70
     0
  3
Zig zag /\/\/\/\/\/\/\/\/\/\/\/\/\/\/\/\/\/\/\/\/\/\/\/
 72
    65
 73
     4
 40
20.32254
 49
0.00254
 49
-5.08
 49
-10.16
 49
-5.08
  0
LTYPE
  2
PHANTOMX2
 70
     0
  3
Phantom (2x) ____________    ____    ____   _
 72
    65
 73
     6
 40
127.0
 49
63.5
 49
-12.7
 49
12.7
 49
-12.7
 49
12.7
 49
-12.7
  0
LTYPE
  2
TRACKS
 70
     0
  3
Tracks -|-|-|-|-|-|-|-|-|-|-|-|-|-|-|-|-|-|-|-|-|-|-|-|-
 72
    65
 73
     2
 40
7.62
 49
3.81
 49
3.81
  0
LTYPE
  2
PHANTOM
 70
     0
  3
Phantom ______  __  __  ______  __  __  ______ 
 72
    65
 73
     6
 40
63.50000000000001
 49
31.75
 49
-6.35
 49
6.35
 49
-6.35
 49
6.35
 49
-6.35
  0
LTYPE
  2
PHANTOM2
 70
     0
  3
Phantom (.5x) ___ _ _ ___ _ _ ___ _ _ ___ _ _
 72
    65
 73
     6
 40
31.75
 49
15.875
 49
-3.175
 49
3.175
 49
-3.175
 49
3.175
 49
-3.175
  0
LTYPE
  2
HIDDENX2
 70
     0
  3
Hidden (2x) ____ ____ ____ ____ ____ ____ ____ 
 72
    65
 73
     2
 40
19.05
 49
12.7
 49
-6.35
  0
LTYPE
  2
HOT_WATER_SUPPLY
 70
     0
  3
Hot water supply ---- HW ---- HW ---- HW ----
 72
    65
 73
     3
 40
22.86
 49
12.7
 49
-5.08
 49
-5.08
  0
LTYPE
  2
ACAD_ISO08W100
 70
     0
  3
ISO long-dash short-dash ____ __ ____ __ ____ _
 72
    65
 73
     4
 40
36.0
 49
24.0
 49
-3.0
 49
6.0
 49
-3.0
  0
LTYPE
  2
ACAD_ISO09W100
 70
     0
  3
ISO long-dash double-short-dash ____ __ __ ____
 72
    65
 73
     6
 40
45.0
 49
24.0
 49
-3.0
 49
6.0
 49
-3.0
 49
6.0
 49
-3.0
  0
LTYPE
  2
ACAD_ISO06W100
 70
     0
  3
ISO long-dash triple-dot ____ ... ____ ... ____
 72
    65
 73
     8
 40
36.0
 49
24.0
 49
-3.0
 49
0.0
 49
-3.0
 49
0.0
 49
-3.0
 49
0.0
 49
-3.0
  0
LTYPE
  2
ACAD_ISO07W100
 70
     0
  3
ISO dot . . . . . . . . . . . . . . . . . . . . 
 72
    65
 73
     2
 40
3.0
 49
0.0
 49
-3.0
  0
LTYPE
  2
ACAD_ISO04W100
 70
     0
  3
ISO long-dash dot ____ . ____ . ____ . ____ . _
 72
    65
 73
     4
 40
30.0
 49
24.0
 49
-3.0
 49
0.0
 49
-3.0
  0
LTYPE
  2
ACAD_ISO05W100
 70
     0
  3
ISO long-dash double-dot ____ .. ____ .. ____ . 
 72
    65
 73
     6
 40
33.0
 49
24.0
 49
-3.0
 49
0.0
 49
-3.0
 49
0.0
 49
-3.0
  0
LTYPE
  2
ACAD_ISO02W100
 70
     0
  3
ISO dash __ __ __ __ __ __ __ __ __ __ __ __ __
 72
    65
 73
     2
 40
15.0
 49
12.0
 49
-3.0
  0
LTYPE
  2
ACAD_ISO03W100
 70
     0
  3
ISO dash space __    __    __    __    __    __
 72
    65
 73
     2
 40
30.0
 49
12.0
 49
-18.0
  0
LTYPE
  2
DASHDOT2
 70
     0
  3
Dash dot (.5x) _._._._._._._._._._._._._._._.
 72
    65
 73
     4
 40
12.7
 49
6.35
 49
-3.175
 49
0.0
 49
-3.175
  0
LTYPE
  2
DASHDOTX2
 70
     0
  3
Dash dot (2x) ____  .  ____  .  ____  .  ___
 72
    65
 73
     4
 40
50.8
 49
25.4
 49
-12.7
 49
0.0
 49
-12.7
  0
LTYPE
  2
CENTERX2
 70
     0
  3
Center (2x) ________  __  ________  __  _____
 72
    65
 73
     4
 40
101.6
 49
63.5
 49
-12.7
 49
12.7
 49
-12.7
  0
LTYPE
  2
DASHDOT
 70
     0
  3
Dash dot __ . __ . __ . __ . __ . __ . __ . __
 72
    65
 73
     4
 40
25.4
 49
12.7
 49
-6.35
 49
0.0
 49
-6.35
  0
LTYPE
  2
CENTER
 70
     0
  3
Center ____ _ ____ _ ____ _ ____ _ ____ _ ____
 72
    65
 73
     4
 40
50.8
 49
31.75
 49
-6.35
 49
6.35
 49
-6.35
  0
LTYPE
  2
CENTER2
 70
     0
  3
Center (.5x) ___ _ ___ _ ___ _ ___ _ ___ _ ___
 72
    65
 73
     4
 40
28.575
 49
19.05
 49
-3.175
 49
3.175
 49
-3.175
  0
LTYPE
  2
BORDER2
 70
     0
  3
Border (.5x) __.__.__.__.__.__.__.__.__.__.__.
 72
    65
 73
     6
 40
22.225
 49
6.35
 49
-3.175
 49
6.35
 49
-3.175
 49
0.0
 49
-3.175
  0
ENDTAB
  0
TABLE
  2
LAYER
 70
     7
  0
LAYER
  2
0
 70
     0
 62
     7
  6
CONTINUOUS
  0
LAYER
  2
GROUP_4
 70
     0
 62
     7
  6
CONTINUOUS
  0
LAYER
  2
GROUP_2
 70
     0
 62
     7
  6
CONTINUOUS
  0
LAYER
  2
LOVE_AND_PEACE_2
 70
     0
 62
     7
  6
CONTINUOUS
  0
LAYER
  2
GROUP_3
 70
     0
 62
     7
  6
CONTINUOUS
  0
LAYER
  2
GROUP_1
 70
     0
 62
     7
  6
CONTINUOUS
  0
LAYER
  2
MY3DLAYER
 70
     0
 62
     7
  6
CONTINUOUS
  0
ENDTAB
  0
TABLE
  2
STYLE
 70
    13
  0
STYLE
  2
STANDARD
 70
     0
 40
0.0
 41
1.0
 50
0.0
 71
     0
 42
0.2
  3
txt
  4

  0
STYLE
  2
QCADDIMTEXTSTYLE
 70
     0
 40
0.0
 41
1.0
 50
0.0
 71
     0
 42
0.2
  3

  4

  0
STYLE
  2
TEXTSTYLE0
 70
     0
 40
0.0
 41
1.0
 50
0.0
 71
     0
 42
0.2
  3
ltypeshp.shx
  4

  0
STYLE
  2
TEXTSTYLE1
 70
     0
 40
0.0
 41
1.0
 50
0.0
 71
     0
 42
0.2
  3
ltypeshp.shx
  4

  0
STYLE
  2
TEXTSTYLE2
 70
     0
 40
0.0
 41
1.0
 50
0.0
 71
     0
 42
0.2
  3
ltypeshp.shx
  4

  0
STYLE
  2
TEXTSTYLE3
 70
     0
 40
0.0
 41
1.0
 50
0.0
 71
     0
 42
0.2
  3
STANDARD
  4

  0
STYLE
  2
TEXTSTYLE4
 70
     0
 40
0.0
 41
1.0
 50
0.0
 71
     0
 42
0.2
  3
qcadshp.shx
  4

  0
STYLE
  2
TEXTSTYLE5
 70
     0
 40
0.0
 41
1.0
 50
0.0
 71
     0
 42
0.2
  3
ltypeshp.shx
  4

  0
STYLE
  2
TEXTSTYLE6
 70
     0
 40
0.0
 41
1.0
 50
0.0
 71
     0
 42
0.2
  3
qcadshp.shx
  4

  0
STYLE
  2
TEXTSTYLE7
 70
     0
 40
0.0
 41
1.0
 50
0.0
 71
     0
 42
0.2
  3
ltypeshp.shx
  4

  0
STYLE
  2
TEXTSTYLE8
 70
     0
 40
0.0
 41
1.0
 50
0.0
 71
     0
 42
0.2
  3
ltypeshp.shx
  4

  0
STYLE
  2
TEXTSTYLE9
 70
     0
 40
0.0
 41
1.0
 50
0.0
 71
     0
 42
0.2
  3
ltypeshp.shx
  4

  0
STYLE
  2
TEXTSTYLE10
 70
     0
 40
0.0
 41
1.0
 50
0.0
 71
     0
 42
0.2
  3
STANDARD
  4

  0
ENDTAB
  0
TABLE
  2
VIEW
 70
     0
  0
ENDTAB
  0
TABLE
  2
UCS
 70
     0
  0
ENDTAB
  0
TABLE
  2
APPID
 70
     2
  0
APPID
  2
ACAD
 70
     0
  0
APPID
  2
QCAD
 70
     0
  0
ENDTAB
  0
TABLE
  2
DIMSTYLE
 70
     2
  0
DIMSTYLE
  2
STANDARD
 70
     0
  3

  4

  5

  6

  7

 40
1.0
 41
0.18
 42
0.0625
 43
0.38
 44
0.18
 45
0.0
 46
0.0
 47
0.0
 48
0.0
140
0.18
141
0.09
142
0.0
143
25.4
144
1.0
145
0.0
146
1.0
147
0.09
 71
     0
 72
     0
 73
     1
 74
     1
 75
     0
 76
     0
 77
     0
 78
     0
170
     0
171
     2
172
     0
173
     0
174
     0
175
     0
176
     0
177
     0
178
     0
  0
DIMSTYLE
  2
QCADDIMSTYLE
 70
     0
  3

  4

  5

  6

  7

 40
1.0
 41
0.18
 42
0.0625
 43
0.38
 44
0.18
 45
0.0
 46
0.0
 47
0.0
 48
0.0
140
0.18
141
0.09
142
0.0
143
25.4
144
1.0
145
0.0
146
1.0
147
0.09
 71
     0
 72
     0
 73
     0
 74
     1
 75
     0
 76
     0
 77
     1
 78
     0
170
     0
171
     2
172
     0
173
     0
174
     0
175
     0
176
     0
177
     0
178
     0
  0
ENDTAB
  0
ENDSEC
  0
SECTION
  2
BLOCKS
  0
BLOCK
  8
0
  2
$MODEL_SPACE
 70
     0
 10
0.0
 20
0.0
 30
0.0
  3
$MODEL_SPACE
  1

  0
ENDBLK
  5
692
  8
0
  0
BLOCK
 67
     1
  8
0
  2
$PAPER_SPACE
 70
     0
 10
0.0
 20
0.0
 30
0.0
  3
$PAPER_SPACE
  1

  0
ENDBLK
  5
68E
 67
     1
  8
0
  0
ENDSEC
  0
SECTION
  2
ENTITIES
  0
POLYLINE
  5
672
  8
GROUP_2
 66
     1
 10
0.0
 20
0.0
 30
0.0
 70
   128
  0
VERTEX
  5
75D
  8
GROUP_2
 10
117.5384883749737
 20
149.9946150660175
 30
0.0
  0
VERTEX
  5
75E
  8
GROUP_2
 10
87.5384883749737
 20
149.9946150660175
 30
0.0
  0
VERTEX
  5
75F
  8
GROUP_2
 10
87.5384883749737
 20
146.9946150660175
 30
0.0
  0
VERTEX
  5
760
  8
GROUP_2
 10
72.5384883749737
 20
146.9946150660175
 30
0.0
  0
VERTEX
  5
761
  8
GROUP_2
 10
72.5384883749737
 20
149.9946150660175
 30
0.0
  0
VERTEX
  5
762
  8
GROUP_2
 10
57.53848837497369
 20
149.9946150660175
 30
0.0
  0
VERTEX
  5
763
  8
GROUP_2
 10
57.53848837497369
 20
146.9946150660175
 30
0.0
  0
VERTEX
  5
764
  8
GROUP_2
 10
42.53848837497369
 20
146.9946150660175
 30
0.0
  0
VERTEX
  5
765
  8
GROUP_2
 10
42.53848837497369
 20
149.9946150660175
 30
0.0
  0
VERTEX
  5
766
  8
GROUP_2
 10
27.53848837497369
 20
149.9946150660175
 30
0.0
  0
VERTEX
  5
767
  8
GROUP_2
 10
25.70720075652962
 20
150.0545652153366
 30
0.0
  0
VERTEX
  5
768
  8
GROUP_2
 10
23.88375499281219
 20
150.2341589475508
 30
0.0
  0
VERTEX
  5
769
  8
GROUP_2
 10
22.07595935852205
 20
150.5326272147271
 30
0.0
  0
VERTEX
  5
76A
  8
GROUP_2
 10
20.29155511210305
 20
150.9486919299236
 30
0.0
  0
VERTEX
  5
76B
  8
GROUP_2
 10
18.53818334648512
 20
151.4805714401546
 30
0.0
  0
VERTEX
  5
76C
  8
GROUP_2
 10
16.82335226875113
 20
152.1259881557015
 30
0.0
  0
VERTEX
  5
76D
  8
GROUP_2
 10
15.15440504884161
 20
152.8821783031023
 30
0.0
  0
VERTEX
  5
76E
  8
GROUP_2
 10
13.53848837497365
 20
153.7459037600533
 30
0.0
  0
VERTEX
  5
76F
  8
GROUP_2
 10
11.98252185042479
 20
154.7134659215463
 30
0.0
  0
VERTEX
  5
770
  8
GROUP_2
 10
10.49316836272948
 20
155.7807215378629
 30
0.0
  0
VERTEX
  5
771
  8
GROUP_2
 10
9.076805552171736
 20
156.9431004566062
 30
0.0
  0
VERTEX
  5
772
  8
GROUP_2
 10
7.739498501750336
 20
158.1956251927942
 30
0.0
  0
VERTEX
  5
773
  8
GROUP_2
 10
6.486973765562302
 20
159.5329322432156
 30
0.0
  0
VERTEX
  5
774
  8
GROUP_2
 10
5.324594846819091
 20
160.9492950537734
 30
0.0
  0
VERTEX
  5
775
  8
GROUP_2
 10
4.257339230502412
 20
162.4386485414687
 30
0.0
  0
VERTEX
  5
776
  8
GROUP_2
 10
3.289777069009399
 20
163.9946150660175
 30
0.0
  0
VERTEX
  5
777
  8
GROUP_2
 10
2.426051612058409
 20
165.6105317398855
 30
0.0
  0
VERTEX
  5
778
  8
GROUP_2
 10
1.669861464657655
 20
167.279478959795
 30
0.0
  0
VERTEX
  5
779
  8
GROUP_2
 10
1.024444749110732
 20
168.994310037529
 30
0.0
  0
VERTEX
  5
77A
  8
GROUP_2
 10
0.4925652388797803
 20
170.747681803147
 30
0.0
  0
VERTEX
  5
77B
  8
GROUP_2
 10
0.0765005236832427
 20
172.5320860495659
 30
0.0
  0
VERTEX
  5
77C
  8
GROUP_2
 10
-0.2219677434929966
 20
174.3398816838561
 30
0.0
  0
VERTEX
  5
77D
  8
GROUP_2
 10
-0.4015614757072056
 20
176.1633274475735
 30
0.0
  0
VERTEX
  5
77E
  8
GROUP_2
 10
-0.4615116250263031
 20
177.9946150660175
 30
0.0
  0
VERTEX
  5
77F
  8
GROUP_2
 10
-0.4015614757071999
 20
179.8259026844615
 30
0.0
  0
VERTEX
  5
780
  8
GROUP_2
 10
-0.2219677434929966
 20
181.649348448179
 30
0.0
  0
VERTEX
  5
781
  8
GROUP_2
 10
0.0765005236832427
 20
183.4571440824691
 30
0.0
  0
VERTEX
  5
782
  8
GROUP_2
 10
0.492565238879786
 20
185.2415483288881
 30
0.0
  0
VERTEX
  5
783
  8
GROUP_2
 10
1.024444749110743
 20
186.994920094506
 30
0.0
  0
VERTEX
  5
784
  8
GROUP_2
 10
1.669861464657666
 20
188.70975117224
 30
0.0
  0
VERTEX
  5
785
  8
GROUP_2
 10
2.426051612058426
 20
190.3786983921495
 30
0.0
  0
VERTEX
  5
786
  8
GROUP_2
 10
3.289777069009411
 20
191.9946150660175
 30
0.0
  0
VERTEX
  5
787
  8
GROUP_2
 10
4.257339230502426
 20
193.5505815905664
 30
0.0
  0
VERTEX
  5
788
  8
GROUP_2
 10
5.324594846819108
 20
195.0399350782617
 30
0.0
  0
VERTEX
  5
789
  8
GROUP_2
 10
6.486973765562325
 20
196.4562978888194
 30
0.0
  0
VERTEX
  5
78A
  8
GROUP_2
 10
7.739498501750364
 20
197.7936049392409
 30
0.0
  0
VERTEX
  5
78B
  8
GROUP_2
 10
9.076805552171766
 20
199.0461296754289
 30
0.0
  0
VERTEX
  5
78C
  8
GROUP_2
 10
10.49316836272952
 20
200.2085085941721
 30
0.0
  0
VERTEX
  5
78D
  8
GROUP_2
 10
11.98252185042483
 20
201.2757642104888
 30
0.0
  0
VERTEX
  5
78E
  8
GROUP_2
 10
13.5384883749737
 20
202.2433263719818
 30
0.0
  0
VERTEX
  5
78F
  8
GROUP_2
 10
15.15440504884166
 20
203.1070518289328
 30
0.0
  0
VERTEX
  5
790
  8
GROUP_2
 10
16.82335226875118
 20
203.8632419763336
 30
0.0
  0
VERTEX
  5
791
  8
GROUP_2
 10
18.53818334648517
 20
204.5086586918804
 30
0.0
  0
VERTEX
  5
792
  8
GROUP_2
 10
20.29155511210311
 20
205.0405382021114
 30
0.0
  0
VERTEX
  5
793
  8
GROUP_2
 10
22.0759593585221
 20
205.456602917308
 30
0.0
  0
VERTEX
  5
794
  8
GROUP_2
 10
23.88375499281225
 20
205.7550711844842
 30
0.0
  0
VERTEX
  5
795
  8
GROUP_2
 10
25.70720075652968
 20
205.9346649166984
 30
0.0
  0
VERTEX
  5
796
  8
GROUP_2
 10
27.53848837497369
 20
205.9946150660175
 30
0.0
  0
VERTEX
  5
797
  8
GROUP_2
 10
42.53848837497369
 20
205.9946150660175
 30
0.0
  0
VERTEX
  5
798
  8
GROUP_2
 10
42.53848837497369
 20
208.9946150660175
 30
0.0
  0
VERTEX
  5
799
  8
GROUP_2
 10
57.53848837497369
 20
208.9946150660175
 30
0.0
  0
VERTEX
  5
79A
  8
GROUP_2
 10
57.53848837497369
 20
205.9946150660175
 30
0.0
  0
VERTEX
  5
79B
  8
GROUP_2
 10
72.5384883749737
 20
205.9946150660175
 30
0.0
  0
VERTEX
  5
79C
  8
GROUP_2
 10
72.5384883749737
 20
208.9946150660175
 30
0.0
  0
VERTEX
  5
79D
  8
GROUP_2
 10
87.5384883749737
 20
208.9946150660175
 30
0.0
  0
VERTEX
  5
79E
  8
GROUP_2
 10
87.5384883749737
 20
205.9946150660175
 30
0.0
  0
VERTEX
  5
79F
  8
GROUP_2
 10
117.5384883749737
 20
205.9946150660175
 30
0.0
  0
VERTEX
  5
7A0
  8
GROUP_2
 10
117.5384883749737
 20
208.9946150660175
 30
0.0
  0
VERTEX
  5
7A1
  8
GROUP_2
 10
132.5384883749737
 20
208.9946150660175
 30
0.0
  0
VERTEX
  5
7A2
  8
GROUP_2
 10
132.5384883749737
 20
205.9946150660175
 30
0.0
  0
VERTEX
  5
7A3
  8
GROUP_2
 10
147.5384883749737
 20
205.9946150660175
 30
0.0
  0
VERTEX
  5
7A4
  8
GROUP_2
 10
147.5384883749737
 20
208.9946150660175
 30
0.0
  0
VERTEX
  5
7A5
  8
GROUP_2
 10
162.5384883749737
 20
208.9946150660175
 30
0.0
  0
VERTEX
  5
7A6
  8
GROUP_2
 10
162.5384883749737
 20
205.9946150660175
 30
0.0
  0
VERTEX
  5
7A7
  8
GROUP_2
 10
177.5384883749737
 20
205.9946150660175
 30
0.0
  0
VERTEX
  5
7A8
  8
GROUP_2
 10
179.3697759934177
 20
205.9346649166984
 30
0.0
  0
VERTEX
  5
7A9
  8
GROUP_2
 10
181.1932217571351
 20
205.7550711844842
 30
0.0
  0
VERTEX
  5
7AA
  8
GROUP_2
 10
183.0010173914253
 20
205.456602917308
 30
0.0
  0
VERTEX
  5
7AB
  8
GROUP_2
 10
184.7854216378443
 20
205.0405382021114
 30
0.0
  0
VERTEX
  5
7AC
  8
GROUP_2
 10
186.5387934034622
 20
204.5086586918804
 30
0.0
  0
VERTEX
  5
7AD
  8
GROUP_2
 10
188.2536244811962
 20
203.8632419763336
 30
0.0
  0
VERTEX
  5
7AE
  8
GROUP_2
 10
189.9225717011057
 20
203.1070518289328
 30
0.0
  0
VERTEX
  5
7AF
  8
GROUP_2
 10
191.5384883749737
 20
202.2433263719818
 30
0.0
  0
VERTEX
  5
7B0
  8
GROUP_2
 10
193.0944548995226
 20
201.2757642104888
 30
0.0
  0
VERTEX
  5
7B1
  8
GROUP_2
 10
194.5838083872179
 20
200.2085085941721
 30
0.0
  0
VERTEX
  5
7B2
  8
GROUP_2
 10
196.0001711977756
 20
199.0461296754289
 30
0.0
  0
VERTEX
  5
7B3
  8
GROUP_2
 10
197.337478248197
 20
197.7936049392409
 30
0.0
  0
VERTEX
  5
7B4
  8
GROUP_2
 10
198.5900029843851
 20
196.4562978888194
 30
0.0
  0
VERTEX
  5
7B5
  8
GROUP_2
 10
199.7523819031283
 20
195.0399350782617
 30
0.0
  0
VERTEX
  5
7B6
  8
GROUP_2
 10
200.819637519445
 20
193.5505815905664
 30
0.0
  0
VERTEX
  5
7B7
  8
GROUP_2
 10
201.787199680938
 20
191.9946150660175
 30
0.0
  0
VERTEX
  5
7B8
  8
GROUP_2
 10
202.650925137889
 20
190.3786983921495
 30
0.0
  0
VERTEX
  5
7B9
  8
GROUP_2
 10
203.4071152852897
 20
188.70975117224
 30
0.0
  0
VERTEX
  5
7BA
  8
GROUP_2
 10
204.0525320008366
 20
186.994920094506
 30
0.0
  0
VERTEX
  5
7BB
  8
GROUP_2
 10
204.5844115110676
 20
185.2415483288881
 30
0.0
  0
VERTEX
  5
7BC
  8
GROUP_2
 10
205.0004762262641
 20
183.4571440824691
 30
0.0
  0
VERTEX
  5
7BD
  8
GROUP_2
 10
205.2989444934404
 20
181.649348448179
 30
0.0
  0
VERTEX
  5
7BE
  8
GROUP_2
 10
205.4785382256546
 20
179.8259026844615
 30
0.0
  0
VERTEX
  5
7BF
  8
GROUP_2
 10
205.5384883749737
 20
177.9946150660175
 30
0.0
  0
VERTEX
  5
7C0
  8
GROUP_2
 10
205.4785382256546
 20
176.1633274475735
 30
0.0
  0
VERTEX
  5
7C1
  8
GROUP_2
 10
205.2989444934404
 20
174.3398816838561
 30
0.0
  0
VERTEX
  5
7C2
  8
GROUP_2
 10
205.0004762262641
 20
172.5320860495659
 30
0.0
  0
VERTEX
  5
7C3
  8
GROUP_2
 10
204.5844115110676
 20
170.747681803147
 30
0.0
  0
VERTEX
  5
7C4
  8
GROUP_2
 10
204.0525320008367
 20
168.994310037529
 30
0.0
  0
VERTEX
  5
7C5
  8
GROUP_2
 10
203.4071152852897
 20
167.279478959795
 30
0.0
  0
VERTEX
  5
7C6
  8
GROUP_2
 10
202.650925137889
 20
165.6105317398855
 30
0.0
  0
VERTEX
  5
7C7
  8
GROUP_2
 10
201.787199680938
 20
163.9946150660175
 30
0.0
  0
VERTEX
  5
7C8
  8
GROUP_2
 10
200.819637519445
 20
162.4386485414687
 30
0.0
  0
VERTEX
  5
7C9
  8
GROUP_2
 10
199.7523819031283
 20
160.9492950537734
 30
0.0
  0
VERTEX
  5
7CA
  8
GROUP_2
 10
198.5900029843851
 20
159.5329322432156
 30
0.0
  0
VERTEX
  5
7CB
  8
GROUP_2
 10
197.337478248197
 20
158.1956251927942
 30
0.0
  0
VERTEX
  5
7CC
  8
GROUP_2
 10
196.0001711977756
 20
156.9431004566062
 30
0.0
  0
VERTEX
  5
7CD
  8
GROUP_2
 10
194.5838083872179
 20
155.7807215378629
 30
0.0
  0
VERTEX
  5
7CE
  8
GROUP_2
 10
193.0944548995226
 20
154.7134659215463
 30
0.0
  0
VERTEX
  5
7CF
  8
GROUP_2
 10
191.5384883749737
 20
153.7459037600533
 30
0.0
  0
VERTEX
  5
7D0
  8
GROUP_2
 10
189.9225717011058
 20
152.8821783031023
 30
0.0
  0
VERTEX
  5
7D1
  8
GROUP_2
 10
188.2536244811963
 20
152.1259881557015
 30
0.0
  0
VERTEX
  5
7D2
  8
GROUP_2
 10
186.5387934034623
 20
151.4805714401546
 30
0.0
  0
VERTEX
  5
7D3
  8
GROUP_2
 10
184.7854216378443
 20
150.9486919299236
 30
0.0
  0
VERTEX
  5
7D4
  8
GROUP_2
 10
183.0010173914253
 20
150.5326272147271
 30
0.0
  0
VERTEX
  5
7D5
  8
GROUP_2
 10
181.1932217571352
 20
150.2341589475508
 30
0.0
  0
VERTEX
  5
7D6
  8
GROUP_2
 10
179.3697759934178
 20
150.0545652153366
 30
0.0
  0
VERTEX
  5
7D7
  8
GROUP_2
 10
177.5384883749737
 20
149.9946150660175
 30
0.0
  0
VERTEX
  5
7D8
  8
GROUP_2
 10
162.5384883749737
 20
149.9946150660175
 30
0.0
  0
VERTEX
  5
7D9
  8
GROUP_2
 10
162.5384883749737
 20
146.9946150660175
 30
0.0
  0
VERTEX
  5
7DA
  8
GROUP_2
 10
147.5384883749737
 20
146.9946150660175
 30
0.0
  0
VERTEX
  5
7DB
  8
GROUP_2
 10
147.5384883749737
 20
149.9946150660175
 30
0.0
  0
VERTEX
  5
7DC
  8
GROUP_2
 10
132.5384883749737
 20
149.9946150660175
 30
0.0
  0
VERTEX
  5
7DD
  8
GROUP_2
 10
132.5384883749737
 20
146.9946150660175
 30
0.0
  0
VERTEX
  5
7DE
  8
GROUP_2
 10
117.5384883749737
 20
146.9946150660175
 30
0.0
  0
VERTEX
  5
7DF
  8
GROUP_2
 10
117.5384883749737
 20
149.9946150660175
 30
0.0
  0
SEQEND
  5
987
  8
GROUP_2
  0
LINE
  5
A7
  8
GROUP_3
 10
89.3480981962231
 20
92.29728453930232
 30
0.0
 11
89.3480981962231
 21
62.29728453930226
 31
0.0
  0
LINE
  5
A8
  8
GROUP_3
 10
81.34809819622309
 20
92.29728453930232
 30
0.0
 11
81.34809819622309
 21
62.29728453930226
 31
0.0
  0
LINE
  5
A9
  8
GROUP_3
 10
129.3480981962231
 20
92.29728453930232
 30
0.0
 11
129.3480981962231
 21
62.29728453930226
 31
0.0
  0
LINE
  5
AA
  8
GROUP_3
 10
135.3480981962232
 20
97.29728453930232
 30
0.0
 11
135.3480981962232
 21
79.79728453930232
 31
0.0
  0
LINE
  5
AB
  8
GROUP_3
 10
99.3480981962231
 20
97.29728453930232
 30
0.0
 11
99.3480981962231
 21
79.79728453930232
 31
0.0
  0
LINE
  5
AC
  8
GROUP_3
 10
99.3480981962231
 20
57.29728453930226
 30
0.0
 11
99.3480981962231
 21
74.79728453930227
 31
0.0
  0
LINE
  5
AD
  8
GROUP_3
 10
115.3480981962231
 20
97.29728453930232
 30
0.0
 11
115.3480981962231
 21
79.79728453930232
 31
0.0
  0
LINE
  5
AE
  8
GROUP_3
 10
103.3480981962231
 20
57.29728453930226
 30
0.0
 11
103.3480981962231
 21
74.79728453930227
 31
0.0
  0
LINE
  5
AF
  8
GROUP_3
 10
135.3480981962232
 20
57.29728453930226
 30
0.0
 11
135.3480981962232
 21
74.79728453930227
 31
0.0
  0
LINE
  5
B0
  8
GROUP_3
 10
155.3480981962232
 20
97.29728453930232
 30
0.0
 11
155.3480981962232
 21
79.79728453930232
 31
0.0
  0
LINE
  5
B1
  8
GROUP_3
 10
155.3480981962232
 20
57.29728453930226
 30
0.0
 11
155.3480981962232
 21
74.79728453930227
 31
0.0
  0
LINE
  5
B2
  8
GROUP_3
 10
151.3480981962232
 20
97.29728453930232
 30
0.0
 11
151.3480981962232
 21
79.79728453930232
 31
0.0
  0
LINE
  5
B3
  8
GROUP_3
 10
151.3480981962232
 20
57.29728453930226
 30
0.0
 11
151.3480981962232
 21
74.79728453930227
 31
0.0
  0
LINE
  5
B4
  8
GROUP_3
 10
147.3480981962232
 20
97.29728453930232
 30
0.0
 11
147.3480981962232
 21
79.79728453930232
 31
0.0
  0
LINE
  5
B5
  8
GROUP_3
 10
147.3480981962232
 20
57.29728453930226
 30
0.0
 11
147.3480981962232
 21
74.79728453930227
 31
0.0
  0
LINE
  5
B6
  8
GROUP_3
 10
143.3480981962232
 20
97.29728453930232
 30
0.0
 11
143.3480981962232
 21
79.79728453930232
 31
0.0
  0
LINE
  5
B7
  8
GROUP_3
 10
143.3480981962232
 20
57.29728453930226
 30
0.0
 11
143.3480981962232
 21
74.79728453930227
 31
0.0
  0
LINE
  5
B8
  8
GROUP_3
 10
139.3480981962232
 20
97.29728453930232
 30
0.0
 11
139.3480981962232
 21
79.79728453930232
 31
0.0
  0
LINE
  5
B9
  8
GROUP_3
 10
139.3480981962232
 20
57.29728453930226
 30
0.0
 11
139.3480981962232
 21
74.79728453930227
 31
0.0
  0
LINE
  5
BA
  8
GROUP_3
 10
119.3480981962231
 20
57.29728453930226
 30
0.0
 11
119.3480981962231
 21
74.79728453930227
 31
0.0
  0
LINE
  5
BB
  8
GROUP_3
 10
123.3480981962231
 20
57.29728453930226
 30
0.0
 11
123.3480981962231
 21
74.79728453930227
 31
0.0
  0
LINE
  5
BC
  8
GROUP_3
 10
119.3480981962231
 20
97.29728453930232
 30
0.0
 11
119.3480981962231
 21
79.79728453930232
 31
0.0
  0
LINE
  5
BD
  8
GROUP_3
 10
125.3480981962231
 20
92.29728453930232
 30
0.0
 11
125.3480981962231
 21
62.29728453930226
 31
0.0
  0
LINE
  5
BE
  8
GROUP_3
 10
145.3480981962231
 20
92.29728453930232
 30
0.0
 11
145.3480981962231
 21
62.29728453930226
 31
0.0
  0
LINE
  5
BF
  8
GROUP_3
 10
137.3480981962232
 20
92.29728453930232
 30
0.0
 11
137.3480981962232
 21
62.29728453930226
 31
0.0
  0
LINE
  5
C0
  8
GROUP_3
 10
117.3480981962231
 20
92.29728453930232
 30
0.0
 11
117.3480981962231
 21
62.29728453930226
 31
0.0
  0
LINE
  5
C1
  8
GROUP_3
 10
109.3480981962231
 20
92.29728453930232
 30
0.0
 11
109.3480981962231
 21
62.29728453930226
 31
0.0
  0
LINE
  5
C2
  8
GROUP_3
 10
141.3480981962232
 20
92.29728453930232
 30
0.0
 11
141.3480981962232
 21
62.29728453930226
 31
0.0
  0
LINE
  5
C3
  8
GROUP_3
 10
101.3480981962231
 20
92.29728453930232
 30
0.0
 11
101.3480981962231
 21
62.29728453930226
 31
0.0
  0
LINE
  5
C4
  8
GROUP_3
 10
105.3480981962231
 20
92.29728453930232
 30
0.0
 11
105.3480981962231
 21
62.29728453930226
 31
0.0
  0
LINE
  5
C5
  8
GROUP_3
 10
93.3480981962231
 20
92.29728453930232
 30
0.0
 11
93.3480981962231
 21
62.29728453930226
 31
0.0
  0
LINE
  5
C6
  8
GROUP_3
 10
113.3480981962231
 20
92.29728453930232
 30
0.0
 11
113.3480981962231
 21
62.29728453930226
 31
0.0
  0
LINE
  5
C7
  8
GROUP_3
 10
85.3480981962231
 20
92.29728453930232
 30
0.0
 11
85.3480981962231
 21
62.29728453930226
 31
0.0
  0
LINE
  5
C8
  8
GROUP_3
 10
121.3480981962231
 20
92.29728453930232
 30
0.0
 11
121.3480981962231
 21
62.29728453930226
 31
0.0
  0
LINE
  5
C9
  8
GROUP_3
 10
95.34809819622312
 20
97.29728453930232
 30
0.0
 11
95.34809819622312
 21
79.79728453930232
 31
0.0
  0
LINE
  5
CA
  8
GROUP_3
 10
95.34809819622312
 20
57.29728453930226
 30
0.0
 11
95.34809819622312
 21
74.79728453930227
 31
0.0
  0
LINE
  5
CB
  8
GROUP_3
 10
111.3480981962231
 20
97.29728453930232
 30
0.0
 11
111.3480981962231
 21
79.79728453930232
 31
0.0
  0
LINE
  5
CC
  8
GROUP_3
 10
91.3480981962231
 20
97.29728453930232
 30
0.0
 11
91.3480981962231
 21
79.79728453930232
 31
0.0
  0
LINE
  5
CD
  8
GROUP_3
 10
111.3480981962231
 20
57.29728453930226
 30
0.0
 11
111.3480981962231
 21
74.79728453930227
 31
0.0
  0
LINE
  5
CE
  8
GROUP_3
 10
91.3480981962231
 20
57.29728453930226
 30
0.0
 11
91.3480981962231
 21
74.79728453930227
 31
0.0
  0
LINE
  5
CF
  8
GROUP_3
 10
87.3480981962231
 20
97.29728453930232
 30
0.0
 11
87.3480981962231
 21
79.79728453930232
 31
0.0
  0
LINE
  5
D0
  8
GROUP_3
 10
87.3480981962231
 20
57.29728453930226
 30
0.0
 11
87.3480981962231
 21
74.79728453930227
 31
0.0
  0
LINE
  5
D1
  8
GROUP_3
 10
115.3480981962231
 20
57.29728453930226
 30
0.0
 11
115.3480981962231
 21
74.79728453930227
 31
0.0
  0
LINE
  5
D2
  8
GROUP_3
 10
107.3480981962231
 20
97.29728453930232
 30
0.0
 11
107.3480981962231
 21
79.79728453930232
 31
0.0
  0
LINE
  5
D3
  8
GROUP_3
 10
83.3480981962231
 20
97.29728453930232
 30
0.0
 11
83.3480981962231
 21
79.79728453930232
 31
0.0
  0
LINE
  5
D4
  8
GROUP_3
 10
83.3480981962231
 20
57.29728453930226
 30
0.0
 11
83.3480981962231
 21
74.79728453930227
 31
0.0
  0
LINE
  5
D5
  8
GROUP_3
 10
107.3480981962231
 20
57.29728453930226
 30
0.0
 11
107.3480981962231
 21
74.79728453930227
 31
0.0
  0
LINE
  5
D6
  8
GROUP_3
 10
133.3480981962231
 20
92.29728453930232
 30
0.0
 11
133.3480981962231
 21
62.29728453930226
 31
0.0
  0
LINE
  5
D7
  8
GROUP_3
 10
97.3480981962231
 20
92.29728453930232
 30
0.0
 11
97.3480981962231
 21
62.29728453930226
 31
0.0
  0
LINE
  5
D8
  8
GROUP_3
 10
131.3480981962232
 20
97.29728453930232
 30
0.0
 11
131.3480981962232
 21
79.79728453930232
 31
0.0
  0
LINE
  5
D9
  8
GROUP_3
 10
75.34809819622309
 20
57.29728453930226
 30
0.0
 11
75.34809819622309
 21
74.79728453930227
 31
0.0
  0
LINE
  5
DA
  8
GROUP_3
 10
75.34809819622309
 20
97.29728453930232
 30
0.0
 11
75.34809819622309
 21
79.79728453930232
 31
0.0
  0
LINE
  5
DB
  8
GROUP_3
 10
79.3480981962231
 20
97.29728453930232
 30
0.0
 11
79.3480981962231
 21
79.79728453930232
 31
0.0
  0
LINE
  5
DC
  8
GROUP_3
 10
79.3480981962231
 20
57.29728453930226
 30
0.0
 11
79.3480981962231
 21
74.79728453930227
 31
0.0
  0
LINE
  5
DD
  8
GROUP_3
 10
103.3480981962231
 20
97.29728453930232
 30
0.0
 11
103.3480981962231
 21
79.79728453930232
 31
0.0
  0
LINE
  5
DE
  8
GROUP_3
 10
127.3480981962231
 20
97.29728453930232
 30
0.0
 11
127.3480981962231
 21
79.79728453930232
 31
0.0
  0
LINE
  5
DF
  8
GROUP_3
 10
131.3480981962232
 20
57.29728453930226
 30
0.0
 11
131.3480981962232
 21
74.79728453930227
 31
0.0
  0
LINE
  5
E0
  8
GROUP_3
 10
127.3480981962231
 20
57.29728453930226
 30
0.0
 11
127.3480981962231
 21
74.79728453930227
 31
0.0
  0
LINE
  5
E1
  8
GROUP_3
 10
123.3480981962231
 20
97.29728453930232
 30
0.0
 11
123.3480981962231
 21
79.79728453930232
 31
0.0
  0
LINE
  5
E2
  8
GROUP_3
 10
149.3480981962232
 20
92.29728453930232
 30
0.0
 11
149.3480981962232
 21
62.29728453930226
 31
0.0
  0
LINE
  5
E3
  8
GROUP_3
 10
153.3480981962232
 20
92.29728453930232
 30
0.0
 11
153.3480981962232
 21
62.29728453930226
 31
0.0
  0
LINE
  5
E4
  8
GROUP_3
 10
77.34809819622309
 20
92.29728453930232
 30
0.0
 11
77.34809819622309
 21
62.29728453930226
 31
0.0
  0
POLYLINE
  5
E5
  8
GROUP_3
 66
     1
 10
0.0
 20
0.0
 30
0.0
 70
   128
  0
VERTEX
  5
7E0
  8
GROUP_3
 10
0.3480981962230981
 20
57.29728453930226
 30
0.0
  0
VERTEX
  5
7E1
  8
GROUP_3
 10
0.3480981962230981
 20
72.29728453930232
 30
0.0
  0
VERTEX
  5
7E2
  8
GROUP_3
 10
-4.651901803776902
 20
72.29728453930232
 30
0.0
  0
VERTEX
  5
7E3
  8
GROUP_3
 10
-4.651901803776902
 20
82.29728453930232
 30
0.0
  0
VERTEX
  5
7E4
  8
GROUP_3
 10
0.3480981962230981
 20
82.29728453930232
 30
0.0
  0
VERTEX
  5
7E5
  8
GROUP_3
 10
0.3480981962230981
 20
97.29728453930232
 30
0.0
  0
VERTEX
  5
7E6
  8
GROUP_3
 10
75.34809819622309
 20
97.29728453930232
 30
0.0
  0
VERTEX
  5
7E7
  8
GROUP_3
 10
79.3480981962231
 20
97.29728453930232
 30
0.0
  0
VERTEX
  5
7E8
  8
GROUP_3
 10
83.3480981962231
 20
97.29728453930232
 30
0.0
  0
VERTEX
  5
7E9
  8
GROUP_3
 10
87.3480981962231
 20
97.29728453930232
 30
0.0
  0
VERTEX
  5
7EA
  8
GROUP_3
 10
91.3480981962231
 20
97.29728453930232
 30
0.0
  0
VERTEX
  5
7EB
  8
GROUP_3
 10
95.34809819622312
 20
97.29728453930232
 30
0.0
  0
VERTEX
  5
7EC
  8
GROUP_3
 10
99.3480981962231
 20
97.29728453930232
 30
0.0
  0
VERTEX
  5
7ED
  8
GROUP_3
 10
103.3480981962231
 20
97.29728453930232
 30
0.0
  0
VERTEX
  5
7EE
  8
GROUP_3
 10
107.3480981962231
 20
97.29728453930232
 30
0.0
  0
VERTEX
  5
7EF
  8
GROUP_3
 10
111.3480981962231
 20
97.29728453930232
 30
0.0
  0
VERTEX
  5
7F0
  8
GROUP_3
 10
115.3480981962231
 20
97.29728453930232
 30
0.0
  0
VERTEX
  5
7F1
  8
GROUP_3
 10
119.3480981962231
 20
97.29728453930232
 30
0.0
  0
VERTEX
  5
7F2
  8
GROUP_3
 10
123.3480981962231
 20
97.29728453930232
 30
0.0
  0
VERTEX
  5
7F3
  8
GROUP_3
 10
127.3480981962231
 20
97.29728453930232
 30
0.0
  0
VERTEX
  5
7F4
  8
GROUP_3
 10
131.3480981962232
 20
97.29728453930232
 30
0.0
  0
VERTEX
  5
7F5
  8
GROUP_3
 10
135.3480981962232
 20
97.29728453930232
 30
0.0
  0
VERTEX
  5
7F6
  8
GROUP_3
 10
139.3480981962232
 20
97.29728453930232
 30
0.0
  0
VERTEX
  5
7F7
  8
GROUP_3
 10
143.3480981962232
 20
97.29728453930232
 30
0.0
  0
VERTEX
  5
7F8
  8
GROUP_3
 10
147.3480981962232
 20
97.29728453930232
 30
0.0
  0
VERTEX
  5
7F9
  8
GROUP_3
 10
151.3480981962232
 20
97.29728453930232
 30
0.0
  0
VERTEX
  5
7FA
  8
GROUP_3
 10
155.3480981962232
 20
97.29728453930232
 30
0.0
  0
VERTEX
  5
7FB
  8
GROUP_3
 10
229.348098196223
 20
97.29728453930232
 30
0.0
  0
VERTEX
  5
7FC
  8
GROUP_3
 10
229.348098196223
 20
82.29728453930232
 30
0.0
  0
VERTEX
  5
7FD
  8
GROUP_3
 10
224.348098196223
 20
82.29728453930232
 30
0.0
  0
VERTEX
  5
7FE
  8
GROUP_3
 10
224.348098196223
 20
72.29728453930232
 30
0.0
  0
VERTEX
  5
7FF
  8
GROUP_3
 10
229.348098196223
 20
72.29728453930232
 30
0.0
  0
VERTEX
  5
800
  8
GROUP_3
 10
229.348098196223
 20
57.29728453930226
 30
0.0
  0
VERTEX
  5
801
  8
GROUP_3
 10
214.348098196223
 20
57.29728453930226
 30
0.0
  0
VERTEX
  5
802
  8
GROUP_3
 10
214.348098196223
 20
60.29728453930225
 30
0.0
  0
VERTEX
  5
803
  8
GROUP_3
 10
199.348098196223
 20
60.29728453930225
 30
0.0
  0
VERTEX
  5
804
  8
GROUP_3
 10
199.348098196223
 20
57.29728453930226
 30
0.0
  0
VERTEX
  5
805
  8
GROUP_3
 10
184.348098196223
 20
57.29728453930226
 30
0.0
  0
VERTEX
  5
806
  8
GROUP_3
 10
184.348098196223
 20
60.29728453930225
 30
0.0
  0
VERTEX
  5
807
  8
GROUP_3
 10
169.348098196223
 20
60.29728453930225
 30
0.0
  0
VERTEX
  5
808
  8
GROUP_3
 10
169.348098196223
 20
57.29728453930226
 30
0.0
  0
VERTEX
  5
809
  8
GROUP_3
 10
155.3480981962232
 20
57.29728453930226
 30
0.0
  0
VERTEX
  5
80A
  8
GROUP_3
 10
151.3480981962232
 20
57.29728453930226
 30
0.0
  0
VERTEX
  5
80B
  8
GROUP_3
 10
147.3480981962232
 20
57.29728453930226
 30
0.0
  0
VERTEX
  5
80C
  8
GROUP_3
 10
143.3480981962232
 20
57.29728453930226
 30
0.0
  0
VERTEX
  5
80D
  8
GROUP_3
 10
139.3480981962232
 20
57.29728453930226
 30
0.0
  0
VERTEX
  5
80E
  8
GROUP_3
 10
135.3480981962232
 20
57.29728453930226
 30
0.0
  0
VERTEX
  5
80F
  8
GROUP_3
 10
131.3480981962232
 20
57.29728453930226
 30
0.0
  0
VERTEX
  5
810
  8
GROUP_3
 10
127.3480981962231
 20
57.29728453930226
 30
0.0
  0
VERTEX
  5
811
  8
GROUP_3
 10
123.3480981962231
 20
57.29728453930226
 30
0.0
  0
VERTEX
  5
812
  8
GROUP_3
 10
119.3480981962231
 20
57.29728453930226
 30
0.0
  0
VERTEX
  5
813
  8
GROUP_3
 10
115.3480981962231
 20
57.29728453930226
 30
0.0
  0
VERTEX
  5
814
  8
GROUP_3
 10
111.3480981962231
 20
57.29728453930226
 30
0.0
  0
VERTEX
  5
815
  8
GROUP_3
 10
107.3480981962231
 20
57.29728453930226
 30
0.0
  0
VERTEX
  5
816
  8
GROUP_3
 10
103.3480981962231
 20
57.29728453930226
 30
0.0
  0
VERTEX
  5
817
  8
GROUP_3
 10
99.3480981962231
 20
57.29728453930226
 30
0.0
  0
VERTEX
  5
818
  8
GROUP_3
 10
95.34809819622312
 20
57.29728453930226
 30
0.0
  0
VERTEX
  5
819
  8
GROUP_3
 10
91.3480981962231
 20
57.29728453930226
 30
0.0
  0
VERTEX
  5
81A
  8
GROUP_3
 10
87.3480981962231
 20
57.29728453930226
 30
0.0
  0
VERTEX
  5
81B
  8
GROUP_3
 10
83.3480981962231
 20
57.29728453930226
 30
0.0
  0
VERTEX
  5
81C
  8
GROUP_3
 10
79.3480981962231
 20
57.29728453930226
 30
0.0
  0
VERTEX
  5
81D
  8
GROUP_3
 10
75.34809819622309
 20
57.29728453930226
 30
0.0
  0
VERTEX
  5
81E
  8
GROUP_3
 10
60.34809819622308
 20
57.29728453930226
 30
0.0
  0
VERTEX
  5
81F
  8
GROUP_3
 10
60.34809819622309
 20
60.29728453930225
 30
0.0
  0
VERTEX
  5
820
  8
GROUP_3
 10
45.34809819622309
 20
60.29728453930225
 30
0.0
  0
VERTEX
  5
821
  8
GROUP_3
 10
45.34809819622309
 20
57.29728453930226
 30
0.0
  0
VERTEX
  5
822
  8
GROUP_3
 10
30.3480981962231
 20
57.29728453930226
 30
0.0
  0
VERTEX
  5
823
  8
GROUP_3
 10
30.3480981962231
 20
60.29728453930225
 30
0.0
  0
VERTEX
  5
824
  8
GROUP_3
 10
15.3480981962231
 20
60.29728453930225
 30
0.0
  0
VERTEX
  5
825
  8
GROUP_3
 10
15.3480981962231
 20
57.29728453930226
 30
0.0
  0
VERTEX
  5
826
  8
GROUP_3
 10
0.3480981962230981
 20
57.29728453930226
 30
0.0
  0
SEQEND
  5
988
  8
GROUP_3
  0
POLYLINE
  5
12E
  8
GROUP_4
 66
     1
 10
0.0
 20
0.0
 30
0.0
 70
   128
  0
VERTEX
  5
827
  8
GROUP_4
 10
84.963301
 20
49.99999999999999
 30
0.0
  0
VERTEX
  5
828
  8
GROUP_4
 10
114.963301
 20
49.99999999999999
 30
0.0
  0
VERTEX
  5
829
  8
GROUP_4
 10
114.963301
 20
52.99999999999999
 30
0.0
  0
VERTEX
  5
82A
  8
GROUP_4
 10
129.963301
 20
52.99999999999999
 30
0.0
  0
VERTEX
  5
82B
  8
GROUP_4
 10
129.963301
 20
49.99999999999999
 30
0.0
  0
VERTEX
  5
82C
  8
GROUP_4
 10
144.963301
 20
49.99999999999999
 30
0.0
  0
VERTEX
  5
82D
  8
GROUP_4
 10
144.963301
 20
52.99999999999999
 30
0.0
  0
VERTEX
  5
82E
  8
GROUP_4
 10
159.963301
 20
52.99999999999999
 30
0.0
  0
VERTEX
  5
82F
  8
GROUP_4
 10
159.963301
 20
49.99999999999999
 30
0.0
  0
VERTEX
  5
830
  8
GROUP_4
 10
174.963301
 20
49.99999999999999
 30
0.0
  0
VERTEX
  5
831
  8
GROUP_4
 10
176.5983792307536
 20
49.94647308096508
 30
0.0
  0
VERTEX
  5
832
  8
GROUP_4
 10
178.2264558055013
 20
49.78612153434526
 30
0.0
  0
VERTEX
  5
833
  8
GROUP_4
 10
179.8405590504032
 20
49.51963201008076
 30
0.0
  0
VERTEX
  5
834
  8
GROUP_4
 10
181.433777127563
 20
49.14814565722671
 30
0.0
  0
VERTEX
  5
835
  8
GROUP_4
 10
182.9992876325791
 20
48.67325323737764
 30
0.0
  0
VERTEX
  5
836
  8
GROUP_4
 10
184.5303868091272
 20
48.09698831278217
 30
0.0
  0
VERTEX
  5
837
  8
GROUP_4
 10
186.020518255475
 20
47.42181853831721
 30
0.0
  0
VERTEX
  5
838
  8
GROUP_4
 10
187.463301
 20
46.65063509461097
 30
0.0
  0
VERTEX
  5
839
  8
GROUP_4
 10
188.85255682549
 20
45.78674030756363
 30
0.0
  0
VERTEX
  5
83A
  8
GROUP_4
 10
190.182336725218
 20
44.83383350728088
 30
0.0
  0
VERTEX
  5
83B
  8
GROUP_4
 10
191.4469463775017
 20
43.79599518697443
 30
0.0
  0
VERTEX
  5
83C
  8
GROUP_4
 10
192.6409705296637
 20
42.67766952966369
 30
0.0
  0
VERTEX
  5
83D
  8
GROUP_4
 10
193.7592961869744
 20
41.48364537750172
 30
0.0
  0
VERTEX
  5
83E
  8
GROUP_4
 10
194.7971345072809
 20
40.21903572521801
 30
0.0
  0
VERTEX
  5
83F
  8
GROUP_4
 10
195.7500413075636
 20
38.88925582549005
 30
0.0
  0
VERTEX
  5
840
  8
GROUP_4
 10
196.6139360946109
 20
37.5
 30
0.0
  0
VERTEX
  5
841
  8
GROUP_4
 10
197.3851195383172
 20
36.05721725547503
 30
0.0
  0
VERTEX
  5
842
  8
GROUP_4
 10
198.0602893127821
 20
34.56708580912724
 30
0.0
  0
VERTEX
  5
843
  8
GROUP_4
 10
198.6365542373777
 20
33.03598663257904
 30
0.0
  0
VERTEX
  5
844
  8
GROUP_4
 10
199.1114466572267
 20
31.47047612756302
 30
0.0
  0
VERTEX
  5
845
  8
GROUP_4
 10
199.4829330100807
 20
29.87725805040321
 30
0.0
  0
VERTEX
  5
846
  8
GROUP_4
 10
199.7494225343453
 20
28.26315480550129
 30
0.0
  0
VERTEX
  5
847
  8
GROUP_4
 10
199.9097740809651
 20
26.63507823075359
 30
0.0
  0
VERTEX
  5
848
  8
GROUP_4
 10
199.963301
 20
25.00000000000001
 30
0.0
  0
VERTEX
  5
849
  8
GROUP_4
 10
199.9097740809651
 20
23.36492176924644
 30
0.0
  0
VERTEX
  5
84A
  8
GROUP_4
 10
199.7494225343453
 20
21.73684519449873
 30
0.0
  0
VERTEX
  5
84B
  8
GROUP_4
 10
199.4829330100807
 20
20.12274194959681
 30
0.0
  0
VERTEX
  5
84C
  8
GROUP_4
 10
199.1114466572267
 20
18.529523872437
 30
0.0
  0
VERTEX
  5
84D
  8
GROUP_4
 10
198.6365542373777
 20
16.96401336742098
 30
0.0
  0
VERTEX
  5
84E
  8
GROUP_4
 10
198.0602893127821
 20
15.43291419087278
 30
0.0
  0
VERTEX
  5
84F
  8
GROUP_4
 10
197.3851195383172
 20
13.94278274452499
 30
0.0
  0
VERTEX
  5
850
  8
GROUP_4
 10
196.6139360946109
 20
12.50000000000002
 30
0.0
  0
VERTEX
  5
851
  8
GROUP_4
 10
195.7500413075637
 20
11.11074417450997
 30
0.0
  0
VERTEX
  5
852
  8
GROUP_4
 10
194.7971345072809
 20
9.78096427478201
 30
0.0
  0
VERTEX
  5
853
  8
GROUP_4
 10
193.7592961869745
 20
8.516354622498305
 30
0.0
  0
VERTEX
  5
854
  8
GROUP_4
 10
192.6409705296637
 20
7.322330470336335
 30
0.0
  0
VERTEX
  5
855
  8
GROUP_4
 10
191.4469463775018
 20
6.20400481302559
 30
0.0
  0
VERTEX
  5
856
  8
GROUP_4
 10
190.1823367252181
 20
5.166166492719147
 30
0.0
  0
VERTEX
  5
857
  8
GROUP_4
 10
188.8525568254901
 20
4.21325969243639
 30
0.0
  0
VERTEX
  5
858
  8
GROUP_4
 10
187.463301
 20
3.349364905389054
 30
0.0
  0
VERTEX
  5
859
  8
GROUP_4
 10
186.0205182554751
 20
2.578181461682813
 30
0.0
  0
VERTEX
  5
85A
  8
GROUP_4
 10
184.5303868091273
 20
1.903011687217848
 30
0.0
  0
VERTEX
  5
85B
  8
GROUP_4
 10
182.9992876325791
 20
1.326746762622375
 30
0.0
  0
VERTEX
  5
85C
  8
GROUP_4
 10
181.4337771275631
 20
0.8518543427733051
 30
0.0
  0
VERTEX
  5
85D
  8
GROUP_4
 10
179.8405590504033
 20
0.4803679899192512
 30
0.0
  0
VERTEX
  5
85E
  8
GROUP_4
 10
178.2264558055014
 20
0.2138784656547456
 30
0.0
  0
VERTEX
  5
85F
  8
GROUP_4
 10
176.5983792307536
 20
0.0535269190349158
 30
0.0
  0
VERTEX
  5
860
  8
GROUP_4
 10
174.963301
 20
0.0
 30
0.0
  0
VERTEX
  5
861
  8
GROUP_4
 10
159.963301
 20
0.0
 30
0.0
  0
VERTEX
  5
862
  8
GROUP_4
 10
159.963301
 20
-3.0
 30
0.0
  0
VERTEX
  5
863
  8
GROUP_4
 10
144.9633009999999
 20
-3.0
 30
0.0
  0
VERTEX
  5
864
  8
GROUP_4
 10
144.9633009999999
 20
0.0
 30
0.0
  0
VERTEX
  5
865
  8
GROUP_4
 10
129.963301
 20
0.0
 30
0.0
  0
VERTEX
  5
866
  8
GROUP_4
 10
129.963301
 20
-3.0
 30
0.0
  0
VERTEX
  5
867
  8
GROUP_4
 10
114.963301
 20
-3.0
 30
0.0
  0
VERTEX
  5
868
  8
GROUP_4
 10
114.963301
 20
0.0
 30
0.0
  0
VERTEX
  5
869
  8
GROUP_4
 10
84.963301
 20
0.0
 30
0.0
  0
VERTEX
  5
86A
  8
GROUP_4
 10
84.963301
 20
-3.0
 30
0.0
  0
VERTEX
  5
86B
  8
GROUP_4
 10
69.96330100000002
 20
-3.0
 30
0.0
  0
VERTEX
  5
86C
  8
GROUP_4
 10
69.96330100000002
 20
0.0
 30
0.0
  0
VERTEX
  5
86D
  8
GROUP_4
 10
54.963301
 20
0.0
 30
0.0
  0
VERTEX
  5
86E
  8
GROUP_4
 10
54.963301
 20
-3.0
 30
0.0
  0
VERTEX
  5
86F
  8
GROUP_4
 10
39.963301
 20
-3.0
 30
0.0
  0
VERTEX
  5
870
  8
GROUP_4
 10
39.963301
 20
0.0
 30
0.0
  0
VERTEX
  5
871
  8
GROUP_4
 10
24.963301
 20
0.0
 30
0.0
  0
VERTEX
  5
872
  8
GROUP_4
 10
23.32822276924637
 20
0.0535269190349158
 30
0.0
  0
VERTEX
  5
873
  8
GROUP_4
 10
21.70014619449866
 20
0.2138784656547456
 30
0.0
  0
VERTEX
  5
874
  8
GROUP_4
 10
20.08604294959675
 20
0.4803679899192512
 30
0.0
  0
VERTEX
  5
875
  8
GROUP_4
 10
18.49282487243693
 20
0.8518543427733051
 30
0.0
  0
VERTEX
  5
876
  8
GROUP_4
 10
16.92731436742092
 20
1.326746762622375
 30
0.0
  0
VERTEX
  5
877
  8
GROUP_4
 10
15.39621519087271
 20
1.903011687217848
 30
0.0
  0
VERTEX
  5
878
  8
GROUP_4
 10
13.90608374452493
 20
2.578181461682813
 30
0.0
  0
VERTEX
  5
879
  8
GROUP_4
 10
12.46330099999997
 20
3.349364905389054
 30
0.0
  0
VERTEX
  5
87A
  8
GROUP_4
 10
11.07404517450991
 20
4.21325969243639
 30
0.0
  0
VERTEX
  5
87B
  8
GROUP_4
 10
9.744265274781956
 20
5.166166492719147
 30
0.0
  0
VERTEX
  5
87C
  8
GROUP_4
 10
8.479655622498255
 20
6.20400481302559
 30
0.0
  0
VERTEX
  5
87D
  8
GROUP_4
 10
7.28563147033629
 20
7.322330470336335
 30
0.0
  0
VERTEX
  5
87E
  8
GROUP_4
 10
6.167305813025545
 20
8.516354622498305
 30
0.0
  0
VERTEX
  5
87F
  8
GROUP_4
 10
5.129467492719105
 20
9.78096427478201
 30
0.0
  0
VERTEX
  5
880
  8
GROUP_4
 10
4.176560692436357
 20
11.11074417450997
 30
0.0
  0
VERTEX
  5
881
  8
GROUP_4
 10
3.312665905389023
 20
12.50000000000002
 30
0.0
  0
VERTEX
  5
882
  8
GROUP_4
 10
2.541482461682782
 20
13.94278274452499
 30
0.0
  0
VERTEX
  5
883
  8
GROUP_4
 10
1.866312687217823
 20
15.43291419087278
 30
0.0
  0
VERTEX
  5
884
  8
GROUP_4
 10
1.290047762622356
 20
16.96401336742098
 30
0.0
  0
VERTEX
  5
885
  8
GROUP_4
 10
0.8151553427732887
 20
18.529523872437
 30
0.0
  0
VERTEX
  5
886
  8
GROUP_4
 10
0.4436689899192405
 20
20.12274194959681
 30
0.0
  0
VERTEX
  5
887
  8
GROUP_4
 10
0.1771794656547405
 20
21.73684519449873
 30
0.0
  0
VERTEX
  5
888
  8
GROUP_4
 10
0.0168279190349135
 20
23.36492176924644
 30
0.0
  0
VERTEX
  5
889
  8
GROUP_4
 10
-0.0366989999999967
 20
25.00000000000001
 30
0.0
  0
VERTEX
  5
88A
  8
GROUP_4
 10
0.0168279190349163
 20
26.63507823075359
 30
0.0
  0
VERTEX
  5
88B
  8
GROUP_4
 10
0.1771794656547433
 20
28.26315480550129
 30
0.0
  0
VERTEX
  5
88C
  8
GROUP_4
 10
0.4436689899192433
 20
29.87725805040321
 30
0.0
  0
VERTEX
  5
88D
  8
GROUP_4
 10
0.8151553427732972
 20
31.47047612756302
 30
0.0
  0
VERTEX
  5
88E
  8
GROUP_4
 10
1.290047762622364
 20
33.03598663257904
 30
0.0
  0
VERTEX
  5
88F
  8
GROUP_4
 10
1.866312687217834
 20
34.56708580912724
 30
0.0
  0
VERTEX
  5
890
  8
GROUP_4
 10
2.541482461682794
 20
36.05721725547503
 30
0.0
  0
VERTEX
  5
891
  8
GROUP_4
 10
3.312665905389035
 20
37.5
 30
0.0
  0
VERTEX
  5
892
  8
GROUP_4
 10
4.176560692436371
 20
38.88925582549005
 30
0.0
  0
VERTEX
  5
893
  8
GROUP_4
 10
5.129467492719122
 20
40.21903572521801
 30
0.0
  0
VERTEX
  5
894
  8
GROUP_4
 10
6.167305813025566
 20
41.48364537750172
 30
0.0
  0
VERTEX
  5
895
  8
GROUP_4
 10
7.285631470336313
 20
42.67766952966369
 30
0.0
  0
VERTEX
  5
896
  8
GROUP_4
 10
8.479655622498282
 20
43.79599518697443
 30
0.0
  0
VERTEX
  5
897
  8
GROUP_4
 10
9.744265274781988
 20
44.83383350728088
 30
0.0
  0
VERTEX
  5
898
  8
GROUP_4
 10
11.07404517450995
 20
45.78674030756363
 30
0.0
  0
VERTEX
  5
899
  8
GROUP_4
 10
12.463301
 20
46.65063509461097
 30
0.0
  0
VERTEX
  5
89A
  8
GROUP_4
 10
13.90608374452497
 20
47.42181853831721
 30
0.0
  0
VERTEX
  5
89B
  8
GROUP_4
 10
15.39621519087276
 20
48.09698831278217
 30
0.0
  0
VERTEX
  5
89C
  8
GROUP_4
 10
16.92731436742097
 20
48.67325323737764
 30
0.0
  0
VERTEX
  5
89D
  8
GROUP_4
 10
18.49282487243698
 20
49.14814565722671
 30
0.0
  0
VERTEX
  5
89E
  8
GROUP_4
 10
20.08604294959679
 20
49.51963201008076
 30
0.0
  0
VERTEX
  5
89F
  8
GROUP_4
 10
21.70014619449871
 20
49.78612153434526
 30
0.0
  0
VERTEX
  5
8A0
  8
GROUP_4
 10
23.32822276924643
 20
49.94647308096508
 30
0.0
  0
VERTEX
  5
8A1
  8
GROUP_4
 10
24.963301
 20
49.99999999999999
 30
0.0
  0
VERTEX
  5
8A2
  8
GROUP_4
 10
39.96330099999999
 20
49.99999999999999
 30
0.0
  0
VERTEX
  5
8A3
  8
GROUP_4
 10
39.96330099999999
 20
52.99999999999999
 30
0.0
  0
VERTEX
  5
8A4
  8
GROUP_4
 10
54.963301
 20
52.99999999999999
 30
0.0
  0
VERTEX
  5
8A5
  8
GROUP_4
 10
54.963301
 20
49.99999999999999
 30
0.0
  0
VERTEX
  5
8A6
  8
GROUP_4
 10
69.96330100000002
 20
49.99999999999999
 30
0.0
  0
VERTEX
  5
8A7
  8
GROUP_4
 10
69.96330100000002
 20
52.99999999999999
 30
0.0
  0
VERTEX
  5
8A8
  8
GROUP_4
 10
84.963301
 20
52.99999999999999
 30
0.0
  0
VERTEX
  5
8A9
  8
GROUP_4
 10
84.963301
 20
49.99999999999999
 30
0.0
  0
SEQEND
  5
989
  8
GROUP_4
  0
LINE
  5
1B3
  8
GROUP_3
 10
89.34809819622312
 20
137.8338915393023
 30
0.0
 11
89.34809819622312
 21
107.8338915393023
 31
0.0
  0
LINE
  5
1B4
  8
GROUP_3
 10
81.3480981962231
 20
137.8338915393023
 30
0.0
 11
81.3480981962231
 21
107.8338915393023
 31
0.0
  0
LINE
  5
1B5
  8
GROUP_3
 10
129.3480981962231
 20
137.8338915393023
 30
0.0
 11
129.3480981962231
 21
107.8338915393023
 31
0.0
  0
LINE
  5
1B6
  8
GROUP_3
 10
135.3480981962232
 20
142.8338915393023
 30
0.0
 11
135.3480981962232
 21
125.3338915393023
 31
0.0
  0
LINE
  5
1B7
  8
GROUP_3
 10
99.34809819622312
 20
142.8338915393023
 30
0.0
 11
99.34809819622312
 21
125.3338915393023
 31
0.0
  0
LINE
  5
1B8
  8
GROUP_3
 10
99.34809819622312
 20
102.8338915393022
 30
0.0
 11
99.34809819622312
 21
120.3338915393023
 31
0.0
  0
LINE
  5
1B9
  8
GROUP_3
 10
115.3480981962231
 20
142.8338915393023
 30
0.0
 11
115.3480981962231
 21
125.3338915393023
 31
0.0
  0
LINE
  5
1BA
  8
GROUP_3
 10
103.3480981962231
 20
102.8338915393022
 30
0.0
 11
103.3480981962231
 21
120.3338915393023
 31
0.0
  0
LINE
  5
1BB
  8
GROUP_3
 10
135.3480981962232
 20
102.8338915393022
 30
0.0
 11
135.3480981962232
 21
120.3338915393023
 31
0.0
  0
LINE
  5
1BC
  8
GROUP_3
 10
155.3480981962232
 20
142.8338915393023
 30
0.0
 11
155.3480981962232
 21
125.3338915393023
 31
0.0
  0
LINE
  5
1BD
  8
GROUP_3
 10
155.3480981962232
 20
102.8338915393022
 30
0.0
 11
155.3480981962232
 21
120.3338915393023
 31
0.0
  0
LINE
  5
1BE
  8
GROUP_3
 10
151.3480981962232
 20
142.8338915393023
 30
0.0
 11
151.3480981962232
 21
125.3338915393023
 31
0.0
  0
LINE
  5
1BF
  8
GROUP_3
 10
151.3480981962232
 20
102.8338915393022
 30
0.0
 11
151.3480981962232
 21
120.3338915393023
 31
0.0
  0
LINE
  5
1C0
  8
GROUP_3
 10
147.3480981962232
 20
142.8338915393023
 30
0.0
 11
147.3480981962232
 21
125.3338915393023
 31
0.0
  0
LINE
  5
1C1
  8
GROUP_3
 10
147.3480981962232
 20
102.8338915393022
 30
0.0
 11
147.3480981962232
 21
120.3338915393023
 31
0.0
  0
LINE
  5
1C2
  8
GROUP_3
 10
143.3480981962232
 20
142.8338915393023
 30
0.0
 11
143.3480981962232
 21
125.3338915393023
 31
0.0
  0
LINE
  5
1C3
  8
GROUP_3
 10
143.3480981962232
 20
102.8338915393022
 30
0.0
 11
143.3480981962232
 21
120.3338915393023
 31
0.0
  0
LINE
  5
1C4
  8
GROUP_3
 10
139.3480981962232
 20
142.8338915393023
 30
0.0
 11
139.3480981962232
 21
125.3338915393023
 31
0.0
  0
LINE
  5
1C5
  8
GROUP_3
 10
139.3480981962232
 20
102.8338915393022
 30
0.0
 11
139.3480981962232
 21
120.3338915393023
 31
0.0
  0
LINE
  5
1C6
  8
GROUP_3
 10
119.3480981962231
 20
102.8338915393022
 30
0.0
 11
119.3480981962231
 21
120.3338915393023
 31
0.0
  0
LINE
  5
1C7
  8
GROUP_3
 10
123.3480981962231
 20
102.8338915393022
 30
0.0
 11
123.3480981962231
 21
120.3338915393023
 31
0.0
  0
LINE
  5
1C8
  8
GROUP_3
 10
119.3480981962231
 20
142.8338915393023
 30
0.0
 11
119.3480981962231
 21
125.3338915393023
 31
0.0
  0
LINE
  5
1C9
  8
GROUP_3
 10
125.3480981962231
 20
137.8338915393023
 30
0.0
 11
125.3480981962231
 21
107.8338915393023
 31
0.0
  0
LINE
  5
1CA
  8
GROUP_3
 10
145.3480981962231
 20
137.8338915393023
 30
0.0
 11
145.3480981962231
 21
107.8338915393023
 31
0.0
  0
LINE
  5
1CB
  8
GROUP_3
 10
137.3480981962232
 20
137.8338915393023
 30
0.0
 11
137.3480981962232
 21
107.8338915393023
 31
0.0
  0
LINE
  5
1CC
  8
GROUP_3
 10
117.3480981962231
 20
137.8338915393023
 30
0.0
 11
117.3480981962231
 21
107.8338915393023
 31
0.0
  0
LINE
  5
1CD
  8
GROUP_3
 10
109.3480981962231
 20
137.8338915393023
 30
0.0
 11
109.3480981962231
 21
107.8338915393023
 31
0.0
  0
LINE
  5
1CE
  8
GROUP_3
 10
141.3480981962232
 20
137.8338915393023
 30
0.0
 11
141.3480981962232
 21
107.8338915393023
 31
0.0
  0
LINE
  5
1CF
  8
GROUP_3
 10
101.3480981962231
 20
137.8338915393023
 30
0.0
 11
101.3480981962231
 21
107.8338915393023
 31
0.0
  0
LINE
  5
1D0
  8
GROUP_3
 10
105.3480981962231
 20
137.8338915393023
 30
0.0
 11
105.3480981962231
 21
107.8338915393023
 31
0.0
  0
LINE
  5
1D1
  8
GROUP_3
 10
93.34809819622312
 20
137.8338915393023
 30
0.0
 11
93.34809819622312
 21
107.8338915393023
 31
0.0
  0
LINE
  5
1D2
  8
GROUP_3
 10
113.3480981962231
 20
137.8338915393023
 30
0.0
 11
113.3480981962231
 21
107.8338915393023
 31
0.0
  0
LINE
  5
1D3
  8
GROUP_3
 10
85.3480981962231
 20
137.8338915393023
 30
0.0
 11
85.3480981962231
 21
107.8338915393023
 31
0.0
  0
LINE
  5
1D4
  8
GROUP_3
 10
121.3480981962231
 20
137.8338915393023
 30
0.0
 11
121.3480981962231
 21
107.8338915393023
 31
0.0
  0
LINE
  5
1D5
  8
GROUP_3
 10
95.34809819622312
 20
142.8338915393023
 30
0.0
 11
95.34809819622312
 21
125.3338915393023
 31
0.0
  0
LINE
  5
1D6
  8
GROUP_3
 10
95.34809819622312
 20
102.8338915393022
 30
0.0
 11
95.34809819622312
 21
120.3338915393023
 31
0.0
  0
LINE
  5
1D7
  8
GROUP_3
 10
111.3480981962231
 20
142.8338915393023
 30
0.0
 11
111.3480981962231
 21
125.3338915393023
 31
0.0
  0
LINE
  5
1D8
  8
GROUP_3
 10
91.34809819622312
 20
142.8338915393023
 30
0.0
 11
91.34809819622312
 21
125.3338915393023
 31
0.0
  0
LINE
  5
1D9
  8
GROUP_3
 10
111.3480981962231
 20
102.8338915393022
 30
0.0
 11
111.3480981962231
 21
120.3338915393023
 31
0.0
  0
LINE
  5
1DA
  8
GROUP_3
 10
91.34809819622312
 20
102.8338915393022
 30
0.0
 11
91.34809819622312
 21
120.3338915393023
 31
0.0
  0
LINE
  5
1DB
  8
GROUP_3
 10
87.34809819622312
 20
142.8338915393023
 30
0.0
 11
87.34809819622312
 21
125.3338915393023
 31
0.0
  0
LINE
  5
1DC
  8
GROUP_3
 10
87.34809819622312
 20
102.8338915393022
 30
0.0
 11
87.34809819622312
 21
120.3338915393023
 31
0.0
  0
LINE
  5
1DD
  8
GROUP_3
 10
115.3480981962231
 20
102.8338915393022
 30
0.0
 11
115.3480981962231
 21
120.3338915393023
 31
0.0
  0
LINE
  5
1DE
  8
GROUP_3
 10
107.3480981962231
 20
142.8338915393023
 30
0.0
 11
107.3480981962231
 21
125.3338915393023
 31
0.0
  0
LINE
  5
1DF
  8
GROUP_3
 10
83.34809819622312
 20
142.8338915393023
 30
0.0
 11
83.34809819622312
 21
125.3338915393023
 31
0.0
  0
LINE
  5
1E0
  8
GROUP_3
 10
83.34809819622312
 20
102.8338915393022
 30
0.0
 11
83.34809819622312
 21
120.3338915393023
 31
0.0
  0
LINE
  5
1E1
  8
GROUP_3
 10
107.3480981962231
 20
102.8338915393022
 30
0.0
 11
107.3480981962231
 21
120.3338915393023
 31
0.0
  0
LINE
  5
1E2
  8
GROUP_3
 10
133.3480981962231
 20
137.8338915393023
 30
0.0
 11
133.3480981962231
 21
107.8338915393023
 31
0.0
  0
LINE
  5
1E3
  8
GROUP_3
 10
97.34809819622312
 20
137.8338915393023
 30
0.0
 11
97.34809819622312
 21
107.8338915393023
 31
0.0
  0
LINE
  5
1E4
  8
GROUP_3
 10
131.3480981962232
 20
142.8338915393023
 30
0.0
 11
131.3480981962232
 21
125.3338915393023
 31
0.0
  0
LINE
  5
1E5
  8
GROUP_3
 10
75.3480981962231
 20
102.8338915393022
 30
0.0
 11
75.3480981962231
 21
120.3338915393023
 31
0.0
  0
LINE
  5
1E6
  8
GROUP_3
 10
75.3480981962231
 20
142.8338915393023
 30
0.0
 11
75.3480981962231
 21
125.3338915393023
 31
0.0
  0
LINE
  5
1E7
  8
GROUP_3
 10
79.3480981962231
 20
142.8338915393023
 30
0.0
 11
79.3480981962231
 21
125.3338915393023
 31
0.0
  0
LINE
  5
1E8
  8
GROUP_3
 10
79.3480981962231
 20
102.8338915393022
 30
0.0
 11
79.3480981962231
 21
120.3338915393023
 31
0.0
  0
LINE
  5
1E9
  8
GROUP_3
 10
103.3480981962231
 20
142.8338915393023
 30
0.0
 11
103.3480981962231
 21
125.3338915393023
 31
0.0
  0
LINE
  5
1EA
  8
GROUP_3
 10
127.3480981962231
 20
142.8338915393023
 30
0.0
 11
127.3480981962231
 21
125.3338915393023
 31
0.0
  0
LINE
  5
1EB
  8
GROUP_3
 10
131.3480981962232
 20
102.8338915393022
 30
0.0
 11
131.3480981962232
 21
120.3338915393023
 31
0.0
  0
LINE
  5
1EC
  8
GROUP_3
 10
127.3480981962231
 20
102.8338915393022
 30
0.0
 11
127.3480981962231
 21
120.3338915393023
 31
0.0
  0
LINE
  5
1ED
  8
GROUP_3
 10
123.3480981962231
 20
142.8338915393023
 30
0.0
 11
123.3480981962231
 21
125.3338915393023
 31
0.0
  0
LINE
  5
1EE
  8
GROUP_3
 10
149.3480981962232
 20
137.8338915393023
 30
0.0
 11
149.3480981962232
 21
107.8338915393023
 31
0.0
  0
LINE
  5
1EF
  8
GROUP_3
 10
153.3480981962232
 20
137.8338915393023
 30
0.0
 11
153.3480981962232
 21
107.8338915393023
 31
0.0
  0
LINE
  5
1F0
  8
GROUP_3
 10
77.3480981962231
 20
137.8338915393023
 30
0.0
 11
77.3480981962231
 21
107.8338915393023
 31
0.0
  0
POLYLINE
  5
1F1
  8
GROUP_3
 66
     1
 10
0.0
 20
0.0
 30
0.0
 70
   128
  0
VERTEX
  5
8AA
  8
GROUP_3
 10
0.3480981962231066
 20
102.8338915393022
 30
0.0
  0
VERTEX
  5
8AB
  8
GROUP_3
 10
0.3480981962231066
 20
117.8338915393023
 30
0.0
  0
VERTEX
  5
8AC
  8
GROUP_3
 10
-4.651901803776894
 20
117.8338915393023
 30
0.0
  0
VERTEX
  5
8AD
  8
GROUP_3
 10
-4.651901803776894
 20
127.8338915393023
 30
0.0
  0
VERTEX
  5
8AE
  8
GROUP_3
 10
0.3480981962231066
 20
127.8338915393023
 30
0.0
  0
VERTEX
  5
8AF
  8
GROUP_3
 10
0.3480981962231066
 20
142.8338915393023
 30
0.0
  0
VERTEX
  5
8B0
  8
GROUP_3
 10
75.3480981962231
 20
142.8338915393023
 30
0.0
  0
VERTEX
  5
8B1
  8
GROUP_3
 10
79.3480981962231
 20
142.8338915393023
 30
0.0
  0
VERTEX
  5
8B2
  8
GROUP_3
 10
83.34809819622312
 20
142.8338915393023
 30
0.0
  0
VERTEX
  5
8B3
  8
GROUP_3
 10
87.34809819622312
 20
142.8338915393023
 30
0.0
  0
VERTEX
  5
8B4
  8
GROUP_3
 10
91.34809819622312
 20
142.8338915393023
 30
0.0
  0
VERTEX
  5
8B5
  8
GROUP_3
 10
95.34809819622312
 20
142.8338915393023
 30
0.0
  0
VERTEX
  5
8B6
  8
GROUP_3
 10
99.34809819622312
 20
142.8338915393023
 30
0.0
  0
VERTEX
  5
8B7
  8
GROUP_3
 10
103.3480981962231
 20
142.8338915393023
 30
0.0
  0
VERTEX
  5
8B8
  8
GROUP_3
 10
107.3480981962231
 20
142.8338915393023
 30
0.0
  0
VERTEX
  5
8B9
  8
GROUP_3
 10
111.3480981962231
 20
142.8338915393023
 30
0.0
  0
VERTEX
  5
8BA
  8
GROUP_3
 10
115.3480981962231
 20
142.8338915393023
 30
0.0
  0
VERTEX
  5
8BB
  8
GROUP_3
 10
119.3480981962231
 20
142.8338915393023
 30
0.0
  0
VERTEX
  5
8BC
  8
GROUP_3
 10
123.3480981962231
 20
142.8338915393023
 30
0.0
  0
VERTEX
  5
8BD
  8
GROUP_3
 10
127.3480981962231
 20
142.8338915393023
 30
0.0
  0
VERTEX
  5
8BE
  8
GROUP_3
 10
131.3480981962232
 20
142.8338915393023
 30
0.0
  0
VERTEX
  5
8BF
  8
GROUP_3
 10
135.3480981962232
 20
142.8338915393023
 30
0.0
  0
VERTEX
  5
8C0
  8
GROUP_3
 10
139.3480981962232
 20
142.8338915393023
 30
0.0
  0
VERTEX
  5
8C1
  8
GROUP_3
 10
143.3480981962232
 20
142.8338915393023
 30
0.0
  0
VERTEX
  5
8C2
  8
GROUP_3
 10
147.3480981962232
 20
142.8338915393023
 30
0.0
  0
VERTEX
  5
8C3
  8
GROUP_3
 10
151.3480981962232
 20
142.8338915393023
 30
0.0
  0
VERTEX
  5
8C4
  8
GROUP_3
 10
155.3480981962232
 20
142.8338915393023
 30
0.0
  0
VERTEX
  5
8C5
  8
GROUP_3
 10
229.348098196223
 20
142.8338915393023
 30
0.0
  0
VERTEX
  5
8C6
  8
GROUP_3
 10
229.348098196223
 20
127.8338915393023
 30
0.0
  0
VERTEX
  5
8C7
  8
GROUP_3
 10
224.348098196223
 20
127.8338915393023
 30
0.0
  0
VERTEX
  5
8C8
  8
GROUP_3
 10
224.348098196223
 20
117.8338915393023
 30
0.0
  0
VERTEX
  5
8C9
  8
GROUP_3
 10
229.348098196223
 20
117.8338915393023
 30
0.0
  0
VERTEX
  5
8CA
  8
GROUP_3
 10
229.348098196223
 20
102.8338915393022
 30
0.0
  0
VERTEX
  5
8CB
  8
GROUP_3
 10
214.348098196223
 20
102.8338915393022
 30
0.0
  0
VERTEX
  5
8CC
  8
GROUP_3
 10
214.348098196223
 20
105.8338915393022
 30
0.0
  0
VERTEX
  5
8CD
  8
GROUP_3
 10
199.348098196223
 20
105.8338915393022
 30
0.0
  0
VERTEX
  5
8CE
  8
GROUP_3
 10
199.348098196223
 20
102.8338915393022
 30
0.0
  0
VERTEX
  5
8CF
  8
GROUP_3
 10
184.348098196223
 20
102.8338915393022
 30
0.0
  0
VERTEX
  5
8D0
  8
GROUP_3
 10
184.348098196223
 20
105.8338915393022
 30
0.0
  0
VERTEX
  5
8D1
  8
GROUP_3
 10
169.348098196223
 20
105.8338915393022
 30
0.0
  0
VERTEX
  5
8D2
  8
GROUP_3
 10
169.348098196223
 20
102.8338915393022
 30
0.0
  0
VERTEX
  5
8D3
  8
GROUP_3
 10
155.3480981962232
 20
102.8338915393022
 30
0.0
  0
VERTEX
  5
8D4
  8
GROUP_3
 10
151.3480981962232
 20
102.8338915393022
 30
0.0
  0
VERTEX
  5
8D5
  8
GROUP_3
 10
147.3480981962232
 20
102.8338915393022
 30
0.0
  0
VERTEX
  5
8D6
  8
GROUP_3
 10
143.3480981962232
 20
102.8338915393022
 30
0.0
  0
VERTEX
  5
8D7
  8
GROUP_3
 10
139.3480981962232
 20
102.8338915393022
 30
0.0
  0
VERTEX
  5
8D8
  8
GROUP_3
 10
135.3480981962232
 20
102.8338915393022
 30
0.0
  0
VERTEX
  5
8D9
  8
GROUP_3
 10
131.3480981962232
 20
102.8338915393022
 30
0.0
  0
VERTEX
  5
8DA
  8
GROUP_3
 10
127.3480981962231
 20
102.8338915393022
 30
0.0
  0
VERTEX
  5
8DB
  8
GROUP_3
 10
123.3480981962231
 20
102.8338915393022
 30
0.0
  0
VERTEX
  5
8DC
  8
GROUP_3
 10
119.3480981962231
 20
102.8338915393022
 30
0.0
  0
VERTEX
  5
8DD
  8
GROUP_3
 10
115.3480981962231
 20
102.8338915393022
 30
0.0
  0
VERTEX
  5
8DE
  8
GROUP_3
 10
111.3480981962231
 20
102.8338915393022
 30
0.0
  0
VERTEX
  5
8DF
  8
GROUP_3
 10
107.3480981962231
 20
102.8338915393022
 30
0.0
  0
VERTEX
  5
8E0
  8
GROUP_3
 10
103.3480981962231
 20
102.8338915393022
 30
0.0
  0
VERTEX
  5
8E1
  8
GROUP_3
 10
99.34809819622312
 20
102.8338915393022
 30
0.0
  0
VERTEX
  5
8E2
  8
GROUP_3
 10
95.34809819622312
 20
102.8338915393022
 30
0.0
  0
VERTEX
  5
8E3
  8
GROUP_3
 10
91.34809819622312
 20
102.8338915393022
 30
0.0
  0
VERTEX
  5
8E4
  8
GROUP_3
 10
87.34809819622312
 20
102.8338915393022
 30
0.0
  0
VERTEX
  5
8E5
  8
GROUP_3
 10
83.34809819622312
 20
102.8338915393022
 30
0.0
  0
VERTEX
  5
8E6
  8
GROUP_3
 10
79.3480981962231
 20
102.8338915393022
 30
0.0
  0
VERTEX
  5
8E7
  8
GROUP_3
 10
75.3480981962231
 20
102.8338915393022
 30
0.0
  0
VERTEX
  5
8E8
  8
GROUP_3
 10
60.34809819622309
 20
102.8338915393022
 30
0.0
  0
VERTEX
  5
8E9
  8
GROUP_3
 10
60.3480981962231
 20
105.8338915393022
 30
0.0
  0
VERTEX
  5
8EA
  8
GROUP_3
 10
45.34809819622311
 20
105.8338915393022
 30
0.0
  0
VERTEX
  5
8EB
  8
GROUP_3
 10
45.34809819622311
 20
102.8338915393022
 30
0.0
  0
VERTEX
  5
8EC
  8
GROUP_3
 10
30.34809819622311
 20
102.8338915393022
 30
0.0
  0
VERTEX
  5
8ED
  8
GROUP_3
 10
30.34809819622311
 20
105.8338915393022
 30
0.0
  0
VERTEX
  5
8EE
  8
GROUP_3
 10
15.34809819622311
 20
105.8338915393022
 30
0.0
  0
VERTEX
  5
8EF
  8
GROUP_3
 10
15.34809819622311
 20
102.8338915393022
 30
0.0
  0
VERTEX
  5
8F0
  8
GROUP_3
 10
0.3480981962231066
 20
102.8338915393022
 30
0.0
  0
SEQEND
  5
98A
  8
GROUP_3
  0
LINE
  5
23A
  8
LOVE_AND_PEACE_2
 62
     1
 10
46.93939230827124
 20
187.8304069564334
 30
-0.0000000000000005
 11
48.1586185824779
 21
187.7059638283681
 31
-0.0000000000000005
  0
LINE
  5
23B
  8
LOVE_AND_PEACE_2
 62
     1
 10
48.1586185824779
 20
187.7059638283681
 30
-0.0000000000000005
 11
48.98523733366609
 21
187.3326344441719
 31
-0.0000000000000005
  0
LINE
  5
23C
  8
LOVE_AND_PEACE_2
 62
     1
 10
48.98523733366609
 20
187.3326344441719
 30
-0.0000000000000005
 11
49.4579735759253
 21
186.7989632532719
 31
-0.0000000000000005
  0
LINE
  5
23D
  8
LOVE_AND_PEACE_2
 62
     1
 10
49.4579735759253
 20
186.7989632532719
 30
-0.0000000000000005
 11
49.61555232334504
 21
186.1934947050948
 31
-0.0000000000000005
  0
LINE
  5
23E
  8
LOVE_AND_PEACE_2
 62
     1
 10
49.61555232334504
 20
186.1934947050948
 30
-0.0000000000000005
 11
49.54090753856141
 21
185.7621832600424
 31
-0.0000000000000005
  0
LINE
  5
23F
  8
LOVE_AND_PEACE_2
 62
     1
 10
49.54090753856141
 20
185.7621832600424
 30
-0.0000000000000005
 11
49.31697318421055
 21
185.4415207386902
 31
-0.0000000000000005
  0
LINE
  5
240
  8
LOVE_AND_PEACE_2
 62
     1
 10
49.31697318421055
 20
185.4415207386902
 30
-0.0000000000000005
 11
49.00457874865523
 21
185.2369910754953
 31
-0.0000000000000005
  0
LINE
  5
241
  8
LOVE_AND_PEACE_2
 62
     1
 10
49.00457874865523
 20
185.2369910754953
 30
-0.0000000000000005
 11
48.66455372025828
 21
185.1540782049148
 31
-0.0000000000000005
  0
LINE
  5
242
  8
LOVE_AND_PEACE_2
 62
     1
 10
48.66455372025828
 20
185.1540782049148
 30
-0.0000000000000005
 11
48.22493200529782
 21
185.2010713048012
 31
-0.0000000000000005
  0
LINE
  5
243
  8
LOVE_AND_PEACE_2
 62
     1
 10
48.22493200529782
 20
185.2010713048012
 30
-0.0000000000000005
 11
47.87933867422134
 21
185.3420506044603
 31
-0.0000000000000005
  0
LINE
  5
244
  8
LOVE_AND_PEACE_2
 62
     1
 10
47.87933867422134
 20
185.3420506044603
 30
-0.0000000000000005
 11
47.61672148989219
 21
185.5991205781656
 31
-0.0000000000000005
  0
LINE
  5
245
  8
LOVE_AND_PEACE_2
 62
     1
 10
47.61672148989219
 20
185.5991205781656
 30
-0.0000000000000005
 11
47.42602821517369
 21
185.9943857001902
 31
-0.0000000000000005
  0
LINE
  5
246
  8
LOVE_AND_PEACE_2
 62
     1
 10
47.42602821517369
 20
185.9943857001902
 30
-0.0000000000000005
 11
47.08324012749258
 21
186.6579417695015
 31
-0.0000000000000005
  0
LINE
  5
247
  8
LOVE_AND_PEACE_2
 62
     1
 10
47.08324012749258
 20
186.6579417695015
 30
-0.0000000000000005
 11
46.82058075905221
 21
186.8569453141281
 31
-0.0000000000000005
  0
LINE
  5
248
  8
LOVE_AND_PEACE_2
 62
     1
 10
46.82058075905221
 20
186.8569453141281
 30
-0.0000000000000005
 11
46.45292513781363
 21
186.9232798290036
 31
-0.0000000000000005
  0
LINE
  5
249
  8
LOVE_AND_PEACE_2
 62
     1
 10
46.45292513781363
 20
186.9232798290036
 30
-0.0000000000000005
 11
45.86131407016857
 21
186.7214077648148
 31
-0.0000000000000005
  0
LINE
  5
24A
  8
LOVE_AND_PEACE_2
 62
     1
 10
45.86131407016857
 20
186.7214077648148
 30
-0.0000000000000005
 11
45.41342426941122
 21
186.1157915722485
 31
-0.0000000000000005
  0
LINE
  5
24B
  8
LOVE_AND_PEACE_2
 62
     1
 10
45.41342426941122
 20
186.1157915722485
 30
-0.0000000000000005
 11
45.03741619415334
 21
185.0843689611426
 31
-0.0000000000000005
  0
LINE
  5
24C
  8
LOVE_AND_PEACE_2
 62
     1
 10
45.03741619415334
 20
185.0843689611426
 30
-0.0000000000000005
 11
44.66145030300666
 21
183.6050776413349
 31
-0.0000000000000005
  0
LINE
  5
24D
  8
LOVE_AND_PEACE_2
 62
     1
 10
44.66145030300666
 20
183.6050776413349
 30
-0.0000000000000005
 11
43.67721062028753
 21
179.8221752845922
 31
-0.0000000000000005
  0
LINE
  5
24E
  8
LOVE_AND_PEACE_2
 62
     1
 10
43.67721062028753
 20
179.8221752845922
 30
-0.0000000000000005
 11
42.85892323106305
 21
177.6099561245906
 31
-0.0000000000000005
  0
LINE
  5
24F
  8
LOVE_AND_PEACE_2
 62
     1
 10
42.85892323106305
 20
177.6099561245906
 30
-0.0000000000000005
 11
42.18439929283748
 21
176.4596797801544
 31
-0.0000000000000005
  0
LINE
  5
250
  8
LOVE_AND_PEACE_2
 62
     1
 10
42.18439929283748
 20
176.4596797801544
 30
-0.0000000000000005
 11
41.6093454888418
 21
175.8622683972182
 31
-0.0000000000000005
  0
LINE
  5
251
  8
LOVE_AND_PEACE_2
 62
     1
 10
41.6093454888418
 20
175.8622683972182
 30
-0.0000000000000005
 11
41.05639615911943
 21
175.3866847274524
 31
-0.0000000000000005
  0
LINE
  5
252
  8
LOVE_AND_PEACE_2
 62
     1
 10
41.05639615911943
 20
175.3866847274524
 30
-0.0000000000000005
 11
40.43713340657713
 21
174.9000488205499
 31
-0.0000000000000005
  0
LINE
  5
253
  8
LOVE_AND_PEACE_2
 62
     1
 10
40.43713340657713
 20
174.9000488205499
 30
-0.0000000000000005
 11
39.86216397080386
 21
174.490778573604
 31
-0.0000000000000005
  0
LINE
  5
254
  8
LOVE_AND_PEACE_2
 62
     1
 10
39.86216397080386
 20
174.490778573604
 30
-0.0000000000000005
 11
39.44192585494376
 21
174.2474606201528
 31
-0.0000000000000005
  0
LINE
  5
255
  8
LOVE_AND_PEACE_2
 62
     1
 10
39.44192585494376
 20
174.2474606201528
 30
-0.0000000000000005
 11
39.46403032921707
 21
174.1590427230596
 31
-0.0000000000000005
  0
LINE
  5
256
  8
LOVE_AND_PEACE_2
 62
     1
 10
39.46403032921707
 20
174.1590427230596
 30
-0.0000000000000005
 11
40.28240208666397
 21
174.3691195968784
 31
-0.0000000000000005
  0
LINE
  5
257
  8
LOVE_AND_PEACE_2
 62
     1
 10
40.28240208666397
 20
174.3691195968784
 30
-0.0000000000000005
 11
41.76424554519979
 21
174.490778573604
 31
-0.0000000000000005
  0
LINE
  5
258
  8
LOVE_AND_PEACE_2
 62
     1
 10
41.76424554519979
 20
174.490778573604
 30
-0.0000000000000005
 11
43.47818598360534
 21
174.3249106483318
 31
-0.0000000000000005
  0
LINE
  5
259
  8
LOVE_AND_PEACE_2
 62
     1
 10
43.47818598360534
 20
174.3249106483318
 30
-0.0000000000000005
 11
44.31033085336185
 21
174.0290312923147
 31
-0.0000000000000005
  0
LINE
  5
25A
  8
LOVE_AND_PEACE_2
 62
     1
 10
44.31033085336185
 20
174.0290312923147
 30
-0.0000000000000005
 11
45.10370852491766
 21
173.4731290748077
 31
-0.0000000000000005
  0
LINE
  5
25B
  8
LOVE_AND_PEACE_2
 62
     1
 10
45.10370852491766
 20
173.4731290748077
 30
-0.0000000000000005
 11
46.58555198345348
 21
171.8804257720157
 31
-0.0000000000000005
  0
LINE
  5
25C
  8
LOVE_AND_PEACE_2
 62
     1
 10
46.58555198345348
 20
171.8804257720157
 30
-0.0000000000000005
 11
47.83512972567473
 21
170.3207948124112
 31
-0.0000000000000005
  0
LINE
  5
25D
  8
LOVE_AND_PEACE_2
 62
     1
 10
47.83512972567473
 20
170.3207948124112
 30
-0.0000000000000005
 11
48.96313285939278
 21
169.1372773883426
 31
-0.0000000000000005
  0
LINE
  5
25E
  8
LOVE_AND_PEACE_2
 62
     1
 10
48.96313285939278
 20
169.1372773883426
 30
-0.0000000000000005
 11
49.50222470858313
 21
168.7888788138708
 31
-0.0000000000000005
  0
LINE
  5
25F
  8
LOVE_AND_PEACE_2
 62
     1
 10
49.50222470858313
 20
168.7888788138708
 30
-0.0000000000000005
 11
50.03570607098273
 21
168.6727459557135
 31
-0.0000000000000005
  0
LINE
  5
260
  8
LOVE_AND_PEACE_2
 62
     1
 10
50.03570607098273
 20
168.6727459557135
 30
-0.0000000000000005
 11
50.59974982195296
 21
168.7779109449565
 31
-0.0000000000000005
  0
LINE
  5
261
  8
LOVE_AND_PEACE_2
 62
     1
 10
50.59974982195296
 20
168.7779109449565
 30
-0.0000000000000005
 11
50.78776440560971
 21
169.0934059126857
 31
-0.0000000000000005
  0
LINE
  5
262
  8
LOVE_AND_PEACE_2
 62
     1
 10
50.78776440560971
 20
169.0934059126857
 30
-0.0000000000000005
 11
50.67715766602075
 21
169.5582748182045
 31
-0.0000000000000005
  0
LINE
  5
263
  8
LOVE_AND_PEACE_2
 62
     1
 10
50.67715766602075
 20
169.5582748182045
 30
-0.0000000000000005
 11
50.56655092643179
 21
170.155939305808
 31
-0.0000000000000005
  0
LINE
  5
264
  8
LOVE_AND_PEACE_2
 62
     1
 10
50.56655092643179
 20
170.155939305808
 30
-0.0000000000000005
 11
50.63847483604246
 21
170.5932619867076
 31
-0.0000000000000005
  0
LINE
  5
265
  8
LOVE_AND_PEACE_2
 62
     1
 10
50.63847483604246
 20
170.5932619867076
 30
-0.0000000000000005
 11
50.85424656487446
 21
170.9751547454791
 31
-0.0000000000000005
  0
LINE
  5
266
  8
LOVE_AND_PEACE_2
 62
     1
 10
50.85424656487446
 20
170.9751547454791
 30
-0.0000000000000005
 11
51.16957279615877
 21
171.2407880937596
 31
-0.0000000000000005
  0
LINE
  5
267
  8
LOVE_AND_PEACE_2
 62
     1
 10
51.16957279615877
 20
171.2407880937596
 30
-0.0000000000000005
 11
51.54016021312635
 21
171.3293325431865
 31
-0.0000000000000005
  0
LINE
  5
268
  8
LOVE_AND_PEACE_2
 62
     1
 10
51.54016021312635
 20
171.3293325431865
 30
-0.0000000000000005
 11
52.10165182536846
 21
171.2241675539434
 31
-0.0000000000000005
  0
LINE
  5
269
  8
LOVE_AND_PEACE_2
 62
     1
 10
52.10165182536846
 20
171.2241675539434
 30
-0.0000000000000005
 11
52.50271726268426
 21
170.9086725862143
 31
-0.0000000000000005
  0
LINE
  5
26A
  8
LOVE_AND_PEACE_2
 62
     1
 10
52.50271726268426
 20
170.9086725862143
 30
-0.0000000000000005
 11
52.74335652507374
 21
170.4824443265626
 31
-0.0000000000000005
  0
LINE
  5
26B
  8
LOVE_AND_PEACE_2
 62
     1
 10
52.74335652507374
 20
170.4824443265626
 30
-0.0000000000000005
 11
52.82356961253691
 21
170.0450794615518
 31
-0.0000000000000005
  0
LINE
  5
26C
  8
LOVE_AND_PEACE_2
 62
     1
 10
52.82356961253691
 20
170.0450794615518
 30
-0.0000000000000005
 11
52.75995597283432
 21
169.4915395542725
 31
-0.0000000000000005
  0
LINE
  5
26D
  8
LOVE_AND_PEACE_2
 62
     1
 10
52.75995597283432
 20
169.4915395542725
 30
-0.0000000000000005
 11
52.56911505372661
 21
169.0265862805312
 31
-0.0000000000000005
  0
LINE
  5
26E
  8
LOVE_AND_PEACE_2
 62
     1
 10
52.56911505372661
 20
169.0265862805312
 30
-0.0000000000000005
 11
52.27038827020289
 21
168.6446724297042
 31
-0.0000000000000005
  0
LINE
  5
26F
  8
LOVE_AND_PEACE_2
 62
     1
 10
52.27038827020289
 20
168.6446724297042
 30
-0.0000000000000005
 11
51.8831170372523
 21
168.3402507911673
 31
-0.0000000000000005
  0
LINE
  5
270
  8
LOVE_AND_PEACE_2
 62
     1
 10
51.8831170372523
 20
168.3402507911673
 30
-0.0000000000000005
 11
50.90959211878015
 21
167.9416953084684
 31
-0.0000000000000005
  0
LINE
  5
271
  8
LOVE_AND_PEACE_2
 62
     1
 10
50.90959211878015
 20
167.9416953084684
 30
-0.0000000000000005
 11
49.81466132824964
 21
167.8088153581613
 31
-0.0000000000000005
  0
LINE
  5
272
  8
LOVE_AND_PEACE_2
 62
     1
 10
49.81466132824964
 20
167.8088153581613
 30
-0.0000000000000005
 11
48.63970727875642
 21
167.897423083755
 31
-0.0000000000000005
  0
LINE
  5
273
  8
LOVE_AND_PEACE_2
 62
     1
 10
48.63970727875642
 20
167.897423083755
 30
-0.0000000000000005
 11
47.59189614044592
 21
168.163246260536
 31
-0.0000000000000005
  0
LINE
  5
274
  8
LOVE_AND_PEACE_2
 62
     1
 10
47.59189614044592
 20
168.163246260536
 30
-0.0000000000000005
 11
46.64638147181628
 21
168.5647546310195
 31
-0.0000000000000005
  0
LINE
  5
275
  8
LOVE_AND_PEACE_2
 62
     1
 10
46.64638147181628
 20
168.5647546310195
 30
-0.0000000000000005
 11
45.77831683136565
 21
169.0604179377206
 31
-0.0000000000000005
  0
LINE
  5
276
  8
LOVE_AND_PEACE_2
 62
     1
 10
45.77831683136565
 20
169.0604179377206
 30
-0.0000000000000005
 11
44.24121218714656
 21
170.2677272005108
 31
-0.0000000000000005
  0
LINE
  5
277
  8
LOVE_AND_PEACE_2
 62
     1
 10
44.24121218714656
 20
170.2677272005108
 30
-0.0000000000000005
 11
42.88102770533635
 21
171.540759308564
 31
-0.0000000000000005
  0
LINE
  5
278
  8
LOVE_AND_PEACE_2
 62
     1
 10
42.88102770533635
 20
171.540759308564
 30
-0.0000000000000005
 11
41.57618877743184
 21
172.6247222301803
 31
-0.0000000000000005
  0
LINE
  5
279
  8
LOVE_AND_PEACE_2
 62
     1
 10
41.57618877743184
 20
172.6247222301803
 30
-0.0000000000000005
 11
40.90995401705876
 21
173.031123957564
 31
-0.0000000000000005
  0
LINE
  5
27A
  8
LOVE_AND_PEACE_2
 62
     1
 10
40.90995401705876
 20
173.031123957564
 30
-0.0000000000000005
 11
40.21608866384405
 21
173.2993305366283
 31
-0.0000000000000005
  0
LINE
  5
27B
  8
LOVE_AND_PEACE_2
 62
     1
 10
40.21608866384405
 20
173.2993305366283
 30
-0.0000000000000005
 11
39.64103485984837
 21
173.3656439594482
 31
-0.0000000000000005
  0
LINE
  5
27C
  8
LOVE_AND_PEACE_2
 62
     1
 10
39.64103485984837
 20
173.3656439594482
 30
-0.0000000000000005
 11
38.77845415385485
 21
173.3214350109016
 31
-0.0000000000000005
  0
LINE
  5
27D
  8
LOVE_AND_PEACE_2
 62
     1
 10
38.77845415385485
 20
173.3214350109016
 30
-0.0000000000000005
 11
38.33611156372143
 21
172.7021722583593
 31
-0.0000000000000005
  0
LINE
  5
27E
  8
LOVE_AND_PEACE_2
 62
     1
 10
38.33611156372143
 20
172.7021722583593
 30
-0.0000000000000005
 11
37.7500055225891
 21
172.0276483201337
 31
-0.0000000000000005
  0
LINE
  5
27F
  8
LOVE_AND_PEACE_2
 62
     1
 10
37.7500055225891
 20
172.0276483201337
 30
-0.0000000000000005
 11
37.08644945327777
 21
171.485751227548
 31
-0.0000000000000005
  0
LINE
  5
280
  8
LOVE_AND_PEACE_2
 62
     1
 10
37.08644945327777
 20
171.485751227548
 30
-0.0000000000000005
 11
36.4119255150522
 21
171.2645377483701
 31
-0.0000000000000005
  0
LINE
  5
281
  8
LOVE_AND_PEACE_2
 62
     1
 10
36.4119255150522
 20
171.2645377483701
 30
-0.0000000000000005
 11
36.12718276439413
 21
171.3170569668248
 31
-0.0000000000000005
  0
LINE
  5
282
  8
LOVE_AND_PEACE_2
 62
     1
 10
36.12718276439413
 20
171.3170569668248
 30
-0.0000000000000005
 11
35.89221726496221
 21
171.4746146221889
 31
-0.0000000000000005
  0
LINE
  5
283
  8
LOVE_AND_PEACE_2
 62
     1
 10
35.89221726496221
 20
171.4746146221889
 30
-0.0000000000000005
 11
35.73465960959808
 21
171.709622305732
 31
-0.0000000000000005
  0
LINE
  5
284
  8
LOVE_AND_PEACE_2
 62
     1
 10
35.73465960959808
 20
171.709622305732
 30
-0.0000000000000005
 11
35.68214039114336
 21
171.9944916087238
 31
-0.0000000000000005
  0
LINE
  5
285
  8
LOVE_AND_PEACE_2
 62
     1
 10
35.68214039114336
 20
171.9944916087238
 30
-0.0000000000000005
 11
35.74571184673473
 21
172.3953039413723
 31
-0.0000000000000005
  0
LINE
  5
286
  8
LOVE_AND_PEACE_2
 62
     1
 10
35.74571184673473
 20
172.3953039413723
 30
-0.0000000000000005
 11
35.93642621350882
 21
172.7574334440426
 31
-0.0000000000000005
  0
LINE
  5
287
  8
LOVE_AND_PEACE_2
 62
     1
 10
35.93642621350882
 20
172.7574334440426
 30
-0.0000000000000005
 11
36.55568896605112
 21
173.3656439594482
 31
-0.0000000000000005
  0
LINE
  5
288
  8
LOVE_AND_PEACE_2
 62
     1
 10
36.55568896605112
 20
173.3656439594482
 30
-0.0000000000000005
 11
37.35195624922472
 21
173.8301753920773
 31
-0.0000000000000005
  0
LINE
  5
289
  8
LOVE_AND_PEACE_2
 62
     1
 10
37.35195624922472
 20
173.8301753920773
 30
-0.0000000000000005
 11
38.13708692703924
 21
174.1398067683485
 31
-0.0000000000000005
  0
LINE
  5
28A
  8
LOVE_AND_PEACE_2
 62
     1
 10
38.13708692703924
 20
174.1398067683485
 30
-0.0000000000000005
 11
38.80055862812815
 21
174.6927560980708
 31
-0.0000000000000005
  0
LINE
  5
28B
  8
LOVE_AND_PEACE_2
 62
     1
 10
38.80055862812815
 20
174.6927560980708
 30
-0.0000000000000005
 11
39.44192585494376
 21
175.533232329791
 31
-0.0000000000000005
  0
LINE
  5
28C
  8
LOVE_AND_PEACE_2
 62
     1
 10
39.44192585494376
 20
175.533232329791
 30
-0.0000000000000005
 11
39.79585054798395
 21
176.3515197190156
 31
-0.0000000000000005
  0
LINE
  5
28D
  8
LOVE_AND_PEACE_2
 62
     1
 10
39.79585054798395
 20
176.3515197190156
 30
-0.0000000000000005
 11
40.13863863566505
 21
177.7006519636891
 31
-0.0000000000000005
  0
LINE
  5
28E
  8
LOVE_AND_PEACE_2
 62
     1
 10
40.13863863566505
 20
177.7006519636891
 30
-0.0000000000000005
 11
40.61413793720843
 21
179.9345537568519
 31
-0.0000000000000005
  0
LINE
  5
28F
  8
LOVE_AND_PEACE_2
 62
     1
 10
40.61413793720843
 20
179.9345537568519
 30
-0.0000000000000005
 11
41.36602753539057
 21
183.4069810550993
 31
-0.0000000000000005
  0
LINE
  5
290
  8
LOVE_AND_PEACE_2
 62
     1
 10
41.36602753539057
 20
183.4069810550993
 30
-0.0000000000000005
 11
41.68951639219375
 21
184.407714725301
 31
-0.0000000000000005
  0
LINE
  5
291
  8
LOVE_AND_PEACE_2
 62
     1
 10
41.68951639219375
 20
184.407714725301
 30
-0.0000000000000005
 11
42.17334705570082
 21
185.2868737869995
 31
-0.0000000000000005
  0
LINE
  5
292
  8
LOVE_AND_PEACE_2
 62
     1
 10
42.17334705570082
 20
185.2868737869995
 30
-0.0000000000000005
 11
42.78434172244624
 21
186.0416529967994
 31
-0.0000000000000005
  0
LINE
  5
293
  8
LOVE_AND_PEACE_2
 62
     1
 10
42.78434172244624
 20
186.0416529967994
 30
-0.0000000000000005
 11
43.48932258896441
 21
186.6692471113054
 31
-0.0000000000000005
  0
LINE
  5
294
  8
LOVE_AND_PEACE_2
 62
     1
 10
43.48932258896441
 20
186.6692471113054
 30
-0.0000000000000005
 11
44.2772163260631
 21
187.1668930712333
 31
-0.0000000000000005
  0
LINE
  5
295
  8
LOVE_AND_PEACE_2
 62
     1
 10
44.2772163260631
 20
187.1668930712333
 30
-0.0000000000000005
 11
45.13694960455004
 21
187.5318278172989
 31
-0.0000000000000005
  0
LINE
  5
296
  8
LOVE_AND_PEACE_2
 62
     1
 10
45.13694960455004
 20
187.5318278172989
 30
-0.0000000000000005
 11
46.03538680507088
 21
187.7557621716498
 31
-0.0000000000000005
  0
LINE
  5
297
  8
LOVE_AND_PEACE_2
 62
     1
 10
46.03538680507088
 20
187.7557621716498
 30
-0.0000000000000005
 11
46.93939230827124
 21
187.8304069564334
 31
-0.0000000000000005
  0
LINE
  5
298
  8
LOVE_AND_PEACE_2
 62
     1
 10
51.78280322079824
 20
172.4524423200043
 30
-0.0000000000000005
 11
50.78649888227345
 21
172.6296155870805
 31
-0.0000000000000005
  0
LINE
  5
299
  8
LOVE_AND_PEACE_2
 62
     1
 10
50.78649888227345
 20
172.6296155870805
 30
-0.0000000000000005
 11
50.29667807497474
 21
172.8621344080623
 31
-0.0000000000000005
  0
LINE
  5
29A
  8
LOVE_AND_PEACE_2
 62
     1
 10
50.29667807497474
 20
172.8621344080623
 30
-0.0000000000000005
 11
49.84554009765434
 21
173.2053443368555
 31
-0.0000000000000005
  0
LINE
  5
29B
  8
LOVE_AND_PEACE_2
 62
     1
 10
49.84554009765434
 20
173.2053443368555
 30
-0.0000000000000005
 11
49.45251073352378
 21
173.6675556433682
 31
-0.0000000000000005
  0
LINE
  5
29C
  8
LOVE_AND_PEACE_2
 62
     1
 10
49.45251073352378
 20
173.6675556433682
 30
-0.0000000000000005
 11
49.13701576579464
 21
174.2570785975084
 31
-0.0000000000000005
  0
LINE
  5
29D
  8
LOVE_AND_PEACE_2
 62
     1
 10
49.13701576579464
 20
174.2570785975084
 30
-0.0000000000000005
 11
48.92946993864831
 21
174.9794393178445
 31
-0.0000000000000005
  0
LINE
  5
29E
  8
LOVE_AND_PEACE_2
 62
     1
 10
48.92946993864831
 20
174.9794393178445
 30
-0.0000000000000005
 11
48.8602879962662
 21
175.8401639229449
 31
-0.0000000000000005
  0
LINE
  5
29F
  8
LOVE_AND_PEACE_2
 62
     1
 10
48.8602879962662
 20
175.8401639229449
 30
-0.0000000000000005
 11
48.96271101828069
 21
177.1825678018807
 31
-0.0000000000000005
  0
LINE
  5
2A0
  8
LOVE_AND_PEACE_2
 62
     1
 10
48.96271101828069
 20
177.1825678018807
 30
-0.0000000000000005
 11
49.26998008432416
 21
178.508308956889
 31
-0.0000000000000005
  0
LINE
  5
2A1
  8
LOVE_AND_PEACE_2
 62
     1
 10
49.26998008432416
 20
178.508308956889
 30
-0.0000000000000005
 11
49.80976797134944
 21
179.7509895969277
 31
-0.0000000000000005
  0
LINE
  5
2A2
  8
LOVE_AND_PEACE_2
 62
     1
 10
49.80976797134944
 20
179.7509895969277
 30
-0.0000000000000005
 11
50.6097474563094
 21
180.8442119309542
 31
-0.0000000000000005
  0
LINE
  5
2A3
  8
LOVE_AND_PEACE_2
 62
     1
 10
50.6097474563094
 20
180.8442119309542
 30
-0.0000000000000005
 11
51.3207184666192
 21
181.4475712735709
 31
-0.0000000000000005
  0
LINE
  5
2A4
  8
LOVE_AND_PEACE_2
 62
     1
 10
51.3207184666192
 20
181.4475712735709
 30
-0.0000000000000005
 11
52.08146672815515
 21
181.8406006377014
 31
-0.0000000000000005
  0
LINE
  5
2A5
  8
LOVE_AND_PEACE_2
 62
     1
 10
52.08146672815515
 20
181.8406006377014
 30
-0.0000000000000005
 11
52.89751835948558
 21
182.056498918867
 31
-0.0000000000000005
  0
LINE
  5
2A6
  8
LOVE_AND_PEACE_2
 62
     1
 10
52.89751835948558
 20
182.056498918867
 30
-0.0000000000000005
 11
53.77439947917882
 21
182.1284650125889
 31
-0.0000000000000005
  0
LINE
  5
2A7
  8
LOVE_AND_PEACE_2
 62
     1
 10
53.77439947917882
 20
182.1284650125889
 30
-0.0000000000000005
 11
54.75922973945487
 21
181.9955850622818
 31
-0.0000000000000005
  0
LINE
  5
2A8
  8
LOVE_AND_PEACE_2
 62
     1
 10
54.75922973945487
 20
181.9955850622818
 30
-0.0000000000000005
 11
55.28486485716968
 21
181.807359558069
 31
-0.0000000000000005
  0
LINE
  5
2A9
  8
LOVE_AND_PEACE_2
 62
     1
 10
55.28486485716968
 20
181.807359558069
 30
-0.0000000000000005
 11
55.7773010793633
 21
181.5084429460449
 31
-0.0000000000000005
  0
LINE
  5
2AA
  8
LOVE_AND_PEACE_2
 62
     1
 10
55.7773010793633
 20
181.5084429460449
 30
-0.0000000000000005
 11
56.21439174765125
 21
181.0849988377329
 31
-0.0000000000000005
  0
LINE
  5
2AB
  8
LOVE_AND_PEACE_2
 62
     1
 10
56.21439174765125
 20
181.0849988377329
 30
-0.0000000000000005
 11
56.57399020364899
 21
180.5231908446567
 31
-0.0000000000000005
  0
LINE
  5
2AC
  8
LOVE_AND_PEACE_2
 62
     1
 10
56.57399020364899
 20
180.5231908446567
 30
-0.0000000000000005
 11
56.81462946603846
 21
179.7952829136967
 31
-0.0000000000000005
  0
LINE
  5
2AD
  8
LOVE_AND_PEACE_2
 62
     1
 10
56.81462946603846
 20
179.7952829136967
 30
-0.0000000000000005
 11
56.89484255350162
 21
178.8735389917331
 31
-0.0000000000000005
  0
LINE
  5
2AE
  8
LOVE_AND_PEACE_2
 62
     1
 10
56.89484255350162
 20
178.8735389917331
 30
-0.0000000000000005
 11
56.79537241927174
 21
177.7332180975421
 31
-0.0000000000000005
  0
LINE
  5
2AF
  8
LOVE_AND_PEACE_2
 62
     1
 10
56.79537241927174
 20
177.7332180975421
 30
-0.0000000000000005
 11
56.48582541122301
 21
176.3715149877284
 31
-0.0000000000000005
  0
LINE
  5
2B0
  8
LOVE_AND_PEACE_2
 62
     1
 10
56.48582541122301
 20
176.3715149877284
 30
-0.0000000000000005
 11
55.92190821258639
 21
174.9765707982824
 31
-0.0000000000000005
  0
LINE
  5
2B1
  8
LOVE_AND_PEACE_2
 62
     1
 10
55.92190821258639
 20
174.9765707982824
 30
-0.0000000000000005
 11
55.0373917687644
 21
173.7366954016391
 31
-0.0000000000000005
  0
LINE
  5
2B2
  8
LOVE_AND_PEACE_2
 62
     1
 10
55.0373917687644
 20
173.7366954016391
 30
-0.0000000000000005
 11
54.36212960859268
 21
173.1333360590224
 31
-0.0000000000000005
  0
LINE
  5
2B3
  8
LOVE_AND_PEACE_2
 62
     1
 10
54.36212960859268
 20
173.1333360590224
 30
-0.0000000000000005
 11
53.62042747326742
 21
172.7403066948918
 31
-0.0000000000000005
  0
LINE
  5
2B4
  8
LOVE_AND_PEACE_2
 62
     1
 10
53.62042747326742
 20
172.7403066948918
 30
-0.0000000000000005
 11
52.7735603486991
 21
172.5244084137262
 31
-0.0000000000000005
  0
LINE
  5
2B5
  8
LOVE_AND_PEACE_2
 62
     1
 10
52.7735603486991
 20
172.5244084137262
 30
-0.0000000000000005
 11
51.78280322079824
 21
172.4524423200043
 31
-0.0000000000000005
  0
LINE
  5
2B6
  8
LOVE_AND_PEACE_2
 62
     1
 10
51.47114700718908
 20
173.7375390838632
 30
-0.0000000000000005
 11
51.98030922947692
 21
173.8371779545379
 31
-0.0000000000000005
  0
LINE
  5
2B7
  8
LOVE_AND_PEACE_2
 62
     1
 10
51.98030922947692
 20
173.8371779545379
 30
-0.0000000000000005
 11
52.52279689961956
 21
174.1803035151087
 31
-0.0000000000000005
  0
LINE
  5
2B8
  8
LOVE_AND_PEACE_2
 62
     1
 10
52.52279689961956
 20
174.1803035151087
 30
-0.0000000000000005
 11
53.10957788653123
 21
174.8554180308912
 31
-0.0000000000000005
  0
LINE
  5
2B9
  8
LOVE_AND_PEACE_2
 62
     1
 10
53.10957788653123
 20
174.8554180308912
 30
-0.0000000000000005
 11
53.75162005912617
 21
175.9289192929278
 31
-0.0000000000000005
  0
LINE
  5
2BA
  8
LOVE_AND_PEACE_2
 62
     1
 10
53.75162005912617
 20
175.9289192929278
 30
-0.0000000000000005
 11
54.26078228141402
 21
176.980316080691
 31
-0.0000000000000005
  0
LINE
  5
2BB
  8
LOVE_AND_PEACE_2
 62
     1
 10
54.26078228141402
 20
176.980316080691
 30
-0.0000000000000005
 11
54.69257884374527
 21
178.0981106594966
 31
-0.0000000000000005
  0
LINE
  5
2BC
  8
LOVE_AND_PEACE_2
 62
     1
 10
54.69257884374527
 20
178.0981106594966
 30
-0.0000000000000005
 11
54.99149545576945
 21
179.1274029729865
 31
-0.0000000000000005
  0
LINE
  5
2BD
  8
LOVE_AND_PEACE_2
 62
     1
 10
54.99149545576945
 20
179.1274029729865
 30
-0.0000000000000005
 11
55.10218656358082
 21
179.9131242283579
 31
-0.0000000000000005
  0
LINE
  5
2BE
  8
LOVE_AND_PEACE_2
 62
     1
 10
55.10218656358082
 20
179.9131242283579
 30
-0.0000000000000005
 11
54.91396105936803
 21
180.5882387441404
 31
-0.0000000000000005
  0
LINE
  5
2BF
  8
LOVE_AND_PEACE_2
 62
     1
 10
54.91396105936803
 20
180.5882387441404
 30
-0.0000000000000005
 11
54.66210082339705
 21
180.7957845712867
 31
-0.0000000000000005
  0
LINE
  5
2C0
  8
LOVE_AND_PEACE_2
 62
     1
 10
54.66210082339705
 20
180.7957845712867
 30
-0.0000000000000005
 11
54.28297112390975
 21
180.8649665136688
 31
-0.0000000000000005
  0
LINE
  5
2C1
  8
LOVE_AND_PEACE_2
 62
     1
 10
54.28297112390975
 20
180.8649665136688
 30
-0.0000000000000005
 11
53.66581757692788
 21
180.7127873324838
 31
-0.0000000000000005
  0
LINE
  5
2C2
  8
LOVE_AND_PEACE_2
 62
     1
 10
53.66581757692788
 20
180.7127873324838
 30
-0.0000000000000005
 11
53.09844128117216
 21
180.2562497889287
 31
-0.0000000000000005
  0
LINE
  5
2C3
  8
LOVE_AND_PEACE_2
 62
     1
 10
53.09844128117216
 20
180.2562497889287
 30
-0.0000000000000005
 11
52.50339220846359
 21
179.4621549874823
 31
-0.0000000000000005
  0
LINE
  5
2C4
  8
LOVE_AND_PEACE_2
 62
     1
 10
52.50339220846359
 20
179.4621549874823
 30
-0.0000000000000005
 11
51.8032203306232
 21
178.2973040326236
 31
-0.0000000000000005
  0
LINE
  5
2C5
  8
LOVE_AND_PEACE_2
 62
     1
 10
51.8032203306232
 20
178.2973040326236
 30
-0.0000000000000005
 11
51.30500488519399
 21
177.3123261279583
 31
-0.0000000000000005
  0
LINE
  5
2C6
  8
LOVE_AND_PEACE_2
 62
     1
 10
51.30500488519399
 20
177.3123261279583
 30
-0.0000000000000005
 11
50.9618160484564
 21
176.3494948816775
 31
-0.0000000000000005
  0
LINE
  5
2C7
  8
LOVE_AND_PEACE_2
 62
     1
 10
50.9618160484564
 20
176.3494948816775
 30
-0.0000000000000005
 11
50.69614051606462
 21
174.7114858434475
 31
-0.0000000000000005
  0
LINE
  5
2C8
  8
LOVE_AND_PEACE_2
 62
     1
 10
50.69614051606462
 20
174.7114858434475
 30
-0.0000000000000005
 11
50.89541825741406
 21
174.0584758019383
 31
-0.0000000000000005
  0
LINE
  5
2C9
  8
LOVE_AND_PEACE_2
 62
     1
 10
50.89541825741406
 20
174.0584758019383
 30
-0.0000000000000005
 11
51.13898931553253
 21
173.817773263382
 31
-0.0000000000000005
  0
LINE
  5
2CA
  8
LOVE_AND_PEACE_2
 62
     1
 10
51.13898931553253
 20
173.817773263382
 30
-0.0000000000000005
 11
51.47114700718908
 21
173.7375390838632
 31
-0.0000000000000005
  0
LINE
  5
2CB
  8
LOVE_AND_PEACE_2
 62
     1
 10
66.64612170048237
 20
181.9070827969662
 30
-0.0000000000000005
 11
66.81201071781018
 21
181.7329046017859
 31
-0.0000000000000005
  0
LINE
  5
2CC
  8
LOVE_AND_PEACE_2
 62
     1
 10
66.81201071781018
 20
181.7329046017859
 30
-0.0000000000000005
 11
66.73462396579802
 21
181.2103700162449
 31
-0.0000000000000005
  0
LINE
  5
2CD
  8
LOVE_AND_PEACE_2
 62
     1
 10
66.73462396579802
 20
181.2103700162449
 30
-0.0000000000000005
 11
65.9937022365301
 21
179.463188498207
 31
-0.0000000000000005
  0
LINE
  5
2CE
  8
LOVE_AND_PEACE_2
 62
     1
 10
65.9937022365301
 20
179.463188498207
 30
-0.0000000000000005
 11
64.64456999185656
 21
177.1852464929424
 31
-0.0000000000000005
  0
LINE
  5
2CF
  8
LOVE_AND_PEACE_2
 62
     1
 10
64.64456999185656
 20
177.1852464929424
 30
-0.0000000000000005
 11
62.89738847381862
 21
174.9072201194554
 31
-0.0000000000000005
  0
LINE
  5
2D0
  8
LOVE_AND_PEACE_2
 62
     1
 10
62.89738847381862
 20
174.9072201194554
 30
-0.0000000000000005
 11
61.9518948972446
 21
173.9451270951208
 31
-0.0000000000000005
  0
LINE
  5
2D1
  8
LOVE_AND_PEACE_2
 62
     1
 10
61.9518948972446
 20
173.9451270951208
 30
-0.0000000000000005
 11
60.99530689942269
 21
173.159954233195
 31
-0.0000000000000005
  0
LINE
  5
2D2
  8
LOVE_AND_PEACE_2
 62
     1
 10
60.99530689942269
 20
173.159954233195
 30
-0.0000000000000005
 11
60.05810250070116
 21
172.6374196476541
 31
-0.0000000000000005
  0
LINE
  5
2D3
  8
LOVE_AND_PEACE_2
 62
     1
 10
60.05810250070116
 20
172.6374196476541
 30
-0.0000000000000005
 11
59.17075972142818
 21
172.4632414524737
 31
-0.0000000000000005
  0
LINE
  5
2D4
  8
LOVE_AND_PEACE_2
 62
     1
 10
59.17075972142818
 20
172.4632414524737
 30
-0.0000000000000005
 11
58.73946936843143
 21
172.5849004291994
 31
-0.0000000000000005
  0
LINE
  5
2D5
  8
LOVE_AND_PEACE_2
 62
     1
 10
58.73946936843143
 20
172.5849004291994
 30
-0.0000000000000005
 11
58.36344020111794
 21
172.8724273311972
 31
-0.0000000000000005
  0
LINE
  5
2D6
  8
LOVE_AND_PEACE_2
 62
     1
 10
58.36344020111794
 20
172.8724273311972
 30
-0.0000000000000005
 11
58.09801777339342
 21
173.226267656015
 31
-0.0000000000000005
  0
LINE
  5
2D7
  8
LOVE_AND_PEACE_2
 62
     1
 10
58.09801777339342
 20
173.226267656015
 30
-0.0000000000000005
 11
58.02065211343682
 21
173.5470356376452
 31
-0.0000000000000005
  0
LINE
  5
2D8
  8
LOVE_AND_PEACE_2
 62
     1
 10
58.02065211343682
 20
173.5470356376452
 30
-0.0000000000000005
 11
58.09801777339342
 21
174.276820761554
 31
-0.0000000000000005
  0
LINE
  5
2D9
  8
LOVE_AND_PEACE_2
 62
     1
 10
58.09801777339342
 20
174.276820761554
 30
-0.0000000000000005
 11
58.34125135862222
 21
175.1394014675475
 31
-0.0000000000000005
  0
LINE
  5
2DA
  8
LOVE_AND_PEACE_2
 62
     1
 10
58.34125135862222
 20
175.1394014675475
 30
-0.0000000000000005
 11
58.76148947448231
 21
176.2342478898556
 31
-0.0000000000000005
  0
LINE
  5
2DB
  8
LOVE_AND_PEACE_2
 62
     1
 10
58.76148947448231
 20
176.2342478898556
 30
-0.0000000000000005
 11
59.34759551561465
 21
177.6606614262633
 31
-0.0000000000000005
  0
LINE
  5
2DC
  8
LOVE_AND_PEACE_2
 62
     1
 10
59.34759551561465
 20
177.6606614262633
 30
-0.0000000000000005
 11
60.01115158492599
 21
179.463188498207
 31
-0.0000000000000005
  0
LINE
  5
2DD
  8
LOVE_AND_PEACE_2
 62
     1
 10
60.01115158492599
 20
179.463188498207
 30
-0.0000000000000005
 11
60.23228069588149
 21
180.3810303898838
 31
-0.0000000000000005
  0
LINE
  5
2DE
  8
LOVE_AND_PEACE_2
 62
     1
 10
60.23228069588149
 20
180.3810303898838
 30
-0.0000000000000005
 11
60.13829449610871
 21
180.662988989202
 31
-0.0000000000000005
  0
LINE
  5
2DF
  8
LOVE_AND_PEACE_2
 62
     1
 10
60.13829449610871
 20
180.662988989202
 30
-0.0000000000000005
 11
59.85633589679041
 21
180.7569751889748
 31
-0.0000000000000005
  0
LINE
  5
2E0
  8
LOVE_AND_PEACE_2
 62
     1
 10
59.85633589679041
 20
180.7569751889748
 30
-0.0000000000000005
 11
59.78993810574807
 21
180.7790796632481
 31
-0.0000000000000005
  0
LINE
  5
2E1
  8
LOVE_AND_PEACE_2
 62
     1
 10
59.78993810574807
 20
180.7790796632481
 30
-0.0000000000000005
 11
59.57986123192922
 21
180.8565296914271
 31
-0.0000000000000005
  0
LINE
  5
2E2
  8
LOVE_AND_PEACE_2
 62
     1
 10
59.57986123192922
 20
180.8565296914271
 30
-0.0000000000000005
 11
59.44715001806695
 21
181.000293142426
 31
-0.0000000000000005
  0
LINE
  5
2E3
  8
LOVE_AND_PEACE_2
 62
     1
 10
59.44715001806695
 20
181.000293142426
 30
-0.0000000000000005
 11
59.60196570620253
 21
181.2435267276549
 31
-0.0000000000000005
  0
LINE
  5
2E4
  8
LOVE_AND_PEACE_2
 62
     1
 10
59.60196570620253
 20
181.2435267276549
 30
-0.0000000000000005
 11
60.27657401265051
 21
181.6195558949684
 31
-0.0000000000000005
  0
LINE
  5
2E5
  8
LOVE_AND_PEACE_2
 62
     1
 10
60.27657401265051
 20
181.6195558949684
 30
-0.0000000000000005
 11
61.66991520587067
 21
182.1282962761441
 31
-0.0000000000000005
  0
LINE
  5
2E6
  8
LOVE_AND_PEACE_2
 62
     1
 10
61.66991520587067
 20
182.1282962761441
 30
-0.0000000000000005
 11
62.14541450741405
 21
182.1393485132808
 31
-0.0000000000000005
  0
LINE
  5
2E7
  8
LOVE_AND_PEACE_2
 62
     1
 10
62.14541450741405
 20
182.1393485132808
 30
-0.0000000000000005
 11
62.49925483223182
 21
181.8960305598295
 31
-0.0000000000000005
  0
LINE
  5
2E8
  8
LOVE_AND_PEACE_2
 62
     1
 10
62.49925483223182
 20
181.8960305598295
 30
-0.0000000000000005
 11
62.73143618032398
 21
181.5089491553794
 31
-0.0000000000000005
  0
LINE
  5
2E9
  8
LOVE_AND_PEACE_2
 62
     1
 10
62.73143618032398
 20
181.5089491553794
 30
-0.0000000000000005
 11
62.81985407741721
 21
181.0887110395193
 31
-0.0000000000000005
  0
LINE
  5
2EA
  8
LOVE_AND_PEACE_2
 62
     1
 10
62.81985407741721
 20
181.0887110395193
 30
-0.0000000000000005
 11
62.55451601791509
 21
179.8280810601614
 31
-0.0000000000000005
  0
LINE
  5
2EB
  8
LOVE_AND_PEACE_2
 62
     1
 10
62.55451601791509
 20
179.8280810601614
 30
-0.0000000000000005
 11
61.62570625732407
 21
177.3068211014456
 31
-0.0000000000000005
  0
LINE
  5
2EC
  8
LOVE_AND_PEACE_2
 62
     1
 10
61.62570625732407
 20
177.3068211014456
 30
-0.0000000000000005
 11
60.95109795087608
 21
175.5817440576809
 31
-0.0000000000000005
  0
LINE
  5
2ED
  8
LOVE_AND_PEACE_2
 62
     1
 10
60.95109795087608
 20
175.5817440576809
 30
-0.0000000000000005
 11
60.69681212851062
 21
174.5643476635518
 31
-0.0000000000000005
  0
LINE
  5
2EE
  8
LOVE_AND_PEACE_2
 62
     1
 10
60.69681212851062
 20
174.5643476635518
 30
-0.0000000000000005
 11
60.81838673701382
 21
174.2769051297764
 31
-0.0000000000000005
  0
LINE
  5
2EF
  8
LOVE_AND_PEACE_2
 62
     1
 10
60.81838673701382
 20
174.2769051297764
 30
-0.0000000000000005
 11
61.0727569276017
 21
174.1662983901875
 31
-0.0000000000000005
  0
LINE
  5
2F0
  8
LOVE_AND_PEACE_2
 62
     1
 10
61.0727569276017
 20
174.1662983901875
 30
-0.0000000000000005
 11
61.60351741482834
 21
174.5532954264152
 31
-0.0000000000000005
  0
LINE
  5
2F1
  8
LOVE_AND_PEACE_2
 62
     1
 10
61.60351741482834
 20
174.5532954264152
 30
-0.0000000000000005
 11
62.46609812082187
 21
175.4821895552286
 31
-0.0000000000000005
  0
LINE
  5
2F2
  8
LOVE_AND_PEACE_2
 62
     1
 10
62.46609812082187
 20
175.4821895552286
 30
-0.0000000000000005
 11
63.372887775362
 21
176.5880882146734
 31
-0.0000000000000005
  0
LINE
  5
2F3
  8
LOVE_AND_PEACE_2
 62
     1
 10
63.372887775362
 20
176.5880882146734
 30
-0.0000000000000005
 11
64.01417063395517
 21
177.4838256320769
 31
-0.0000000000000005
  0
LINE
  5
2F4
  8
LOVE_AND_PEACE_2
 62
     1
 10
64.01417063395517
 20
177.4838256320769
 30
-0.0000000000000005
 11
64.51185877799429
 21
178.4457921040779
 31
-0.0000000000000005
  0
LINE
  5
2F5
  8
LOVE_AND_PEACE_2
 62
     1
 10
64.51185877799429
 20
178.4457921040779
 30
-0.0000000000000005
 11
64.96516923704195
 21
179.6291407917016
 31
-0.0000000000000005
  0
LINE
  5
2F6
  8
LOVE_AND_PEACE_2
 62
     1
 10
64.96516923704195
 20
179.6291407917016
 30
-0.0000000000000005
 11
65.6730186231223
 21
181.752351477053
 31
-0.0000000000000005
  0
LINE
  5
2F7
  8
LOVE_AND_PEACE_2
 62
     1
 10
65.6730186231223
 20
181.752351477053
 30
-0.0000000000000005
 11
65.81678207412122
 21
181.8297171370096
 31
-0.0000000000000005
  0
LINE
  5
2F8
  8
LOVE_AND_PEACE_2
 62
     1
 10
65.81678207412122
 20
181.8297171370096
 30
-0.0000000000000005
 11
66.10430897611906
 21
181.8739260855562
 31
-0.0000000000000005
  0
LINE
  5
2F9
  8
LOVE_AND_PEACE_2
 62
     1
 10
66.10430897611906
 20
181.8739260855562
 30
-0.0000000000000005
 11
66.42499258952685
 21
181.8960305598295
 31
-0.0000000000000005
  0
LINE
  5
2FA
  8
LOVE_AND_PEACE_2
 62
     1
 10
66.42499258952685
 20
181.8960305598295
 30
-0.0000000000000005
 11
66.64612170048237
 21
181.9070827969662
 31
-0.0000000000000005
  0
LINE
  5
2FB
  8
LOVE_AND_PEACE_2
 62
     1
 10
73.06046891441775
 20
174.8942274132031
 30
-0.0000000000000005
 11
73.10467786296435
 21
174.6730139340252
 31
-0.0000000000000005
  0
LINE
  5
2FC
  8
LOVE_AND_PEACE_2
 62
     1
 10
73.10467786296435
 20
174.6730139340252
 30
-0.0000000000000005
 11
72.5738330075153
 21
173.9876064951079
 31
-0.0000000000000005
  0
LINE
  5
2FD
  8
LOVE_AND_PEACE_2
 62
     1
 10
72.5738330075153
 20
173.9876064951079
 30
-0.0000000000000005
 11
71.65599111583852
 21
173.2694641858926
 31
-0.0000000000000005
  0
LINE
  5
2FE
  8
LOVE_AND_PEACE_2
 62
     1
 10
71.65599111583852
 20
173.2694641858926
 30
-0.0000000000000005
 11
70.40641337361726
 21
172.6951696958986
 31
-0.0000000000000005
  0
LINE
  5
2FF
  8
LOVE_AND_PEACE_2
 62
     1
 10
70.40641337361726
 20
172.6951696958986
 30
-0.0000000000000005
 11
69.67143960402977
 21
172.52122351333
 31
-0.0000000000000005
  0
LINE
  5
300
  8
LOVE_AND_PEACE_2
 62
     1
 10
69.67143960402977
 20
172.52122351333
 30
-0.0000000000000005
 11
68.88187959453833
 21
172.4632414524737
 31
-0.0000000000000005
  0
LINE
  5
301
  8
LOVE_AND_PEACE_2
 62
     1
 10
68.88187959453833
 20
172.4632414524737
 30
-0.0000000000000005
 11
67.85184905910226
 21
172.6234145227328
 31
-0.0000000000000005
  0
LINE
  5
302
  8
LOVE_AND_PEACE_2
 62
     1
 10
67.85184905910226
 20
172.6234145227328
 30
-0.0000000000000005
 11
67.02113844912685
 21
173.10393373351
 31
-0.0000000000000005
  0
LINE
  5
303
  8
LOVE_AND_PEACE_2
 62
     1
 10
67.02113844912685
 20
173.10393373351
 30
-0.0000000000000005
 11
66.70130379095713
 21
173.4587970230246
 31
-0.0000000000000005
  0
LINE
  5
304
  8
LOVE_AND_PEACE_2
 62
     1
 10
66.70130379095713
 20
173.4587970230246
 30
-0.0000000000000005
 11
66.47285046369302
 21
173.882694610532
 31
-0.0000000000000005
  0
LINE
  5
305
  8
LOVE_AND_PEACE_2
 62
     1
 10
66.47285046369302
 20
173.882694610532
 30
-0.0000000000000005
 11
66.29008780188175
 21
174.9375926795256
 31
-0.0000000000000005
  0
LINE
  5
306
  8
LOVE_AND_PEACE_2
 62
     1
 10
66.29008780188175
 20
174.9375926795256
 30
-0.0000000000000005
 11
66.43393562110309
 21
176.274154059059
 31
-0.0000000000000005
  0
LINE
  5
307
  8
LOVE_AND_PEACE_2
 62
     1
 10
66.43393562110309
 20
176.274154059059
 30
-0.0000000000000005
 11
66.88766792126283
 21
177.7433422842322
 31
-0.0000000000000005
  0
LINE
  5
308
  8
LOVE_AND_PEACE_2
 62
     1
 10
66.88766792126283
 20
177.7433422842322
 30
-0.0000000000000005
 11
67.7176824934033
 21
179.2235827465421
 31
-0.0000000000000005
  0
LINE
  5
309
  8
LOVE_AND_PEACE_2
 62
     1
 10
67.7176824934033
 20
179.2235827465421
 30
-0.0000000000000005
 11
68.29039507922691
 21
179.9249990556631
 31
-0.0000000000000005
  0
LINE
  5
30A
  8
LOVE_AND_PEACE_2
 62
     1
 10
68.29039507922691
 20
179.9249990556631
 30
-0.0000000000000005
 11
68.96827265429356
 21
180.5711963632121
 31
-0.0000000000000005
  0
LINE
  5
30B
  8
LOVE_AND_PEACE_2
 62
     1
 10
68.96827265429356
 20
180.5711963632121
 30
-0.0000000000000005
 11
69.81739662881154
 21
181.2063836177357
 31
-0.0000000000000005
  0
LINE
  5
30C
  8
LOVE_AND_PEACE_2
 62
     1
 10
69.81739662881154
 20
181.2063836177357
 30
-0.0000000000000005
 11
70.72735009169232
 21
181.6979339735939
 31
-0.0000000000000005
  0
LINE
  5
30D
  8
LOVE_AND_PEACE_2
 62
     1
 10
70.72735009169232
 20
181.6979339735939
 30
-0.0000000000000005
 11
71.68155468723093
 21
182.0127329034881
 31
-0.0000000000000005
  0
LINE
  5
30E
  8
LOVE_AND_PEACE_2
 62
     1
 10
71.68155468723093
 20
182.0127329034881
 30
-0.0000000000000005
 11
72.66343205972237
 21
182.1176658801195
 31
-0.0000000000000005
  0
LINE
  5
30F
  8
LOVE_AND_PEACE_2
 62
     1
 10
72.66343205972237
 20
182.1176658801195
 30
-0.0000000000000005
 11
73.46005790784125
 21
182.0072067849198
 31
-0.0000000000000005
  0
LINE
  5
310
  8
LOVE_AND_PEACE_2
 62
     1
 10
73.46005790784125
 20
182.0072067849198
 30
-0.0000000000000005
 11
73.99113477590195
 21
181.6758294993206
 31
-0.0000000000000005
  0
LINE
  5
311
  8
LOVE_AND_PEACE_2
 62
     1
 10
73.99113477590195
 20
181.6758294993206
 30
-0.0000000000000005
 11
74.28986155942567
 21
181.1842791434624
 31
-0.0000000000000005
  0
LINE
  5
312
  8
LOVE_AND_PEACE_2
 62
     1
 10
74.28986155942567
 20
181.1842791434624
 30
-0.0000000000000005
 11
74.38943715393359
 21
180.5933008374855
 31
-0.0000000000000005
  0
LINE
  5
313
  8
LOVE_AND_PEACE_2
 62
     1
 10
74.38943715393359
 20
180.5933008374855
 30
-0.0000000000000005
 11
74.25944681524426
 21
179.7232957279192
 31
-0.0000000000000005
  0
LINE
  5
314
  8
LOVE_AND_PEACE_2
 62
     1
 10
74.25944681524426
 20
179.7232957279192
 30
-0.0000000000000005
 11
73.86947579917634
 21
178.969381292399
 31
-0.0000000000000005
  0
LINE
  5
315
  8
LOVE_AND_PEACE_2
 62
     1
 10
73.86947579917634
 20
178.969381292399
 30
-0.0000000000000005
 11
73.23614464554598
 21
178.3093686884292
 31
-0.0000000000000005
  0
LINE
  5
316
  8
LOVE_AND_PEACE_2
 62
     1
 10
73.23614464554598
 20
178.3093686884292
 30
-0.0000000000000005
 11
72.37607389416938
 21
177.7210690735141
 31
-0.0000000000000005
  0
LINE
  5
317
  8
LOVE_AND_PEACE_2
 62
     1
 10
72.37607389416938
 20
177.7210690735141
 30
-0.0000000000000005
 11
71.46896785879517
 21
177.2875429626232
 31
-0.0000000000000005
  0
LINE
  5
318
  8
LOVE_AND_PEACE_2
 62
     1
 10
71.46896785879517
 20
177.2875429626232
 30
-0.0000000000000005
 11
70.60611295607879
 21
177.0030955007437
 31
-0.0000000000000005
  0
LINE
  5
319
  8
LOVE_AND_PEACE_2
 62
     1
 10
70.60611295607879
 20
177.0030955007437
 30
-0.0000000000000005
 11
69.12367891998606
 21
176.748978414823
 31
-0.0000000000000005
  0
LINE
  5
31A
  8
LOVE_AND_PEACE_2
 62
     1
 10
69.12367891998606
 20
176.748978414823
 30
-0.0000000000000005
 11
69.00201994326045
 21
176.2077562680166
 31
-0.0000000000000005
  0
LINE
  5
31B
  8
LOVE_AND_PEACE_2
 62
     1
 10
69.00201994326045
 20
176.2077562680166
 30
-0.0000000000000005
 11
68.94667438935475
 21
175.3572402178288
 31
-0.0000000000000005
  0
LINE
  5
31C
  8
LOVE_AND_PEACE_2
 62
     1
 10
68.94667438935475
 20
175.3572402178288
 30
-0.0000000000000005
 11
69.02408223342253
 21
174.8186334859173
 31
-0.0000000000000005
  0
LINE
  5
31D
  8
LOVE_AND_PEACE_2
 62
     1
 10
69.02408223342253
 20
174.8186334859173
 30
-0.0000000000000005
 11
69.2563057656259
 21
174.3519084795053
 31
-0.0000000000000005
  0
LINE
  5
31E
  8
LOVE_AND_PEACE_2
 62
     1
 10
69.2563057656259
 20
174.3519084795053
 30
-0.0000000000000005
 11
69.63229274882818
 21
174.0288203717587
 31
-0.0000000000000005
  0
LINE
  5
31F
  8
LOVE_AND_PEACE_2
 62
     1
 10
69.63229274882818
 20
174.0288203717587
 30
-0.0000000000000005
 11
70.14099094589272
 21
173.9211243358431
 31
-0.0000000000000005
  0
LINE
  5
320
  8
LOVE_AND_PEACE_2
 62
     1
 10
70.14099094589272
 20
173.9211243358431
 30
-0.0000000000000005
 11
70.90405933354515
 21
174.0123474763317
 31
-0.0000000000000005
  0
LINE
  5
321
  8
LOVE_AND_PEACE_2
 62
     1
 10
70.90405933354515
 20
174.0123474763317
 30
-0.0000000000000005
 11
71.55652098160861
 21
174.2860168977975
 31
-0.0000000000000005
  0
LINE
  5
322
  8
LOVE_AND_PEACE_2
 62
     1
 10
71.55652098160861
 20
174.2860168977975
 30
-0.0000000000000005
 11
72.52962405896868
 21
175.0712319438344
 31
-0.0000000000000005
  0
LINE
  5
323
  8
LOVE_AND_PEACE_2
 62
     1
 10
72.52962405896868
 20
175.0712319438344
 30
-0.0000000000000005
 11
72.70662858959997
 21
175.1375453666544
 31
-0.0000000000000005
  0
LINE
  5
324
  8
LOVE_AND_PEACE_2
 62
     1
 10
72.70662858959997
 20
175.1375453666544
 30
-0.0000000000000005
 11
73.06046891441775
 21
174.8942274132031
 31
-0.0000000000000005
  0
LINE
  5
325
  8
LOVE_AND_PEACE_2
 62
     1
 10
69.30422691595888
 20
177.5660002807113
 30
-0.0000000000000005
 11
70.21101657049901
 21
177.7650249173934
 31
-0.0000000000000005
  0
LINE
  5
326
  8
LOVE_AND_PEACE_2
 62
     1
 10
70.21101657049901
 20
177.7650249173934
 30
-0.0000000000000005
 11
70.79708042752014
 21
178.0470046087673
 31
-0.0000000000000005
  0
LINE
  5
327
  8
LOVE_AND_PEACE_2
 62
     1
 10
70.79708042752014
 20
178.0470046087673
 30
-0.0000000000000005
 11
71.31674649349893
 21
178.4506854609781
 31
-0.0000000000000005
  0
LINE
  5
328
  8
LOVE_AND_PEACE_2
 62
     1
 10
71.31674649349893
 20
178.4506854609781
 30
-0.0000000000000005
 11
71.80329803217896
 21
179.2026594273826
 31
-0.0000000000000005
  0
LINE
  5
329
  8
LOVE_AND_PEACE_2
 62
     1
 10
71.80329803217896
 20
179.2026594273826
 30
-0.0000000000000005
 11
71.96914486539558
 21
179.7223887695282
 31
-0.0000000000000005
  0
LINE
  5
32A
  8
LOVE_AND_PEACE_2
 62
     1
 10
71.96914486539558
 20
179.7223887695282
 30
-0.0000000000000005
 11
72.02442714313446
 21
180.2642647700583
 31
-0.0000000000000005
  0
LINE
  5
32B
  8
LOVE_AND_PEACE_2
 62
     1
 10
72.02442714313446
 20
180.2642647700583
 30
-0.0000000000000005
 11
71.9139047717679
 21
180.7729207830117
 31
-0.0000000000000005
  0
LINE
  5
32C
  8
LOVE_AND_PEACE_2
 62
     1
 10
71.9139047717679
 20
180.7729207830117
 30
-0.0000000000000005
 11
71.73702679347024
 21
180.9553459719333
 31
-0.0000000000000005
  0
LINE
  5
32D
  8
LOVE_AND_PEACE_2
 62
     1
 10
71.73702679347024
 20
180.9553459719333
 30
-0.0000000000000005
 11
71.4274376013103
 21
181.0161543682405
 31
-0.0000000000000005
  0
LINE
  5
32E
  8
LOVE_AND_PEACE_2
 62
     1
 10
71.4274376013103
 20
181.0161543682405
 30
-0.0000000000000005
 11
71.11215355413721
 21
180.9332204056044
 31
-0.0000000000000005
  0
LINE
  5
32F
  8
LOVE_AND_PEACE_2
 62
     1
 10
71.11215355413721
 20
180.9332204056044
 30
-0.0000000000000005
 11
70.78590163804985
 21
180.684418517696
 31
-0.0000000000000005
  0
LINE
  5
330
  8
LOVE_AND_PEACE_2
 62
     1
 10
70.78590163804985
 20
180.684418517696
 30
-0.0000000000000005
 11
70.16663888550755
 21
179.8329744170616
 31
-0.0000000000000005
  0
LINE
  5
331
  8
LOVE_AND_PEACE_2
 62
     1
 10
70.16663888550755
 20
179.8329744170616
 30
-0.0000000000000005
 11
69.65798287255423
 21
178.7050556515659
 31
-0.0000000000000005
  0
LINE
  5
332
  8
LOVE_AND_PEACE_2
 62
     1
 10
69.65798287255423
 20
178.7050556515659
 30
-0.0000000000000005
 11
69.30422691595888
 21
177.5660002807113
 31
-0.0000000000000005
  0
LINE
  5
333
  8
LOVE_AND_PEACE_2
 62
     1
 10
89.08266929722463
 20
182.236456337283
 30
-0.0000000000000005
 11
89.24857940660806
 21
182.1700585462406
 31
-0.0000000000000005
  0
LINE
  5
334
  8
LOVE_AND_PEACE_2
 62
     1
 10
89.24857940660806
 20
182.1700585462406
 30
-0.0000000000000005
 11
89.25967382785592
 21
181.9708651731136
 31
-0.0000000000000005
  0
LINE
  5
335
  8
LOVE_AND_PEACE_2
 62
     1
 10
89.25967382785592
 20
181.9708651731136
 30
-0.0000000000000005
 11
88.8947812659015
 21
180.9526250967603
 31
-0.0000000000000005
  0
LINE
  5
336
  8
LOVE_AND_PEACE_2
 62
     1
 10
88.8947812659015
 20
180.9526250967603
 30
-0.0000000000000005
 11
88.41928196435813
 21
179.5802072226996
 31
-0.0000000000000005
  0
LINE
  5
337
  8
LOVE_AND_PEACE_2
 62
     1
 10
88.41928196435813
 20
179.5802072226996
 30
-0.0000000000000005
 11
87.96588713708806
 21
178.2519982971855
 31
-0.0000000000000005
  0
LINE
  5
338
  8
LOVE_AND_PEACE_2
 62
     1
 10
87.96588713708806
 20
178.2519982971855
 30
-0.0000000000000005
 11
87.68941247222688
 21
177.366553802917
 31
-0.0000000000000005
  0
LINE
  5
339
  8
LOVE_AND_PEACE_2
 62
     1
 10
87.68941247222688
 20
177.366553802917
 30
-0.0000000000000005
 11
87.51249230981797
 21
176.7578370781768
 31
-0.0000000000000005
  0
LINE
  5
33A
  8
LOVE_AND_PEACE_2
 62
     1
 10
87.51249230981797
 20
176.7578370781768
 30
-0.0000000000000005
 11
87.22496540782015
 21
175.7506492389602
 31
-0.0000000000000005
  0
LINE
  5
33B
  8
LOVE_AND_PEACE_2
 62
     1
 10
87.22496540782015
 20
175.7506492389602
 30
-0.0000000000000005
 11
86.94849074295897
 21
174.7656502422393
 31
-0.0000000000000005
  0
LINE
  5
33C
  8
LOVE_AND_PEACE_2
 62
     1
 10
86.94849074295897
 20
174.7656502422393
 30
-0.0000000000000005
 11
86.82683176623335
 21
174.1789536235501
 31
-0.0000000000000005
  0
LINE
  5
33D
  8
LOVE_AND_PEACE_2
 62
     1
 10
86.82683176623335
 20
174.1789536235501
 30
-0.0000000000000005
 11
86.89318737316448
 21
173.9797602504231
 31
-0.0000000000000005
  0
LINE
  5
33E
  8
LOVE_AND_PEACE_2
 62
     1
 10
86.89318737316448
 20
173.9797602504231
 30
-0.0000000000000005
 11
87.09225419395788
 21
173.9133624593807
 31
-0.0000000000000005
  0
LINE
  5
33F
  8
LOVE_AND_PEACE_2
 62
     1
 10
87.09225419395788
 20
173.9133624593807
 30
-0.0000000000000005
 11
87.39083333309237
 21
173.7473257976636
 31
-0.0000000000000005
  0
LINE
  5
340
  8
LOVE_AND_PEACE_2
 62
     1
 10
87.39083333309237
 20
173.7473257976636
 30
-0.0000000000000005
 11
87.49593504616863
 21
173.5647107802416
 31
-0.0000000000000005
  0
LINE
  5
341
  8
LOVE_AND_PEACE_2
 62
     1
 10
87.49593504616863
 20
173.5647107802416
 30
-0.0000000000000005
 11
87.47933559840804
 21
173.3489390514096
 31
-0.0000000000000005
  0
LINE
  5
342
  8
LOVE_AND_PEACE_2
 62
     1
 10
87.47933559840804
 20
173.3489390514096
 30
-0.0000000000000005
 11
87.30237325188794
 21
173.1110206641931
 31
-0.0000000000000005
  0
LINE
  5
343
  8
LOVE_AND_PEACE_2
 62
     1
 10
87.30237325188794
 20
173.1110206641931
 30
-0.0000000000000005
 11
86.92638626868566
 21
172.8619656716175
 31
-0.0000000000000005
  0
LINE
  5
344
  8
LOVE_AND_PEACE_2
 62
     1
 10
86.92638626868566
 20
172.8619656716175
 30
-0.0000000000000005
 11
86.28223489053028
 21
172.6322731860866
 31
-0.0000000000000005
  0
LINE
  5
345
  8
LOVE_AND_PEACE_2
 62
     1
 10
86.28223489053028
 20
172.6322731860866
 30
-0.0000000000000005
 11
85.30077935915091
 21
172.4524423200043
 31
-0.0000000000000005
  0
LINE
  5
346
  8
LOVE_AND_PEACE_2
 62
     1
 10
85.30077935915091
 20
172.4524423200043
 30
-0.0000000000000005
 11
84.86957337437659
 21
172.4662998005364
 31
-0.0000000000000005
  0
LINE
  5
347
  8
LOVE_AND_PEACE_2
 62
     1
 10
84.86957337437659
 20
172.4662998005364
 30
-0.0000000000000005
 11
84.59309870951539
 21
172.6404990877723
 31
-0.0000000000000005
  0
LINE
  5
348
  8
LOVE_AND_PEACE_2
 62
     1
 10
84.59309870951539
 20
172.6404990877723
 30
-0.0000000000000005
 11
84.39398970461077
 21
173.1602917060847
 31
-0.0000000000000005
  0
LINE
  5
349
  8
LOVE_AND_PEACE_2
 62
     1
 10
84.39398970461077
 20
173.1602917060847
 30
-0.0000000000000005
 11
84.42714641602075
 21
173.4256297655868
 31
-0.0000000000000005
  0
LINE
  5
34A
  8
LOVE_AND_PEACE_2
 62
     1
 10
84.42714641602075
 20
173.4256297655868
 30
-0.0000000000000005
 11
84.54880539274636
 21
173.8900768299935
 31
-0.0000000000000005
  0
LINE
  5
34B
  8
LOVE_AND_PEACE_2
 62
     1
 10
84.54880539274636
 20
173.8900768299935
 30
-0.0000000000000005
 11
84.80317558333424
 21
174.708364219218
 31
-0.0000000000000005
  0
LINE
  5
34C
  8
LOVE_AND_PEACE_2
 62
     1
 10
84.80317558333424
 20
174.708364219218
 30
-0.0000000000000005
 11
85.2565704106043
 21
176.0353919896183
 31
-0.0000000000000005
  0
LINE
  5
34D
  8
LOVE_AND_PEACE_2
 62
     1
 10
85.2565704106043
 20
176.0353919896183
 30
-0.0000000000000005
 11
85.0574614056997
 21
176.1459143609848
 31
-0.0000000000000005
  0
LINE
  5
34E
  8
LOVE_AND_PEACE_2
 62
     1
 10
85.0574614056997
 20
176.1459143609848
 30
-0.0000000000000005
 11
84.29443520215848
 21
175.0070277265749
 31
-0.0000000000000005
  0
LINE
  5
34F
  8
LOVE_AND_PEACE_2
 62
     1
 10
84.29443520215848
 20
175.0070277265749
 30
-0.0000000000000005
 11
83.31027988766176
 21
173.8016589329003
 31
-0.0000000000000005
  0
LINE
  5
350
  8
LOVE_AND_PEACE_2
 62
     1
 10
83.31027988766176
 20
173.8016589329003
 30
-0.0000000000000005
 11
82.09394322507289
 21
172.8395237244545
 31
-0.0000000000000005
  0
LINE
  5
351
  8
LOVE_AND_PEACE_2
 62
     1
 10
82.09394322507289
 20
172.8395237244545
 30
-0.0000000000000005
 11
81.40279874703113
 21
172.5492126711169
 31
-0.0000000000000005
  0
LINE
  5
352
  8
LOVE_AND_PEACE_2
 62
     1
 10
81.40279874703113
 20
172.5492126711169
 30
-0.0000000000000005
 11
80.65630871508368
 21
172.4524423200043
 31
-0.0000000000000005
  0
LINE
  5
353
  8
LOVE_AND_PEACE_2
 62
     1
 10
80.65630871508368
 20
172.4524423200043
 30
-0.0000000000000005
 11
80.16975717640366
 21
172.5963745074481
 31
-0.0000000000000005
  0
LINE
  5
354
  8
LOVE_AND_PEACE_2
 62
     1
 10
80.16975717640366
 20
172.5963745074481
 30
-0.0000000000000005
 11
79.67215340058696
 21
172.9838777530103
 31
-0.0000000000000005
  0
LINE
  5
355
  8
LOVE_AND_PEACE_2
 62
     1
 10
79.67215340058696
 20
172.9838777530103
 30
-0.0000000000000005
 11
79.28507199613684
 21
173.5374176602896
 31
-0.0000000000000005
  0
LINE
  5
356
  8
LOVE_AND_PEACE_2
 62
     1
 10
79.28507199613684
 20
173.5374176602896
 30
-0.0000000000000005
 11
79.13025630800125
 21
174.1794598328846
 31
-0.0000000000000005
  0
LINE
  5
357
  8
LOVE_AND_PEACE_2
 62
     1
 10
79.13025630800125
 20
174.1794598328846
 30
-0.0000000000000005
 11
79.35146978717917
 21
175.7294728151335
 31
-0.0000000000000005
  0
LINE
  5
358
  8
LOVE_AND_PEACE_2
 62
     1
 10
79.35146978717917
 20
175.7294728151335
 30
-0.0000000000000005
 11
79.95968030258483
 21
177.4786791705094
 31
-0.0000000000000005
  0
LINE
  5
359
  8
LOVE_AND_PEACE_2
 62
     1
 10
79.95968030258483
 20
177.4786791705094
 30
-0.0000000000000005
 11
80.89962666853492
 21
179.2056966833896
 31
-0.0000000000000005
  0
LINE
  5
35A
  8
LOVE_AND_PEACE_2
 62
     1
 10
80.89962666853492
 20
179.2056966833896
 30
-0.0000000000000005
 11
82.10499546220956
 21
180.6892275063738
 31
-0.0000000000000005
  0
LINE
  5
35B
  8
LOVE_AND_PEACE_2
 62
     1
 10
82.10499546220956
 20
180.6892275063738
 30
-0.0000000000000005
 11
82.77954049249074
 21
181.2704612826616
 31
-0.0000000000000005
  0
LINE
  5
35C
  8
LOVE_AND_PEACE_2
 62
     1
 10
82.77954049249074
 20
181.2704612826616
 30
-0.0000000000000005
 11
83.49833665542971
 21
181.7299095298901
 31
-0.0000000000000005
  0
LINE
  5
35D
  8
LOVE_AND_PEACE_2
 62
     1
 10
83.49833665542971
 20
181.7299095298901
 30
-0.0000000000000005
 11
84.25305258906283
 21
182.0288261419142
 31
-0.0000000000000005
  0
LINE
  5
35E
  8
LOVE_AND_PEACE_2
 62
     1
 10
84.25305258906283
 20
182.0288261419142
 30
-0.0000000000000005
 11
85.03535693142639
 21
182.1284650125889
 31
-0.0000000000000005
  0
LINE
  5
35F
  8
LOVE_AND_PEACE_2
 62
     1
 10
85.03535693142639
 20
182.1284650125889
 30
-0.0000000000000005
 11
85.69338688216939
 21
182.0649357411088
 31
-0.0000000000000005
  0
LINE
  5
360
  8
LOVE_AND_PEACE_2
 62
     1
 10
85.69338688216939
 20
182.0649357411088
 30
-0.0000000000000005
 11
86.16336006514445
 21
181.8743479266683
 31
-0.0000000000000005
  0
LINE
  5
361
  8
LOVE_AND_PEACE_2
 62
     1
 10
86.16336006514445
 20
181.8743479266683
 30
-0.0000000000000005
 11
86.76051834341342
 21
181.354977149468
 31
-0.0000000000000005
  0
LINE
  5
362
  8
LOVE_AND_PEACE_2
 62
     1
 10
86.76051834341342
 20
181.354977149468
 30
-0.0000000000000005
 11
87.11435866823119
 21
181.9939820660559
 31
-0.0000000000000005
  0
LINE
  5
363
  8
LOVE_AND_PEACE_2
 62
     1
 10
87.11435866823119
 20
181.9939820660559
 30
-0.0000000000000005
 11
87.29132101475129
 21
182.1758377694762
 31
-0.0000000000000005
  0
LINE
  5
364
  8
LOVE_AND_PEACE_2
 62
     1
 10
87.29132101475129
 20
182.1758377694762
 30
-0.0000000000000005
 11
87.51240794159557
 21
182.236456337283
 31
-0.0000000000000005
  0
LINE
  5
365
  8
LOVE_AND_PEACE_2
 62
     1
 10
87.51240794159557
 20
182.236456337283
 30
-0.0000000000000005
 11
89.08266929722463
 21
182.236456337283
 31
-0.0000000000000005
  0
LINE
  5
366
  8
LOVE_AND_PEACE_2
 62
     1
 10
81.76524463053545
 20
174.9095824296831
 30
-0.0000000000000005
 11
81.89795584439773
 21
174.3891148655913
 31
-0.0000000000000005
  0
LINE
  5
367
  8
LOVE_AND_PEACE_2
 62
     1
 10
81.89795584439773
 20
174.3891148655913
 30
-0.0000000000000005
 11
82.29592074953969
 21
174.2450983099251
 31
-0.0000000000000005
  0
LINE
  5
368
  8
LOVE_AND_PEACE_2
 62
     1
 10
82.29592074953969
 20
174.2450983099251
 30
-0.0000000000000005
 11
82.57517956574064
 21
174.3613788124717
 31
-0.0000000000000005
  0
LINE
  5
369
  8
LOVE_AND_PEACE_2
 62
     1
 10
82.57517956574064
 20
174.3613788124717
 30
-0.0000000000000005
 11
82.97052905598767
 21
174.7102203201112
 31
-0.0000000000000005
  0
LINE
  5
36A
  8
LOVE_AND_PEACE_2
 62
     1
 10
82.97052905598767
 20
174.7102203201112
 30
-0.0000000000000005
 11
83.89942318480111
 21
175.8066697386452
 31
-0.0000000000000005
  0
LINE
  5
36B
  8
LOVE_AND_PEACE_2
 62
     1
 10
83.89942318480111
 20
175.8066697386452
 30
-0.0000000000000005
 11
84.7951606022046
 21
177.0803767924778
 31
-0.0000000000000005
  0
LINE
  5
36C
  8
LOVE_AND_PEACE_2
 62
     1
 10
84.7951606022046
 20
177.0803767924778
 30
-0.0000000000000005
 11
85.37013003797786
 21
178.0549984978414
 31
-0.0000000000000005
  0
LINE
  5
36D
  8
LOVE_AND_PEACE_2
 62
     1
 10
85.37013003797786
 20
178.0549984978414
 30
-0.0000000000000005
 11
85.72405473101804
 21
179.0517246774783
 31
-0.0000000000000005
  0
LINE
  5
36E
  8
LOVE_AND_PEACE_2
 62
     1
 10
85.72405473101804
 20
179.0517246774783
 30
-0.0000000000000005
 11
85.87887041915361
 21
180.1814151756446
 31
-0.0000000000000005
  0
LINE
  5
36F
  8
LOVE_AND_PEACE_2
 62
     1
 10
85.87887041915361
 20
180.1814151756446
 30
-0.0000000000000005
 11
85.79869951580166
 21
180.5412878283652
 31
-0.0000000000000005
  0
LINE
  5
370
  8
LOVE_AND_PEACE_2
 62
     1
 10
85.79869951580166
 20
180.5412878283652
 30
-0.0000000000000005
 11
85.55818680574582
 21
180.8680037696759
 31
-0.0000000000000005
  0
LINE
  5
371
  8
LOVE_AND_PEACE_2
 62
     1
 10
85.55818680574582
 20
180.8680037696759
 30
-0.0000000000000005
 11
85.23474013305385
 21
181.1006069588801
 31
-0.0000000000000005
  0
LINE
  5
372
  8
LOVE_AND_PEACE_2
 62
     1
 10
85.23474013305385
 20
181.1006069588801
 30
-0.0000000000000005
 11
84.90576734179356
 21
181.1781413552815
 31
-0.0000000000000005
  0
LINE
  5
373
  8
LOVE_AND_PEACE_2
 62
     1
 10
84.90576734179356
 20
181.1781413552815
 30
-0.0000000000000005
 11
84.49519993342803
 21
181.0840075111195
 31
-0.0000000000000005
  0
LINE
  5
374
  8
LOVE_AND_PEACE_2
 62
     1
 10
84.49519993342803
 20
181.0840075111195
 30
-0.0000000000000005
 11
84.08186946577833
 21
180.8016059786335
 31
-0.0000000000000005
  0
LINE
  5
375
  8
LOVE_AND_PEACE_2
 62
     1
 10
84.08186946577833
 20
180.8016059786335
 30
-0.0000000000000005
 11
83.24691935262643
 21
179.6719998486896
 31
-0.0000000000000005
  0
LINE
  5
376
  8
LOVE_AND_PEACE_2
 62
     1
 10
83.24691935262643
 20
179.6719998486896
 30
-0.0000000000000005
 11
82.53651782781796
 21
178.2515131799067
 31
-0.0000000000000005
  0
LINE
  5
377
  8
LOVE_AND_PEACE_2
 62
     1
 10
82.53651782781796
 20
178.2515131799067
 30
-0.0000000000000005
 11
82.08592824394326
 21
176.9584647110849
 31
-0.0000000000000005
  0
LINE
  5
378
  8
LOVE_AND_PEACE_2
 62
     1
 10
82.08592824394326
 20
176.9584647110849
 30
-0.0000000000000005
 11
81.8454155338874
 21
175.8315794563139
 31
-0.0000000000000005
  0
LINE
  5
379
  8
LOVE_AND_PEACE_2
 62
     1
 10
81.8454155338874
 20
175.8315794563139
 30
-0.0000000000000005
 11
81.76524463053545
 21
174.9095824296831
 31
-0.0000000000000005
  0
LINE
  5
37A
  8
LOVE_AND_PEACE_2
 62
     1
 10
89.32632472356552
 20
172.6829363036481
 30
-0.0000000000000005
 11
89.13278402134044
 21
172.7437657920109
 31
-0.0000000000000005
  0
LINE
  5
37B
  8
LOVE_AND_PEACE_2
 62
     1
 10
89.13278402134044
 20
172.7437657920109
 30
-0.0000000000000005
 11
89.12721571866092
 21
172.9262542570994
 31
-0.0000000000000005
  0
LINE
  5
37C
  8
LOVE_AND_PEACE_2
 62
     1
 10
89.12721571866092
 20
172.9262542570994
 30
-0.0000000000000005
 11
90.65326812574335
 21
177.1726756278022
 31
-0.0000000000000005
  0
LINE
  5
37D
  8
LOVE_AND_PEACE_2
 62
     1
 10
90.65326812574335
 20
177.1726756278022
 30
-0.0000000000000005
 11
91.02921292483441
 21
178.2120921279822
 31
-0.0000000000000005
  0
LINE
  5
37E
  8
LOVE_AND_PEACE_2
 62
     1
 10
91.02921292483441
 20
178.2120921279822
 30
-0.0000000000000005
 11
91.33884430110555
 21
179.1520384939323
 31
-0.0000000000000005
  0
LINE
  5
37F
  8
LOVE_AND_PEACE_2
 62
     1
 10
91.33884430110555
 20
179.1520384939323
 30
-0.0000000000000005
 11
91.55997341206107
 21
179.8818236178411
 31
-0.0000000000000005
  0
LINE
  5
380
  8
LOVE_AND_PEACE_2
 62
     1
 10
91.55997341206107
 20
179.8818236178411
 30
-0.0000000000000005
 11
91.64847567737672
 21
180.291093864787
 31
-0.0000000000000005
  0
LINE
  5
381
  8
LOVE_AND_PEACE_2
 62
     1
 10
91.64847567737672
 20
180.291093864787
 30
-0.0000000000000005
 11
91.57659395187726
 21
180.5567272130676
 31
-0.0000000000000005
  0
LINE
  5
382
  8
LOVE_AND_PEACE_2
 62
     1
 10
91.57659395187726
 20
180.5567272130676
 30
-0.0000000000000005
 11
91.36094877537887
 21
180.6452716624945
 31
-0.0000000000000005
  0
LINE
  5
383
  8
LOVE_AND_PEACE_2
 62
     1
 10
91.36094877537887
 20
180.6452716624945
 30
-0.0000000000000005
 11
91.23937416687568
 21
180.8777061152539
 31
-0.0000000000000005
  0
LINE
  5
384
  8
LOVE_AND_PEACE_2
 62
     1
 10
91.23937416687568
 20
180.8777061152539
 30
-0.0000000000000005
 11
91.3277920639689
 21
181.3868683375417
 31
-0.0000000000000005
  0
LINE
  5
385
  8
LOVE_AND_PEACE_2
 62
     1
 10
91.3277920639689
 20
181.3868683375417
 30
-0.0000000000000005
 11
91.55444729349274
 21
181.6525227778779
 31
-0.0000000000000005
  0
LINE
  5
386
  8
LOVE_AND_PEACE_2
 62
     1
 10
91.55444729349274
 20
181.6525227778779
 30
-0.0000000000000005
 11
91.9470548165112
 21
181.8960305598295
 31
-0.0000000000000005
  0
LINE
  5
387
  8
LOVE_AND_PEACE_2
 62
     1
 10
91.9470548165112
 20
181.8960305598295
 30
-0.0000000000000005
 11
92.55807057531223
 21
182.0703563993991
 31
-0.0000000000000005
  0
LINE
  5
388
  8
LOVE_AND_PEACE_2
 62
     1
 10
92.55807057531223
 20
182.0703563993991
 30
-0.0000000000000005
 11
93.43995051218367
 21
182.1284650125889
 31
-0.0000000000000005
  0
LINE
  5
389
  8
LOVE_AND_PEACE_2
 62
     1
 10
93.43995051218367
 20
182.1284650125889
 30
-0.0000000000000005
 11
93.86849889795187
 21
182.0538202278053
 31
-0.0000000000000005
  0
LINE
  5
38A
  8
LOVE_AND_PEACE_2
 62
     1
 10
93.86849889795187
 20
182.0538202278053
 30
-0.0000000000000005
 11
94.13666329290496
 21
181.8298858734545
 31
-0.0000000000000005
  0
LINE
  5
38B
  8
LOVE_AND_PEACE_2
 62
     1
 10
94.13666329290496
 20
181.8298858734545
 30
-0.0000000000000005
 11
94.32463569245051
 21
181.2658843065954
 31
-0.0000000000000005
  0
LINE
  5
38C
  8
LOVE_AND_PEACE_2
 62
     1
 10
94.32463569245051
 20
181.2658843065954
 30
-0.0000000000000005
 11
94.01500431617934
 21
180.226383438193
 31
-0.0000000000000005
  0
LINE
  5
38D
  8
LOVE_AND_PEACE_2
 62
     1
 10
94.01500431617934
 20
180.226383438193
 30
-0.0000000000000005
 11
93.26294598155236
 21
178.3907840230618
 31
-0.0000000000000005
  0
LINE
  5
38E
  8
LOVE_AND_PEACE_2
 62
     1
 10
93.26294598155236
 20
178.3907840230618
 30
-0.0000000000000005
 11
93.46205498645698
 21
178.2358839667039
 31
-0.0000000000000005
  0
LINE
  5
38F
  8
LOVE_AND_PEACE_2
 62
     1
 10
93.46205498645698
 20
178.2358839667039
 30
-0.0000000000000005
 11
94.15893650362311
 21
179.2532803608329
 31
-0.0000000000000005
  0
LINE
  5
390
  8
LOVE_AND_PEACE_2
 62
     1
 10
94.15893650362311
 20
179.2532803608329
 30
-0.0000000000000005
 11
95.23260650210449
 21
180.5471514198232
 31
-0.0000000000000005
  0
LINE
  5
391
  8
LOVE_AND_PEACE_2
 62
     1
 10
95.23260650210449
 20
180.5471514198232
 30
-0.0000000000000005
 11
96.59456271658544
 21
181.6529657110456
 31
-0.0000000000000005
  0
LINE
  5
392
  8
LOVE_AND_PEACE_2
 62
     1
 10
96.59456271658544
 20
181.6529657110456
 30
-0.0000000000000005
 11
97.35579609540031
 21
182.0095901872031
 31
-0.0000000000000005
  0
LINE
  5
393
  8
LOVE_AND_PEACE_2
 62
     1
 10
97.35579609540031
 20
182.0095901872031
 30
-0.0000000000000005
 11
98.15579667241586
 21
182.1284650125889
 31
-0.0000000000000005
  0
LINE
  5
394
  8
LOVE_AND_PEACE_2
 62
     1
 10
98.15579667241586
 20
182.1284650125889
 30
-0.0000000000000005
 11
98.77573437073748
 21
181.9845328251452
 31
-0.0000000000000005
  0
LINE
  5
395
  8
LOVE_AND_PEACE_2
 62
     1
 10
98.77573437073748
 20
181.9845328251452
 30
-0.0000000000000005
 11
99.21866753842784
 21
181.6192184220787
 31
-0.0000000000000005
  0
LINE
  5
396
  8
LOVE_AND_PEACE_2
 62
     1
 10
99.21866753842784
 20
181.6192184220787
 30
-0.0000000000000005
 11
99.48442743904202
 21
181.1322450422865
 31
-0.0000000000000005
  0
LINE
  5
397
  8
LOVE_AND_PEACE_2
 62
     1
 10
99.48442743904202
 20
181.1322450422865
 30
-0.0000000000000005
 11
99.5730140725801
 21
180.6452716624945
 31
-0.0000000000000005
  0
LINE
  5
398
  8
LOVE_AND_PEACE_2
 62
     1
 10
99.5730140725801
 20
180.6452716624945
 30
-0.0000000000000005
 11
99.50653191331533
 21
180.1804871251981
 31
-0.0000000000000005
  0
LINE
  5
399
  8
LOVE_AND_PEACE_2
 62
     1
 10
99.50653191331533
 20
180.1804871251981
 30
-0.0000000000000005
 11
99.29611756660682
 21
179.4173765534344
 31
-0.0000000000000005
  0
LINE
  5
39A
  8
LOVE_AND_PEACE_2
 62
     1
 10
99.29611756660682
 20
179.4173765534344
 30
-0.0000000000000005
 11
98.89747771568551
 21
178.2341966022555
 31
-0.0000000000000005
  0
LINE
  5
39B
  8
LOVE_AND_PEACE_2
 62
     1
 10
98.89747771568551
 20
178.2341966022555
 30
-0.0000000000000005
 11
98.28842351805571
 21
176.5090351902685
 31
-0.0000000000000005
  0
LINE
  5
39C
  8
LOVE_AND_PEACE_2
 62
     1
 10
98.28842351805571
 20
176.5090351902685
 30
-0.0000000000000005
 11
97.73479924255399
 21
174.9167537285885
 31
-0.0000000000000005
  0
LINE
  5
39D
  8
LOVE_AND_PEACE_2
 62
     1
 10
97.73479924255399
 20
174.9167537285885
 30
-0.0000000000000005
 11
97.57973044975117
 21
174.2531976592772
 31
-0.0000000000000005
  0
LINE
  5
39E
  8
LOVE_AND_PEACE_2
 62
     1
 10
97.57973044975117
 20
174.2531976592772
 30
-0.0000000000000005
 11
97.65169654347304
 21
173.9712390599589
 31
-0.0000000000000005
  0
LINE
  5
39F
  8
LOVE_AND_PEACE_2
 62
     1
 10
97.65169654347304
 20
173.9712390599589
 30
-0.0000000000000005
 11
97.86759482463867
 21
173.8772528601861
 31
-0.0000000000000005
  0
LINE
  5
3A0
  8
LOVE_AND_PEACE_2
 62
     1
 10
97.86759482463867
 20
173.8772528601861
 30
-0.0000000000000005
 11
98.0780091713472
 21
173.7334894091872
 31
-0.0000000000000005
  0
LINE
  5
3A1
  8
LOVE_AND_PEACE_2
 62
     1
 10
98.0780091713472
 20
173.7334894091872
 30
-0.0000000000000005
 11
98.16104859426133
 21
173.5731476024833
 31
-0.0000000000000005
  0
LINE
  5
3A2
  8
LOVE_AND_PEACE_2
 62
     1
 10
98.16104859426133
 20
173.5731476024833
 30
-0.0000000000000005
 11
98.12230248811623
 21
173.3796490843694
 31
-0.0000000000000005
  0
LINE
  5
3A3
  8
LOVE_AND_PEACE_2
 62
     1
 10
98.12230248811623
 20
173.3796490843694
 30
-0.0000000000000005
 11
97.52438489584549
 21
172.9262542570994
 31
-0.0000000000000005
  0
LINE
  5
3A4
  8
LOVE_AND_PEACE_2
 62
     1
 10
97.52438489584549
 20
172.9262542570994
 30
-0.0000000000000005
 11
95.80968514343817
 21
172.4617228244702
 31
-0.0000000000000005
  0
LINE
  5
3A5
  8
LOVE_AND_PEACE_2
 62
     1
 10
95.80968514343817
 20
172.4617228244702
 30
-0.0000000000000005
 11
95.38113675766996
 21
172.4700541864339
 31
-0.0000000000000005
  0
LINE
  5
3A6
  8
LOVE_AND_PEACE_2
 62
     1
 10
95.38113675766996
 20
172.4700541864339
 30
-0.0000000000000005
 11
95.11297236271687
 21
172.6718840665115
 31
-0.0000000000000005
  0
LINE
  5
3A7
  8
LOVE_AND_PEACE_2
 62
     1
 10
95.11297236271687
 20
172.6718840665115
 30
-0.0000000000000005
 11
94.92499996317135
 21
173.3021990561905
 31
-0.0000000000000005
  0
LINE
  5
3A8
  8
LOVE_AND_PEACE_2
 62
     1
 10
94.92499996317135
 20
173.3021990561905
 30
-0.0000000000000005
 11
95.24568357657914
 21
174.5628290355484
 31
-0.0000000000000005
  0
LINE
  5
3A9
  8
LOVE_AND_PEACE_2
 62
     1
 10
95.24568357657914
 20
174.5628290355484
 30
-0.0000000000000005
 11
96.07493883471787
 21
176.9735666228976
 31
-0.0000000000000005
  0
LINE
  5
3AA
  8
LOVE_AND_PEACE_2
 62
     1
 10
96.07493883471787
 20
176.9735666228976
 30
-0.0000000000000005
 11
96.36255010493814
 21
177.7918540121221
 31
-0.0000000000000005
  0
LINE
  5
3AB
  8
LOVE_AND_PEACE_2
 62
     1
 10
96.36255010493814
 20
177.7918540121221
 30
-0.0000000000000005
 11
96.65007700693596
 21
178.6544347181156
 31
-0.0000000000000005
  0
LINE
  5
3AC
  8
LOVE_AND_PEACE_2
 62
     1
 10
96.65007700693596
 20
178.6544347181156
 30
-0.0000000000000005
 11
96.87120611789148
 21
179.3953564473835
 31
-0.0000000000000005
  0
LINE
  5
3AD
  8
LOVE_AND_PEACE_2
 62
     1
 10
96.87120611789148
 20
179.3953564473835
 30
-0.0000000000000005
 11
96.9596240149847
 21
179.8707713807045
 31
-0.0000000000000005
  0
LINE
  5
3AE
  8
LOVE_AND_PEACE_2
 62
     1
 10
96.9596240149847
 20
179.8707713807045
 30
-0.0000000000000005
 11
96.84889072306213
 21
180.2357483108813
 31
-0.0000000000000005
  0
LINE
  5
3AF
  8
LOVE_AND_PEACE_2
 62
     1
 10
96.84889072306213
 20
180.2357483108813
 30
-0.0000000000000005
 11
96.51669084729437
 21
180.3574072876069
 31
-0.0000000000000005
  0
LINE
  5
3B0
  8
LOVE_AND_PEACE_2
 62
     1
 10
96.51669084729437
 20
180.3574072876069
 30
-0.0000000000000005
 11
95.95209870287842
 21
180.0588281484724
 31
-0.0000000000000005
  0
LINE
  5
3B1
  8
LOVE_AND_PEACE_2
 62
     1
 10
95.95209870287842
 20
180.0588281484724
 30
-0.0000000000000005
 11
95.143935500344
 21
179.2958019449312
 31
-0.0000000000000005
  0
LINE
  5
3B2
  8
LOVE_AND_PEACE_2
 62
     1
 10
95.143935500344
 20
179.2958019449312
 30
-0.0000000000000005
 11
94.25849100607542
 21
178.2563010765288
 31
-0.0000000000000005
  0
LINE
  5
3B3
  8
LOVE_AND_PEACE_2
 62
     1
 10
94.25849100607542
 20
178.2563010765288
 30
-0.0000000000000005
 11
93.48415946073028
 21
177.1505711535289
 31
-0.0000000000000005
  0
LINE
  5
3B4
  8
LOVE_AND_PEACE_2
 62
     1
 10
93.48415946073028
 20
177.1505711535289
 30
-0.0000000000000005
 11
92.80963552250473
 21
176.0778292054941
 31
-0.0000000000000005
  0
LINE
  5
3B5
  8
LOVE_AND_PEACE_2
 62
     1
 10
92.80963552250473
 20
176.0778292054941
 30
-0.0000000000000005
 11
92.40053401200369
 21
175.2926141594572
 31
-0.0000000000000005
  0
LINE
  5
3B6
  8
LOVE_AND_PEACE_2
 62
     1
 10
92.40053401200369
 20
175.2926141594572
 30
-0.0000000000000005
 11
91.53795330601017
 21
172.815563149288
 31
-0.0000000000000005
  0
LINE
  5
3B7
  8
LOVE_AND_PEACE_2
 62
     1
 10
91.53795330601017
 20
172.815563149288
 30
-0.0000000000000005
 11
91.43839880355786
 21
172.7160930150581
 31
-0.0000000000000005
  0
LINE
  5
3B8
  8
LOVE_AND_PEACE_2
 62
     1
 10
91.43839880355786
 20
172.7160930150581
 30
-0.0000000000000005
 11
91.20621745546572
 21
172.6829363036481
 31
-0.0000000000000005
  0
LINE
  5
3B9
  8
LOVE_AND_PEACE_2
 62
     1
 10
91.20621745546572
 20
172.6829363036481
 30
-0.0000000000000005
 11
89.32632472356552
 21
172.6829363036481
 31
-0.0000000000000005
  0
LINE
  5
3BA
  8
LOVE_AND_PEACE_2
 62
     1
 10
111.248057427118
 20
187.6792191018618
 30
-0.0000000000000005
 11
111.5466365662525
 21
187.5354556508629
 31
-0.0000000000000005
  0
LINE
  5
3BB
  8
LOVE_AND_PEACE_2
 62
     1
 10
111.5466365662525
 20
187.5354556508629
 30
-0.0000000000000005
 11
111.5355843291158
 21
187.2148564056775
 31
-0.0000000000000005
  0
LINE
  5
3BC
  8
LOVE_AND_PEACE_2
 62
     1
 10
111.5355843291158
 20
187.2148564056775
 30
-0.0000000000000005
 11
111.3033186128012
 21
186.5070913878195
 31
-0.0000000000000005
  0
LINE
  5
3BD
  8
LOVE_AND_PEACE_2
 62
     1
 10
111.3033186128012
 20
186.5070913878195
 30
-0.0000000000000005
 11
110.8499237855312
 21
185.1358546688727
 31
-0.0000000000000005
  0
LINE
  5
3BE
  8
LOVE_AND_PEACE_2
 62
     1
 10
110.8499237855312
 20
185.1358546688727
 30
-0.0000000000000005
 11
110.2638177443988
 21
183.3001708855191
 31
-0.0000000000000005
  0
LINE
  5
3BF
  8
LOVE_AND_PEACE_2
 62
     1
 10
110.2638177443988
 20
183.3001708855191
 30
-0.0000000000000005
 11
109.6113139122242
 21
181.2102012798001
 31
-0.0000000000000005
  0
LINE
  5
3C0
  8
LOVE_AND_PEACE_2
 62
     1
 10
109.6113139122242
 20
181.2102012798001
 30
-0.0000000000000005
 11
108.9588944482719
 21
179.0981271998077
 31
-0.0000000000000005
  0
LINE
  5
3C1
  8
LOVE_AND_PEACE_2
 62
     1
 10
108.9588944482719
 20
179.0981271998077
 30
-0.0000000000000005
 11
108.372872775362
 21
177.1740255193609
 31
-0.0000000000000005
  0
LINE
  5
3C2
  8
LOVE_AND_PEACE_2
 62
     1
 10
108.372872775362
 20
177.1740255193609
 30
-0.0000000000000005
 11
107.9305301852286
 21
175.6590253494151
 31
-0.0000000000000005
  0
LINE
  5
3C3
  8
LOVE_AND_PEACE_2
 62
     1
 10
107.9305301852286
 20
175.6590253494151
 30
-0.0000000000000005
 11
107.6872122317774
 21
174.7632879320116
 31
-0.0000000000000005
  0
LINE
  5
3C4
  8
LOVE_AND_PEACE_2
 62
     1
 10
107.6872122317774
 20
174.7632879320116
 30
-0.0000000000000005
 11
107.5987943346841
 21
174.0556072823761
 31
-0.0000000000000005
  0
LINE
  5
3C5
  8
LOVE_AND_PEACE_2
 62
     1
 10
107.5987943346841
 20
174.0556072823761
 30
-0.0000000000000005
 11
107.6706760601836
 21
173.8731188172877
 31
-0.0000000000000005
  0
LINE
  5
3C6
  8
LOVE_AND_PEACE_2
 62
     1
 10
107.6706760601836
 20
173.8731188172877
 30
-0.0000000000000005
 11
107.8421122881354
 21
173.8122893289249
 31
-0.0000000000000005
  0
LINE
  5
3C7
  8
LOVE_AND_PEACE_2
 62
     1
 10
107.8421122881354
 20
173.8122893289249
 30
-0.0000000000000005
 11
108.1737637704574
 21
173.712819194695
 31
-0.0000000000000005
  0
LINE
  5
3C8
  8
LOVE_AND_PEACE_2
 62
     1
 10
108.1737637704574
 20
173.712819194695
 30
-0.0000000000000005
 11
108.3036908329799
 21
173.5912024020806
 31
-0.0000000000000005
  0
LINE
  5
3C9
  8
LOVE_AND_PEACE_2
 62
     1
 10
108.3036908329799
 20
173.5912024020806
 30
-0.0000000000000005
 11
108.295422747183
 21
173.4252922926972
 31
-0.0000000000000005
  0
LINE
  5
3CA
  8
LOVE_AND_PEACE_2
 62
     1
 10
108.295422747183
 20
173.4252922926972
 30
-0.0000000000000005
 11
107.698264468914
 21
172.9940019397004
 31
-0.0000000000000005
  0
LINE
  5
3CB
  8
LOVE_AND_PEACE_2
 62
     1
 10
107.698264468914
 20
172.9940019397004
 30
-0.0000000000000005
 11
105.8957373969704
 21
172.4632414524737
 31
-0.0000000000000005
  0
LINE
  5
3CC
  8
LOVE_AND_PEACE_2
 62
     1
 10
105.8957373969704
 20
172.4632414524737
 30
-0.0000000000000005
 11
105.5419181642082
 21
172.4522103073927
 31
-0.0000000000000005
  0
LINE
  5
3CD
  8
LOVE_AND_PEACE_2
 62
     1
 10
105.5419181642082
 20
172.4522103073927
 30
-0.0000000000000005
 11
105.2765590126505
 21
172.595952666336
 31
-0.0000000000000005
  0
LINE
  5
3CE
  8
LOVE_AND_PEACE_2
 62
     1
 10
105.2765590126505
 20
172.595952666336
 30
-0.0000000000000005
 11
105.1107121794339
 21
172.8392073436204
 31
-0.0000000000000005
  0
LINE
  5
3CF
  8
LOVE_AND_PEACE_2
 62
     1
 10
105.1107121794339
 20
172.8392073436204
 30
-0.0000000000000005
 11
105.055429901695
 21
173.1267131535626
 31
-0.0000000000000005
  0
LINE
  5
3D0
  8
LOVE_AND_PEACE_2
 62
     1
 10
105.055429901695
 20
173.1267131535626
 30
-0.0000000000000005
 11
105.2986634869238
 21
174.3652386586473
 31
-0.0000000000000005
  0
LINE
  5
3D1
  8
LOVE_AND_PEACE_2
 62
     1
 10
105.2986634869238
 20
174.3652386586473
 30
-0.0000000000000005
 11
105.8515284484238
 21
176.0902313341894
 31
-0.0000000000000005
  0
LINE
  5
3D2
  8
LOVE_AND_PEACE_2
 62
     1
 10
105.8515284484238
 20
176.0902313341894
 30
-0.0000000000000005
 11
105.5861060206992
 21
176.2230269162741
 31
-0.0000000000000005
  0
LINE
  5
3D3
  8
LOVE_AND_PEACE_2
 62
     1
 10
105.5861060206992
 20
176.2230269162741
 30
-0.0000000000000005
 11
104.7346619200648
 21
174.907135751233
 31
-0.0000000000000005
  0
LINE
  5
3D4
  8
LOVE_AND_PEACE_2
 62
     1
 10
104.7346619200648
 20
174.907135751233
 30
-0.0000000000000005
 11
103.7615588427047
 21
173.6907147204217
 31
-0.0000000000000005
  0
LINE
  5
3D5
  8
LOVE_AND_PEACE_2
 62
     1
 10
103.7615588427047
 20
173.6907147204217
 30
-0.0000000000000005
 11
102.6557445514824
 21
172.8060295401548
 31
-0.0000000000000005
  0
LINE
  5
3D6
  8
LOVE_AND_PEACE_2
 62
     1
 10
102.6557445514824
 20
172.8060295401548
 30
-0.0000000000000005
 11
102.0558232139292
 21
172.548938474394
 31
-0.0000000000000005
  0
LINE
  5
3D7
  8
LOVE_AND_PEACE_2
 62
     1
 10
102.0558232139292
 20
172.548938474394
 30
-0.0000000000000005
 11
101.4282712835345
 21
172.4632414524737
 31
-0.0000000000000005
  0
LINE
  5
3D8
  8
LOVE_AND_PEACE_2
 62
     1
 10
101.4282712835345
 20
172.4632414524737
 30
-0.0000000000000005
 11
100.6872651860441
 21
172.6622660891559
 31
-0.0000000000000005
  0
LINE
  5
3D9
  8
LOVE_AND_PEACE_2
 62
     1
 10
100.6872651860441
 20
172.6622660891559
 30
-0.0000000000000005
 11
100.1454524616808
 21
173.1709221021093
 31
-0.0000000000000005
  0
LINE
  5
3DA
  8
LOVE_AND_PEACE_2
 62
     1
 10
100.1454524616808
 20
173.1709221021093
 30
-0.0000000000000005
 11
99.80266437399973
 21
173.8455304085572
 31
-0.0000000000000005
  0
LINE
  5
3DB
  8
LOVE_AND_PEACE_2
 62
     1
 10
99.80266437399973
 20
173.8455304085572
 30
-0.0000000000000005
 11
99.68100539727412
 21
174.5422431892785
 31
-0.0000000000000005
  0
LINE
  5
3DC
  8
LOVE_AND_PEACE_2
 62
     1
 10
99.68100539727412
 20
174.5422431892785
 30
-0.0000000000000005
 11
99.82476884827304
 21
175.7587485883122
 31
-0.0000000000000005
  0
LINE
  5
3DD
  8
LOVE_AND_PEACE_2
 62
     1
 10
99.82476884827304
 20
175.7587485883122
 30
-0.0000000000000005
 11
100.2892159126798
 21
177.2184875725748
 31
-0.0000000000000005
  0
LINE
  5
3DE
  8
LOVE_AND_PEACE_2
 62
     1
 10
100.2892159126798
 20
177.2184875725748
 30
-0.0000000000000005
 11
101.0964510647676
 21
178.7887489282038
 31
-0.0000000000000005
  0
LINE
  5
3DF
  8
LOVE_AND_PEACE_2
 62
     1
 10
101.0964510647676
 20
178.7887489282038
 30
-0.0000000000000005
 11
102.2464743045365
 21
180.336990177782
 31
-0.0000000000000005
  0
LINE
  5
3E0
  8
LOVE_AND_PEACE_2
 62
     1
 10
102.2464743045365
 20
180.336990177782
 30
-0.0000000000000005
 11
102.8325803456689
 21
180.9120439817776
 31
-0.0000000000000005
  0
LINE
  5
3E1
  8
LOVE_AND_PEACE_2
 62
     1
 10
102.8325803456689
 20
180.9120439817776
 30
-0.0000000000000005
 11
103.5956065492101
 21
181.4870977857733
 31
-0.0000000000000005
  0
LINE
  5
3E2
  8
LOVE_AND_PEACE_2
 62
     1
 10
103.5956065492101
 20
181.4870977857733
 30
-0.0000000000000005
 11
104.5134484408869
 21
181.9404926130434
 31
-0.0000000000000005
  0
LINE
  5
3E3
  8
LOVE_AND_PEACE_2
 62
     1
 10
104.5134484408869
 20
181.9404926130434
 30
-0.0000000000000005
 11
105.5861060206992
 21
182.1284650125889
 31
-0.0000000000000005
  0
LINE
  5
3E4
  8
LOVE_AND_PEACE_2
 62
     1
 10
105.5861060206992
 20
182.1284650125889
 30
-0.0000000000000005
 11
106.5040322805984
 21
181.9508699044007
 31
-0.0000000000000005
  0
LINE
  5
3E5
  8
LOVE_AND_PEACE_2
 62
     1
 10
106.5040322805984
 20
181.9508699044007
 30
-0.0000000000000005
 11
106.9214862451188
 21
181.7288760191655
 31
-0.0000000000000005
  0
LINE
  5
3E6
  8
LOVE_AND_PEACE_2
 62
     1
 10
106.9214862451188
 20
181.7288760191655
 30
-0.0000000000000005
 11
107.2670584841397
 21
181.418084579836
 31
-0.0000000000000005
  0
LINE
  5
3E7
  8
LOVE_AND_PEACE_2
 62
     1
 10
107.2670584841397
 20
181.418084579836
 30
-0.0000000000000005
 11
108.9699466854086
 21
187.6792191018618
 31
-0.0000000000000005
  0
LINE
  5
3E8
  8
LOVE_AND_PEACE_2
 62
     1
 10
108.9699466854086
 20
187.6792191018618
 30
-0.0000000000000005
 11
111.248057427118
 21
187.6792191018618
 31
-0.0000000000000005
  0
LINE
  5
3E9
  8
LOVE_AND_PEACE_2
 62
     1
 10
106.538117042455
 20
179.869252752701
 30
-0.0000000000000005
 11
106.4717825275795
 21
180.4389069904619
 31
-0.0000000000000005
  0
LINE
  5
3EA
  8
LOVE_AND_PEACE_2
 62
     1
 10
106.4717825275795
 20
180.4389069904619
 30
-0.0000000000000005
 11
106.2727789829529
 21
180.9090067257706
 31
-0.0000000000000005
  0
LINE
  5
3EB
  8
LOVE_AND_PEACE_2
 62
     1
 10
106.2727789829529
 20
180.9090067257706
 30
-0.0000000000000005
 11
105.9300119873274
 21
181.2242485888325
 31
-0.0000000000000005
  0
LINE
  5
3EC
  8
LOVE_AND_PEACE_2
 62
     1
 10
105.9300119873274
 20
181.2242485888325
 30
-0.0000000000000005
 11
105.4323871194551
 21
181.3293292098531
 31
-0.0000000000000005
  0
LINE
  5
3ED
  8
LOVE_AND_PEACE_2
 62
     1
 10
105.4323871194551
 20
181.3293292098531
 30
-0.0000000000000005
 11
105.1310449210364
 21
181.2380849773089
 31
-0.0000000000000005
  0
LINE
  5
3EE
  8
LOVE_AND_PEACE_2
 62
     1
 10
105.1310449210364
 20
181.2380849773089
 30
-0.0000000000000005
 11
104.8020721297761
 21
180.9643522796763
 31
-0.0000000000000005
  0
LINE
  5
3EF
  8
LOVE_AND_PEACE_2
 62
     1
 10
104.8020721297761
 20
180.9643522796763
 30
-0.0000000000000005
 11
104.1274638233282
 21
180.0131005719223
 31
-0.0000000000000005
  0
LINE
  5
3F0
  8
LOVE_AND_PEACE_2
 62
     1
 10
104.1274638233282
 20
180.0131005719223
 30
-0.0000000000000005
 11
103.4860122282901
 21
178.6967875657691
 31
-0.0000000000000005
  0
LINE
  5
3F1
  8
LOVE_AND_PEACE_2
 62
     1
 10
103.4860122282901
 20
178.6967875657691
 30
-0.0000000000000005
 11
102.9331472667902
 21
177.2367954768393
 31
-0.0000000000000005
  0
LINE
  5
3F2
  8
LOVE_AND_PEACE_2
 62
     1
 10
102.9331472667902
 20
177.2367954768393
 30
-0.0000000000000005
 11
102.5461502305624
 21
175.8653056532252
 31
-0.0000000000000005
  0
LINE
  5
3F3
  8
LOVE_AND_PEACE_2
 62
     1
 10
102.5461502305624
 20
175.8653056532252
 30
-0.0000000000000005
 11
102.4023867795635
 21
174.8034472058822
 31
-0.0000000000000005
  0
LINE
  5
3F4
  8
LOVE_AND_PEACE_2
 62
     1
 10
102.4023867795635
 20
174.8034472058822
 30
-0.0000000000000005
 11
102.5461502305624
 21
174.217172428305
 31
-0.0000000000000005
  0
LINE
  5
3F5
  8
LOVE_AND_PEACE_2
 62
     1
 10
102.5461502305624
 20
174.217172428305
 30
-0.0000000000000005
 11
102.9332316350126
 21
174.0291156605371
 31
-0.0000000000000005
  0
LINE
  5
3F6
  8
LOVE_AND_PEACE_2
 62
     1
 10
102.9332316350126
 20
174.0291156605371
 30
-0.0000000000000005
 11
103.3423331455136
 21
174.2613813768517
 31
-0.0000000000000005
  0
LINE
  5
3F7
  8
LOVE_AND_PEACE_2
 62
     1
 10
103.3423331455136
 20
174.2613813768517
 30
-0.0000000000000005
 11
103.895282475236
 21
174.8697606287022
 31
-0.0000000000000005
  0
LINE
  5
3F8
  8
LOVE_AND_PEACE_2
 62
     1
 10
103.895282475236
 20
174.8697606287022
 30
-0.0000000000000005
 11
104.5145452277783
 21
175.6993533597305
 31
-0.0000000000000005
  0
LINE
  5
3F9
  8
LOVE_AND_PEACE_2
 62
     1
 10
104.5145452277783
 20
175.6993533597305
 30
-0.0000000000000005
 11
105.1448602174572
 21
176.5952595135789
 31
-0.0000000000000005
  0
LINE
  5
3FA
  8
LOVE_AND_PEACE_2
 62
     1
 10
105.1448602174572
 20
176.5952595135789
 30
-0.0000000000000005
 11
105.6203595190006
 21
177.3584544535649
 31
-0.0000000000000005
  0
LINE
  5
3FB
  8
LOVE_AND_PEACE_2
 62
     1
 10
105.6203595190006
 20
177.3584544535649
 30
-0.0000000000000005
 11
106.0737543462707
 21
178.2323405013623
 31
-0.0000000000000005
  0
LINE
  5
3FC
  8
LOVE_AND_PEACE_2
 62
     1
 10
106.0737543462707
 20
178.2323405013623
 30
-0.0000000000000005
 11
106.4054901968152
 21
179.1061421809374
 31
-0.0000000000000005
  0
LINE
  5
3FD
  8
LOVE_AND_PEACE_2
 62
     1
 10
106.4054901968152
 20
179.1061421809374
 30
-0.0000000000000005
 11
106.538117042455
 21
179.869252752701
 31
-0.0000000000000005
  0
LINE
  5
3FE
  8
LOVE_AND_PEACE_2
 62
     1
 10
124.4278923966892
 20
185.4189944233048
 30
-0.0000000000000005
 11
124.5274679911971
 21
186.0053113849932
 31
-0.0000000000000005
  0
LINE
  5
3FF
  8
LOVE_AND_PEACE_2
 62
     1
 10
124.5274679911971
 20
186.0053113849932
 30
-0.0000000000000005
 11
124.4279767649116
 21
186.3040170764613
 31
-0.0000000000000005
  0
LINE
  5
400
  8
LOVE_AND_PEACE_2
 62
     1
 10
124.4279767649116
 20
186.3040170764613
 30
-0.0000000000000005
 11
123.676002798507
 21
186.4589171328193
 31
-0.0000000000000005
  0
LINE
  5
401
  8
LOVE_AND_PEACE_2
 62
     1
 10
123.676002798507
 20
186.4589171328193
 30
-0.0000000000000005
 11
122.5813251126438
 21
186.3815514728628
 31
-0.0000000000000005
  0
LINE
  5
402
  8
LOVE_AND_PEACE_2
 62
     1
 10
122.5813251126438
 20
186.3815514728628
 30
-0.0000000000000005
 11
121.3981451614649
 21
186.1493701247706
 31
-0.0000000000000005
  0
LINE
  5
403
  8
LOVE_AND_PEACE_2
 62
     1
 10
121.3981451614649
 20
186.1493701247706
 30
-0.0000000000000005
 11
120.214965210286
 21
185.7513208514062
 31
-0.0000000000000005
  0
LINE
  5
404
  8
LOVE_AND_PEACE_2
 62
     1
 10
120.214965210286
 20
185.7513208514062
 30
-0.0000000000000005
 11
119.142391998696
 21
185.176351415633
 31
-0.0000000000000005
  0
LINE
  5
405
  8
LOVE_AND_PEACE_2
 62
     1
 10
119.142391998696
 20
185.176351415633
 30
-0.0000000000000005
 11
118.1693732895584
 21
184.4798917395789
 31
-0.0000000000000005
  0
LINE
  5
406
  8
LOVE_AND_PEACE_2
 62
     1
 10
118.1693732895584
 20
184.4798917395789
 30
-0.0000000000000005
 11
117.251615766104
 21
183.6616887185768
 31
-0.0000000000000005
  0
LINE
  5
407
  8
LOVE_AND_PEACE_2
 62
     1
 10
117.251615766104
 20
183.6616887185768
 30
-0.0000000000000005
 11
116.5770918278784
 21
182.7440155633449
 31
-0.0000000000000005
  0
LINE
  5
408
  8
LOVE_AND_PEACE_2
 62
     1
 10
116.5770918278784
 20
182.7440155633449
 30
-0.0000000000000005
 11
116.378025007085
 21
182.2520222743189
 31
-0.0000000000000005
  0
LINE
  5
409
  8
LOVE_AND_PEACE_2
 62
     1
 10
116.378025007085
 20
182.2520222743189
 30
-0.0000000000000005
 11
116.3116694001539
 21
181.7489767481563
 31
-0.0000000000000005
  0
LINE
  5
40A
  8
LOVE_AND_PEACE_2
 62
     1
 10
116.3116694001539
 20
181.7489767481563
 30
-0.0000000000000005
 11
116.4166656529521
 21
181.1546448053383
 31
-0.0000000000000005
  0
LINE
  5
40B
  8
LOVE_AND_PEACE_2
 62
     1
 10
116.4166656529521
 20
181.1546448053383
 30
-0.0000000000000005
 11
116.7316544113468
 21
180.7428013276087
 31
-0.0000000000000005
  0
LINE
  5
40C
  8
LOVE_AND_PEACE_2
 62
     1
 10
116.7316544113468
 20
180.7428013276087
 30
-0.0000000000000005
 11
117.1516394225396
 21
180.5023518937197
 31
-0.0000000000000005
  0
LINE
  5
40D
  8
LOVE_AND_PEACE_2
 62
     1
 10
117.1516394225396
 20
180.5023518937197
 30
-0.0000000000000005
 11
117.5716244337324
 21
180.4222020824234
 31
-0.0000000000000005
  0
LINE
  5
40E
  8
LOVE_AND_PEACE_2
 62
     1
 10
117.5716244337324
 20
180.4222020824234
 30
-0.0000000000000005
 11
118.0247661563353
 21
180.5872263254714
 31
-0.0000000000000005
  0
LINE
  5
40F
  8
LOVE_AND_PEACE_2
 62
     1
 10
118.0247661563353
 20
180.5872263254714
 30
-0.0000000000000005
 11
118.3231765590249
 21
180.9282426804818
 31
-0.0000000000000005
  0
LINE
  5
410
  8
LOVE_AND_PEACE_2
 62
     1
 10
118.3231765590249
 20
180.9282426804818
 30
-0.0000000000000005
 11
118.8205272301743
 21
181.4341145420953
 31
-0.0000000000000005
  0
LINE
  5
411
  8
LOVE_AND_PEACE_2
 62
     1
 10
118.8205272301743
 20
181.4341145420953
 30
-0.0000000000000005
 11
119.5389226440569
 21
181.6101066540576
 31
-0.0000000000000005
  0
LINE
  5
412
  8
LOVE_AND_PEACE_2
 62
     1
 10
119.5389226440569
 20
181.6101066540576
 30
-0.0000000000000005
 11
119.9561445959656
 21
181.5216254807976
 31
-0.0000000000000005
  0
LINE
  5
413
  8
LOVE_AND_PEACE_2
 62
     1
 10
119.9561445959656
 20
181.5216254807976
 30
-0.0000000000000005
 11
120.2794225322127
 21
181.300390909564
 31
-0.0000000000000005
  0
LINE
  5
414
  8
LOVE_AND_PEACE_2
 62
     1
 10
120.2794225322127
 20
181.300390909564
 30
-0.0000000000000005
 11
120.486651978525
 21
180.9630234801732
 31
-0.0000000000000005
  0
LINE
  5
415
  8
LOVE_AND_PEACE_2
 62
     1
 10
120.486651978525
 20
180.9630234801732
 30
-0.0000000000000005
 11
120.5557284606291
 21
180.5261437324413
 31
-0.0000000000000005
  0
LINE
  5
416
  8
LOVE_AND_PEACE_2
 62
     1
 10
120.5557284606291
 20
180.5261437324413
 30
-0.0000000000000005
 11
120.4093495947352
 21
179.8625454790188
 31
-0.0000000000000005
  0
LINE
  5
417
  8
LOVE_AND_PEACE_2
 62
     1
 10
120.4093495947352
 20
179.8625454790188
 30
-0.0000000000000005
 11
119.9702129970536
 21
179.3316584394586
 31
-0.0000000000000005
  0
LINE
  5
418
  8
LOVE_AND_PEACE_2
 62
     1
 10
119.9702129970536
 20
179.3316584394586
 30
-0.0000000000000005
 11
119.2935376691564
 21
178.9832598649867
 31
-0.0000000000000005
  0
LINE
  5
419
  8
LOVE_AND_PEACE_2
 62
     1
 10
119.2935376691564
 20
178.9832598649867
 30
-0.0000000000000005
 11
118.4345426126156
 21
178.8671270068294
 31
-0.0000000000000005
  0
LINE
  5
41A
  8
LOVE_AND_PEACE_2
 62
     1
 10
118.4345426126156
 20
178.8671270068294
 30
-0.0000000000000005
 11
117.2745639226015
 21
179.066236011734
 31
-0.0000000000000005
  0
LINE
  5
41B
  8
LOVE_AND_PEACE_2
 62
     1
 10
117.2745639226015
 20
179.066236011734
 30
-0.0000000000000005
 11
116.269232184278
 21
179.6525107893112
 31
-0.0000000000000005
  0
LINE
  5
41C
  8
LOVE_AND_PEACE_2
 62
     1
 10
116.269232184278
 20
179.6525107893112
 30
-0.0000000000000005
 11
115.8687995086304
 21
180.0894749052655
 31
-0.0000000000000005
  0
LINE
  5
41D
  8
LOVE_AND_PEACE_2
 62
     1
 10
115.8687995086304
 20
180.0894749052655
 30
-0.0000000000000005
 11
115.5511742432852
 21
180.6260357077833
 31
-0.0000000000000005
  0
LINE
  5
41E
  8
LOVE_AND_PEACE_2
 62
     1
 10
115.5511742432852
 20
180.6260357077833
 30
-0.0000000000000005
 11
115.3440080731397
 21
181.2649140720376
 31
-0.0000000000000005
  0
LINE
  5
41F
  8
LOVE_AND_PEACE_2
 62
     1
 10
115.3440080731397
 20
181.2649140720376
 30
-0.0000000000000005
 11
115.2749526830912
 21
182.0088308732013
 31
-0.0000000000000005
  0
LINE
  5
420
  8
LOVE_AND_PEACE_2
 62
     1
 10
115.2749526830912
 20
182.0088308732013
 30
-0.0000000000000005
 11
115.3938064164215
 21
183.0651842940316
 31
-0.0000000000000005
  0
LINE
  5
421
  8
LOVE_AND_PEACE_2
 62
     1
 10
115.3938064164215
 20
183.0651842940316
 30
-0.0000000000000005
 11
115.7503676164122
 21
184.1105276618364
 31
-0.0000000000000005
  0
LINE
  5
422
  8
LOVE_AND_PEACE_2
 62
     1
 10
115.7503676164122
 20
184.1105276618364
 30
-0.0000000000000005
 11
116.3833191130417
 21
185.1006098439579
 31
-0.0000000000000005
  0
LINE
  5
423
  8
LOVE_AND_PEACE_2
 62
     1
 10
116.3833191130417
 20
185.1006098439579
 30
-0.0000000000000005
 11
117.3313437362882
 21
185.9911797077383
 31
-0.0000000000000005
  0
LINE
  5
424
  8
LOVE_AND_PEACE_2
 62
     1
 10
117.3313437362882
 20
185.9911797077383
 30
-0.0000000000000005
 11
118.1578359351428
 21
186.5166039048971
 31
-0.0000000000000005
  0
LINE
  5
425
  8
LOVE_AND_PEACE_2
 62
     1
 10
118.1578359351428
 20
186.5166039048971
 30
-0.0000000000000005
 11
119.0893243867956
 21
186.8982224669457
 31
-0.0000000000000005
  0
LINE
  5
426
  8
LOVE_AND_PEACE_2
 62
     1
 10
119.0893243867956
 20
186.8982224669457
 30
-0.0000000000000005
 11
121.2893945227691
 21
187.340733793524
 31
-0.0000000000000005
  0
LINE
  5
427
  8
LOVE_AND_PEACE_2
 62
     1
 10
121.2893945227691
 20
187.340733793524
 30
-0.0000000000000005
 11
123.9427751177902
 21
187.4845816127453
 31
-0.0000000000000005
  0
LINE
  5
428
  8
LOVE_AND_PEACE_2
 62
     1
 10
123.9427751177902
 20
187.4845816127453
 30
-0.0000000000000005
 11
127.0605184089957
 21
187.495633849882
 31
-0.0000000000000005
  0
LINE
  5
429
  8
LOVE_AND_PEACE_2
 62
     1
 10
127.0605184089957
 20
187.495633849882
 30
-0.0000000000000005
 11
128.376240837592
 21
187.495633849882
 31
-0.0000000000000005
  0
LINE
  5
42A
  8
LOVE_AND_PEACE_2
 62
     1
 10
128.376240837592
 20
187.495633849882
 30
-0.0000000000000005
 11
129.7692445579225
 21
187.4182681899254
 31
-0.0000000000000005
  0
LINE
  5
42B
  8
LOVE_AND_PEACE_2
 62
     1
 10
129.7692445579225
 20
187.4182681899254
 30
-0.0000000000000005
 11
131.1512804093388
 21
187.1196890507909
 31
-0.0000000000000005
  0
LINE
  5
42C
  8
LOVE_AND_PEACE_2
 62
     1
 10
131.1512804093388
 20
187.1196890507909
 30
-0.0000000000000005
 11
131.8146466501497
 21
186.8432143859297
 31
-0.0000000000000005
  0
LINE
  5
42D
  8
LOVE_AND_PEACE_2
 62
     1
 10
131.8146466501497
 20
186.8432143859297
 30
-0.0000000000000005
 11
132.4337617583027
 21
186.456217349702
 31
-0.0000000000000005
  0
LINE
  5
42E
  8
LOVE_AND_PEACE_2
 62
     1
 10
132.4337617583027
 20
186.456217349702
 30
-0.0000000000000005
 11
133.0419089975416
 21
185.8921946907873
 31
-0.0000000000000005
  0
LINE
  5
42F
  8
LOVE_AND_PEACE_2
 62
     1
 10
133.0419089975416
 20
185.8921946907873
 30
-0.0000000000000005
 11
133.4951983645336
 21
185.217607476395
 31
-0.0000000000000005
  0
LINE
  5
430
  8
LOVE_AND_PEACE_2
 62
     1
 10
133.4951983645336
 20
185.217607476395
 30
-0.0000000000000005
 11
133.7770936876851
 21
184.4324557065248
 31
-0.0000000000000005
  0
LINE
  5
431
  8
LOVE_AND_PEACE_2
 62
     1
 10
133.7770936876851
 20
184.4324557065248
 30
-0.0000000000000005
 11
133.8710587954023
 21
183.5367393811769
 31
-0.0000000000000005
  0
LINE
  5
432
  8
LOVE_AND_PEACE_2
 62
     1
 10
133.8710587954023
 20
183.5367393811769
 30
-0.0000000000000005
 11
133.785361773482
 21
182.7267833539161
 31
-0.0000000000000005
  0
LINE
  5
433
  8
LOVE_AND_PEACE_2
 62
     1
 10
133.785361773482
 20
182.7267833539161
 30
-0.0000000000000005
 11
133.5282707077211
 21
181.8891123655913
 31
-0.0000000000000005
  0
LINE
  5
434
  8
LOVE_AND_PEACE_2
 62
     1
 10
133.5282707077211
 20
181.8891123655913
 30
-0.0000000000000005
 11
133.0970225388356
 21
181.0763089108239
 31
-0.0000000000000005
  0
LINE
  5
435
  8
LOVE_AND_PEACE_2
 62
     1
 10
133.0970225388356
 20
181.0763089108239
 30
-0.0000000000000005
 11
132.4888542075412
 21
180.3409554842356
 31
-0.0000000000000005
  0
LINE
  5
436
  8
LOVE_AND_PEACE_2
 62
     1
 10
132.4888542075412
 20
180.3409554842356
 30
-0.0000000000000005
 11
131.7010026545537
 21
179.7051354680439
 31
-0.0000000000000005
  0
LINE
  5
437
  8
LOVE_AND_PEACE_2
 62
     1
 10
131.7010026545537
 20
179.7051354680439
 30
-0.0000000000000005
 11
130.730704820589
 21
179.1909322444666
 31
-0.0000000000000005
  0
LINE
  5
438
  8
LOVE_AND_PEACE_2
 62
     1
 10
130.730704820589
 20
179.1909322444666
 30
-0.0000000000000005
 11
129.5751976463629
 21
178.8508861240141
 31
-0.0000000000000005
  0
LINE
  5
439
  8
LOVE_AND_PEACE_2
 62
     1
 10
129.5751976463629
 20
178.8508861240141
 30
-0.0000000000000005
 11
128.2317180725913
 21
178.7375374171966
 31
-0.0000000000000005
  0
LINE
  5
43A
  8
LOVE_AND_PEACE_2
 62
     1
 10
128.2317180725913
 20
178.7375374171966
 30
-0.0000000000000005
 11
127.6566642685956
 21
178.7375374171966
 31
-0.0000000000000005
  0
LINE
  5
43B
  8
LOVE_AND_PEACE_2
 62
     1
 10
127.6566642685956
 20
178.7375374171966
 30
-0.0000000000000005
 11
126.9489836189601
 21
178.7596418914699
 31
-0.0000000000000005
  0
LINE
  5
43C
  8
LOVE_AND_PEACE_2
 62
     1
 10
126.9489836189601
 20
178.7596418914699
 30
-0.0000000000000005
 11
126.2081462579146
 21
178.8370919196489
 31
-0.0000000000000005
  0
LINE
  5
43D
  8
LOVE_AND_PEACE_2
 62
     1
 10
126.2081462579146
 20
178.8370919196489
 30
-0.0000000000000005
 11
125.5778312682357
 21
178.9808553706478
 31
-0.0000000000000005
  0
LINE
  5
43E
  8
LOVE_AND_PEACE_2
 62
     1
 10
125.5778312682357
 20
178.9808553706478
 30
-0.0000000000000005
 11
124.5163102937824
 21
175.0440653762161
 31
-0.0000000000000005
  0
LINE
  5
43F
  8
LOVE_AND_PEACE_2
 62
     1
 10
124.5163102937824
 20
175.0440653762161
 30
-0.0000000000000005
 11
124.3505267367326
 21
174.3363003583582
 31
-0.0000000000000005
  0
LINE
  5
440
  8
LOVE_AND_PEACE_2
 62
     1
 10
124.3505267367326
 20
174.3363003583582
 30
-0.0000000000000005
 11
123.9856341747782
 21
173.540117443407
 31
-0.0000000000000005
  0
LINE
  5
441
  8
LOVE_AND_PEACE_2
 62
     1
 10
123.9856341747782
 20
173.540117443407
 30
-0.0000000000000005
 11
123.6649294693148
 21
173.1945662964417
 31
-0.0000000000000005
  0
LINE
  5
442
  8
LOVE_AND_PEACE_2
 62
     1
 10
123.6649294693148
 20
173.1945662964417
 30
-0.0000000000000005
 11
123.2336602083736
 21
172.909802453728
 31
-0.0000000000000005
  0
LINE
  5
443
  8
LOVE_AND_PEACE_2
 62
     1
 10
123.2336602083736
 20
172.909802453728
 30
-0.0000000000000005
 11
122.6586696805447
 21
172.7245509293554
 31
-0.0000000000000005
  0
LINE
  5
444
  8
LOVE_AND_PEACE_2
 62
     1
 10
122.6586696805447
 20
172.7245509293554
 30
-0.0000000000000005
 11
121.9068011744182
 21
172.6775367374134
 31
-0.0000000000000005
  0
LINE
  5
445
  8
LOVE_AND_PEACE_2
 62
     1
 10
121.9068011744182
 20
172.6775367374134
 30
-0.0000000000000005
 11
121.143774970877
 21
172.7327979230967
 31
-0.0000000000000005
  0
LINE
  5
446
  8
LOVE_AND_PEACE_2
 62
     1
 10
121.143774970877
 20
172.7327979230967
 30
-0.0000000000000005
 11
120.9668759005237
 21
172.8129688264487
 31
-0.0000000000000005
  0
LINE
  5
447
  8
LOVE_AND_PEACE_2
 62
     1
 10
120.9668759005237
 20
172.8129688264487
 30
-0.0000000000000005
 11
120.9005413856482
 21
172.9871681136846
 31
-0.0000000000000005
  0
LINE
  5
448
  8
LOVE_AND_PEACE_2
 62
     1
 10
120.9005413856482
 20
172.9871681136846
 30
-0.0000000000000005
 11
121.0664093109204
 21
173.7170376058158
 31
-0.0000000000000005
  0
LINE
  5
449
  8
LOVE_AND_PEACE_2
 62
     1
 10
121.0664093109204
 20
173.7170376058158
 30
-0.0000000000000005
 11
121.5529608496004
 21
175.1987966961292
 31
-0.0000000000000005
  0
LINE
  5
44A
  8
LOVE_AND_PEACE_2
 62
     1
 10
121.5529608496004
 20
175.1987966961292
 30
-0.0000000000000005
 11
124.4278923966892
 21
185.4189944233048
 31
-0.0000000000000005
  0
LINE
  5
44B
  8
LOVE_AND_PEACE_2
 62
     1
 10
125.8643457515645
 20
180.1782091831928
 30
-0.0000000000000005
 11
125.9307435426069
 21
179.8797987805031
 31
-0.0000000000000005
  0
LINE
  5
44C
  8
LOVE_AND_PEACE_2
 62
     1
 10
125.9307435426069
 20
179.8797987805031
 30
-0.0000000000000005
 11
126.273531630288
 21
179.6808585120434
 31
-0.0000000000000005
  0
LINE
  5
44D
  8
LOVE_AND_PEACE_2
 62
     1
 10
126.273531630288
 20
179.6808585120434
 30
-0.0000000000000005
 11
126.8263965917879
 21
179.5592839035401
 31
-0.0000000000000005
  0
LINE
  5
44E
  8
LOVE_AND_PEACE_2
 62
     1
 10
126.8263965917879
 20
179.5592839035401
 30
-0.0000000000000005
 11
127.5009205300135
 21
179.5150749549935
 31
-0.0000000000000005
  0
LINE
  5
44F
  8
LOVE_AND_PEACE_2
 62
     1
 10
127.5009205300135
 20
179.5150749549935
 30
-0.0000000000000005
 11
128.6122820318598
 21
179.6559909784859
 31
-0.0000000000000005
  0
LINE
  5
450
  8
LOVE_AND_PEACE_2
 62
     1
 10
128.6122820318598
 20
179.6559909784859
 30
-0.0000000000000005
 11
129.4693155272294
 21
180.0787390489629
 31
-0.0000000000000005
  0
LINE
  5
451
  8
LOVE_AND_PEACE_2
 62
     1
 10
129.4693155272294
 20
180.0787390489629
 30
-0.0000000000000005
 11
130.1079407868164
 21
180.681064880855
 31
-0.0000000000000005
  0
LINE
  5
452
  8
LOVE_AND_PEACE_2
 62
     1
 10
130.1079407868164
 20
180.681064880855
 30
-0.0000000000000005
 11
130.564077581315
 21
181.3607141885923
 31
-0.0000000000000005
  0
LINE
  5
453
  8
LOVE_AND_PEACE_2
 62
     1
 10
130.564077581315
 20
181.3607141885923
 30
-0.0000000000000005
 11
130.8626356283939
 21
182.0624468785475
 31
-0.0000000000000005
  0
LINE
  5
454
  8
LOVE_AND_PEACE_2
 62
     1
 10
130.8626356283939
 20
182.0624468785475
 30
-0.0000000000000005
 11
131.0285246457217
 21
182.7310228570926
 31
-0.0000000000000005
  0
LINE
  5
455
  8
LOVE_AND_PEACE_2
 62
     1
 10
131.0285246457217
 20
182.7310228570926
 30
-0.0000000000000005
 11
131.128079148174
 21
183.5598562741193
 31
-0.0000000000000005
  0
LINE
  5
456
  8
LOVE_AND_PEACE_2
 62
     1
 10
131.128079148174
 20
183.5598562741193
 30
-0.0000000000000005
 11
130.9180022743552
 21
184.7313934106046
 31
-0.0000000000000005
  0
LINE
  5
457
  8
LOVE_AND_PEACE_2
 62
     1
 10
130.9180022743552
 20
184.7313934106046
 30
-0.0000000000000005
 11
130.3429484703595
 21
185.7039059104077
 31
-0.0000000000000005
  0
LINE
  5
458
  8
LOVE_AND_PEACE_2
 62
     1
 10
130.3429484703595
 20
185.7039059104077
 30
-0.0000000000000005
 11
129.9420517694886
 21
186.0796186968871
 31
-0.0000000000000005
  0
LINE
  5
459
  8
LOVE_AND_PEACE_2
 62
     1
 10
129.9420517694886
 20
186.0796186968871
 30
-0.0000000000000005
 11
129.4693155272294
 21
186.3669557703846
 31
-0.0000000000000005
  0
LINE
  5
45A
  8
LOVE_AND_PEACE_2
 62
     1
 10
129.4693155272294
 20
186.3669557703846
 30
-0.0000000000000005
 11
128.9385339479471
 21
186.5493176831393
 31
-0.0000000000000005
  0
LINE
  5
45B
  8
LOVE_AND_PEACE_2
 62
     1
 10
128.9385339479471
 20
186.5493176831393
 30
-0.0000000000000005
 11
128.363501236007
 21
186.6101049873909
 31
-0.0000000000000005
  0
LINE
  5
45C
  8
LOVE_AND_PEACE_2
 62
     1
 10
128.363501236007
 20
186.6101049873909
 30
-0.0000000000000005
 11
127.8880019344636
 21
186.576948275981
 31
-0.0000000000000005
  0
LINE
  5
45D
  8
LOVE_AND_PEACE_2
 62
     1
 10
127.8880019344636
 20
186.576948275981
 30
-0.0000000000000005
 11
127.5895071635516
 21
186.3006423475646
 31
-0.0000000000000005
  0
LINE
  5
45E
  8
LOVE_AND_PEACE_2
 62
     1
 10
127.5895071635516
 20
186.3006423475646
 30
-0.0000000000000005
 11
125.8643457515645
 21
180.1782091831928
 31
-0.0000000000000005
  0
LINE
  5
45F
  8
LOVE_AND_PEACE_2
 62
     1
 10
140.1554789468152
 20
174.8942274132031
 30
-0.0000000000000005
 11
140.1996878953618
 21
174.6730139340252
 31
-0.0000000000000005
  0
LINE
  5
460
  8
LOVE_AND_PEACE_2
 62
     1
 10
140.1996878953618
 20
174.6730139340252
 30
-0.0000000000000005
 11
139.6688430399127
 21
173.9876064951079
 31
-0.0000000000000005
  0
LINE
  5
461
  8
LOVE_AND_PEACE_2
 62
     1
 10
139.6688430399127
 20
173.9876064951079
 30
-0.0000000000000005
 11
138.7510011482359
 21
173.2694641858926
 31
-0.0000000000000005
  0
LINE
  5
462
  8
LOVE_AND_PEACE_2
 62
     1
 10
138.7510011482359
 20
173.2694641858926
 30
-0.0000000000000005
 11
137.5014234060147
 21
172.6951696958986
 31
-0.0000000000000005
  0
LINE
  5
463
  8
LOVE_AND_PEACE_2
 62
     1
 10
137.5014234060147
 20
172.6951696958986
 30
-0.0000000000000005
 11
136.7664496364272
 21
172.52122351333
 31
-0.0000000000000005
  0
LINE
  5
464
  8
LOVE_AND_PEACE_2
 62
     1
 10
136.7664496364272
 20
172.52122351333
 30
-0.0000000000000005
 11
135.9768896269357
 21
172.4632414524737
 31
-0.0000000000000005
  0
LINE
  5
465
  8
LOVE_AND_PEACE_2
 62
     1
 10
135.9768896269357
 20
172.4632414524737
 30
-0.0000000000000005
 11
134.9468590914997
 21
172.6234145227328
 31
-0.0000000000000005
  0
LINE
  5
466
  8
LOVE_AND_PEACE_2
 62
     1
 10
134.9468590914997
 20
172.6234145227328
 30
-0.0000000000000005
 11
134.1161484815242
 21
173.10393373351
 31
-0.0000000000000005
  0
LINE
  5
467
  8
LOVE_AND_PEACE_2
 62
     1
 10
134.1161484815242
 20
173.10393373351
 30
-0.0000000000000005
 11
133.7963138233545
 21
173.4587970230246
 31
-0.0000000000000005
  0
LINE
  5
468
  8
LOVE_AND_PEACE_2
 62
     1
 10
133.7963138233545
 20
173.4587970230246
 30
-0.0000000000000005
 11
133.5678604960904
 21
173.882694610532
 31
-0.0000000000000005
  0
LINE
  5
469
  8
LOVE_AND_PEACE_2
 62
     1
 10
133.5678604960904
 20
173.882694610532
 30
-0.0000000000000005
 11
133.3850978342792
 21
174.9375926795256
 31
-0.0000000000000005
  0
LINE
  5
46A
  8
LOVE_AND_PEACE_2
 62
     1
 10
133.3850978342792
 20
174.9375926795256
 30
-0.0000000000000005
 11
133.5289456535005
 21
176.274154059059
 31
-0.0000000000000005
  0
LINE
  5
46B
  8
LOVE_AND_PEACE_2
 62
     1
 10
133.5289456535005
 20
176.274154059059
 30
-0.0000000000000005
 11
133.9826779536602
 21
177.7433422842322
 31
-0.0000000000000005
  0
LINE
  5
46C
  8
LOVE_AND_PEACE_2
 62
     1
 10
133.9826779536602
 20
177.7433422842322
 30
-0.0000000000000005
 11
134.8126925258007
 21
179.2235827465421
 31
-0.0000000000000005
  0
LINE
  5
46D
  8
LOVE_AND_PEACE_2
 62
     1
 10
134.8126925258007
 20
179.2235827465421
 30
-0.0000000000000005
 11
135.3854051116243
 21
179.9249990556631
 31
-0.0000000000000005
  0
LINE
  5
46E
  8
LOVE_AND_PEACE_2
 62
     1
 10
135.3854051116243
 20
179.9249990556631
 30
-0.0000000000000005
 11
136.0632826866909
 21
180.5711963632121
 31
-0.0000000000000005
  0
LINE
  5
46F
  8
LOVE_AND_PEACE_2
 62
     1
 10
136.0632826866909
 20
180.5711963632121
 30
-0.0000000000000005
 11
136.9124066612089
 21
181.2063836177357
 31
-0.0000000000000005
  0
LINE
  5
470
  8
LOVE_AND_PEACE_2
 62
     1
 10
136.9124066612089
 20
181.2063836177357
 30
-0.0000000000000005
 11
137.8223601240897
 21
181.6979339735939
 31
-0.0000000000000005
  0
LINE
  5
471
  8
LOVE_AND_PEACE_2
 62
     1
 10
137.8223601240897
 20
181.6979339735939
 30
-0.0000000000000005
 11
138.7765647196283
 21
182.0127329034881
 31
-0.0000000000000005
  0
LINE
  5
472
  8
LOVE_AND_PEACE_2
 62
     1
 10
138.7765647196283
 20
182.0127329034881
 30
-0.0000000000000005
 11
139.7584420921198
 21
182.1176658801195
 31
-0.0000000000000005
  0
LINE
  5
473
  8
LOVE_AND_PEACE_2
 62
     1
 10
139.7584420921198
 20
182.1176658801195
 30
-0.0000000000000005
 11
140.5550679402386
 21
182.0072067849198
 31
-0.0000000000000005
  0
LINE
  5
474
  8
LOVE_AND_PEACE_2
 62
     1
 10
140.5550679402386
 20
182.0072067849198
 30
-0.0000000000000005
 11
141.0861448082994
 21
181.6758294993206
 31
-0.0000000000000005
  0
LINE
  5
475
  8
LOVE_AND_PEACE_2
 62
     1
 10
141.0861448082994
 20
181.6758294993206
 30
-0.0000000000000005
 11
141.3848715918231
 21
181.1842791434624
 31
-0.0000000000000005
  0
LINE
  5
476
  8
LOVE_AND_PEACE_2
 62
     1
 10
141.3848715918231
 20
181.1842791434624
 30
-0.0000000000000005
 11
141.484447186331
 21
180.5933008374855
 31
-0.0000000000000005
  0
LINE
  5
477
  8
LOVE_AND_PEACE_2
 62
     1
 10
141.484447186331
 20
180.5933008374855
 30
-0.0000000000000005
 11
141.3544568476417
 21
179.7232957279192
 31
-0.0000000000000005
  0
LINE
  5
478
  8
LOVE_AND_PEACE_2
 62
     1
 10
141.3544568476417
 20
179.7232957279192
 30
-0.0000000000000005
 11
140.9644858315738
 21
178.969381292399
 31
-0.0000000000000005
  0
LINE
  5
479
  8
LOVE_AND_PEACE_2
 62
     1
 10
140.9644858315738
 20
178.969381292399
 30
-0.0000000000000005
 11
140.3311546779434
 21
178.3093686884292
 31
-0.0000000000000005
  0
LINE
  5
47A
  8
LOVE_AND_PEACE_2
 62
     1
 10
140.3311546779434
 20
178.3093686884292
 30
-0.0000000000000005
 11
139.4710839265668
 21
177.7210690735141
 31
-0.0000000000000005
  0
LINE
  5
47B
  8
LOVE_AND_PEACE_2
 62
     1
 10
139.4710839265668
 20
177.7210690735141
 30
-0.0000000000000005
 11
138.5639778911926
 21
177.2875429626232
 31
-0.0000000000000005
  0
LINE
  5
47C
  8
LOVE_AND_PEACE_2
 62
     1
 10
138.5639778911926
 20
177.2875429626232
 30
-0.0000000000000005
 11
137.7011229884762
 21
177.0030955007437
 31
-0.0000000000000005
  0
LINE
  5
47D
  8
LOVE_AND_PEACE_2
 62
     1
 10
137.7011229884762
 20
177.0030955007437
 30
-0.0000000000000005
 11
136.2186889523834
 21
176.748978414823
 31
-0.0000000000000005
  0
LINE
  5
47E
  8
LOVE_AND_PEACE_2
 62
     1
 10
136.2186889523834
 20
176.748978414823
 30
-0.0000000000000005
 11
136.0970299756578
 21
176.2077562680166
 31
-0.0000000000000005
  0
LINE
  5
47F
  8
LOVE_AND_PEACE_2
 62
     1
 10
136.0970299756578
 20
176.2077562680166
 30
-0.0000000000000005
 11
136.0416844217521
 21
175.3572402178288
 31
-0.0000000000000005
  0
LINE
  5
480
  8
LOVE_AND_PEACE_2
 62
     1
 10
136.0416844217521
 20
175.3572402178288
 30
-0.0000000000000005
 11
136.1190922658199
 21
174.8186334859173
 31
-0.0000000000000005
  0
LINE
  5
481
  8
LOVE_AND_PEACE_2
 62
     1
 10
136.1190922658199
 20
174.8186334859173
 30
-0.0000000000000005
 11
136.3513157980233
 21
174.3519084795053
 31
-0.0000000000000005
  0
LINE
  5
482
  8
LOVE_AND_PEACE_2
 62
     1
 10
136.3513157980233
 20
174.3519084795053
 30
-0.0000000000000005
 11
136.7273027812256
 21
174.0288203717587
 31
-0.0000000000000005
  0
LINE
  5
483
  8
LOVE_AND_PEACE_2
 62
     1
 10
136.7273027812256
 20
174.0288203717587
 30
-0.0000000000000005
 11
137.2360009782901
 21
173.9211243358431
 31
-0.0000000000000005
  0
LINE
  5
484
  8
LOVE_AND_PEACE_2
 62
     1
 10
137.2360009782901
 20
173.9211243358431
 30
-0.0000000000000005
 11
137.9990693659425
 21
174.0123474763317
 31
-0.0000000000000005
  0
LINE
  5
485
  8
LOVE_AND_PEACE_2
 62
     1
 10
137.9990693659425
 20
174.0123474763317
 30
-0.0000000000000005
 11
138.651531014006
 21
174.2860168977975
 31
-0.0000000000000005
  0
LINE
  5
486
  8
LOVE_AND_PEACE_2
 62
     1
 10
138.651531014006
 20
174.2860168977975
 30
-0.0000000000000005
 11
139.6246340913661
 21
175.0712319438344
 31
-0.0000000000000005
  0
LINE
  5
487
  8
LOVE_AND_PEACE_2
 62
     1
 10
139.6246340913661
 20
175.0712319438344
 30
-0.0000000000000005
 11
139.8016386219974
 21
175.1375453666544
 31
-0.0000000000000005
  0
LINE
  5
488
  8
LOVE_AND_PEACE_2
 62
     1
 10
139.8016386219974
 20
175.1375453666544
 30
-0.0000000000000005
 11
140.1554789468152
 21
174.8942274132031
 31
-0.0000000000000005
  0
LINE
  5
489
  8
LOVE_AND_PEACE_2
 62
     1
 10
136.3992369483563
 20
177.5660002807113
 30
-0.0000000000000005
 11
137.3060266028964
 21
177.7650249173934
 31
-0.0000000000000005
  0
LINE
  5
48A
  8
LOVE_AND_PEACE_2
 62
     1
 10
137.3060266028964
 20
177.7650249173934
 30
-0.0000000000000005
 11
137.8920904599175
 21
178.0470046087673
 31
-0.0000000000000005
  0
LINE
  5
48B
  8
LOVE_AND_PEACE_2
 62
     1
 10
137.8920904599175
 20
178.0470046087673
 30
-0.0000000000000005
 11
138.4117565258963
 21
178.4506854609781
 31
-0.0000000000000005
  0
LINE
  5
48C
  8
LOVE_AND_PEACE_2
 62
     1
 10
138.4117565258963
 20
178.4506854609781
 30
-0.0000000000000005
 11
138.8983080645764
 21
179.2026594273826
 31
-0.0000000000000005
  0
LINE
  5
48D
  8
LOVE_AND_PEACE_2
 62
     1
 10
138.8983080645764
 20
179.2026594273826
 30
-0.0000000000000005
 11
139.064154897793
 21
179.7223887695282
 31
-0.0000000000000005
  0
LINE
  5
48E
  8
LOVE_AND_PEACE_2
 62
     1
 10
139.064154897793
 20
179.7223887695282
 30
-0.0000000000000005
 11
139.1194371755319
 21
180.2642647700583
 31
-0.0000000000000005
  0
LINE
  5
48F
  8
LOVE_AND_PEACE_2
 62
     1
 10
139.1194371755319
 20
180.2642647700583
 30
-0.0000000000000005
 11
139.0089148041653
 21
180.7729207830117
 31
-0.0000000000000005
  0
LINE
  5
490
  8
LOVE_AND_PEACE_2
 62
     1
 10
139.0089148041653
 20
180.7729207830117
 30
-0.0000000000000005
 11
138.8320368258676
 21
180.9553459719333
 31
-0.0000000000000005
  0
LINE
  5
491
  8
LOVE_AND_PEACE_2
 62
     1
 10
138.8320368258676
 20
180.9553459719333
 30
-0.0000000000000005
 11
138.5224476337077
 21
181.0161543682405
 31
-0.0000000000000005
  0
LINE
  5
492
  8
LOVE_AND_PEACE_2
 62
     1
 10
138.5224476337077
 20
181.0161543682405
 30
-0.0000000000000005
 11
138.2071635865346
 21
180.9332204056044
 31
-0.0000000000000005
  0
LINE
  5
493
  8
LOVE_AND_PEACE_2
 62
     1
 10
138.2071635865346
 20
180.9332204056044
 30
-0.0000000000000005
 11
137.8809116704473
 21
180.684418517696
 31
-0.0000000000000005
  0
LINE
  5
494
  8
LOVE_AND_PEACE_2
 62
     1
 10
137.8809116704473
 20
180.684418517696
 30
-0.0000000000000005
 11
137.2616489179049
 21
179.8329744170616
 31
-0.0000000000000005
  0
LINE
  5
495
  8
LOVE_AND_PEACE_2
 62
     1
 10
137.2616489179049
 20
179.8329744170616
 30
-0.0000000000000005
 11
136.7529929049516
 21
178.7050556515659
 31
-0.0000000000000005
  0
LINE
  5
496
  8
LOVE_AND_PEACE_2
 62
     1
 10
136.7529929049516
 20
178.7050556515659
 30
-0.0000000000000005
 11
136.3992369483563
 21
177.5660002807113
 31
-0.0000000000000005
  0
LINE
  5
497
  8
LOVE_AND_PEACE_2
 62
     1
 10
151.750035017167
 20
182.236456337283
 30
-0.0000000000000005
 11
151.9159451265505
 21
182.1700585462406
 31
-0.0000000000000005
  0
LINE
  5
498
  8
LOVE_AND_PEACE_2
 62
     1
 10
151.9159451265505
 20
182.1700585462406
 30
-0.0000000000000005
 11
151.9270395477983
 21
181.9708651731136
 31
-0.0000000000000005
  0
LINE
  5
499
  8
LOVE_AND_PEACE_2
 62
     1
 10
151.9270395477983
 20
181.9708651731136
 30
-0.0000000000000005
 11
151.5621469858439
 21
180.9526250967603
 31
-0.0000000000000005
  0
LINE
  5
49A
  8
LOVE_AND_PEACE_2
 62
     1
 10
151.5621469858439
 20
180.9526250967603
 30
-0.0000000000000005
 11
151.0866476843005
 21
179.5802072226996
 31
-0.0000000000000005
  0
LINE
  5
49B
  8
LOVE_AND_PEACE_2
 62
     1
 10
151.0866476843005
 20
179.5802072226996
 30
-0.0000000000000005
 11
150.6332528570305
 21
178.2519982971855
 31
-0.0000000000000005
  0
LINE
  5
49C
  8
LOVE_AND_PEACE_2
 62
     1
 10
150.6332528570305
 20
178.2519982971855
 30
-0.0000000000000005
 11
150.3567781921693
 21
177.366553802917
 31
-0.0000000000000005
  0
LINE
  5
49D
  8
LOVE_AND_PEACE_2
 62
     1
 10
150.3567781921693
 20
177.366553802917
 30
-0.0000000000000005
 11
150.1798580297604
 21
176.7578370781768
 31
-0.0000000000000005
  0
LINE
  5
49E
  8
LOVE_AND_PEACE_2
 62
     1
 10
150.1798580297604
 20
176.7578370781768
 30
-0.0000000000000005
 11
149.8923311277626
 21
175.7506492389602
 31
-0.0000000000000005
  0
LINE
  5
49F
  8
LOVE_AND_PEACE_2
 62
     1
 10
149.8923311277626
 20
175.7506492389602
 30
-0.0000000000000005
 11
149.6158564629013
 21
174.7656502422393
 31
-0.0000000000000005
  0
LINE
  5
4A0
  8
LOVE_AND_PEACE_2
 62
     1
 10
149.6158564629013
 20
174.7656502422393
 30
-0.0000000000000005
 11
149.4941974861758
 21
174.1789536235501
 31
-0.0000000000000005
  0
LINE
  5
4A1
  8
LOVE_AND_PEACE_2
 62
     1
 10
149.4941974861758
 20
174.1789536235501
 30
-0.0000000000000005
 11
149.5605530931069
 21
173.9797602504231
 31
-0.0000000000000005
  0
LINE
  5
4A2
  8
LOVE_AND_PEACE_2
 62
     1
 10
149.5605530931069
 20
173.9797602504231
 30
-0.0000000000000005
 11
149.7596199139003
 21
173.9133624593807
 31
-0.0000000000000005
  0
LINE
  5
4A3
  8
LOVE_AND_PEACE_2
 62
     1
 10
149.7596199139003
 20
173.9133624593807
 30
-0.0000000000000005
 11
150.0581990530348
 21
173.7473257976636
 31
-0.0000000000000005
  0
LINE
  5
4A4
  8
LOVE_AND_PEACE_2
 62
     1
 10
150.0581990530348
 20
173.7473257976636
 30
-0.0000000000000005
 11
150.163300766111
 21
173.5647107802416
 31
-0.0000000000000005
  0
LINE
  5
4A5
  8
LOVE_AND_PEACE_2
 62
     1
 10
150.163300766111
 20
173.5647107802416
 30
-0.0000000000000005
 11
150.1467013183504
 21
173.3489390514096
 31
-0.0000000000000005
  0
LINE
  5
4A6
  8
LOVE_AND_PEACE_2
 62
     1
 10
150.1467013183504
 20
173.3489390514096
 30
-0.0000000000000005
 11
149.9697389718303
 21
173.1110206641931
 31
-0.0000000000000005
  0
LINE
  5
4A7
  8
LOVE_AND_PEACE_2
 62
     1
 10
149.9697389718303
 20
173.1110206641931
 30
-0.0000000000000005
 11
149.5937519886281
 21
172.8619656716175
 31
-0.0000000000000005
  0
LINE
  5
4A8
  8
LOVE_AND_PEACE_2
 62
     1
 10
149.5937519886281
 20
172.8619656716175
 30
-0.0000000000000005
 11
148.9496006104727
 21
172.6322731860866
 31
-0.0000000000000005
  0
LINE
  5
4A9
  8
LOVE_AND_PEACE_2
 62
     1
 10
148.9496006104727
 20
172.6322731860866
 30
-0.0000000000000005
 11
147.9681450790933
 21
172.4524423200043
 31
-0.0000000000000005
  0
LINE
  5
4AA
  8
LOVE_AND_PEACE_2
 62
     1
 10
147.9681450790933
 20
172.4524423200043
 30
-0.0000000000000005
 11
147.536939094319
 21
172.4662998005364
 31
-0.0000000000000005
  0
LINE
  5
4AB
  8
LOVE_AND_PEACE_2
 62
     1
 10
147.536939094319
 20
172.4662998005364
 30
-0.0000000000000005
 11
147.2604644294578
 21
172.6404990877723
 31
-0.0000000000000005
  0
LINE
  5
4AC
  8
LOVE_AND_PEACE_2
 62
     1
 10
147.2604644294578
 20
172.6404990877723
 30
-0.0000000000000005
 11
147.0613554245532
 21
173.1602917060847
 31
-0.0000000000000005
  0
LINE
  5
4AD
  8
LOVE_AND_PEACE_2
 62
     1
 10
147.0613554245532
 20
173.1602917060847
 30
-0.0000000000000005
 11
147.0945121359632
 21
173.4256297655868
 31
-0.0000000000000005
  0
LINE
  5
4AE
  8
LOVE_AND_PEACE_2
 62
     1
 10
147.0945121359632
 20
173.4256297655868
 30
-0.0000000000000005
 11
147.2161711126888
 21
173.8900768299935
 31
-0.0000000000000005
  0
LINE
  5
4AF
  8
LOVE_AND_PEACE_2
 62
     1
 10
147.2161711126888
 20
173.8900768299935
 30
-0.0000000000000005
 11
147.4705413032766
 21
174.708364219218
 31
-0.0000000000000005
  0
LINE
  5
4B0
  8
LOVE_AND_PEACE_2
 62
     1
 10
147.4705413032766
 20
174.708364219218
 30
-0.0000000000000005
 11
147.9239361305467
 21
176.0353919896183
 31
-0.0000000000000005
  0
LINE
  5
4B1
  8
LOVE_AND_PEACE_2
 62
     1
 10
147.9239361305467
 20
176.0353919896183
 30
-0.0000000000000005
 11
147.7248271256421
 21
176.1459143609848
 31
-0.0000000000000005
  0
LINE
  5
4B2
  8
LOVE_AND_PEACE_2
 62
     1
 10
147.7248271256421
 20
176.1459143609848
 30
-0.0000000000000005
 11
146.9618009221009
 21
175.0070277265749
 31
-0.0000000000000005
  0
LINE
  5
4B3
  8
LOVE_AND_PEACE_2
 62
     1
 10
146.9618009221009
 20
175.0070277265749
 30
-0.0000000000000005
 11
145.9776456076042
 21
173.8016589329003
 31
-0.0000000000000005
  0
LINE
  5
4B4
  8
LOVE_AND_PEACE_2
 62
     1
 10
145.9776456076042
 20
173.8016589329003
 30
-0.0000000000000005
 11
144.7613089450153
 21
172.8395237244545
 31
-0.0000000000000005
  0
LINE
  5
4B5
  8
LOVE_AND_PEACE_2
 62
     1
 10
144.7613089450153
 20
172.8395237244545
 30
-0.0000000000000005
 11
144.0701644669735
 21
172.5492126711169
 31
-0.0000000000000005
  0
LINE
  5
4B6
  8
LOVE_AND_PEACE_2
 62
     1
 10
144.0701644669735
 20
172.5492126711169
 30
-0.0000000000000005
 11
143.3236744350261
 21
172.4524423200043
 31
-0.0000000000000005
  0
LINE
  5
4B7
  8
LOVE_AND_PEACE_2
 62
     1
 10
143.3236744350261
 20
172.4524423200043
 30
-0.0000000000000005
 11
142.837122896346
 21
172.5963745074481
 31
-0.0000000000000005
  0
LINE
  5
4B8
  8
LOVE_AND_PEACE_2
 62
     1
 10
142.837122896346
 20
172.5963745074481
 30
-0.0000000000000005
 11
142.3395191205294
 21
172.9838777530103
 31
-0.0000000000000005
  0
LINE
  5
4B9
  8
LOVE_AND_PEACE_2
 62
     1
 10
142.3395191205294
 20
172.9838777530103
 30
-0.0000000000000005
 11
141.9524377160792
 21
173.5374176602896
 31
-0.0000000000000005
  0
LINE
  5
4BA
  8
LOVE_AND_PEACE_2
 62
     1
 10
141.9524377160792
 20
173.5374176602896
 30
-0.0000000000000005
 11
141.7976220279436
 21
174.1794598328846
 31
-0.0000000000000005
  0
LINE
  5
4BB
  8
LOVE_AND_PEACE_2
 62
     1
 10
141.7976220279436
 20
174.1794598328846
 30
-0.0000000000000005
 11
142.0188355071216
 21
175.7294728151335
 31
-0.0000000000000005
  0
LINE
  5
4BC
  8
LOVE_AND_PEACE_2
 62
     1
 10
142.0188355071216
 20
175.7294728151335
 30
-0.0000000000000005
 11
142.6270460225272
 21
177.4786791705094
 31
-0.0000000000000005
  0
LINE
  5
4BD
  8
LOVE_AND_PEACE_2
 62
     1
 10
142.6270460225272
 20
177.4786791705094
 30
-0.0000000000000005
 11
143.5669923884773
 21
179.2056966833896
 31
-0.0000000000000005
  0
LINE
  5
4BE
  8
LOVE_AND_PEACE_2
 62
     1
 10
143.5669923884773
 20
179.2056966833896
 30
-0.0000000000000005
 11
144.7723611821519
 21
180.6892275063738
 31
-0.0000000000000005
  0
LINE
  5
4BF
  8
LOVE_AND_PEACE_2
 62
     1
 10
144.7723611821519
 20
180.6892275063738
 30
-0.0000000000000005
 11
145.4469062124331
 21
181.2704612826616
 31
-0.0000000000000005
  0
LINE
  5
4C0
  8
LOVE_AND_PEACE_2
 62
     1
 10
145.4469062124331
 20
181.2704612826616
 30
-0.0000000000000005
 11
146.1657023753721
 21
181.7299095298901
 31
-0.0000000000000005
  0
LINE
  5
4C1
  8
LOVE_AND_PEACE_2
 62
     1
 10
146.1657023753721
 20
181.7299095298901
 30
-0.0000000000000005
 11
146.9204183090052
 21
182.0288261419142
 31
-0.0000000000000005
  0
LINE
  5
4C2
  8
LOVE_AND_PEACE_2
 62
     1
 10
146.9204183090052
 20
182.0288261419142
 30
-0.0000000000000005
 11
147.7027226513688
 21
182.1284650125889
 31
-0.0000000000000005
  0
LINE
  5
4C3
  8
LOVE_AND_PEACE_2
 62
     1
 10
147.7027226513688
 20
182.1284650125889
 30
-0.0000000000000005
 11
148.3607526021118
 21
182.0649357411088
 31
-0.0000000000000005
  0
LINE
  5
4C4
  8
LOVE_AND_PEACE_2
 62
     1
 10
148.3607526021118
 20
182.0649357411088
 30
-0.0000000000000005
 11
148.8307257850868
 21
181.8743479266683
 31
-0.0000000000000005
  0
LINE
  5
4C5
  8
LOVE_AND_PEACE_2
 62
     1
 10
148.8307257850868
 20
181.8743479266683
 30
-0.0000000000000005
 11
149.4278840633558
 21
181.354977149468
 31
-0.0000000000000005
  0
LINE
  5
4C6
  8
LOVE_AND_PEACE_2
 62
     1
 10
149.4278840633558
 20
181.354977149468
 30
-0.0000000000000005
 11
149.7817243881736
 21
181.9939820660559
 31
-0.0000000000000005
  0
LINE
  5
4C7
  8
LOVE_AND_PEACE_2
 62
     1
 10
149.7817243881736
 20
181.9939820660559
 30
-0.0000000000000005
 11
149.9586867346937
 21
182.1758377694762
 31
-0.0000000000000005
  0
LINE
  5
4C8
  8
LOVE_AND_PEACE_2
 62
     1
 10
149.9586867346937
 20
182.1758377694762
 30
-0.0000000000000005
 11
150.179773661538
 21
182.236456337283
 31
-0.0000000000000005
  0
LINE
  5
4C9
  8
LOVE_AND_PEACE_2
 62
     1
 10
150.179773661538
 20
182.236456337283
 30
-0.0000000000000005
 11
151.750035017167
 21
182.236456337283
 31
-0.0000000000000005
  0
LINE
  5
4CA
  8
LOVE_AND_PEACE_2
 62
     1
 10
144.4326103504779
 20
174.9095824296831
 30
-0.0000000000000005
 11
144.5653215643401
 21
174.3891148655913
 31
-0.0000000000000005
  0
LINE
  5
4CB
  8
LOVE_AND_PEACE_2
 62
     1
 10
144.5653215643401
 20
174.3891148655913
 30
-0.0000000000000005
 11
144.9632864694821
 21
174.2450983099251
 31
-0.0000000000000005
  0
LINE
  5
4CC
  8
LOVE_AND_PEACE_2
 62
     1
 10
144.9632864694821
 20
174.2450983099251
 30
-0.0000000000000005
 11
145.242545285683
 21
174.3613788124717
 31
-0.0000000000000005
  0
LINE
  5
4CD
  8
LOVE_AND_PEACE_2
 62
     1
 10
145.242545285683
 20
174.3613788124717
 30
-0.0000000000000005
 11
145.6378947759301
 21
174.7102203201112
 31
-0.0000000000000005
  0
LINE
  5
4CE
  8
LOVE_AND_PEACE_2
 62
     1
 10
145.6378947759301
 20
174.7102203201112
 30
-0.0000000000000005
 11
146.5667889047435
 21
175.8066697386452
 31
-0.0000000000000005
  0
LINE
  5
4CF
  8
LOVE_AND_PEACE_2
 62
     1
 10
146.5667889047435
 20
175.8066697386452
 30
-0.0000000000000005
 11
147.462526322147
 21
177.0803767924778
 31
-0.0000000000000005
  0
LINE
  5
4D0
  8
LOVE_AND_PEACE_2
 62
     1
 10
147.462526322147
 20
177.0803767924778
 30
-0.0000000000000005
 11
148.0374957579203
 21
178.0549984978414
 31
-0.0000000000000005
  0
LINE
  5
4D1
  8
LOVE_AND_PEACE_2
 62
     1
 10
148.0374957579203
 20
178.0549984978414
 30
-0.0000000000000005
 11
148.3914204509605
 21
179.0517246774783
 31
-0.0000000000000005
  0
LINE
  5
4D2
  8
LOVE_AND_PEACE_2
 62
     1
 10
148.3914204509605
 20
179.0517246774783
 30
-0.0000000000000005
 11
148.546236139096
 21
180.1814151756446
 31
-0.0000000000000005
  0
LINE
  5
4D3
  8
LOVE_AND_PEACE_2
 62
     1
 10
148.546236139096
 20
180.1814151756446
 30
-0.0000000000000005
 11
148.4660652357441
 21
180.5412878283652
 31
-0.0000000000000005
  0
LINE
  5
4D4
  8
LOVE_AND_PEACE_2
 62
     1
 10
148.4660652357441
 20
180.5412878283652
 30
-0.0000000000000005
 11
148.2255525256882
 21
180.8680037696759
 31
-0.0000000000000005
  0
LINE
  5
4D5
  8
LOVE_AND_PEACE_2
 62
     1
 10
148.2255525256882
 20
180.8680037696759
 30
-0.0000000000000005
 11
147.9021058529962
 21
181.1006069588801
 31
-0.0000000000000005
  0
LINE
  5
4D6
  8
LOVE_AND_PEACE_2
 62
     1
 10
147.9021058529962
 20
181.1006069588801
 30
-0.0000000000000005
 11
147.573133061736
 21
181.1781413552815
 31
-0.0000000000000005
  0
LINE
  5
4D7
  8
LOVE_AND_PEACE_2
 62
     1
 10
147.573133061736
 20
181.1781413552815
 30
-0.0000000000000005
 11
147.1625656533704
 21
181.0840075111195
 31
-0.0000000000000005
  0
LINE
  5
4D8
  8
LOVE_AND_PEACE_2
 62
     1
 10
147.1625656533704
 20
181.0840075111195
 30
-0.0000000000000005
 11
146.7492351857207
 21
180.8016059786335
 31
-0.0000000000000005
  0
LINE
  5
4D9
  8
LOVE_AND_PEACE_2
 62
     1
 10
146.7492351857207
 20
180.8016059786335
 30
-0.0000000000000005
 11
145.9142850725688
 21
179.6719998486896
 31
-0.0000000000000005
  0
LINE
  5
4DA
  8
LOVE_AND_PEACE_2
 62
     1
 10
145.9142850725688
 20
179.6719998486896
 30
-0.0000000000000005
 11
145.2038835477603
 21
178.2515131799067
 31
-0.0000000000000005
  0
LINE
  5
4DB
  8
LOVE_AND_PEACE_2
 62
     1
 10
145.2038835477603
 20
178.2515131799067
 30
-0.0000000000000005
 11
144.7532939638857
 21
176.9584647110849
 31
-0.0000000000000005
  0
LINE
  5
4DC
  8
LOVE_AND_PEACE_2
 62
     1
 10
144.7532939638857
 20
176.9584647110849
 30
-0.0000000000000005
 11
144.5127812538298
 21
175.8315794563139
 31
-0.0000000000000005
  0
LINE
  5
4DD
  8
LOVE_AND_PEACE_2
 62
     1
 10
144.5127812538298
 20
175.8315794563139
 30
-0.0000000000000005
 11
144.4326103504779
 21
174.9095824296831
 31
-0.0000000000000005
  0
LINE
  5
4DE
  8
LOVE_AND_PEACE_2
 62
     1
 10
157.918195758089
 20
174.6061943018708
 30
-0.0000000000000005
 11
157.9900352994773
 21
174.5011558649614
 31
-0.0000000000000005
  0
LINE
  5
4DF
  8
LOVE_AND_PEACE_2
 62
     1
 10
157.9900352994773
 20
174.5011558649614
 30
-0.0000000000000005
 11
157.9403002323623
 21
174.3628763484196
 31
-0.0000000000000005
  0
LINE
  5
4E0
  8
LOVE_AND_PEACE_2
 62
     1
 10
157.9403002323623
 20
174.3628763484196
 30
-0.0000000000000005
 11
157.5090098793655
 21
173.8656100454926
 31
-0.0000000000000005
  0
LINE
  5
4E1
  8
LOVE_AND_PEACE_2
 62
     1
 10
157.5090098793655
 20
173.8656100454926
 30
-0.0000000000000005
 11
156.712742596192
 21
173.2360543698153
 31
-0.0000000000000005
  0
LINE
  5
4E2
  8
LOVE_AND_PEACE_2
 62
     1
 10
156.712742596192
 20
173.2360543698153
 30
-0.0000000000000005
 11
155.6179805421063
 21
172.6950853276762
 31
-0.0000000000000005
  0
LINE
  5
4E3
  8
LOVE_AND_PEACE_2
 62
     1
 10
155.6179805421063
 20
172.6950853276762
 30
-0.0000000000000005
 11
154.9765711311795
 21
172.5212024212744
 31
-0.0000000000000005
  0
LINE
  5
4E4
  8
LOVE_AND_PEACE_2
 62
     1
 10
154.9765711311795
 20
172.5212024212744
 30
-0.0000000000000005
 11
154.2908684034836
 21
172.4632414524737
 31
-0.0000000000000005
  0
LINE
  5
4E5
  8
LOVE_AND_PEACE_2
 62
     1
 10
154.2908684034836
 20
172.4632414524737
 30
-0.0000000000000005
 11
153.5275890952751
 21
172.6070049034727
 31
-0.0000000000000005
  0
LINE
  5
4E6
  8
LOVE_AND_PEACE_2
 62
     1
 10
153.5275890952751
 20
172.6070049034727
 30
-0.0000000000000005
 11
152.81957097275
 21
173.0603997307427
 31
-0.0000000000000005
  0
LINE
  5
4E7
  8
LOVE_AND_PEACE_2
 62
     1
 10
152.81957097275
 20
173.0603997307427
 30
-0.0000000000000005
 11
152.288557380856
 21
173.8234259342839
 31
-0.0000000000000005
  0
LINE
  5
4E8
  8
LOVE_AND_PEACE_2
 62
     1
 10
152.288557380856
 20
173.8234259342839
 30
-0.0000000000000005
 11
152.1309364493251
 21
174.3238138614404
 31
-0.0000000000000005
  0
LINE
  5
4E9
  8
LOVE_AND_PEACE_2
 62
     1
 10
152.1309364493251
 20
174.3238138614404
 30
-0.0000000000000005
 11
152.0783961388148
 21
174.9181879883696
 31
-0.0000000000000005
  0
LINE
  5
4EA
  8
LOVE_AND_PEACE_2
 62
     1
 10
152.0783961388148
 20
174.9181879883696
 30
-0.0000000000000005
 11
152.1807347926068
 21
175.9771146399836
 31
-0.0000000000000005
  0
LINE
  5
4EB
  8
LOVE_AND_PEACE_2
 62
     1
 10
152.1807347926068
 20
175.9771146399836
 30
-0.0000000000000005
 11
152.4877507539831
 21
177.1631420186691
 31
-0.0000000000000005
  0
LINE
  5
4EC
  8
LOVE_AND_PEACE_2
 62
     1
 10
152.4877507539831
 20
177.1631420186691
 30
-0.0000000000000005
 11
152.9800604238431
 21
178.3767999901962
 31
-0.0000000000000005
  0
LINE
  5
4ED
  8
LOVE_AND_PEACE_2
 62
     1
 10
152.9800604238431
 20
178.3767999901962
 30
-0.0000000000000005
 11
153.6382802030865
 21
179.5186184203351
 31
-0.0000000000000005
  0
LINE
  5
4EE
  8
LOVE_AND_PEACE_2
 62
     1
 10
153.6382802030865
 20
179.5186184203351
 30
-0.0000000000000005
 11
154.4485104270702
 21
180.5360359065198
 31
-0.0000000000000005
  0
LINE
  5
4EF
  8
LOVE_AND_PEACE_2
 62
     1
 10
154.4485104270702
 20
180.5360359065198
 30
-0.0000000000000005
 11
155.3968514311508
 21
181.3764910461844
 31
-0.0000000000000005
  0
LINE
  5
4F0
  8
LOVE_AND_PEACE_2
 62
     1
 10
155.3968514311508
 20
181.3764910461844
 30
-0.0000000000000005
 11
156.4584778658821
 21
181.9404715209878
 31
-0.0000000000000005
  0
LINE
  5
4F1
  8
LOVE_AND_PEACE_2
 62
     1
 10
156.4584778658821
 20
181.9404715209878
 30
-0.0000000000000005
 11
157.6085643818179
 21
182.1284650125889
 31
-0.0000000000000005
  0
LINE
  5
4F2
  8
LOVE_AND_PEACE_2
 62
     1
 10
157.6085643818179
 20
182.1284650125889
 30
-0.0000000000000005
 11
158.4268517710424
 21
181.9960069033939
 31
-0.0000000000000005
  0
LINE
  5
4F3
  8
LOVE_AND_PEACE_2
 62
     1
 10
158.4268517710424
 20
181.9960069033939
 30
-0.0000000000000005
 11
158.9576966264914
 21
181.675913867543
 31
-0.0000000000000005
  0
LINE
  5
4F4
  8
LOVE_AND_PEACE_2
 62
     1
 10
158.9576966264914
 20
181.675913867543
 30
-0.0000000000000005
 11
159.2451391602668
 21
181.278539539958
 31
-0.0000000000000005
  0
LINE
  5
4F5
  8
LOVE_AND_PEACE_2
 62
     1
 10
159.2451391602668
 20
181.278539539958
 30
-0.0000000000000005
 11
159.3335570573601
 21
180.9142375555605
 31
-0.0000000000000005
  0
LINE
  5
4F6
  8
LOVE_AND_PEACE_2
 62
     1
 10
159.3335570573601
 20
180.9142375555605
 30
-0.0000000000000005
 11
159.2506230947239
 21
180.4368610610683
 31
-0.0000000000000005
  0
LINE
  5
4F7
  8
LOVE_AND_PEACE_2
 62
     1
 10
159.2506230947239
 20
180.4368610610683
 30
-0.0000000000000005
 11
159.0018212068156
 21
180.0201875026054
 31
-0.0000000000000005
  0
LINE
  5
4F8
  8
LOVE_AND_PEACE_2
 62
     1
 10
159.0018212068156
 20
180.0201875026054
 30
-0.0000000000000005
 11
158.6700853562711
 21
179.7304459347691
 31
-0.0000000000000005
  0
LINE
  5
4F9
  8
LOVE_AND_PEACE_2
 62
     1
 10
158.6700853562711
 20
179.7304459347691
 30
-0.0000000000000005
 11
158.3383495057267
 21
179.633865412157
 31
-0.0000000000000005
  0
LINE
  5
4FA
  8
LOVE_AND_PEACE_2
 62
     1
 10
158.3383495057267
 20
179.633865412157
 30
-0.0000000000000005
 11
157.7633378858422
 21
179.7766586285981
 31
-0.0000000000000005
  0
LINE
  5
4FB
  8
LOVE_AND_PEACE_2
 62
     1
 10
157.7633378858422
 20
179.7766586285981
 30
-0.0000000000000005
 11
157.4536643254598
 21
180.2050382779215
 31
-0.0000000000000005
  0
LINE
  5
4FC
  8
LOVE_AND_PEACE_2
 62
     1
 10
157.4536643254598
 20
180.2050382779215
 30
-0.0000000000000005
 11
157.1993785030944
 21
180.6994360612863
 31
-0.0000000000000005
  0
LINE
  5
4FD
  8
LOVE_AND_PEACE_2
 62
     1
 10
157.1993785030944
 20
180.6994360612863
 30
-0.0000000000000005
 11
157.0030958336408
 21
180.8559812979814
 31
-0.0000000000000005
  0
LINE
  5
4FE
  8
LOVE_AND_PEACE_2
 62
     1
 10
157.0030958336408
 20
180.8559812979814
 30
-0.0000000000000005
 11
156.7459836758243
 21
180.9081630435464
 31
-0.0000000000000005
  0
LINE
  5
4FF
  8
LOVE_AND_PEACE_2
 62
     1
 10
156.7459836758243
 20
180.9081630435464
 30
-0.0000000000000005
 11
156.4584778658821
 21
180.8114137844895
 31
-0.0000000000000005
  0
LINE
  5
500
  8
LOVE_AND_PEACE_2
 62
     1
 10
156.4584778658821
 20
180.8114137844895
 30
-0.0000000000000005
 11
156.2152231885977
 21
180.5211660073188
 31
-0.0000000000000005
  0
LINE
  5
501
  8
LOVE_AND_PEACE_2
 62
     1
 10
156.2152231885977
 20
180.5211660073188
 30
-0.0000000000000005
 11
155.684462701371
 21
179.4266570579003
 31
-0.0000000000000005
  0
LINE
  5
502
  8
LOVE_AND_PEACE_2
 62
     1
 10
155.684462701371
 20
179.4266570579003
 30
-0.0000000000000005
 11
155.3194857711942
 21
178.486879428395
 31
-0.0000000000000005
  0
LINE
  5
503
  8
LOVE_AND_PEACE_2
 62
     1
 10
155.3194857711942
 20
178.486879428395
 30
-0.0000000000000005
 11
155.043011106333
 21
177.602362984573
 31
-0.0000000000000005
  0
LINE
  5
504
  8
LOVE_AND_PEACE_2
 62
     1
 10
155.043011106333
 20
177.602362984573
 30
-0.0000000000000005
 11
154.8660909439241
 21
176.6073241693845
 31
-0.0000000000000005
  0
LINE
  5
505
  8
LOVE_AND_PEACE_2
 62
     1
 10
154.8660909439241
 20
176.6073241693845
 30
-0.0000000000000005
 11
154.7997775211042
 21
175.3358106893348
 31
-0.0000000000000005
  0
LINE
  5
506
  8
LOVE_AND_PEACE_2
 62
     1
 10
154.7997775211042
 20
175.3358106893348
 30
-0.0000000000000005
 11
154.9435409721031
 21
174.3849808226929
 31
-0.0000000000000005
  0
LINE
  5
507
  8
LOVE_AND_PEACE_2
 62
     1
 10
154.9435409721031
 20
174.3849808226929
 30
-0.0000000000000005
 11
155.1895587086717
 21
174.0532871562596
 31
-0.0000000000000005
  0
LINE
  5
508
  8
LOVE_AND_PEACE_2
 62
     1
 10
155.1895587086717
 20
174.0532871562596
 30
-0.0000000000000005
 11
155.6400850163796
 21
173.9427226007819
 31
-0.0000000000000005
  0
LINE
  5
509
  8
LOVE_AND_PEACE_2
 62
     1
 10
155.6400850163796
 20
173.9427226007819
 30
-0.0000000000000005
 11
156.1571145754078
 21
174.0118412669972
 31
-0.0000000000000005
  0
LINE
  5
50A
  8
LOVE_AND_PEACE_2
 62
     1
 10
156.1571145754078
 20
174.0118412669972
 30
-0.0000000000000005
 11
156.690722490141
 21
174.2191972656431
 31
-0.0000000000000005
  0
LINE
  5
50B
  8
LOVE_AND_PEACE_2
 62
     1
 10
156.690722490141
 20
174.2191972656431
 30
-0.0000000000000005
 11
157.4536643254598
 21
174.7389898839555
 31
-0.0000000000000005
  0
LINE
  5
50C
  8
LOVE_AND_PEACE_2
 62
     1
 10
157.4536643254598
 20
174.7389898839555
 30
-0.0000000000000005
 11
157.6527733303645
 21
174.8274077810487
 31
-0.0000000000000005
  0
LINE
  5
50D
  8
LOVE_AND_PEACE_2
 62
     1
 10
157.6527733303645
 20
174.8274077810487
 30
-0.0000000000000005
 11
157.918195758089
 21
174.6061943018708
 31
-0.0000000000000005
  0
LINE
  5
50E
  8
LOVE_AND_PEACE_2
 62
     1
 10
166.1705890656057
 20
174.8942274132031
 30
-0.0000000000000005
 11
166.2147980141523
 21
174.6730139340252
 31
-0.0000000000000005
  0
LINE
  5
50F
  8
LOVE_AND_PEACE_2
 62
     1
 10
166.2147980141523
 20
174.6730139340252
 30
-0.0000000000000005
 11
165.6839531587032
 21
173.9876064951079
 31
-0.0000000000000005
  0
LINE
  5
510
  8
LOVE_AND_PEACE_2
 62
     1
 10
165.6839531587032
 20
173.9876064951079
 30
-0.0000000000000005
 11
164.7661112670264
 21
173.2694641858926
 31
-0.0000000000000005
  0
LINE
  5
511
  8
LOVE_AND_PEACE_2
 62
     1
 10
164.7661112670264
 20
173.2694641858926
 30
-0.0000000000000005
 11
163.5165335248052
 21
172.6951696958986
 31
-0.0000000000000005
  0
LINE
  5
512
  8
LOVE_AND_PEACE_2
 62
     1
 10
163.5165335248052
 20
172.6951696958986
 30
-0.0000000000000005
 11
162.7815597552177
 21
172.52122351333
 31
-0.0000000000000005
  0
LINE
  5
513
  8
LOVE_AND_PEACE_2
 62
     1
 10
162.7815597552177
 20
172.52122351333
 30
-0.0000000000000005
 11
161.9919997457262
 21
172.4632414524737
 31
-0.0000000000000005
  0
LINE
  5
514
  8
LOVE_AND_PEACE_2
 62
     1
 10
161.9919997457262
 20
172.4632414524737
 30
-0.0000000000000005
 11
160.9619692102902
 21
172.6234145227328
 31
-0.0000000000000005
  0
LINE
  5
515
  8
LOVE_AND_PEACE_2
 62
     1
 10
160.9619692102902
 20
172.6234145227328
 30
-0.0000000000000005
 11
160.1312586003148
 21
173.10393373351
 31
-0.0000000000000005
  0
LINE
  5
516
  8
LOVE_AND_PEACE_2
 62
     1
 10
160.1312586003148
 20
173.10393373351
 30
-0.0000000000000005
 11
159.811423942145
 21
173.4587970230246
 31
-0.0000000000000005
  0
LINE
  5
517
  8
LOVE_AND_PEACE_2
 62
     1
 10
159.811423942145
 20
173.4587970230246
 30
-0.0000000000000005
 11
159.5829706148809
 21
173.882694610532
 31
-0.0000000000000005
  0
LINE
  5
518
  8
LOVE_AND_PEACE_2
 62
     1
 10
159.5829706148809
 20
173.882694610532
 30
-0.0000000000000005
 11
159.4002079530696
 21
174.9375926795256
 31
-0.0000000000000005
  0
LINE
  5
519
  8
LOVE_AND_PEACE_2
 62
     1
 10
159.4002079530696
 20
174.9375926795256
 30
-0.0000000000000005
 11
159.544055772291
 21
176.274154059059
 31
-0.0000000000000005
  0
LINE
  5
51A
  8
LOVE_AND_PEACE_2
 62
     1
 10
159.544055772291
 20
176.274154059059
 30
-0.0000000000000005
 11
159.9977880724507
 21
177.7433422842322
 31
-0.0000000000000005
  0
LINE
  5
51B
  8
LOVE_AND_PEACE_2
 62
     1
 10
159.9977880724507
 20
177.7433422842322
 30
-0.0000000000000005
 11
160.8278026445912
 21
179.2235827465421
 31
-0.0000000000000005
  0
LINE
  5
51C
  8
LOVE_AND_PEACE_2
 62
     1
 10
160.8278026445912
 20
179.2235827465421
 30
-0.0000000000000005
 11
161.4005152304148
 21
179.9249990556631
 31
-0.0000000000000005
  0
LINE
  5
51D
  8
LOVE_AND_PEACE_2
 62
     1
 10
161.4005152304148
 20
179.9249990556631
 30
-0.0000000000000005
 11
162.0783928054815
 21
180.5711963632121
 31
-0.0000000000000005
  0
LINE
  5
51E
  8
LOVE_AND_PEACE_2
 62
     1
 10
162.0783928054815
 20
180.5711963632121
 30
-0.0000000000000005
 11
162.9275167799994
 21
181.2063836177357
 31
-0.0000000000000005
  0
LINE
  5
51F
  8
LOVE_AND_PEACE_2
 62
     1
 10
162.9275167799994
 20
181.2063836177357
 30
-0.0000000000000005
 11
163.8374702428802
 21
181.6979339735939
 31
-0.0000000000000005
  0
LINE
  5
520
  8
LOVE_AND_PEACE_2
 62
     1
 10
163.8374702428802
 20
181.6979339735939
 30
-0.0000000000000005
 11
164.7916748384188
 21
182.0127329034881
 31
-0.0000000000000005
  0
LINE
  5
521
  8
LOVE_AND_PEACE_2
 62
     1
 10
164.7916748384188
 20
182.0127329034881
 30
-0.0000000000000005
 11
165.7735522109103
 21
182.1176658801195
 31
-0.0000000000000005
  0
LINE
  5
522
  8
LOVE_AND_PEACE_2
 62
     1
 10
165.7735522109103
 20
182.1176658801195
 30
-0.0000000000000005
 11
166.5701780590291
 21
182.0072067849198
 31
-0.0000000000000005
  0
LINE
  5
523
  8
LOVE_AND_PEACE_2
 62
     1
 10
166.5701780590291
 20
182.0072067849198
 30
-0.0000000000000005
 11
167.1012549270899
 21
181.6758294993206
 31
-0.0000000000000005
  0
LINE
  5
524
  8
LOVE_AND_PEACE_2
 62
     1
 10
167.1012549270899
 20
181.6758294993206
 30
-0.0000000000000005
 11
167.3999817106136
 21
181.1842791434624
 31
-0.0000000000000005
  0
LINE
  5
525
  8
LOVE_AND_PEACE_2
 62
     1
 10
167.3999817106136
 20
181.1842791434624
 30
-0.0000000000000005
 11
167.4995573051215
 21
180.5933008374855
 31
-0.0000000000000005
  0
LINE
  5
526
  8
LOVE_AND_PEACE_2
 62
     1
 10
167.4995573051215
 20
180.5933008374855
 30
-0.0000000000000005
 11
167.3695669664322
 21
179.7232957279192
 31
-0.0000000000000005
  0
LINE
  5
527
  8
LOVE_AND_PEACE_2
 62
     1
 10
167.3695669664322
 20
179.7232957279192
 30
-0.0000000000000005
 11
166.9795959503643
 21
178.969381292399
 31
-0.0000000000000005
  0
LINE
  5
528
  8
LOVE_AND_PEACE_2
 62
     1
 10
166.9795959503643
 20
178.969381292399
 30
-0.0000000000000005
 11
166.3462647967339
 21
178.3093686884292
 31
-0.0000000000000005
  0
LINE
  5
529
  8
LOVE_AND_PEACE_2
 62
     1
 10
166.3462647967339
 20
178.3093686884292
 30
-0.0000000000000005
 11
165.4861940453573
 21
177.7210690735141
 31
-0.0000000000000005
  0
LINE
  5
52A
  8
LOVE_AND_PEACE_2
 62
     1
 10
165.4861940453573
 20
177.7210690735141
 30
-0.0000000000000005
 11
164.5790880099831
 21
177.2875429626232
 31
-0.0000000000000005
  0
LINE
  5
52B
  8
LOVE_AND_PEACE_2
 62
     1
 10
164.5790880099831
 20
177.2875429626232
 30
-0.0000000000000005
 11
163.7162331072667
 21
177.0030955007437
 31
-0.0000000000000005
  0
LINE
  5
52C
  8
LOVE_AND_PEACE_2
 62
     1
 10
163.7162331072667
 20
177.0030955007437
 30
-0.0000000000000005
 11
162.233799071174
 21
176.748978414823
 31
-0.0000000000000005
  0
LINE
  5
52D
  8
LOVE_AND_PEACE_2
 62
     1
 10
162.233799071174
 20
176.748978414823
 30
-0.0000000000000005
 11
162.1121400944483
 21
176.2077562680166
 31
-0.0000000000000005
  0
LINE
  5
52E
  8
LOVE_AND_PEACE_2
 62
     1
 10
162.1121400944483
 20
176.2077562680166
 30
-0.0000000000000005
 11
162.0567945405427
 21
175.3572402178288
 31
-0.0000000000000005
  0
LINE
  5
52F
  8
LOVE_AND_PEACE_2
 62
     1
 10
162.0567945405427
 20
175.3572402178288
 30
-0.0000000000000005
 11
162.1342023846105
 21
174.8186334859173
 31
-0.0000000000000005
  0
LINE
  5
530
  8
LOVE_AND_PEACE_2
 62
     1
 10
162.1342023846105
 20
174.8186334859173
 30
-0.0000000000000005
 11
162.3664259168138
 21
174.3519084795053
 31
-0.0000000000000005
  0
LINE
  5
531
  8
LOVE_AND_PEACE_2
 62
     1
 10
162.3664259168138
 20
174.3519084795053
 30
-0.0000000000000005
 11
162.7424129000161
 21
174.0288203717587
 31
-0.0000000000000005
  0
LINE
  5
532
  8
LOVE_AND_PEACE_2
 62
     1
 10
162.7424129000161
 20
174.0288203717587
 30
-0.0000000000000005
 11
163.2511110970806
 21
173.9211243358431
 31
-0.0000000000000005
  0
LINE
  5
533
  8
LOVE_AND_PEACE_2
 62
     1
 10
163.2511110970806
 20
173.9211243358431
 30
-0.0000000000000005
 11
164.014179484733
 21
174.0123474763317
 31
-0.0000000000000005
  0
LINE
  5
534
  8
LOVE_AND_PEACE_2
 62
     1
 10
164.014179484733
 20
174.0123474763317
 30
-0.0000000000000005
 11
164.6666411327965
 21
174.2860168977975
 31
-0.0000000000000005
  0
LINE
  5
535
  8
LOVE_AND_PEACE_2
 62
     1
 10
164.6666411327965
 20
174.2860168977975
 30
-0.0000000000000005
 11
165.6397442101566
 21
175.0712319438344
 31
-0.0000000000000005
  0
LINE
  5
536
  8
LOVE_AND_PEACE_2
 62
     1
 10
165.6397442101566
 20
175.0712319438344
 30
-0.0000000000000005
 11
165.8167487407879
 21
175.1375453666544
 31
-0.0000000000000005
  0
LINE
  5
537
  8
LOVE_AND_PEACE_2
 62
     1
 10
165.8167487407879
 20
175.1375453666544
 30
-0.0000000000000005
 11
166.1705890656057
 21
174.8942274132031
 31
-0.0000000000000005
  0
LINE
  5
538
  8
LOVE_AND_PEACE_2
 62
     1
 10
162.4143470671468
 20
177.5660002807113
 30
-0.0000000000000005
 11
163.3211367216869
 21
177.7650249173934
 31
-0.0000000000000005
  0
LINE
  5
539
  8
LOVE_AND_PEACE_2
 62
     1
 10
163.3211367216869
 20
177.7650249173934
 30
-0.0000000000000005
 11
163.907200578708
 21
178.0470046087673
 31
-0.0000000000000005
  0
LINE
  5
53A
  8
LOVE_AND_PEACE_2
 62
     1
 10
163.907200578708
 20
178.0470046087673
 30
-0.0000000000000005
 11
164.4268666446868
 21
178.4506854609781
 31
-0.0000000000000005
  0
LINE
  5
53B
  8
LOVE_AND_PEACE_2
 62
     1
 10
164.4268666446868
 20
178.4506854609781
 30
-0.0000000000000005
 11
164.9134181833668
 21
179.2026594273826
 31
-0.0000000000000005
  0
LINE
  5
53C
  8
LOVE_AND_PEACE_2
 62
     1
 10
164.9134181833668
 20
179.2026594273826
 30
-0.0000000000000005
 11
165.0792650165835
 21
179.7223887695282
 31
-0.0000000000000005
  0
LINE
  5
53D
  8
LOVE_AND_PEACE_2
 62
     1
 10
165.0792650165835
 20
179.7223887695282
 30
-0.0000000000000005
 11
165.1345472943223
 21
180.2642647700583
 31
-0.0000000000000005
  0
LINE
  5
53E
  8
LOVE_AND_PEACE_2
 62
     1
 10
165.1345472943223
 20
180.2642647700583
 30
-0.0000000000000005
 11
165.0240249229558
 21
180.7729207830117
 31
-0.0000000000000005
  0
LINE
  5
53F
  8
LOVE_AND_PEACE_2
 62
     1
 10
165.0240249229558
 20
180.7729207830117
 30
-0.0000000000000005
 11
164.8471469446581
 21
180.9553459719333
 31
-0.0000000000000005
  0
LINE
  5
540
  8
LOVE_AND_PEACE_2
 62
     1
 10
164.8471469446581
 20
180.9553459719333
 30
-0.0000000000000005
 11
164.5375577524982
 21
181.0161543682405
 31
-0.0000000000000005
  0
LINE
  5
541
  8
LOVE_AND_PEACE_2
 62
     1
 10
164.5375577524982
 20
181.0161543682405
 30
-0.0000000000000005
 11
164.2222737053251
 21
180.9332204056044
 31
-0.0000000000000005
  0
LINE
  5
542
  8
LOVE_AND_PEACE_2
 62
     1
 10
164.2222737053251
 20
180.9332204056044
 30
-0.0000000000000005
 11
163.8960217892377
 21
180.684418517696
 31
-0.0000000000000005
  0
LINE
  5
543
  8
LOVE_AND_PEACE_2
 62
     1
 10
163.8960217892377
 20
180.684418517696
 30
-0.0000000000000005
 11
163.2767590366954
 21
179.8329744170616
 31
-0.0000000000000005
  0
LINE
  5
544
  8
LOVE_AND_PEACE_2
 62
     1
 10
163.2767590366954
 20
179.8329744170616
 30
-0.0000000000000005
 11
162.7681030237421
 21
178.7050556515659
 31
-0.0000000000000005
  0
LINE
  5
545
  8
LOVE_AND_PEACE_2
 62
     1
 10
162.7681030237421
 20
178.7050556515659
 30
-0.0000000000000005
 11
162.4143470671468
 21
177.5660002807113
 31
-0.0000000000000005
  0
POLYLINE
  5
546
  8
GROUP_1
 66
     1
 10
0.0
 20
0.0
 30
0.0
  0
VERTEX
  5
8F1
  8
GROUP_1
 10
158.4178223749738
 20
234.2898046855116
 30
0.0
  0
VERTEX
  5
8F2
  8
GROUP_1
 10
162.4178223749738
 20
234.2898046855116
 30
0.0
  0
VERTEX
  5
8F3
  8
GROUP_1
 10
238.5
 20
234.2898046855116
 30
0.0
  0
VERTEX
  5
8F4
  8
GROUP_1
 10
238.5
 20
229.2898046855116
 30
0.0
  0
VERTEX
  5
8F5
  8
GROUP_1
 10
233.5000000000001
 20
229.2898046855116
 30
0.0
  0
VERTEX
  5
8F6
  8
GROUP_1
 10
233.5000000000001
 20
219.2898046855117
 30
0.0
  0
VERTEX
  5
8F7
  8
GROUP_1
 10
238.5
 20
219.2898046855117
 30
0.0
  0
VERTEX
  5
8F8
  8
GROUP_1
 10
238.5
 20
214.2898046855116
 30
0.0
  0
VERTEX
  5
8F9
  8
GROUP_1
 10
223.5
 20
214.2898046855116
 30
0.0
  0
VERTEX
  5
8FA
  8
GROUP_1
 10
223.5
 20
217.2898046855116
 30
0.0
  0
VERTEX
  5
8FB
  8
GROUP_1
 10
208.0
 20
217.2898046855116
 30
0.0
  0
VERTEX
  5
8FC
  8
GROUP_1
 10
208.0
 20
214.2898046855116
 30
0.0
  0
VERTEX
  5
8FD
  8
GROUP_1
 10
193.0
 20
214.2898046855116
 30
0.0
  0
VERTEX
  5
8FE
  8
GROUP_1
 10
193.0
 20
217.2898046855116
 30
0.0
  0
VERTEX
  5
8FF
  8
GROUP_1
 10
178.0
 20
217.2898046855116
 30
0.0
  0
VERTEX
  5
900
  8
GROUP_1
 10
178.0
 20
214.2898046855116
 30
0.0
  0
VERTEX
  5
901
  8
GROUP_1
 10
162.4178223749738
 20
214.2898046855116
 30
0.0
  0
VERTEX
  5
902
  8
GROUP_1
 10
158.4178223749738
 20
214.2898046855116
 30
0.0
  0
VERTEX
  5
903
  8
GROUP_1
 10
154.4178223749738
 20
214.2898046855116
 30
0.0
  0
VERTEX
  5
904
  8
GROUP_1
 10
150.4178223749738
 20
214.2898046855116
 30
0.0
  0
VERTEX
  5
905
  8
GROUP_1
 10
146.4178223749738
 20
214.2898046855116
 30
0.0
  0
VERTEX
  5
906
  8
GROUP_1
 10
142.4178223749738
 20
214.2898046855116
 30
0.0
  0
VERTEX
  5
907
  8
GROUP_1
 10
138.4178223749738
 20
214.2898046855116
 30
0.0
  0
VERTEX
  5
908
  8
GROUP_1
 10
134.4178223749737
 20
214.2898046855116
 30
0.0
  0
VERTEX
  5
909
  8
GROUP_1
 10
130.4178223749738
 20
214.2898046855116
 30
0.0
  0
VERTEX
  5
90A
  8
GROUP_1
 10
126.4178223749738
 20
214.2898046855116
 30
0.0
  0
VERTEX
  5
90B
  8
GROUP_1
 10
122.4178223749737
 20
214.2898046855116
 30
0.0
  0
VERTEX
  5
90C
  8
GROUP_1
 10
118.4178223749737
 20
214.2898046855116
 30
0.0
  0
VERTEX
  5
90D
  8
GROUP_1
 10
114.4178223749737
 20
214.2898046855116
 30
0.0
  0
VERTEX
  5
90E
  8
GROUP_1
 10
110.4178223749737
 20
214.2898046855116
 30
0.0
  0
VERTEX
  5
90F
  8
GROUP_1
 10
106.4178223749737
 20
214.2898046855116
 30
0.0
  0
VERTEX
  5
910
  8
GROUP_1
 10
102.4178223749737
 20
214.2898046855116
 30
0.0
  0
VERTEX
  5
911
  8
GROUP_1
 10
98.41782237497372
 20
214.2898046855116
 30
0.0
  0
VERTEX
  5
912
  8
GROUP_1
 10
94.41782237497372
 20
214.2898046855116
 30
0.0
  0
VERTEX
  5
913
  8
GROUP_1
 10
90.41782237497371
 20
214.2898046855116
 30
0.0
  0
VERTEX
  5
914
  8
GROUP_1
 10
86.41782237497371
 20
214.2898046855116
 30
0.0
  0
VERTEX
  5
915
  8
GROUP_1
 10
82.41782237497371
 20
214.2898046855116
 30
0.0
  0
VERTEX
  5
916
  8
GROUP_1
 10
78.41782237497371
 20
214.2898046855116
 30
0.0
  0
VERTEX
  5
917
  8
GROUP_1
 10
74.4178223749737
 20
214.2898046855116
 30
0.0
  0
VERTEX
  5
918
  8
GROUP_1
 10
59.4178223749737
 20
214.2898046855116
 30
0.0
  0
VERTEX
  5
919
  8
GROUP_1
 10
59.4178223749737
 20
217.2898046855116
 30
0.0
  0
VERTEX
  5
91A
  8
GROUP_1
 10
44.41782237497371
 20
217.2898046855116
 30
0.0
  0
VERTEX
  5
91B
  8
GROUP_1
 10
44.41782237497371
 20
214.2898046855116
 30
0.0
  0
VERTEX
  5
91C
  8
GROUP_1
 10
29.4178223749737
 20
214.2898046855116
 30
0.0
  0
VERTEX
  5
91D
  8
GROUP_1
 10
29.4178223749737
 20
217.2898046855116
 30
0.0
  0
VERTEX
  5
91E
  8
GROUP_1
 10
14.4178223749737
 20
217.2898046855116
 30
0.0
  0
VERTEX
  5
91F
  8
GROUP_1
 10
14.4178223749737
 20
214.2898046855116
 30
0.0
  0
VERTEX
  5
920
  8
GROUP_1
 10
-0.4999999999999885
 20
214.2898046855116
 30
0.0
  0
VERTEX
  5
921
  8
GROUP_1
 10
-0.4999999999999885
 20
219.2898046855117
 30
0.0
  0
VERTEX
  5
922
  8
GROUP_1
 10
-5.499999999999981
 20
219.2898046855117
 30
0.0
  0
VERTEX
  5
923
  8
GROUP_1
 10
-5.499999999999981
 20
229.2898046855116
 30
0.0
  0
VERTEX
  5
924
  8
GROUP_1
 10
-0.4999999999999885
 20
229.2898046855116
 30
0.0
  0
VERTEX
  5
925
  8
GROUP_1
 10
-0.4999999999999885
 20
234.2898046855116
 30
0.0
  0
VERTEX
  5
926
  8
GROUP_1
 10
74.4178223749737
 20
234.2898046855116
 30
0.0
  0
VERTEX
  5
927
  8
GROUP_1
 10
78.41782237497371
 20
234.2898046855116
 30
0.0
  0
VERTEX
  5
928
  8
GROUP_1
 10
82.41782237497371
 20
234.2898046855116
 30
0.0
  0
VERTEX
  5
929
  8
GROUP_1
 10
86.41782237497371
 20
234.2898046855116
 30
0.0
  0
VERTEX
  5
92A
  8
GROUP_1
 10
90.41782237497371
 20
234.2898046855116
 30
0.0
  0
VERTEX
  5
92B
  8
GROUP_1
 10
94.41782237497372
 20
234.2898046855116
 30
0.0
  0
VERTEX
  5
92C
  8
GROUP_1
 10
98.41782237497372
 20
234.2898046855116
 30
0.0
  0
VERTEX
  5
92D
  8
GROUP_1
 10
102.4178223749737
 20
234.2898046855116
 30
0.0
  0
VERTEX
  5
92E
  8
GROUP_1
 10
106.4178223749737
 20
234.2898046855116
 30
0.0
  0
VERTEX
  5
92F
  8
GROUP_1
 10
110.4178223749737
 20
234.2898046855116
 30
0.0
  0
VERTEX
  5
930
  8
GROUP_1
 10
114.4178223749737
 20
234.2898046855116
 30
0.0
  0
VERTEX
  5
931
  8
GROUP_1
 10
118.4178223749737
 20
234.2898046855116
 30
0.0
  0
VERTEX
  5
932
  8
GROUP_1
 10
122.4178223749737
 20
234.2898046855116
 30
0.0
  0
VERTEX
  5
933
  8
GROUP_1
 10
126.4178223749738
 20
234.2898046855116
 30
0.0
  0
VERTEX
  5
934
  8
GROUP_1
 10
130.4178223749738
 20
234.2898046855116
 30
0.0
  0
VERTEX
  5
935
  8
GROUP_1
 10
134.4178223749737
 20
234.2898046855116
 30
0.0
  0
VERTEX
  5
936
  8
GROUP_1
 10
138.4178223749738
 20
234.2898046855116
 30
0.0
  0
VERTEX
  5
937
  8
GROUP_1
 10
142.4178223749738
 20
234.2898046855116
 30
0.0
  0
VERTEX
  5
938
  8
GROUP_1
 10
146.4178223749738
 20
234.2898046855116
 30
0.0
  0
VERTEX
  5
939
  8
GROUP_1
 10
150.4178223749738
 20
234.2898046855116
 30
0.0
  0
VERTEX
  5
93A
  8
GROUP_1
 10
154.4178223749738
 20
234.2898046855116
 30
0.0
  0
VERTEX
  5
93B
  8
GROUP_1
 10
158.4178223749738
 20
234.2898046855116
 30
0.0
  0
SEQEND
  5
98B
  8
GROUP_1
  0
LINE
  5
593
  8
GROUP_1
 10
126.4178223749738
 20
234.2898046855116
 30
0.0
 11
126.4178223749738
 21
226.7898046855116
 31
0.0
  0
LINE
  5
594
  8
GROUP_1
 10
92.41782237497371
 20
229.2898046855116
 30
0.0
 11
92.41782237497371
 21
219.2898046855117
 31
0.0
  0
LINE
  5
595
  8
GROUP_1
 10
126.4178223749738
 20
214.2898046855116
 30
0.0
 11
126.4178223749738
 21
221.7898046855116
 31
0.0
  0
LINE
  5
596
  8
GROUP_1
 10
96.41782237497372
 20
229.2898046855116
 30
0.0
 11
96.41782237497372
 21
219.2898046855117
 31
0.0
  0
LINE
  5
597
  8
GROUP_1
 10
128.4178223749738
 20
229.2898046855116
 30
0.0
 11
128.4178223749738
 21
219.2898046855117
 31
0.0
  0
LINE
  5
598
  8
GROUP_1
 10
100.4178223749737
 20
229.2898046855116
 30
0.0
 11
100.4178223749737
 21
219.2898046855117
 31
0.0
  0
LINE
  5
599
  8
GROUP_1
 10
160.4178223749738
 20
229.2898046855116
 30
0.0
 11
160.4178223749738
 21
219.2898046855117
 31
0.0
  0
LINE
  5
59A
  8
GROUP_1
 10
156.4178223749738
 20
229.2898046855116
 30
0.0
 11
156.4178223749738
 21
219.2898046855117
 31
0.0
  0
LINE
  5
59B
  8
GROUP_1
 10
154.4178223749738
 20
214.2898046855116
 30
0.0
 11
154.4178223749738
 21
221.7898046855116
 31
0.0
  0
LINE
  5
59C
  8
GROUP_1
 10
80.4178223749737
 20
229.2898046855116
 30
0.0
 11
80.4178223749737
 21
219.2898046855117
 31
0.0
  0
LINE
  5
59D
  8
GROUP_1
 10
148.4178223749738
 20
229.2898046855116
 30
0.0
 11
148.4178223749738
 21
219.2898046855117
 31
0.0
  0
LINE
  5
59E
  8
GROUP_1
 10
108.4178223749737
 20
229.2898046855116
 30
0.0
 11
108.4178223749737
 21
219.2898046855117
 31
0.0
  0
LINE
  5
59F
  8
GROUP_1
 10
104.4178223749737
 20
229.2898046855116
 30
0.0
 11
104.4178223749737
 21
219.2898046855117
 31
0.0
  0
LINE
  5
5A0
  8
GROUP_1
 10
112.4178223749737
 20
229.2898046855116
 30
0.0
 11
112.4178223749737
 21
219.2898046855117
 31
0.0
  0
LINE
  5
5A1
  8
GROUP_1
 10
116.4178223749737
 20
229.2898046855116
 30
0.0
 11
116.4178223749737
 21
219.2898046855117
 31
0.0
  0
LINE
  5
5A2
  8
GROUP_1
 10
124.4178223749737
 20
229.2898046855116
 30
0.0
 11
124.4178223749737
 21
219.2898046855117
 31
0.0
  0
LINE
  5
5A3
  8
GROUP_1
 10
120.4178223749737
 20
229.2898046855116
 30
0.0
 11
120.4178223749737
 21
219.2898046855117
 31
0.0
  0
LINE
  5
5A4
  8
GROUP_1
 10
132.4178223749738
 20
229.2898046855116
 30
0.0
 11
132.4178223749738
 21
219.2898046855117
 31
0.0
  0
LINE
  5
5A5
  8
GROUP_1
 10
140.4178223749738
 20
229.2898046855116
 30
0.0
 11
140.4178223749738
 21
219.2898046855117
 31
0.0
  0
LINE
  5
5A6
  8
GROUP_1
 10
136.4178223749737
 20
229.2898046855116
 30
0.0
 11
136.4178223749737
 21
219.2898046855117
 31
0.0
  0
LINE
  5
5A7
  8
GROUP_1
 10
144.4178223749738
 20
229.2898046855116
 30
0.0
 11
144.4178223749738
 21
219.2898046855117
 31
0.0
  0
LINE
  5
5A8
  8
GROUP_1
 10
152.4178223749738
 20
229.2898046855116
 30
0.0
 11
152.4178223749738
 21
219.2898046855117
 31
0.0
  0
LINE
  5
5A9
  8
GROUP_1
 10
74.4178223749737
 20
214.2898046855116
 30
0.0
 11
74.4178223749737
 21
221.7898046855116
 31
0.0
  0
LINE
  5
5AA
  8
GROUP_1
 10
146.4178223749738
 20
234.2898046855116
 30
0.0
 11
146.4178223749738
 21
226.7898046855116
 31
0.0
  0
LINE
  5
5AB
  8
GROUP_1
 10
158.4178223749738
 20
214.2898046855116
 30
0.0
 11
158.4178223749738
 21
221.7898046855116
 31
0.0
  0
LINE
  5
5AC
  8
GROUP_1
 10
122.4178223749737
 20
234.2898046855116
 30
0.0
 11
122.4178223749737
 21
226.7898046855116
 31
0.0
  0
LINE
  5
5AD
  8
GROUP_1
 10
122.4178223749737
 20
214.2898046855116
 30
0.0
 11
122.4178223749737
 21
221.7898046855116
 31
0.0
  0
LINE
  5
5AE
  8
GROUP_1
 10
118.4178223749737
 20
234.2898046855116
 30
0.0
 11
118.4178223749737
 21
226.7898046855116
 31
0.0
  0
LINE
  5
5AF
  8
GROUP_1
 10
146.4178223749738
 20
214.2898046855116
 30
0.0
 11
146.4178223749738
 21
221.7898046855116
 31
0.0
  0
LINE
  5
5B0
  8
GROUP_1
 10
150.4178223749738
 20
214.2898046855116
 30
0.0
 11
150.4178223749738
 21
221.7898046855116
 31
0.0
  0
LINE
  5
5B1
  8
GROUP_1
 10
118.4178223749737
 20
214.2898046855116
 30
0.0
 11
118.4178223749737
 21
221.7898046855116
 31
0.0
  0
LINE
  5
5B2
  8
GROUP_1
 10
162.4178223749738
 20
214.2898046855116
 30
0.0
 11
162.4178223749738
 21
221.7898046855116
 31
0.0
  0
LINE
  5
5B3
  8
GROUP_1
 10
162.4178223749738
 20
234.2898046855116
 30
0.0
 11
162.4178223749738
 21
226.7898046855116
 31
0.0
  0
LINE
  5
5B4
  8
GROUP_1
 10
88.41782237497371
 20
229.2898046855116
 30
0.0
 11
88.41782237497371
 21
219.2898046855117
 31
0.0
  0
LINE
  5
5B5
  8
GROUP_1
 10
84.41782237497371
 20
229.2898046855116
 30
0.0
 11
84.41782237497371
 21
219.2898046855117
 31
0.0
  0
LINE
  5
5B6
  8
GROUP_1
 10
114.4178223749737
 20
234.2898046855116
 30
0.0
 11
114.4178223749737
 21
226.7898046855116
 31
0.0
  0
LINE
  5
5B7
  8
GROUP_1
 10
158.4178223749738
 20
234.2898046855116
 30
0.0
 11
158.4178223749738
 21
226.7898046855116
 31
0.0
  0
LINE
  5
5B8
  8
GROUP_1
 10
114.4178223749737
 20
214.2898046855116
 30
0.0
 11
114.4178223749737
 21
221.7898046855116
 31
0.0
  0
LINE
  5
5B9
  8
GROUP_1
 10
150.4178223749738
 20
234.2898046855116
 30
0.0
 11
150.4178223749738
 21
226.7898046855116
 31
0.0
  0
LINE
  5
5BA
  8
GROUP_1
 10
154.4178223749738
 20
234.2898046855116
 30
0.0
 11
154.4178223749738
 21
226.7898046855116
 31
0.0
  0
LINE
  5
5BB
  8
GROUP_1
 10
110.4178223749737
 20
234.2898046855116
 30
0.0
 11
110.4178223749737
 21
226.7898046855116
 31
0.0
  0
LINE
  5
5BC
  8
GROUP_1
 10
74.4178223749737
 20
234.2898046855116
 30
0.0
 11
74.4178223749737
 21
226.7898046855116
 31
0.0
  0
LINE
  5
5BD
  8
GROUP_1
 10
110.4178223749737
 20
214.2898046855116
 30
0.0
 11
110.4178223749737
 21
221.7898046855116
 31
0.0
  0
LINE
  5
5BE
  8
GROUP_1
 10
106.4178223749737
 20
234.2898046855116
 30
0.0
 11
106.4178223749737
 21
226.7898046855116
 31
0.0
  0
LINE
  5
5BF
  8
GROUP_1
 10
106.4178223749737
 20
214.2898046855116
 30
0.0
 11
106.4178223749737
 21
221.7898046855116
 31
0.0
  0
LINE
  5
5C0
  8
GROUP_1
 10
142.4178223749738
 20
234.2898046855116
 30
0.0
 11
142.4178223749738
 21
226.7898046855116
 31
0.0
  0
LINE
  5
5C1
  8
GROUP_1
 10
142.4178223749738
 20
214.2898046855116
 30
0.0
 11
142.4178223749738
 21
221.7898046855116
 31
0.0
  0
LINE
  5
5C2
  8
GROUP_1
 10
102.4178223749737
 20
234.2898046855116
 30
0.0
 11
102.4178223749737
 21
226.7898046855116
 31
0.0
  0
LINE
  5
5C3
  8
GROUP_1
 10
102.4178223749737
 20
214.2898046855116
 30
0.0
 11
102.4178223749737
 21
221.7898046855116
 31
0.0
  0
LINE
  5
5C4
  8
GROUP_1
 10
98.41782237497372
 20
234.2898046855116
 30
0.0
 11
98.41782237497372
 21
226.7898046855116
 31
0.0
  0
LINE
  5
5C5
  8
GROUP_1
 10
98.41782237497372
 20
214.2898046855116
 30
0.0
 11
98.41782237497372
 21
221.7898046855116
 31
0.0
  0
LINE
  5
5C6
  8
GROUP_1
 10
138.4178223749738
 20
234.2898046855116
 30
0.0
 11
138.4178223749738
 21
226.7898046855116
 31
0.0
  0
LINE
  5
5C7
  8
GROUP_1
 10
138.4178223749738
 20
214.2898046855116
 30
0.0
 11
138.4178223749738
 21
221.7898046855116
 31
0.0
  0
LINE
  5
5C8
  8
GROUP_1
 10
94.41782237497372
 20
234.2898046855116
 30
0.0
 11
94.41782237497372
 21
226.7898046855116
 31
0.0
  0
LINE
  5
5C9
  8
GROUP_1
 10
94.41782237497372
 20
214.2898046855116
 30
0.0
 11
94.41782237497372
 21
221.7898046855116
 31
0.0
  0
LINE
  5
5CA
  8
GROUP_1
 10
90.41782237497371
 20
234.2898046855116
 30
0.0
 11
90.41782237497371
 21
226.7898046855116
 31
0.0
  0
LINE
  5
5CB
  8
GROUP_1
 10
90.41782237497371
 20
214.2898046855116
 30
0.0
 11
90.41782237497371
 21
221.7898046855116
 31
0.0
  0
LINE
  5
5CC
  8
GROUP_1
 10
134.4178223749737
 20
234.2898046855116
 30
0.0
 11
134.4178223749737
 21
226.7898046855116
 31
0.0
  0
LINE
  5
5CD
  8
GROUP_1
 10
134.4178223749737
 20
214.2898046855116
 30
0.0
 11
134.4178223749737
 21
221.7898046855116
 31
0.0
  0
LINE
  5
5CE
  8
GROUP_1
 10
86.41782237497371
 20
234.2898046855116
 30
0.0
 11
86.41782237497371
 21
226.7898046855116
 31
0.0
  0
LINE
  5
5CF
  8
GROUP_1
 10
86.41782237497371
 20
214.2898046855116
 30
0.0
 11
86.41782237497371
 21
221.7898046855116
 31
0.0
  0
LINE
  5
5D0
  8
GROUP_1
 10
82.41782237497371
 20
234.2898046855116
 30
0.0
 11
82.41782237497371
 21
226.7898046855116
 31
0.0
  0
LINE
  5
5D1
  8
GROUP_1
 10
82.41782237497371
 20
214.2898046855116
 30
0.0
 11
82.41782237497371
 21
221.7898046855116
 31
0.0
  0
LINE
  5
5D2
  8
GROUP_1
 10
130.4178223749738
 20
234.2898046855116
 30
0.0
 11
130.4178223749738
 21
226.7898046855116
 31
0.0
  0
LINE
  5
5D3
  8
GROUP_1
 10
130.4178223749738
 20
214.2898046855116
 30
0.0
 11
130.4178223749738
 21
221.7898046855116
 31
0.0
  0
LINE
  5
5D4
  8
GROUP_1
 10
78.41782237497371
 20
234.2898046855116
 30
0.0
 11
78.41782237497371
 21
226.7898046855116
 31
0.0
  0
LINE
  5
5D5
  8
GROUP_1
 10
78.41782237497371
 20
214.2898046855116
 30
0.0
 11
78.41782237497371
 21
221.7898046855116
 31
0.0
  0
LINE
  5
5D6
  8
GROUP_1
 10
76.4178223749737
 20
229.2898046855116
 30
0.0
 11
76.4178223749737
 21
219.2898046855117
 31
0.0
  0
POLYLINE
  5
5D7
  8
GROUP_1
 66
     1
 10
0.0
 20
0.0
 30
0.0
 70
   128
  0
VERTEX
  5
93C
  8
GROUP_1
 10
158.4178223749738
 20
258.5527046855116
 30
0.0
  0
VERTEX
  5
93D
  8
GROUP_1
 10
162.4178223749738
 20
258.5527046855116
 30
0.0
  0
VERTEX
  5
93E
  8
GROUP_1
 10
238.5
 20
258.5527046855116
 30
0.0
  0
VERTEX
  5
93F
  8
GROUP_1
 10
238.5
 20
253.5527046855116
 30
0.0
  0
VERTEX
  5
940
  8
GROUP_1
 10
233.5000000000001
 20
253.5527046855116
 30
0.0
  0
VERTEX
  5
941
  8
GROUP_1
 10
233.5000000000001
 20
243.5527046855116
 30
0.0
  0
VERTEX
  5
942
  8
GROUP_1
 10
238.5
 20
243.5527046855116
 30
0.0
  0
VERTEX
  5
943
  8
GROUP_1
 10
238.5
 20
238.5527046855116
 30
0.0
  0
VERTEX
  5
944
  8
GROUP_1
 10
223.5
 20
238.5527046855116
 30
0.0
  0
VERTEX
  5
945
  8
GROUP_1
 10
223.5
 20
241.5527046855116
 30
0.0
  0
VERTEX
  5
946
  8
GROUP_1
 10
208.0
 20
241.5527046855116
 30
0.0
  0
VERTEX
  5
947
  8
GROUP_1
 10
208.0
 20
238.5527046855116
 30
0.0
  0
VERTEX
  5
948
  8
GROUP_1
 10
193.0
 20
238.5527046855116
 30
0.0
  0
VERTEX
  5
949
  8
GROUP_1
 10
193.0
 20
241.5527046855116
 30
0.0
  0
VERTEX
  5
94A
  8
GROUP_1
 10
178.0
 20
241.5527046855116
 30
0.0
  0
VERTEX
  5
94B
  8
GROUP_1
 10
178.0
 20
238.5527046855116
 30
0.0
  0
VERTEX
  5
94C
  8
GROUP_1
 10
162.4178223749738
 20
238.5527046855116
 30
0.0
  0
VERTEX
  5
94D
  8
GROUP_1
 10
158.4178223749738
 20
238.5527046855116
 30
0.0
  0
VERTEX
  5
94E
  8
GROUP_1
 10
154.4178223749738
 20
238.5527046855116
 30
0.0
  0
VERTEX
  5
94F
  8
GROUP_1
 10
150.4178223749738
 20
238.5527046855116
 30
0.0
  0
VERTEX
  5
950
  8
GROUP_1
 10
146.4178223749738
 20
238.5527046855116
 30
0.0
  0
VERTEX
  5
951
  8
GROUP_1
 10
142.4178223749738
 20
238.5527046855116
 30
0.0
  0
VERTEX
  5
952
  8
GROUP_1
 10
138.4178223749738
 20
238.5527046855116
 30
0.0
  0
VERTEX
  5
953
  8
GROUP_1
 10
134.4178223749737
 20
238.5527046855116
 30
0.0
  0
VERTEX
  5
954
  8
GROUP_1
 10
130.4178223749738
 20
238.5527046855116
 30
0.0
  0
VERTEX
  5
955
  8
GROUP_1
 10
126.4178223749738
 20
238.5527046855116
 30
0.0
  0
VERTEX
  5
956
  8
GROUP_1
 10
122.4178223749737
 20
238.5527046855116
 30
0.0
  0
VERTEX
  5
957
  8
GROUP_1
 10
118.4178223749737
 20
238.5527046855116
 30
0.0
  0
VERTEX
  5
958
  8
GROUP_1
 10
114.4178223749737
 20
238.5527046855116
 30
0.0
  0
VERTEX
  5
959
  8
GROUP_1
 10
110.4178223749737
 20
238.5527046855116
 30
0.0
  0
VERTEX
  5
95A
  8
GROUP_1
 10
106.4178223749737
 20
238.5527046855116
 30
0.0
  0
VERTEX
  5
95B
  8
GROUP_1
 10
102.4178223749737
 20
238.5527046855116
 30
0.0
  0
VERTEX
  5
95C
  8
GROUP_1
 10
98.41782237497371
 20
238.5527046855116
 30
0.0
  0
VERTEX
  5
95D
  8
GROUP_1
 10
94.41782237497371
 20
238.5527046855116
 30
0.0
  0
VERTEX
  5
95E
  8
GROUP_1
 10
90.41782237497371
 20
238.5527046855116
 30
0.0
  0
VERTEX
  5
95F
  8
GROUP_1
 10
86.4178223749737
 20
238.5527046855116
 30
0.0
  0
VERTEX
  5
960
  8
GROUP_1
 10
82.4178223749737
 20
238.5527046855116
 30
0.0
  0
VERTEX
  5
961
  8
GROUP_1
 10
78.4178223749737
 20
238.5527046855116
 30
0.0
  0
VERTEX
  5
962
  8
GROUP_1
 10
74.4178223749737
 20
238.5527046855116
 30
0.0
  0
VERTEX
  5
963
  8
GROUP_1
 10
59.4178223749737
 20
238.5527046855116
 30
0.0
  0
VERTEX
  5
964
  8
GROUP_1
 10
59.4178223749737
 20
241.5527046855116
 30
0.0
  0
VERTEX
  5
965
  8
GROUP_1
 10
44.4178223749737
 20
241.5527046855116
 30
0.0
  0
VERTEX
  5
966
  8
GROUP_1
 10
44.4178223749737
 20
238.5527046855116
 30
0.0
  0
VERTEX
  5
967
  8
GROUP_1
 10
29.41782237497369
 20
238.5527046855116
 30
0.0
  0
VERTEX
  5
968
  8
GROUP_1
 10
29.41782237497369
 20
241.5527046855116
 30
0.0
  0
VERTEX
  5
969
  8
GROUP_1
 10
14.41782237497369
 20
241.5527046855116
 30
0.0
  0
VERTEX
  5
96A
  8
GROUP_1
 10
14.41782237497369
 20
238.5527046855116
 30
0.0
  0
VERTEX
  5
96B
  8
GROUP_1
 10
-0.4999999999999969
 20
238.5527046855116
 30
0.0
  0
VERTEX
  5
96C
  8
GROUP_1
 10
-0.4999999999999969
 20
243.5527046855116
 30
0.0
  0
VERTEX
  5
96D
  8
GROUP_1
 10
-5.49999999999999
 20
243.5527046855116
 30
0.0
  0
VERTEX
  5
96E
  8
GROUP_1
 10
-5.49999999999999
 20
253.5527046855116
 30
0.0
  0
VERTEX
  5
96F
  8
GROUP_1
 10
-0.4999999999999969
 20
253.5527046855116
 30
0.0
  0
VERTEX
  5
970
  8
GROUP_1
 10
-0.4999999999999969
 20
258.5527046855116
 30
0.0
  0
VERTEX
  5
971
  8
GROUP_1
 10
74.4178223749737
 20
258.5527046855116
 30
0.0
  0
VERTEX
  5
972
  8
GROUP_1
 10
78.4178223749737
 20
258.5527046855116
 30
0.0
  0
VERTEX
  5
973
  8
GROUP_1
 10
82.4178223749737
 20
258.5527046855116
 30
0.0
  0
VERTEX
  5
974
  8
GROUP_1
 10
86.4178223749737
 20
258.5527046855116
 30
0.0
  0
VERTEX
  5
975
  8
GROUP_1
 10
90.41782237497371
 20
258.5527046855116
 30
0.0
  0
VERTEX
  5
976
  8
GROUP_1
 10
94.41782237497371
 20
258.5527046855116
 30
0.0
  0
VERTEX
  5
977
  8
GROUP_1
 10
98.41782237497371
 20
258.5527046855116
 30
0.0
  0
VERTEX
  5
978
  8
GROUP_1
 10
102.4178223749737
 20
258.5527046855116
 30
0.0
  0
VERTEX
  5
979
  8
GROUP_1
 10
106.4178223749737
 20
258.5527046855116
 30
0.0
  0
VERTEX
  5
97A
  8
GROUP_1
 10
110.4178223749737
 20
258.5527046855116
 30
0.0
  0
VERTEX
  5
97B
  8
GROUP_1
 10
114.4178223749737
 20
258.5527046855116
 30
0.0
  0
VERTEX
  5
97C
  8
GROUP_1
 10
118.4178223749737
 20
258.5527046855116
 30
0.0
  0
VERTEX
  5
97D
  8
GROUP_1
 10
122.4178223749737
 20
258.5527046855116
 30
0.0
  0
VERTEX
  5
97E
  8
GROUP_1
 10
126.4178223749738
 20
258.5527046855116
 30
0.0
  0
VERTEX
  5
97F
  8
GROUP_1
 10
130.4178223749738
 20
258.5527046855116
 30
0.0
  0
VERTEX
  5
980
  8
GROUP_1
 10
134.4178223749737
 20
258.5527046855116
 30
0.0
  0
VERTEX
  5
981
  8
GROUP_1
 10
138.4178223749738
 20
258.5527046855116
 30
0.0
  0
VERTEX
  5
982
  8
GROUP_1
 10
142.4178223749738
 20
258.5527046855116
 30
0.0
  0
VERTEX
  5
983
  8
GROUP_1
 10
146.4178223749738
 20
258.5527046855116
 30
0.0
  0
VERTEX
  5
984
  8
GROUP_1
 10
150.4178223749738
 20
258.5527046855116
 30
0.0
  0
VERTEX
  5
985
  8
GROUP_1
 10
154.4178223749738
 20
258.5527046855116
 30
0.0
  0
VERTEX
  5
986
  8
GROUP_1
 10
158.4178223749738
 20
258.5527046855116
 30
0.0
  0
SEQEND
  5
98C
  8
GROUP_1
  0
LINE
  5
624
  8
GROUP_1
 10
126.4178223749738
 20
258.5527046855116
 30
0.0
 11
126.4178223749738
 21
251.0527046855116
 31
0.0
  0
LINE
  5
625
  8
GROUP_1
 10
92.4178223749737
 20
253.5527046855116
 30
0.0
 11
92.4178223749737
 21
243.5527046855116
 31
0.0
  0
LINE
  5
626
  8
GROUP_1
 10
126.4178223749738
 20
238.5527046855116
 30
0.0
 11
126.4178223749738
 21
246.0527046855116
 31
0.0
  0
LINE
  5
627
  8
GROUP_1
 10
96.41782237497371
 20
253.5527046855116
 30
0.0
 11
96.41782237497371
 21
243.5527046855116
 31
0.0
  0
LINE
  5
628
  8
GROUP_1
 10
128.4178223749738
 20
253.5527046855116
 30
0.0
 11
128.4178223749738
 21
243.5527046855116
 31
0.0
  0
LINE
  5
629
  8
GROUP_1
 10
100.4178223749737
 20
253.5527046855116
 30
0.0
 11
100.4178223749737
 21
243.5527046855116
 31
0.0
  0
LINE
  5
62A
  8
GROUP_1
 10
160.4178223749738
 20
253.5527046855116
 30
0.0
 11
160.4178223749738
 21
243.5527046855116
 31
0.0
  0
LINE
  5
62B
  8
GROUP_1
 10
156.4178223749738
 20
253.5527046855116
 30
0.0
 11
156.4178223749738
 21
243.5527046855116
 31
0.0
  0
LINE
  5
62C
  8
GROUP_1
 10
154.4178223749738
 20
238.5527046855116
 30
0.0
 11
154.4178223749738
 21
246.0527046855116
 31
0.0
  0
LINE
  5
62D
  8
GROUP_1
 10
80.4178223749737
 20
253.5527046855116
 30
0.0
 11
80.4178223749737
 21
243.5527046855116
 31
0.0
  0
LINE
  5
62E
  8
GROUP_1
 10
148.4178223749738
 20
253.5527046855116
 30
0.0
 11
148.4178223749738
 21
243.5527046855116
 31
0.0
  0
LINE
  5
62F
  8
GROUP_1
 10
108.4178223749737
 20
253.5527046855116
 30
0.0
 11
108.4178223749737
 21
243.5527046855116
 31
0.0
  0
LINE
  5
630
  8
GROUP_1
 10
104.4178223749737
 20
253.5527046855116
 30
0.0
 11
104.4178223749737
 21
243.5527046855116
 31
0.0
  0
LINE
  5
631
  8
GROUP_1
 10
112.4178223749737
 20
253.5527046855116
 30
0.0
 11
112.4178223749737
 21
243.5527046855116
 31
0.0
  0
LINE
  5
632
  8
GROUP_1
 10
116.4178223749737
 20
253.5527046855116
 30
0.0
 11
116.4178223749737
 21
243.5527046855116
 31
0.0
  0
LINE
  5
633
  8
GROUP_1
 10
124.4178223749737
 20
253.5527046855116
 30
0.0
 11
124.4178223749737
 21
243.5527046855116
 31
0.0
  0
LINE
  5
634
  8
GROUP_1
 10
120.4178223749737
 20
253.5527046855116
 30
0.0
 11
120.4178223749737
 21
243.5527046855116
 31
0.0
  0
LINE
  5
635
  8
GROUP_1
 10
132.4178223749738
 20
253.5527046855116
 30
0.0
 11
132.4178223749738
 21
243.5527046855116
 31
0.0
  0
LINE
  5
636
  8
GROUP_1
 10
140.4178223749738
 20
253.5527046855116
 30
0.0
 11
140.4178223749738
 21
243.5527046855116
 31
0.0
  0
LINE
  5
637
  8
GROUP_1
 10
136.4178223749737
 20
253.5527046855116
 30
0.0
 11
136.4178223749737
 21
243.5527046855116
 31
0.0
  0
LINE
  5
638
  8
GROUP_1
 10
144.4178223749738
 20
253.5527046855116
 30
0.0
 11
144.4178223749738
 21
243.5527046855116
 31
0.0
  0
LINE
  5
639
  8
GROUP_1
 10
152.4178223749738
 20
253.5527046855116
 30
0.0
 11
152.4178223749738
 21
243.5527046855116
 31
0.0
  0
LINE
  5
63A
  8
GROUP_1
 10
74.4178223749737
 20
238.5527046855116
 30
0.0
 11
74.4178223749737
 21
246.0527046855116
 31
0.0
  0
LINE
  5
63B
  8
GROUP_1
 10
146.4178223749738
 20
258.5527046855116
 30
0.0
 11
146.4178223749738
 21
251.0527046855116
 31
0.0
  0
LINE
  5
63C
  8
GROUP_1
 10
158.4178223749738
 20
238.5527046855116
 30
0.0
 11
158.4178223749738
 21
246.0527046855116
 31
0.0
  0
LINE
  5
63D
  8
GROUP_1
 10
122.4178223749737
 20
258.5527046855116
 30
0.0
 11
122.4178223749737
 21
251.0527046855116
 31
0.0
  0
LINE
  5
63E
  8
GROUP_1
 10
122.4178223749737
 20
238.5527046855116
 30
0.0
 11
122.4178223749737
 21
246.0527046855116
 31
0.0
  0
LINE
  5
63F
  8
GROUP_1
 10
118.4178223749737
 20
258.5527046855116
 30
0.0
 11
118.4178223749737
 21
251.0527046855116
 31
0.0
  0
LINE
  5
640
  8
GROUP_1
 10
146.4178223749738
 20
238.5527046855116
 30
0.0
 11
146.4178223749738
 21
246.0527046855116
 31
0.0
  0
LINE
  5
641
  8
GROUP_1
 10
150.4178223749738
 20
238.5527046855116
 30
0.0
 11
150.4178223749738
 21
246.0527046855116
 31
0.0
  0
LINE
  5
642
  8
GROUP_1
 10
118.4178223749737
 20
238.5527046855116
 30
0.0
 11
118.4178223749737
 21
246.0527046855116
 31
0.0
  0
LINE
  5
643
  8
GROUP_1
 10
162.4178223749738
 20
238.5527046855116
 30
0.0
 11
162.4178223749738
 21
246.0527046855116
 31
0.0
  0
LINE
  5
644
  8
GROUP_1
 10
162.4178223749738
 20
258.5527046855116
 30
0.0
 11
162.4178223749738
 21
251.0527046855116
 31
0.0
  0
LINE
  5
645
  8
GROUP_1
 10
88.4178223749737
 20
253.5527046855116
 30
0.0
 11
88.4178223749737
 21
243.5527046855116
 31
0.0
  0
LINE
  5
646
  8
GROUP_1
 10
84.4178223749737
 20
253.5527046855116
 30
0.0
 11
84.4178223749737
 21
243.5527046855116
 31
0.0
  0
LINE
  5
647
  8
GROUP_1
 10
114.4178223749737
 20
258.5527046855116
 30
0.0
 11
114.4178223749737
 21
251.0527046855116
 31
0.0
  0
LINE
  5
648
  8
GROUP_1
 10
158.4178223749738
 20
258.5527046855116
 30
0.0
 11
158.4178223749738
 21
251.0527046855116
 31
0.0
  0
LINE
  5
649
  8
GROUP_1
 10
114.4178223749737
 20
238.5527046855116
 30
0.0
 11
114.4178223749737
 21
246.0527046855116
 31
0.0
  0
LINE
  5
64A
  8
GROUP_1
 10
150.4178223749738
 20
258.5527046855116
 30
0.0
 11
150.4178223749738
 21
251.0527046855116
 31
0.0
  0
LINE
  5
64B
  8
GROUP_1
 10
154.4178223749738
 20
258.5527046855116
 30
0.0
 11
154.4178223749738
 21
251.0527046855116
 31
0.0
  0
LINE
  5
64C
  8
GROUP_1
 10
110.4178223749737
 20
258.5527046855116
 30
0.0
 11
110.4178223749737
 21
251.0527046855116
 31
0.0
  0
LINE
  5
64D
  8
GROUP_1
 10
74.4178223749737
 20
258.5527046855116
 30
0.0
 11
74.4178223749737
 21
251.0527046855116
 31
0.0
  0
LINE
  5
64E
  8
GROUP_1
 10
110.4178223749737
 20
238.5527046855116
 30
0.0
 11
110.4178223749737
 21
246.0527046855116
 31
0.0
  0
LINE
  5
64F
  8
GROUP_1
 10
106.4178223749737
 20
258.5527046855116
 30
0.0
 11
106.4178223749737
 21
251.0527046855116
 31
0.0
  0
LINE
  5
650
  8
GROUP_1
 10
106.4178223749737
 20
238.5527046855116
 30
0.0
 11
106.4178223749737
 21
246.0527046855116
 31
0.0
  0
LINE
  5
651
  8
GROUP_1
 10
142.4178223749738
 20
258.5527046855116
 30
0.0
 11
142.4178223749738
 21
251.0527046855116
 31
0.0
  0
LINE
  5
652
  8
GROUP_1
 10
142.4178223749738
 20
238.5527046855116
 30
0.0
 11
142.4178223749738
 21
246.0527046855116
 31
0.0
  0
LINE
  5
653
  8
GROUP_1
 10
102.4178223749737
 20
258.5527046855116
 30
0.0
 11
102.4178223749737
 21
251.0527046855116
 31
0.0
  0
LINE
  5
654
  8
GROUP_1
 10
102.4178223749737
 20
238.5527046855116
 30
0.0
 11
102.4178223749737
 21
246.0527046855116
 31
0.0
  0
LINE
  5
655
  8
GROUP_1
 10
98.41782237497371
 20
258.5527046855116
 30
0.0
 11
98.41782237497371
 21
251.0527046855116
 31
0.0
  0
LINE
  5
656
  8
GROUP_1
 10
98.41782237497371
 20
238.5527046855116
 30
0.0
 11
98.41782237497371
 21
246.0527046855116
 31
0.0
  0
LINE
  5
657
  8
GROUP_1
 10
138.4178223749738
 20
258.5527046855116
 30
0.0
 11
138.4178223749738
 21
251.0527046855116
 31
0.0
  0
LINE
  5
658
  8
GROUP_1
 10
138.4178223749738
 20
238.5527046855116
 30
0.0
 11
138.4178223749738
 21
246.0527046855116
 31
0.0
  0
LINE
  5
659
  8
GROUP_1
 10
94.41782237497371
 20
258.5527046855116
 30
0.0
 11
94.41782237497371
 21
251.0527046855116
 31
0.0
  0
LINE
  5
65A
  8
GROUP_1
 10
94.41782237497371
 20
238.5527046855116
 30
0.0
 11
94.41782237497371
 21
246.0527046855116
 31
0.0
  0
LINE
  5
65B
  8
GROUP_1
 10
90.41782237497371
 20
258.5527046855116
 30
0.0
 11
90.41782237497371
 21
251.0527046855116
 31
0.0
  0
LINE
  5
65C
  8
GROUP_1
 10
90.41782237497371
 20
238.5527046855116
 30
0.0
 11
90.41782237497371
 21
246.0527046855116
 31
0.0
  0
LINE
  5
65D
  8
GROUP_1
 10
134.4178223749737
 20
258.5527046855116
 30
0.0
 11
134.4178223749737
 21
251.0527046855116
 31
0.0
  0
LINE
  5
65E
  8
GROUP_1
 10
134.4178223749737
 20
238.5527046855116
 30
0.0
 11
134.4178223749737
 21
246.0527046855116
 31
0.0
  0
LINE
  5
65F
  8
GROUP_1
 10
86.4178223749737
 20
258.5527046855116
 30
0.0
 11
86.4178223749737
 21
251.0527046855116
 31
0.0
  0
LINE
  5
660
  8
GROUP_1
 10
86.4178223749737
 20
238.5527046855116
 30
0.0
 11
86.4178223749737
 21
246.0527046855116
 31
0.0
  0
LINE
  5
661
  8
GROUP_1
 10
82.4178223749737
 20
258.5527046855116
 30
0.0
 11
82.4178223749737
 21
251.0527046855116
 31
0.0
  0
LINE
  5
662
  8
GROUP_1
 10
82.4178223749737
 20
238.5527046855116
 30
0.0
 11
82.4178223749737
 21
246.0527046855116
 31
0.0
  0
LINE
  5
663
  8
GROUP_1
 10
130.4178223749738
 20
258.5527046855116
 30
0.0
 11
130.4178223749738
 21
251.0527046855116
 31
0.0
  0
LINE
  5
664
  8
GROUP_1
 10
130.4178223749738
 20
238.5527046855116
 30
0.0
 11
130.4178223749738
 21
246.0527046855116
 31
0.0
  0
LINE
  5
665
  8
GROUP_1
 10
78.4178223749737
 20
258.5527046855116
 30
0.0
 11
78.4178223749737
 21
251.0527046855116
 31
0.0
  0
LINE
  5
666
  8
GROUP_1
 10
78.4178223749737
 20
238.5527046855116
 30
0.0
 11
78.4178223749737
 21
246.0527046855116
 31
0.0
  0
LINE
  5
667
  8
GROUP_1
 10
76.41782237497368
 20
253.5527046855116
 30
0.0
 11
76.41782237497368
 21
243.5527046855116
 31
0.0
  0
VIEWPORT
  5
754
 67
     1
  8
0
 62
    18
 10
5.25
 20
4.0
 30
0.0
 40
11.638
 41
8.993
 68
     1
 69
     1
1001
ACAD
1000
MVIEW
1002
{
1070
    16
1010
0.0
1020
0.0
1030
0.0
1010
0.0
1020
0.0
1030
1.0
1040
0.0
1040
8.993
1040
5.25
1040
4.0
1040
50.0
1040
0.0
1040
0.0
1070
     0
1070
   100
1070
     0
1070
     3
1070
     0
1070
     0
1070
     0
1070
     0
1040
0.0
1040
0.0
1040
0.0
1040
0.5
1040
0.5
1040
0.5
1040
0.5
1070
     0
1002
{
1002
}
1002
}
  0
ENDSEC
  0
EOF
