  0
SECTION
  2
HEADER
  9
$ACADVER
  1
AC1006
  9
$EXTMIN
 10
0.000000
 20
0.000000
 30
0.000000
  9
$EXTMAX
 10
300.000000
 20
300.000000
 30
0.000000
  0
ENDSEC
  0
SECTION
  2
ENTITIES
  0
POLYLINE
  8
0
 66
1
 70
1
  0
VERTEX
  8
0
 10
129.000000
 20
297.945200
 42
0.037086
  0
VERTEX
  8
0
 10
113.509198
 20
294.846342
 42
0.025586
  0
VERTEX
  8
0
 10
96.536473
 20
289.170130
 42
0.025403
  0
VERTEX
  8
0
 10
80.046715
 20
281.713206
 42
0.034005
  0
VERTEX
  8
0
 10
66.000000
 20
273.226732
 42
0.022228
  0
VERTEX
  8
0
 10
53.849949
 20
263.876493
 42
0.025645
  0
VERTEX
  8
0
 10
43.172016
 20
253.896377
 42
0.025005
  0
VERTEX
  8
0
 10
33.352723
 20
242.652918
 42
0.019338
  0
VERTEX
  8
0
 10
23.778571
 20
229.500000
 42
0.030363
  0
VERTEX
  8
0
 10
20.324148
 20
223.602018
 42
0.008938
  0
VERTEX
  8
0
 10
15.750372
 20
214.163818
 42
0.009314
  0
VERTEX
  8
0
 10
11.402750
 20
204.289403
 42
0.020547
  0
VERTEX
  8
0
 10
8.538829
 20
196.564651
 42
0.047385
  0
VERTEX
  8
0
 10
2.372276
 20
168.890967
 42
0.047011
  0
VERTEX
  8
0
 10
1.502645
 20
140.476372
 42
0.046911
  0
VERTEX
  8
0
 10
5.959560
 20
112.342154
 42
0.046760
  0
VERTEX
  8
0
 10
15.585125
 20
85.500000
 42
0.019573
  0
VERTEX
  8
0
 10
19.426521
 20
78.065332
 42
0.013096
  0
VERTEX
  8
0
 10
24.368553
 20
69.862512
 42
0.013070
  0
VERTEX
  8
0
 10
29.753523
 20
61.898895
 42
0.018970
  0
VERTEX
  8
0
 10
34.946446
 20
55.189154
 42
0.040081
  0
VERTEX
  8
0
 10
52.967174
 20
36.852198
 42
0.041824
  0
VERTEX
  8
0
 10
73.441283
 20
21.912402
 42
0.042070
  0
VERTEX
  8
0
 10
95.999348
 20
10.660451
 42
0.041548
  0
VERTEX
  8
0
 10
120.216051
 20
3.287317
 42
0.041962
  0
VERTEX
  8
0
 10
131.944213
 20
1.770414
 42
0.011502
  0
VERTEX
  8
0
 10
150.593465
 20
1.364794
 42
0.011496
  0
VERTEX
  8
0
 10
169.239324
 20
1.817004
 42
0.042075
  0
VERTEX
  8
0
 10
180.947422
 20
3.363635
 42
0.063720
  0
VERTEX
  8
0
 10
217.436801
 20
16.382509
 42
0.063726
  0
VERTEX
  8
0
 10
249.471120
 20
38.169513
 42
0.064051
  0
VERTEX
  8
0
 10
274.852478
 20
67.205839
 42
0.065566
  0
VERTEX
  8
0
 10
291.820508
 20
101.500000
 42
0.017711
  0
VERTEX
  8
0
 10
295.411825
 20
113.399995
 42
0.025553
  0
VERTEX
  8
0
 10
297.666445
 20
124.158008
 42
0.024442
  0
VERTEX
  8
0
 10
298.874249
 20
135.443459
 42
0.014412
  0
VERTEX
  8
0
 10
299.266439
 20
149.000000
 42
0.011019
  0
VERTEX
  8
0
 10
298.997220
 20
161.270299
 42
0.018293
  0
VERTEX
  8
0
 10
298.164535
 20
171.584608
 42
0.020536
  0
VERTEX
  8
0
 10
296.679732
 20
180.891563
 42
0.020424
  0
VERTEX
  8
0
 10
294.434343
 20
190.062602
 42
0.060817
  0
VERTEX
  8
0
 10
279.845746
 20
224.334791
 42
0.061721
  0
VERTEX
  8
0
 10
257.498344
 20
253.902420
 42
0.061866
  0
VERTEX
  8
0
 10
228.663167
 20
277.064713
 42
0.061620
  0
VERTEX
  8
0
 10
195.000000
 20
292.506206
 42
0.012362
  0
VERTEX
  8
0
 10
184.596233
 20
295.523358
 42
0.026994
  0
VERTEX
  8
0
 10
176.467164
 20
297.201385
 42
0.024391
  0
VERTEX
  8
0
 10
167.712149
 20
298.087032
 42
0.008418
  0
VERTEX
  8
0
 10
155.000000
 20
298.534774
 42
0.005134
  0
VERTEX
  8
0
 10
147.367187
 20
298.596624
 42
0.005127
  0
VERTEX
  8
0
 10
139.731250
 20
298.501794
 42
0.005025
  0
VERTEX
  8
0
 10
133.066149
 20
298.283618
 42
0.020135
  0
SEQEND
  0
POLYLINE
  8
0
 66
1
 70
1
  0
VERTEX
  8
0
 10
141.963488
 20
285.250000
 42
-0.201642
  0
VERTEX
  8
0
 10
141.766210
 20
284.838027
 42
-0.012259
  0
VERTEX
  8
0
 10
140.699989
 20
283.936791
 42
-0.016733
  0
VERTEX
  8
0
 10
139.330481
 20
282.909114
 42
-0.011484
  0
VERTEX
  8
0
 10
137.713488
 20
281.832694
 42
0.016728
  0
VERTEX
  8
0
 10
135.598692
 20
280.392668
 42
0.005415
  0
VERTEX
  8
0
 10
132.565963
 20
278.124787
 42
0.005392
  0
VERTEX
  8
0
 10
129.246362
 20
275.528660
 42
0.006033
  0
VERTEX
  8
0
 10
126.106813
 20
272.955608
 42
0.000000
  0
VERTEX
  8
0
 10
118.713625
 20
266.745828
 42
0.000000
  0
VERTEX
  8
0
 10
113.606813
 20
267.850574
 42
0.010864
  0
VERTEX
  8
0
 10
111.033874
 20
268.348917
 42
0.003943
  0
VERTEX
  8
0
 10
107.364474
 20
268.947495
 42
0.003908
  0
VERTEX
  8
0
 10
103.337094
 20
269.539703
 42
0.004650
  0
VERTEX
  8
0
 10
99.527568
 20
270.033425
 42
-0.002445
  0
VERTEX
  8
0
 10
96.068634
 20
270.466211
 42
-0.003879
  0
VERTEX
  8
0
 10
93.111344
 20
270.874281
 42
-0.000974
  0
VERTEX
  8
0
 10
90.536246
 20
271.255117
 42
-0.160513
  0
VERTEX
  8
0
 10
90.284687
 20
271.381979
 42
-0.503342
  0
VERTEX
  8
0
 10
90.310114
 20
271.553419
 42
-0.002567
  0
VERTEX
  8
0
 10
92.074404
 20
272.484950
 42
-0.007759
  0
VERTEX
  8
0
 10
94.190543
 20
273.546965
 42
-0.004533
  0
VERTEX
  8
0
 10
96.757119
 20
274.756994
 42
-0.019276
  0
VERTEX
  8
0
 10
103.893004
 20
277.714789
 42
-0.015261
  0
VERTEX
  8
0
 10
111.810619
 20
280.372680
 42
-0.015408
  0
VERTEX
  8
0
 10
119.763676
 20
282.509998
 42
-0.021485
  0
VERTEX
  8
0
 10
127.000000
 20
283.892393
 42
-0.000002
  0
VERTEX
  8
0
 10
130.054707
 20
284.340938
 42
-0.000002
  0
VERTEX
  8
0
 10
133.031250
 20
284.777985
 42
-0.000002
  0
VERTEX
  8
0
 10
135.584239
 20
285.152825
 42
-0.000008
  0
VERTEX
  8
0
 10
137.000000
 20
285.360665
 42
-0.003773
  0
VERTEX
  8
0
 10
139.946933
 20
285.770547
 42
-0.038255
  0
VERTEX
  8
0
 10
141.181315
 20
285.837493
 42
-0.138845
  0
VERTEX
  8
0
 10
141.752106
 20
285.662040
 42
-0.267440
  0
SEQEND
  0
POLYLINE
  8
0
 66
1
 70
1
  0
VERTEX
  8
0
 10
171.000000
 20
284.526409
 42
-0.007913
  0
VERTEX
  8
0
 10
175.112753
 20
283.826768
 42
-0.005931
  0
VERTEX
  8
0
 10
179.618750
 20
282.931222
 42
-0.005998
  0
VERTEX
  8
0
 10
183.841263
 20
281.986782
 42
-0.013649
  0
VERTEX
  8
0
 10
187.000000
 20
281.148729
 42
-0.014063
  0
VERTEX
  8
0
 10
193.240654
 20
279.116887
 42
-0.007151
  0
VERTEX
  8
0
 10
200.973156
 20
276.231182
 42
-0.003477
  0
VERTEX
  8
0
 10
208.531262
 20
273.226038
 42
-0.096411
  0
VERTEX
  8
0
 10
210.306031
 20
272.069288
 42
-0.534274
  0
VERTEX
  8
0
 10
210.244724
 20
271.733210
 42
-0.038127
  0
VERTEX
  8
0
 10
209.169768
 20
271.361683
 42
-0.027619
  0
VERTEX
  8
0
 10
207.478197
 20
271.016451
 42
-0.013755
  0
VERTEX
  8
0
 10
205.306031
 20
270.757635
 42
0.011071
  0
VERTEX
  8
0
 10
202.439175
 20
270.431642
 42
0.004292
  0
VERTEX
  8
0
 10
198.484360
 20
269.858384
 42
0.004246
  0
VERTEX
  8
0
 10
194.208499
 20
269.163849
 42
0.005244
  0
VERTEX
  8
0
 10
190.236471
 20
268.441039
 42
-0.004621
  0
VERTEX
  8
0
 10
184.816587
 20
267.447777
 42
-0.036940
  0
VERTEX
  8
0
 10
182.289792
 20
267.198937
 42
-0.090977
  0
VERTEX
  8
0
 10
180.798928
 20
267.435154
 42
-0.139087
  0
VERTEX
  8
0
 10
179.736471
 20
268.185650
 42
0.046003
  0
VERTEX
  8
0
 10
177.366830
 20
270.622853
 42
0.005432
  0
VERTEX
  8
0
 10
171.564017
 20
275.477335
 42
0.006277
  0
VERTEX
  8
0
 10
165.657739
 20
280.187736
 42
0.031788
  0
VERTEX
  8
0
 10
162.175122
 20
282.555624
 42
-0.025285
  0
VERTEX
  8
0
 10
160.129409
 20
283.907999
 42
-0.106834
  0
VERTEX
  8
0
 10
159.162217
 20
285.003544
 42
-0.375640
  0
VERTEX
  8
0
 10
159.305505
 20
285.681557
 42
-0.163581
  0
VERTEX
  8
0
 10
160.250000
 20
285.994105
 42
-0.031232
  0
VERTEX
  8
0
 10
161.105126
 20
285.936588
 42
-0.001522
  0
VERTEX
  8
0
 10
163.923438
 20
285.560537
 42
-0.002468
  0
VERTEX
  8
0
 10
167.269790
 20
285.086820
 42
-0.001778
  0
SEQEND
  0
POLYLINE
  8
0
 66
1
 70
1
  0
VERTEX
  8
0
 10
160.001546
 20
277.920604
 42
-0.015973
  0
VERTEX
  8
0
 10
164.890777
 20
274.534380
 42
-0.010445
  0
VERTEX
  8
0
 10
170.315285
 20
270.336842
 42
-0.003901
  0
VERTEX
  8
0
 10
175.489067
 20
266.090542
 42
-0.223490
  0
VERTEX
  8
0
 10
175.997133
 20
265.000000
 42
-0.253350
  0
VERTEX
  8
0
 10
175.844176
 20
264.720032
 42
-0.005255
  0
VERTEX
  8
0
 10
174.454312
 20
263.840891
 42
-0.010946
  0
VERTEX
  8
0
 10
172.759158
 20
262.844024
 42
-0.006985
  0
VERTEX
  8
0
 10
170.747624
 20
261.756224
 42
0.017652
  0
VERTEX
  8
0
 10
168.225962
 20
260.322212
 42
0.007168
  0
VERTEX
  8
0
 10
164.892432
 20
258.200979
 42
0.007082
  0
VERTEX
  8
0
 10
161.369341
 20
255.815407
 42
0.008953
  0
VERTEX
  8
0
 10
158.184059
 20
253.506224
 42
-0.002887
  0
VERTEX
  8
0
 10
155.345850
 20
251.395654
 42
-0.004528
  0
VERTEX
  8
0
 10
152.879021
 20
249.617453
 42
-0.001356
  0
VERTEX
  8
0
 10
150.725235
 20
248.103102
 42
-0.153719
  0
VERTEX
  8
0
 10
150.397801
 20
248.000000
 42
-0.154509
  0
VERTEX
  8
0
 10
150.074035
 20
248.102497
 42
-0.001728
  0
VERTEX
  8
0
 10
148.183058
 20
249.442920
 42
-0.005153
  0
VERTEX
  8
0
 10
146.009097
 20
251.029327
 42
-0.003311
  0
VERTEX
  8
0
 10
143.518694
 20
252.912070
 42
0.011336
  0
VERTEX
  8
0
 10
140.624103
 20
255.028242
 42
0.007525
  0
VERTEX
  8
0
 10
137.213844
 20
257.329225
 42
0.007576
  0
VERTEX
  8
0
 10
133.833404
 20
259.464434
 42
0.014629
  0
VERTEX
  8
0
 10
131.054952
 20
261.051395
 42
-0.007736
  0
VERTEX
  8
0
 10
128.734220
 20
262.334824
 42
-0.012031
  0
VERTEX
  8
0
 10
126.778642
 20
263.519579
 42
-0.006304
  0
VERTEX
  8
0
 10
125.190605
 20
264.563113
 42
-0.249179
  0
VERTEX
  8
0
 10
125.000000
 20
264.921831
 42
-0.219031
  0
VERTEX
  8
0
 10
125.612742
 20
266.253482
 42
-0.005462
  0
VERTEX
  8
0
 10
130.865395
 20
270.654153
 42
-0.012475
  0
VERTEX
  8
0
 10
136.405699
 20
274.967303
 42
-0.021273
  0
VERTEX
  8
0
 10
141.266248
 20
278.250000
 42
-0.034948
  0
VERTEX
  8
0
 10
146.626899
 20
281.051733
 42
-0.107743
  0
VERTEX
  8
0
 10
150.615174
 20
281.848068
 42
-0.106121
  0
VERTEX
  8
0
 10
154.608071
 20
280.917243
 42
-0.033340
  0
SEQEND
  0
POLYLINE
  8
0
 66
1
 70
1
  0
VERTEX
  8
0
 10
109.250000
 20
263.848550
 42
-0.015799
  0
VERTEX
  8
0
 10
113.078892
 20
262.880853
 42
-0.138901
  0
VERTEX
  8
0
 10
114.549308
 20
261.968812
 42
-0.302171
  0
VERTEX
  8
0
 10
114.728979
 20
260.801197
 42
-0.072803
  0
VERTEX
  8
0
 10
113.601554
 20
259.078741
 42
0.061893
  0
VERTEX
  8
0
 10
111.317005
 20
255.748622
 42
0.007671
  0
VERTEX
  8
0
 10
107.387451
 20
247.863302
 42
0.005667
  0
VERTEX
  8
0
 10
103.591779
 20
239.708747
 42
0.106476
  0
VERTEX
  8
0
 10
103.000000
 20
236.961329
 42
-0.125075
  0
VERTEX
  8
0
 10
102.682301
 20
235.711162
 42
-0.227724
  0
VERTEX
  8
0
 10
101.846424
 20
235.107744
 42
-0.059875
  0
VERTEX
  8
0
 10
99.955209
 20
234.998208
 42
-0.003585
  0
VERTEX
  8
0
 10
94.250000
 20
235.392044
 42
-0.000766
  0
VERTEX
  8
0
 10
82.986662
 20
236.268097
 42
-0.003393
  0
VERTEX
  8
0
 10
76.363808
 20
236.838674
 42
-0.001505
  0
VERTEX
  8
0
 10
71.714619
 20
237.285131
 42
-0.164309
  0
VERTEX
  8
0
 10
71.150335
 20
237.540144
 42
-0.316810
  0
VERTEX
  8
0
 10
70.826741
 20
239.080838
 42
-0.003033
  0
VERTEX
  8
0
 10
75.673376
 20
250.151480
 42
-0.008061
  0
VERTEX
  8
0
 10
80.428867
 20
260.389472
 42
-0.060378
  0
VERTEX
  8
0
 10
83.318799
 20
264.882602
 42
-0.221718
  0
VERTEX
  8
0
 10
85.447675
 20
265.890665
 42
-0.011430
  0
VERTEX
  8
0
 10
93.252747
 20
265.757994
 42
-0.018611
  0
VERTEX
  8
0
 10
101.711649
 20
265.104746
 42
-0.025422
  0
SEQEND
  0
POLYLINE
  8
0
 66
1
 70
1
  0
VERTEX
  8
0
 10
223.191870
 20
254.000000
 42
-0.004233
  0
VERTEX
  8
0
 10
225.417623
 20
249.405588
 42
-0.005329
  0
VERTEX
  8
0
 10
227.396976
 20
245.112435
 42
-0.004296
  0
VERTEX
  8
0
 10
228.985674
 20
241.484524
 42
-0.041729
  0
VERTEX
  8
0
 10
229.514288
 20
239.893395
 42
0.000000
  0
VERTEX
  8
0
 10
230.144836
 20
237.286791
 42
0.000000
  0
VERTEX
  8
0
 10
221.322418
 20
236.625045
 42
0.000465
  0
VERTEX
  8
0
 10
217.469567
 20
236.332449
 42
0.000338
  0
VERTEX
  8
0
 10
213.182210
 20
235.999931
 42
0.000341
  0
VERTEX
  8
0
 10
209.113598
 20
235.678821
 42
0.000748
  0
VERTEX
  8
0
 10
206.000000
 20
235.426259
 42
0.000000
  0
VERTEX
  8
0
 10
199.500000
 20
234.889221
 42
0.000000
  0
VERTEX
  8
0
 10
194.553794
 20
245.378997
 42
0.004914
  0
VERTEX
  8
0
 10
192.529451
 20
249.565023
 42
0.005871
  0
VERTEX
  8
0
 10
190.537203
 20
253.467612
 42
0.005108
  0
VERTEX
  8
0
 10
188.787726
 20
256.716462
 42
0.037919
  0
VERTEX
  8
0
 10
187.826030
 20
258.184386
 42
-0.037441
  0
VERTEX
  8
0
 10
186.373399
 20
260.397063
 42
-0.193566
  0
VERTEX
  8
0
 10
186.196329
 20
261.821384
 42
-0.225831
  0
VERTEX
  8
0
 10
187.054227
 20
262.833884
 42
-0.051171
  0
VERTEX
  8
0
 10
189.250000
 20
263.564969
 42
-0.026085
  0
VERTEX
  8
0
 10
193.701259
 20
264.315307
 42
-0.007043
  0
VERTEX
  8
0
 10
200.822613
 20
265.035251
 42
-0.007273
  0
VERTEX
  8
0
 10
208.036658
 20
265.556453
 42
-0.021535
  0
VERTEX
  8
0
 10
213.000000
 20
265.628501
 42
0.000000
  0
VERTEX
  8
0
 10
217.500000
 20
265.500000
 42
0.000000
  0
SEQEND
  0
POLYLINE
  8
0
 66
1
 70
1
  0
VERTEX
  8
0
 10
75.784271
 20
262.250000
 42
0.009116
  0
VERTEX
  8
0
 10
72.882920
 20
256.293611
 42
0.008107
  0
VERTEX
  8
0
 10
70.080941
 20
249.999388
 42
0.007884
  0
VERTEX
  8
0
 10
67.765731
 20
244.316089
 42
0.030143
  0
VERTEX
  8
0
 10
66.596634
 20
240.676528
 42
0.000000
  0
VERTEX
  8
0
 10
65.351441
 20
235.810944
 42
0.000000
  0
VERTEX
  8
0
 10
55.114854
 20
231.948350
 42
0.002905
  0
VERTEX
  8
0
 10
50.968975
 20
230.356394
 42
0.003208
  0
VERTEX
  8
0
 10
46.976763
 20
228.767172
 42
0.002982
  0
VERTEX
  8
0
 10
43.584834
 20
227.368022
 42
0.016388
  0
VERTEX
  8
0
 10
41.785495
 20
226.542878
 42
-0.004165
  0
VERTEX
  8
0
 10
40.575321
 20
225.951702
 42
-0.006092
  0
VERTEX
  8
0
 10
39.499482
 20
225.453220
 42
-0.003166
  0
VERTEX
  8
0
 10
38.583287
 20
225.049143
 42
-0.102619
  0
VERTEX
  8
0
 10
38.346362
 20
225.000000
 42
-0.391305
  0
VERTEX
  8
0
 10
37.988446
 20
225.330754
 42
-0.051451
  0
VERTEX
  8
0
 10
38.015555
 20
226.461522
 42
-0.047400
  0
VERTEX
  8
0
 10
38.283107
 20
227.649553
 42
-0.212184
  0
VERTEX
  8
0
 10
38.750000
 20
228.166667
 42
0.109591
  0
VERTEX
  8
0
 10
39.197721
 20
228.497609
 42
0.004567
  0
VERTEX
  8
0
 10
40.495903
 20
230.017708
 42
0.007715
  0
VERTEX
  8
0
 10
41.999555
 20
231.868592
 42
0.005386
  0
VERTEX
  8
0
 10
43.640308
 20
234.000000
 42
-0.019142
  0
VERTEX
  8
0
 10
47.966557
 20
239.311106
 42
-0.014205
  0
VERTEX
  8
0
 10
53.127527
 20
244.848269
 42
-0.013874
  0
VERTEX
  8
0
 10
58.757213
 20
250.246294
 42
-0.015312
  0
VERTEX
  8
0
 10
64.500000
 20
255.142846
 42
0.002221
  0
VERTEX
  8
0
 10
66.907159
 20
257.088813
 42
0.002583
  0
VERTEX
  8
0
 10
69.178125
 20
258.961044
 42
0.002295
  0
VERTEX
  8
0
 10
71.084090
 20
260.563846
 42
0.015471
  0
VERTEX
  8
0
 10
72.000000
 20
261.391359
 42
-0.066721
  0
VERTEX
  8
0
 10
73.271455
 20
262.323143
 42
-0.069127
  0
VERTEX
  8
0
 10
74.728513
 20
262.873505
 42
-0.164606
  0
VERTEX
  8
0
 10
75.598626
 20
262.783418
 42
-0.426584
  0
SEQEND
  0
POLYLINE
  8
0
 66
1
 70
1
  0
VERTEX
  8
0
 10
233.324544
 20
257.591687
 42
-0.018682
  0
VERTEX
  8
0
 10
238.816690
 20
253.120896
 42
-0.011845
  0
VERTEX
  8
0
 10
244.887927
 20
247.529386
 42
-0.011767
  0
VERTEX
  8
0
 10
250.766719
 20
241.578282
 42
-0.016730
  0
VERTEX
  8
0
 10
255.681952
 20
236.000000
 42
-0.007060
  0
VERTEX
  8
0
 10
259.134094
 20
231.684635
 42
-0.012979
  0
VERTEX
  8
0
 10
261.801312
 20
228.061944
 42
-0.007031
  0
VERTEX
  8
0
 10
263.820524
 20
225.076173
 42
-0.355415
  0
VERTEX
  8
0
 10
263.753057
 20
224.419724
 42
-0.294379
  0
VERTEX
  8
0
 10
263.394319
 20
224.342206
 42
-0.010591
  0
VERTEX
  8
0
 10
262.029191
 20
224.888962
 42
-0.016455
  0
VERTEX
  8
0
 10
260.383085
 20
225.653964
 42
-0.010428
  0
VERTEX
  8
0
 10
258.514970
 20
226.647524
 42
0.020362
  0
VERTEX
  8
0
 10
256.067707
 20
227.887387
 42
0.007465
  0
VERTEX
  8
0
 10
252.515920
 20
229.445020
 42
0.007386
  0
VERTEX
  8
0
 10
248.579457
 20
231.033706
 42
0.008785
  0
VERTEX
  8
0
 10
244.817888
 20
232.412121
 42
0.000000
  0
VERTEX
  8
0
 10
235.909974
 20
235.500000
 42
0.000000
  0
VERTEX
  8
0
 10
232.893391
 20
244.500000
 42
0.008459
  0
VERTEX
  8
0
 10
231.559621
 20
248.266620
 42
0.007497
  0
VERTEX
  8
0
 10
230.046648
 20
252.141686
 42
0.007548
  0
VERTEX
  8
0
 10
228.579375
 20
255.589732
 42
0.022742
  0
VERTEX
  8
0
 10
227.438404
 20
257.875953
 42
-0.008760
  0
VERTEX
  8
0
 10
225.048917
 20
262.346551
 42
-0.576682
  0
VERTEX
  8
0
 10
225.434378
 20
262.944158
 42
-0.148000
  0
VERTEX
  8
0
 10
226.802984
 20
262.456759
 42
-0.002473
  0
SEQEND
  0
POLYLINE
  8
0
 66
1
 70
1
  0
VERTEX
  8
0
 10
130.214602
 20
255.631243
 42
-0.012848
  0
VERTEX
  8
0
 10
135.956559
 20
252.160648
 42
-0.015793
  0
VERTEX
  8
0
 10
141.121700
 20
248.619800
 42
-0.009731
  0
VERTEX
  8
0
 10
145.361606
 20
245.383260
 42
-0.228703
  0
VERTEX
  8
0
 10
146.000000
 20
244.060575
 42
-0.337670
  0
VERTEX
  8
0
 10
145.748614
 20
243.730782
 42
-0.013039
  0
VERTEX
  8
0
 10
144.164062
 20
243.339444
 42
-0.018603
  0
VERTEX
  8
0
 10
142.145978
 20
242.974613
 42
-0.011472
  0
VERTEX
  8
0
 10
139.750000
 20
242.688853
 42
0.033115
  0
VERTEX
  8
0
 10
134.380714
 20
241.811504
 42
0.009835
  0
VERTEX
  8
0
 10
126.314306
 20
239.770303
 42
0.010264
  0
VERTEX
  8
0
 10
117.961728
 20
237.295568
 42
0.018842
  0
VERTEX
  8
0
 10
111.288165
 20
234.887844
 42
-0.021472
  0
VERTEX
  8
0
 10
110.013378
 20
234.435479
 42
-0.030142
  0
VERTEX
  8
0
 10
108.840165
 20
234.151121
 42
-0.030382
  0
VERTEX
  8
0
 10
107.889795
 20
234.039632
 42
-0.213516
  0
VERTEX
  8
0
 10
107.464783
 20
234.201883
 42
-0.324437
  0
VERTEX
  8
0
 10
107.100531
 20
236.488760
 42
-0.006280
  0
VERTEX
  8
0
 10
112.955224
 20
247.678416
 42
-0.006735
  0
VERTEX
  8
0
 10
119.073708
 20
258.666203
 42
-0.268498
  0
VERTEX
  8
0
 10
121.378461
 20
260.000000
 42
-0.109751
  0
VERTEX
  8
0
 10
122.139459
 20
259.830923
 42
-0.005480
  0
VERTEX
  8
0
 10
124.456690
 20
258.716678
 42
-0.008602
  0
VERTEX
  8
0
 10
127.192619
 20
257.304900
 42
-0.006099
  0
SEQEND
  0
POLYLINE
  8
0
 66
1
 70
1
  0
VERTEX
  8
0
 10
183.853103
 20
255.084314
 42
-0.018422
  0
VERTEX
  8
0
 10
186.358934
 20
250.654089
 42
-0.005088
  0
VERTEX
  8
0
 10
189.965629
 20
243.513909
 42
-0.001810
  0
VERTEX
  8
0
 10
193.668694
 20
235.924533
 42
-0.113059
  0
VERTEX
  8
0
 10
194.000000
 20
234.478066
 42
-0.389284
  0
VERTEX
  8
0
 10
193.581774
 20
234.022296
 42
-0.064093
  0
VERTEX
  8
0
 10
192.277136
 20
234.077319
 42
-0.044840
  0
VERTEX
  8
0
 10
190.448801
 20
234.563263
 42
-0.027729
  0
VERTEX
  8
0
 10
188.403638
 20
235.439642
 42
0.038943
  0
VERTEX
  8
0
 10
183.593898
 20
237.374334
 42
0.011317
  0
VERTEX
  8
0
 10
175.913481
 20
239.599173
 42
0.011801
  0
VERTEX
  8
0
 10
167.918352
 20
241.519521
 42
0.026392
  0
VERTEX
  8
0
 10
161.750000
 20
242.510855
 42
-0.010983
  0
VERTEX
  8
0
 10
159.162333
 20
242.845325
 42
-0.017805
  0
VERTEX
  8
0
 10
156.982812
 20
243.255711
 42
-0.012023
  0
VERTEX
  8
0
 10
155.262778
 20
243.687154
 42
-0.337223
  0
VERTEX
  8
0
 10
155.000000
 20
244.032468
 42
-0.245534
  0
VERTEX
  8
0
 10
156.158459
 20
246.249302
 42
-0.006270
  0
VERTEX
  8
0
 10
165.793808
 20
252.773101
 42
-0.008976
  0
VERTEX
  8
0
 10
175.359128
 20
258.832577
 42
-0.130669
  0
VERTEX
  8
0
 10
179.164226
 20
259.955064
 42
-0.175877
  0
VERTEX
  8
0
 10
180.007022
 20
259.674648
 42
-0.033770
  0
VERTEX
  8
0
 10
181.219385
 20
258.574508
 42
-0.031541
  0
VERTEX
  8
0
 10
182.551630
 20
257.003407
 42
-0.022167
  0
SEQEND
  0
POLYLINE
  8
0
 66
1
 70
1
  0
VERTEX
  8
0
 10
166.000000
 20
232.862773
 42
-0.060661
  0
VERTEX
  8
0
 10
184.087994
 20
227.275100
 42
-0.054929
  0
VERTEX
  8
0
 10
200.972766
 20
217.369843
 42
-0.055255
  0
VERTEX
  8
0
 10
215.203021
 20
204.094824
 42
-0.063078
  0
VERTEX
  8
0
 10
225.459923
 20
188.565976
 42
-0.020483
  0
VERTEX
  8
0
 10
229.868007
 20
178.608940
 42
-0.035963
  0
VERTEX
  8
0
 10
232.562139
 20
170.018932
 42
-0.036311
  0
VERTEX
  8
0
 10
233.982010
 20
161.188785
 42
-0.021355
  0
VERTEX
  8
0
 10
234.454120
 20
150.500000
 42
-0.018255
  0
VERTEX
  8
0
 10
234.093289
 20
140.215175
 42
-0.031023
  0
VERTEX
  8
0
 10
232.947016
 20
131.686494
 42
-0.033137
  0
VERTEX
  8
0
 10
230.824371
 20
123.767128
 42
-0.024880
  0
VERTEX
  8
0
 10
227.494327
 20
115.378109
 42
-0.030640
  0
VERTEX
  8
0
 10
222.853253
 20
106.653628
 42
-0.026698
  0
VERTEX
  8
0
 10
216.980199
 20
98.133725
 42
-0.026757
  0
VERTEX
  8
0
 10
210.248792
 20
90.308790
 42
-0.031202
  0
VERTEX
  8
0
 10
203.038228
 20
83.665207
 42
-0.057431
  0
VERTEX
  8
0
 10
189.679580
 20
75.152115
 42
-0.043632
  0
VERTEX
  8
0
 10
173.448986
 20
68.942056
 42
-0.043785
  0
VERTEX
  8
0
 10
156.461262
 20
65.662525
 42
-0.059312
  0
VERTEX
  8
0
 10
140.845855
 20
65.901315
 42
-0.069324
  0
VERTEX
  8
0
 10
116.053791
 20
72.821503
 42
-0.076681
  0
VERTEX
  8
0
 10
95.028610
 20
86.111528
 42
-0.076287
  0
VERTEX
  8
0
 10
78.904678
 20
105.186093
 42
-0.067650
  0
VERTEX
  8
0
 10
68.429854
 20
129.000000
 42
-0.051136
  0
VERTEX
  8
0
 10
66.886288
 20
137.623798
 42
-0.018537
  0
VERTEX
  8
0
 10
66.415053
 20
150.064080
 42
-0.018488
  0
VERTEX
  8
0
 10
66.864528
 20
162.482185
 42
-0.052452
  0
VERTEX
  8
0
 10
68.396556
 20
171.000000
 42
-0.087789
  0
VERTEX
  8
0
 10
82.590869
 20
199.801676
 42
-0.093486
  0
VERTEX
  8
0
 10
105.555334
 20
221.253016
 42
-0.094487
  0
VERTEX
  8
0
 10
134.536650
 20
232.711082
 42
-0.091890
  0
SEQEND
  0
POLYLINE
  8
0
 66
1
 70
1
  0
VERTEX
  8
0
 10
95.250000
 20
230.371778
 42
-0.012836
  0
VERTEX
  8
0
 10
97.069331
 20
230.109991
 42
-0.020767
  0
VERTEX
  8
0
 10
98.598353
 20
229.783916
 42
-0.015954
  0
VERTEX
  8
0
 10
99.779765
 20
229.439661
 42
-0.333667
  0
VERTEX
  8
0
 10
99.978435
 20
229.156162
 42
-0.209093
  0
VERTEX
  8
0
 10
99.793229
 20
228.767912
 42
-0.005618
  0
VERTEX
  8
0
 10
98.315625
 20
227.517748
 42
-0.010794
  0
VERTEX
  8
0
 10
96.499163
 20
226.080454
 42
-0.007073
  0
VERTEX
  8
0
 10
94.348090
 20
224.500000
 42
0.032374
  0
VERTEX
  8
0
 10
89.422253
 20
220.482045
 42
0.012892
  0
VERTEX
  8
0
 10
83.189174
 20
214.380382
 42
0.012322
  0
VERTEX
  8
0
 10
77.397025
 20
208.108149
 42
0.045314
  0
VERTEX
  8
0
 10
74.216655
 20
203.750000
 42
-0.130669
  0
VERTEX
  8
0
 10
72.274212
 20
201.862400
 42
-0.469347
  0
VERTEX
  8
0
 10
70.874982
 20
202.399385
 42
-0.064233
  0
VERTEX
  8
0
 10
70.003671
 20
206.732972
 42
-0.005353
  0
VERTEX
  8
0
 10
69.321776
 20
218.195663
 42
0.000000
  0
VERTEX
  8
0
 10
68.702850
 20
230.891326
 42
0.000000
  0
VERTEX
  8
0
 10
74.601425
 20
231.284268
 42
-0.014599
  0
VERTEX
  8
0
 10
79.117422
 20
231.452893
 42
-0.013073
  0
VERTEX
  8
0
 10
83.805401
 20
231.368415
 42
-0.011429
  0
VERTEX
  8
0
 10
89.043409
 20
231.016835
 42
-0.006840
  0
SEQEND
  0
POLYLINE
  8
0
 66
1
 70
1
  0
VERTEX
  8
0
 10
231.652766
 20
218.250000
 42
-0.006250
  0
VERTEX
  8
0
 10
231.446214
 20
213.200300
 42
-0.008086
  0
VERTEX
  8
0
 10
231.123946
 20
208.574419
 42
-0.006333
  0
VERTEX
  8
0
 10
230.743761
 20
204.722941
 42
-0.069021
  0
VERTEX
  8
0
 10
230.360798
 20
203.216107
 42
-0.192628
  0
VERTEX
  8
0
 10
229.545816
 20
202.371076
 42
-0.273597
  0
VERTEX
  8
0
 10
228.533606
 20
202.484120
 42
-0.051900
  0
VERTEX
  8
0
 10
226.814696
 20
204.082398
 42
-0.003421
  0
VERTEX
  8
0
 10
222.391404
 20
209.216107
 42
0.014048
  0
VERTEX
  8
0
 10
219.177869
 20
212.789311
 42
0.009528
  0
VERTEX
  8
0
 10
215.329826
 20
216.682232
 42
0.009606
  0
VERTEX
  8
0
 10
211.466564
 20
220.302423
 42
0.018914
  0
VERTEX
  8
0
 10
208.237071
 20
223.000000
 42
-0.005256
  0
VERTEX
  8
0
 10
205.505739
 20
225.157615
 42
-0.008100
  0
VERTEX
  8
0
 10
203.194197
 20
227.086076
 42
-0.003487
  0
VERTEX
  8
0
 10
201.273371
 20
228.765571
 42
-0.191456
  0
VERTEX
  8
0
 10
201.061057
 20
229.186642
 42
-0.396637
  0
VERTEX
  8
0
 10
201.619386
 20
229.896437
 42
-0.015218
  0
VERTEX
  8
0
 10
205.252713
 20
230.329507
 42
-0.014922
  0
VERTEX
  8
0
 10
210.803319
 20
230.653808
 42
-0.003866
  0
VERTEX
  8
0
 10
219.757359
 20
230.839963
 42
0.000000
  0
VERTEX
  8
0
 10
232.014717
 20
231.000000
 42
0.000000
  0
SEQEND
  0
POLYLINE
  8
0
 66
1
 70
1
  0
VERTEX
  8
0
 10
64.346962
 20
216.750000
 42
0.003184
  0
VERTEX
  8
0
 10
64.637299
 20
211.488223
 42
0.004052
  0
VERTEX
  8
0
 10
64.975383
 20
206.638057
 42
0.003183
  0
VERTEX
  8
0
 10
65.317389
 20
202.579142
 42
0.033408
  0
VERTEX
  8
0
 10
65.578385
 20
200.932748
 42
-0.055048
  0
VERTEX
  8
0
 10
65.746534
 20
199.464438
 42
-0.188948
  0
VERTEX
  8
0
 10
65.406228
 20
198.585635
 42
-0.118398
  0
VERTEX
  8
0
 10
64.432814
 20
197.930849
 42
-0.016339
  0
VERTEX
  8
0
 10
62.102953
 20
197.148991
 42
0.036564
  0
VERTEX
  8
0
 10
57.682222
 20
195.463828
 42
0.008967
  0
VERTEX
  8
0
 10
50.686393
 20
192.039307
 42
0.007927
  0
VERTEX
  8
0
 10
43.847994
 20
188.400514
 42
0.054048
  0
VERTEX
  8
0
 10
40.726371
 20
186.205487
 42
-0.044077
  0
VERTEX
  8
0
 10
39.948357
 20
185.634950
 42
-0.076923
  0
VERTEX
  8
0
 10
39.210701
 20
185.330782
 42
-0.105177
  0
VERTEX
  8
0
 10
38.583276
 20
185.313226
 42
-0.165242
  0
VERTEX
  8
0
 10
38.116790
 20
185.573629
 42
-0.147322
  0
VERTEX
  8
0
 10
37.206480
 20
187.499265
 42
-0.005721
  0
VERTEX
  8
0
 10
36.116374
 20
195.370645
 42
-0.011170
  0
VERTEX
  8
0
 10
35.269514
 20
203.497273
 42
-0.020424
  0
VERTEX
  8
0
 10
34.998724
 20
210.154978
 42
0.000000
  0
VERTEX
  8
0
 10
35.000000
 20
216.809956
 42
0.000000
  0
VERTEX
  8
0
 10
39.750000
 20
219.594070
 42
-0.023881
  0
VERTEX
  8
0
 10
44.093610
 20
221.868693
 42
-0.004443
  0
VERTEX
  8
0
 10
52.298230
 20
225.589545
 42
-0.002290
  0
VERTEX
  8
0
 10
60.908417
 20
229.355393
 42
-0.074862
  0
VERTEX
  8
0
 10
63.100220
 20
229.934418
 42
-0.416095
  0
VERTEX
  8
0
 10
63.354896
 20
229.728566
 42
-0.002033
  0
VERTEX
  8
0
 10
63.714041
 20
226.088548
 42
-0.007123
  0
VERTEX
  8
0
 10
64.055924
 20
221.826049
 42
-0.004259
  0
SEQEND
  0
POLYLINE
  8
0
 66
1
 70
1
  0
VERTEX
  8
0
 10
245.712259
 20
226.915682
 42
-0.009180
  0
VERTEX
  8
0
 10
249.141116
 20
225.480165
 42
-0.006039
  0
VERTEX
  8
0
 10
253.035188
 20
223.708744
 42
-0.006076
  0
VERTEX
  8
0
 10
256.784173
 20
221.892444
 42
-0.011650
  0
VERTEX
  8
0
 10
259.738290
 20
220.329616
 42
0.000000
  0
VERTEX
  8
0
 10
266.000000
 20
216.827868
 42
0.000000
  0
VERTEX
  8
0
 10
265.963245
 20
208.163934
 42
-0.020571
  0
VERTEX
  8
0
 10
265.678525
 20
201.893807
 42
-0.012066
  0
VERTEX
  8
0
 10
264.848949
 20
194.426681
 42
-0.006016
  0
VERTEX
  8
0
 10
263.786598
 20
187.242265
 42
-0.169348
  0
VERTEX
  8
0
 10
262.904428
 20
185.605551
 42
-0.305715
  0
VERTEX
  8
0
 10
262.563747
 20
185.554915
 42
-0.002721
  0
VERTEX
  8
0
 10
260.106791
 20
186.745620
 42
-0.008063
  0
VERTEX
  8
0
 10
257.256074
 20
188.203887
 42
-0.004974
  0
VERTEX
  8
0
 10
253.948478
 20
190.006173
 42
0.008367
  0
VERTEX
  8
0
 10
250.287083
 20
191.969138
 42
0.007098
  0
VERTEX
  8
0
 10
246.356826
 20
193.922255
 42
0.007169
  0
VERTEX
  8
0
 10
242.725508
 20
195.599384
 42
0.019899
  0
VERTEX
  8
0
 10
240.113077
 20
196.638383
 42
-0.009891
  0
VERTEX
  8
0
 10
236.718716
 20
197.910301
 42
-0.118456
  0
VERTEX
  8
0
 10
235.583190
 20
198.710915
 42
-0.189638
  0
VERTEX
  8
0
 10
235.191280
 20
199.797885
 42
-0.033395
  0
VERTEX
  8
0
 10
235.402324
 20
202.000000
 42
0.018047
  0
VERTEX
  8
0
 10
235.663198
 20
204.055826
 42
0.002925
  0
VERTEX
  8
0
 10
236.002343
 20
208.070312
 42
0.003224
  0
VERTEX
  8
0
 10
236.343622
 20
212.803370
 42
0.002831
  0
VERTEX
  8
0
 10
236.640128
 20
217.750000
 42
-0.002452
  0
VERTEX
  8
0
 10
236.918107
 20
222.447179
 42
-0.004080
  0
VERTEX
  8
0
 10
237.204016
 20
226.401563
 42
-0.000671
  0
VERTEX
  8
0
 10
237.488174
 20
229.872825
 42
-0.390101
  0
VERTEX
  8
0
 10
237.626371
 20
230.000000
 42
-0.090872
  0
VERTEX
  8
0
 10
237.869135
 20
229.955512
 42
-0.000479
  0
VERTEX
  8
0
 10
240.134247
 20
229.093982
 42
-0.002101
  0
VERTEX
  8
0
 10
242.712790
 20
228.097979
 42
-0.001329
  0
SEQEND
  0
POLYLINE
  8
0
 66
1
 70
1
  0
VERTEX
  8
0
 10
275.897786
 20
202.436021
 42
-0.011909
  0
VERTEX
  8
0
 10
277.291421
 20
198.881040
 42
-0.006234
  0
VERTEX
  8
0
 10
278.864616
 20
194.395568
 42
-0.006197
  0
VERTEX
  8
0
 10
280.364075
 20
189.753945
 42
-0.009447
  0
VERTEX
  8
0
 10
281.539005
 20
185.686021
 42
-0.017551
  0
VERTEX
  8
0
 10
283.265682
 20
178.216888
 42
-0.009869
  0
VERTEX
  8
0
 10
284.862389
 20
169.044446
 42
-0.003358
  0
VERTEX
  8
0
 10
286.215525
 20
159.835742
 42
-0.235351
  0
VERTEX
  8
0
 10
285.735503
 20
158.402170
 42
-0.438174
  0
VERTEX
  8
0
 10
285.440245
 20
158.414150
 42
-0.007667
  0
VERTEX
  8
0
 10
284.306841
 20
159.790333
 42
-0.013855
  0
VERTEX
  8
0
 10
282.976599
 20
161.555097
 42
-0.008131
  0
VERTEX
  8
0
 10
281.479064
 20
163.734924
 42
0.014994
  0
VERTEX
  8
0
 10
279.633435
 20
166.343977
 42
0.008136
  0
VERTEX
  8
0
 10
277.218284
 20
169.443506
 42
0.008098
  0
VERTEX
  8
0
 10
274.656136
 20
172.520229
 42
0.012682
  0
VERTEX
  8
0
 10
272.344316
 20
175.072756
 42
0.000000
  0
VERTEX
  8
0
 10
267.033685
 20
180.645511
 42
0.000000
  0
VERTEX
  8
0
 10
268.465052
 20
187.572756
 42
0.009742
  0
VERTEX
  8
0
 10
269.063407
 20
190.782939
 42
0.005318
  0
VERTEX
  8
0
 10
269.678561
 20
194.741684
 42
0.005298
  0
VERTEX
  8
0
 10
270.218451
 20
198.779290
 42
0.008393
  0
VERTEX
  8
0
 10
270.586141
 20
202.250000
 42
-0.008683
  0
VERTEX
  8
0
 10
270.902666
 20
205.221277
 42
-0.014218
  0
VERTEX
  8
0
 10
271.285762
 20
207.723437
 42
-0.007854
  0
VERTEX
  8
0
 10
271.687982
 20
209.748514
 42
-0.353461
  0
VERTEX
  8
0
 10
271.999284
 20
210.000000
 42
-0.274258
  0
VERTEX
  8
0
 10
272.384849
 20
209.771310
 42
-0.006049
  0
VERTEX
  8
0
 10
273.442880
 20
207.778081
 42
-0.012008
  0
VERTEX
  8
0
 10
274.628510
 20
205.335371
 42
-0.007609
  0
SEQEND
  0
POLYLINE
  8
0
 66
1
 70
1
  0
VERTEX
  8
0
 10
29.074310
 20
207.250000
 42
0.013491
  0
VERTEX
  8
0
 10
29.133139
 20
206.403913
 42
0.005813
  0
VERTEX
  8
0
 10
29.255059
 20
205.279687
 42
0.005747
  0
VERTEX
  8
0
 10
29.412616
 20
204.085215
 42
0.007569
  0
VERTEX
  8
0
 10
29.585276
 20
203.000000
 42
-0.001148
  0
VERTEX
  8
0
 10
31.013118
 20
194.712909
 42
-0.002355
  0
VERTEX
  8
0
 10
32.086369
 20
188.211936
 42
-0.001409
  0
VERTEX
  8
0
 10
32.893197
 20
183.084897
 42
-0.040185
  0
VERTEX
  8
0
 10
32.990776
 20
181.749555
 42
-0.142560
  0
VERTEX
  8
0
 10
32.772191
 20
181.018645
 42
-0.012391
  0
VERTEX
  8
0
 10
31.667017
 20
179.398307
 42
-0.015505
  0
VERTEX
  8
0
 10
30.215543
 20
177.506224
 42
-0.011423
  0
VERTEX
  8
0
 10
28.497314
 20
175.500000
 42
0.010612
  0
VERTEX
  8
0
 10
26.510405
 20
173.187658
 42
0.006301
  0
VERTEX
  8
0
 10
24.236820
 20
170.353125
 42
0.006304
  0
VERTEX
  8
0
 10
22.039734
 20
167.467868
 42
0.010800
  0
VERTEX
  8
0
 10
20.290521
 20
165.000000
 42
-0.002872
  0
VERTEX
  8
0
 10
16.381179
 20
159.294890
 42
-0.245858
  0
VERTEX
  8
0
 10
15.481369
 20
158.823975
 42
-0.432506
  0
VERTEX
  8
0
 10
14.955440
 20
159.383592
 42
-0.005044
  0
VERTEX
  8
0
 10
15.361286
 20
165.000000
 42
-0.022501
  0
VERTEX
  8
0
 10
16.334392
 20
172.607837
 42
-0.016954
  0
VERTEX
  8
0
 10
18.060093
 20
180.861412
 42
-0.015701
  0
VERTEX
  8
0
 10
20.507381
 20
189.655530
 42
-0.012850
  0
VERTEX
  8
0
 10
23.656403
 20
198.893771
 42
-0.007656
  0
VERTEX
  8
0
 10
26.061484
 20
205.103360
 42
-0.047634
  0
VERTEX
  8
0
 10
27.636100
 20
208.127682
 42
-0.424918
  0
VERTEX
  8
0
 10
28.501822
 20
208.295944
 42
-0.233280
  0
SEQEND
  0
POLYLINE
  8
0
 66
1
 70
1
  0
VERTEX
  8
0
 10
65.526253
 20
188.791487
 42
0.014237
  0
VERTEX
  8
0
 10
63.371600
 20
182.953085
 42
0.012565
  0
VERTEX
  8
0
 10
61.454546
 20
176.754523
 42
0.012024
  0
VERTEX
  8
0
 10
59.772812
 20
170.189364
 42
0.010508
  0
VERTEX
  8
0
 10
58.324862
 20
163.250000
 42
-0.005405
  0
VERTEX
  8
0
 10
57.622838
 20
159.704950
 42
-0.008879
  0
VERTEX
  8
0
 10
56.943316
 20
156.723192
 42
-0.003163
  0
VERTEX
  8
0
 10
56.307310
 20
154.213028
 42
-0.351931
  0
VERTEX
  8
0
 10
56.048391
 20
154.020440
 42
-0.232833
  0
VERTEX
  8
0
 10
54.834744
 20
154.675241
 42
-0.003804
  0
VERTEX
  8
0
 10
50.279387
 20
161.180443
 42
-0.010465
  0
VERTEX
  8
0
 10
45.989653
 20
167.694293
 42
-0.023494
  0
VERTEX
  8
0
 10
43.077450
 20
172.846573
 42
-0.009705
  0
VERTEX
  8
0
 10
41.478027
 20
176.174008
 42
-0.044598
  0
VERTEX
  8
0
 10
40.765801
 20
178.190492
 42
-0.086264
  0
VERTEX
  8
0
 10
40.657978
 20
179.565001
 42
-0.150855
  0
VERTEX
  8
0
 10
41.091770
 20
180.610576
 42
-0.099899
  0
VERTEX
  8
0
 10
43.372966
 20
182.451276
 42
-0.003049
  0
VERTEX
  8
0
 10
54.221376
 20
188.012491
 42
-0.001366
  0
VERTEX
  8
0
 10
65.663840
 20
193.751230
 42
-0.322406
  0
VERTEX
  8
0
 10
66.760997
 20
193.572337
 42
-0.249766
  0
VERTEX
  8
0
 10
66.877774
 20
193.189246
 42
-0.014778
  0
VERTEX
  8
0
 10
66.600153
 20
191.966100
 42
-0.019449
  0
VERTEX
  8
0
 10
66.151460
 20
190.471451
 42
-0.012871
  0
SEQEND
  0
POLYLINE
  8
0
 66
1
 70
1
  0
VERTEX
  8
0
 10
249.000000
 20
186.885319
 42
-0.005659
  0
VERTEX
  8
0
 10
252.048108
 20
185.249691
 42
-0.005966
  0
VERTEX
  8
0
 10
255.004913
 20
183.573378
 42
-0.005727
  0
VERTEX
  8
0
 10
257.519518
 20
182.068998
 42
-0.026665
  0
VERTEX
  8
0
 10
258.910342
 20
181.109485
 42
0.000000
  0
VERTEX
  8
0
 10
261.320684
 20
179.249505
 42
0.000000
  0
VERTEX
  8
0
 10
257.563073
 20
172.374752
 42
-0.017622
  0
VERTEX
  8
0
 10
254.545633
 20
167.288624
 42
-0.010621
  0
VERTEX
  8
0
 10
250.632705
 20
161.468982
 42
-0.006971
  0
VERTEX
  8
0
 10
246.749065
 20
156.110130
 42
-0.094318
  0
VERTEX
  8
0
 10
244.973955
 20
154.483903
 42
-0.489768
  0
VERTEX
  8
0
 10
244.636978
 20
154.609698
 42
-0.012194
  0
VERTEX
  8
0
 10
244.118158
 20
156.425771
 42
-0.016977
  0
VERTEX
  8
0
 10
243.585099
 20
158.810302
 42
-0.009583
  0
VERTEX
  8
0
 10
243.093042
 20
161.732601
 42
0.019409
  0
VERTEX
  8
0
 10
242.380496
 20
165.509626
 42
0.007590
  0
VERTEX
  8
0
 10
241.116630
 20
170.664103
 42
0.007500
  0
VERTEX
  8
0
 10
239.579099
 20
176.205943
 42
0.009257
  0
VERTEX
  8
0
 10
237.973675
 20
181.320609
 42
-0.000820
  0
VERTEX
  8
0
 10
236.450337
 20
185.901740
 42
-0.001314
  0
VERTEX
  8
0
 10
235.167267
 20
189.816033
 42
-0.000219
  0
VERTEX
  8
0
 10
234.042293
 20
193.283922
 42
-0.078473
  0
VERTEX
  8
0
 10
234.000000
 20
193.551738
 42
-0.537974
  0
VERTEX
  8
0
 10
234.375975
 20
193.800041
 42
-0.003688
  0
VERTEX
  8
0
 10
238.587765
 20
191.965286
 42
-0.009444
  0
VERTEX
  8
0
 10
243.480596
 20
189.679159
 42
-0.006299
  0
SEQEND
  0
POLYLINE
  8
0
 66
1
 70
1
  0
VERTEX
  8
0
 10
39.801085
 20
168.744848
 42
0.009613
  0
VERTEX
  8
0
 10
41.624831
 20
165.568245
 42
0.006497
  0
VERTEX
  8
0
 10
43.820153
 20
162.014690
 42
0.006547
  0
VERTEX
  8
0
 10
46.032641
 20
158.633881
 42
0.012954
  0
VERTEX
  8
0
 10
47.891472
 20
156.021760
 42
-0.006264
  0
VERTEX
  8
0
 10
49.465687
 20
153.871097
 42
-0.009149
  0
VERTEX
  8
0
 10
50.793120
 20
151.935092
 42
-0.005238
  0
VERTEX
  8
0
 10
51.857100
 20
150.283364
 42
-0.141377
  0
VERTEX
  8
0
 10
52.000000
 20
149.788079
 42
-0.142706
  0
VERTEX
  8
0
 10
51.854755
 20
149.289548
 42
-0.004817
  0
VERTEX
  8
0
 10
50.726624
 20
147.554929
 42
-0.008749
  0
VERTEX
  8
0
 10
49.326109
 20
145.524235
 42
-0.005950
  0
VERTEX
  8
0
 10
47.665102
 20
143.261167
 42
0.009278
  0
VERTEX
  8
0
 10
45.714521
 20
140.566137
 42
0.005078
  0
VERTEX
  8
0
 10
43.419337
 20
137.195315
 42
0.005059
  0
VERTEX
  8
0
 10
41.156909
 20
133.723338
 42
0.008035
  0
VERTEX
  8
0
 10
39.298738
 20
130.701606
 42
0.000000
  0
VERTEX
  8
0
 10
35.267272
 20
123.903212
 42
0.000000
  0
VERTEX
  8
0
 10
31.289011
 20
128.701606
 42
-0.016551
  0
VERTEX
  8
0
 10
26.714771
 20
134.606116
 42
-0.014395
  0
VERTEX
  8
0
 10
22.314061
 20
141.076900
 42
-0.009937
  0
VERTEX
  8
0
 10
18.665361
 20
147.047139
 42
-0.132951
  0
VERTEX
  8
0
 10
18.000000
 20
149.505194
 42
-0.122280
  0
VERTEX
  8
0
 10
18.753306
 20
152.539379
 42
-0.014269
  0
VERTEX
  8
0
 10
22.222531
 20
158.665929
 42
-0.018098
  0
VERTEX
  8
0
 10
26.448331
 20
165.116298
 42
-0.025960
  0
VERTEX
  8
0
 10
30.680787
 20
170.479831
 42
-0.001431
  0
VERTEX
  8
0
 10
32.539933
 20
172.587459
 42
-0.002330
  0
VERTEX
  8
0
 10
34.131243
 20
174.364333
 42
-0.000314
  0
VERTEX
  8
0
 10
35.552845
 20
175.934920
 42
-0.191186
  0
VERTEX
  8
0
 10
35.659613
 20
175.987381
 42
-0.289974
  0
VERTEX
  8
0
 10
35.755590
 20
175.936733
 42
-0.000328
  0
VERTEX
  8
0
 10
36.942011
 20
173.865092
 42
-0.002723
  0
VERTEX
  8
0
 10
38.262877
 20
171.525715
 42
-0.001652
  0
SEQEND
  0
POLYLINE
  8
0
 66
1
 70
1
  0
VERTEX
  8
0
 10
276.045635
 20
162.662464
 42
-0.011266
  0
VERTEX
  8
0
 10
277.987985
 20
159.793320
 42
-0.011116
  0
VERTEX
  8
0
 10
279.808096
 20
156.826948
 42
-0.011044
  0
VERTEX
  8
0
 10
281.285700
 20
154.160541
 42
-0.041315
  0
VERTEX
  8
0
 10
282.033490
 20
152.398525
 42
-0.045143
  0
VERTEX
  8
0
 10
282.529033
 20
150.268209
 42
-0.092130
  0
VERTEX
  8
0
 10
282.451367
 20
148.559212
 42
-0.059008
  0
VERTEX
  8
0
 10
281.721861
 20
146.542170
 42
-0.010311
  0
VERTEX
  8
0
 10
279.832152
 20
142.960920
 42
-0.027525
  0
VERTEX
  8
0
 10
276.537143
 20
137.719200
 42
-0.014816
  0
VERTEX
  8
0
 10
271.941726
 20
131.621977
 42
-0.007651
  0
VERTEX
  8
0
 10
267.217165
 20
125.906784
 42
-0.209357
  0
VERTEX
  8
0
 10
265.500000
 20
125.073166
 42
-0.241935
  0
VERTEX
  8
0
 10
264.954071
 20
125.327218
 42
-0.011171
  0
VERTEX
  8
0
 10
263.696123
 20
127.023295
 42
-0.016449
  0
VERTEX
  8
0
 10
262.267763
 20
129.189614
 42
-0.010844
  0
VERTEX
  8
0
 10
260.763398
 20
131.766975
 42
0.013260
  0
VERTEX
  8
0
 10
258.998097
 20
134.758101
 42
0.008119
  0
VERTEX
  8
0
 10
256.767231
 20
138.193590
 42
0.008137
  0
VERTEX
  8
0
 10
254.446128
 20
141.525663
 42
0.014327
  0
VERTEX
  8
0
 10
252.406569
 20
144.189926
 42
0.000000
  0
VERTEX
  8
0
 10
247.786341
 20
149.879853
 42
0.000000
  0
VERTEX
  8
0
 10
250.806566
 20
153.111487
 42
0.031452
  0
VERTEX
  8
0
 10
252.339013
 20
154.973120
 42
0.007395
  0
VERTEX
  8
0
 10
254.654102
 20
158.278181
 42
0.007588
  0
VERTEX
  8
0
 10
257.207264
 20
162.166016
 42
0.007399
  0
VERTEX
  8
0
 10
259.663395
 20
166.162193
 42
0.000000
  0
VERTEX
  8
0
 10
265.500000
 20
175.981265
 42
0.000000
  0
VERTEX
  8
0
 10
268.344297
 20
172.740633
 42
-0.012834
  0
VERTEX
  8
0
 10
269.762710
 20
171.038366
 42
-0.004130
  0
VERTEX
  8
0
 10
271.779838
 20
168.443410
 42
-0.004116
  0
VERTEX
  8
0
 10
273.977483
 20
165.517909
 42
-0.004600
  0
SEQEND
  0
POLYLINE
  8
0
 66
1
 70
1
  0
VERTEX
  8
0
 10
251.104993
 20
137.727444
 42
-0.002904
  0
VERTEX
  8
0
 10
253.072465
 20
134.599591
 42
-0.002259
  0
VERTEX
  8
0
 10
255.177189
 20
131.175593
 42
-0.002283
  0
VERTEX
  8
0
 10
257.110444
 20
127.965545
 42
-0.005530
  0
VERTEX
  8
0
 10
258.501200
 20
125.572447
 42
0.000000
  0
VERTEX
  8
0
 10
261.292414
 20
120.644894
 42
0.000000
  0
VERTEX
  8
0
 10
258.441077
 20
118.371318
 42
-0.043555
  0
VERTEX
  8
0
 10
254.346411
 20
115.652883
 42
-0.008579
  0
VERTEX
  8
0
 10
246.522092
 20
111.560832
 42
-0.005364
  0
VERTEX
  8
0
 10
238.390393
 20
107.592716
 42
-0.111296
  0
VERTEX
  8
0
 10
235.758593
 20
106.999827
 42
-0.175605
  0
VERTEX
  8
0
 10
234.949030
 20
107.293291
 42
-0.248370
  0
VERTEX
  8
0
 10
234.664209
 20
107.989201
 42
-0.060454
  0
VERTEX
  8
0
 10
234.999972
 20
109.496575
 42
-0.005017
  0
VERTEX
  8
0
 10
236.377772
 20
113.271502
 42
0.018834
  0
VERTEX
  8
0
 10
238.377077
 20
119.257802
 42
0.009116
  0
VERTEX
  8
0
 10
240.503410
 20
127.048717
 42
0.009120
  0
VERTEX
  8
0
 10
242.347764
 20
134.927049
 42
0.018469
  0
VERTEX
  8
0
 10
243.455180
 20
141.198090
 42
-0.018051
  0
VERTEX
  8
0
 10
243.808840
 20
143.210589
 42
-0.050573
  0
VERTEX
  8
0
 10
244.246548
 20
144.571807
 42
-0.093141
  0
VERTEX
  8
0
 10
244.749021
 20
145.309561
 42
-0.298928
  0
VERTEX
  8
0
 10
245.303488
 20
145.425533
 42
-0.130307
  0
VERTEX
  8
0
 10
245.970528
 20
144.935175
 42
-0.007977
  0
VERTEX
  8
0
 10
247.501241
 20
142.970078
 42
-0.011439
  0
VERTEX
  8
0
 10
249.253844
 20
140.530353
 42
-0.008194
  0
SEQEND
  0
POLYLINE
  8
0
 66
1
 70
1
  0
VERTEX
  8
0
 10
57.527838
 20
139.750000
 42
0.020110
  0
VERTEX
  8
0
 10
58.595309
 20
133.735997
 42
0.011825
  0
VERTEX
  8
0
 10
60.328388
 20
126.639588
 42
0.011798
  0
VERTEX
  8
0
 10
62.409438
 20
119.582873
 42
0.018899
  0
VERTEX
  8
0
 10
64.551720
 20
113.680439
 42
-0.009583
  0
VERTEX
  8
0
 10
65.451879
 20
111.337351
 42
-0.014886
  0
VERTEX
  8
0
 10
66.128484
 20
109.280879
 42
-0.009079
  0
VERTEX
  8
0
 10
66.600984
 20
107.573140
 42
-0.265264
  0
VERTEX
  8
0
 10
66.486077
 20
107.152744
 42
-0.318192
  0
VERTEX
  8
0
 10
64.385156
 20
106.793674
 42
-0.004879
  0
VERTEX
  8
0
 10
52.724686
 20
112.521623
 42
-0.005143
  0
VERTEX
  8
0
 10
41.217586
 20
118.463413
 42
-0.277798
  0
VERTEX
  8
0
 10
40.000000
 20
120.485789
 42
-0.139684
  0
VERTEX
  8
0
 10
40.975873
 20
123.910768
 42
-0.007000
  0
VERTEX
  8
0
 10
47.320116
 20
133.827329
 42
-0.005064
  0
VERTEX
  8
0
 10
54.066405
 20
143.832130
 42
-0.237414
  0
VERTEX
  8
0
 10
56.156162
 20
144.977024
 42
-0.335927
  0
VERTEX
  8
0
 10
56.445043
 20
144.773756
 42
-0.013209
  0
VERTEX
  8
0
 10
56.829759
 20
143.451063
 42
-0.018732
  0
VERTEX
  8
0
 10
57.206235
 20
141.760949
 42
-0.011565
  0
SEQEND
  0
POLYLINE
  8
0
 66
1
 70
1
  0
VERTEX
  8
0
 10
285.566884
 20
133.953371
 42
-0.025814
  0
VERTEX
  8
0
 10
284.387849
 20
125.919014
 42
-0.014487
  0
VERTEX
  8
0
 10
282.173317
 20
116.300746
 42
-0.014425
  0
VERTEX
  8
0
 10
279.365597
 20
106.685880
 42
-0.022684
  0
VERTEX
  8
0
 10
276.348744
 20
98.630047
 42
-0.004353
  0
VERTEX
  8
0
 10
274.960482
 20
95.456723
 42
-0.006113
  0
VERTEX
  8
0
 10
273.662371
 20
92.650912
 42
-0.003770
  0
VERTEX
  8
0
 10
272.527074
 20
90.319088
 42
-0.079491
  0
VERTEX
  8
0
 10
272.080223
 20
89.692209
 42
-0.584906
  0
VERTEX
  8
0
 10
271.734367
 20
89.786299
 42
-0.015532
  0
VERTEX
  8
0
 10
271.313251
 20
91.708995
 42
-0.017259
  0
VERTEX
  8
0
 10
270.911056
 20
94.369389
 42
-0.009122
  0
VERTEX
  8
0
 10
270.586769
 20
97.692209
 42
0.009775
  0
VERTEX
  8
0
 10
270.211278
 20
101.488416
 42
0.007529
  0
VERTEX
  8
0
 10
269.658473
 20
105.614124
 42
0.007621
  0
VERTEX
  8
0
 10
269.024749
 20
109.455629
 42
0.017975
  0
VERTEX
  8
0
 10
268.406288
 20
112.292044
 42
0.000000
  0
VERTEX
  8
0
 10
266.923454
 20
118.084088
 42
0.000000
  0
VERTEX
  8
0
 10
272.806451
 20
124.792044
 42
0.006903
  0
VERTEX
  8
0
 10
275.293517
 20
127.708114
 42
0.005473
  0
VERTEX
  8
0
 10
277.902292
 20
130.924850
 42
0.005536
  0
VERTEX
  8
0
 10
280.256541
 20
133.962065
 42
0.013750
  0
VERTEX
  8
0
 10
281.892764
 20
136.250000
 42
-0.007678
  0
VERTEX
  8
0
 10
283.161516
 20
138.070412
 42
-0.011750
  0
VERTEX
  8
0
 10
284.321928
 20
139.604688
 42
-0.006358
  0
VERTEX
  8
0
 10
285.332842
 20
140.845251
 42
-0.222132
  0
VERTEX
  8
0
 10
285.663982
 20
141.000000
 42
-0.410934
  0
VERTEX
  8
0
 10
285.872113
 20
140.794189
 42
-0.006247
  0
VERTEX
  8
0
 10
285.869718
 20
138.930053
 42
-0.012586
  0
VERTEX
  8
0
 10
285.781080
 20
136.655443
 42
-0.007494
  0
SEQEND
  0
POLYLINE
  8
0
 66
1
 70
1
  0
VERTEX
  8
0
 10
23.500000
 20
130.890131
 42
-0.000832
  0
VERTEX
  8
0
 10
26.275668
 20
127.310777
 42
-0.001058
  0
VERTEX
  8
0
 10
28.825532
 20
123.996813
 42
-0.000826
  0
VERTEX
  8
0
 10
30.953445
 20
121.209578
 42
-0.008745
  0
VERTEX
  8
0
 10
31.799685
 20
120.056005
 42
-0.117465
  0
VERTEX
  8
0
 10
32.396318
 20
118.568974
 42
-0.044038
  0
VERTEX
  8
0
 10
32.531181
 20
116.312001
 42
-0.023665
  0
VERTEX
  8
0
 10
32.261154
 20
112.749717
 42
-0.004602
  0
VERTEX
  8
0
 10
31.411454
 20
106.358871
 42
0.000687
  0
VERTEX
  8
0
 10
30.750775
 20
101.670964
 42
0.000906
  0
VERTEX
  8
0
 10
30.162185
 20
97.396043
 42
0.000651
  0
VERTEX
  8
0
 10
29.679886
 20
93.810524
 42
0.008848
  0
VERTEX
  8
0
 10
29.528888
 20
92.500000
 42
-0.751660
  0
VERTEX
  8
0
 10
27.383171
 20
92.099225
 42
-0.034834
  0
VERTEX
  8
0
 10
22.854425
 20
102.910597
 42
-0.021217
  0
VERTEX
  8
0
 10
18.017132
 20
119.445220
 42
-0.035236
  0
VERTEX
  8
0
 10
15.535971
 20
133.750000
 42
-0.011816
  0
VERTEX
  8
0
 10
15.349768
 20
136.142630
 42
-0.020146
  0
VERTEX
  8
0
 10
15.322201
 20
138.147318
 42
-0.015558
  0
VERTEX
  8
0
 10
15.411647
 20
139.697137
 42
-0.409068
  0
VERTEX
  8
0
 10
15.700344
 20
139.942997
 42
-0.196551
  0
VERTEX
  8
0
 10
16.194613
 20
139.698532
 42
-0.003039
  0
VERTEX
  8
0
 10
18.321351
 20
137.260204
 42
-0.007589
  0
VERTEX
  8
0
 10
20.759230
 20
134.342203
 42
-0.004887
  0
SEQEND
  0
POLYLINE
  8
0
 66
1
 70
1
  0
VERTEX
  8
0
 10
265.018920
 20
102.771189
 42
-0.011023
  0
VERTEX
  8
0
 10
265.417345
 20
99.165621
 42
-0.008177
  0
VERTEX
  8
0
 10
265.704356
 20
95.167162
 42
-0.008273
  0
VERTEX
  8
0
 10
265.851122
 20
91.382468
 42
-0.018419
  0
VERTEX
  8
0
 10
265.808982
 20
88.500000
 42
0.000000
  0
VERTEX
  8
0
 10
265.500000
 20
82.500000
 42
0.000000
  0
VERTEX
  8
0
 10
260.000000
 20
79.531359
 42
-0.017329
  0
VERTEX
  8
0
 10
254.131781
 20
76.621853
 42
-0.009401
  0
VERTEX
  8
0
 10
246.735353
 20
73.434956
 42
-0.003047
  0
VERTEX
  8
0
 10
239.209652
 20
70.412196
 42
-0.236628
  0
VERTEX
  8
0
 10
237.962231
 20
70.523343
 42
-0.236262
  0
VERTEX
  8
0
 10
237.546188
 20
71.197067
 42
-0.001630
  0
VERTEX
  8
0
 10
236.947573
 20
78.145994
 42
-0.005178
  0
VERTEX
  8
0
 10
236.319562
 20
86.814839
 42
-0.002229
  0
VERTEX
  8
0
 10
235.653327
 20
98.387632
 42
-0.078991
  0
VERTEX
  8
0
 10
235.833094
 20
100.099871
 42
-0.151766
  0
VERTEX
  8
0
 10
236.563333
 20
101.255627
 42
-0.071565
  0
VERTEX
  8
0
 10
238.227564
 20
102.306407
 42
-0.008385
  0
VERTEX
  8
0
 10
242.276047
 20
104.034928
 42
0.012539
  0
VERTEX
  8
0
 10
245.355805
 20
105.380203
 42
0.007009
  0
VERTEX
  8
0
 10
249.036792
 20
107.162533
 42
0.006988
  0
VERTEX
  8
0
 10
252.709929
 20
109.069771
 42
0.011275
  0
VERTEX
  8
0
 10
255.776047
 20
110.806820
 42
-0.016480
  0
VERTEX
  8
0
 10
260.940682
 20
113.662146
 42
-0.305976
  0
VERTEX
  8
0
 10
262.700379
 20
113.446783
 42
-0.176845
  0
VERTEX
  8
0
 10
263.750206
 20
111.548089
 42
-0.005727
  0
SEQEND
  0
POLYLINE
  8
0
 66
1
 70
1
  0
VERTEX
  8
0
 10
52.749802
 20
107.000000
 42
-0.004108
  0
VERTEX
  8
0
 10
60.063356
 20
103.337320
 42
-0.028458
  0
VERTEX
  8
0
 10
63.521756
 20
101.313732
 42
-0.066307
  0
VERTEX
  8
0
 10
65.206830
 20
99.839593
 42
-0.240041
  0
VERTEX
  8
0
 10
65.546715
 20
98.500000
 42
0.034631
  0
VERTEX
  8
0
 10
65.338364
 20
97.152939
 42
0.002242
  0
VERTEX
  8
0
 10
65.022558
 20
93.200671
 42
0.003260
  0
VERTEX
  8
0
 10
64.697739
 20
88.482183
 42
0.002424
  0
VERTEX
  8
0
 10
64.398326
 20
83.268241
 42
0.000000
  0
VERTEX
  8
0
 10
63.702826
 20
70.036482
 42
0.000000
  0
VERTEX
  8
0
 10
61.104540
 20
70.688610
 42
-0.029888
  0
VERTEX
  8
0
 10
56.618803
 20
72.104093
 42
-0.014250
  0
VERTEX
  8
0
 10
51.030075
 20
74.427017
 42
-0.014195
  0
VERTEX
  8
0
 10
45.407170
 20
77.148789
 42
-0.022287
  0
VERTEX
  8
0
 10
40.758746
 20
79.833567
 42
0.000000
  0
VERTEX
  8
0
 10
35.017493
 20
83.500000
 42
0.000000
  0
VERTEX
  8
0
 10
35.008746
 20
91.566341
 42
-0.020008
  0
VERTEX
  8
0
 10
35.314277
 20
99.411336
 42
-0.021891
  0
VERTEX
  8
0
 10
36.246832
 20
106.972684
 42
-0.015545
  0
VERTEX
  8
0
 10
37.495092
 20
113.208147
 42
-0.470909
  0
VERTEX
  8
0
 10
38.750526
 20
113.833158
 42
-0.008855
  0
VERTEX
  8
0
 10
39.316368
 20
113.569532
 42
-0.000095
  0
VERTEX
  8
0
 10
43.171971
 20
111.688490
 42
-0.000301
  0
VERTEX
  8
0
 10
47.617422
 20
109.515313
 42
-0.000196
  0
SEQEND
  0
POLYLINE
  8
0
 66
1
 70
1
  0
VERTEX
  8
0
 10
78.768500
 20
90.426400
 42
0.013740
  0
VERTEX
  8
0
 10
81.619850
 20
87.257527
 42
0.007712
  0
VERTEX
  8
0
 10
85.246700
 20
83.558950
 42
0.007691
  0
VERTEX
  8
0
 10
89.027797
 20
79.933521
 42
0.012436
  0
VERTEX
  8
0
 10
92.366247
 20
76.980988
 42
-0.006192
  0
VERTEX
  8
0
 10
95.238081
 20
74.504343
 42
-0.010387
  0
VERTEX
  8
0
 10
97.580694
 20
72.344608
 42
-0.004289
  0
VERTEX
  8
0
 10
99.478091
 20
70.489412
 42
-0.414995
  0
VERTEX
  8
0
 10
99.478550
 20
70.145217
 42
-0.176120
  0
VERTEX
  8
0
 10
99.047603
 20
69.944052
 42
-0.001238
  0
VERTEX
  8
0
 10
94.965797
 20
69.593810
 42
-0.004553
  0
VERTEX
  8
0
 10
90.262292
 20
69.245048
 42
-0.002875
  0
VERTEX
  8
0
 10
84.767502
 20
68.919605
 42
-0.004240
  0
VERTEX
  8
0
 10
77.865683
 20
68.609300
 42
-0.015933
  0
VERTEX
  8
0
 10
73.532099
 20
68.589424
 42
-0.018512
  0
VERTEX
  8
0
 10
70.671016
 20
68.773635
 42
-0.227732
  0
VERTEX
  8
0
 10
69.763481
 20
69.328977
 42
-0.148552
  0
VERTEX
  8
0
 10
69.161128
 20
71.432574
 42
-0.002517
  0
VERTEX
  8
0
 10
69.417941
 20
83.602594
 42
-0.002792
  0
VERTEX
  8
0
 10
69.801156
 20
95.681332
 42
-0.129790
  0
VERTEX
  8
0
 10
70.513453
 20
98.021767
 42
-0.082724
  0
VERTEX
  8
0
 10
70.843037
 20
98.398574
 42
-0.119604
  0
VERTEX
  8
0
 10
71.239941
 20
98.589811
 42
-0.136948
  0
VERTEX
  8
0
 10
71.640782
 20
98.565217
 42
-0.125593
  0
VERTEX
  8
0
 10
71.986376
 20
98.337132
 42
-0.006905
  0
VERTEX
  8
0
 10
72.506514
 20
97.748558
 42
-0.000302
  0
VERTEX
  8
0
 10
74.292389
 20
95.668037
 42
-0.000512
  0
VERTEX
  8
0
 10
76.406381
 20
93.197142
 42
-0.000365
  0
SEQEND
  0
POLYLINE
  8
0
 66
1
 70
1
  0
VERTEX
  8
0
 10
231.374219
 20
82.116824
 42
0.000000
  0
VERTEX
  8
0
 10
231.500000
 20
68.500000
 42
0.000000
  0
VERTEX
  8
0
 10
218.762258
 20
68.833205
 42
-0.004587
  0
VERTEX
  8
0
 10
213.691590
 20
69.012406
 42
-0.005739
  0
VERTEX
  8
0
 10
208.991225
 20
69.275799
 42
-0.004683
  0
VERTEX
  8
0
 10
205.058069
 20
69.578547
 42
-0.043813
  0
VERTEX
  8
0
 10
203.386210
 20
69.872002
 42
0.000000
  0
VERTEX
  8
0
 10
200.747904
 20
70.577594
 42
0.000000
  0
VERTEX
  8
0
 10
204.610484
 20
73.538797
 42
0.020269
  0
VERTEX
  8
0
 10
209.931895
 20
77.972030
 42
0.010588
  0
VERTEX
  8
0
 10
216.208686
 20
83.893821
 42
0.010360
  0
VERTEX
  8
0
 10
222.038535
 20
89.874877
 42
0.029538
  0
VERTEX
  8
0
 10
225.750513
 20
94.346684
 42
-0.007998
  0
VERTEX
  8
0
 10
227.800250
 20
97.044356
 42
-0.075738
  0
VERTEX
  8
0
 10
228.855438
 20
98.034998
 42
-0.267096
  0
VERTEX
  8
0
 10
229.603323
 20
98.095456
 42
-0.156061
  0
VERTEX
  8
0
 10
230.280360
 20
97.463508
 42
-0.104059
  0
VERTEX
  8
0
 10
230.668803
 20
96.220270
 42
-0.006077
  0
VERTEX
  8
0
 10
231.001014
 20
92.241852
 42
-0.008994
  0
VERTEX
  8
0
 10
231.255556
 20
87.458938
 42
-0.006486
  0
SEQEND
  0
POLYLINE
  8
0
 66
1
 70
1
  0
VERTEX
  8
0
 10
47.490961
 20
70.597644
 42
0.007708
  0
VERTEX
  8
0
 10
50.883849
 20
69.158274
 42
0.006761
  0
VERTEX
  8
0
 10
54.470445
 20
67.757736
 42
0.006810
  0
VERTEX
  8
0
 10
57.743092
 20
66.581107
 42
0.020161
  0
VERTEX
  8
0
 10
60.029557
 20
65.895787
 42
0.000000
  0
VERTEX
  8
0
 10
64.577193
 20
64.730263
 42
0.000000
  0
VERTEX
  8
0
 10
67.416165
 20
56.615131
 42
0.005710
  0
VERTEX
  8
0
 10
68.684160
 20
53.119205
 42
0.004362
  0
VERTEX
  8
0
 10
70.148296
 20
49.322878
 42
0.004411
  0
VERTEX
  8
0
 10
71.582205
 20
45.790812
 42
0.010366
  0
VERTEX
  8
0
 10
72.730393
 20
43.186157
 42
-0.011491
  0
VERTEX
  8
0
 10
73.639846
 20
41.110430
 42
-0.017757
  0
VERTEX
  8
0
 10
74.319427
 20
39.274141
 42
-0.012381
  0
VERTEX
  8
0
 10
74.777693
 20
37.761583
 42
-0.269993
  0
VERTEX
  8
0
 10
74.663983
 20
37.330649
 42
-0.395908
  0
VERTEX
  8
0
 10
72.321175
 20
37.256943
 42
-0.005454
  0
VERTEX
  8
0
 10
60.769349
 20
47.665926
 42
-0.013960
  0
VERTEX
  8
0
 10
49.637761
 20
58.508160
 42
-0.029120
  0
VERTEX
  8
0
 10
41.728062
 20
67.665546
 42
-0.005522
  0
VERTEX
  8
0
 10
38.609967
 20
71.826003
 42
-0.042890
  0
VERTEX
  8
0
 10
37.349925
 20
73.897960
 42
-0.349666
  0
VERTEX
  8
0
 10
37.494248
 20
74.568185
 42
-0.280457
  0
VERTEX
  8
0
 10
38.250000
 20
74.673977
 42
-0.001796
  0
VERTEX
  8
0
 10
39.080940
 20
74.311462
 42
-0.000118
  0
VERTEX
  8
0
 10
41.480157
 20
73.253804
 42
-0.000171
  0
VERTEX
  8
0
 10
44.339092
 20
71.991516
 42
-0.000127
  0
SEQEND
  0
POLYLINE
  8
0
 66
1
 70
1
  0
VERTEX
  8
0
 10
263.000000
 20
74.376991
 42
-0.163997
  0
VERTEX
  8
0
 10
262.361549
 20
72.482815
 42
-0.005315
  0
VERTEX
  8
0
 10
257.360098
 20
66.049582
 42
-0.011014
  0
VERTEX
  8
0
 10
251.855349
 20
59.427100
 42
-0.015363
  0
VERTEX
  8
0
 10
246.625529
 20
53.770790
 42
-0.016675
  0
VERTEX
  8
0
 10
240.721654
 20
48.153974
 42
-0.013285
  0
VERTEX
  8
0
 10
234.000484
 20
42.486247
 42
-0.005186
  0
VERTEX
  8
0
 10
227.466256
 20
37.376880
 42
-0.376020
  0
VERTEX
  8
0
 10
226.206430
 20
37.460237
 42
-0.285919
  0
VERTEX
  8
0
 10
226.119010
 20
37.836271
 42
-0.003762
  0
VERTEX
  8
0
 10
226.946361
 20
40.204652
 42
-0.009418
  0
VERTEX
  8
0
 10
227.999402
 20
42.981742
 42
-0.005879
  0
VERTEX
  8
0
 10
229.332107
 20
46.196163
 42
0.006807
  0
VERTEX
  8
0
 10
230.786514
 20
49.722609
 42
0.005934
  0
VERTEX
  8
0
 10
232.214504
 20
53.451852
 42
0.005977
  0
VERTEX
  8
0
 10
233.425583
 20
56.855251
 42
0.017538
  0
VERTEX
  8
0
 10
234.148510
 20
59.235674
 42
0.000000
  0
VERTEX
  8
0
 10
235.407146
 20
63.971348
 42
0.000000
  0
VERTEX
  8
0
 10
242.953573
 20
66.524943
 42
0.009687
  0
VERTEX
  8
0
 10
246.244571
 20
67.710102
 42
0.006826
  0
VERTEX
  8
0
 10
249.898862
 20
69.164119
 42
0.006891
  0
VERTEX
  8
0
 10
253.357225
 20
70.651320
 42
0.014365
  0
VERTEX
  8
0
 10
256.000000
 20
71.923475
 42
-0.003998
  0
VERTEX
  8
0
 10
259.850232
 20
73.876185
 42
-0.031071
  0
VERTEX
  8
0
 10
261.705839
 20
74.659073
 42
-0.106203
  0
VERTEX
  8
0
 10
262.633805
 20
74.776156
 42
-0.389213
  0
SEQEND
  0
POLYLINE
  8
0
 66
1
 70
1
  0
VERTEX
  8
0
 10
194.000000
 20
65.885001
 42
-0.113488
  0
VERTEX
  8
0
 10
193.513532
 20
63.769351
 42
-0.002562
  0
VERTEX
  8
0
 10
188.899039
 20
54.388301
 42
-0.004668
  0
VERTEX
  8
0
 10
184.363879
 20
45.495552
 42
-0.047310
  0
VERTEX
  8
0
 10
182.107085
 20
42.016818
 42
0.000000
  0
VERTEX
  8
0
 10
180.139619
 20
39.533637
 42
0.000000
  0
VERTEX
  8
0
 10
175.319809
 20
41.825137
 42
-0.025735
  0
VERTEX
  8
0
 10
170.297937
 20
44.537775
 42
-0.008151
  0
VERTEX
  8
0
 10
163.094064
 20
49.084607
 42
-0.002390
  0
VERTEX
  8
0
 10
155.564877
 20
54.061739
 42
-0.250532
  0
VERTEX
  8
0
 10
155.000000
 20
55.118335
 42
-0.329670
  0
VERTEX
  8
0
 10
155.222144
 20
55.418637
 42
-0.007973
  0
VERTEX
  8
0
 10
156.982812
 20
55.926924
 42
-0.014277
  0
VERTEX
  8
0
 10
159.162312
 20
56.452322
 42
-0.008828
  0
VERTEX
  8
0
 10
161.750000
 20
56.950907
 42
0.023267
  0
VERTEX
  8
0
 10
169.003375
 20
58.566909
 42
0.008000
  0
VERTEX
  8
0
 10
179.336063
 20
61.557562
 42
0.002821
  0
VERTEX
  8
0
 10
190.035240
 20
64.906860
 42
0.178923
  0
VERTEX
  8
0
 10
191.560954
 20
66.098625
 42
-0.117917
  0
VERTEX
  8
0
 10
192.239367
 20
66.773080
 42
-0.160119
  0
VERTEX
  8
0
 10
193.074414
 20
66.968759
 42
-0.200465
  0
VERTEX
  8
0
 10
193.733988
 20
66.622819
 42
-0.174763
  0
SEQEND
  0
POLYLINE
  8
0
 66
1
 70
1
  0
VERTEX
  8
0
 10
114.640098
 20
63.568112
 42
0.021871
  0
VERTEX
  8
0
 10
117.790156
 20
62.445941
 42
0.006751
  0
VERTEX
  8
0
 10
122.625768
 20
61.029312
 42
0.006739
  0
VERTEX
  8
0
 10
128.083051
 20
59.589214
 42
0.007354
  0
VERTEX
  8
0
 10
133.421011
 20
58.340381
 42
0.000000
  0
VERTEX
  8
0
 10
146.217010
 20
55.544538
 42
0.000000
  0
VERTEX
  8
0
 10
142.858505
 20
52.657999
 42
-0.022358
  0
VERTEX
  8
0
 10
138.457683
 20
49.205273
 42
-0.014442
  0
VERTEX
  8
0
 10
133.080501
 20
45.591967
 42
-0.013934
  0
VERTEX
  8
0
 10
127.866584
 20
42.502509
 42
-0.047104
  0
VERTEX
  8
0
 10
124.244481
 20
40.915671
 42
-0.021069
  0
VERTEX
  8
0
 10
122.024894
 20
40.285481
 42
-0.126310
  0
VERTEX
  8
0
 10
120.833820
 20
40.305468
 42
-0.133573
  0
VERTEX
  8
0
 10
119.832717
 20
40.896938
 42
-0.024616
  0
VERTEX
  8
0
 10
118.401970
 20
42.520482
 42
-0.043803
  0
VERTEX
  8
0
 10
116.259222
 20
45.751488
 42
-0.006576
  0
VERTEX
  8
0
 10
112.628702
 20
52.642655
 42
-0.007123
  0
VERTEX
  8
0
 10
109.183055
 20
59.641365
 42
-0.034762
  0
VERTEX
  8
0
 10
107.571726
 20
63.750000
 42
-0.094313
  0
VERTEX
  8
0
 10
107.393343
 20
65.278465
 42
-0.400757
  0
VERTEX
  8
0
 10
108.012645
 20
65.840084
 42
-0.085001
  0
VERTEX
  8
0
 10
109.745354
 20
65.497279
 42
-0.005260
  0
SEQEND
  0
POLYLINE
  8
0
 66
1
 70
1
  0
VERTEX
  8
0
 10
104.061795
 20
59.100239
 42
0.019728
  0
VERTEX
  8
0
 10
105.100988
 20
56.474883
 42
0.007724
  0
VERTEX
  8
0
 10
106.731965
 20
52.935498
 42
0.007631
  0
VERTEX
  8
0
 10
108.616099
 20
49.156545
 42
0.009423
  0
VERTEX
  8
0
 10
110.491177
 20
45.696531
 42
-0.007548
  0
VERTEX
  8
0
 10
112.190344
 20
42.589001
 42
-0.012121
  0
VERTEX
  8
0
 10
113.534058
 20
39.883964
 42
-0.005930
  0
VERTEX
  8
0
 10
114.567165
 20
37.600907
 42
-0.308919
  0
VERTEX
  8
0
 10
114.481988
 20
37.148654
 42
-0.163360
  0
VERTEX
  8
0
 10
113.012589
 20
36.417826
 42
-0.003138
  0
VERTEX
  8
0
 10
104.479227
 20
35.290037
 42
-0.008298
  0
VERTEX
  8
0
 10
96.128584
 20
34.380177
 42
-0.020463
  0
VERTEX
  8
0
 10
89.972944
 20
34.065883
 42
0.000000
  0
VERTEX
  8
0
 10
83.445888
 20
34.000000
 42
0.000000
  0
VERTEX
  8
0
 10
79.303127
 20
42.250000
 42
-0.007957
  0
VERTEX
  8
0
 10
76.254992
 20
48.568902
 42
-0.009059
  0
VERTEX
  8
0
 10
73.543518
 20
54.716014
 42
-0.006108
  0
VERTEX
  8
0
 10
71.369003
 20
60.080796
 42
-0.093491
  0
VERTEX
  8
0
 10
71.000000
 20
62.037020
 42
-0.359562
  0
VERTEX
  8
0
 10
71.317853
 20
62.421876
 42
-0.013847
  0
VERTEX
  8
0
 10
73.276562
 20
62.742859
 42
-0.019199
  0
VERTEX
  8
0
 10
75.778722
 20
62.984677
 42
-0.011662
  0
VERTEX
  8
0
 10
78.750000
 20
63.087606
 42
0.008158
  0
VERTEX
  8
0
 10
82.083350
 20
63.179694
 42
0.006409
  0
VERTEX
  8
0
 10
85.692188
 20
63.384724
 42
0.006485
  0
VERTEX
  8
0
 10
89.043309
 20
63.661953
 42
0.015829
  0
VERTEX
  8
0
 10
91.500000
 20
63.976051
 42
-0.015162
  0
VERTEX
  8
0
 10
97.693939
 20
64.776369
 42
-0.117644
  0
VERTEX
  8
0
 10
100.563188
 20
64.383627
 42
-0.174354
  0
VERTEX
  8
0
 10
102.397711
 20
62.789226
 42
-0.043182
  0
SEQEND
  0
POLYLINE
  8
0
 66
1
 70
1
  0
VERTEX
  8
0
 10
219.819204
 20
63.340037
 42
0.000000
  0
VERTEX
  8
0
 10
230.138408
 20
62.687598
 42
0.000000
  0
VERTEX
  8
0
 10
229.571197
 20
60.093799
 42
-0.047042
  0
VERTEX
  8
0
 10
229.065205
 20
58.510412
 42
-0.004755
  0
VERTEX
  8
0
 10
227.476740
 20
54.883803
 42
-0.005925
  0
VERTEX
  8
0
 10
225.487303
 20
50.593500
 42
-0.004685
  0
VERTEX
  8
0
 10
223.237641
 20
46.000000
 42
0.000000
  0
VERTEX
  8
0
 10
217.471297
 20
34.500000
 42
0.000000
  0
VERTEX
  8
0
 10
211.485649
 20
34.166984
 42
-0.031580
  0
VERTEX
  8
0
 10
205.888409
 20
34.209303
 42
-0.010704
  0
VERTEX
  8
0
 10
197.775832
 20
34.958644
 42
-0.006945
  0
VERTEX
  8
0
 10
189.734303
 20
35.988739
 42
-0.103437
  0
VERTEX
  8
0
 10
187.082478
 20
36.949026
 42
-0.342685
  0
VERTEX
  8
0
 10
186.799988
 20
37.706558
 42
-0.017509
  0
VERTEX
  8
0
 10
187.728270
 20
40.344475
 42
-0.018383
  0
VERTEX
  8
0
 10
189.317839
 20
44.000327
 42
-0.006672
  0
VERTEX
  8
0
 10
191.830135
 20
49.067901
 42
0.004006
  0
VERTEX
  8
0
 10
194.117722
 20
53.621040
 42
0.005149
  0
VERTEX
  8
0
 10
196.144227
 20
57.845605
 42
0.003991
  0
VERTEX
  8
0
 10
197.775338
 20
61.411640
 42
0.043933
  0
VERTEX
  8
0
 10
198.289034
 20
62.895861
 42
-0.065458
  0
VERTEX
  8
0
 10
198.820335
 20
64.241194
 42
-0.196585
  0
VERTEX
  8
0
 10
199.576114
 20
64.847037
 42
-0.093566
  0
VERTEX
  8
0
 10
200.919772
 20
64.983096
 42
-0.009041
  0
VERTEX
  8
0
 10
204.194524
 20
64.642099
 42
0.007311
  0
VERTEX
  8
0
 10
206.923925
 20
64.348335
 42
0.002364
  0
VERTEX
  8
0
 10
210.972783
 20
63.991649
 42
0.002356
  0
VERTEX
  8
0
 10
215.479353
 20
63.637475
 42
0.002644
  0
SEQEND
  0
POLYLINE
  8
0
 66
1
 70
1
  0
VERTEX
  8
0
 10
155.409131
 20
48.176136
 42
0.011597
  0
VERTEX
  8
0
 10
157.888940
 20
46.401933
 42
0.005279
  0
VERTEX
  8
0
 10
161.207682
 20
44.192921
 42
0.005224
  0
VERTEX
  8
0
 10
164.756260
 20
41.937026
 42
0.007153
  0
VERTEX
  8
0
 10
168.000000
 20
39.985938
 42
-0.001079
  0
VERTEX
  8
0
 10
170.910319
 20
38.283192
 42
-0.001617
  0
VERTEX
  8
0
 10
173.443750
 20
36.782557
 42
-0.000656
  0
VERTEX
  8
0
 10
175.609945
 20
35.486111
 42
-0.035770
  0
VERTEX
  8
0
 10
176.000000
 20
35.212256
 42
-0.478366
  0
VERTEX
  8
0
 10
175.993433
 20
33.955263
 42
-0.005089
  0
VERTEX
  8
0
 10
168.188032
 20
27.859693
 42
-0.012966
  0
VERTEX
  8
0
 10
160.358909
 20
22.188414
 42
-0.037197
  0
VERTEX
  8
0
 10
154.558157
 20
18.815992
 42
-0.010945
  0
VERTEX
  8
0
 10
151.585420
 20
17.451318
 42
-0.090783
  0
VERTEX
  8
0
 10
150.145250
 20
17.118048
 42
-0.118865
  0
VERTEX
  8
0
 10
148.842517
 20
17.368969
 42
-0.024114
  0
VERTEX
  8
0
 10
146.734820
 20
18.453217
 42
-0.019371
  0
VERTEX
  8
0
 10
138.645983
 20
23.547913
 42
-0.021049
  0
VERTEX
  8
0
 10
131.204198
 20
29.122290
 42
-0.015989
  0
VERTEX
  8
0
 10
125.451279
 20
34.137222
 42
-0.543479
  0
VERTEX
  8
0
 10
125.712865
 20
35.627180
 42
0.041213
  0
VERTEX
  8
0
 10
128.792193
 20
37.244958
 42
0.003159
  0
VERTEX
  8
0
 10
136.669671
 20
42.321247
 42
0.003160
  0
VERTEX
  8
0
 10
144.482200
 20
47.496563
 42
0.041193
  0
VERTEX
  8
0
 10
147.201491
 20
49.667485
 42
-0.006490
  0
VERTEX
  8
0
 10
148.111808
 20
50.503855
 42
-0.009190
  0
VERTEX
  8
0
 10
148.944995
 20
51.222511
 42
-0.005861
  0
VERTEX
  8
0
 10
149.657830
 20
51.800874
 42
-0.118270
  0
VERTEX
  8
0
 10
149.909131
 20
51.917485
 42
-0.198964
  0
VERTEX
  8
0
 10
150.192331
 20
51.861908
 42
-0.002690
  0
VERTEX
  8
0
 10
151.693523
 20
50.852501
 42
-0.007143
  0
VERTEX
  8
0
 10
153.428275
 20
49.635837
 42
-0.004576
  0
SEQEND
  0
POLYLINE
  8
0
 66
1
 70
1
  0
VERTEX
  8
0
 10
121.092361
 20
31.388711
 42
0.045053
  0
VERTEX
  8
0
 10
123.475937
 20
28.992573
 42
0.004659
  0
VERTEX
  8
0
 10
129.628773
 20
23.928239
 42
0.004752
  0
VERTEX
  8
0
 10
135.868797
 20
18.986188
 42
0.043339
  0
VERTEX
  8
0
 10
138.778008
 20
17.106207
 42
-0.037143
  0
VERTEX
  8
0
 10
139.612037
 20
16.581755
 42
-0.057898
  0
VERTEX
  8
0
 10
140.231693
 20
16.003027
 42
-0.078522
  0
VERTEX
  8
0
 10
140.561834
 20
15.461092
 42
-0.240482
  0
VERTEX
  8
0
 10
140.527817
 20
15.045009
 42
-0.295288
  0
VERTEX
  8
0
 10
138.440928
 20
14.054971
 42
-0.009786
  0
VERTEX
  8
0
 10
128.924276
 20
15.501668
 42
-0.017646
  0
VERTEX
  8
0
 10
118.383717
 20
17.701213
 42
-0.018797
  0
VERTEX
  8
0
 10
108.247384
 20
20.600599
 42
-0.008672
  0
VERTEX
  8
0
 10
100.347775
 20
23.337630
 42
-0.022825
  0
VERTEX
  8
0
 10
94.821514
 20
25.651452
 42
-0.042687
  0
VERTEX
  8
0
 10
91.853698
 20
27.380329
 42
-0.624879
  0
VERTEX
  8
0
 10
92.000000
 20
28.292503
 42
-0.030834
  0
VERTEX
  8
0
 10
93.727005
 20
28.702504
 42
-0.000425
  0
VERTEX
  8
0
 10
104.376733
 20
30.537111
 42
-0.001007
  0
VERTEX
  8
0
 10
114.369524
 20
32.229088
 42
-0.009735
  0
VERTEX
  8
0
 10
118.627555
 20
32.856282
 42
-0.119107
  0
VERTEX
  8
0
 10
119.154810
 20
32.797878
 42
-0.047441
  0
VERTEX
  8
0
 10
119.816709
 20
32.484467
 42
-0.043452
  0
VERTEX
  8
0
 10
120.497330
 20
31.994559
 42
-0.041858
  0
SEQEND
  0
POLYLINE
  8
0
 66
1
 70
1
  0
VERTEX
  8
0
 10
192.000000
 20
30.942307
 42
0.005782
  0
VERTEX
  8
0
 10
194.907006
 20
30.469934
 42
0.003746
  0
VERTEX
  8
0
 10
198.279687
 20
29.987665
 42
0.003766
  0
VERTEX
  8
0
 10
201.581598
 20
29.566035
 42
0.007123
  0
VERTEX
  8
0
 10
204.250000
 20
29.284205
 42
-0.014028
  0
VERTEX
  8
0
 10
206.454121
 20
29.020592
 42
-0.022569
  0
VERTEX
  8
0
 10
208.310937
 20
28.659214
 42
-0.018531
  0
VERTEX
  8
0
 10
209.733725
 20
28.258688
 42
-0.325665
  0
VERTEX
  8
0
 10
210.000000
 20
27.893229
 42
-0.324842
  0
VERTEX
  8
0
 10
208.169933
 20
25.373617
 42
-0.007249
  0
VERTEX
  8
0
 10
193.023080
 20
20.689115
 42
-0.015965
  0
VERTEX
  8
0
 10
177.361579
 20
16.631351
 42
-0.030241
  0
VERTEX
  8
0
 10
164.500000
 20
14.540888
 42
0.000000
  0
VERTEX
  8
0
 10
158.500000
 20
13.934862
 42
0.000000
  0
VERTEX
  8
0
 10
161.401601
 20
16.217431
 42
0.001854
  0
VERTEX
  8
0
 10
163.056637
 20
17.529346
 42
0.000341
  0
VERTEX
  8
0
 10
166.099584
 20
19.963264
 42
0.000366
  0
VERTEX
  8
0
 10
169.655221
 20
22.815523
 42
0.000334
  0
VERTEX
  8
0
 10
173.320147
 20
25.763893
 42
-0.009533
  0
VERTEX
  8
0
 10
177.095468
 20
28.688320
 42
-0.017592
  0
VERTEX
  8
0
 10
180.288922
 20
30.895771
 42
-0.014869
  0
VERTEX
  8
0
 10
182.858832
 20
32.435932
 42
-0.203368
  0
VERTEX
  8
0
 10
183.918546
 20
32.551804
 42
0.021129
  0
VERTEX
  8
0
 10
184.883952
 20
32.305191
 42
0.002815
  0
VERTEX
  8
0
 10
186.944823
 20
31.882672
 42
0.003255
  0
VERTEX
  8
0
 10
189.395385
 20
31.411182
 42
0.002729
  0
SEQEND
  0
ENDSEC
  0
EOF
