  0
SECTION
  2
HEADER
  9
$ACADVER
  1
AC1018
  9
$ACADMAINTVER
 70
     0
  9
$DWGCODEPAGE
  3
ANSI_1256
  9
$INSBASE
 10
0.0
 20
0.0
 30
0.0
  9
$EXTMIN
 10
0.0
 20
0.0
 30
0.0
  9
$EXTMAX
 10
176.022
 20
352.044
 30
0.0
  9
$LIMMIN
 10
0.0
 20
0.0
  9
$LIMMAX
 10
12.0
 20
9.0
  9
$ORTHOMODE
 70
     0
  9
$REGENMODE
 70
     1
  9
$FILLMODE
 70
     1
  9
$QTEXTMODE
 70
     0
  9
$MIRRTEXT
 70
     1
  9
$LTSCALE
 40
1.0
  9
$ATTMODE
 70
     1
  9
$TEXTSIZE
 40
0.2
  9
$TRACEWID
 40
0.05
  9
$TEXTSTYLE
  7
Standard
  9
$CLAYER
  8
0
  9
$CELTYPE
  6
ByBlock
  9
$CECOLOR
 62
   256
  9
$CELTSCALE
 40
1.0
  9
$DISPSILH
 70
     0
  9
$DIMSCALE
 40
1.0
  9
$DIMASZ
 40
0.18
  9
$DIMEXO
 40
0.0625
  9
$DIMDLI
 40
0.38
  9
$DIMRND
 40
0.0
  9
$DIMDLE
 40
0.0
  9
$DIMEXE
 40
0.18
  9
$DIMTP
 40
0.0
  9
$DIMTM
 40
0.0
  9
$DIMTXT
 40
0.18
  9
$DIMCEN
 40
0.09
  9
$DIMTSZ
 40
0.0
  9
$DIMTOL
 70
     0
  9
$DIMLIM
 70
     0
  9
$DIMTIH
 70
     1
  9
$DIMTOH
 70
     1
  9
$DIMSE1
 70
     0
  9
$DIMSE2
 70
     0
  9
$DIMTAD
 70
     0
  9
$DIMZIN
 70
     0
  9
$DIMBLK
  1

  9
$DIMASO
 70
     1
  9
$DIMSHO
 70
     1
  9
$DIMPOST
  1

  9
$DIMAPOST
  1

  9
$DIMALT
 70
     0
  9
$DIMALTD
 70
     2
  9
$DIMALTF
 40
25.4
  9
$DIMLFAC
 40
1.0
  9
$DIMTOFL
 70
     0
  9
$DIMTVP
 40
0.0
  9
$DIMTIX
 70
     0
  9
$DIMSOXD
 70
     0
  9
$DIMSAH
 70
     0
  9
$DIMBLK1
  1

  9
$DIMBLK2
  1

  9
$DIMSTYLE
  2
Standard
  9
$DIMCLRD
 70
     0
  9
$DIMCLRE
 70
     0
  9
$DIMCLRT
 70
     0
  9
$DIMTFAC
 40
1.0
  9
$DIMGAP
 40
0.09
  9
$DIMJUST
 70
     0
  9
$DIMSD1
 70
     0
  9
$DIMSD2
 70
     0
  9
$DIMTOLJ
 70
     1
  9
$DIMTZIN
 70
     0
  9
$DIMALTZ
 70
     0
  9
$DIMALTTZ
 70
     0
  9
$DIMUPT
 70
     0
  9
$DIMDEC
 70
     4
  9
$DIMTDEC
 70
     4
  9
$DIMALTU
 70
     2
  9
$DIMALTTD
 70
     2
  9
$DIMTXSTY
  7
Standard
  9
$DIMAUNIT
 70
     0
  9
$DIMADEC
 70
     0
  9
$DIMALTRND
 40
0.0
  9
$DIMAZIN
 70
     0
  9
$DIMDSEP
 70
    46
  9
$DIMATFIT
 70
     3
  9
$DIMFRAC
 70
     0
  9
$DIMLDRBLK
  1

  9
$DIMLUNIT
 70
     2
  9
$DIMLWD
 70
    -2
  9
$DIMLWE
 70
    -2
  9
$DIMTMOVE
 70
     2
  9
$LUNITS
 70
     2
  9
$LUPREC
 70
     4
  9
$SKETCHINC
 40
0.1
  9
$FILLETRAD
 40
0.5
  9
$AUNITS
 70
     0
  9
$AUPREC
 70
     0
  9
$MENU
  1
.
  9
$ELEVATION
 40
0.0
  9
$PELEVATION
 40
0.0
  9
$THICKNESS
 40
0.0
  9
$LIMCHECK
 70
     0
  9
$CHAMFERA
 40
0.0
  9
$CHAMFERB
 40
0.0
  9
$CHAMFERC
 40
0.0
  9
$CHAMFERD
 40
0.0
  9
$SKPOLY
 70
     0
  9
$TDCREATE
 40
2457951.933692558
  9
$TDUCREATE
 40
2457951.808692558
  9
$TDUPDATE
 40
2457951.93369294
  9
$TDUUPDATE
 40
2457951.80869294
  9
$TDINDWG
 40
0.0000000116
  9
$TDUSRTIMER
 40
0.0000000116
  9
$USRTIMER
 70
     1
  9
$ANGBASE
 50
0.0
  9
$ANGDIR
 70
     0
  9
$PDMODE
 70
     0
  9
$PDSIZE
 40
0.0
  9
$PLINEWID
 40
0.0
  9
$SPLFRAME
 70
     0
  9
$SPLINETYPE
 70
     6
  9
$SPLINESEGS
 70
     8
  9
$HANDSEED
  5
A94
  9
$SURFTAB1
 70
     6
  9
$SURFTAB2
 70
     6
  9
$SURFTYPE
 70
     6
  9
$SURFU
 70
     6
  9
$SURFV
 70
     6
  9
$UCSBASE
  2

  9
$UCSNAME
  2

  9
$UCSORG
 10
0.0
 20
0.0
 30
0.0
  9
$UCSXDIR
 10
1.0
 20
0.0
 30
0.0
  9
$UCSYDIR
 10
0.0
 20
1.0
 30
0.0
  9
$UCSORTHOREF
  2

  9
$UCSORTHOVIEW
 70
     0
  9
$UCSORGTOP
 10
0.0
 20
0.0
 30
0.0
  9
$UCSORGBOTTOM
 10
0.0
 20
0.0
 30
0.0
  9
$UCSORGLEFT
 10
0.0
 20
0.0
 30
0.0
  9
$UCSORGRIGHT
 10
0.0
 20
0.0
 30
0.0
  9
$UCSORGFRONT
 10
0.0
 20
0.0
 30
0.0
  9
$UCSORGBACK
 10
0.0
 20
0.0
 30
0.0
  9
$PUCSBASE
  2

  9
$PUCSNAME
  2

  9
$PUCSORG
 10
0.0
 20
0.0
 30
0.0
  9
$PUCSXDIR
 10
1.0
 20
0.0
 30
0.0
  9
$PUCSYDIR
 10
0.0
 20
1.0
 30
0.0
  9
$PUCSORTHOREF
  2

  9
$PUCSORTHOVIEW
 70
     0
  9
$PUCSORGTOP
 10
0.0
 20
0.0
 30
0.0
  9
$PUCSORGBOTTOM
 10
0.0
 20
0.0
 30
0.0
  9
$PUCSORGLEFT
 10
0.0
 20
0.0
 30
0.0
  9
$PUCSORGRIGHT
 10
0.0
 20
0.0
 30
0.0
  9
$PUCSORGFRONT
 10
0.0
 20
0.0
 30
0.0
  9
$PUCSORGBACK
 10
0.0
 20
0.0
 30
0.0
  9
$USERI1
 70
     0
  9
$USERI2
 70
     0
  9
$USERI3
 70
     0
  9
$USERI4
 70
     0
  9
$USERI5
 70
     0
  9
$USERR1
 40
0.0
  9
$USERR2
 40
0.0
  9
$USERR3
 40
0.0
  9
$USERR4
 40
0.0
  9
$USERR5
 40
0.0
  9
$WORLDVIEW
 70
     1
  9
$SHADEDGE
 70
     3
  9
$SHADEDIF
 70
    70
  9
$TILEMODE
 70
     1
  9
$MAXACTVP
 70
    64
  9
$PINSBASE
 10
0.0
 20
0.0
 30
0.0
  9
$PLIMCHECK
 70
     0
  9
$PEXTMIN
 10
1.000000000000000E+20
 20
1.000000000000000E+20
 30
1.000000000000000E+20
  9
$PEXTMAX
 10
-1.000000000000000E+20
 20
-1.000000000000000E+20
 30
-1.000000000000000E+20
  9
$PLIMMIN
 10
0.0
 20
0.0
  9
$PLIMMAX
 10
12.0
 20
9.0
  9
$UNITMODE
 70
     0
  9
$VISRETAIN
 70
     1
  9
$PLINEGEN
 70
     0
  9
$PSLTSCALE
 70
     1
  9
$TREEDEPTH
 70
  3020
  9
$CMLSTYLE
  2
Standard
  9
$CMLJUST
 70
     0
  9
$CMLSCALE
 40
1.0
  9
$PROXYGRAPHICS
 70
     1
  9
$MEASUREMENT
 70
     0
  9
$CELWEIGHT
370
    -1
  9
$ENDCAPS
280
     0
  9
$JOINSTYLE
280
     0
  9
$LWDISPLAY
290
     0
  9
$INSUNITS
 70
     0
  9
$HYPERLINKBASE
  1

  9
$STYLESHEET
  1

  9
$XEDIT
290
     1
  9
$CEPSNTYPE
380
     0
  9
$PSTYLEMODE
290
     1
  9
$FINGERPRINTGUID
  2
{F0A54143-C6AB-449A-B04A-374A12B777F4}
  9
$VERSIONGUID
  2
{FAEB1C32-E019-11D5-929B-00C0DF256EC4}
  9
$EXTNAMES
290
     1
  9
$PSVPSCALE
 40
0.0
  9
$OLESTARTUP
290
     0
  9
$SORTENTS
280
   127
  9
$INDEXCTL
280
     0
  9
$HIDETEXT
280
     1
  9
$XCLIPFRAME
290
     0
  9
$HALOGAP
280
     0
  9
$OBSCOLOR
 70
   257
  9
$OBSLTYPE
280
     0
  9
$INTERSECTIONDISPLAY
280
     0
  9
$INTERSECTIONCOLOR
 70
   257
  9
$DIMASSOC
280
     2
  9
$PROJECTNAME
  1

  0
ENDSEC
  0
SECTION
  2
CLASSES
  0
CLASS
  1
ACDBDICTIONARYWDFLT
  2
AcDbDictionaryWithDefault
  3
ObjectDBX Classes
 90
        0
 91
        4
280
     0
281
     0
  0
CLASS
  1
SCALE
  2
AcDbScale
  3
ObjectDBX Classes
 90
     1153
 91
        4
280
     0
281
     0
  0
CLASS
  1
VISUALSTYLE
  2
AcDbVisualStyle
  3
ObjectDBX Classes
 90
     4095
 91
        4
280
     0
281
     0
  0
CLASS
  1
MATERIAL
  2
AcDbMaterial
  3
ObjectDBX Classes
 90
     1153
 91
        4
280
     0
281
     0
  0
CLASS
  1
TABLESTYLE
  2
AcDbTableStyle
  3
ObjectDBX Classes
 90
     4095
 91
        4
280
     0
281
     0
  0
CLASS
  1
MLEADERSTYLE
  2
AcDbMLeaderStyle
  3
ACDB_MLEADERSTYLE_CLASS
 90
     4095
 91
        4
280
     0
281
     0
  0
CLASS
  1
DICTIONARYVAR
  2
AcDbDictionaryVar
  3
ObjectDBX Classes
 90
        0
 91
        4
280
     0
281
     0
  0
CLASS
  1
CELLSTYLEMAP
  2
AcDbCellStyleMap
  3
ObjectDBX Classes
 90
     1152
 91
        4
280
     0
281
     0
  0
ENDSEC
  0
SECTION
  2
TABLES
  0
TABLE
  2
VPORT
  5
8
102
{ACAD_XDICTIONARY
360
A4D
102
}
330
0
100
AcDbSymbolTable
 70
     1
  0
VPORT
  5
21
330
8
100
AcDbSymbolTableRecord
100
AcDbViewportTableRecord
  2
*Active
 70
     0
 10
0.0
 20
0.0
 11
1.0
 21
1.0
 12
10.42990654205607
 22
4.5
 13
0.0
 23
0.0
 14
0.5
 24
0.5
 15
0.5
 25
0.5
 16
0.0
 26
0.0
 36
1.0
 17
0.0
 27
0.0
 37
0.0
 40
9.0
 41
1.972972972850329
 42
50.0
 43
0.0
 44
0.0
 50
0.0
 51
0.0
 71
     0
 72
   100
 73
     1
 74
     3
 75
     0
 76
     0
 77
     0
 78
     0
281
     0
 65
     1
110
0.0
120
0.0
130
0.0
111
1.0
121
0.0
131
0.0
112
0.0
122
1.0
132
0.0
 79
     0
146
0.0
  0
ENDTAB
  0
TABLE
  2
LTYPE
  5
5
330
0
100
AcDbSymbolTable
 70
     1
  0
LTYPE
  5
14
330
5
100
AcDbSymbolTableRecord
100
AcDbLinetypeTableRecord
  2
ByBlock
 70
     0
  3

 72
    65
 73
     0
 40
0.0
  0
LTYPE
  5
15
330
5
100
AcDbSymbolTableRecord
100
AcDbLinetypeTableRecord
  2
ByLayer
 70
     0
  3

 72
    65
 73
     0
 40
0.0
  0
LTYPE
  5
16
330
5
100
AcDbSymbolTableRecord
100
AcDbLinetypeTableRecord
  2
Continuous
 70
     0
  3
Solid line
 72
    65
 73
     0
 40
0.0
  0
ENDTAB
  0
TABLE
  2
LAYER
  5
2
330
0
100
AcDbSymbolTable
 70
     1
  0
LAYER
  5
10
330
2
100
AcDbSymbolTableRecord
100
AcDbLayerTableRecord
  2
0
 70
     0
 62
     7
  6
Continuous
370
    -3
390
F
  0
ENDTAB
  0
TABLE
  2
STYLE
  5
3
330
0
100
AcDbSymbolTable
 70
     1
  0
STYLE
  5
11
330
3
100
AcDbSymbolTableRecord
100
AcDbTextStyleTableRecord
  2
Standard
 70
     0
 40
0.0
 41
1.0
 50
0.0
 71
     0
 42
0.2
  3
txt
  4

  0
ENDTAB
  0
TABLE
  2
VIEW
  5
6
330
0
100
AcDbSymbolTable
 70
     0
  0
ENDTAB
  0
TABLE
  2
UCS
  5
7
330
0
100
AcDbSymbolTable
 70
     0
  0
ENDTAB
  0
TABLE
  2
APPID
  5
9
330
0
100
AcDbSymbolTable
 70
     2
  0
APPID
  5
12
330
9
100
AcDbSymbolTableRecord
100
AcDbRegAppTableRecord
  2
ACAD
 70
     0
  0
APPID
  5
A8B
330
9
100
AcDbSymbolTableRecord
100
AcDbRegAppTableRecord
  2
ACAD_MLEADERVER
 70
     0
  0
ENDTAB
  0
TABLE
  2
DIMSTYLE
  5
A
330
0
100
AcDbSymbolTable
 70
     1
100
AcDbDimStyleTable
  0
DIMSTYLE
105
20
330
A
100
AcDbSymbolTableRecord
100
AcDbDimStyleTableRecord
  2
Standard
 70
     0
178
     0
340
11
  0
ENDTAB
  0
TABLE
  2
BLOCK_RECORD
  5
1
330
0
100
AcDbSymbolTable
 70
     0
  0
BLOCK_RECORD
  5
1D
330
1
100
AcDbSymbolTableRecord
100
AcDbBlockTableRecord
  2
*Model_Space
340
1E
  0
BLOCK_RECORD
  5
1B
330
1
100
AcDbSymbolTableRecord
100
AcDbBlockTableRecord
  2
*Paper_Space
340
1C
  0
ENDTAB
  0
ENDSEC
  0
SECTION
  2
BLOCKS
  0
BLOCK
  5
A28
330
1D
100
AcDbEntity
  8
0
100
AcDbBlockBegin
  2
*Model_Space
 70
     0
 10
0.0
 20
0.0
 30
0.0
  3
*Model_Space
  1

  0
ENDBLK
  5
A29
330
1D
100
AcDbEntity
  8
0
100
AcDbBlockEnd
  0
BLOCK
  5
A2A
330
1B
100
AcDbEntity
 67
     1
  8
0
100
AcDbBlockBegin
  2
*Paper_Space
 70
     0
 10
0.0
 20
0.0
 30
0.0
  3
*Paper_Space
  1

  0
ENDBLK
  5
A2B
330
1B
100
AcDbEntity
 67
     1
  8
0
100
AcDbBlockEnd
  0
ENDSEC
  0
SECTION
  2
ENTITIES
  0
LWPOLYLINE
  5
22
330
1D
100
AcDbEntity
  8
0
100
AcDbPolyline
 90
        8
 70
     1
 43
0.0
 10
88.011
 20
352.044
 10
0.0
 20
352.044
 10
0.0
 20
176.022
 10
0.0
 20
0.0
 10
88.011
 20
0.0
 10
176.022
 20
0.0
 10
176.022
 20
176.022
 10
176.022
 20
352.044
  0
LWPOLYLINE
  5
2C
330
1D
100
AcDbEntity
  8
0
100
AcDbPolyline
 90
       56
 70
     1
 43
0.0
 10
130.505114
 20
346.424208
 42
-0.007366
 10
131.867514
 20
346.419227
 42
-0.018314
 10
132.862796
 20
346.364419
 42
-0.024342
 10
133.589561
 20
346.261771
 42
-0.073311
 10
134.061114
 20
346.097431
 42
-0.075558
 10
134.548645
 20
345.740067
 42
-0.00025
 10
139.843008
 20
340.461905
 42
-0.00138
 10
145.818221
 20
334.466027
 42
-0.000863
 10
152.781
 20
327.416187
 42
-0.001002
 10
160.419202
 20
319.624557
 42
-0.002302
 10
166.129968
 20
313.72157
 42
-0.000658
 10
170.721499
 20
308.918927
 42
-0.099949
 10
171.124032
 20
308.280256
 42
-0.064792
 10
171.260472
 20
307.707194
 42
-0.016802
 10
171.327643
 20
306.759146
 42
-0.013111
 10
171.341895
 20
305.45326
 42
-0.005177
 10
171.295791
 20
303.657
 42
-0.002895
 10
171.195633
 20
301.262546
 42
-0.031475
 10
171.089118
 20
300.302745
 42
-0.081294
 10
170.892456
 20
299.739062
 42
-0.084316
 10
170.528095
 20
299.2755
 42
-0.027076
 10
170.258869
 20
299.056772
 42
-0.028297
 10
169.971395
 20
298.871878
 42
-0.029466
 10
169.706343
 20
298.741855
 42
-0.099615
 10
169.518222
 20
298.704
 42
-0.061747
 10
169.326376
 20
298.727783
 42
-0.019489
 10
169.048757
 20
298.809314
 42
-0.019133
 10
168.743328
 20
298.925285
 42
-0.020127
 10
168.452886
 20
299.062514
 42
-0.066095
 10
168.024191
 20
299.364468
 42
-0.003347
 10
166.774679
 20
300.53397
 42
-0.00531
 10
165.309748
 20
301.953468
 42
-0.003817
 10
163.703
 20
303.568281
 42
0.000539
 10
161.245306
 20
306.070919
 42
0.000072
 10
156.050421
 20
311.347893
 42
0.000083
 10
149.889832
 20
317.601953
 42
0.00007
 10
143.35856
 20
324.228266
 42
-0.000382
 10
137.025239
 20
330.661775
 42
-0.000563
 10
131.475962
 20
336.320196
 42
-0.000254
 10
126.747785
 20
341.157151
 42
-0.010916
 10
125.76906
 20
342.204189
 42
-0.014313
 10
125.167063
 20
342.917117
 42
-0.033129
 10
124.768016
 20
343.492496
 42
-0.044947
 10
124.535359
 20
343.973751
 42
-0.090364
 10
124.46
 20
344.387322
 42
-0.060039
 10
124.497634
 20
344.699605
 42
-0.042704
 10
124.610391
 20
345.033999
 42
-0.042916
 10
124.777254
 20
345.342099
 42
-0.063358
 10
124.97714
 20
345.575272
 42
-0.061643
 10
125.250478
 20
345.767305
 42
-0.026179
 10
125.656788
 20
345.95708
 42
-0.025417
 10
126.116912
 20
346.116635
 42
-0.030333
 10
126.56464
 20
346.217846
 42
-0.02227
 10
127.156278
 20
346.287468
 42
-0.00507
 10
128.163678
 20
346.350475
 42
-0.005238
 10
129.327794
 20
346.399217
 42
-0.005074
  0
LWPOLYLINE
  5
66
330
1D
100
AcDbEntity
  8
0
100
AcDbPolyline
 90
       50
 70
     1
 43
0.0
 10
151.94051
 20
346.441664
 42
-0.003945
 10
153.965081
 20
346.431211
 42
-0.006323
 10
155.69237
 20
346.386813
 42
-0.001869
 10
157.180783
 20
346.324143
 42
-0.24774
 10
157.332724
 20
346.234807
 42
0.12439
 10
157.430244
 20
346.1403
 42
0.028862
 10
157.636009
 20
346.037199
 42
0.028052
 10
157.893768
 20
345.942905
 42
0.024258
 10
158.173214
 20
345.87271
 42
-0.124039
 10
158.669301
 20
345.636481
 42
-0.010934
 10
159.728285
 20
344.720535
 42
-0.011159
 10
161.142601
 20
343.383594
 42
-0.004178
 10
163.068
 20
341.448322
 42
-0.000404
 10
164.827668
 20
339.646912
 42
-0.000363
 10
166.649219
 20
337.776417
 42
-0.000364
 10
168.281577
 20
336.09532
 42
-0.001142
 10
169.37415
 20
334.963323
 10
171.4893
 20
332.761807
 10
171.40615
 20
326.378131
 42
-0.001248
 10
171.340638
 20
322.157766
 42
-0.020268
 10
171.257609
 20
320.741242
 42
-0.067717
 10
171.080433
 20
319.998959
 42
-0.130976
 10
170.723361
 20
319.509227
 42
-0.038613
 10
170.453877
 20
319.323619
 42
-0.031442
 10
170.140253
 20
319.167027
 42
-0.032485
 10
169.83143
 20
319.059424
 42
-0.068459
 10
169.580361
 20
319.025674
 42
-0.060743
 10
169.326009
 20
319.057484
 42
-0.027779
 10
169.005981
 20
319.156936
 42
-0.027011
 10
168.67637
 20
319.300529
 42
-0.033495
 10
168.388042
 20
319.470174
 42
-0.046042
 10
167.923992
 20
319.853803
 42
-0.000374
 10
164.55564
 20
323.209914
 42
-0.001347
 10
160.702312
 20
327.075766
 42
-0.000866
 10
156.25287
 20
331.579363
 42
-0.001732
 10
151.696641
 20
336.239223
 42
-0.003092
 10
147.986791
 20
340.107404
 42
-0.000806
 10
144.852506
 20
343.426866
 42
-0.127991
 10
144.60984
 20
343.870533
 42
-0.04811
 10
144.566487
 20
344.15785
 42
-0.028076
 10
144.567367
 20
344.506509
 42
-0.027867
 10
144.607836
 20
344.858775
 42
-0.041818
 10
144.685462
 20
345.15817
 42
-0.070192
 10
144.842565
 20
345.46184
 42
-0.060005
 10
145.08499
 20
345.728702
 42
-0.054508
 10
145.4074
 20
345.951444
 42
-0.041306
 10
145.80145
 20
346.124164
 42
-0.061629
 10
146.43958
 20
346.258462
 42
-0.008164
 10
147.819033
 20
346.352409
 42
-0.008171
 10
149.636378
 20
346.416643
 42
-0.004065
  0
LWPOLYLINE
  5
9A
330
1D
100
AcDbEntity
  8
0
100
AcDbPolyline
 90
       46
 70
     1
 43
0.0
 10
25.025983
 20
346.184103
 42
-0.00239
 10
28.069257
 20
346.179291
 42
-0.013714
 10
29.681366
 20
346.124803
 42
-0.023957
 10
30.664555
 20
346.017093
 42
-0.113988
 10
31.185483
 20
345.806597
 42
-0.064044
 10
31.453819
 20
345.562111
 42
-0.081149
 10
31.626604
 20
345.275173
 42
-0.066313
 10
31.720596
 20
344.903408
 42
-0.028809
 10
31.75
 20
344.393514
 42
-0.062225
 10
31.669848
 20
343.75196
 42
-0.079284
 10
31.434228
 20
343.205093
 42
-0.041634
 10
30.926175
 20
342.534385
 42
-0.006317
 10
29.786393
 20
341.296417
 42
-0.003779
 10
28.537961
 20
339.994212
 42
-0.000377
 10
25.525577
 20
336.903911
 42
-0.000475
 10
21.929134
 20
333.226996
 42
-0.000377
 10
18.038893
 20
329.263236
 42
-0.002126
 10
14.204804
 20
325.39561
 42
-0.003398
 10
10.893613
 20
322.128453
 42
-0.001109
 10
8.024338
 20
319.347939
 42
-0.102031
 10
7.53306
 20
319.037111
 42
-0.036921
 10
7.154038
 20
318.925266
 42
-0.061973
 10
6.823854
 20
318.895687
 42
-0.063331
 10
6.501506
 20
318.948016
 42
-0.040428
 10
6.146801
 20
319.084875
 42
-0.057845
 10
5.879586
 20
319.254128
 42
-0.042307
 10
5.625949
 20
319.497494
 42
-0.042997
 10
5.422398
 20
319.773436
 42
-0.069951
 10
5.30656
 20
320.04
 42
-0.058049
 10
5.235527
 20
320.496709
 42
-0.002078
 10
5.174877
 20
322.270918
 42
-0.003806
 10
5.1278
 20
324.37198
 42
-0.002655
 10
5.105319
 20
326.742913
 10
5.08
 20
332.810826
 10
10.8585
 20
338.660804
 42
0.000114
 10
13.106468
 20
340.93762
 42
0.000169
 10
15.076112
 20
342.934804
 42
0.000074
 10
16.758593
 20
344.642472
 42
0.003398
 10
17.101837
 20
344.995728
 42
-0.047308
 10
17.345473
 20
345.205999
 42
-0.020652
 10
17.703951
 20
345.438909
 42
-0.020218
 10
18.107872
 20
345.65667
 42
-0.025419
 10
18.498837
 20
345.82344
 42
-0.062085
 10
19.205557
 20
345.987686
 42
-0.012286
 10
20.503759
 20
346.091464
 42
-0.009672
 10
22.351392
 20
346.157742
 42
-0.003329
  0
LWPOLYLINE
  5
CA
330
1D
100
AcDbEntity
  8
0
100
AcDbPolyline
 90
       54
 70
     1
 43
0.0
 10
46.315638
 20
346.202
 42
-0.005344
 10
48.046054
 20
346.183506
 42
-0.010629
 10
49.415464
 20
346.125089
 42
-0.009841
 10
50.457963
 20
346.037763
 42
-0.095604
 10
50.880198
 20
345.909975
 42
-0.022518
 10
51.106284
 20
345.777647
 42
-0.020535
 10
51.326844
 20
345.621637
 42
-0.021032
 10
51.512275
 20
345.465845
 42
-0.060387
 10
51.621611
 20
345.338475
 42
-0.085178
 10
51.694055
 20
345.175721
 42
-0.020883
 10
51.754547
 20
344.887789
 42
-0.020784
 10
51.796901
 20
344.547303
 42
-0.019423
 10
51.812111
 20
344.196678
 42
-0.098039
 10
51.700637
 20
343.619986
 42
-0.061148
 10
51.364375
 20
343.016764
 42
-0.029571
 10
50.675038
 20
342.181221
 42
-0.004709
 10
49.215647
 20
340.640678
 42
-0.001492
 10
47.766151
 20
339.148102
 42
-0.000322
 10
45.248625
 20
336.574505
 42
-0.000336
 10
42.329898
 20
333.598617
 42
-0.000321
 10
39.362451
 20
330.581
 42
0.000115
 10
35.928019
 20
327.091377
 42
0.000056
 10
31.528496
 20
322.6181
 42
0.000055
 10
26.942142
 20
317.952796
 42
0.000079
 10
22.878513
 20
313.817
 42
-0.000278
 10
19.13438
 20
310.009414
 42
-0.00031
 10
15.51788
 20
306.340272
 42
-0.000286
 10
12.430662
 20
303.215573
 42
-0.00163
 10
10.783854
 20
301.5615
 42
-0.004125
 10
9.118852
 20
299.927212
 42
-0.028744
 10
8.254522
 20
299.183742
 42
-0.062538
 10
7.639219
 20
298.824891
 42
-0.10111
 10
7.047512
 20
298.704
 42
-0.042677
 10
6.642867
 20
298.738601
 42
-0.051162
 10
6.274898
 20
298.841565
 42
-0.054374
 10
5.954541
 20
299.009863
 42
-0.060668
 10
5.690867
 20
299.23813
 42
-0.105333
 10
5.426489
 20
299.693337
 42
-0.047965
 10
5.275287
 20
300.368143
 42
-0.022522
 10
5.185504
 20
301.494652
 42
-0.003306
 10
5.121654
 20
303.783917
 42
-0.00435
 10
5.096809
 20
305.760039
 42
-0.014629
 10
5.129635
 20
307.052943
 42
-0.020585
 10
5.214073
 20
307.931603
 42
-0.089135
 10
5.375654
 20
308.427867
 42
-0.068678
 10
5.703966
 20
308.878432
 42
-0.000306
 10
9.82931
 20
313.154485
 42
-0.001464
 10
14.536924
 20
317.999643
 42
-0.000923
 10
20.060509
 20
323.63058
 42
-0.000035
 10
25.84246
 20
329.502349
 42
-0.000041
 10
31.352318
 20
335.096086
 42
-0.000037
 10
36.020315
 20
339.833679
 42
-0.000241
 10
38.355949
 20
342.2015
 10
42.30588
 20
346.202
  0
LWPOLYLINE
  5
102
330
1D
100
AcDbEntity
  8
0
100
AcDbPolyline
 90
       56
 70
     1
 43
0.0
 10
69.88528
 20
346.202
 42
-0.003069
 10
72.132722
 20
346.188204
 42
-0.03407
 10
73.02699
 20
346.116157
 42
-0.085721
 10
73.569542
 20
345.936645
 42
-0.073845
 10
74.052545
 20
345.578545
 42
-0.044739
 10
74.291146
 20
345.292947
 42
-0.036877
 10
74.49286
 20
344.950904
 42
-0.0383
 10
74.631403
 20
344.606594
 42
-0.076648
 10
74.676
 20
344.317384
 42
-0.087439
 10
74.621243
 20
344.006661
 42
-0.029783
 10
74.438601
 20
343.58461
 42
-0.028551
 10
74.177131
 20
343.133242
 42
-0.029237
 10
73.867834
 20
342.718338
 42
-0.016898
 10
73.286029
 20
342.071926
 42
-0.000756
 10
71.200263
 20
339.912937
 42
-0.001271
 10
68.714921
 20
337.361124
 42
-0.000908
 10
65.92161
 20
334.518
 42
0.000027
 10
62.016056
 20
330.556789
 42
0.000006
 10
55.474808
 20
323.921438
 42
0.000007
 10
47.950352
 20
316.288341
 42
0.000006
 10
40.381687
 20
308.61
 42
-0.000092
 10
32.822896
 20
300.944305
 42
-0.000095
 10
25.328068
 20
293.349154
 42
-0.000091
 10
18.824026
 20
286.762954
 42
-0.0004
 10
14.976243
 20
282.874226
 10
7.972663
 20
275.807453
 10
6.970832
 20
275.889226
 42
-0.031282
 10
6.41655
 20
275.969592
 42
-0.09648
 10
6.069185
 20
276.116003
 42
-0.097269
 10
5.803738
 20
276.381338
 42
-0.032109
 10
5.524895
 20
276.86
 42
-0.053243
 10
5.307991
 20
277.441707
 42
-0.032989
 10
5.174038
 20
278.159219
 42
-0.022379
 10
5.101636
 20
279.13769
 42
-0.007243
 10
5.080395
 20
280.589965
 42
-0.008117
 10
5.098686
 20
281.726257
 42
-0.009829
 10
5.154085
 20
282.790951
 42
-0.008597
 10
5.233431
 20
283.681751
 42
-0.064411
 10
5.331811
 20
284.093243
 42
-0.095953
 10
5.600337
 20
284.526692
 42
-0.002042
 10
7.319649
 20
286.372076
 42
-0.00464
 10
9.365858
 20
288.510311
 42
-0.003103
 10
11.745311
 20
290.920916
 42
0.000592
 10
14.761692
 20
293.946254
 42
0.000241
 10
18.857833
 20
298.068283
 42
0.000239
 10
23.256038
 20
302.502793
 42
0.000305
 10
27.305569
 20
306.594638
 42
0.000152
 10
31.477597
 20
310.81797
 42
0.000101
 10
36.256175
 20
315.660212
 42
0.000102
 10
40.8902
 20
320.359792
 42
0.0002
 10
44.577728
 20
324.104
 42
-0.000045
 10
48.097448
 20
327.680028
 42
-0.000029
 10
52.178567
 20
331.825203
 42
-0.000029
 10
56.171649
 20
335.880012
 42
-0.000055
 10
59.396393
 20
339.1535
 10
66.341469
 20
346.202
  0
LWPOLYLINE
  5
13C
330
1D
100
AcDbEntity
  8
0
100
AcDbPolyline
 90
       58
 70
     1
 43
0.0
 10
106.546579
 20
346.193922
 10
110.096157
 20
346.202
 10
115.567674
 20
340.6775
 42
-0.00027
 10
118.287028
 20
337.928843
 42
-0.000103
 10
122.07951
 20
334.089772
 42
-0.000102
 10
126.200557
 20
329.914691
 42
-0.000124
 10
130.052221
 20
326.009
 42
0.000329
 10
134.582456
 20
321.418983
 42
0.000119
 10
141.026209
 20
314.901889
 42
0.000118
 10
148.086673
 20
307.767824
 42
0.00014
 10
154.753881
 20
301.038069
 42
-0.000652
 10
160.79861
 20
294.924123
 42
-0.001034
 10
165.95933
 20
289.668984
 42
-0.000215
 10
170.488522
 20
285.033833
 42
-0.04838
 10
170.869248
 20
284.559855
 42
-0.081306
 10
171.086845
 20
284.06968
 42
-0.041281
 10
171.20332
 20
283.403193
 42
-0.022822
 10
171.249208
 20
282.380951
 42
-0.004688
 10
171.230869
 20
280.574787
 42
-0.006041
 10
171.181317
 20
279.007837
 42
-0.016262
 10
171.096459
 20
277.896605
 42
-0.020769
 10
170.977613
 20
277.111666
 42
-0.096492
 10
170.806644
 20
276.688764
 42
-0.045657
 10
170.630097
 20
276.464925
 42
-0.032952
 10
170.396425
 20
276.249046
 42
-0.033516
 10
170.144687
 20
276.071993
 42
-0.059725
 10
169.914435
 20
275.96733
 42
-0.043755
 10
169.669675
 20
275.912628
 42
-0.026522
 10
169.373617
 20
275.889074
 42
-0.026455
 10
169.074968
 20
275.897001
 42
-0.041641
 10
168.82196
 20
275.938525
 42
-0.132013
 10
168.438223
 20
276.152372
 42
-0.000451
 10
164.585697
 20
279.901678
 42
-0.002407
 10
160.239398
 20
284.180165
 42
-0.001502
 10
155.186147
 20
289.23296
 42
-0.000425
 10
148.969863
 20
295.496763
 42
-0.0002
 10
140.951481
 20
303.596651
 42
-0.000198
 10
132.561436
 20
312.085493
 42
-0.00028
 10
125.090365
 20
319.659
 42
-0.000149
 10
118.347885
 20
326.505652
 42
-0.000193
 10
112.167604
 20
332.790006
 42
-0.000145
 10
106.990302
 20
338.061607
 42
-0.001731
 10
104.997491
 20
340.106
 42
-0.005554
 10
103.807245
 20
341.36319
 42
-0.007797
 10
102.775096
 20
342.513404
 42
-0.004962
 10
101.93679
 20
343.496972
 42
-0.098387
 10
101.74791
 20
343.842906
 42
-0.065423
 10
101.702885
 20
344.100618
 42
-0.039667
 10
101.714349
 20
344.410442
 42
-0.039092
 10
101.775699
 20
344.722006
 42
-0.054281
 10
101.881418
 20
344.985906
 42
-0.02681
 10
102.029392
 20
345.231045
 42
-0.019542
 10
102.218429
 20
345.487196
 42
-0.019841
 10
102.417383
 20
345.716556
 42
-0.040475
 10
102.593989
 20
345.876422
 42
-0.129846
 10
102.9343
 20
346.018915
 42
-0.014534
 10
103.776129
 20
346.111227
 42
-0.013906
 10
104.944603
 20
346.172447
 42
-0.005565
  0
LWPOLYLINE
  5
178
330
1D
100
AcDbEntity
  8
0
100
AcDbPolyline
 90
       50
 70
     1
 43
0.0
 10
80.592706
 20
338.074
 42
-0.038215
 10
81.02578
 20
338.040852
 42
-0.04612
 10
81.421378
 20
337.94196
 42
-0.049881
 10
81.764601
 20
337.781712
 42
-0.062307
 10
82.042
 20
337.566
 42
-0.100936
 10
82.319841
 20
337.145791
 42
-0.064369
 10
82.467827
 20
336.57682
 42
-0.028024
 10
82.534595
 20
335.622672
 42
-0.003577
 10
82.548326
 20
333.5655
 42
-0.004519
 10
82.530266
 20
331.66806
 42
-0.02225
 10
82.46284
 20
330.600044
 42
-0.040376
 10
82.330448
 20
329.90509
 42
-0.07868
 10
82.097815
 20
329.392435
 42
-0.04757
 10
81.695383
 20
328.892844
 42
-0.000155
 10
76.11715
 20
323.180008
 42
-0.000866
 10
69.791925
 20
316.728561
 42
-0.000542
 10
62.368387
 20
309.199435
 42
-0.000196
 10
54.184445
 20
300.923586
 42
-0.000167
 10
45.537064
 20
292.191787
 42
-0.000168
 10
37.657795
 20
284.246254
 42
-0.000474
 10
32.145133
 20
278.7015
 10
21.202469
 20
267.716
 10
17.828689
 20
267.716
 42
-0.00334
 10
15.702356
 20
267.730203
 42
-0.035356
 10
14.838566
 20
267.802969
 42
-0.086254
 10
14.308597
 20
267.982608
 42
-0.07175
 10
13.831455
 20
268.339455
 42
-0.04496
 10
13.552268
 20
268.673934
 42
-0.054946
 10
13.358494
 20
269.032118
 42
-0.054281
 10
13.245782
 20
269.427561
 42
-0.042327
 10
13.208
 20
269.873076
 42
-0.158621
 10
13.470607
 20
270.680033
 42
-0.025321
 10
14.528158
 20
271.988159
 42
-0.010977
 10
16.636359
 20
274.240053
 42
-0.000948
 10
22.149223
 20
279.854121
 42
-0.000237
 10
26.338372
 20
284.099987
 42
-0.000121
 10
31.606163
 20
289.431461
 42
-0.00012
 10
37.040384
 20
294.92608
 42
-0.00018
 10
41.787301
 20
299.72
 42
0.000184
 10
46.644643
 20
304.62552
 42
0.000109
 10
52.432549
 20
310.477694
 42
0.000109
 10
58.203622
 20
316.317949
 42
0.000188
 10
63.005326
 20
321.183
 42
0.000027
 10
67.257976
 20
325.495461
 42
0.00003
 10
71.335499
 20
329.631278
 42
0.000028
 10
74.80018
 20
333.146307
 42
0.000169
 10
76.588954
 20
334.9625
 42
-0.003426
 10
78.445536
 20
336.823141
 42
-0.029756
 10
79.324189
 20
337.594003
 42
-0.071054
 10
79.950313
 20
337.951484
 42
-0.094508
  0
LWPOLYLINE
  5
1AC
330
1D
100
AcDbEntity
  8
0
100
AcDbPolyline
 90
       62
 70
     1
 43
0.0
 10
95.640957
 20
338.074
 42
-0.061381
 10
96.12249
 20
338.014662
 42
-0.060335
 10
96.578211
 20
337.840134
 42
-0.045022
 10
97.079917
 20
337.514116
 42
-0.017153
 10
97.718022
 20
336.976064
 42
-0.011199
 10
98.471553
 20
336.263825
 42
-0.001086
 10
100.254881
 20
334.493276
 42
-0.001378
 10
102.370632
 20
332.371885
 42
-0.001089
 10
104.648
 20
330.065802
 42
0.000351
 10
107.619386
 20
327.048058
 42
0.000107
 10
112.117576
 20
322.488065
 42
0.000107
 10
117.157056
 20
317.383731
 42
0.000117
 10
122.051025
 20
312.431238
 42
0.000154
 10
127.423454
 20
307.000467
 42
0.000086
 10
133.960523
 20
300.398758
 42
0.000086
 10
140.56931
 20
293.729221
 42
0.00014
 10
146.181025
 20
288.071045
 42
-0.000244
 10
151.082233
 20
283.127203
 42
-0.000329
 10
155.514401
 20
278.646226
 42
-0.000223
 10
159.2299
 20
274.881509
 42
-0.003542
 10
160.48251
 20
273.593045
 42
-0.005845
 10
161.230274
 20
272.794412
 42
-0.006326
 10
161.939444
 20
271.999051
 42
-0.005992
 10
162.530294
 20
271.302585
 42
-0.030253
 10
162.83106
 20
270.891
 42
-0.022821
 10
163.018312
 20
270.567676
 42
-0.022354
 10
163.176724
 20
270.226426
 42
-0.022906
 10
163.288276
 20
269.915146
 42
-0.07416
 10
163.321051
 20
269.698664
 42
-0.091384
 10
163.282816
 20
269.488618
 42
-0.030367
 10
163.153843
 20
269.202148
 42
-0.029062
 10
162.96915
 20
268.895326
 42
-0.029254
 10
162.7505
 20
268.612699
 42
-0.070949
 10
162.317875
 20
268.239196
 42
-0.086396
 10
161.825239
 20
268.031979
 42
-0.039036
 10
161.032052
 20
267.913914
 42
-0.004497
 10
159.232023
 20
267.804453
 42
-0.007717
 10
157.888951
 20
267.755668
 42
-0.01446
 10
156.802162
 20
267.76441
 42
-0.017314
 10
155.954274
 20
267.825212
 42
-0.053191
 10
155.392396
 20
267.946437
 42
-0.102653
 10
154.690901
 20
268.351226
 42
-0.006746
 10
152.957163
 20
269.938891
 42
-0.00703
 10
150.50849
 20
272.308544
 42
-0.002016
 10
146.782373
 20
276.047311
 42
-0.000053
 10
142.557557
 20
280.321699
 42
-0.000012
 10
135.473324
 20
287.490924
 42
-0.000013
 10
127.322339
 20
295.740528
 42
-0.000012
 10
119.120646
 20
304.042292
 42
-0.000163
 10
111.28234
 20
311.9818
 42
-0.000223
 10
104.234435
 20
319.13173
 42
-0.000143
 10
98.314314
 20
325.146353
 42
-0.002645
 10
96.451146
 20
327.060493
 10
93.726
 20
329.889985
 10
93.726
 20
333.312739
 42
-0.003953
 10
93.74185
 20
335.317473
 42
-0.028041
 10
93.811683
 20
336.287331
 42
-0.05938
 10
93.965624
 20
336.898967
 42
-0.075475
 10
94.252435
 20
337.404746
 42
-0.044609
 10
94.547019
 20
337.717383
 42
-0.069317
 10
94.854889
 20
337.922427
 42
-0.068904
 10
95.208455
 20
338.036287
 42
-0.043516
  0
LWPOLYLINE
  5
1EC
330
1D
100
AcDbEntity
  8
0
100
AcDbPolyline
 90
       50
 70
     1
 43
0.0
 10
80.847045
 20
315.1979
 42
-0.101118
 10
81.065325
 20
315.16127
 42
-0.036184
 10
81.352267
 20
315.026131
 42
-0.034117
 10
81.654318
 20
314.827937
 42
-0.034138
 10
81.926545
 20
314.590545
 42
-0.081812
 10
82.28868
 20
314.085576
 42
-0.082856
 10
82.467704
 20
313.493326
 42
-0.02976
 10
82.537457
 20
312.479714
 42
-0.002301
 10
82.55
 20
309.754491
 10
82.55
 20
305.541892
 10
80.844192
 20
303.710446
 42
-0.006678
 10
79.617609
 20
302.42829
 42
-0.000231
 10
74.763453
 20
297.492562
 42
-0.000431
 10
69.02276
 20
291.670837
 42
-0.000301
 10
62.539196
 20
285.115
 42
-0.000702
 10
56.135779
 20
278.666134
 42
-0.001126
 10
50.653134
 20
273.184803
 42
-0.000183
 10
45.784182
 20
268.342444
 42
-0.068755
 10
45.385504
 20
268.042501
 42
-0.09673
 10
44.958831
 20
267.903542
 42
-0.012463
 10
43.997809
 20
267.809971
 42
-0.012035
 10
42.698961
 20
267.747489
 42
-0.005414
 10
40.991754
 20
267.725001
 42
-0.003243
 10
38.704214
 20
267.734476
 42
-0.025916
 10
37.651583
 20
267.800297
 42
-0.058465
 10
37.005302
 20
267.952346
 42
-0.079833
 10
36.483254
 20
268.242435
 42
-0.044607
 10
36.172077
 20
268.535641
 42
-0.068535
 10
35.966712
 20
268.842948
 42
-0.068551
 10
35.852089
 20
269.194273
 42
-0.04465
 10
35.814
 20
269.619947
 42
-0.053345
 10
35.858496
 20
270.03582
 42
-0.041951
 10
35.99122
 20
270.469435
 42
-0.039373
 10
36.205471
 20
270.902321
 42
-0.034698
 10
36.49317
 20
271.316012
 42
-0.02371
 10
37.025833
 20
271.917918
 42
-0.000422
 10
40.039586
 20
275.009203
 42
-0.001056
 10
43.562381
 20
278.601319
 42
-0.000704
 10
47.612348
 20
282.702
 42
-0.000036
 10
52.380175
 20
287.515247
 42
-0.000021
 10
58.117367
 20
293.305762
 42
-0.000021
 10
63.875608
 20
299.116543
 42
-0.000035
 10
68.713678
 20
303.997658
 42
-0.001294
 10
72.83716
 20
308.135759
 42
-0.002053
 10
76.392462
 20
311.656215
 42
-0.000445
 10
79.529947
 20
314.732066
 42
-0.093938
 10
79.883
 20
314.967058
 42
-0.024407
 10
80.11078
 20
315.050497
 42
-0.016827
 10
80.375738
 20
315.123449
 42
-0.017003
 10
80.635947
 20
315.176473
 42
-0.032945
  0
LWPOLYLINE
  5
220
330
1D
100
AcDbEntity
  8
0
100
AcDbPolyline
 90
       50
 70
     1
 43
0.0
 10
95.820984
 20
315.112503
 42
-0.081529
 10
96.255761
 20
314.948805
 42
-0.025215
 10
96.845275
 20
314.568269
 42
-0.022067
 10
97.530313
 20
314.028042
 42
-0.014025
 10
98.280647
 20
313.343014
 42
-0.004552
 10
99.409277
 20
312.232994
 42
-0.000237
 10
103.001668
 20
308.6315
 42
-0.000376
 10
107.268026
 20
304.343835
 42
-0.000273
 10
112.009414
 20
299.566393
 42
-0.000013
 10
117.226726
 20
294.303389
 42
-0.00001
 10
122.934681
 20
288.544908
 42
-0.00001
 10
128.28057
 20
283.151262
 42
-0.000024
 10
132.265914
 20
279.129763
 42
-0.000912
 10
137.578129
 20
273.749251
 42
-0.013636
 10
139.377229
 20
271.817728
 42
-0.040714
 10
140.214209
 20
270.696539
 42
-0.140892
 10
140.462
 20
269.83463
 42
-0.031509
 10
140.430852
 20
269.34084
 42
-0.05363
 10
140.335382
 20
268.938811
 42
-0.061778
 10
140.169664
 20
268.607427
 42
-0.061926
 10
139.928123
 20
268.326867
 42
-0.104268
 10
139.476584
 20
268.063203
 42
-0.048627
 10
138.812512
 20
267.912226
 42
-0.022973
 10
137.708282
 20
267.823214
 42
-0.003425
 10
135.478639
 20
267.761555
 42
-0.003275
 10
133.148675
 20
267.728357
 42
-0.024727
 10
132.04889
 20
267.774295
 42
-0.052883
 10
131.344719
 20
267.914734
 42
-0.062845
 10
130.728423
 20
268.195927
 42
-0.041308
 10
130.279612
 20
268.527404
 42
-0.007642
 10
129.516255
 20
269.216058
 42
-0.008152
 10
128.646721
 20
270.051796
 42
-0.007351
 10
127.773899
 20
270.944372
 42
0.004602
 10
126.345083
 20
272.421685
 42
0.000294
 10
122.125877
 20
276.699466
 42
0.000431
 10
117.090413
 20
281.790046
 42
0.000321
 10
111.523492
 20
287.401
 42
-0.000312
 10
105.977063
 20
292.991107
 42
-0.000431
 10
101.005241
 20
298.016995
 42
-0.000269
 10
96.828393
 20
302.251105
 42
-0.005309
 10
95.5595
 20
303.566429
 10
93.726
 20
305.507858
 10
93.726
 20
309.737474
 42
-0.00222
 10
93.738325
 20
312.513734
 42
-0.030977
 10
93.809072
 20
313.511127
 42
-0.087468
 10
93.995363
 20
314.098263
 42
-0.076063
 10
94.377837
 20
314.618928
 42
-0.03215
 10
94.745638
 20
314.942244
 42
-0.082008
 10
95.057386
 20
315.109807
 42
-0.089086
 10
95.390424
 20
315.160767
 42
-0.042909
  0
LWPOLYLINE
  5
254
330
1D
100
AcDbEntity
  8
0
100
AcDbPolyline
 90
       42
 70
     1
 43
0.0
 10
80.755629
 20
294.893051
 42
-0.070701
 10
81.035057
 20
294.853778
 42
-0.036974
 10
81.365223
 20
294.73149
 42
-0.035875
 10
81.691602
 20
294.553041
 42
-0.045562
 10
81.962129
 20
294.341724
 42
-0.115874
 10
82.307952
 20
293.820606
 42
-0.066737
 10
82.474561
 20
293.082113
 42
-0.0208
 10
82.539189
 20
291.708695
 42
-0.001357
 10
82.55
 20
287.725111
 42
-0.002516
 10
82.534342
 20
284.613259
 42
-0.010888
 10
82.475525
 20
282.766521
 42
-0.015776
 10
82.373637
 20
281.573033
 42
-0.092564
 10
82.187747
 20
280.974886
 42
-0.067959
 10
81.862197
 20
280.52044
 42
-0.001647
 10
80.076311
 20
278.64382
 42
-0.003561
 10
77.955393
 20
276.46113
 42
-0.002411
 10
75.508575
 20
274.0025
 10
69.191657
 20
267.716
 10
63.30978
 20
267.716
 42
-0.003352
 10
60.722213
 20
267.733346
 42
-0.007658
 10
58.771305
 20
267.789397
 42
-0.006507
 10
57.310212
 20
267.872846
 42
-0.089604
 10
56.798119
 20
268.002949
 42
-0.064444
 10
56.534389
 20
268.166915
 42
-0.037076
 10
56.262534
 20
268.424817
 42
-0.036408
 10
56.02378
 20
268.729399
 42
-0.049878
 10
55.859229
 20
269.036145
 42
-0.03294
 10
55.719028
 20
269.449715
 42
-0.073217
 10
55.681012
 20
269.779365
 42
-0.072952
 10
55.739569
 20
270.106729
 42
-0.03251
 10
55.905562
 20
270.513269
 42
-0.07679
 10
56.256009
 20
271.019063
 42
-0.000695
 10
59.43954
 20
274.364596
 42
-0.002362
 10
63.127715
 20
278.193311
 42
-0.001521
 10
67.437
 20
282.597833
 42
-0.001249
 10
71.775493
 20
286.983333
 42
-0.001922
 10
75.553888
 20
290.754523
 42
-0.000615
 10
78.842809
 20
294.004025
 42
-0.056356
 10
79.375
 20
294.421811
 42
-0.031134
 10
79.71211
 20
294.601928
 42
-0.024889
 10
80.094885
 20
294.754232
 42
-0.025532
 10
80.464502
 20
294.859666
 42
-0.05638
  0
LWPOLYLINE
  5
280
330
1D
100
AcDbEntity
  8
0
100
AcDbPolyline
 90
       38
 70
     1
 43
0.0
 10
95.738776
 20
294.89887
 42
-0.172585
 10
96.595667
 20
294.599184
 42
-0.018135
 10
98.224958
 20
293.185938
 42
-0.008584
 10
101.078932
 20
290.429896
 42
-0.00068
 10
108.511527
 20
282.981323
 42
-0.001446
 10
113.742557
 20
277.694277
 42
-0.003856
 10
117.434109
 20
273.8832
 42
-0.001601
 10
120.247106
 20
270.914977
 42
-0.128055
 10
120.552083
 20
270.357553
 42
-0.050098
 10
120.601605
 20
270.020287
 42
-0.046075
 10
120.585341
 20
269.670055
 42
-0.045719
 10
120.504845
 20
269.326056
 42
-0.047593
 10
120.363878
 20
269.007274
 42
-0.043394
 10
120.178723
 20
268.735586
 42
-0.028341
 10
119.922362
 20
268.455725
 42
-0.028484
 10
119.639089
 20
268.209483
 42
-0.047582
 10
119.372322
 20
268.040918
 42
-0.094971
 10
118.837123
 20
267.88756
 42
-0.010001
 10
117.533214
 20
267.79654
 42
-0.009231
 10
115.665316
 20
267.738189
 42
-0.003031
 10
112.914236
 20
267.719744
 10
107.083472
 20
267.716
 10
100.526493
 20
274.25523
 42
-0.00264
 10
97.568787
 20
277.236247
 42
-0.007257
 10
95.5241
 20
279.380309
 42
-0.005669
 10
94.071346
 20
280.984741
 42
-0.115293
 10
93.762094
 20
281.55773
 42
-0.059571
 10
93.684305
 20
282.085483
 42
-0.003211
 10
93.648944
 20
283.775571
 42
-0.00498
 10
93.639798
 20
285.791206
 42
-0.003609
 10
93.668173
 20
288.036
 42
-0.001817
 10
93.750309
 20
291.531774
 42
-0.018503
 10
93.843292
 20
292.979729
 42
-0.047455
 10
94.004446
 20
293.791511
 42
-0.113401
 10
94.306111
 20
294.3225
 42
-0.054572
 10
94.593878
 20
294.574522
 42
-0.056998
 10
94.925346
 20
294.754043
 42
-0.053807
 10
95.305696
 20
294.861351
 42
-0.040549
  0
LWPOLYLINE
  5
2A8
330
1D
100
AcDbEntity
  8
0
100
AcDbPolyline
 90
       16
 70
     1
 43
0.0
 10
148.685899
 20
273.558
 42
-0.184603
 10
148.739825
 20
273.537388
 42
-0.013803
 10
148.856029
 20
273.427428
 42
-0.017649
 10
148.989877
 20
273.283782
 42
-0.012436
 10
149.130399
 20
273.1135
 42
-0.001576
 10
149.35394
 20
272.826605
 42
-0.377591
 10
149.352
 20
272.796
 42
-0.377591
 10
149.321395
 20
272.79406
 42
-0.001576
 10
149.0345
 20
273.017601
 42
-0.012436
 10
148.864218
 20
273.158123
 42
-0.017649
 10
148.720572
 20
273.291971
 42
-0.013803
 10
148.610612
 20
273.408175
 42
-0.184603
 10
148.59
 20
273.462101
 42
-0.099038
 10
148.597321
 20
273.4987
 42
-0.097945
 10
148.61817
 20
273.52983
 42
-0.097945
 10
148.6493
 20
273.550679
 42
-0.099038
  0
LWPOLYLINE
  5
2BA
330
1D
100
AcDbEntity
  8
0
100
AcDbPolyline
 90
       16
 70
     1
 43
0.0
 10
152.194266
 20
270.002
 42
-0.165568
 10
152.266397
 20
269.977442
 42
-0.014322
 10
152.419007
 20
269.852775
 42
-0.017642
 10
152.595648
 20
269.688585
 42
-0.012769
 10
152.781
 20
269.494
 42
-0.012939
 10
152.948538
 20
269.298959
 42
-0.02599
 10
153.068381
 20
269.135225
 42
-0.034935
 10
153.133992
 20
269.017936
 42
-0.549874
 10
153.113734
 20
268.986
 42
-0.165568
 10
153.041603
 20
269.010558
 42
-0.014322
 10
152.888993
 20
269.135225
 42
-0.017642
 10
152.712352
 20
269.299415
 42
-0.012769
 10
152.527
 20
269.494
 42
-0.012939
 10
152.359462
 20
269.689041
 42
-0.02599
 10
152.239619
 20
269.852775
 42
-0.034935
 10
152.174008
 20
269.970064
 42
-0.549874
  0
LWPOLYLINE
  5
2CC
330
1D
100
AcDbEntity
  8
0
100
AcDbPolyline
 90
       44
 70
     1
 43
0.0
 10
17.860198
 20
256.773947
 42
-0.007303
 10
19.040945
 20
256.764591
 42
-0.009928
 10
20.105461
 20
256.719446
 42
-0.00717
 10
20.98892
 20
256.651658
 42
-0.102646
 10
21.289198
 20
256.56025
 42
-0.070729
 10
21.603139
 20
256.325876
 42
-0.000035
 10
30.461717
 20
247.516963
 42
-0.000494
 10
40.305393
 20
237.707734
 42
-0.000301
 10
51.914051
 20
226.102835
 42
-0.000193
 10
63.507625
 20
214.490099
 42
-0.000317
 10
73.30404
 20
204.657472
 42
-0.000019
 10
82.123335
 20
195.793688
 42
-0.054533
 10
82.326662
 20
195.539085
 42
-0.12202
 10
82.41257
 20
195.281654
 42
-0.005071
 10
82.480043
 20
194.306893
 42
-0.008527
 10
82.52896
 20
193.140513
 42
-0.005927
 10
82.546111
 20
191.821955
 42
-0.003323
 10
82.534406
 20
189.691376
 42
-0.035393
 10
82.462686
 20
188.828157
 42
-0.086553
 10
82.283498
 20
188.298683
 42
-0.071721
 10
81.926545
 20
187.821455
 42
-0.045056
 10
81.603504
 20
187.55192
 42
-0.050426
 10
81.248882
 20
187.356099
 42
-0.051288
 10
80.867733
 20
187.237663
 42
-0.049582
 10
80.466045
 20
187.19748
 42
-0.193648
 10
79.550688
 20
187.565146
 42
-0.002149
 10
74.659155
 20
192.296929
 42
-0.002858
 10
66.587728
 20
200.262753
 42
-0.000255
 10
46.4185
 20
220.417525
 42
-0.000193
 10
24.276945
 20
242.582929
 42
-0.003625
 10
17.364672
 20
249.609149
 42
-0.005459
 10
13.661949
 20
253.512273
 42
-0.189246
 10
13.208
 20
254.668679
 42
-0.030553
 10
13.236479
 20
255.134294
 42
-0.045439
 10
13.322747
 20
255.533183
 42
-0.053457
 10
13.462606
 20
255.854427
 42
-0.08438
 10
13.6525
 20
256.086489
 42
-0.020859
 10
13.850581
 20
256.245016
 42
-0.016194
 10
14.078347
 20
256.401117
 42
-0.016473
 10
14.300608
 20
256.532993
 42
-0.037571
 10
14.478
 20
256.613803
 42
-0.07262
 10
14.745909
 20
256.670168
 42
-0.003766
 10
15.628683
 20
256.718633
 42
-0.005907
 10
16.682781
 20
256.756069
 42
-0.004251
  0
LWPOLYLINE
  5
2FA
330
1D
100
AcDbEntity
  8
0
100
AcDbPolyline
 90
       44
 70
     1
 43
0.0
 10
41.101198
 20
256.773947
 42
-0.006238
 10
42.62268
 20
256.763355
 42
-0.01065
 10
43.892307
 20
256.711605
 42
-0.009347
 10
44.889953
 20
256.630891
 42
-0.09239
 10
45.292198
 20
256.51362
 42
-0.077192
 10
45.689836
 20
256.228533
 42
-0.00017
 10
50.967669
 20
251.044516
 42
-0.001147
 10
56.898305
 20
245.188519
 42
-0.000712
 10
63.833868
 20
238.28912
 42
-0.00084
 10
70.755381
 20
231.360827
 42
-0.001341
 10
76.644204
 20
225.414606
 42
-0.000246
 10
81.826479
 20
220.148502
 42
-0.07219
 10
82.185368
 20
219.659114
 42
-0.081738
 10
82.362563
 20
219.134114
 42
-0.021174
 10
82.469809
 20
218.245098
 42
-0.014892
 10
82.53213
 20
216.945863
 42
-0.004537
 10
82.55
 20
214.976484
 42
-0.002782
 10
82.536327
 20
212.519184
 42
-0.027196
 10
82.468385
 20
211.4835
 42
-0.068277
 10
82.308464
 20
210.87308
 42
-0.090652
 10
81.997724
 20
210.391871
 42
-0.051208
 10
81.696251
 20
210.130493
 42
-0.057328
 10
81.358683
 20
209.947205
 42
-0.054806
 10
80.975258
 20
209.839687
 42
-0.040891
 10
80.537224
 20
209.803619
 42
-0.186933
 10
79.578848
 20
210.174435
 42
-0.00662
 10
76.633556
 20
212.929396
 42
-0.004725
 10
71.511943
 20
217.942682
 42
-0.000354
 10
57.7215
 20
231.718485
 42
-0.0003
 10
43.161697
 20
246.300905
 42
-0.005454
 10
38.571955
 20
251.004818
 42
-0.011272
 10
36.220473
 20
253.581872
 42
-0.181225
 10
35.814
 20
254.666499
 42
-0.030435
 10
35.842444
 20
255.133348
 42
-0.045447
 10
35.928639
 20
255.532777
 42
-0.053527
 10
36.068474
 20
255.854227
 42
-0.08442
 10
36.2585
 20
256.086489
 42
-0.020859
 10
36.456581
 20
256.245016
 42
-0.016194
 10
36.684347
 20
256.401117
 42
-0.016473
 10
36.906608
 20
256.532993
 42
-0.037571
 10
37.084
 20
256.613803
 42
-0.075443
 10
37.360412
 20
256.670338
 42
-0.002826
 10
38.421215
 20
256.718633
 42
-0.005054
 10
39.680387
 20
256.756086
 42
-0.003528
  0
LWPOLYLINE
  5
328
330
1D
100
AcDbEntity
  8
0
100
AcDbPolyline
 90
       34
 70
     1
 43
0.0
 10
63.240659
 20
256.776809
 10
69.204318
 20
256.794
 10
75.877159
 20
250.121159
 10
82.55
 20
243.448318
 10
82.55
 20
237.155613
 10
82.55
 20
230.862909
 10
81.926545
 20
230.239455
 42
-0.046003
 10
81.634167
 20
229.99644
 42
-0.039021
 10
81.286192
 20
229.795577
 42
-0.040564
 10
80.931572
 20
229.660301
 42
-0.070955
 10
80.620966
 20
229.616
 42
-0.1286
 10
80.163457
 20
229.73565
 42
-0.036122
 10
79.542232
 20
230.146045
 42
-0.02316
 10
78.687847
 20
230.869091
 42
-0.006262
 10
77.40366
 20
232.0925
 42
-0.002309
 10
75.903162
 20
233.57187
 42
-0.000339
 10
72.880214
 20
236.583993
 42
-0.000383
 10
69.312677
 20
240.149043
 42
-0.000329
 10
65.564739
 20
243.905051
 42
-0.001933
 10
61.973338
 20
247.536894
 42
-0.002954
 10
58.889563
 20
250.716968
 42
-0.00104
 10
56.253226
 20
253.479449
 42
-0.078633
 10
55.905562
 20
253.984355
 42
-0.031844
 10
55.739345
 20
254.39762
 42
-0.0722
 10
55.680959
 20
254.728629
 42
-0.072917
 10
55.719344
 20
255.06054
 42
-0.033009
 10
55.860141
 20
255.476056
 42
-0.04364
 10
56.019502
 20
255.782217
 42
-0.034326
 10
56.241658
 20
256.083243
 42
-0.035355
 10
56.489116
 20
256.335861
 42
-0.068785
 10
56.723579
 20
256.492062
 42
-0.097559
 10
57.167998
 20
256.608303
 42
-0.004415
 10
58.750276
 20
256.691441
 42
-0.006679
 10
60.75235
 20
256.752135
 42
-0.003517
  0
LWPOLYLINE
  5
34C
330
1D
100
AcDbEntity
  8
0
100
AcDbPolyline
 90
       42
 70
     1
 43
0.0
 10
113.290983
 20
256.793051
 42
-0.002288
 10
116.485829
 20
256.778941
 42
-0.01232
 10
118.222718
 20
256.720508
 42
-0.019707
 10
119.294799
 20
256.615454
 42
-0.119039
 10
119.811371
 20
256.412684
 42
-0.062909
 10
120.03182
 20
256.212738
 42
-0.036714
 10
120.243803
 20
255.925081
 42
-0.03614
 10
120.416589
 20
255.600702
 42
-0.050289
 10
120.518997
 20
255.288224
 42
-0.049008
 10
120.561471
 20
254.930768
 42
-0.04188
 10
120.537435
 20
254.552042
 42
-0.041225
 10
120.449678
 20
254.17639
 42
-0.043766
 10
120.302653
 20
253.828039
 42
-0.070979
 10
119.939654
 20
253.328681
 42
-0.000592
 10
116.576732
 20
249.870802
 42
-0.002093
 10
112.690977
 20
245.91802
 42
-0.001345
 10
108.151674
 20
241.3635
 42
-0.001013
 10
101.861304
 20
235.1113
 42
-0.005982
 10
98.520419
 20
231.882339
 42
-0.005125
 10
96.330993
 20
229.858367
 42
-0.186079
 10
95.702295
 20
229.616
 42
-0.069772
 10
95.39142
 20
229.659593
 42
-0.034081
 10
95.014136
 20
229.795934
 42
-0.032985
 10
94.634317
 20
229.994083
 42
-0.04082
 10
94.311664
 20
230.228541
 10
93.599
 20
230.841082
 10
93.520083
 20
236.388041
 42
-0.002964
 10
93.501916
 20
238.577445
 42
-0.003949
 10
93.512912
 20
240.566725
 42
-0.0028
 10
93.544608
 20
242.23254
 42
-0.039831
 10
93.60649
 20
242.824
 42
-0.118014
 10
93.918039
 20
243.523889
 42
-0.018142
 10
94.894176
 20
244.706538
 42
-0.011552
 10
96.580332
 20
246.518643
 42
-0.002126
 10
99.781407
 20
249.775466
 42
-0.002236
 10
102.139247
 20
252.132868
 42
-0.003216
 10
104.249519
 20
254.197226
 42
-0.001716
 10
106.051797
 20
255.925832
 42
-0.050472
 10
106.553
 20
256.315016
 42
-0.086799
 10
107.20465
 20
256.580007
 42
-0.035573
 10
108.153197
 20
256.715558
 42
-0.015744
 10
109.762653
 20
256.77891
 42
-0.001924
  0
LWPOLYLINE
  5
378
330
1D
100
AcDbEntity
  8
0
100
AcDbPolyline
 90
       34
 70
     1
 43
0.0
 10
135.036627
 20
256.794
 42
-0.002955
 10
137.484128
 20
256.779535
 42
-0.024609
 10
138.590642
 20
256.711922
 42
-0.056864
 10
139.261369
 20
256.559226
 42
-0.082454
 10
139.792746
 20
256.267565
 42
-0.045309
 10
140.126122
 20
255.95256
 42
-0.080889
 10
140.326539
 20
255.634123
 42
-0.071453
 10
140.430036
 20
255.241362
 42
-0.028755
 10
140.462
 20
254.686022
 10
140.462
 20
253.630915
 10
118.552771
 20
231.717458
 42
-0.000334
 10
104.476129
 20
217.65687
 42
-0.004975
 10
99.503547
 20
212.794324
 42
-0.008036
 10
96.696491
 20
210.188762
 42
-0.185101
 10
95.692771
 20
209.804
 42
-0.037401
 10
95.25897
 20
209.836494
 42
-0.044995
 10
94.861792
 20
209.933464
 42
-0.049012
 10
94.519255
 20
210.089456
 42
-0.06512
 10
94.248167
 20
210.297833
 42
-0.055116
 10
94.047175
 20
210.548797
 42
-0.028685
 10
93.851922
 20
210.899673
 42
-0.028137
 10
93.690746
 20
211.287153
 42
-0.038139
 10
93.592713
 20
211.653184
 42
-0.036882
 10
93.534072
 20
212.175916
 42
-0.005004
 10
93.503229
 20
213.278122
 42
-0.005742
 10
93.49474
 20
214.58705
 42
-0.004815
 10
93.515046
 20
215.975099
 10
93.599
 20
219.435496
 10
96.774
 20
222.684248
 42
-0.002581
 10
98.781565
 20
224.717342
 42
-0.000263
 10
103.569581
 20
229.511388
 42
-0.000329
 10
109.281511
 20
235.216996
 42
-0.000262
 10
115.449381
 20
241.3635
 10
130.949763
 20
256.794
  0
LWPOLYLINE
  5
39C
330
1D
100
AcDbEntity
  8
0
100
AcDbPolyline
 90
       40
 70
     1
 43
0.0
 10
158.327544
 20
256.794
 10
161.837077
 20
256.794
 10
162.60547
 20
256.025607
 42
-0.023736
 10
162.989741
 20
255.60301
 42
-0.074652
 10
163.186789
 20
255.275359
 42
-0.098115
 10
163.250244
 20
254.957125
 42
-0.061857
 10
163.203852
 20
254.579837
 42
-0.07816
 10
163.050233
 20
254.218419
 42
-0.014328
 10
162.647299
 20
253.612132
 42
-0.015087
 10
162.129271
 20
252.924137
 42
-0.01321
 10
161.547945
 20
252.23673
 42
-0.013614
 10
160.373727
 20
250.990426
 42
-0.00012
 10
151.221293
 20
241.795693
 42
-0.000417
 10
140.692187
 20
231.240637
 42
-0.000269
 10
128.479962
 20
219.031885
 42
-0.000518
 10
114.31678
 20
204.917222
 42
-0.001519
 10
104.524285
 20
195.237469
 42
-0.000267
 10
96.792908
 20
187.64952
 42
-0.133179
 10
96.200938
 20
187.317849
 42
-0.033946
 10
95.889943
 20
187.261887
 42
-0.023105
 10
95.531079
 20
187.238898
 42
-0.02334
 10
95.181095
 20
187.249014
 42
-0.04261
 10
94.899247
 20
187.294712
 42
-0.087122
 10
94.628484
 20
187.415533
 42
-0.048306
 10
94.34864
 20
187.646523
 42
-0.044226
 10
94.090323
 20
187.955827
 42
-0.041112
 10
93.883247
 20
188.313134
 42
-0.055426
 10
93.688924
 20
188.876183
 42
-0.027719
 10
93.564156
 20
189.620128
 42
-0.020011
 10
93.493381
 20
190.61915
 42
-0.007678
 10
93.472
 20
192.0115
 42
-0.007723
 10
93.492516
 20
193.33966
 42
-0.01808
 10
93.559051
 20
194.330513
 42
-0.023416
 10
93.669538
 20
195.061423
 42
-0.072986
 10
93.836329
 20
195.529114
 42
-0.073093
 10
94.202349
 20
196.026709
 42
-0.00009
 10
102.99681
 20
204.911062
 42
-0.000808
 10
112.863111
 20
214.842472
 42
-0.000497
 10
124.509335
 20
226.5045
 10
154.818012
 20
256.794
  0
LWPOLYLINE
  5
3C6
330
1D
100
AcDbEntity
  8
0
100
AcDbPolyline
 90
       48
 70
     1
 43
0.0
 10
169.418
 20
248.774025
 42
-0.046303
 10
169.698038
 20
248.684437
 42
-0.026803
 10
170.015694
 20
248.528731
 42
-0.026605
 10
170.320193
 20
248.336744
 42
-0.040029
 10
170.561
 20
248.135656
 42
-0.10151
 10
170.83763
 20
247.724901
 42
-0.059742
 10
170.996723
 20
247.152347
 42
-0.027773
 10
171.088078
 20
246.205204
 42
-0.00408
 10
171.15066
 20
244.278171
 42
-0.003364
 10
171.189312
 20
242.079322
 42
-0.039243
 10
171.131324
 20
241.222789
 42
-0.084213
 10
170.940569
 20
240.635537
 42
-0.040079
 10
170.51566
 20
239.961127
 42
-0.035287
 10
169.897611
 20
239.246246
 42
-0.000106
 10
161.26191
 20
230.580039
 42
-0.000618
 10
151.487429
 20
220.799381
 42
-0.000386
 10
140.019906
 20
209.370605
 42
-0.000182
 10
128.579037
 20
197.994288
 42
-0.0003
 10
118.894449
 20
188.382889
 42
-0.000017
 10
110.160798
 20
179.72621
 42
-0.053876
 10
109.920906
 20
179.534867
 42
-0.123854
 10
109.67551
 20
179.453766
 42
-0.004466
 10
108.682057
 20
179.390293
 42
-0.007963
 10
107.497195
 20
179.344123
 42
-0.005473
 10
106.152776
 20
179.327889
 42
-0.003251
 10
104.020155
 20
179.339349
 42
-0.032611
 10
103.132385
 20
179.407909
 42
-0.082479
 10
102.60948
 20
179.5736
 42
-0.091873
 10
102.190125
 20
179.8955
 42
-0.020391
 10
101.981608
 20
180.14706
 42
-0.01697
 10
101.78048
 20
180.430342
 42
-0.017304
 10
101.61399
 20
180.702589
 42
-0.043737
 10
101.517974
 20
180.913706
 42
-0.069913
 10
101.474283
 20
181.129443
 42
-0.03358
 10
101.47624
 20
181.412406
 42
-0.032477
 10
101.518222
 20
181.712528
 42
-0.039873
 10
101.597385
 20
181.984121
 42
-0.104701
 10
101.882996
 20
182.427794
 42
-0.00008
 10
111.437235
 20
192.070951
 42
-0.000903
 10
122.120281
 20
202.811109
 42
-0.000552
 10
134.761751
 20
215.446416
 42
-0.000329
 10
147.425525
 20
228.059469
 42
-0.000539
 10
158.177293
 20
238.731062
 42
-0.000045
 10
167.833238
 20
248.29265
 42
-0.064728
 10
168.235992
 20
248.59954
 42
-0.057445
 10
168.491776
 20
248.709825
 42
-0.036456
 10
168.808848
 20
248.780542
 42
-0.036328
 10
169.13486
 20
248.80469
 42
-0.054653
  0
LWPOLYLINE
  5
3F8
330
1D
100
AcDbEntity
  8
0
100
AcDbPolyline
 90
       46
 70
     1
 43
0.0
 10
7.267464
 20
248.613805
 42
-0.170011
 10
8.083958
 20
248.238201
 42
-0.001097
 10
13.874333
 20
242.621747
 42
-0.002349
 10
22.729278
 20
233.913534
 42
-0.000322
 10
41.107261
 20
215.646
 42
-0.000572
 10
53.798816
 20
202.985556
 42
-0.000933
 10
64.532122
 20
192.213926
 42
-0.000092
 10
74.11591
 20
182.556425
 42
-0.097104
 10
74.441766
 20
182.067407
 42
-0.04334
 10
74.55078
 20
181.724199
 42
-0.046474
 10
74.595699
 20
181.375314
 42
-0.046335
 10
74.575451
 20
181.023201
 42
-0.042601
 10
74.490911
 20
180.670407
 42
-0.054848
 10
74.35547
 20
180.375034
 42
-0.038343
 10
74.143578
 20
180.07581
 42
-0.038742
 10
73.892691
 20
179.817211
 42
-0.062908
 10
73.639942
 20
179.645244
 42
-0.083544
 10
73.205668
 20
179.508482
 42
-0.014099
 10
72.337447
 20
179.412423
 42
-0.013265
 10
71.197455
 20
179.349126
 42
-0.006947
 10
69.776446
 20
179.327744
 10
66.527892
 20
179.324
 10
64.696446
 20
181.018163
 42
-0.009031
 10
63.338154
 20
182.320946
 42
-0.000118
 10
55.002011
 20
190.614546
 42
-0.000341
 10
45.358955
 20
200.226005
 42
-0.000224
 10
34.265933
 20
211.307663
 42
-0.000428
 10
23.280013
 20
222.310969
 42
-0.000698
 10
13.981646
 20
231.666093
 42
-0.000067
 10
5.670039
 20
240.054055
 42
-0.073682
 10
5.373433
 20
240.457802
 42
-0.085703
 10
5.256975
 20
240.814583
 42
-0.01263
 10
5.166307
 20
241.571208
 42
-0.013676
 10
5.104721
 20
242.493796
 42
-0.010434
 10
5.08606
 20
243.505802
 42
-0.008267
 10
5.105567
 20
244.534342
 42
-0.008233
 10
5.159071
 20
245.563075
 42
-0.008113
 10
5.235182
 20
246.460004
 42
-0.031746
 10
5.326098
 20
247.008199
 42
-0.031879
 10
5.449432
 20
247.41916
 42
-0.03006
 10
5.626019
 20
247.81953
 42
-0.031433
 10
5.826081
 20
248.154542
 42
-0.084629
 10
6.018539
 20
248.353004
 42
-0.071729
 10
6.250728
 20
248.476459
 42
-0.034917
 10
6.574526
 20
248.568051
 42
-0.033735
 10
6.931174
 20
248.617736
 42
-0.041356
  0
LWPOLYLINE
  5
428
330
1D
100
AcDbEntity
  8
0
100
AcDbPolyline
 90
       46
 70
     1
 43
0.0
 10
7.169299
 20
226.06
 42
-0.15696
 10
7.837698
 20
225.844876
 42
-0.024576
 10
8.935519
 20
224.971723
 42
-0.012842
 10
10.720054
 20
223.320142
 42
-0.00163
 10
14.461904
 20
219.650431
 42
-0.000611
 10
17.942558
 20
216.206147
 42
-0.000158
 10
23.539873
 20
210.650252
 42
-0.000161
 10
29.916606
 20
204.312621
 42
-0.000164
 10
36.247665
 20
198.012195
 42
-0.001279
 10
42.131063
 20
192.123373
 42
-0.002031
 10
47.134357
 20
187.048729
 42
-0.00043
 10
51.509068
 20
182.567731
 42
-0.095246
 10
51.833938
 20
182.074694
 42
-0.042883
 10
51.934713
 20
181.756799
 42
-0.030458
 10
51.99446
 20
181.387458
 42
-0.030917
 10
52.008113
 20
181.025127
 42
-0.055496
 10
51.968093
 20
180.73055
 42
-0.077654
 10
51.853069
 20
180.459174
 42
-0.042392
 10
51.636429
 20
180.168586
 42
-0.040974
 10
51.360063
 20
179.904052
 42
-0.051139
 10
51.062934
 20
179.70962
 42
-0.07404
 10
50.508492
 20
179.520057
 42
-0.02453
 10
49.654063
 20
179.40611
 42
-0.016234
 10
48.401257
 20
179.342081
 42
-0.00465
 10
46.457062
 20
179.324
 10
42.596896
 20
179.324
 10
36.474948
 20
185.350624
 42
-0.001196
 10
33.295943
 20
188.495134
 42
-0.000362
 10
28.486152
 20
193.282472
 42
-0.000363
 10
23.101777
 20
198.657266
 42
-0.000395
 10
17.875826
 20
203.889743
 42
-0.001109
 10
11.667375
 20
210.143455
 42
-0.00483
 10
8.034153
 20
213.891167
 42
-0.003324
 10
5.590923
 20
216.495048
 42
-0.138255
 10
5.244372
 20
217.173641
 42
-0.044751
 10
5.192091
 20
217.656057
 42
-0.005028
 10
5.182764
 20
218.75941
 42
-0.006071
 10
5.200853
 20
220.075347
 42
-0.004893
 10
5.251293
 20
221.488756
 42
-0.00431
 10
5.356212
 20
223.427012
 42
-0.023432
 10
5.471185
 20
224.472288
 42
-0.044843
 10
5.633728
 20
225.119556
 42
-0.103963
 10
5.891143
 20
225.546233
 42
-0.063085
 10
6.139917
 20
225.753558
 42
-0.046677
 10
6.458673
 20
225.917679
 42
-0.045352
 10
6.813369
 20
226.024124
 42
-0.05027
  0
LWPOLYLINE
  5
458
330
1D
100
AcDbEntity
  8
0
100
AcDbPolyline
 90
       46
 70
     1
 43
0.0
 10
169.1005
 20
226.056111
 42
-0.047674
 10
169.458226
 20
226.023624
 42
-0.040224
 10
169.825119
 20
225.923565
 42
-0.041641
 10
170.154671
 20
225.772471
 42
-0.068175
 10
170.398933
 20
225.587067
 42
-0.118366
 10
170.657792
 20
225.164631
 42
-0.045412
 10
170.811371
 20
224.488534
 42
-0.021856
 10
170.912756
 20
223.35108
 42
-0.003345
 10
171.0003
 20
221.078567
 42
-0.004304
 10
171.046236
 20
219.099523
 42
-0.014219
 10
171.028189
 20
217.795401
 42
-0.0197
 10
170.955342
 20
216.905411
 42
-0.088538
 10
170.802739
 20
216.408
 42
-0.076097
 10
170.475715
 20
215.955874
 42
-0.00024
 10
165.51123
 20
210.923171
 42
-0.001356
 10
159.875477
 20
205.246315
 42
-0.000847
 10
153.246872
 20
198.627942
 42
-0.000314
 10
146.556881
 20
191.979243
 42
-0.000475
 10
140.725532
 20
186.202159
 42
-0.000175
 10
135.696587
 20
181.232962
 42
-0.011714
 10
134.816175
 20
180.403442
 10
133.61535
 20
179.324
 10
129.579929
 20
179.324
 42
-0.003063
 10
127.187567
 20
179.338654
 42
-0.024267
 10
126.082559
 20
179.405893
 42
-0.054974
 10
125.411669
 20
179.555308
 42
-0.084587
 10
124.890268
 20
179.838626
 42
-0.029098
 10
124.628927
 20
180.07002
 42
-0.025721
 10
124.384594
 20
180.339504
 42
-0.026585
 10
124.189761
 20
180.605658
 42
-0.067958
 10
124.087545
 20
180.821077
 42
-0.06384
 10
124.047069
 20
181.043729
 42
-0.032314
 10
124.050577
 20
181.329212
 42
-0.031468
 10
124.092622
 20
181.627978
 42
-0.040569
 10
124.170205
 20
181.893951
 42
-0.103431
 10
124.444444
 20
182.320823
 42
-0.000171
 10
130.682139
 20
188.657698
 42
-0.001316
 10
137.711415
 20
195.756402
 42
-0.000812
 10
146.013909
 20
204.069829
 42
-0.000256
 10
154.323633
 20
212.355025
 42
-0.000419
 10
161.373034
 20
219.364676
 42
-0.000033
 10
167.708897
 20
225.653444
 42
-0.054083
 10
167.950736
 20
225.84644
 42
-0.0741
 10
168.130287
 20
225.926095
 42
-0.022314
 10
168.422238
 20
225.992915
 42
-0.021827
 10
168.760676
 20
226.039481
 42
-0.022097
  0
LWPOLYLINE
  5
488
330
1D
100
AcDbEntity
  8
0
100
AcDbPolyline
 90
       38
 70
     1
 43
0.0
 10
6.986068
 20
206.248
 42
-0.060134
 10
7.188255
 20
206.223595
 42
-0.02033
 10
7.473691
 20
206.141239
 42
-0.019884
 10
7.784783
 20
206.023676
 42
-0.021551
 10
8.077114
 20
205.884559
 42
-0.071027
 10
8.555819
 20
205.536198
 42
-0.000556
 10
11.975043
 20
202.207308
 42
-0.002027
 10
15.879861
 20
198.366164
 42
-0.001299
 10
20.3835
 20
193.876622
 42
-0.000707
 10
27.602962
 20
186.621751
 42
-0.008656
 10
30.311147
 20
183.796388
 42
-0.018039
 10
31.705169
 20
182.177296
 42
-0.17031
 10
32.004
 20
181.325429
 42
-0.039718
 10
31.970213
 20
180.900773
 42
-0.052117
 10
31.869167
 20
180.525363
 42
-0.056359
 10
31.701359
 20
180.202772
 42
-0.060816
 10
31.469333
 20
179.934867
 42
-0.126292
 10
30.945993
 20
179.659537
 42
-0.04034
 10
30.069781
 20
179.524941
 42
-0.01631
 10
28.49687
 20
179.463304
 42
-0.001638
 10
24.740239
 20
179.451
 10
18.545813
 20
179.451
 10
12.168315
 20
185.801
 42
-0.003295
 10
9.699609
 20
188.291672
 42
-0.004823
 10
7.562757
 20
190.518719
 42
-0.002417
 10
5.780086
 20
192.431319
 42
-0.083899
 10
5.445455
 20
192.944298
 42
-0.077647
 10
5.275624
 20
193.594146
 42
-0.017943
 10
5.2022
 20
194.72639
 42
-0.011547
 10
5.192117
 20
196.470239
 42
-0.002658
 10
5.258671
 20
199.410968
 42
-0.001679
 10
5.371459
 20
203.012923
 42
-0.020792
 10
5.475846
 20
204.379447
 42
-0.059458
 10
5.657832
 20
205.134229
 42
-0.107923
 10
5.999079
 20
205.66617
 42
-0.031401
 10
6.251615
 20
205.888833
 42
-0.031804
 10
6.529012
 20
206.077087
 42
-0.033531
 10
6.790569
 20
206.208514
 42
-0.099979
  0
LWPOLYLINE
  5
4B0
330
1D
100
AcDbEntity
  8
0
100
AcDbPolyline
 90
       38
 70
     1
 43
0.0
 10
169.037664
 20
206.248
 42
-0.074904
 10
169.334509
 20
206.203279
 42
-0.038501
 10
169.685111
 20
206.06486
 42
-0.03718
 10
170.031505
 20
205.863153
 42
-0.045973
 10
170.318545
 20
205.624545
 10
170.942
 20
205.001091
 10
170.942
 20
198.710663
 10
170.942
 20
192.420235
 10
164.813385
 20
186.316617
 42
-0.00168
 10
162.416789
 20
183.945785
 42
-0.002457
 10
160.289448
 20
181.875857
 42
-0.001187
 10
158.468197
 20
180.129416
 42
-0.043828
 10
158.018885
 20
179.770174
 42
-0.100474
 10
157.42098
 20
179.526785
 42
-0.030049
 10
156.439724
 20
179.40226
 42
-0.014482
 10
154.777389
 20
179.340416
 42
-0.001987
 10
151.308955
 20
179.325674
 10
145.264909
 20
179.324
 10
144.641455
 20
179.947455
 42
-0.037959
 10
144.402874
 20
180.225297
 42
-0.034737
 10
144.20114
 20
180.544091
 42
-0.036546
 10
144.061697
 20
180.854934
 42
-0.087378
 10
144.018
 20
181.103068
 42
-0.049915
 10
144.043264
 20
181.355509
 42
-0.022205
 10
144.12411
 20
181.680385
 42
-0.021716
 10
144.240921
 20
182.019506
 42
-0.027405
 10
144.379224
 20
182.321114
 42
-0.071786
 10
144.723908
 20
182.795779
 42
-0.000685
 10
147.717913
 20
185.86641
 42
-0.002272
 10
151.188214
 20
189.383671
 42
-0.001467
 10
155.237724
 20
193.427048
 42
-0.000501
 10
159.355385
 20
197.506236
 42
-0.000703
 10
163.039944
 20
201.138839
 42
-0.000412
 10
166.154164
 20
204.195487
 42
-0.009558
 10
167.057618
 20
205.047548
 42
-0.017181
 10
167.669455
 20
205.565676
 42
-0.030829
 10
168.210012
 20
205.9408
 42
-0.037987
 10
168.672775
 20
206.175334
 42
-0.098604
  0
LWPOLYLINE
  5
4D8
330
1D
100
AcDbEntity
  8
0
100
AcDbPolyline
 90
       34
 70
     1
 43
0.0
 10
24.633301
 20
168.402
 42
-0.001435
 10
28.5988
 20
168.390618
 42
-0.018878
 10
30.06491
 20
168.326813
 42
-0.055487
 10
30.866013
 20
168.170996
 42
-0.113287
 10
31.416129
 20
167.849724
 42
-0.051182
 10
31.677529
 20
167.548256
 42
-0.057378
 10
31.860738
 20
167.210835
 42
-0.054863
 10
31.968111
 20
166.827615
 42
-0.040914
 10
32.004
 20
166.389758
 42
-0.17084
 10
31.703337
 20
165.535484
 42
-0.017933
 10
30.296225
 20
163.907281
 42
-0.008598
 10
27.561885
 20
161.063295
 42
-0.000697
 10
20.248202
 20
153.734033
 42
-0.000588
 10
12.468829
 20
145.978067
 42
-0.010015
 10
9.856568
 20
143.48185
 42
-0.028921
 10
8.403164
 20
142.294877
 42
-0.158048
 10
7.450414
 20
141.986
 42
-0.027815
 10
6.891006
 20
142.017144
 42
-0.080322
 10
6.518205
 20
142.120936
 42
-0.091895
 10
6.225917
 20
142.327452
 42
-0.044148
 10
5.934713
 20
142.6845
 42
-0.091589
 10
5.672207
 20
143.283116
 42
-0.032626
 10
5.517892
 20
144.20774
 42
-0.016006
 10
5.41302
 20
145.74455
 42
-0.002386
 10
5.315811
 20
148.844
 42
-0.003153
 10
5.262339
 20
151.481065
 42
-0.010043
 10
5.273116
 20
153.242927
 42
-0.012644
 10
5.335681
 20
154.456978
 42
-0.077068
 10
5.478903
 20
155.067
 42
-0.090496
 10
5.791388
 20
155.559995
 42
-0.002416
 10
7.554766
 20
157.451822
 42
-0.004973
 10
9.666575
 20
159.651377
 42
-0.003375
 10
12.112763
 20
162.1155
 10
18.438343
 20
168.402
  0
LWPOLYLINE
  5
4FC
330
1D
100
AcDbEntity
  8
0
100
AcDbPolyline
 90
       44
 70
     1
 43
0.0
 10
46.593899
 20
168.402
 42
-0.002287
 10
49.330998
 20
168.389483
 42
-0.029666
 10
50.347562
 20
168.319778
 42
-0.082773
 10
50.941049
 20
168.140767
 42
-0.082003
 10
51.446545
 20
167.778545
 42
-0.042889
 10
51.685137
 20
167.495092
 42
-0.036375
 10
51.88686
 20
167.159503
 42
-0.037935
 10
52.025609
 20
166.824513
 42
-0.079377
 10
52.07
 20
166.546655
 42
-0.081031
 10
52.020907
 20
166.245716
 42
-0.026443
 10
51.855052
 20
165.825956
 42
-0.025562
 10
51.618323
 20
165.37155
 42
-0.026212
 10
51.338261
 20
164.94761
 42
-0.032174
 10
50.810252
 20
164.321421
 42
-0.00208
 10
49.152453
 20
162.608427
 42
-0.003028
 10
47.154381
 20
160.585592
 42
-0.002251
 10
44.924761
 20
158.375504
 42
0.000947
 10
41.789395
 20
155.283773
 42
0.00021
 10
36.435267
 20
149.97966
 42
0.000218
 10
30.254321
 20
143.845951
 42
0.00021
 10
24.003
 20
137.631756
 42
-0.00103
 10
16.902505
 20
130.59654
 42
-0.003399
 10
12.180316
 20
125.999943
 42
-0.001456
 10
8.650264
 20
122.629901
 42
-0.129067
 10
8.018601
 20
122.282697
 42
-0.044657
 10
7.655628
 20
122.225379
 42
-0.048544
 10
7.298472
 20
122.23597
 42
-0.049022
 10
6.953153
 20
122.314868
 42
-0.047255
 10
6.625274
 20
122.460122
 42
-0.04278
 10
6.352904
 20
122.645253
 42
-0.027742
 10
6.07096
 20
122.901638
 42
-0.027863
 10
5.821675
 20
123.184912
 42
-0.046442
 10
5.649505
 20
123.451678
 42
-0.087969
 10
5.497625
 20
123.934395
 42
-0.018035
 10
5.414053
 20
124.827782
 42
-0.013954
 10
5.376629
 20
126.104619
 42
-0.004814
 10
5.391831
 20
127.950931
 10
5.461
 20
131.822863
 10
10.795
 20
137.176624
 42
-0.001253
 10
13.684291
 20
140.062121
 42
-0.000314
 10
18.415507
 20
144.757611
 42
-0.00032
 10
23.83346
 20
150.121037
 42
-0.000322
 10
29.246854
 20
155.466192
 10
42.364708
 20
168.402
  0
LWPOLYLINE
  5
52A
330
1D
100
AcDbEntity
  8
0
100
AcDbPolyline
 90
       48
 70
     1
 43
0.0
 10
69.813104
 20
168.402
 42
-0.002966
 10
72.112007
 20
168.388364
 42
-0.03355
 10
73.019193
 20
168.316603
 42
-0.085465
 10
73.567093
 20
168.137143
 42
-0.074727
 10
74.052545
 20
167.778545
 42
-0.037959
 10
74.291126
 20
167.500703
 42
-0.034737
 10
74.49286
 20
167.181909
 42
-0.036546
 10
74.632303
 20
166.871066
 42
-0.087378
 10
74.676
 20
166.622932
 42
-0.049099
 10
74.651151
 20
166.370487
 42
-0.02189
 10
74.571646
 20
166.045615
 42
-0.021418
 10
74.456769
 20
165.70649
 42
-0.02712
 10
74.320752
 20
165.404886
 42
-0.06933
 10
74.0089
 20
164.96466
 42
-0.002512
 10
72.588696
 20
163.469812
 42
-0.004564
 10
70.880903
 20
161.722457
 42
-0.003181
 10
68.923252
 20
159.780557
 42
0.001036
 10
65.748168
 20
156.657924
 42
0.000103
 10
58.16202
 20
149.163012
 42
0.00013
 10
49.124909
 20
140.226256
 42
0.000103
 10
39.369881
 20
130.570557
 42
-0.000121
 10
29.746881
 20
121.046237
 42
-0.000168
 10
21.117016
 20
112.514767
 42
-0.000103
 10
13.84798
 20
105.336421
 42
-0.002135
 10
11.652337
 20
103.1875
 42
-0.006471
 10
10.389145
 20
101.993057
 42
-0.00956
 10
9.24784
 20
100.981163
 42
-0.005319
 10
8.267787
 20
100.163001
 42
-0.156739
 10
7.969455
 20
100.045905
 42
-0.012579
 10
7.759234
 20
100.037929
 42
-0.008683
 10
7.52104
 20
100.039025
 42
-0.008761
 10
7.291911
 20
100.048078
 42
-0.017683
 10
7.112
 20
100.064744
 42
-0.089161
 10
6.923433
 20
100.124231
 42
-0.025005
 10
6.656388
 20
100.281934
 42
-0.024375
 10
6.367085
 20
100.493834
 42
-0.023483
 10
6.096
 20
100.735397
 42
-0.071506
 10
5.733183
 20
101.209504
 42
-0.082201
 10
5.539883
 20
101.745039
 42
-0.03518
 10
5.442164
 20
102.613622
 42
-0.003678
 10
5.371757
 20
104.662721
 10
5.282513
 20
107.968326
 10
24.675757
 20
127.187292
 42
0.000075
 10
32.911688
 20
135.351647
 42
0.000063
 10
41.622302
 20
143.991311
 42
0.000064
 10
49.564231
 20
151.872539
 42
0.000177
 10
55.133059
 20
157.404129
 10
66.197117
 20
168.402
  0
LWPOLYLINE
  5
55C
330
1D
100
AcDbEntity
  8
0
100
AcDbPolyline
 90
       50
 70
     1
 43
0.0
 10
106.286626
 20
168.381947
 10
109.830252
 20
168.402
 10
118.224626
 20
160.073246
 42
-0.000069
 10
122.83568
 20
155.496976
 42
-0.000016
 10
130.622466
 20
147.766314
 42
-0.000016
 10
139.594977
 20
138.857328
 42
-0.000016
 10
148.642196
 20
129.873005
 42
-0.000798
 10
158.116236
 20
120.434136
 42
-0.001992
 10
165.000541
 20
113.498393
 42
-0.000406
 10
170.533961
 20
107.86989
 42
-0.133323
 10
170.831727
 20
107.338786
 42
-0.049616
 10
170.891717
 20
106.932942
 42
-0.006585
 10
170.921619
 20
106.064884
 42
-0.007576
 10
170.927934
 20
105.031674
 42
-0.006294
 10
170.904165
 20
103.932744
 42
-0.007548
 10
170.836448
 20
102.560601
 42
-0.023108
 10
170.733651
 20
101.635076
 42
-0.034239
 10
170.583315
 20
100.979053
 42
-0.071701
 10
170.362278
 20
100.505718
 42
-0.046486
 10
170.084174
 20
100.156806
 42
-0.094132
 10
169.798834
 20
99.954288
 42
-0.080427
 10
169.429238
 20
99.852392
 42
-0.027133
 10
168.869582
 20
99.822
 42
-0.101617
 10
168.107313
 20
99.978535
 42
-0.067243
 10
167.337914
 20
100.439066
 42
-0.023468
 10
166.168843
 20
101.4656
 42
-0.001879
 10
163.223938
 20
104.328364
 42
-0.000748
 10
160.703708
 20
106.804191
 42
-0.000173
 10
156.467738
 20
110.980895
 42
-0.000179
 10
151.592898
 20
115.794297
 42
-0.000175
 10
146.685
 20
120.647192
 42
-0.000333
 10
140.944266
 20
126.33512
 42
-0.000148
 10
133.390129
 20
133.834177
 42
-0.000147
 10
125.401897
 20
141.773526
 42
-0.000199
 10
118.189864
 20
148.951339
 42
-0.00124
 10
111.784262
 20
155.363337
 42
-0.002055
 10
106.416368
 20
160.807884
 42
-0.000335
 10
101.714833
 20
165.622384
 42
-0.132506
 10
101.483975
 20
166.035702
 42
-0.069914
 10
101.4541
 20
166.315672
 42
-0.034932
 10
101.49085
 20
166.670736
 42
-0.033837
 10
101.581359
 20
167.039603
 42
-0.042271
 10
101.716267
 20
167.365244
 42
-0.024792
 10
101.885873
 20
167.656834
 42
-0.026425
 10
102.080215
 20
167.923808
 42
-0.027259
 10
102.270652
 20
168.13381
 42
-0.099624
 10
102.420156
 20
168.231999
 42
-0.083634
 10
102.660124
 20
168.284566
 42
-0.002502
 10
103.689105
 20
168.329628
 42
-0.004912
 10
104.905414
 20
168.364837
 42
-0.003364
  0
LWPOLYLINE
  5
590
330
1D
100
AcDbEntity
  8
0
100
AcDbPolyline
 90
       44
 70
     1
 43
0.0
 10
129.510861
 20
168.394276
 10
133.672722
 20
168.402
 10
136.885926
 20
165.2905
 42
-0.002696
 10
138.901
 20
163.318044
 42
-0.00027
 10
143.68539
 20
158.578947
 42
-0.000339
 10
149.380304
 20
152.924175
 42
-0.00027
 10
155.520882
 20
146.812
 10
170.942635
 20
131.445
 10
170.942317
 20
127.501017
 42
-0.003912
 10
170.925794
 20
125.410525
 42
-0.018496
 10
170.862654
 20
124.213855
 42
-0.032062
 10
170.744532
 20
123.45192
 42
-0.098594
 10
170.535368
 20
122.976485
 42
-0.043526
 10
170.334375
 20
122.736891
 42
-0.028613
 10
170.065613
 20
122.497059
 42
-0.028776
 10
169.774822
 20
122.292156
 42
-0.048281
 10
169.507219
 20
122.159636
 42
-0.057691
 10
169.172737
 20
122.074916
 42
-0.055394
 10
168.823022
 20
122.067172
 42
-0.048143
 10
168.438921
 20
122.138952
 42
-0.028713
 10
167.999937
 20
122.293431
 42
-0.092782
 10
167.286408
 20
122.761742
 42
-0.000841
 10
162.675214
 20
127.211021
 42
-0.002443
 10
156.856238
 20
132.899943
 42
-0.000968
 10
148.915087
 20
140.770264
 42
-0.000203
 10
141.712098
 20
147.942528
 42
-0.000265
 10
135.124479
 20
154.514332
 42
-0.000196
 10
129.607335
 20
160.028381
 42
-0.002438
 10
127.5245
 20
162.1321
 42
-0.004799
 10
126.287239
 20
163.418484
 42
-0.006771
 10
125.211544
 20
164.589974
 42
-0.004151
 10
124.331354
 20
165.591612
 42
-0.089605
 10
124.132286
 20
165.928337
 42
-0.068138
 10
124.073209
 20
166.193625
 42
-0.039963
 10
124.072177
 20
166.519465
 42
-0.037989
 10
124.125214
 20
166.864184
 42
-0.041048
 10
124.229095
 20
167.187756
 42
-0.032523
 10
124.373235
 20
167.480359
 42
-0.028487
 10
124.560007
 20
167.765618
 42
-0.029554
 10
124.759061
 20
168.00399
 42
-0.071914
 10
124.937809
 20
168.146295
 42
-0.114706
 10
125.247634
 20
168.242264
 42
-0.004448
 10
126.450759
 20
168.318246
 42
-0.007726
 10
127.886429
 20
168.373866
 42
-0.005354
  0
LWPOLYLINE
  5
5BE
330
1D
100
AcDbEntity
  8
0
100
AcDbPolyline
 90
       40
 70
     1
 43
0.0
 10
151.352966
 20
168.402
 10
157.441024
 20
168.402
 10
158.286012
 20
167.725042
 42
-0.021788
 10
158.839061
 20
167.24095
 42
-0.001184
 10
160.510586
 20
165.636443
 42
-0.001842
 10
162.488216
 20
163.714974
 42
-0.001344
 10
164.672452
 20
161.565542
 42
-0.002764
 10
166.822106
 20
159.415095
 42
-0.004015
 10
168.693042
 20
157.492017
 42
-0.00206
 10
170.2576
 20
155.844261
 42
-0.066956
 10
170.577952
 20
155.397114
 42
-0.090733
 10
170.763303
 20
154.812429
 42
-0.017074
 10
170.866623
 20
153.691003
 42
-0.011649
 10
170.926031
 20
151.966316
 42
-0.002784
 10
170.942
 20
149.098
 42
-0.002669
 10
170.926244
 20
146.146671
 42
-0.012473
 10
170.865702
 20
144.447853
 42
-0.020211
 10
170.755772
 20
143.362977
 42
-0.08416
 10
170.55638
 20
142.739066
 42
-0.050785
 10
170.362309
 20
142.442029
 42
-0.040896
 10
170.098862
 20
142.165935
 42
-0.042351
 10
169.809861
 20
141.949665
 42
-0.078128
 10
169.54038
 20
141.835144
 42
-0.041029
 10
169.248499
 20
141.786874
 42
-0.023211
 10
168.88999
 20
141.774154
 42
-0.023042
 10
168.524912
 20
141.794994
 42
-0.034857
 10
168.2115
 20
141.849693
 42
-0.129192
 10
167.655706
 20
142.152913
 42
-0.001661
 10
164.741036
 20
144.921577
 42
-0.003931
 10
160.988706
 20
148.566627
 42
-0.001459
 10
155.764866
 20
153.751728
 42
-0.000772
 10
148.73056
 20
160.796456
 42
-0.007845
 10
145.859934
 20
163.772176
 42
-0.013163
 10
144.306354
 20
165.524299
 42
-0.176768
 10
144.017366
 20
166.318045
 42
-0.049589
 10
144.057606
 20
166.71969
 42
-0.051263
 10
144.1761
 20
167.100872
 42
-0.050403
 10
144.371951
 20
167.455532
 42
-0.045063
 10
144.641455
 20
167.778545
 10
145.264909
 20
168.402
  0
LWPOLYLINE
  5
5E8
330
1D
100
AcDbEntity
  8
0
100
AcDbPolyline
 90
       54
 70
     1
 43
0.0
 10
80.5638
 20
160.528
 42
-0.061928
 10
80.90808
 20
160.485195
 42
-0.045451
 10
81.271394
 20
160.357399
 42
-0.043661
 10
81.621453
 20
160.158667
 42
-0.04548
 10
81.926545
 20
159.904545
 42
-0.073302
 10
82.28433
 20
159.423056
 42
-0.085869
 10
82.463875
 20
158.883781
 42
-0.034397
 10
82.536102
 20
157.997441
 42
-0.003136
 10
82.55
 20
155.781545
 10
82.55
 20
152.282
 10
74.6125
 20
144.387503
 42
-0.000538
 10
70.275289
 20
140.083062
 42
-0.000128
 10
63.037641
 20
132.919196
 42
-0.000131
 10
54.71666
 20
124.691572
 42
-0.00013
 10
46.355
 20
116.432349
 42
-0.000211
 10
38.409703
 20
108.595063
 42
-0.000301
 10
31.356606
 20
101.652087
 42
-0.000161
 10
25.379487
 20
95.77917
 42
-0.004659
 10
23.831107
 20
94.286846
 42
-0.00957
 10
22.870608
 20
93.412449
 42
-0.017999
 10
22.057182
 20
92.750112
 42
-0.018403
 10
21.4013
 20
92.29114
 42
-0.132511
 10
21.037107
 20
92.174364
 42
-0.011943
 10
20.664328
 20
92.165821
 42
-0.001184
 10
19.769405
 20
92.16881
 42
-0.001492
 10
18.70265
 20
92.178082
 42
-0.001184
 10
17.550188
 20
92.194266
 42
-0.007008
 10
16.146586
 20
92.236985
 42
-0.020072
 10
15.174368
 20
92.319411
 42
-0.028241
 10
14.490118
 20
92.444761
 42
-0.085807
 10
14.057688
 20
92.632115
 42
-0.059864
 10
13.766822
 20
92.876921
 42
-0.088833
 10
13.586302
 20
93.155857
 42
-0.071942
 10
13.491097
 20
93.523264
 42
-0.027485
 10
13.462
 20
94.052175
 42
-0.103533
 10
13.618867
 20
94.801623
 42
-0.068377
 10
14.079809
 20
95.554784
 42
-0.023793
 10
15.106979
 20
96.69492
 42
-0.001904
 10
17.9705
 20
99.562393
 42
-0.000421
 10
20.88792
 20
102.456789
 42
-0.000035
 10
28.464383
 20
109.95975
 42
-0.000047
 10
37.503892
 20
118.908633
 42
-0.000036
 10
47.36327
 20
128.66593
 42
-0.000018
 10
57.127557
 20
138.327029
 42
-0.000025
 10
65.872713
 20
146.978278
 42
-0.000015
 10
73.23807
 20
154.263372
 42
-0.000322
 10
75.43027
 20
156.428762
 42
-0.001731
 10
76.693449
 20
157.666287
 42
-0.002272
 10
77.856013
 20
158.787142
 42
-0.00166
 10
78.837579
 20
159.718712
 42
-0.021535
 10
79.218754
 20
160.048262
 42
-0.04933
 10
79.504659
 20
160.23202
 42
-0.032526
 10
79.863735
 20
160.387077
 42
-0.032674
 10
80.236575
 20
160.493191
 42
-0.053038
  0
LWPOLYLINE
  5
620
330
1D
100
AcDbEntity
  8
0
100
AcDbPolyline
 90
       60
 70
     1
 43
0.0
 10
95.511311
 20
160.528
 42
-0.08174
 10
95.980099
 20
160.450847
 42
-0.056814
 10
96.466641
 20
160.221946
 42
-0.037306
 10
97.055196
 20
159.794781
 42
-0.011627
 10
97.872356
 20
159.069863
 42
-0.007055
 10
98.971297
 20
158.019052
 42
-0.000239
 10
103.233123
 20
153.823167
 42
-0.000451
 10
108.258063
 20
148.862286
 42
-0.000315
 10
113.919
 20
143.256364
 42
-0.000012
 10
120.622318
 20
136.609515
 42
-0.000006
 10
128.881981
 20
128.418841
 42
-0.000006
 10
137.298281
 20
120.072419
 42
-0.00001
 10
144.526
 20
112.904244
 42
-0.000073
 10
150.785265
 20
106.694492
 42
-0.00011
 10
156.234209
 20
101.284701
 42
-0.000041
 10
160.922714
 20
96.627073
 42
-0.002656
 10
161.7345
 20
95.811885
 42
-0.018728
 10
162.253529
 20
95.244073
 42
-0.046175
 10
162.577043
 20
94.781988
 42
-0.061533
 10
162.753808
 20
94.358729
 42
-0.068281
 10
162.814
 20
93.920012
 42
-0.053644
 10
162.775263
 20
93.559993
 42
-0.041342
 10
162.659577
 20
93.182012
 42
-0.041239
 10
162.482814
 20
92.827093
 42
-0.052468
 10
162.261724
 20
92.535871
 42
-0.082674
 10
161.826225
 20
92.203677
 42
-0.085345
 10
161.311297
 20
92.035098
 42
-0.034477
 10
160.454421
 20
91.96883
 42
-0.003408
 10
158.388224
 20
91.965852
 42
-0.004758
 10
157.085178
 20
91.985258
 42
-0.006608
 10
155.918429
 20
92.029176
 42
-0.004267
 10
154.942622
 20
92.08718
 42
-0.080126
 10
154.644257
 20
92.156352
 42
-0.085842
 10
154.369247
 20
92.328383
 42
-0.002337
 10
153.313381
 20
93.282708
 42
-0.004777
 10
152.084498
 20
94.425594
 42
-0.003249
 10
150.707257
 20
95.748312
 42
-0.001492
 10
148.41116
 20
97.995756
 42
-0.000112
 10
142.1817
 20
104.132473
 42
-0.000155
 10
134.755271
 20
111.456134
 42
-0.000117
 10
126.619
 20
119.488548
 42
0.000002
 10
118.307695
 20
127.697561
 42
0.000002
 10
110.348317
 20
135.558863
 42
0.000002
 10
103.589069
 20
142.234722
 42
0.000011
 10
100.120589
 20
145.660236
 42
-0.002612
 10
97.824264
 20
147.951835
 42
-0.003828
 10
95.830111
 20
149.993817
 42
-0.001867
 10
94.157003
 20
151.74655
 42
-0.06828
 10
93.834089
 20
152.196886
 42
-0.075916
 10
93.665034
 20
152.683783
 42
-0.022432
 10
93.556301
 20
153.46791
 42
-0.016822
 10
93.491535
 20
154.55896
 42
-0.006413
 10
93.472
 20
156.081932
 42
-0.003664
 10
93.486671
 20
158.084091
 42
-0.036771
 10
93.56025
 20
158.9165
 42
-0.086687
 10
93.740029
 20
159.433571
 42
-0.069573
 10
94.095455
 20
159.904545
 42
-0.045171
 10
94.410851
 20
160.167578
 42
-0.047547
 10
94.763194
 20
160.364578
 42
-0.049022
 10
95.135803
 20
160.486744
 42
-0.054769
  0
LWPOLYLINE
  5
65E
330
1D
100
AcDbEntity
  8
0
100
AcDbPolyline
 90
       46
 70
     1
 43
0.0
 10
80.506246
 20
138.176
 42
-0.054219
 10
80.884372
 20
138.134876
 42
-0.049283
 10
81.257796
 20
138.013135
 42
-0.047855
 10
81.610342
 20
137.816271
 42
-0.045152
 10
81.926545
 20
137.552545
 42
-0.080904
 10
82.288265
 20
137.05007
 42
-0.083238
 10
82.467349
 20
136.46365
 42
-0.03021
 10
82.537334
 20
135.463966
 42
-0.002373
 10
82.55
 20
132.794732
 10
82.55
 20
128.660372
 10
74.6125
 20
120.767682
 42
-0.000444
 10
70.853109
 20
117.036141
 42
-0.000215
 10
66.03697
 20
112.268256
 42
-0.000213
 10
61.015343
 20
107.305441
 42
-0.000306
 10
56.565482
 20
102.916821
 42
-0.000969
 10
52.645442
 20
99.070411
 42
-0.001497
 10
49.241527
 20
95.763231
 42
-0.000453
 10
46.275013
 20
92.903437
 42
-0.046568
 10
45.829213
 20
92.547988
 42
-0.089953
 10
45.332934
 20
92.337805
 42
-0.034723
 10
44.591155
 20
92.22435
 42
-0.019459
 10
43.432067
 20
92.173966
 42
-0.003995
 10
41.383798
 20
92.181057
 42
-0.005584
 10
39.875561
 20
92.215178
 42
-0.007381
 10
38.502943
 20
92.281869
 42
-0.005495
 10
37.358986
 20
92.367024
 42
-0.06962
 10
36.939012
 20
92.462839
 42
-0.068231
 10
36.680167
 20
92.604103
 42
-0.042563
 10
36.42017
 20
92.832551
 42
-0.042012
 10
36.197879
 20
93.106962
 42
-0.058455
 10
36.051975
 20
93.387149
 42
-0.040964
 10
35.950797
 20
93.737109
 42
-0.053029
 10
35.919583
 20
94.069621
 42
-0.053271
 10
35.959025
 20
94.400059
 42
-0.041888
 10
36.068745
 20
94.743799
 42
-0.096703
 10
36.379795
 20
95.212906
 42
-0.00031
 10
41.353575
 20
100.251422
 42
-0.001729
 10
47.008758
 20
105.933681
 42
-0.00108
 10
53.669715
 20
112.551755
 42
-0.000181
 10
60.621836
 20
119.424353
 42
-0.000216
 10
67.184506
 20
125.901642
 42
-0.000187
 10
72.723906
 20
131.360171
 42
-0.001407
 10
75.3512
 20
133.93266
 42
-0.002693
 10
77.812639
 20
136.303537
 42
-0.018147
 10
79.080821
 20
137.42705
 42
-0.036567
 10
79.902254
 20
138.00803
 42
-0.13646
  0
LWPOLYLINE
  5
68E
330
1D
100
AcDbEntity
  8
0
100
AcDbPolyline
 90
       58
 70
     1
 43
0.0
 10
95.504
 20
138.150899
 42
-0.061714
 10
95.690989
 20
138.131261
 42
-0.022741
 10
95.946843
 20
138.059517
 42
-0.022132
 10
96.222094
 20
137.954932
 42
-0.024784
 10
96.47653
 20
137.829843
 42
-0.066351
 10
96.90225
 20
137.51354
 42
-0.000208
 10
101.719574
 20
132.824358
 42
-0.001183
 10
107.154776
 20
127.504198
 42
-0.00074
 10
113.49453
 20
121.25071
 42
0.000155
 10
120.14979
 20
114.670645
 42
0.000174
 10
126.563219
 20
108.338032
 42
0.00016
 10
132.029555
 20
102.947782
 42
0.00093
 10
134.916727
 20
100.113179
 42
-0.004318
 10
136.848275
 20
98.190922
 42
-0.006283
 10
138.515424
 20
96.459912
 42
-0.003364
 10
139.892822
 20
94.973395
 42
-0.101637
 10
140.152336
 20
94.538496
 42
-0.043278
 10
140.229431
 20
94.235209
 42
-0.032698
 10
140.262748
 20
93.892997
 42
-0.033471
 10
140.251183
 20
93.564955
 42
-0.063123
 10
140.191348
 20
93.307361
 42
-0.054721
 10
140.072605
 20
93.069873
 42
-0.029042
 10
139.878299
 20
92.803961
 42
-0.028527
 10
139.645569
 20
92.552206
 42
-0.039169
 10
139.407722
 20
92.356178
 42
-0.099043
 10
138.927422
 20
92.145382
 42
-0.032004
 10
138.155929
 20
92.027093
 42
-0.018273
 10
136.93828
 20
91.964191
 42
-0.003767
 10
134.789476
 20
91.948
 10
130.753985
 20
91.948
 10
127.924493
 20
94.666135
 42
-0.002634
 10
126.231233
 20
96.309996
 42
-0.00036
 10
122.717826
 20
99.762026
 42
-0.000414
 10
118.562143
 20
103.857787
 42
-0.00035
 10
114.173
 20
108.196895
 42
0.000178
 10
109.659372
 20
112.662146
 42
0.000176
 10
105.129139
 20
117.137485
 42
0.000173
 10
101.162912
 20
121.050188
 42
0.000685
 10
98.722664
 20
123.44926
 42
-0.003469
 10
96.961588
 20
125.20001
 42
-0.004894
 10
95.418435
 20
126.786305
 42
-0.002911
 10
94.141572
 20
128.140529
 42
-0.066475
 10
93.833164
 20
128.574886
 42
-0.07853
 10
93.661694
 20
129.078886
 42
-0.021548
 10
93.554218
 20
129.913253
 42
-0.015782
 10
93.490757
 20
131.099327
 42
-0.005473
 10
93.472
 20
132.812851
 42
-0.006492
 10
93.490289
 20
134.221267
 42
-0.008353
 10
93.545527
 20
135.514898
 42
-0.006625
 10
93.623949
 20
136.592756
 42
-0.069472
 10
93.722306
 20
137.023283
 42
-0.055559
 10
93.860411
 20
137.292276
 42
-0.040724
 10
94.068047
 20
137.556125
 42
-0.04144
 10
94.309244
 20
137.776284
 42
-0.068855
 10
94.547806
 20
137.912718
 42
-0.01884
 10
94.795958
 20
138.001711
 42
-0.015635
 10
95.065955
 20
138.078005
 42
-0.01592
 10
95.317951
 20
138.132319
 42
-0.040476
  0
LWPOLYLINE
  5
6CA
330
1D
100
AcDbEntity
  8
0
100
AcDbPolyline
 90
       36
 70
     1
 43
0.0
 10
80.646053
 20
118.364
 42
-0.04465
 10
81.071727
 20
118.325911
 42
-0.068551
 10
81.423052
 20
118.211288
 42
-0.068535
 10
81.730359
 20
118.005923
 42
-0.044607
 10
82.023565
 20
117.694746
 42
-0.099251
 10
82.324735
 20
117.099883
 42
-0.048005
 10
82.473816
 20
116.256088
 42
-0.018088
 10
82.537722
 20
114.76271
 42
-0.001649
 10
82.55
 20
111.039637
 10
82.55
 20
105.053783
 10
76.6445
 20
99.127395
 42
-0.002295
 10
74.313248
 20
96.80928
 42
-0.003157
 10
72.195071
 20
94.748482
 42
-0.002024
 10
70.398216
 20
93.03618
 42
-0.037658
 10
69.790338
 20
92.542619
 10
68.841676
 20
91.884231
 10
62.8804
 20
91.993286
 42
-0.001892
 10
59.385591
 20
92.070449
 42
-0.015822
 10
57.807444
 20
92.161294
 42
-0.035147
 10
56.908672
 20
92.305791
 42
-0.127151
 10
56.399562
 20
92.572537
 42
-0.063679
 10
56.17559
 20
92.834144
 42
-0.055514
 10
56.012247
 20
93.155752
 42
-0.050867
 10
55.913134
 20
93.532295
 42
-0.038953
 10
55.88
 20
93.956949
 42
-0.168387
 10
56.173959
 20
94.805069
 42
-0.0201
 10
57.484257
 20
96.337296
 42
-0.009175
 10
60.059721
 20
99.014527
 42
-0.000735
 10
66.9925
 20
105.941095
 42
-0.000696
 10
71.312292
 20
110.232371
 42
-0.00105
 10
75.088918
 20
113.957952
 42
-0.0004
 10
78.34588
 20
117.152305
 42
-0.024954
 10
78.949988
 20
117.687513
 42
-0.034825
 10
79.363061
 20
117.973445
 42
-0.039104
 10
79.79657
 20
118.186981
 42
-0.04161
 10
80.230811
 20
118.319572
 42
-0.053345
  0
LWPOLYLINE
  5
6F0
330
1D
100
AcDbEntity
  8
0
100
AcDbPolyline
 90
       44
 70
     1
 43
0.0
 10
95.382153
 20
118.364
 42
-0.036223
 10
95.676149
 20
118.342673
 42
-0.023276
 10
96.012002
 20
118.277604
 42
-0.023381
 10
96.336509
 20
118.182647
 42
-0.040015
 10
96.594957
 20
118.069884
 42
-0.014379
 10
96.827021
 20
117.936966
 42
-0.011422
 10
97.069908
 20
117.780683
 42
-0.011587
 10
97.288524
 20
117.625348
 42
-0.02819
 10
97.440087
 20
117.498384
 42
-0.007229
 10
97.671897
 20
117.274447
 42
-0.000018
 10
100.942386
 20
114.022078
 42
-0.000114
 10
104.62818
 20
110.354769
 42
-0.000071
 10
108.947751
 20
106.053668
 42
-0.00185
 10
113.287393
 20
101.699245
 42
-0.003014
 10
116.934048
 20
97.968266
 42
-0.000716
 10
120.082792
 20
94.698255
 42
-0.130526
 10
120.310159
 20
94.287438
 42
-0.055776
 10
120.347292
 20
94.012961
 42
-0.032871
 10
120.333154
 20
93.681938
 42
-0.032533
 10
120.274801
 20
93.348886
 42
-0.047295
 10
120.177359
 20
93.06717
 42
-0.060127
 10
120.021145
 20
92.811022
 42
-0.038762
 10
119.785103
 20
92.555213
 42
-0.038637
 10
119.510983
 20
92.337663
 42
-0.057636
 10
119.239587
 20
92.1969
 42
-0.078075
 10
118.769101
 20
92.097855
 42
-0.003318
 10
117.065619
 20
92.021114
 42
-0.005627
 10
115.03804
 20
91.966096
 42
-0.003968
 10
112.75815
 20
91.948
 10
106.931371
 20
91.948
 10
100.557777
 20
98.1075
 42
-0.002583
 10
98.089684
 20
100.517469
 42
-0.003818
 10
95.951824
 20
102.659126
 42
-0.001769
 10
94.153119
 20
104.501753
 42
-0.072862
 10
93.828091
 20
104.952886
 42
-0.090578
 10
93.647959
 20
105.538935
 42
-0.015544
 10
93.547029
 20
106.703502
 42
-0.011074
 10
93.488055
 20
108.478144
 42
-0.002768
 10
93.472
 20
111.377932
 10
93.472
 20
117.117091
 10
94.095455
 20
117.740545
 42
-0.046227
 10
94.383179
 20
117.979474
 42
-0.037372
 10
94.730581
 20
118.181119
 42
-0.038689
 10
95.082757
 20
118.319283
 42
-0.074267
  0
LWPOLYLINE
  5
71E
330
1D
100
AcDbEntity
  8
0
100
AcDbPolyline
 90
       80
 70
     1
 43
0.0
 10
18.034
 20
81.239079
 42
-0.00965
 10
19.150749
 20
81.225067
 42
-0.013397
 10
20.149674
 20
81.166426
 42
-0.013472
 10
20.961567
 20
81.074806
 42
-0.068795
 10
21.397395
 20
80.951044
 42
-0.080446
 10
21.84587
 20
80.660661
 42
-0.002603
 10
23.438051
 20
79.205805
 42
-0.004946
 10
25.295635
 20
77.456252
 42
-0.003409
 10
27.366395
 20
75.439571
 42
0.000024
 10
30.036634
 20
72.8036
 42
0.000008
 10
33.888141
 20
69.002003
 42
0.000008
 10
38.130704
 20
64.814691
 42
0.000009
 10
42.164
 20
60.8342
 42
0.000111
 10
46.420576
 20
56.635379
 42
0.000072
 10
51.353244
 20
51.7732
 42
0.000072
 10
56.177592
 20
47.020529
 42
0.000136
 10
60.071
 20
43.188161
 42
-0.000145
 10
63.759201
 20
39.55766
 42
-0.000101
 10
67.918679
 20
35.459231
 42
-0.000102
 10
71.906219
 20
31.52703
 42
-0.000211
 10
75.016034
 20
28.456533
 42
-0.000905
 10
77.566095
 20
25.927446
 42
-0.001336
 10
79.793782
 20
23.698185
 42
-0.000599
 10
81.687717
 20
21.788183
 42
-0.026098
 10
82.064534
 20
21.365246
 42
-0.082886
 10
82.321362
 20
20.906331
 42
-0.053931
 10
82.464345
 20
20.314532
 42
-0.027555
 10
82.533213
 20
19.38824
 42
-0.004779
 10
82.55
 20
17.631832
 42
-0.004032
 10
82.534736
 20
15.738908
 42
-0.034155
 10
82.463001
 20
14.891098
 42
-0.077403
 10
82.29648
 20
14.366185
 42
-0.077965
 10
81.9785
 20
13.918231
 42
-0.045058
 10
81.675411
 20
13.658864
 42
-0.062923
 10
81.361346
 20
13.490504
 42
-0.064719
 10
81.022295
 20
13.408557
 42
-0.051296
 10
80.645
 20
13.406525
 42
0.009244
 10
80.260683
 20
13.436806
 42
0.128885
 10
80.125546
 20
13.409945
 42
0.515355
 10
80.11463
 20
13.344992
 42
0.046954
 10
80.264
 20
13.22127
 42
-0.029266
 10
80.394274
 20
13.120907
 42
-0.101873
 10
80.458469
 20
13.036953
 42
-0.312471
 10
80.450146
 20
12.984019
 42
-0.201418
 10
80.391
 20
12.9582
 42
-0.128606
 10
80.249669
 20
12.993043
 42
-0.017913
 10
79.987775
 20
13.147671
 42
-0.019519
 10
79.68537
 20
13.35822
 42
-0.015438
 10
79.375
 20
13.608236
 42
-0.014106
 10
78.863327
 20
14.072812
 42
-0.000672
 10
77.195363
 20
15.679692
 42
-0.001102
 10
75.221102
 20
17.595201
 42
-0.000793
 10
73.025
 20
19.742161
 42
-0.000172
 10
70.4209
 20
22.297838
 42
-0.00009
 10
67.175856
 20
25.485883
 42
-0.000089
 10
63.846612
 20
28.758993
 42
-0.000136
 10
60.96
 20
31.5995
 42
0.000122
 10
57.568279
 20
34.937246
 42
0.000036
 10
52.362237
 20
40.05722
 42
0.000036
 10
46.505242
 20
45.815734
 42
0.000039
 10
40.78638
 20
51.436764
 42
-0.000147
 10
35.042824
 20
57.084516
 42
-0.000133
 10
29.111565
 20
62.923384
 42
-0.000133
 10
23.805556
 20
68.152317
 42
-0.000428
 10
20.27588
 20
71.638545
 42
-0.001312
 10
16.103005
 20
75.788847
 42
-0.014363
 10
14.479168
 20
77.508457
 42
-0.035808
 10
13.686339
 20
78.537525
 42
-0.147268
 10
13.462
 20
79.282678
 42
-0.039125
 10
13.492807
 20
79.67577
 42
-0.043481
 10
13.584501
 20
80.045142
 42
-0.047628
 10
13.726119
 20
80.357706
 42
-0.081372
 10
13.9065
 20
80.579411
 42
-0.033989
 10
14.113732
 20
80.739408
 42
-0.022881
 10
14.369653
 20
80.894129
 42
-0.023089
 10
14.632317
 20
81.021609
 42
-0.041702
 10
14.859
 20
81.097313
 42
-0.044455
 10
15.18639
 20
81.146831
 42
-0.004159
 10
16.001206
 20
81.190007
 42
-0.005314
 10
16.975525
 20
81.22314
 42
-0.004153
  0
LWPOLYLINE
  5
770
330
1D
100
AcDbEntity
  8
0
100
AcDbPolyline
 90
       62
 70
     1
 43
0.0
 10
42.926
 20
81.220545
 42
-0.017303
 10
43.608448
 20
81.212032
 42
-0.016928
 10
44.293709
 20
81.156453
 42
-0.017087
 10
44.890863
 20
81.066841
 42
-0.059113
 10
45.263605
 20
80.951044
 42
-0.086642
 10
45.74556
 20
80.626843
 42
-0.00038
 10
50.247416
 20
76.298378
 42
-0.001824
 10
55.345135
 20
71.353562
 42
-0.001149
 10
61.265605
 20
65.541945
 42
-0.000037
 10
67.348849
 20
59.542141
 42
-0.000048
 10
72.958799
 20
54.007252
 42
-0.000037
 10
77.662543
 20
49.364869
 42
-0.0004
 10
79.5655
 20
47.483453
 10
82.55
 20
44.528017
 10
82.55
 20
40.586262
 42
-0.003132
 10
82.535276
 20
38.235499
 42
-0.025299
 10
82.467233
 20
37.158853
 42
-0.057496
 10
82.31423
 20
36.501153
 42
-0.080947
 10
82.023425
 20
35.975077
 42
-0.033322
 10
81.728307
 20
35.64738
 42
-0.091953
 10
81.470775
 20
35.475823
 42
-0.107285
 10
81.193491
 20
35.42235
 42
-0.055722
 10
80.84254
 20
35.469867
 42
0.018405
 10
80.544554
 20
35.5331
 42
0.108801
 10
80.386181
 20
35.526054
 42
0.339455
 10
80.335057
 20
35.45951
 42
0.139434
 10
80.368105
 20
35.343044
 42
-0.065615
 10
80.418211
 20
35.231602
 42
-0.137992
 10
80.419834
 20
35.137494
 42
-0.191253
 10
80.374295
 20
35.075682
 42
-0.140386
 10
80.291612
 20
35.052
 42
-0.100786
 10
80.178662
 20
35.075001
 42
-0.050923
 10
80.050884
 20
35.145396
 42
-0.04766
 10
79.928826
 20
35.24832
 42
-0.051669
 10
79.832121
 20
35.369945
 42
0.050493
 10
79.695701
 20
35.54235
 42
0.008016
 10
79.390217
 20
35.847262
 42
0.008816
 10
79.016877
 20
36.195621
 42
0.007613
 10
78.613
 20
36.54838
 42
-0.013711
 10
77.979249
 20
37.11569
 42
-0.001244
 10
76.440506
 20
38.578321
 42
-0.001613
 10
74.615047
 20
40.333447
 42
-0.00126
 10
72.644
 20
42.250469
 42
-0.000755
 10
69.800205
 20
45.038712
 42
-0.000135
 10
64.50017
 20
50.253753
 42
-0.000146
 10
58.293761
 20
56.367495
 42
-0.000132
 10
51.875601
 20
62.69685
 42
-0.001219
 10
45.436003
 20
69.081747
 42
-0.002441
 10
40.384148
 20
74.16455
 42
-0.000524
 10
36.162207
 20
78.463031
 42
-0.133144
 10
35.904016
 20
78.923928
 42
-0.065543
 10
35.867639
 20
79.238838
 42
-0.061451
 10
35.912413
 20
79.559716
 42
-0.055597
 10
36.040446
 20
79.887415
 42
-0.039132
 10
36.251425
 20
80.222611
 42
-0.064906
 10
36.619336
 20
80.602315
 42
-0.096162
 10
37.029278
 20
80.815635
 42
-0.049451
 10
37.668062
 20
80.937989
 42
-0.006864
 10
39.01501
 20
81.041501
 42
-0.002487
 10
40.000971
 20
81.098749
 42
-0.001819
 10
41.096109
 20
81.152877
 42
-0.001838
 10
42.133944
 20
81.196567
 42
-0.004067
  0
LWPOLYLINE
  5
7B0
330
1D
100
AcDbEntity
  8
0
100
AcDbPolyline
 90
       32
 70
     1
 43
0.0
 10
63.233574
 20
81.026
 10
69.458114
 20
81.026
 10
76.004057
 20
74.480057
 10
82.55
 20
67.934114
 10
82.55
 20
62.048221
 42
-0.001526
 10
82.538432
 20
58.259119
 42
-0.020281
 10
82.473323
 20
56.864833
 42
-0.059579
 10
82.310946
 20
56.088694
 42
-0.099345
 10
81.9785
 20
55.512476
 42
-0.036283
 10
81.628744
 20
55.168595
 42
-0.102163
 10
81.329356
 20
55.004737
 42
-0.090131
 10
80.967397
 20
54.962054
 42
-0.024349
 10
80.391
 20
55.026348
 42
-0.109638
 10
79.596196
 20
55.342124
 42
-0.029596
 10
78.515071
 20
56.173862
 42
-0.013823
 10
76.790039
 20
57.757133
 42
-0.001723
 10
73.152
 20
61.310791
 42
-0.000243
 10
70.367704
 20
64.051986
 42
-0.000155
 10
67.134184
 20
67.240521
 42
-0.000156
 10
63.967041
 20
70.367491
 42
-0.000291
 10
61.4045
 20
72.902053
 42
-0.001633
 10
58.003222
 20
76.29219
 42
-0.017953
 10
56.69319
 20
77.704433
 42
-0.047718
 10
56.07333
 20
78.578961
 42
-0.131053
 10
55.88
 20
79.303895
 42
-0.034395
 10
55.911433
 20
79.760297
 42
-0.06629
 10
56.008951
 20
80.112781
 42
-0.076645
 10
56.183049
 20
80.3934
 42
-0.062959
 10
56.444517
 20
80.630597
 42
-0.1174
 10
56.982702
 20
80.843861
 42
-0.021347
 10
58.058187
 20
80.952707
 42
-0.012453
 10
59.832736
 20
81.011771
 42
-0.002092
  0
LWPOLYLINE
  5
7D2
330
1D
100
AcDbEntity
  8
0
100
AcDbPolyline
 90
       44
 70
     1
 43
0.0
 10
113.004723
 20
81.026
 10
119.149091
 20
81.026
 10
119.772545
 20
80.402545
 42
-0.045775
 10
120.020062
 20
80.105026
 42
-0.040874
 10
120.220065
 20
79.756301
 42
-0.04259
 10
120.352243
 20
79.398526
 42
-0.067293
 10
120.396
 20
79.074876
 42
-0.169815
 10
120.18948
 20
78.484337
 42
-0.016036
 10
119.180472
 20
77.29827
 42
-0.011213
 10
117.42734
 20
75.451548
 42
-0.00189
 10
113.9825
 20
72.008177
 42
-0.000432
 10
111.147222
 20
69.200306
 42
-0.000296
 10
107.923409
 20
66.01693
 42
-0.000298
 10
104.813495
 20
62.953306
 42
-0.000604
 10
102.362
 20
60.546996
 42
-0.003623
 10
100.304752
 20
58.561534
 42
-0.005039
 10
98.432054
 20
56.815823
 42
-0.003165
 10
96.836455
 20
55.376623
 42
-0.062943
 10
96.295418
 20
55.005002
 42
-0.016415
 10
95.752895
 20
54.747395
 42
-0.111249
 10
95.462984
 20
54.69197
 42
-0.127783
 10
95.195888
 20
54.770768
 42
-0.024362
 10
94.771418
 20
55.054838
 42
-0.0305
 10
94.494055
 20
55.288208
 42
-0.021288
 10
94.210007
 20
55.582452
 42
-0.02155
 10
93.960961
 20
55.889102
 42
-0.041096
 10
93.793244
 20
56.158485
 42
-0.095063
 10
93.644377
 20
56.666297
 42
-0.010447
 10
93.553354
 20
57.882322
 42
-0.009794
 10
93.494584
 20
59.598395
 42
-0.003485
 10
93.475744
 20
62.052114
 42
-0.003026
 10
93.49009
 20
64.737095
 42
-0.012206
 10
93.54875
 20
66.374736
 42
-0.017895
 10
93.652034
 20
67.44729
 42
-0.089153
 10
93.835606
 20
68.021114
 42
-0.063083
 10
94.131511
 20
68.441387
 42
-0.003985
 10
95.160741
 20
69.551909
 42
-0.005812
 10
96.416537
 20
70.854737
 42
-0.004284
 10
97.836106
 20
72.269173
 42
-0.00048
 10
99.425419
 20
73.822846
 42
-0.000349
 10
101.19593
 20
75.547922
 42
-0.000353
 10
102.877767
 20
77.182002
 42
-0.000775
 10
104.166678
 20
78.428673
 10
106.860356
 20
81.026
  0
LWPOLYLINE
  5
800
330
1D
100
AcDbEntity
  8
0
100
AcDbPolyline
 90
       58
 70
     1
 43
0.0
 10
135.030246
 20
81.008148
 42
-0.003218
 10
137.323128
 20
81.004053
 42
-0.026033
 10
138.372748
 20
80.940709
 42
-0.059037
 10
139.016758
 20
80.789737
 42
-0.079747
 10
139.538746
 20
80.499565
 42
-0.044609
 10
139.851387
 20
80.204977
 42
-0.069319
 10
140.05643
 20
79.897106
 42
-0.068905
 10
140.170288
 20
79.543533
 42
-0.043513
 10
140.208
 20
79.111012
 42
-0.119272
 10
140.057302
 20
78.488259
 42
-0.052597
 10
139.590075
 20
77.77503
 42
-0.022792
 10
138.628871
 20
76.702294
 42
-0.002877
 10
136.43571
 20
74.493947
 42
-0.001048
 10
134.262605
 20
72.339885
 42
-0.000188
 10
130.197706
 20
68.330482
 42
-0.000203
 10
125.431688
 20
63.636867
 42
-0.000183
 10
120.49721
 20
58.784844
 42
-0.000067
 10
115.46485
 20
53.841524
 42
-0.000066
 10
110.404892
 20
48.873743
 42
-0.000065
 10
105.969479
 20
44.52141
 42
-0.000253
 10
103.224846
 20
41.831611
 42
-0.001891
 10
101.187803
 20
39.852315
 42
-0.002398
 10
99.290551
 20
38.04022
 42
-0.001885
 10
97.686814
 20
36.534521
 42
-0.019621
 10
97.001846
 20
35.944732
 42
-0.019244
 10
96.538551
 20
35.604695
 42
-0.021975
 10
96.070066
 20
35.316998
 42
-0.021795
 10
95.655484
 20
35.10994
 42
-0.10401
 10
95.398167
 20
35.054465
 42
-0.03262
 10
95.222406
 20
35.06505
 42
-0.088446
 10
95.10364
 20
35.102024
 42
-0.220649
 10
95.061067
 20
35.157081
 42
-0.257815
 10
95.079161
 20
35.219828
 42
0.286873
 10
95.098978
 20
35.305754
 42
0.098206
 10
95.031725
 20
35.4211
 42
0.062062
 10
94.886537
 20
35.549258
 42
0.034195
 10
94.682001
 20
35.669334
 42
-0.053622
 10
94.442422
 20
35.822772
 42
-0.031054
 10
94.189341
 20
36.05333
 42
-0.030722
 10
93.961578
 20
36.319162
 42
-0.044675
 10
93.79825
 20
36.581006
 42
-0.083602
 10
93.655989
 20
37.038305
 42
-0.014345
 10
93.559353
 20
37.945729
 42
-0.012982
 10
93.496658
 20
39.163339
 42
-0.006105
 10
93.475744
 20
40.739079
 10
93.472
 20
44.267159
 10
95.9485
 20
46.79112
 42
-0.003695
 10
97.604935
 20
48.454533
 42
-0.000248
 10
102.379639
 20
53.174335
 42
-0.000357
 10
108.078522
 20
58.794082
 42
-0.000267
 10
114.3641
 20
64.976928
 42
-0.000778
 10
120.506805
 20
70.994024
 42
-0.00126
 10
125.751485
 20
76.089736
 42
-0.000164
 10
130.432104
 20
80.611558
 42
-0.098014
 10
130.7471
 20
80.814534
 42
-0.079546
 10
131.065157
 20
80.885074
 42
-0.00358
 10
132.188383
 20
80.94391
 42
-0.005929
 10
133.527145
 20
80.988526
 42
-0.004202
  0
LWPOLYLINE
  5
83C
330
1D
100
AcDbEntity
  8
0
100
AcDbPolyline
 90
       80
 70
     1
 43
0.0
 10
158.406655
 20
80.971712
 42
-0.004404
 10
160.270665
 20
80.914698
 42
-0.025837
 10
161.245842
 20
80.825663
 42
-0.051537
 10
161.850807
 20
80.673961
 42
-0.097217
 10
162.280155
 20
80.415133
 42
-0.060599
 10
162.50613
 20
80.154038
 42
-0.053164
 10
162.674742
 20
79.834964
 42
-0.05051
 10
162.778916
 20
79.471293
 42
-0.044541
 10
162.814
 20
79.078226
 42
-0.077366
 10
162.732979
 20
78.557742
 42
-0.071031
 10
162.496786
 20
78.069625
 42
-0.040937
 10
162.021356
 20
77.474834
 42
-0.008827
 10
161.0995
 20
76.531363
 42
-0.000234
 10
160.027957
 20
75.473735
 42
-0.000025
 10
157.538341
 20
73.018996
 42
-0.000031
 10
154.573232
 20
70.09608
 42
-0.000025
 10
151.384
 20
66.952929
 42
-0.000116
 10
147.848308
 20
63.470282
 42
-0.000079
 10
143.830675
 20
59.516008
 42
-0.00008
 10
139.957124
 20
55.705965
 42
-0.000161
 10
136.906
 20
52.707758
 42
-0.000171
 10
133.575944
 20
49.43981
 42
-0.000055
 10
128.6383
 20
44.598649
 42
-0.000055
 10
123.144644
 20
39.21472
 42
-0.000062
 10
117.856
 20
34.034132
 42
-0.000096
 10
112.753702
 20
29.039245
 42
-0.000107
 10
107.819825
 20
24.213153
 42
-0.000099
 10
103.606795
 20
20.095546
 42
-0.000552
 10
101.346
 20
17.891698
 42
-0.00271
 10
99.779686
 20
16.384642
 42
-0.003541
 10
98.330138
 20
15.024421
 42
-0.002628
 10
97.10221
 20
13.900327
 42
-0.032741
 10
96.60779
 20
13.508165
 42
-0.02475
 10
96.266625
 20
13.296349
 42
-0.024319
 10
95.904228
 20
13.117929
 42
-0.025058
 10
95.571929
 20
12.993319
 42
-0.079405
 10
95.33779
 20
12.957889
 42
-0.013013
 10
95.076249
 20
12.966869
 42
-0.310028
 10
95.021119
 20
13.009799
 42
-0.31104
 10
95.041414
 20
13.076544
 42
-0.013064
 10
95.25
 20
13.233923
 42
0.009367
 10
95.454113
 20
13.385572
 42
0.424978
 10
95.459294
 20
13.432759
 42
0.271922
 10
95.402546
 20
13.453182
 42
0.006456
 10
95.1155
 20
13.395457
 42
-0.069701
 10
94.893757
 20
13.379422
 42
-0.05342
 10
94.654153
 20
13.421472
 42
-0.054316
 10
94.433627
 20
13.511861
 42
-0.080653
 10
94.268851
 20
13.639344
 42
-0.054852
 10
94.125502
 20
13.831168
 42
-0.020448
 10
93.966577
 20
14.128203
 42
-0.019972
 10
93.818314
 20
14.468902
 42
-0.022808
 10
93.704851
 20
14.805743
 42
-0.042466
 10
93.614525
 20
15.264466
 42
-0.009087
 10
93.5404
 20
16.073513
 42
-0.009435
 10
93.4891
 20
17.016924
 42
-0.008864
 10
93.472
 20
17.981437
 42
-0.010411
 10
93.494244
 20
19.049652
 42
-0.019002
 10
93.563608
 20
19.918764
 42
-0.022745
 10
93.674741
 20
20.594004
 42
-0.068916
 10
93.832428
 20
21.031114
 42
-0.064624
 10
94.129336
 20
21.45331
 42
-0.003852
 10
95.193557
 20
22.596422
 42
-0.005739
 10
96.490695
 20
23.937203
 42
-0.0042
 10
97.959928
 20
25.396663
 42
0.000238
 10
99.833247
 20
27.22826
 42
0.00009
 10
102.448429
 20
29.78856
 42
0.000089
 10
105.291418
 20
32.573887
 42
0.000109
 10
107.95
 20
35.180615
 42
0.000085
 10
111.520759
 20
38.684452
 42
0.000015
 10
118.156211
 20
45.19817
 42
0.000017
 10
125.92563
 20
52.826028
 42
0.000015
 10
133.955867
 20
60.710952
 42
-0.000478
 10
141.587514
 20
68.190639
 42
-0.000764
 10
148.122606
 20
74.563876
 42
-0.000133
 10
153.911825
 20
80.189491
 42
-0.042892
 10
154.402867
 20
80.590712
 42
-0.078558
 10
154.901498
 20
80.827009
 42
-0.047755
 10
155.543458
 20
80.950678
 42
-0.024762
 10
156.539942
 20
80.995909
 42
-0.004404
  0
LWPOLYLINE
  5
88E
330
1D
100
AcDbEntity
  8
0
100
AcDbPolyline
 90
       80
 70
     1
 43
0.0
 10
7.319198
 20
73.3899
 42
-0.062899
 10
7.485433
 20
73.376992
 42
-0.02204
 10
7.718199
 20
73.318252
 42
-0.02148
 10
7.97126
 20
73.230376
 42
-0.023496
 10
8.208198
 20
73.123382
 42
-0.070964
 10
8.584096
 20
72.859072
 42
-0.001152
 10
10.46534
 20
71.082374
 42
-0.002983
 10
12.639313
 20
68.994932
 42
-0.001972
 10
15.113
 20
66.572136
 42
0.000305
 10
18.582405
 20
63.151371
 42
0.000072
 10
24.372887
 20
57.450688
 42
0.000074
 10
31.029672
 20
50.900983
 42
0.000073
 10
37.719
 20
44.323149
 42
-0.000046
 10
44.473606
 20
37.681847
 42
-0.000044
 10
51.326256
 20
30.941704
 42
-0.000044
 10
57.373048
 20
24.992092
 42
-0.000159
 10
61.214
 20
21.209798
 42
0.000343
 10
64.18728
 20
18.284082
 42
0.000354
 10
67.13494
 20
15.391657
 42
0.000342
 10
69.693406
 20
12.888112
 42
0.001511
 10
71.204988
 20
11.419903
 42
-0.006079
 10
72.286085
 20
10.350462
 42
-0.007688
 10
73.258031
 20
9.334552
 42
-0.006244
 10
74.046718
 20
8.462817
 42
-0.060159
 10
74.329576
 20
8.051805
 42
-0.040876
 10
74.460499
 20
7.742903
 42
-0.035919
 10
74.546285
 20
7.40321
 42
-0.037644
 10
74.578406
 20
7.084064
 42
-0.083288
 10
74.544087
 20
6.84252
 42
-0.083741
 10
74.432313
 20
6.624867
 42
-0.037294
 10
74.22003
 20
6.380903
 42
-0.035566
 10
73.951283
 20
6.150341
 42
-0.040201
 10
73.662911
 20
5.970506
 42
-0.070128
 10
73.168284
 20
5.797081
 42
-0.022603
 10
72.398447
 20
5.679158
 42
-0.017324
 10
71.350728
 20
5.603427
 42
-0.007231
 10
69.934412
 20
5.570778
 42
-0.000754
 10
68.758499
 20
5.562456
 42
-0.001071
 10
67.71285
 20
5.558873
 42
-0.000597
 10
66.829187
 20
5.558793
 42
-0.015664
 10
66.592014
 20
5.566487
 42
-0.172842
 10
66.364646
 20
5.664243
 42
-0.000937
 10
64.591976
 20
7.316421
 42
-0.003915
 10
62.580347
 20
9.228124
 42
-0.002457
 10
60.256588
 20
11.4935
 42
0.00007
 10
57.350879
 20
14.353383
 42
0.00003
 10
53.479084
 20
18.162583
 42
0.00003
 10
49.358423
 20
22.215646
 42
0.00004
 10
45.607574
 20
25.903932
 42
-0.000088
 10
41.741282
 20
29.706475
 42
-0.000057
 10
37.259731
 20
34.116689
 42
-0.000057
 10
32.875983
 20
38.432625
 42
-0.000107
 10
29.337
 20
41.919158
 42
0.00009
 10
25.929959
 20
45.27594
 42
0.000058
 10
21.978144
 20
49.167163
 42
0.000058
 10
18.110596
 20
52.973646
 42
0.000109
 10
14.986
 20
56.04685
 42
0.000748
 10
12.327952
 20
58.652224
 42
0.001004
 10
9.910298
 20
61.00541
 42
0.00069
 10
7.875293
 20
62.972772
 42
0.010616
 10
7.159057
 20
63.634536
 42
-0.018066
 10
6.711029
 20
64.061035
 42
-0.015543
 10
6.271113
 20
64.540124
 42
-0.015819
 10
5.899048
 20
65.00015
 42
-0.042825
 10
5.675256
 20
65.354857
 42
-0.064397
 10
5.492402
 20
65.857922
 42
-0.032254
 10
5.387405
 20
66.527558
 42
-0.022088
 10
5.344009
 20
67.452652
 42
-0.007445
 10
5.360459
 20
68.802945
 42
-0.007305
 10
5.405738
 20
69.8886
 42
-0.008484
 10
5.481396
 20
70.919491
 42
-0.007683
 10
5.57345
 20
71.788017
 42
-0.049158
 10
5.669562
 20
72.219449
 42
-0.05163
 10
5.799729
 20
72.510458
 42
-0.042042
 10
5.994803
 20
72.790877
 42
-0.043635
 10
6.221384
 20
73.020353
 42
-0.080353
 10
6.445302
 20
73.155849
 42
-0.016429
 10
6.676439
 20
73.240471
 42
-0.014105
 10
6.924634
 20
73.314506
 42
-0.014331
 10
7.153904
 20
73.36892
 42
-0.039076
  0
LWPOLYLINE
  5
8E0
330
1D
100
AcDbEntity
  8
0
100
AcDbPolyline
 90
       84
 70
     1
 43
0.0
 10
168.939246
 20
73.131947
 42
-0.088923
 10
169.140006
 20
73.105999
 42
-0.030709
 10
169.414007
 20
73.000569
 42
-0.029373
 10
169.708074
 20
72.84468
 42
-0.030094
 10
169.979365
 20
72.656542
 42
-0.085821
 10
170.339112
 20
72.257018
 42
-0.087235
 10
170.541286
 20
71.762092
 42
-0.036249
 10
170.660024
 20
70.927441
 42
-0.003859
 10
170.779878
 20
68.969162
 42
-0.005099
 10
170.852774
 20
67.283184
 42
-0.021431
 10
170.842798
 20
66.269793
 42
-0.036167
 10
170.757043
 20
65.587329
 42
-0.074818
 10
170.5749
 20
65.083121
 42
-0.041616
 10
170.350453
 20
64.739943
 42
-0.012347
 10
169.952379
 20
64.254744
 42
-0.012296
 10
169.476277
 20
63.729497
 42
-0.012973
 10
168.983142
 20
63.237836
 42
0.003264
 10
168.201438
 20
62.488164
 42
0.000271
 10
166.184317
 20
60.526137
 42
0.000362
 10
163.781002
 20
58.182544
 42
0.000279
 10
161.163
 20
55.623048
 42
0.000067
 10
158.200762
 20
52.722994
 42
0.000043
 10
154.745531
 20
49.338806
 42
0.000043
 10
151.350592
 20
46.012535
 42
0.000079
 10
148.59
 20
43.306463
 42
-0.000114
 10
145.530006
 20
40.307328
 42
-0.000037
 10
141.016831
 20
35.886599
 42
-0.000037
 10
136.004774
 20
30.978673
 42
-0.000042
 10
131.191
 20
26.266406
 42
0.000016
 10
126.464449
 20
21.640001
 42
0.000016
 10
121.714547
 20
16.990138
 42
0.000016
 10
117.552916
 20
12.915638
 42
0.000062
 10
114.981373
 20
10.397156
 42
-0.003998
 10
113.097156
 20
8.580663
 42
-0.005683
 10
111.39128
 20
6.998669
 42
-0.003323
 10
109.933057
 20
5.694399
 42
-0.079919
 10
109.471598
 20
5.40278
 42
-0.058849
 10
109.011162
 20
5.267124
 42
-0.037342
 10
108.453781
 20
5.214402
 42
-0.026448
 10
107.7207
 20
5.238767
 42
-0.009658
 10
106.687924
 20
5.348051
 42
0.010756
 10
105.825345
 20
5.43741
 42
0.009774
 10
104.931747
 20
5.493035
 42
0.009836
 10
104.130602
 20
5.511424
 42
0.030818
 10
103.593127
 20
5.480032
 42
-0.011768
 10
103.203652
 20
5.442362
 42
-0.025227
 10
102.901927
 20
5.435589
 42
-0.040939
 10
102.717315
 20
5.455947
 42
-0.600971
 10
102.702315
 20
5.504981
 42
0.312415
 10
102.718801
 20
5.59569
 42
0.052854
 10
102.624575
 20
5.755978
 42
0.041733
 10
102.455623
 20
5.948428
 42
0.025104
 10
102.226386
 20
6.148155
 42
-0.050393
 10
101.967517
 20
6.397778
 42
-0.052849
 10
101.768482
 20
6.690413
 42
-0.055357
 10
101.64262
 20
7.004548
 42
-0.067722
 10
101.6
 20
7.317777
 42
-0.164082
 10
101.781137
 20
7.854889
 42
-0.019001
 10
102.600138
 20
8.850195
 42
-0.013301
 10
104.008768
 20
10.352816
 42
-0.002633
 10
106.6165
 20
12.962676
 42
-0.000947
 10
109.33255
 20
15.642298
 42
-0.000237
 10
113.778109
 20
20.007522
 42
-0.000242
 10
118.867734
 20
24.995616
 42
-0.000243
 10
123.952
 20
29.968799
 42
0.000165
 10
129.152664
 20
35.054243
 42
0.000144
 10
134.592219
 20
40.379862
 42
0.000145
 10
139.507746
 20
45.19799
 42
0.000429
 10
142.875
 20
48.506113
 42
-0.00012
 10
145.881365
 20
51.463343
 42
-0.000071
 10
149.479
 20
54.999483
 42
-0.000071
 10
153.076692
 20
58.533684
 42
-0.00012
 10
156.083
 20
61.484684
 42
-0.000397
 10
158.797626
 20
64.143863
 42
-0.000407
 10
161.4932
 20
66.775902
 42
-0.000394
 10
163.835631
 20
69.055806
 42
-0.00172
 10
165.227
 20
70.39863
 42
-0.004308
 10
166.227822
 20
71.341496
 42
-0.006164
 10
167.132794
 20
72.158974
 42
-0.00354
 10
167.907089
 20
72.831584
 42
-0.089618
 10
168.148
 20
72.972543
 42
-0.023864
 10
168.323578
 20
73.027418
 42
-0.014101
 10
168.537591
 20
73.076851
 42
-0.014092
 10
168.754531
 20
73.114228
 42
-0.023403
  0
LWPOLYLINE
  5
936
330
1D
100
AcDbEntity
  8
0
100
AcDbPolyline
 90
       54
 70
     1
 43
0.0
 10
7.214867
 20
51.052326
 42
-0.045565
 10
7.564714
 20
51.019627
 42
-0.027964
 10
7.96717
 20
50.921064
 42
-0.02791
 10
8.357828
 20
50.777623
 42
-0.043943
 10
8.671967
 20
50.607826
 42
-0.046546
 10
9.158992
 20
50.216891
 42
-0.000251
 10
13.500104
 20
46.008184
 42
-0.001099
 10
18.435584
 20
41.197315
 42
-0.000697
 10
24.165967
 20
35.571312
 42
-0.000154
 10
30.320722
 20
29.508057
 42
-0.000148
 10
36.556006
 20
23.358062
 42
-0.000146
 10
42.051633
 20
17.931239
 42
-0.000534
 10
45.5295
 20
14.487556
 42
-0.002539
 10
48.485994
 20
11.523914
 42
-0.007472
 10
50.478743
 20
9.444707
 42
-0.00456
 10
51.907648
 20
7.880124
 42
-0.184808
 10
52.07
 20
7.455883
 42
-0.067782
 10
52.035964
 20
7.205968
 42
-0.032394
 10
51.929041
 20
6.899297
 42
-0.031377
 10
51.773818
 20
6.588332
 42
-0.038756
 10
51.590138
 20
6.321674
 42
-0.102867
 10
51.173837
 20
5.981484
 42
-0.078618
 10
50.614734
 20
5.794216
 42
-0.029634
 10
49.63128
 20
5.688548
 42
-0.002802
 10
47.208638
 20
5.586301
 42
-0.005287
 10
45.654115
 20
5.545872
 42
-0.009332
 10
44.370258
 20
5.550026
 42
-0.004317
 10
43.315318
 20
5.582246
 42
-0.234489
 10
43.144898
 20
5.675308
 42
0.103415
 10
43.063569
 20
5.751741
 42
0.093403
 10
42.955469
 20
5.79268
 42
0.090982
 10
42.837384
 20
5.792006
 42
0.091857
 10
42.727664
 20
5.749403
 42
-0.328731
 10
42.544515
 20
5.764387
 42
-0.002547
 10
41.364321
 20
6.803535
 42
-0.007886
 10
40.007363
 20
8.049537
 42
-0.004827
 10
38.444766
 20
9.559361
 42
-0.000216
 10
36.289005
 20
11.684774
 42
-0.000057
 10
32.834897
 20
15.093968
 42
-0.000057
 10
28.902801
 20
18.976705
 42
-0.000059
 10
25.00335
 20
22.829
 42
0.000249
 10
21.032555
 20
26.748791
 42
0.000219
 10
16.885959
 20
30.834459
 42
0.00022
 10
13.142752
 20
34.516185
 42
0.000666
 10
10.58885
 20
37.019245
 10
5.588
 20
41.90749
 10
5.588
 20
46.016245
 42
-0.003331
 10
5.603038
 20
48.273305
 42
-0.019586
 10
5.665175
 20
49.455948
 42
-0.037636
 10
5.785577
 20
50.170651
 42
-0.123987
 10
6.008367
 20
50.5895
 42
-0.074129
 10
6.227909
 20
50.769681
 42
-0.043266
 10
6.534708
 20
50.918934
 42
-0.041753
 10
6.879502
 20
51.019143
 42
-0.050421
  0
LWPOLYLINE
  5
96E
330
1D
100
AcDbEntity
  8
0
100
AcDbPolyline
 90
       54
 70
     1
 43
0.0
 10
168.756831
 20
50.8
 42
-0.040246
 10
169.174874
 20
50.766296
 42
-0.04552
 10
169.5646
 20
50.666004
 42
-0.048633
 10
169.905898
 20
50.50531
 42
-0.062122
 10
170.18
 20
50.292
 42
-0.109429
 10
170.4621
 20
49.849363
 42
-0.060115
 10
170.608854
 20
49.220695
 42
-0.024552
 10
170.674331
 20
48.133449
 42
-0.002764
 10
170.688
 20
45.660392
 10
170.688
 20
41.536784
 10
165.5445
 20
36.442865
 42
-0.000947
 10
162.947611
 20
33.880733
 42
-0.000337
 10
159.225853
 20
30.227597
 42
-0.000334
 10
155.134924
 20
26.222855
 42
-0.000394
 10
151.257
 20
22.437669
 42
-0.000105
 10
147.460661
 20
18.7395
 42
-0.000101
 10
143.615434
 20
14.996782
 42
-0.0001
 10
140.226142
 20
11.700489
 42
-0.000368
 10
138.08367
 20
9.620697
 42
-0.004655
 10
136.244081
 20
7.870474
 42
-0.011486
 10
134.853609
 20
6.630546
 42
-0.011972
 10
133.80058
 20
5.776711
 42
-0.102397
 10
133.25767
 20
5.512251
 42
-0.006138
 10
132.934037
 20
5.434105
 42
-0.006865
 10
132.620409
 20
5.366955
 42
-0.006373
 10
132.352012
 20
5.31688
 42
-0.035892
 10
132.207
 20
5.302338
 42
-0.018387
 10
132.019538
 20
5.303945
 42
-0.000359
 10
131.05765
 20
5.348284
 42
-0.000861
 10
129.934747
 20
5.402791
 42
-0.000578
 10
128.651
 20
5.46881
 42
-0.005713
 10
127.355017
 20
5.551818
 42
-0.007875
 10
126.193444
 20
5.657977
 42
-0.005308
 10
125.226217
 20
5.772155
 42
-0.09007
 10
124.921702
 20
5.868953
 42
-0.065346
 10
124.745848
 20
5.99395
 42
-0.038561
 10
124.570826
 20
6.183613
 42
-0.037929
 10
124.422617
 20
6.403839
 42
-0.052351
 10
124.327267
 20
6.622062
 42
-0.045235
 10
124.273621
 20
6.865477
 42
-0.026529
 10
124.251706
 20
7.163223
 42
-0.026372
 10
124.261485
 20
7.465817
 42
-0.040239
 10
124.304739
 20
7.724831
 42
-0.134688
 10
124.528224
 20
8.12095
 42
-0.00034
 10
129.090368
 20
12.713175
 42
-0.002102
 10
134.270385
 20
17.876669
 42
-0.001304
 10
140.393174
 20
23.897343
 42
0.000075
 10
146.919116
 20
30.282981
 42
0.000079
 10
153.343248
 20
36.572876
 42
0.000076
 10
158.889341
 20
42.006434
 42
0.000351
 10
162.089331
 20
45.146844
 42
-0.001622
 10
165.607802
 20
48.582286
 42
-0.016742
 10
167.110176
 20
49.945118
 42
-0.042314
 10
168.032734
 20
50.601899
 42
-0.134324
  0
LWPOLYLINE
  5
9A6
330
1D
100
AcDbEntity
  8
0
100
AcDbPolyline
 90
       50
 70
     1
 43
0.0
 10
7.331746
 20
31.496
 42
-0.059221
 10
7.663313
 20
31.45659
 42
-0.031036
 10
8.060963
 20
31.334167
 42
-0.030378
 10
8.458358
 20
31.15601
 42
-0.040647
 10
8.792246
 20
30.945078
 42
-0.028871
 10
9.286725
 20
30.526542
 42
-0.001014
 10
11.100453
 20
28.795187
 42
-0.001882
 10
13.232213
 20
26.736518
 42
-0.001315
 10
15.621
 20
24.399938
 42
0.000039
 10
18.313019
 20
21.753282
 42
0.000027
 10
21.368334
 20
18.750247
 42
0.000027
 10
24.311413
 20
15.858153
 42
0.000055
 10
26.626052
 20
13.58436
 42
-0.003308
 10
28.534002
 20
11.685533
 42
-0.004699
 10
30.203089
 20
9.970361
 42
-0.002708
 10
31.587257
 20
8.505163
 42
-0.066806
 10
31.909639
 20
8.051805
 42
-0.04074
 10
32.041361
 20
7.743087
 42
-0.03595
 10
32.127951
 20
7.403949
 42
-0.0377
 10
32.160778
 20
7.085594
 42
-0.083876
 10
32.126885
 20
6.845036
 42
-0.058005
 10
32.03338
 20
6.637444
 42
-0.038245
 10
31.882044
 20
6.423452
 42
-0.038277
 10
31.70013
 20
6.235288
 42
-0.058659
 10
31.514259
 20
6.105772
 42
-0.107275
 10
31.162646
 20
6.005553
 42
-0.002694
 10
29.494244
 20
5.907766
 42
-0.005662
 10
27.525611
 20
5.825364
 42
-0.003815
 10
25.277021
 20
5.77391
 42
-0.001953
 10
21.797711
 20
5.734445
 42
-0.016863
 10
20.246375
 20
5.775232
 42
-0.039181
 10
19.308933
 20
5.905741
 42
-0.06836
 10
18.57406
 20
6.176623
 42
-0.048622
 10
18.074771
 20
6.50864
 42
-0.008403
 10
17.206164
 20
7.241455
 42
-0.009072
 10
16.213348
 20
8.140289
 42
-0.008005
 10
15.210798
 20
9.112254
 42
0.001064
 10
14.023257
 20
10.295982
 42
0.000455
 10
12.431342
 20
11.873171
 42
0.000451
 10
10.731599
 20
13.551098
 42
0.000594
 10
9.178298
 20
15.078072
 10
5.588
 20
18.599144
 10
5.588
 20
24.539572
 42
-0.001621
 10
5.599927
 20
28.218413
 42
-0.018035
 10
5.66236
 20
29.684807
 42
-0.048309
 10
5.804716
 20
30.4892
 42
-0.129135
 10
6.096
 20
30.988
 42
-0.059886
 10
6.343709
 20
31.182549
 42
-0.039048
 10
6.66855
 20
31.346775
 42
-0.038984
 10
7.015915
 20
31.458851
 42
-0.05861
  0
LWPOLYLINE
  5
9DA
330
1D
100
AcDbEntity
  8
0
100
AcDbPolyline
 90
       42
 70
     1
 43
0.0
 10
168.918622
 20
31.242
 42
-0.063886
 10
169.210877
 20
31.204505
 42
-0.037063
 10
169.546338
 20
31.089868
 42
-0.036438
 10
169.871044
 20
30.922378
 42
-0.050281
 10
170.132105
 20
30.724105
 42
-0.124708
 10
170.456326
 20
30.221201
 42
-0.059807
 10
170.613752
 20
29.464179
 42
-0.019739
 10
170.678636
 20
28.057369
 42
-0.001443
 10
170.693089
 20
24.183605
 10
170.698178
 20
18.161
 10
164.612762
 20
12.144625
 42
-0.001637
 10
162.234943
 20
9.809132
 42
-0.002407
 10
160.128518
 20
7.773413
 42
-0.001126
 10
158.322884
 20
6.052894
 42
-0.044773
 10
157.892726
 20
5.712431
 42
-0.101003
 10
157.334211
 20
5.490183
 42
-0.028296
 10
156.396808
 20
5.376375
 42
-0.01488
 10
154.850448
 20
5.323035
 42
-0.002416
 10
151.844552
 20
5.323367
 42
-0.004257
 10
149.702018
 20
5.3522
 42
-0.005555
 10
147.742703
 20
5.417042
 42
-0.004186
 10
146.105406
 20
5.503184
 42
-0.050382
 10
145.48282
 20
5.604688
 42
-0.039298
 10
145.099327
 20
5.74071
 42
-0.036279
 10
144.730941
 20
5.938116
 42
-0.038306
 10
144.428871
 20
6.163504
 42
-0.090697
 10
144.254722
 20
6.382285
 42
-0.05602
 10
144.158061
 20
6.624663
 42
-0.036317
 10
144.099539
 20
6.921045
 42
-0.036308
 10
144.084506
 20
7.222906
 42
-0.055828
 10
144.119516
 20
7.481892
 42
-0.132578
 10
144.338293
 20
7.873452
 42
-0.000644
 10
147.561769
 20
11.168435
 42
-0.002894
 10
151.265476
 20
14.901105
 42
-0.00182
 10
155.634614
 20
19.222164
 42
-0.000789
 10
160.038151
 20
23.532033
 42
-0.001227
 10
163.849429
 20
27.23227
 42
-0.000339
 10
167.180537
 20
30.446119
 42
-0.042155
 10
167.633017
 20
30.81393
 42
-0.040803
 10
167.921543
 20
30.977877
 42
-0.028442
 10
168.26972
 20
31.116254
 42
-0.028805
 10
168.621337
 20
31.211236
 42
-0.051604
  0
ENDSEC
  0
SECTION
  2
OBJECTS
  0
DICTIONARY
  5
C
330
0
100
AcDbDictionary
281
     1
  3
ACAD_DETAILVIEWSTYLE
350
A92
  3
ACAD_GROUP
350
D
  3
ACAD_LAYOUT
350
1A
  3
ACAD_MATERIAL
350
A45
  3
ACAD_MLEADERSTYLE
350
A4B
  3
ACAD_MLINESTYLE
350
17
  3
ACAD_PLOTSETTINGS
350
19
  3
ACAD_PLOTSTYLENAME
350
E
  3
ACAD_SCALELIST
350
A06
  3
ACAD_SECTIONVIEWSTYLE
350
A93
  3
ACAD_TABLESTYLE
350
A49
  3
ACAD_VISUALSTYLE
350
A2C
  3
ACDB_RECOMPOSE_DATA
350
A8E
  3
AcDbVariableDictionary
350
A4F
  0
DICTIONARY
  5
A4D
330
8
100
AcDbDictionary
280
     1
281
     1
  3
ACAD_XREC_ROUNDTRIP
360
A4E
  0
DICTIONARY
  5
A92
102
{ACAD_REACTORS
330
C
102
}
330
C
100
AcDbDictionary
281
     1
  0
DICTIONARY
  5
D
102
{ACAD_REACTORS
330
C
102
}
330
C
100
AcDbDictionary
281
     1
  0
DICTIONARY
  5
1A
102
{ACAD_REACTORS
330
C
102
}
330
C
100
AcDbDictionary
281
     1
  3
Layout1
350
1C
  3
Model
350
1E
  0
DICTIONARY
  5
A45
102
{ACAD_REACTORS
330
C
102
}
330
C
100
AcDbDictionary
281
     1
  3
ByBlock
350
A47
  3
ByLayer
350
A46
  3
Global
350
A48
  0
DICTIONARY
  5
A4B
102
{ACAD_REACTORS
330
C
102
}
330
C
100
AcDbDictionary
281
     1
  3
Standard
350
A4C
  0
DICTIONARY
  5
17
102
{ACAD_REACTORS
330
C
102
}
330
C
100
AcDbDictionary
281
     1
  3
Standard
350
18
  0
DICTIONARY
  5
19
102
{ACAD_REACTORS
330
C
102
}
330
C
100
AcDbDictionary
281
     1
  0
ACDBDICTIONARYWDFLT
  5
E
102
{ACAD_REACTORS
330
C
102
}
330
C
100
AcDbDictionary
281
     1
  3
Normal
350
F
100
AcDbDictionaryWithDefault
340
F
  0
DICTIONARY
  5
A06
102
{ACAD_REACTORS
330
C
102
}
330
C
100
AcDbDictionary
281
     1
  3
A0
350
A07
  3
A1
350
A08
  3
A2
350
A09
  3
A3
350
A0A
  3
A4
350
A0B
  3
A5
350
A0C
  3
A6
350
A0D
  3
A7
350
A0E
  3
A8
350
A0F
  3
A9
350
A10
  3
B0
350
A11
  3
B1
350
A12
  3
B2
350
A13
  3
B3
350
A14
  3
B4
350
A15
  3
B5
350
A16
  3
B6
350
A17
  3
B7
350
A18
  3
B8
350
A19
  3
B9
350
A1A
  3
C0
350
A1B
  3
C1
350
A1C
  3
C2
350
A1D
  3
C3
350
A1E
  3
C4
350
A1F
  3
C5
350
A20
  3
C6
350
A21
  3
C7
350
A22
  3
C8
350
A23
  3
C9
350
A24
  3
D0
350
A25
  3
D1
350
A26
  3
D2
350
A27
  0
DICTIONARY
  5
A93
102
{ACAD_REACTORS
330
C
102
}
330
C
100
AcDbDictionary
281
     1
  0
DICTIONARY
  5
A49
102
{ACAD_REACTORS
330
C
102
}
330
C
100
AcDbDictionary
281
     1
  3
Standard
350
A4A
  0
DICTIONARY
  5
A2C
102
{ACAD_REACTORS
330
C
102
}
330
C
100
AcDbDictionary
281
     1
  3
2dWireframe
350
A31
  3
Basic
350
A34
  3
Brighten
350
A38
  3
ColorChange
350
A3C
  3
Conceptual
350
A36
  3
Dim
350
A37
  3
EdgeColorOff
350
A3F
  3
Facepattern
350
A3B
  3
Flat
350
A2D
  3
FlatWithEdges
350
A2E
  3
Gouraud
350
A2F
  3
GouraudWithEdges
350
A30
  3
Hidden
350
A33
  3
JitterOff
350
A3D
  3
Linepattern
350
A3A
  3
OverhangOff
350
A3E
  3
Realistic
350
A35
  3
Shaded
350
A44
  3
Shaded with edges
350
A43
  3
Shades of Gray
350
A40
  3
Sketchy
350
A41
  3
Thicken
350
A39
  3
Wireframe
350
A32
  3
X-Ray
350
A42
  0
XRECORD
  5
A8E
102
{ACAD_REACTORS
330
C
102
}
330
C
100
AcDbXrecord
280
     1
 90
        1
330
A4A
  0
DICTIONARY
  5
A4F
102
{ACAD_REACTORS
330
C
102
}
330
C
100
AcDbDictionary
281
     1
  3
CANNOSCALE
350
A50
  3
CMLEADERSTYLE
350
A90
  3
CTABLESTYLE
350
A8F
  3
MSLTSCALE
350
A91
  3
XCLIPFRAME
350
A51
  0
XRECORD
  5
A4E
102
{ACAD_REACTORS
330
A4D
102
}
330
A4D
100
AcDbXrecord
280
     1
102
VTR_0.000_0.000_1.000_1.000_VISUALSTYLE
340
A31
102
VTR_0.000_0.000_1.000_1.000_GRIDDISPLAY
 70
     3
102
VTR_0.000_0.000_1.000_1.000_GRIDMAJOR
 70
     5
102
VTR_0.000_0.000_1.000_1.000_DEFAULTLIGHTING
280
     1
102
VTR_0.000_0.000_1.000_1.000_DEFAULTLIGHTINGTYPE
 70
     1
102
VTR_0.000_0.000_1.000_1.000_BRIGHTNESS
141
0.0
102
VTR_0.000_0.000_1.000_1.000_CONTRAST
142
0.0
  0
LAYOUT
  5
1C
102
{ACAD_REACTORS
330
1A
102
}
330
1A
100
AcDbPlotSettings
  1

  2
none_device
  4

  6

 40
0.0
 41
0.0
 42
0.0
 43
0.0
 44
0.0
 45
0.0
 46
0.0
 47
0.0
 48
0.0
 49
0.0
140
0.0
141
0.0
142
1.0
143
1.0
 70
   688
 72
     0
 73
     0
 74
     5
  7

 75
    16
 76
     0
 77
     2
 78
   300
147
1.0
148
0.0
149
0.0
100
AcDbLayout
  1
Layout1
 70
     1
 71
     1
 10
0.0
 20
0.0
 11
12.0
 21
9.0
 12
0.0
 22
0.0
 32
0.0
 14
1.000000000000000E+20
 24
1.000000000000000E+20
 34
1.000000000000000E+20
 15
-1.000000000000000E+20
 25
-1.000000000000000E+20
 35
-1.000000000000000E+20
146
0.0
 13
0.0
 23
0.0
 33
0.0
 16
1.0
 26
0.0
 36
0.0
 17
0.0
 27
1.0
 37
0.0
 76
     0
330
1B
  0
LAYOUT
  5
1E
102
{ACAD_REACTORS
330
1A
102
}
330
1A
100
AcDbPlotSettings
  1

  2
none_device
  4
Letter_(8.50_x_11.00_Inches)
  6

 40
6.35
 41
6.35
 42
6.35000508
 43
6.35000508
 44
215.9
 45
279.4
 46
0.0
 47
0.0
 48
0.0
 49
0.0
140
0.0
141
0.0
142
1.0
143
1.0
 70
  1712
 72
     0
 73
     0
 74
     0
  7

 75
     0
 76
     0
 77
     2
 78
   300
147
1.0
148
0.0
149
0.0
100
AcDbLayout
  1
Model
 70
     1
 71
     0
 10
0.0
 20
0.0
 11
12.0
 21
9.0
 12
0.0
 22
0.0
 32
0.0
 14
0.0
 24
0.0
 34
0.0
 15
176.022
 25
352.044
 35
0.0
146
0.0
 13
0.0
 23
0.0
 33
0.0
 16
1.0
 26
0.0
 36
0.0
 17
0.0
 27
1.0
 37
0.0
 76
     0
330
1D
331
21
  0
MATERIAL
  5
A47
102
{ACAD_REACTORS
330
A45
102
}
102
{ACAD_XDICTIONARY
360
A84
102
}
330
A45
100
AcDbMaterial
  1
ByBlock
  0
MATERIAL
  5
A46
102
{ACAD_REACTORS
330
A45
102
}
102
{ACAD_XDICTIONARY
360
A82
102
}
330
A45
100
AcDbMaterial
  1
ByLayer
  0
MATERIAL
  5
A48
102
{ACAD_REACTORS
330
A45
102
}
102
{ACAD_XDICTIONARY
360
A86
102
}
330
A45
100
AcDbMaterial
  1
Global
  0
MLEADERSTYLE
  5
A4C
102
{ACAD_REACTORS
330
A4B
102
}
102
{ACAD_XDICTIONARY
360
A8C
102
}
330
A4B
100
AcDbMLeaderStyle
170
     2
171
     1
172
     0
 90
        2
 40
0.0
 41
0.0
173
     1
 91
-1056964608
340
14
 92
       -2
290
     1
 42
0.09
291
     1
 43
0.36
  3
Standard
341
0
 44
0.18
300

342
11
174
     1
178
     6
175
     1
176
     0
 93
-1056964608
 45
0.18
292
     0
297
     0
 46
0.18
343
0
 94
-1056964608
 47
1.0
 49
1.0
140
1.0
293
     1
141
0.0
294
     1
177
     0
142
1.0
295
     0
296
     0
143
0.125
1001
ACAD_MLEADERVER
1070
     2
  0
MLINESTYLE
  5
18
102
{ACAD_REACTORS
330
17
102
}
330
17
100
AcDbMlineStyle
  2
Standard
 70
     0
  3

 62
   256
 51
90.0
 52
90.0
 71
     2
 49
0.5
 62
   256
  6
BYLAYER
 49
-0.5
 62
   256
  6
BYLAYER
  0
ACDBPLACEHOLDER
  5
F
102
{ACAD_REACTORS
330
E
102
}
330
E
  0
SCALE
  5
A07
102
{ACAD_REACTORS
330
A06
102
}
330
A06
100
AcDbScale
 70
     0
300
1:1
140
1.0
141
1.0
290
     1
  0
SCALE
  5
A08
102
{ACAD_REACTORS
330
A06
102
}
330
A06
100
AcDbScale
 70
     0
300
1:2
140
1.0
141
2.0
290
     0
  0
SCALE
  5
A09
102
{ACAD_REACTORS
330
A06
102
}
330
A06
100
AcDbScale
 70
     0
300
1:4
140
1.0
141
4.0
290
     0
  0
SCALE
  5
A0A
102
{ACAD_REACTORS
330
A06
102
}
330
A06
100
AcDbScale
 70
     0
300
1:5
140
1.0
141
5.0
290
     0
  0
SCALE
  5
A0B
102
{ACAD_REACTORS
330
A06
102
}
330
A06
100
AcDbScale
 70
     0
300
1:8
140
1.0
141
8.0
290
     0
  0
SCALE
  5
A0C
102
{ACAD_REACTORS
330
A06
102
}
330
A06
100
AcDbScale
 70
     0
300
1:10
140
1.0
141
10.0
290
     0
  0
SCALE
  5
A0D
102
{ACAD_REACTORS
330
A06
102
}
330
A06
100
AcDbScale
 70
     0
300
1:16
140
1.0
141
16.0
290
     0
  0
SCALE
  5
A0E
102
{ACAD_REACTORS
330
A06
102
}
330
A06
100
AcDbScale
 70
     0
300
1:20
140
1.0
141
20.0
290
     0
  0
SCALE
  5
A0F
102
{ACAD_REACTORS
330
A06
102
}
330
A06
100
AcDbScale
 70
     0
300
1:30
140
1.0
141
30.0
290
     0
  0
SCALE
  5
A10
102
{ACAD_REACTORS
330
A06
102
}
330
A06
100
AcDbScale
 70
     0
300
1:40
140
1.0
141
40.0
290
     0
  0
SCALE
  5
A11
102
{ACAD_REACTORS
330
A06
102
}
330
A06
100
AcDbScale
 70
     0
300
1:50
140
1.0
141
50.0
290
     0
  0
SCALE
  5
A12
102
{ACAD_REACTORS
330
A06
102
}
330
A06
100
AcDbScale
 70
     0
300
1:100
140
1.0
141
100.0
290
     0
  0
SCALE
  5
A13
102
{ACAD_REACTORS
330
A06
102
}
330
A06
100
AcDbScale
 70
     0
300
2:1
140
2.0
141
1.0
290
     0
  0
SCALE
  5
A14
102
{ACAD_REACTORS
330
A06
102
}
330
A06
100
AcDbScale
 70
     0
300
4:1
140
4.0
141
1.0
290
     0
  0
SCALE
  5
A15
102
{ACAD_REACTORS
330
A06
102
}
330
A06
100
AcDbScale
 70
     0
300
8:1
140
8.0
141
1.0
290
     0
  0
SCALE
  5
A16
102
{ACAD_REACTORS
330
A06
102
}
330
A06
100
AcDbScale
 70
     0
300
10:1
140
10.0
141
1.0
290
     0
  0
SCALE
  5
A17
102
{ACAD_REACTORS
330
A06
102
}
330
A06
100
AcDbScale
 70
     0
300
100:1
140
100.0
141
1.0
290
     0
  0
SCALE
  5
A18
102
{ACAD_REACTORS
330
A06
102
}
330
A06
100
AcDbScale
 70
     0
300
1/128\" = 1\'-0\"
140
0.0078125
141
12.0
290
     0
  0
SCALE
  5
A19
102
{ACAD_REACTORS
330
A06
102
}
330
A06
100
AcDbScale
 70
     0
300
1/64\" = 1\'-0\"
140
0.015625
141
12.0
290
     0
  0
SCALE
  5
A1A
102
{ACAD_REACTORS
330
A06
102
}
330
A06
100
AcDbScale
 70
     0
300
1/32\" = 1\'-0\"
140
0.03125
141
12.0
290
     0
  0
SCALE
  5
A1B
102
{ACAD_REACTORS
330
A06
102
}
330
A06
100
AcDbScale
 70
     0
300
1/16\" = 1\'-0\"
140
0.0625
141
12.0
290
     0
  0
SCALE
  5
A1C
102
{ACAD_REACTORS
330
A06
102
}
330
A06
100
AcDbScale
 70
     0
300
3/32\" = 1\'-0\"
140
0.09375
141
12.0
290
     0
  0
SCALE
  5
A1D
102
{ACAD_REACTORS
330
A06
102
}
330
A06
100
AcDbScale
 70
     0
300
1/8\" = 1\'-0\"
140
0.125
141
12.0
290
     0
  0
SCALE
  5
A1E
102
{ACAD_REACTORS
330
A06
102
}
330
A06
100
AcDbScale
 70
     0
300
3/16\" = 1\'-0\"
140
0.1875
141
12.0
290
     0
  0
SCALE
  5
A1F
102
{ACAD_REACTORS
330
A06
102
}
330
A06
100
AcDbScale
 70
     0
300
1/4\" = 1\'-0\"
140
0.25
141
12.0
290
     0
  0
SCALE
  5
A20
102
{ACAD_REACTORS
330
A06
102
}
330
A06
100
AcDbScale
 70
     0
300
3/8\" = 1\'-0\"
140
0.375
141
12.0
290
     0
  0
SCALE
  5
A21
102
{ACAD_REACTORS
330
A06
102
}
330
A06
100
AcDbScale
 70
     0
300
1/2\" = 1\'-0\"
140
0.5
141
12.0
290
     0
  0
SCALE
  5
A22
102
{ACAD_REACTORS
330
A06
102
}
330
A06
100
AcDbScale
 70
     0
300
3/4\" = 1\'-0\"
140
0.75
141
12.0
290
     0
  0
SCALE
  5
A23
102
{ACAD_REACTORS
330
A06
102
}
330
A06
100
AcDbScale
 70
     0
300
1\" = 1\'-0\"
140
1.0
141
12.0
290
     0
  0
SCALE
  5
A24
102
{ACAD_REACTORS
330
A06
102
}
330
A06
100
AcDbScale
 70
     0
300
1-1/2\" = 1\'-0\"
140
1.5
141
12.0
290
     0
  0
SCALE
  5
A25
102
{ACAD_REACTORS
330
A06
102
}
330
A06
100
AcDbScale
 70
     0
300
3\" = 1\'-0\"
140
3.0
141
12.0
290
     0
  0
SCALE
  5
A26
102
{ACAD_REACTORS
330
A06
102
}
330
A06
100
AcDbScale
 70
     0
300
6\" = 1\'-0\"
140
6.0
141
12.0
290
     0
  0
SCALE
  5
A27
102
{ACAD_REACTORS
330
A06
102
}
330
A06
100
AcDbScale
 70
     0
300
1\'-0\" = 1\'-0\"
140
12.0
141
12.0
290
     0
  0
TABLESTYLE
  5
A4A
102
{ACAD_REACTORS
330
A49
102
}
102
{ACAD_XDICTIONARY
360
A88
102
}
330
A49
100
AcDbTableStyle
  3
Standard
 70
     0
 71
     0
 40
0.06
 41
0.06
280
     0
281
     0
  7
Standard
140
0.18
170
     2
 62
     0
 63
   257
283
     0
274
    -2
284
     1
 64
     0
275
    -2
285
     1
 65
     0
276
    -2
286
     1
 66
     0
277
    -2
287
     1
 67
     0
278
    -2
288
     1
 68
     0
279
    -2
289
     1
 69
     0
  7
Standard
140
0.25
170
     5
 62
     0
 63
   257
283
     0
274
    -2
284
     1
 64
     0
275
    -2
285
     1
 65
     0
276
    -2
286
     1
 66
     0
277
    -2
287
     1
 67
     0
278
    -2
288
     1
 68
     0
279
    -2
289
     1
 69
     0
  7
Standard
140
0.18
170
     5
 62
     0
 63
   257
283
     0
274
    -2
284
     1
 64
     0
275
    -2
285
     1
 65
     0
276
    -2
286
     1
 66
     0
277
    -2
287
     1
 67
     0
278
    -2
288
     1
 68
     0
279
    -2
289
     1
 69
     0
  0
VISUALSTYLE
  5
A31
102
{ACAD_REACTORS
330
A2C
102
}
102
{ACAD_XDICTIONARY
360
A5A
102
}
330
A2C
100
AcDbVisualStyle
  2
2dWireframe
 70
     4
 71
     0
 72
     2
 73
     0
 90
        0
 40
0.6
 41
30.0
 62
     5
 63
     7
421
 16777215
 74
     1
 91
        4
 64
     7
 65
   257
 75
     1
175
     1
 42
1.0
 92
        0
 66
   257
 43
1.0
 76
     1
 77
     6
 78
     2
 67
     7
 79
     5
170
     0
171
     0
290
     0
174
     0
 93
        1
 44
0.0
173
     0
291
     0
 45
0.0
1001
ACAD
1000
AcDbSavedByObjectVersion
1070
     0
  0
VISUALSTYLE
  5
A34
102
{ACAD_REACTORS
330
A2C
102
}
102
{ACAD_XDICTIONARY
360
A60
102
}
330
A2C
100
AcDbVisualStyle
  2
Basic
 70
     7
 71
     1
 72
     0
 73
     1
 90
        0
 40
0.6
 41
30.0
 62
     5
 63
     7
421
 16777215
 74
     0
 91
        4
 64
     7
 65
   257
 75
     1
175
     1
 42
1.0
 92
        8
 66
     7
 43
1.0
 76
     1
 77
     6
 78
     2
 67
     7
 79
     5
170
     0
171
     0
290
     0
174
     0
 93
        1
 44
0.0
173
     0
291
     1
 45
0.0
1001
ACAD
1000
AcDbSavedByObjectVersion
1070
     0
  0
VISUALSTYLE
  5
A38
102
{ACAD_REACTORS
330
A2C
102
}
102
{ACAD_XDICTIONARY
360
A68
102
}
330
A2C
100
AcDbVisualStyle
  2
Brighten
 70
    12
 71
     2
 72
     2
 73
     0
 90
        0
 40
0.6
 41
30.0
 62
     5
 63
     7
421
 16777215
 74
     1
 91
        4
 64
     7
 65
   257
 75
     1
175
     1
 42
1.0
 92
        8
 66
     7
 43
1.0
 76
     1
 77
     6
 78
     2
 67
     7
 79
     5
170
     0
171
     0
290
     0
174
     0
 93
        1
 44
50.0
173
     0
291
     1
 45
0.0
1001
ACAD
1000
AcDbSavedByObjectVersion
1070
     0
  0
VISUALSTYLE
  5
A3C
102
{ACAD_REACTORS
330
A2C
102
}
102
{ACAD_XDICTIONARY
360
A70
102
}
330
A2C
100
AcDbVisualStyle
  2
ColorChange
 70
    16
 71
     2
 72
     2
 73
     3
 90
        0
 40
0.6
 41
30.0
 62
     5
 63
     8
421
  8421504
 74
     1
 91
        4
 64
     7
 65
   257
 75
     1
175
     1
 42
1.0
 92
        8
 66
     8
424
  8421504
 43
1.0
 76
     1
 77
     6
 78
     2
 67
     7
 79
     5
170
     0
171
     0
290
     0
174
     0
 93
        1
 44
0.0
173
     0
291
     1
 45
0.0
1001
ACAD
1000
AcDbSavedByObjectVersion
1070
     0
  0
VISUALSTYLE
  5
A36
102
{ACAD_REACTORS
330
A2C
102
}
102
{ACAD_XDICTIONARY
360
A64
102
}
330
A2C
100
AcDbVisualStyle
  2
Conceptual
 70
     9
 71
     3
 72
     2
 73
     0
 90
        0
 40
0.6
 41
30.0
 62
     5
 63
     7
421
 16777215
 74
     2
 91
        2
 64
     7
 65
   257
 75
     1
175
     1
 42
179.0
 92
        8
 66
     7
 43
1.0
 76
     1
 77
     6
 78
     2
 67
     7
 79
     3
170
     0
171
     0
290
     0
174
     0
 93
        1
 44
0.0
173
     0
291
     0
 45
0.0
1001
ACAD
1000
AcDbSavedByObjectVersion
1070
     0
  0
VISUALSTYLE
  5
A37
102
{ACAD_REACTORS
330
A2C
102
}
102
{ACAD_XDICTIONARY
360
A66
102
}
330
A2C
100
AcDbVisualStyle
  2
Dim
 70
    11
 71
     2
 72
     2
 73
     0
 90
        0
 40
0.6
 41
30.0
 62
     5
 63
     7
421
 16777215
 74
     1
 91
        4
 64
     7
 65
   257
 75
     1
175
     1
 42
1.0
 92
        8
 66
     7
 43
1.0
 76
     1
 77
     6
 78
     2
 67
     7
 79
     5
170
     0
171
     0
290
     0
174
     0
 93
        1
 44
-50.0
173
     0
291
     1
 45
0.0
1001
ACAD
1000
AcDbSavedByObjectVersion
1070
     0
  0
VISUALSTYLE
  5
A3F
102
{ACAD_REACTORS
330
A2C
102
}
102
{ACAD_XDICTIONARY
360
A76
102
}
330
A2C
100
AcDbVisualStyle
  2
EdgeColorOff
 70
    22
 71
     2
 72
     2
 73
     0
 90
        0
 40
0.6
 41
30.0
 62
     5
 63
     7
421
 16777215
 74
     1
 91
        4
 64
     7
 65
   257
 75
     1
175
     1
 42
1.0
 92
        8
 66
     7
 43
1.0
 76
     1
 77
     6
 78
     2
 67
     7
 79
     5
170
     0
171
     0
290
     0
174
     0
 93
        1
 44
0.0
173
     0
291
     1
 45
0.0
1001
ACAD
1000
AcDbSavedByObjectVersion
1070
     0
  0
VISUALSTYLE
  5
A3B
102
{ACAD_REACTORS
330
A2C
102
}
102
{ACAD_XDICTIONARY
360
A6E
102
}
330
A2C
100
AcDbVisualStyle
  2
Facepattern
 70
    15
 71
     2
 72
     2
 73
     0
 90
        0
 40
0.6
 41
30.0
 62
     5
 63
     7
421
 16777215
 74
     1
 91
        4
 64
     7
 65
   257
 75
     1
175
     1
 42
1.0
 92
        8
 66
     7
 43
1.0
 76
     1
 77
     6
 78
     2
 67
     7
 79
     5
170
     0
171
     0
290
     0
174
     0
 93
        1
 44
0.0
173
     0
291
     1
 45
0.0
1001
ACAD
1000
AcDbSavedByObjectVersion
1070
     0
  0
VISUALSTYLE
  5
A2D
102
{ACAD_REACTORS
330
A2C
102
}
102
{ACAD_XDICTIONARY
360
A52
102
}
330
A2C
100
AcDbVisualStyle
  2
Flat
 70
     0
 71
     2
 72
     1
 73
     1
 90
        2
 40
0.6
 41
30.0
 62
     5
 63
     7
421
 16777215
 74
     0
 91
        0
 64
     7
 65
   257
 75
     1
175
     1
 42
1.0
 92
        8
 66
     7
 43
1.0
 76
     1
 77
     6
 78
     2
 67
     7
 79
     5
170
     0
171
     0
290
     0
174
     0
 93
       13
 44
0.0
173
     0
291
     1
 45
0.0
1001
ACAD
1000
AcDbSavedByObjectVersion
1070
     0
  0
VISUALSTYLE
  5
A2E
102
{ACAD_REACTORS
330
A2C
102
}
102
{ACAD_XDICTIONARY
360
A54
102
}
330
A2C
100
AcDbVisualStyle
  2
FlatWithEdges
 70
     1
 71
     2
 72
     1
 73
     1
 90
        2
 40
0.6
 41
30.0
 62
     5
 63
     7
421
 16777215
 74
     1
 91
        0
 64
     7
 65
   257
 75
     1
175
     1
 42
1.0
 92
        0
 66
   257
 43
1.0
 76
     1
 77
     6
 78
     2
 67
     7
 79
     5
170
     0
171
     0
290
     0
174
     0
 93
       13
 44
0.0
173
     0
291
     1
 45
0.0
1001
ACAD
1000
AcDbSavedByObjectVersion
1070
     0
  0
VISUALSTYLE
  5
A2F
102
{ACAD_REACTORS
330
A2C
102
}
102
{ACAD_XDICTIONARY
360
A56
102
}
330
A2C
100
AcDbVisualStyle
  2
Gouraud
 70
     2
 71
     2
 72
     2
 73
     1
 90
        2
 40
0.6
 41
30.0
 62
     5
 63
     7
421
 16777215
 74
     0
 91
        0
 64
     7
 65
   257
 75
     1
175
     1
 42
1.0
 92
        0
 66
     7
 43
1.0
 76
     1
 77
     6
 78
     2
 67
     7
 79
     5
170
     0
171
     0
290
     0
174
     0
 93
       13
 44
0.0
173
     0
291
     1
 45
0.0
1001
ACAD
1000
AcDbSavedByObjectVersion
1070
     0
  0
VISUALSTYLE
  5
A30
102
{ACAD_REACTORS
330
A2C
102
}
102
{ACAD_XDICTIONARY
360
A58
102
}
330
A2C
100
AcDbVisualStyle
  2
GouraudWithEdges
 70
     3
 71
     2
 72
     2
 73
     1
 90
        2
 40
0.6
 41
30.0
 62
     5
 63
     7
421
 16777215
 74
     1
 91
        0
 64
     7
 65
   257
 75
     1
175
     1
 42
1.0
 92
        0
 66
   257
 43
1.0
 76
     1
 77
     6
 78
     2
 67
     7
 79
     5
170
     0
171
     0
290
     0
174
     0
 93
       13
 44
0.0
173
     0
291
     1
 45
0.0
1001
ACAD
1000
AcDbSavedByObjectVersion
1070
     0
  0
VISUALSTYLE
  5
A33
102
{ACAD_REACTORS
330
A2C
102
}
102
{ACAD_XDICTIONARY
360
A5E
102
}
330
A2C
100
AcDbVisualStyle
  2
Hidden
 70
     6
 71
     1
 72
     2
 73
     2
 90
        0
 40
0.6
 41
30.0
 62
     5
 63
     7
421
 16777215
 74
     2
 91
        2
 64
     7
 65
   257
 75
     2
175
     1
 42
40.0
 92
        0
 66
   257
 43
1.0
 76
     1
 77
     6
 78
     2
 67
     7
 79
     3
170
     0
171
     0
290
     0
174
     0
 93
        1
 44
0.0
173
     0
291
     0
 45
0.0
1001
ACAD
1000
AcDbSavedByObjectVersion
1070
     0
  0
VISUALSTYLE
  5
A3D
102
{ACAD_REACTORS
330
A2C
102
}
102
{ACAD_XDICTIONARY
360
A72
102
}
330
A2C
100
AcDbVisualStyle
  2
JitterOff
 70
    20
 71
     2
 72
     2
 73
     0
 90
        0
 40
0.6
 41
30.0
 62
     5
 63
     7
421
 16777215
 74
     1
 91
        4
 64
     7
 65
   257
 75
     1
175
     1
 42
1.0
 92
       10
 66
     7
 43
1.0
 76
     1
 77
     6
 78
     2
 67
     7
 79
     5
170
     0
171
     0
290
     0
174
     0
 93
        1
 44
0.0
173
     0
291
     1
 45
0.0
1001
ACAD
1000
AcDbSavedByObjectVersion
1070
     0
  0
VISUALSTYLE
  5
A3A
102
{ACAD_REACTORS
330
A2C
102
}
102
{ACAD_XDICTIONARY
360
A6C
102
}
330
A2C
100
AcDbVisualStyle
  2
Linepattern
 70
    14
 71
     2
 72
     2
 73
     0
 90
        0
 40
0.6
 41
30.0
 62
     5
 63
     7
421
 16777215
 74
     1
 91
        4
 64
     7
 65
   257
 75
     7
175
     7
 42
1.0
 92
        8
 66
     7
 43
1.0
 76
     1
 77
     6
 78
     2
 67
     7
 79
     5
170
     0
171
     0
290
     0
174
     0
 93
        1
 44
0.0
173
     0
291
     1
 45
0.0
1001
ACAD
1000
AcDbSavedByObjectVersion
1070
     0
  0
VISUALSTYLE
  5
A3E
102
{ACAD_REACTORS
330
A2C
102
}
102
{ACAD_XDICTIONARY
360
A74
102
}
330
A2C
100
AcDbVisualStyle
  2
OverhangOff
 70
    21
 71
     2
 72
     2
 73
     0
 90
        0
 40
0.6
 41
30.0
 62
     5
 63
     7
421
 16777215
 74
     1
 91
        4
 64
     7
 65
   257
 75
     1
175
     1
 42
1.0
 92
        9
 66
     7
 43
1.0
 76
     1
 77
     6
 78
     2
 67
     7
 79
     5
170
     0
171
     0
290
     0
174
     0
 93
        1
 44
0.0
173
     0
291
     1
 45
0.0
1001
ACAD
1000
AcDbSavedByObjectVersion
1070
     0
  0
VISUALSTYLE
  5
A35
102
{ACAD_REACTORS
330
A2C
102
}
102
{ACAD_XDICTIONARY
360
A62
102
}
330
A2C
100
AcDbVisualStyle
  2
Realistic
 70
     8
 71
     2
 72
     3
 73
     0
 90
        2
 40
0.6
 41
30.0
 62
     5
 63
     7
421
 16777215
 74
     0
 91
        0
 64
     7
 65
   257
 75
     1
175
     1
 42
1.0
 92
        8
 66
   257
 43
1.0
 76
     1
 77
     6
 78
     2
 67
     7
 79
     3
170
     0
171
     0
290
     0
174
     0
 93
       13
 44
0.0
173
     0
291
     0
 45
0.0
1001
ACAD
1000
AcDbSavedByObjectVersion
1070
     0
  0
VISUALSTYLE
  5
A44
102
{ACAD_REACTORS
330
A2C
102
}
102
{ACAD_XDICTIONARY
360
A80
102
}
330
A2C
100
AcDbVisualStyle
  2
Shaded
 70
    27
 71
     2
 72
     2
 73
     1
 90
        2
 40
0.6
 41
30.0
 62
     5
 63
     7
421
 16777215
 74
     0
 91
        4
 64
     7
 65
   257
 75
     1
175
     1
 42
1.0
 92
        8
 66
   257
 43
1.0
 76
     1
 77
     6
 78
     2
 67
     8
425
  7895160
 79
     3
170
     0
171
     0
290
     0
174
     0
 93
        5
 44
0.0
173
     0
291
     0
 45
0.0
1001
ACAD
1000
AcDbSavedByObjectVersion
1070
     0
  0
VISUALSTYLE
  5
A43
102
{ACAD_REACTORS
330
A2C
102
}
102
{ACAD_XDICTIONARY
360
A7E
102
}
330
A2C
100
AcDbVisualStyle
  2
Shaded with edges
 70
    26
 71
     2
 72
     2
 73
     1
 90
        2
 40
0.6
 41
30.0
 62
     5
 63
     7
421
 16777215
 74
     1
 91
       10
 64
     7
 65
   257
 75
     2
175
     1
 42
1.0
 92
        8
 66
   257
 43
1.0
 76
     1
 77
     6
 78
     2
 67
     7
 79
     3
170
     0
171
     0
290
     0
174
     0
 93
        5
 44
0.0
173
     0
291
     0
 45
0.0
1001
ACAD
1000
AcDbSavedByObjectVersion
1070
     0
  0
VISUALSTYLE
  5
A40
102
{ACAD_REACTORS
330
A2C
102
}
102
{ACAD_XDICTIONARY
360
A78
102
}
330
A2C
100
AcDbVisualStyle
  2
Shades of Gray
 70
    23
 71
     2
 72
     2
 73
     3
 90
        0
 40
0.6
 41
30.0
 62
     5
 63
     7
421
 16777215
 74
     2
 91
        2
 64
     7
 65
     7
 75
     1
175
     1
 42
40.0
 92
        8
 66
     7
 43
1.0
 76
     1
 77
     6
 78
     2
 67
     7
 79
     3
170
     0
171
     0
290
     0
174
     0
 93
        1
 44
0.0
173
     0
291
     0
 45
0.0
1001
ACAD
1000
AcDbSavedByObjectVersion
1070
     0
  0
VISUALSTYLE
  5
A41
102
{ACAD_REACTORS
330
A2C
102
}
102
{ACAD_XDICTIONARY
360
A7A
102
}
330
A2C
100
AcDbVisualStyle
  2
Sketchy
 70
    24
 71
     1
 72
     2
 73
     2
 90
        0
 40
0.6
 41
30.0
 62
     5
 63
     7
421
 16777215
 74
     2
 91
        2
 64
     7
 65
     7
 75
     1
175
     1
 42
40.0
 92
       11
 66
     7
 43
1.0
 76
     1
 77
     6
 78
     2
 67
     7
 79
     6
170
     0
171
     0
290
     0
174
     0
 93
        1
 44
0.0
173
     0
291
     0
 45
0.0
1001
ACAD
1000
AcDbSavedByObjectVersion
1070
     0
  0
VISUALSTYLE
  5
A39
102
{ACAD_REACTORS
330
A2C
102
}
102
{ACAD_XDICTIONARY
360
A6A
102
}
330
A2C
100
AcDbVisualStyle
  2
Thicken
 70
    13
 71
     2
 72
     2
 73
     0
 90
        0
 40
0.6
 41
30.0
 62
     5
 63
     7
421
 16777215
 74
     1
 91
        4
 64
     7
 65
   257
 75
     1
175
     1
 42
1.0
 92
       12
 66
     7
 43
1.0
 76
     1
 77
     6
 78
     2
 67
     7
 79
     5
170
     0
171
     0
290
     0
174
     0
 93
        1
 44
0.0
173
     0
291
     1
 45
0.0
1001
ACAD
1000
AcDbSavedByObjectVersion
1070
     0
  0
VISUALSTYLE
  5
A32
102
{ACAD_REACTORS
330
A2C
102
}
102
{ACAD_XDICTIONARY
360
A5C
102
}
330
A2C
100
AcDbVisualStyle
  2
Wireframe
 70
     5
 71
     0
 72
     2
 73
     0
 90
        0
 40
0.6
 41
30.0
 62
     5
 63
     7
421
 16777215
 74
     1
 91
        4
 64
     7
 65
   257
 75
     1
175
     1
 42
1.0
 92
        0
 66
   257
 43
1.0
 76
     1
 77
     6
 78
     2
 67
     7
 79
     3
170
     0
171
     0
290
     0
174
     0
 93
        1
 44
0.0
173
     0
291
     0
 45
0.0
1001
ACAD
1000
AcDbSavedByObjectVersion
1070
     0
  0
VISUALSTYLE
  5
A42
102
{ACAD_REACTORS
330
A2C
102
}
102
{ACAD_XDICTIONARY
360
A7C
102
}
330
A2C
100
AcDbVisualStyle
  2
X-Ray
 70
    25
 71
     2
 72
     2
 73
     1
 90
        1
 40
0.5
 41
30.0
 62
     5
 63
     7
421
 16777215
 74
     1
 91
        0
 64
     7
 65
   257
 75
     1
175
     1
 42
1.0
 92
        8
 66
     7
 43
1.0
 76
     1
 77
     6
 78
     2
 67
     7
 79
     3
170
     0
171
     0
290
     0
174
     0
 93
       13
 44
0.0
173
     0
291
     0
 45
0.0
1001
ACAD
1000
AcDbSavedByObjectVersion
1070
     0
  0
DICTIONARYVAR
  5
A50
102
{ACAD_REACTORS
330
A4F
102
}
330
A4F
100
DictionaryVariables
280
     0
  1
1:1
  0
DICTIONARYVAR
  5
A90
102
{ACAD_REACTORS
330
A4F
102
}
330
A4F
100
DictionaryVariables
280
     0
  1
Standard
  0
DICTIONARYVAR
  5
A8F
102
{ACAD_REACTORS
330
A4F
102
}
330
A4F
100
DictionaryVariables
280
     0
  1
Standard
  0
DICTIONARYVAR
  5
A91
102
{ACAD_REACTORS
330
A4F
102
}
330
A4F
100
DictionaryVariables
280
     0
  1
0
  0
DICTIONARYVAR
  5
A51
102
{ACAD_REACTORS
330
A4F
102
}
330
A4F
100
DictionaryVariables
280
     0
  1
2
  0
DICTIONARY
  5
A84
330
A47
100
AcDbDictionary
280
     1
281
     1
  3
ACAD_XREC_ROUNDTRIP
360
A85
  0
DICTIONARY
  5
A82
330
A46
100
AcDbDictionary
280
     1
281
     1
  3
ACAD_XREC_ROUNDTRIP
360
A83
  0
DICTIONARY
  5
A86
330
A48
100
AcDbDictionary
280
     1
281
     1
  3
ACAD_XREC_ROUNDTRIP
360
A87
  0
DICTIONARY
  5
A8C
330
A4C
100
AcDbDictionary
280
     1
281
     1
  3
ACAD_XREC_ROUNDTRIP
360
A8D
  0
DICTIONARY
  5
A88
330
A4A
100
AcDbDictionary
280
     1
281
     1
  3
ACAD_ROUNDTRIP_2008_TABLESTYLE_CELLSTYLEMAP
360
A8A
  3
ACAD_XREC_ROUNDTRIP
360
A89
  0
DICTIONARY
  5
A5A
330
A31
100
AcDbDictionary
280
     1
281
     1
  3
ACAD_XREC_ROUNDTRIP
360
A5B
  0
DICTIONARY
  5
A60
330
A34
100
AcDbDictionary
280
     1
281
     1
  3
ACAD_XREC_ROUNDTRIP
360
A61
  0
DICTIONARY
  5
A68
330
A38
100
AcDbDictionary
280
     1
281
     1
  3
ACAD_XREC_ROUNDTRIP
360
A69
  0
DICTIONARY
  5
A70
330
A3C
100
AcDbDictionary
280
     1
281
     1
  3
ACAD_XREC_ROUNDTRIP
360
A71
  0
DICTIONARY
  5
A64
330
A36
100
AcDbDictionary
280
     1
281
     1
  3
ACAD_XREC_ROUNDTRIP
360
A65
  0
DICTIONARY
  5
A66
330
A37
100
AcDbDictionary
280
     1
281
     1
  3
ACAD_XREC_ROUNDTRIP
360
A67
  0
DICTIONARY
  5
A76
330
A3F
100
AcDbDictionary
280
     1
281
     1
  3
ACAD_XREC_ROUNDTRIP
360
A77
  0
DICTIONARY
  5
A6E
330
A3B
100
AcDbDictionary
280
     1
281
     1
  3
ACAD_XREC_ROUNDTRIP
360
A6F
  0
DICTIONARY
  5
A52
330
A2D
100
AcDbDictionary
280
     1
281
     1
  3
ACAD_XREC_ROUNDTRIP
360
A53
  0
DICTIONARY
  5
A54
330
A2E
100
AcDbDictionary
280
     1
281
     1
  3
ACAD_XREC_ROUNDTRIP
360
A55
  0
DICTIONARY
  5
A56
330
A2F
100
AcDbDictionary
280
     1
281
     1
  3
ACAD_XREC_ROUNDTRIP
360
A57
  0
DICTIONARY
  5
A58
330
A30
100
AcDbDictionary
280
     1
281
     1
  3
ACAD_XREC_ROUNDTRIP
360
A59
  0
DICTIONARY
  5
A5E
330
A33
100
AcDbDictionary
280
     1
281
     1
  3
ACAD_XREC_ROUNDTRIP
360
A5F
  0
DICTIONARY
  5
A72
330
A3D
100
AcDbDictionary
280
     1
281
     1
  3
ACAD_XREC_ROUNDTRIP
360
A73
  0
DICTIONARY
  5
A6C
330
A3A
100
AcDbDictionary
280
     1
281
     1
  3
ACAD_XREC_ROUNDTRIP
360
A6D
  0
DICTIONARY
  5
A74
330
A3E
100
AcDbDictionary
280
     1
281
     1
  3
ACAD_XREC_ROUNDTRIP
360
A75
  0
DICTIONARY
  5
A62
330
A35
100
AcDbDictionary
280
     1
281
     1
  3
ACAD_XREC_ROUNDTRIP
360
A63
  0
DICTIONARY
  5
A80
330
A44
100
AcDbDictionary
280
     1
281
     1
  3
ACAD_XREC_ROUNDTRIP
360
A81
  0
DICTIONARY
  5
A7E
330
A43
100
AcDbDictionary
280
     1
281
     1
  3
ACAD_XREC_ROUNDTRIP
360
A7F
  0
DICTIONARY
  5
A78
330
A40
100
AcDbDictionary
280
     1
281
     1
  3
ACAD_XREC_ROUNDTRIP
360
A79
  0
DICTIONARY
  5
A7A
330
A41
100
AcDbDictionary
280
     1
281
     1
  3
ACAD_XREC_ROUNDTRIP
360
A7B
  0
DICTIONARY
  5
A6A
330
A39
100
AcDbDictionary
280
     1
281
     1
  3
ACAD_XREC_ROUNDTRIP
360
A6B
  0
DICTIONARY
  5
A5C
330
A32
100
AcDbDictionary
280
     1
281
     1
  3
ACAD_XREC_ROUNDTRIP
360
A5D
  0
DICTIONARY
  5
A7C
330
A42
100
AcDbDictionary
280
     1
281
     1
  3
ACAD_XREC_ROUNDTRIP
360
A7D
  0
XRECORD
  5
A85
102
{ACAD_REACTORS
330
A84
102
}
330
A84
100
AcDbXrecord
280
     1
102
MATERIAL
148
0.0
149
0.0
149
0.0
 93
        0
 94
      127
282
     0
 72
     1
 77
     1
171
     1
175
     1
179
     1
273
     0
  0
XRECORD
  5
A83
102
{ACAD_REACTORS
330
A82
102
}
330
A82
100
AcDbXrecord
280
     1
102
MATERIAL
148
0.0
149
0.0
149
0.0
 93
        0
 94
      127
282
     0
 72
     1
 77
     1
171
     1
175
     1
179
     1
273
     0
  0
XRECORD
  5
A87
102
{ACAD_REACTORS
330
A86
102
}
330
A86
100
AcDbXrecord
280
     1
102
MATERIAL
148
0.0
149
0.0
149
0.0
 93
        0
 94
      127
282
     0
 72
     1
 77
     1
171
     1
175
     1
179
     1
273
     0
  0
XRECORD
  5
A8D
102
{ACAD_REACTORS
330
A8C
102
}
330
A8C
100
AcDbXrecord
280
     1
102
ACAD_ROUNDTRIP_2010_MLEADER_STYLE
  0
CELLSTYLEMAP
  5
A8A
102
{ACAD_REACTORS
330
A88
102
}
330
A88
100
AcDbCellStyleMap
 90
        3
300
CELLSTYLE
  1
TABLEFORMAT_BEGIN
 90
        5
170
     1
 91
        0
 92
    32768
 62
   257
 93
        1
300
CONTENTFORMAT
  1
CONTENTFORMAT_BEGIN
 90
        0
 91
        0
 92
        4
 93
        0
300

 40
0.0
140
1.0
 94
        5
 62
     0
340
11
144
0.25
309
CONTENTFORMAT_END
171
     1
301
MARGIN
  1
CELLMARGIN_BEGIN
 40
0.06
 40
0.06
 40
0.06
 40
0.06
 40
0.06
 40
0.06
309
CELLMARGIN_END
 94
        6
 95
        1
302
GRIDFORMAT
  1
GRIDFORMAT_BEGIN
 90
        0
 91
        1
 62
     0
 92
       -2
340
14
 93
        0
 40
0.045
309
GRIDFORMAT_END
 95
        2
302
GRIDFORMAT
  1
GRIDFORMAT_BEGIN
 90
        0
 91
        1
 62
     0
 92
       -2
340
14
 93
        0
 40
0.045
309
GRIDFORMAT_END
 95
        4
302
GRIDFORMAT
  1
GRIDFORMAT_BEGIN
 90
        0
 91
        1
 62
     0
 92
       -2
340
14
 93
        0
 40
0.045
309
GRIDFORMAT_END
 95
        8
302
GRIDFORMAT
  1
GRIDFORMAT_BEGIN
 90
        0
 91
        1
 62
     0
 92
       -2
340
14
 93
        0
 40
0.045
309
GRIDFORMAT_END
 95
       16
302
GRIDFORMAT
  1
GRIDFORMAT_BEGIN
 90
        0
 91
        1
 62
     0
 92
       -2
340
14
 93
        0
 40
0.045
309
GRIDFORMAT_END
 95
       32
302
GRIDFORMAT
  1
GRIDFORMAT_BEGIN
 90
        0
 91
        1
 62
     0
 92
       -2
340
14
 93
        0
 40
0.045
309
GRIDFORMAT_END
309
TABLEFORMAT_END
  1
CELLSTYLE_BEGIN
 90
        1
 91
        1
300
_TITLE
309
CELLSTYLE_END
300
CELLSTYLE
  1
TABLEFORMAT_BEGIN
 90
        5
170
     1
 91
        0
 92
        0
 62
   257
 93
        1
300
CONTENTFORMAT
  1
CONTENTFORMAT_BEGIN
 90
        0
 91
        0
 92
        4
 93
        0
300

 40
0.0
140
1.0
 94
        5
 62
     0
340
11
144
0.18
309
CONTENTFORMAT_END
171
     1
301
MARGIN
  1
CELLMARGIN_BEGIN
 40
0.06
 40
0.06
 40
0.06
 40
0.06
 40
0.06
 40
0.06
309
CELLMARGIN_END
 94
        6
 95
        1
302
GRIDFORMAT
  1
GRIDFORMAT_BEGIN
 90
        0
 91
        1
 62
     0
 92
       -2
340
14
 93
        0
 40
0.045
309
GRIDFORMAT_END
 95
        2
302
GRIDFORMAT
  1
GRIDFORMAT_BEGIN
 90
        0
 91
        1
 62
     0
 92
       -2
340
14
 93
        0
 40
0.045
309
GRIDFORMAT_END
 95
        4
302
GRIDFORMAT
  1
GRIDFORMAT_BEGIN
 90
        0
 91
        1
 62
     0
 92
       -2
340
14
 93
        0
 40
0.045
309
GRIDFORMAT_END
 95
        8
302
GRIDFORMAT
  1
GRIDFORMAT_BEGIN
 90
        0
 91
        1
 62
     0
 92
       -2
340
14
 93
        0
 40
0.045
309
GRIDFORMAT_END
 95
       16
302
GRIDFORMAT
  1
GRIDFORMAT_BEGIN
 90
        0
 91
        1
 62
     0
 92
       -2
340
14
 93
        0
 40
0.045
309
GRIDFORMAT_END
 95
       32
302
GRIDFORMAT
  1
GRIDFORMAT_BEGIN
 90
        0
 91
        1
 62
     0
 92
       -2
340
14
 93
        0
 40
0.045
309
GRIDFORMAT_END
309
TABLEFORMAT_END
  1
CELLSTYLE_BEGIN
 90
        2
 91
        1
300
_HEADER
309
CELLSTYLE_END
300
CELLSTYLE
  1
TABLEFORMAT_BEGIN
 90
        5
170
     1
 91
        0
 92
        0
 62
   257
 93
        1
300
CONTENTFORMAT
  1
CONTENTFORMAT_BEGIN
 90
        0
 91
        0
 92
        4
 93
        0
300

 40
0.0
140
1.0
 94
        2
 62
     0
340
11
144
0.18
309
CONTENTFORMAT_END
171
     1
301
MARGIN
  1
CELLMARGIN_BEGIN
 40
0.06
 40
0.06
 40
0.06
 40
0.06
 40
0.06
 40
0.06
309
CELLMARGIN_END
 94
        6
 95
        1
302
GRIDFORMAT
  1
GRIDFORMAT_BEGIN
 90
        0
 91
        1
 62
     0
 92
       -2
340
14
 93
        0
 40
0.045
309
GRIDFORMAT_END
 95
        2
302
GRIDFORMAT
  1
GRIDFORMAT_BEGIN
 90
        0
 91
        1
 62
     0
 92
       -2
340
14
 93
        0
 40
0.045
309
GRIDFORMAT_END
 95
        4
302
GRIDFORMAT
  1
GRIDFORMAT_BEGIN
 90
        0
 91
        1
 62
     0
 92
       -2
340
14
 93
        0
 40
0.045
309
GRIDFORMAT_END
 95
        8
302
GRIDFORMAT
  1
GRIDFORMAT_BEGIN
 90
        0
 91
        1
 62
     0
 92
       -2
340
14
 93
        0
 40
0.045
309
GRIDFORMAT_END
 95
       16
302
GRIDFORMAT
  1
GRIDFORMAT_BEGIN
 90
        0
 91
        1
 62
     0
 92
       -2
340
14
 93
        0
 40
0.045
309
GRIDFORMAT_END
 95
       32
302
GRIDFORMAT
  1
GRIDFORMAT_BEGIN
 90
        0
 91
        1
 62
     0
 92
       -2
340
14
 93
        0
 40
0.045
309
GRIDFORMAT_END
309
TABLEFORMAT_END
  1
CELLSTYLE_BEGIN
 90
        3
 91
        2
300
_DATA
309
CELLSTYLE_END
  0
XRECORD
  5
A89
102
{ACAD_REACTORS
330
A88
102
}
330
A88
100
AcDbXrecord
280
     1
102
ACAD_ROUNDTRIP_PRE2007_TABLESTYLE
 90
        4
 91
        0
  1

 92
        4
 93
        0
  2

 94
        4
 95
        0
  3

  0
XRECORD
  5
A5B
102
{ACAD_REACTORS
330
A5A
102
}
330
A5A
100
AcDbXrecord
280
     1
102
RTVSPropertyOp0
 70
     1
102
RTVSPropertyOp1
 70
     1
102
RTVSPropertyOp2
 70
     1
102
RTVSPropertyOp3
 70
     1
102
RTVSPropertyOp4
 70
     1
102
RTVSPropertyOp5
 70
     1
102
RTVSPropertyOp6
 70
     1
102
RTVSPropertyOp7
 70
     1
102
RTVSPropertyOp8
 70
     1
102
RTVSPropertyOp9
 70
     1
102
RTVSPropertyOp10
 70
     1
102
RTVSPropertyOp11
 70
     1
102
RTVSPropertyOp12
 70
     1
102
RTVSPropertyOp13
 70
     1
102
RTVSPropertyOp14
 70
     1
102
RTVSPropertyOp15
 70
     1
102
RTVSPropertyOp16
 70
     1
102
RTVSPropertyOp17
 70
     1
102
RTVSPropertyOp18
 70
     1
102
RTVSPropertyOp19
 70
     1
102
RTVSPropertyOp20
 70
     1
102
RTVSPropertyOp21
 70
     1
102
RTVSPropertyOp22
 70
     1
102
RTVSPropertyOp23
 70
     1
102
RTVSPropertyOp24
 70
     1
102
RTVSPropertyOp25
 70
     1
102
RTVSPropertyOp26
 70
     1
102
RTVSPropertyOp27
 70
     1
102
RTVSPropertyOp28
 70
     1
102
RTVSPropertyOp29
 70
     1
102
RTVSPropertyOp30
 70
     1
102
RTVSPropertyOp31
 70
     1
102
RTVSPropertyOp32
 70
     1
102
RTVSPropertyOp33
 70
     1
102
RTVSPropertyOp34
 70
     1
102
RTVSPropertyOp35
 70
     1
102
RTVSPropertyOp36
 70
     1
102
RTVSPropertyOp37
 70
     1
102
RTVSPropertyOp38
 70
     1
102
RTVSPropertyOp39
 70
     1
102
RTVSPropertyOp40
 70
     1
102
RTVSPropertyOp41
 70
     1
102
RTVSPropertyOp42
 70
     1
102
RTVSPropertyOp43
 70
     1
102
RTVSPropertyOp44
 70
     1
102
RTVSPropertyOp45
 70
     1
102
RTVSPropertyOp46
 70
     1
102
RTVSPropertyOp47
 70
     1
102
RTVSPropertyOp48
 70
     1
102
RTVSPropertyOp49
 70
     1
102
RTVSPropertyOp50
 70
     1
102
RTVSPropertyOp51
 70
     0
102
RTVSPropertyOp52
 70
     0
102
RTVSPropertyOp53
 70
     1
102
RTVSPropertyOp54
 70
     1
102
RTVSPropertyOp55
 70
     1
102
RTVSPropertyOp56
 70
     1
102
RTVSPropertyOp57
 70
     1
102
RTVSPost2010Prop28
280
     1
102
RTVSPost2010PropOp28
 70
     1
102
RTVSPost2010Prop29
280
     1
102
RTVSPost2010PropOp29
 70
     1
102
RTVSPost2010Prop30
280
     0
102
RTVSPost2010PropOp30
 70
     1
102
RTVSPost2010Prop31
280
     0
102
RTVSPost2010PropOp31
 70
     1
102
RTVSPost2010Prop32
280
     0
102
RTVSPost2010PropOp32
 70
     1
102
RTVSPost2010Prop33
280
     0
102
RTVSPost2010PropOp33
 70
     1
102
RTVSPost2010Prop34
280
     0
102
RTVSPost2010PropOp34
 70
     1
102
RTVSPost2010Prop35
280
     0
102
RTVSPost2010PropOp35
 70
     1
102
RTVSPost2010Prop36
280
     0
102
RTVSPost2010PropOp36
 70
     1
102
RTVSPost2010Prop37
 90
       50
102
RTVSPost2010PropOp37
 70
     1
102
RTVSPost2010Prop38
140
0.0
102
RTVSPost2010PropOp38
 70
     1
102
RTVSPost2010Prop39
140
1.0
102
RTVSPost2010PropOp39
 70
     1
102
RTVSPost2010Prop40
 90
        0
102
RTVSPost2010PropOp40
 70
     1
102
RTVSPost2010Prop41ColorIndex
 90
       18
102
RTVSPost2010Prop41ColorRGB
 90
        0
102
RTVSPost2010PropOp41
 70
     1
102
RTVSPost2010Prop42
 90
       50
102
RTVSPost2010PropOp42
 70
     1
102
RTVSPost2010Prop43
 90
        3
102
RTVSPost2010PropOp43
 70
     1
102
RTVSPost2010Prop44ColorIndex
 90
        5
102
RTVSPost2010Prop44ColorRGB
 90
      255
102
RTVSPost2010PropOp44
 70
     1
102
RTVSPost2010Prop45
280
     0
102
RTVSPost2010PropOp45
 70
     1
102
RTVSPost2010Prop46
 90
       50
102
RTVSPost2010PropOp46
 70
     1
102
RTVSPost2010Prop47
 90
       50
102
RTVSPost2010PropOp47
 70
     1
102
RTVSPost2010Prop48
 90
       50
102
RTVSPost2010PropOp48
 70
     1
102
RTVSPost2010Prop49
280
     0
102
RTVSPost2010PropOp49
 70
     1
102
RTVSPost2010Prop50
 90
       50
102
RTVSPost2010PropOp50
 70
     1
102
RTVSPost2010Prop51ColorIndex
 90
      256
102
RTVSPost2010Prop51ColorRGB
 90
-16777216
102
RTVSPost2010PropOp51
 70
     0
102
RTVSPost2010Prop52
140
1.0
102
RTVSPost2010PropOp52
 70
     0
102
RTVSPost2010Prop53
 90
        2
102
RTVSPost2010PropOp53
 70
     1
102
RTVSPost2010Prop54
  1
strokes_ogs.tif
102
RTVSPost2010PropOp54
 70
     1
102
RTVSPost2010Prop55
280
     0
102
RTVSPost2010PropOp55
 70
     1
102
RTVSPost2010Prop56
140
1.0
102
RTVSPost2010PropOp56
 70
     1
102
RTVSPost2010Prop57
140
1.0
102
RTVSPost2010PropOp57
 70
     1
  0
XRECORD
  5
A61
102
{ACAD_REACTORS
330
A60
102
}
330
A60
100
AcDbXrecord
280
     1
102
RTVSPropertyOp0
 70
     1
102
RTVSPropertyOp1
 70
     1
102
RTVSPropertyOp2
 70
     1
102
RTVSPropertyOp3
 70
     1
102
RTVSPropertyOp4
 70
     1
102
RTVSPropertyOp5
 70
     1
102
RTVSPropertyOp6
 70
     1
102
RTVSPropertyOp7
 70
     1
102
RTVSPropertyOp8
 70
     1
102
RTVSPropertyOp9
 70
     1
102
RTVSPropertyOp10
 70
     1
102
RTVSPropertyOp11
 70
     1
102
RTVSPropertyOp12
 70
     1
102
RTVSPropertyOp13
 70
     1
102
RTVSPropertyOp14
 70
     1
102
RTVSPropertyOp15
 70
     1
102
RTVSPropertyOp16
 70
     1
102
RTVSPropertyOp17
 70
     1
102
RTVSPropertyOp18
 70
     1
102
RTVSPropertyOp19
 70
     1
102
RTVSPropertyOp20
 70
     1
102
RTVSPropertyOp21
 70
     1
102
RTVSPropertyOp22
 70
     1
102
RTVSPropertyOp23
 70
     1
102
RTVSPropertyOp24
 70
     1
102
RTVSPropertyOp25
 70
     1
102
RTVSPropertyOp26
 70
     1
102
RTVSPropertyOp27
 70
     1
102
RTVSPropertyOp28
 70
     1
102
RTVSPropertyOp29
 70
     1
102
RTVSPropertyOp30
 70
     1
102
RTVSPropertyOp31
 70
     1
102
RTVSPropertyOp32
 70
     1
102
RTVSPropertyOp33
 70
     1
102
RTVSPropertyOp34
 70
     1
102
RTVSPropertyOp35
 70
     1
102
RTVSPropertyOp36
 70
     1
102
RTVSPropertyOp37
 70
     1
102
RTVSPropertyOp38
 70
     1
102
RTVSPropertyOp39
 70
     1
102
RTVSPropertyOp40
 70
     1
102
RTVSPropertyOp41
 70
     1
102
RTVSPropertyOp42
 70
     1
102
RTVSPropertyOp43
 70
     1
102
RTVSPropertyOp44
 70
     1
102
RTVSPropertyOp45
 70
     1
102
RTVSPropertyOp46
 70
     1
102
RTVSPropertyOp47
 70
     1
102
RTVSPropertyOp48
 70
     1
102
RTVSPropertyOp49
 70
     1
102
RTVSPropertyOp50
 70
     1
102
RTVSPropertyOp51
 70
     0
102
RTVSPropertyOp52
 70
     0
102
RTVSPropertyOp53
 70
     1
102
RTVSPropertyOp54
 70
     1
102
RTVSPropertyOp55
 70
     1
102
RTVSPropertyOp56
 70
     1
102
RTVSPropertyOp57
 70
     1
102
RTVSPost2010Prop28
280
     0
102
RTVSPost2010PropOp28
 70
     1
102
RTVSPost2010Prop29
280
     1
102
RTVSPost2010PropOp29
 70
     1
102
RTVSPost2010Prop30
280
     1
102
RTVSPost2010PropOp30
 70
     1
102
RTVSPost2010Prop31
280
     0
102
RTVSPost2010PropOp31
 70
     1
102
RTVSPost2010Prop32
280
     0
102
RTVSPost2010PropOp32
 70
     1
102
RTVSPost2010Prop33
280
     0
102
RTVSPost2010PropOp33
 70
     1
102
RTVSPost2010Prop34
280
     0
102
RTVSPost2010PropOp34
 70
     1
102
RTVSPost2010Prop35
280
     0
102
RTVSPost2010PropOp35
 70
     1
102
RTVSPost2010Prop36
280
     0
102
RTVSPost2010PropOp36
 70
     1
102
RTVSPost2010Prop37
 90
       50
102
RTVSPost2010PropOp37
 70
     1
102
RTVSPost2010Prop38
140
0.0
102
RTVSPost2010PropOp38
 70
     1
102
RTVSPost2010Prop39
140
1.0
102
RTVSPost2010PropOp39
 70
     1
102
RTVSPost2010Prop40
 90
        0
102
RTVSPost2010PropOp40
 70
     1
102
RTVSPost2010Prop41ColorIndex
 90
       18
102
RTVSPost2010Prop41ColorRGB
 90
        0
102
RTVSPost2010PropOp41
 70
     1
102
RTVSPost2010Prop42
 90
       50
102
RTVSPost2010PropOp42
 70
     1
102
RTVSPost2010Prop43
 90
        3
102
RTVSPost2010PropOp43
 70
     1
102
RTVSPost2010Prop44ColorIndex
 90
        5
102
RTVSPost2010Prop44ColorRGB
 90
      255
102
RTVSPost2010PropOp44
 70
     1
102
RTVSPost2010Prop45
280
     0
102
RTVSPost2010PropOp45
 70
     1
102
RTVSPost2010Prop46
 90
       50
102
RTVSPost2010PropOp46
 70
     1
102
RTVSPost2010Prop47
 90
       50
102
RTVSPost2010PropOp47
 70
     1
102
RTVSPost2010Prop48
 90
       50
102
RTVSPost2010PropOp48
 70
     1
102
RTVSPost2010Prop49
280
     0
102
RTVSPost2010PropOp49
 70
     1
102
RTVSPost2010Prop50
 90
       50
102
RTVSPost2010PropOp50
 70
     1
102
RTVSPost2010Prop51ColorIndex
 90
      256
102
RTVSPost2010Prop51ColorRGB
 90
-16777216
102
RTVSPost2010PropOp51
 70
     0
102
RTVSPost2010Prop52
140
1.0
102
RTVSPost2010PropOp52
 70
     0
102
RTVSPost2010Prop53
 90
        2
102
RTVSPost2010PropOp53
 70
     1
102
RTVSPost2010Prop54
  1
strokes_ogs.tif
102
RTVSPost2010PropOp54
 70
     1
102
RTVSPost2010Prop55
280
     0
102
RTVSPost2010PropOp55
 70
     1
102
RTVSPost2010Prop56
140
1.0
102
RTVSPost2010PropOp56
 70
     1
102
RTVSPost2010Prop57
140
1.0
102
RTVSPost2010PropOp57
 70
     1
  0
XRECORD
  5
A69
102
{ACAD_REACTORS
330
A68
102
}
330
A68
100
AcDbXrecord
280
     1
102
RTVSPropertyOp0
 70
     1
102
RTVSPropertyOp1
 70
     1
102
RTVSPropertyOp2
 70
     1
102
RTVSPropertyOp3
 70
     1
102
RTVSPropertyOp4
 70
     1
102
RTVSPropertyOp5
 70
     1
102
RTVSPropertyOp6
 70
     1
102
RTVSPropertyOp7
 70
     1
102
RTVSPropertyOp8
 70
     1
102
RTVSPropertyOp9
 70
     1
102
RTVSPropertyOp10
 70
     1
102
RTVSPropertyOp11
 70
     1
102
RTVSPropertyOp12
 70
     1
102
RTVSPropertyOp13
 70
     1
102
RTVSPropertyOp14
 70
     1
102
RTVSPropertyOp15
 70
     1
102
RTVSPropertyOp16
 70
     1
102
RTVSPropertyOp17
 70
     1
102
RTVSPropertyOp18
 70
     1
102
RTVSPropertyOp19
 70
     1
102
RTVSPropertyOp20
 70
     1
102
RTVSPropertyOp21
 70
     1
102
RTVSPropertyOp22
 70
     1
102
RTVSPropertyOp23
 70
     1
102
RTVSPropertyOp24
 70
     1
102
RTVSPropertyOp25
 70
     1
102
RTVSPropertyOp26
 70
     1
102
RTVSPropertyOp27
 70
     1
102
RTVSPropertyOp28
 70
     1
102
RTVSPropertyOp29
 70
     1
102
RTVSPropertyOp30
 70
     1
102
RTVSPropertyOp31
 70
     1
102
RTVSPropertyOp32
 70
     1
102
RTVSPropertyOp33
 70
     1
102
RTVSPropertyOp34
 70
     1
102
RTVSPropertyOp35
 70
     1
102
RTVSPropertyOp36
 70
     1
102
RTVSPropertyOp37
 70
     1
102
RTVSPropertyOp38
 70
     1
102
RTVSPropertyOp39
 70
     1
102
RTVSPropertyOp40
 70
     1
102
RTVSPropertyOp41
 70
     1
102
RTVSPropertyOp42
 70
     1
102
RTVSPropertyOp43
 70
     1
102
RTVSPropertyOp44
 70
     1
102
RTVSPropertyOp45
 70
     1
102
RTVSPropertyOp46
 70
     1
102
RTVSPropertyOp47
 70
     1
102
RTVSPropertyOp48
 70
     1
102
RTVSPropertyOp49
 70
     1
102
RTVSPropertyOp50
 70
     1
102
RTVSPropertyOp51
 70
     0
102
RTVSPropertyOp52
 70
     0
102
RTVSPropertyOp53
 70
     1
102
RTVSPropertyOp54
 70
     1
102
RTVSPropertyOp55
 70
     1
102
RTVSPropertyOp56
 70
     1
102
RTVSPropertyOp57
 70
     1
102
RTVSPost2010Prop28
280
     0
102
RTVSPost2010PropOp28
 70
     1
102
RTVSPost2010Prop29
280
     1
102
RTVSPost2010PropOp29
 70
     1
102
RTVSPost2010Prop30
280
     1
102
RTVSPost2010PropOp30
 70
     1
102
RTVSPost2010Prop31
280
     0
102
RTVSPost2010PropOp31
 70
     1
102
RTVSPost2010Prop32
280
     0
102
RTVSPost2010PropOp32
 70
     1
102
RTVSPost2010Prop33
280
     0
102
RTVSPost2010PropOp33
 70
     1
102
RTVSPost2010Prop34
280
     0
102
RTVSPost2010PropOp34
 70
     1
102
RTVSPost2010Prop35
280
     0
102
RTVSPost2010PropOp35
 70
     1
102
RTVSPost2010Prop36
280
     0
102
RTVSPost2010PropOp36
 70
     1
102
RTVSPost2010Prop37
 90
       50
102
RTVSPost2010PropOp37
 70
     1
102
RTVSPost2010Prop38
140
0.0
102
RTVSPost2010PropOp38
 70
     1
102
RTVSPost2010Prop39
140
1.0
102
RTVSPost2010PropOp39
 70
     1
102
RTVSPost2010Prop40
 90
        0
102
RTVSPost2010PropOp40
 70
     1
102
RTVSPost2010Prop41ColorIndex
 90
       18
102
RTVSPost2010Prop41ColorRGB
 90
        0
102
RTVSPost2010PropOp41
 70
     1
102
RTVSPost2010Prop42
 90
       50
102
RTVSPost2010PropOp42
 70
     1
102
RTVSPost2010Prop43
 90
        3
102
RTVSPost2010PropOp43
 70
     1
102
RTVSPost2010Prop44ColorIndex
 90
        5
102
RTVSPost2010Prop44ColorRGB
 90
      255
102
RTVSPost2010PropOp44
 70
     1
102
RTVSPost2010Prop45
280
     0
102
RTVSPost2010PropOp45
 70
     1
102
RTVSPost2010Prop46
 90
       50
102
RTVSPost2010PropOp46
 70
     1
102
RTVSPost2010Prop47
 90
       50
102
RTVSPost2010PropOp47
 70
     1
102
RTVSPost2010Prop48
 90
       50
102
RTVSPost2010PropOp48
 70
     1
102
RTVSPost2010Prop49
280
     0
102
RTVSPost2010PropOp49
 70
     1
102
RTVSPost2010Prop50
 90
       50
102
RTVSPost2010PropOp50
 70
     1
102
RTVSPost2010Prop51ColorIndex
 90
      256
102
RTVSPost2010Prop51ColorRGB
 90
-16777216
102
RTVSPost2010PropOp51
 70
     0
102
RTVSPost2010Prop52
140
1.0
102
RTVSPost2010PropOp52
 70
     0
102
RTVSPost2010Prop53
 90
        2
102
RTVSPost2010PropOp53
 70
     1
102
RTVSPost2010Prop54
  1
strokes_ogs.tif
102
RTVSPost2010PropOp54
 70
     1
102
RTVSPost2010Prop55
280
     0
102
RTVSPost2010PropOp55
 70
     1
102
RTVSPost2010Prop56
140
1.0
102
RTVSPost2010PropOp56
 70
     1
102
RTVSPost2010Prop57
140
1.0
102
RTVSPost2010PropOp57
 70
     1
  0
XRECORD
  5
A71
102
{ACAD_REACTORS
330
A70
102
}
330
A70
100
AcDbXrecord
280
     1
102
RTVSPropertyOp0
 70
     1
102
RTVSPropertyOp1
 70
     1
102
RTVSPropertyOp2
 70
     1
102
RTVSPropertyOp3
 70
     1
102
RTVSPropertyOp4
 70
     1
102
RTVSPropertyOp5
 70
     1
102
RTVSPropertyOp6
 70
     1
102
RTVSPropertyOp7
 70
     1
102
RTVSPropertyOp8
 70
     1
102
RTVSPropertyOp9
 70
     1
102
RTVSPropertyOp10
 70
     1
102
RTVSPropertyOp11
 70
     1
102
RTVSPropertyOp12
 70
     1
102
RTVSPropertyOp13
 70
     1
102
RTVSPropertyOp14
 70
     1
102
RTVSPropertyOp15
 70
     1
102
RTVSPropertyOp16
 70
     1
102
RTVSPropertyOp17
 70
     1
102
RTVSPropertyOp18
 70
     1
102
RTVSPropertyOp19
 70
     1
102
RTVSPropertyOp20
 70
     1
102
RTVSPropertyOp21
 70
     1
102
RTVSPropertyOp22
 70
     1
102
RTVSPropertyOp23
 70
     1
102
RTVSPropertyOp24
 70
     1
102
RTVSPropertyOp25
 70
     1
102
RTVSPropertyOp26
 70
     1
102
RTVSPropertyOp27
 70
     1
102
RTVSPropertyOp28
 70
     1
102
RTVSPropertyOp29
 70
     1
102
RTVSPropertyOp30
 70
     1
102
RTVSPropertyOp31
 70
     1
102
RTVSPropertyOp32
 70
     1
102
RTVSPropertyOp33
 70
     1
102
RTVSPropertyOp34
 70
     1
102
RTVSPropertyOp35
 70
     1
102
RTVSPropertyOp36
 70
     1
102
RTVSPropertyOp37
 70
     1
102
RTVSPropertyOp38
 70
     1
102
RTVSPropertyOp39
 70
     1
102
RTVSPropertyOp40
 70
     1
102
RTVSPropertyOp41
 70
     1
102
RTVSPropertyOp42
 70
     1
102
RTVSPropertyOp43
 70
     1
102
RTVSPropertyOp44
 70
     1
102
RTVSPropertyOp45
 70
     1
102
RTVSPropertyOp46
 70
     1
102
RTVSPropertyOp47
 70
     1
102
RTVSPropertyOp48
 70
     1
102
RTVSPropertyOp49
 70
     1
102
RTVSPropertyOp50
 70
     1
102
RTVSPropertyOp51
 70
     0
102
RTVSPropertyOp52
 70
     0
102
RTVSPropertyOp53
 70
     1
102
RTVSPropertyOp54
 70
     1
102
RTVSPropertyOp55
 70
     1
102
RTVSPropertyOp56
 70
     1
102
RTVSPropertyOp57
 70
     1
102
RTVSPost2010Prop28
280
     0
102
RTVSPost2010PropOp28
 70
     1
102
RTVSPost2010Prop29
280
     1
102
RTVSPost2010PropOp29
 70
     1
102
RTVSPost2010Prop30
280
     1
102
RTVSPost2010PropOp30
 70
     1
102
RTVSPost2010Prop31
280
     0
102
RTVSPost2010PropOp31
 70
     1
102
RTVSPost2010Prop32
280
     0
102
RTVSPost2010PropOp32
 70
     1
102
RTVSPost2010Prop33
280
     0
102
RTVSPost2010PropOp33
 70
     1
102
RTVSPost2010Prop34
280
     0
102
RTVSPost2010PropOp34
 70
     1
102
RTVSPost2010Prop35
280
     0
102
RTVSPost2010PropOp35
 70
     1
102
RTVSPost2010Prop36
280
     0
102
RTVSPost2010PropOp36
 70
     1
102
RTVSPost2010Prop37
 90
       50
102
RTVSPost2010PropOp37
 70
     1
102
RTVSPost2010Prop38
140
0.0
102
RTVSPost2010PropOp38
 70
     1
102
RTVSPost2010Prop39
140
1.0
102
RTVSPost2010PropOp39
 70
     1
102
RTVSPost2010Prop40
 90
        0
102
RTVSPost2010PropOp40
 70
     1
102
RTVSPost2010Prop41ColorIndex
 90
       18
102
RTVSPost2010Prop41ColorRGB
 90
        0
102
RTVSPost2010PropOp41
 70
     1
102
RTVSPost2010Prop42
 90
       50
102
RTVSPost2010PropOp42
 70
     1
102
RTVSPost2010Prop43
 90
        3
102
RTVSPost2010PropOp43
 70
     1
102
RTVSPost2010Prop44ColorIndex
 90
        5
102
RTVSPost2010Prop44ColorRGB
 90
      255
102
RTVSPost2010PropOp44
 70
     1
102
RTVSPost2010Prop45
280
     0
102
RTVSPost2010PropOp45
 70
     1
102
RTVSPost2010Prop46
 90
       50
102
RTVSPost2010PropOp46
 70
     1
102
RTVSPost2010Prop47
 90
       50
102
RTVSPost2010PropOp47
 70
     1
102
RTVSPost2010Prop48
 90
       50
102
RTVSPost2010PropOp48
 70
     1
102
RTVSPost2010Prop49
280
     0
102
RTVSPost2010PropOp49
 70
     1
102
RTVSPost2010Prop50
 90
       50
102
RTVSPost2010PropOp50
 70
     1
102
RTVSPost2010Prop51ColorIndex
 90
      256
102
RTVSPost2010Prop51ColorRGB
 90
-16777216
102
RTVSPost2010PropOp51
 70
     0
102
RTVSPost2010Prop52
140
1.0
102
RTVSPost2010PropOp52
 70
     0
102
RTVSPost2010Prop53
 90
        2
102
RTVSPost2010PropOp53
 70
     1
102
RTVSPost2010Prop54
  1
strokes_ogs.tif
102
RTVSPost2010PropOp54
 70
     1
102
RTVSPost2010Prop55
280
     0
102
RTVSPost2010PropOp55
 70
     1
102
RTVSPost2010Prop56
140
1.0
102
RTVSPost2010PropOp56
 70
     1
102
RTVSPost2010Prop57
140
1.0
102
RTVSPost2010PropOp57
 70
     1
  0
XRECORD
  5
A65
102
{ACAD_REACTORS
330
A64
102
}
330
A64
100
AcDbXrecord
280
     1
102
RTVSPropertyOp0
 70
     1
102
RTVSPropertyOp1
 70
     1
102
RTVSPropertyOp2
 70
     1
102
RTVSPropertyOp3
 70
     1
102
RTVSPropertyOp4
 70
     1
102
RTVSPropertyOp5
 70
     1
102
RTVSPropertyOp6
 70
     1
102
RTVSPropertyOp7
 70
     1
102
RTVSPropertyOp8
 70
     1
102
RTVSPropertyOp9
 70
     1
102
RTVSPropertyOp10
 70
     1
102
RTVSPropertyOp11
 70
     1
102
RTVSPropertyOp12
 70
     1
102
RTVSPropertyOp13
 70
     1
102
RTVSPropertyOp14
 70
     1
102
RTVSPropertyOp15
 70
     1
102
RTVSPropertyOp16
 70
     1
102
RTVSPropertyOp17
 70
     1
102
RTVSPropertyOp18
 70
     1
102
RTVSPropertyOp19
 70
     1
102
RTVSPropertyOp20
 70
     1
102
RTVSPropertyOp21
 70
     1
102
RTVSPropertyOp22
 70
     1
102
RTVSPropertyOp23
 70
     1
102
RTVSPropertyOp24
 70
     1
102
RTVSPropertyOp25
 70
     1
102
RTVSPropertyOp26
 70
     1
102
RTVSPropertyOp27
 70
     1
102
RTVSPropertyOp28
 70
     1
102
RTVSPropertyOp29
 70
     1
102
RTVSPropertyOp30
 70
     1
102
RTVSPropertyOp31
 70
     1
102
RTVSPropertyOp32
 70
     1
102
RTVSPropertyOp33
 70
     1
102
RTVSPropertyOp34
 70
     1
102
RTVSPropertyOp35
 70
     1
102
RTVSPropertyOp36
 70
     1
102
RTVSPropertyOp37
 70
     1
102
RTVSPropertyOp38
 70
     1
102
RTVSPropertyOp39
 70
     1
102
RTVSPropertyOp40
 70
     1
102
RTVSPropertyOp41
 70
     1
102
RTVSPropertyOp42
 70
     1
102
RTVSPropertyOp43
 70
     1
102
RTVSPropertyOp44
 70
     1
102
RTVSPropertyOp45
 70
     1
102
RTVSPropertyOp46
 70
     1
102
RTVSPropertyOp47
 70
     1
102
RTVSPropertyOp48
 70
     1
102
RTVSPropertyOp49
 70
     1
102
RTVSPropertyOp50
 70
     1
102
RTVSPropertyOp51
 70
     0
102
RTVSPropertyOp52
 70
     0
102
RTVSPropertyOp53
 70
     1
102
RTVSPropertyOp54
 70
     1
102
RTVSPropertyOp55
 70
     1
102
RTVSPropertyOp56
 70
     1
102
RTVSPropertyOp57
 70
     1
102
RTVSPost2010Prop28
280
     0
102
RTVSPost2010PropOp28
 70
     1
102
RTVSPost2010Prop29
280
     1
102
RTVSPost2010PropOp29
 70
     1
102
RTVSPost2010Prop30
280
     1
102
RTVSPost2010PropOp30
 70
     1
102
RTVSPost2010Prop31
280
     0
102
RTVSPost2010PropOp31
 70
     1
102
RTVSPost2010Prop32
280
     0
102
RTVSPost2010PropOp32
 70
     1
102
RTVSPost2010Prop33
280
     0
102
RTVSPost2010PropOp33
 70
     1
102
RTVSPost2010Prop34
280
     0
102
RTVSPost2010PropOp34
 70
     1
102
RTVSPost2010Prop35
280
     0
102
RTVSPost2010PropOp35
 70
     1
102
RTVSPost2010Prop36
280
     0
102
RTVSPost2010PropOp36
 70
     1
102
RTVSPost2010Prop37
 90
       50
102
RTVSPost2010PropOp37
 70
     1
102
RTVSPost2010Prop38
140
0.0
102
RTVSPost2010PropOp38
 70
     1
102
RTVSPost2010Prop39
140
1.0
102
RTVSPost2010PropOp39
 70
     1
102
RTVSPost2010Prop40
 90
        0
102
RTVSPost2010PropOp40
 70
     1
102
RTVSPost2010Prop41ColorIndex
 90
       18
102
RTVSPost2010Prop41ColorRGB
 90
        0
102
RTVSPost2010PropOp41
 70
     1
102
RTVSPost2010Prop42
 90
       50
102
RTVSPost2010PropOp42
 70
     1
102
RTVSPost2010Prop43
 90
        3
102
RTVSPost2010PropOp43
 70
     1
102
RTVSPost2010Prop44ColorIndex
 90
        5
102
RTVSPost2010Prop44ColorRGB
 90
      255
102
RTVSPost2010PropOp44
 70
     1
102
RTVSPost2010Prop45
280
     0
102
RTVSPost2010PropOp45
 70
     1
102
RTVSPost2010Prop46
 90
       50
102
RTVSPost2010PropOp46
 70
     1
102
RTVSPost2010Prop47
 90
       50
102
RTVSPost2010PropOp47
 70
     1
102
RTVSPost2010Prop48
 90
       50
102
RTVSPost2010PropOp48
 70
     1
102
RTVSPost2010Prop49
280
     0
102
RTVSPost2010PropOp49
 70
     1
102
RTVSPost2010Prop50
 90
       50
102
RTVSPost2010PropOp50
 70
     1
102
RTVSPost2010Prop51ColorIndex
 90
      256
102
RTVSPost2010Prop51ColorRGB
 90
-16777216
102
RTVSPost2010PropOp51
 70
     0
102
RTVSPost2010Prop52
140
1.0
102
RTVSPost2010PropOp52
 70
     0
102
RTVSPost2010Prop53
 90
        2
102
RTVSPost2010PropOp53
 70
     1
102
RTVSPost2010Prop54
  1
strokes_ogs.tif
102
RTVSPost2010PropOp54
 70
     1
102
RTVSPost2010Prop55
280
     0
102
RTVSPost2010PropOp55
 70
     1
102
RTVSPost2010Prop56
140
1.0
102
RTVSPost2010PropOp56
 70
     1
102
RTVSPost2010Prop57
140
1.0
102
RTVSPost2010PropOp57
 70
     1
  0
XRECORD
  5
A67
102
{ACAD_REACTORS
330
A66
102
}
330
A66
100
AcDbXrecord
280
     1
102
RTVSPropertyOp0
 70
     1
102
RTVSPropertyOp1
 70
     1
102
RTVSPropertyOp2
 70
     1
102
RTVSPropertyOp3
 70
     1
102
RTVSPropertyOp4
 70
     1
102
RTVSPropertyOp5
 70
     1
102
RTVSPropertyOp6
 70
     1
102
RTVSPropertyOp7
 70
     1
102
RTVSPropertyOp8
 70
     1
102
RTVSPropertyOp9
 70
     1
102
RTVSPropertyOp10
 70
     1
102
RTVSPropertyOp11
 70
     1
102
RTVSPropertyOp12
 70
     1
102
RTVSPropertyOp13
 70
     1
102
RTVSPropertyOp14
 70
     1
102
RTVSPropertyOp15
 70
     1
102
RTVSPropertyOp16
 70
     1
102
RTVSPropertyOp17
 70
     1
102
RTVSPropertyOp18
 70
     1
102
RTVSPropertyOp19
 70
     1
102
RTVSPropertyOp20
 70
     1
102
RTVSPropertyOp21
 70
     1
102
RTVSPropertyOp22
 70
     1
102
RTVSPropertyOp23
 70
     1
102
RTVSPropertyOp24
 70
     1
102
RTVSPropertyOp25
 70
     1
102
RTVSPropertyOp26
 70
     1
102
RTVSPropertyOp27
 70
     1
102
RTVSPropertyOp28
 70
     1
102
RTVSPropertyOp29
 70
     1
102
RTVSPropertyOp30
 70
     1
102
RTVSPropertyOp31
 70
     1
102
RTVSPropertyOp32
 70
     1
102
RTVSPropertyOp33
 70
     1
102
RTVSPropertyOp34
 70
     1
102
RTVSPropertyOp35
 70
     1
102
RTVSPropertyOp36
 70
     1
102
RTVSPropertyOp37
 70
     1
102
RTVSPropertyOp38
 70
     1
102
RTVSPropertyOp39
 70
     1
102
RTVSPropertyOp40
 70
     1
102
RTVSPropertyOp41
 70
     1
102
RTVSPropertyOp42
 70
     1
102
RTVSPropertyOp43
 70
     1
102
RTVSPropertyOp44
 70
     1
102
RTVSPropertyOp45
 70
     1
102
RTVSPropertyOp46
 70
     1
102
RTVSPropertyOp47
 70
     1
102
RTVSPropertyOp48
 70
     1
102
RTVSPropertyOp49
 70
     1
102
RTVSPropertyOp50
 70
     1
102
RTVSPropertyOp51
 70
     0
102
RTVSPropertyOp52
 70
     0
102
RTVSPropertyOp53
 70
     1
102
RTVSPropertyOp54
 70
     1
102
RTVSPropertyOp55
 70
     1
102
RTVSPropertyOp56
 70
     1
102
RTVSPropertyOp57
 70
     1
102
RTVSPost2010Prop28
280
     0
102
RTVSPost2010PropOp28
 70
     1
102
RTVSPost2010Prop29
280
     1
102
RTVSPost2010PropOp29
 70
     1
102
RTVSPost2010Prop30
280
     1
102
RTVSPost2010PropOp30
 70
     1
102
RTVSPost2010Prop31
280
     0
102
RTVSPost2010PropOp31
 70
     1
102
RTVSPost2010Prop32
280
     0
102
RTVSPost2010PropOp32
 70
     1
102
RTVSPost2010Prop33
280
     0
102
RTVSPost2010PropOp33
 70
     1
102
RTVSPost2010Prop34
280
     0
102
RTVSPost2010PropOp34
 70
     1
102
RTVSPost2010Prop35
280
     0
102
RTVSPost2010PropOp35
 70
     1
102
RTVSPost2010Prop36
280
     0
102
RTVSPost2010PropOp36
 70
     1
102
RTVSPost2010Prop37
 90
       50
102
RTVSPost2010PropOp37
 70
     1
102
RTVSPost2010Prop38
140
0.0
102
RTVSPost2010PropOp38
 70
     1
102
RTVSPost2010Prop39
140
1.0
102
RTVSPost2010PropOp39
 70
     1
102
RTVSPost2010Prop40
 90
        0
102
RTVSPost2010PropOp40
 70
     1
102
RTVSPost2010Prop41ColorIndex
 90
       18
102
RTVSPost2010Prop41ColorRGB
 90
        0
102
RTVSPost2010PropOp41
 70
     1
102
RTVSPost2010Prop42
 90
       50
102
RTVSPost2010PropOp42
 70
     1
102
RTVSPost2010Prop43
 90
        3
102
RTVSPost2010PropOp43
 70
     1
102
RTVSPost2010Prop44ColorIndex
 90
        5
102
RTVSPost2010Prop44ColorRGB
 90
      255
102
RTVSPost2010PropOp44
 70
     1
102
RTVSPost2010Prop45
280
     0
102
RTVSPost2010PropOp45
 70
     1
102
RTVSPost2010Prop46
 90
       50
102
RTVSPost2010PropOp46
 70
     1
102
RTVSPost2010Prop47
 90
       50
102
RTVSPost2010PropOp47
 70
     1
102
RTVSPost2010Prop48
 90
       50
102
RTVSPost2010PropOp48
 70
     1
102
RTVSPost2010Prop49
280
     0
102
RTVSPost2010PropOp49
 70
     1
102
RTVSPost2010Prop50
 90
       50
102
RTVSPost2010PropOp50
 70
     1
102
RTVSPost2010Prop51ColorIndex
 90
      256
102
RTVSPost2010Prop51ColorRGB
 90
-16777216
102
RTVSPost2010PropOp51
 70
     0
102
RTVSPost2010Prop52
140
1.0
102
RTVSPost2010PropOp52
 70
     0
102
RTVSPost2010Prop53
 90
        2
102
RTVSPost2010PropOp53
 70
     1
102
RTVSPost2010Prop54
  1
strokes_ogs.tif
102
RTVSPost2010PropOp54
 70
     1
102
RTVSPost2010Prop55
280
     0
102
RTVSPost2010PropOp55
 70
     1
102
RTVSPost2010Prop56
140
1.0
102
RTVSPost2010PropOp56
 70
     1
102
RTVSPost2010Prop57
140
1.0
102
RTVSPost2010PropOp57
 70
     1
  0
XRECORD
  5
A77
102
{ACAD_REACTORS
330
A76
102
}
330
A76
100
AcDbXrecord
280
     1
102
RTVSPropertyOp0
 70
     0
102
RTVSPropertyOp1
 70
     0
102
RTVSPropertyOp2
 70
     0
102
RTVSPropertyOp3
 70
     0
102
RTVSPropertyOp4
 70
     0
102
RTVSPropertyOp5
 70
     0
102
RTVSPropertyOp6
 70
     0
102
RTVSPropertyOp7
 70
     0
102
RTVSPropertyOp8
 70
     0
102
RTVSPropertyOp9
 70
     0
102
RTVSPropertyOp10
 70
     0
102
RTVSPropertyOp11
 70
     0
102
RTVSPropertyOp12
 70
     0
102
RTVSPropertyOp13
 70
     0
102
RTVSPropertyOp14
 70
     2
102
RTVSPropertyOp15
 70
     0
102
RTVSPropertyOp16
 70
     0
102
RTVSPropertyOp17
 70
     0
102
RTVSPropertyOp18
 70
     0
102
RTVSPropertyOp19
 70
     0
102
RTVSPropertyOp20
 70
     0
102
RTVSPropertyOp21
 70
     0
102
RTVSPropertyOp22
 70
     0
102
RTVSPropertyOp23
 70
     0
102
RTVSPropertyOp24
 70
     0
102
RTVSPropertyOp25
 70
     0
102
RTVSPropertyOp26
 70
     0
102
RTVSPropertyOp27
 70
     0
102
RTVSPropertyOp28
 70
     0
102
RTVSPropertyOp29
 70
     0
102
RTVSPropertyOp30
 70
     0
102
RTVSPropertyOp31
 70
     0
102
RTVSPropertyOp32
 70
     0
102
RTVSPropertyOp33
 70
     0
102
RTVSPropertyOp34
 70
     0
102
RTVSPropertyOp35
 70
     0
102
RTVSPropertyOp36
 70
     0
102
RTVSPropertyOp37
 70
     0
102
RTVSPropertyOp38
 70
     0
102
RTVSPropertyOp39
 70
     0
102
RTVSPropertyOp40
 70
     0
102
RTVSPropertyOp41
 70
     0
102
RTVSPropertyOp42
 70
     0
102
RTVSPropertyOp43
 70
     0
102
RTVSPropertyOp44
 70
     0
102
RTVSPropertyOp45
 70
     0
102
RTVSPropertyOp46
 70
     0
102
RTVSPropertyOp47
 70
     0
102
RTVSPropertyOp48
 70
     0
102
RTVSPropertyOp49
 70
     0
102
RTVSPropertyOp50
 70
     0
102
RTVSPropertyOp51
 70
     0
102
RTVSPropertyOp52
 70
     0
102
RTVSPropertyOp53
 70
     0
102
RTVSPropertyOp54
 70
     0
102
RTVSPropertyOp55
 70
     0
102
RTVSPropertyOp56
 70
     0
102
RTVSPropertyOp57
 70
     0
102
RTVSPost2010Prop28
280
     0
102
RTVSPost2010PropOp28
 70
     0
102
RTVSPost2010Prop29
280
     1
102
RTVSPost2010PropOp29
 70
     0
102
RTVSPost2010Prop30
280
     1
102
RTVSPost2010PropOp30
 70
     0
102
RTVSPost2010Prop31
280
     0
102
RTVSPost2010PropOp31
 70
     0
102
RTVSPost2010Prop32
280
     0
102
RTVSPost2010PropOp32
 70
     0
102
RTVSPost2010Prop33
280
     0
102
RTVSPost2010PropOp33
 70
     0
102
RTVSPost2010Prop34
280
     0
102
RTVSPost2010PropOp34
 70
     0
102
RTVSPost2010Prop35
280
     0
102
RTVSPost2010PropOp35
 70
     0
102
RTVSPost2010Prop36
280
     0
102
RTVSPost2010PropOp36
 70
     0
102
RTVSPost2010Prop37
 90
       50
102
RTVSPost2010PropOp37
 70
     0
102
RTVSPost2010Prop38
140
0.0
102
RTVSPost2010PropOp38
 70
     0
102
RTVSPost2010Prop39
140
1.0
102
RTVSPost2010PropOp39
 70
     0
102
RTVSPost2010Prop40
 90
        0
102
RTVSPost2010PropOp40
 70
     0
102
RTVSPost2010Prop41ColorIndex
 90
       18
102
RTVSPost2010Prop41ColorRGB
 90
        0
102
RTVSPost2010PropOp41
 70
     0
102
RTVSPost2010Prop42
 90
       50
102
RTVSPost2010PropOp42
 70
     0
102
RTVSPost2010Prop43
 90
        3
102
RTVSPost2010PropOp43
 70
     0
102
RTVSPost2010Prop44ColorIndex
 90
        5
102
RTVSPost2010Prop44ColorRGB
 90
      255
102
RTVSPost2010PropOp44
 70
     0
102
RTVSPost2010Prop45
280
     0
102
RTVSPost2010PropOp45
 70
     0
102
RTVSPost2010Prop46
 90
       50
102
RTVSPost2010PropOp46
 70
     0
102
RTVSPost2010Prop47
 90
       50
102
RTVSPost2010PropOp47
 70
     0
102
RTVSPost2010Prop48
 90
       50
102
RTVSPost2010PropOp48
 70
     0
102
RTVSPost2010Prop49
280
     0
102
RTVSPost2010PropOp49
 70
     0
102
RTVSPost2010Prop50
 90
       50
102
RTVSPost2010PropOp50
 70
     0
102
RTVSPost2010Prop51ColorIndex
 90
      256
102
RTVSPost2010Prop51ColorRGB
 90
-16777216
102
RTVSPost2010PropOp51
 70
     0
102
RTVSPost2010Prop52
140
1.0
102
RTVSPost2010PropOp52
 70
     0
102
RTVSPost2010Prop53
 90
        2
102
RTVSPost2010PropOp53
 70
     0
102
RTVSPost2010Prop54
  1
strokes_ogs.tif
102
RTVSPost2010PropOp54
 70
     0
102
RTVSPost2010Prop55
280
     0
102
RTVSPost2010PropOp55
 70
     0
102
RTVSPost2010Prop56
140
1.0
102
RTVSPost2010PropOp56
 70
     0
102
RTVSPost2010Prop57
140
1.0
102
RTVSPost2010PropOp57
 70
     0
  0
XRECORD
  5
A6F
102
{ACAD_REACTORS
330
A6E
102
}
330
A6E
100
AcDbXrecord
280
     1
102
RTVSPropertyOp0
 70
     1
102
RTVSPropertyOp1
 70
     1
102
RTVSPropertyOp2
 70
     1
102
RTVSPropertyOp3
 70
     1
102
RTVSPropertyOp4
 70
     1
102
RTVSPropertyOp5
 70
     1
102
RTVSPropertyOp6
 70
     1
102
RTVSPropertyOp7
 70
     1
102
RTVSPropertyOp8
 70
     1
102
RTVSPropertyOp9
 70
     1
102
RTVSPropertyOp10
 70
     1
102
RTVSPropertyOp11
 70
     1
102
RTVSPropertyOp12
 70
     1
102
RTVSPropertyOp13
 70
     1
102
RTVSPropertyOp14
 70
     1
102
RTVSPropertyOp15
 70
     1
102
RTVSPropertyOp16
 70
     1
102
RTVSPropertyOp17
 70
     1
102
RTVSPropertyOp18
 70
     1
102
RTVSPropertyOp19
 70
     1
102
RTVSPropertyOp20
 70
     1
102
RTVSPropertyOp21
 70
     1
102
RTVSPropertyOp22
 70
     1
102
RTVSPropertyOp23
 70
     1
102
RTVSPropertyOp24
 70
     1
102
RTVSPropertyOp25
 70
     1
102
RTVSPropertyOp26
 70
     1
102
RTVSPropertyOp27
 70
     1
102
RTVSPropertyOp28
 70
     1
102
RTVSPropertyOp29
 70
     1
102
RTVSPropertyOp30
 70
     1
102
RTVSPropertyOp31
 70
     1
102
RTVSPropertyOp32
 70
     1
102
RTVSPropertyOp33
 70
     1
102
RTVSPropertyOp34
 70
     1
102
RTVSPropertyOp35
 70
     1
102
RTVSPropertyOp36
 70
     1
102
RTVSPropertyOp37
 70
     1
102
RTVSPropertyOp38
 70
     1
102
RTVSPropertyOp39
 70
     1
102
RTVSPropertyOp40
 70
     1
102
RTVSPropertyOp41
 70
     1
102
RTVSPropertyOp42
 70
     1
102
RTVSPropertyOp43
 70
     1
102
RTVSPropertyOp44
 70
     1
102
RTVSPropertyOp45
 70
     1
102
RTVSPropertyOp46
 70
     1
102
RTVSPropertyOp47
 70
     1
102
RTVSPropertyOp48
 70
     1
102
RTVSPropertyOp49
 70
     1
102
RTVSPropertyOp50
 70
     1
102
RTVSPropertyOp51
 70
     0
102
RTVSPropertyOp52
 70
     0
102
RTVSPropertyOp53
 70
     1
102
RTVSPropertyOp54
 70
     1
102
RTVSPropertyOp55
 70
     1
102
RTVSPropertyOp56
 70
     1
102
RTVSPropertyOp57
 70
     1
102
RTVSPost2010Prop28
280
     0
102
RTVSPost2010PropOp28
 70
     1
102
RTVSPost2010Prop29
280
     1
102
RTVSPost2010PropOp29
 70
     1
102
RTVSPost2010Prop30
280
     1
102
RTVSPost2010PropOp30
 70
     1
102
RTVSPost2010Prop31
280
     0
102
RTVSPost2010PropOp31
 70
     1
102
RTVSPost2010Prop32
280
     0
102
RTVSPost2010PropOp32
 70
     1
102
RTVSPost2010Prop33
280
     0
102
RTVSPost2010PropOp33
 70
     1
102
RTVSPost2010Prop34
280
     0
102
RTVSPost2010PropOp34
 70
     1
102
RTVSPost2010Prop35
280
     0
102
RTVSPost2010PropOp35
 70
     1
102
RTVSPost2010Prop36
280
     0
102
RTVSPost2010PropOp36
 70
     1
102
RTVSPost2010Prop37
 90
       50
102
RTVSPost2010PropOp37
 70
     1
102
RTVSPost2010Prop38
140
0.0
102
RTVSPost2010PropOp38
 70
     1
102
RTVSPost2010Prop39
140
1.0
102
RTVSPost2010PropOp39
 70
     1
102
RTVSPost2010Prop40
 90
        0
102
RTVSPost2010PropOp40
 70
     1
102
RTVSPost2010Prop41ColorIndex
 90
       18
102
RTVSPost2010Prop41ColorRGB
 90
        0
102
RTVSPost2010PropOp41
 70
     1
102
RTVSPost2010Prop42
 90
       50
102
RTVSPost2010PropOp42
 70
     1
102
RTVSPost2010Prop43
 90
        3
102
RTVSPost2010PropOp43
 70
     1
102
RTVSPost2010Prop44ColorIndex
 90
        5
102
RTVSPost2010Prop44ColorRGB
 90
      255
102
RTVSPost2010PropOp44
 70
     1
102
RTVSPost2010Prop45
280
     0
102
RTVSPost2010PropOp45
 70
     1
102
RTVSPost2010Prop46
 90
       50
102
RTVSPost2010PropOp46
 70
     1
102
RTVSPost2010Prop47
 90
       50
102
RTVSPost2010PropOp47
 70
     1
102
RTVSPost2010Prop48
 90
       50
102
RTVSPost2010PropOp48
 70
     1
102
RTVSPost2010Prop49
280
     0
102
RTVSPost2010PropOp49
 70
     1
102
RTVSPost2010Prop50
 90
       50
102
RTVSPost2010PropOp50
 70
     1
102
RTVSPost2010Prop51ColorIndex
 90
      256
102
RTVSPost2010Prop51ColorRGB
 90
-16777216
102
RTVSPost2010PropOp51
 70
     0
102
RTVSPost2010Prop52
140
1.0
102
RTVSPost2010PropOp52
 70
     0
102
RTVSPost2010Prop53
 90
        2
102
RTVSPost2010PropOp53
 70
     1
102
RTVSPost2010Prop54
  1
strokes_ogs.tif
102
RTVSPost2010PropOp54
 70
     1
102
RTVSPost2010Prop55
280
     0
102
RTVSPost2010PropOp55
 70
     1
102
RTVSPost2010Prop56
140
1.0
102
RTVSPost2010PropOp56
 70
     1
102
RTVSPost2010Prop57
140
1.0
102
RTVSPost2010PropOp57
 70
     1
  0
XRECORD
  5
A53
102
{ACAD_REACTORS
330
A52
102
}
330
A52
100
AcDbXrecord
280
     1
102
RTVSPropertyOp0
 70
     1
102
RTVSPropertyOp1
 70
     1
102
RTVSPropertyOp2
 70
     1
102
RTVSPropertyOp3
 70
     1
102
RTVSPropertyOp4
 70
     1
102
RTVSPropertyOp5
 70
     1
102
RTVSPropertyOp6
 70
     1
102
RTVSPropertyOp7
 70
     1
102
RTVSPropertyOp8
 70
     1
102
RTVSPropertyOp9
 70
     1
102
RTVSPropertyOp10
 70
     1
102
RTVSPropertyOp11
 70
     1
102
RTVSPropertyOp12
 70
     1
102
RTVSPropertyOp13
 70
     1
102
RTVSPropertyOp14
 70
     1
102
RTVSPropertyOp15
 70
     1
102
RTVSPropertyOp16
 70
     1
102
RTVSPropertyOp17
 70
     1
102
RTVSPropertyOp18
 70
     1
102
RTVSPropertyOp19
 70
     1
102
RTVSPropertyOp20
 70
     1
102
RTVSPropertyOp21
 70
     1
102
RTVSPropertyOp22
 70
     1
102
RTVSPropertyOp23
 70
     1
102
RTVSPropertyOp24
 70
     1
102
RTVSPropertyOp25
 70
     1
102
RTVSPropertyOp26
 70
     1
102
RTVSPropertyOp27
 70
     1
102
RTVSPropertyOp28
 70
     1
102
RTVSPropertyOp29
 70
     1
102
RTVSPropertyOp30
 70
     1
102
RTVSPropertyOp31
 70
     1
102
RTVSPropertyOp32
 70
     1
102
RTVSPropertyOp33
 70
     1
102
RTVSPropertyOp34
 70
     1
102
RTVSPropertyOp35
 70
     1
102
RTVSPropertyOp36
 70
     1
102
RTVSPropertyOp37
 70
     1
102
RTVSPropertyOp38
 70
     1
102
RTVSPropertyOp39
 70
     1
102
RTVSPropertyOp40
 70
     1
102
RTVSPropertyOp41
 70
     1
102
RTVSPropertyOp42
 70
     1
102
RTVSPropertyOp43
 70
     1
102
RTVSPropertyOp44
 70
     1
102
RTVSPropertyOp45
 70
     1
102
RTVSPropertyOp46
 70
     1
102
RTVSPropertyOp47
 70
     1
102
RTVSPropertyOp48
 70
     1
102
RTVSPropertyOp49
 70
     1
102
RTVSPropertyOp50
 70
     1
102
RTVSPropertyOp51
 70
     0
102
RTVSPropertyOp52
 70
     0
102
RTVSPropertyOp53
 70
     1
102
RTVSPropertyOp54
 70
     1
102
RTVSPropertyOp55
 70
     1
102
RTVSPropertyOp56
 70
     1
102
RTVSPropertyOp57
 70
     1
102
RTVSPost2010Prop28
280
     0
102
RTVSPost2010PropOp28
 70
     1
102
RTVSPost2010Prop29
280
     1
102
RTVSPost2010PropOp29
 70
     1
102
RTVSPost2010Prop30
280
     1
102
RTVSPost2010PropOp30
 70
     1
102
RTVSPost2010Prop31
280
     0
102
RTVSPost2010PropOp31
 70
     1
102
RTVSPost2010Prop32
280
     0
102
RTVSPost2010PropOp32
 70
     1
102
RTVSPost2010Prop33
280
     0
102
RTVSPost2010PropOp33
 70
     1
102
RTVSPost2010Prop34
280
     0
102
RTVSPost2010PropOp34
 70
     1
102
RTVSPost2010Prop35
280
     0
102
RTVSPost2010PropOp35
 70
     1
102
RTVSPost2010Prop36
280
     0
102
RTVSPost2010PropOp36
 70
     1
102
RTVSPost2010Prop37
 90
       50
102
RTVSPost2010PropOp37
 70
     1
102
RTVSPost2010Prop38
140
0.0
102
RTVSPost2010PropOp38
 70
     1
102
RTVSPost2010Prop39
140
1.0
102
RTVSPost2010PropOp39
 70
     1
102
RTVSPost2010Prop40
 90
        0
102
RTVSPost2010PropOp40
 70
     1
102
RTVSPost2010Prop41ColorIndex
 90
       18
102
RTVSPost2010Prop41ColorRGB
 90
        0
102
RTVSPost2010PropOp41
 70
     1
102
RTVSPost2010Prop42
 90
       50
102
RTVSPost2010PropOp42
 70
     1
102
RTVSPost2010Prop43
 90
        3
102
RTVSPost2010PropOp43
 70
     1
102
RTVSPost2010Prop44ColorIndex
 90
        5
102
RTVSPost2010Prop44ColorRGB
 90
      255
102
RTVSPost2010PropOp44
 70
     1
102
RTVSPost2010Prop45
280
     0
102
RTVSPost2010PropOp45
 70
     1
102
RTVSPost2010Prop46
 90
       50
102
RTVSPost2010PropOp46
 70
     1
102
RTVSPost2010Prop47
 90
       50
102
RTVSPost2010PropOp47
 70
     1
102
RTVSPost2010Prop48
 90
       50
102
RTVSPost2010PropOp48
 70
     1
102
RTVSPost2010Prop49
280
     0
102
RTVSPost2010PropOp49
 70
     1
102
RTVSPost2010Prop50
 90
       50
102
RTVSPost2010PropOp50
 70
     1
102
RTVSPost2010Prop51ColorIndex
 90
      256
102
RTVSPost2010Prop51ColorRGB
 90
-16777216
102
RTVSPost2010PropOp51
 70
     0
102
RTVSPost2010Prop52
140
1.0
102
RTVSPost2010PropOp52
 70
     0
102
RTVSPost2010Prop53
 90
        2
102
RTVSPost2010PropOp53
 70
     1
102
RTVSPost2010Prop54
  1
strokes_ogs.tif
102
RTVSPost2010PropOp54
 70
     1
102
RTVSPost2010Prop55
280
     0
102
RTVSPost2010PropOp55
 70
     1
102
RTVSPost2010Prop56
140
1.0
102
RTVSPost2010PropOp56
 70
     1
102
RTVSPost2010Prop57
140
1.0
102
RTVSPost2010PropOp57
 70
     1
  0
XRECORD
  5
A55
102
{ACAD_REACTORS
330
A54
102
}
330
A54
100
AcDbXrecord
280
     1
102
RTVSPropertyOp0
 70
     1
102
RTVSPropertyOp1
 70
     1
102
RTVSPropertyOp2
 70
     1
102
RTVSPropertyOp3
 70
     1
102
RTVSPropertyOp4
 70
     1
102
RTVSPropertyOp5
 70
     1
102
RTVSPropertyOp6
 70
     1
102
RTVSPropertyOp7
 70
     1
102
RTVSPropertyOp8
 70
     1
102
RTVSPropertyOp9
 70
     1
102
RTVSPropertyOp10
 70
     1
102
RTVSPropertyOp11
 70
     1
102
RTVSPropertyOp12
 70
     1
102
RTVSPropertyOp13
 70
     1
102
RTVSPropertyOp14
 70
     1
102
RTVSPropertyOp15
 70
     1
102
RTVSPropertyOp16
 70
     1
102
RTVSPropertyOp17
 70
     1
102
RTVSPropertyOp18
 70
     1
102
RTVSPropertyOp19
 70
     1
102
RTVSPropertyOp20
 70
     1
102
RTVSPropertyOp21
 70
     1
102
RTVSPropertyOp22
 70
     1
102
RTVSPropertyOp23
 70
     1
102
RTVSPropertyOp24
 70
     1
102
RTVSPropertyOp25
 70
     1
102
RTVSPropertyOp26
 70
     1
102
RTVSPropertyOp27
 70
     1
102
RTVSPropertyOp28
 70
     1
102
RTVSPropertyOp29
 70
     1
102
RTVSPropertyOp30
 70
     1
102
RTVSPropertyOp31
 70
     1
102
RTVSPropertyOp32
 70
     1
102
RTVSPropertyOp33
 70
     1
102
RTVSPropertyOp34
 70
     1
102
RTVSPropertyOp35
 70
     1
102
RTVSPropertyOp36
 70
     1
102
RTVSPropertyOp37
 70
     1
102
RTVSPropertyOp38
 70
     1
102
RTVSPropertyOp39
 70
     1
102
RTVSPropertyOp40
 70
     1
102
RTVSPropertyOp41
 70
     1
102
RTVSPropertyOp42
 70
     1
102
RTVSPropertyOp43
 70
     1
102
RTVSPropertyOp44
 70
     1
102
RTVSPropertyOp45
 70
     1
102
RTVSPropertyOp46
 70
     1
102
RTVSPropertyOp47
 70
     1
102
RTVSPropertyOp48
 70
     1
102
RTVSPropertyOp49
 70
     1
102
RTVSPropertyOp50
 70
     1
102
RTVSPropertyOp51
 70
     0
102
RTVSPropertyOp52
 70
     0
102
RTVSPropertyOp53
 70
     1
102
RTVSPropertyOp54
 70
     1
102
RTVSPropertyOp55
 70
     1
102
RTVSPropertyOp56
 70
     1
102
RTVSPropertyOp57
 70
     1
102
RTVSPost2010Prop28
280
     0
102
RTVSPost2010PropOp28
 70
     1
102
RTVSPost2010Prop29
280
     1
102
RTVSPost2010PropOp29
 70
     1
102
RTVSPost2010Prop30
280
     1
102
RTVSPost2010PropOp30
 70
     1
102
RTVSPost2010Prop31
280
     0
102
RTVSPost2010PropOp31
 70
     1
102
RTVSPost2010Prop32
280
     0
102
RTVSPost2010PropOp32
 70
     1
102
RTVSPost2010Prop33
280
     0
102
RTVSPost2010PropOp33
 70
     1
102
RTVSPost2010Prop34
280
     0
102
RTVSPost2010PropOp34
 70
     1
102
RTVSPost2010Prop35
280
     0
102
RTVSPost2010PropOp35
 70
     1
102
RTVSPost2010Prop36
280
     0
102
RTVSPost2010PropOp36
 70
     1
102
RTVSPost2010Prop37
 90
       50
102
RTVSPost2010PropOp37
 70
     1
102
RTVSPost2010Prop38
140
0.0
102
RTVSPost2010PropOp38
 70
     1
102
RTVSPost2010Prop39
140
1.0
102
RTVSPost2010PropOp39
 70
     1
102
RTVSPost2010Prop40
 90
        0
102
RTVSPost2010PropOp40
 70
     1
102
RTVSPost2010Prop41ColorIndex
 90
       18
102
RTVSPost2010Prop41ColorRGB
 90
        0
102
RTVSPost2010PropOp41
 70
     1
102
RTVSPost2010Prop42
 90
       50
102
RTVSPost2010PropOp42
 70
     1
102
RTVSPost2010Prop43
 90
        3
102
RTVSPost2010PropOp43
 70
     1
102
RTVSPost2010Prop44ColorIndex
 90
        5
102
RTVSPost2010Prop44ColorRGB
 90
      255
102
RTVSPost2010PropOp44
 70
     1
102
RTVSPost2010Prop45
280
     0
102
RTVSPost2010PropOp45
 70
     1
102
RTVSPost2010Prop46
 90
       50
102
RTVSPost2010PropOp46
 70
     1
102
RTVSPost2010Prop47
 90
       50
102
RTVSPost2010PropOp47
 70
     1
102
RTVSPost2010Prop48
 90
       50
102
RTVSPost2010PropOp48
 70
     1
102
RTVSPost2010Prop49
280
     0
102
RTVSPost2010PropOp49
 70
     1
102
RTVSPost2010Prop50
 90
       50
102
RTVSPost2010PropOp50
 70
     1
102
RTVSPost2010Prop51ColorIndex
 90
      256
102
RTVSPost2010Prop51ColorRGB
 90
-16777216
102
RTVSPost2010PropOp51
 70
     0
102
RTVSPost2010Prop52
140
1.0
102
RTVSPost2010PropOp52
 70
     0
102
RTVSPost2010Prop53
 90
        2
102
RTVSPost2010PropOp53
 70
     1
102
RTVSPost2010Prop54
  1
strokes_ogs.tif
102
RTVSPost2010PropOp54
 70
     1
102
RTVSPost2010Prop55
280
     0
102
RTVSPost2010PropOp55
 70
     1
102
RTVSPost2010Prop56
140
1.0
102
RTVSPost2010PropOp56
 70
     1
102
RTVSPost2010Prop57
140
1.0
102
RTVSPost2010PropOp57
 70
     1
  0
XRECORD
  5
A57
102
{ACAD_REACTORS
330
A56
102
}
330
A56
100
AcDbXrecord
280
     1
102
RTVSPropertyOp0
 70
     1
102
RTVSPropertyOp1
 70
     1
102
RTVSPropertyOp2
 70
     1
102
RTVSPropertyOp3
 70
     1
102
RTVSPropertyOp4
 70
     1
102
RTVSPropertyOp5
 70
     1
102
RTVSPropertyOp6
 70
     1
102
RTVSPropertyOp7
 70
     1
102
RTVSPropertyOp8
 70
     1
102
RTVSPropertyOp9
 70
     1
102
RTVSPropertyOp10
 70
     1
102
RTVSPropertyOp11
 70
     1
102
RTVSPropertyOp12
 70
     1
102
RTVSPropertyOp13
 70
     1
102
RTVSPropertyOp14
 70
     1
102
RTVSPropertyOp15
 70
     1
102
RTVSPropertyOp16
 70
     1
102
RTVSPropertyOp17
 70
     1
102
RTVSPropertyOp18
 70
     1
102
RTVSPropertyOp19
 70
     1
102
RTVSPropertyOp20
 70
     1
102
RTVSPropertyOp21
 70
     1
102
RTVSPropertyOp22
 70
     1
102
RTVSPropertyOp23
 70
     1
102
RTVSPropertyOp24
 70
     1
102
RTVSPropertyOp25
 70
     1
102
RTVSPropertyOp26
 70
     1
102
RTVSPropertyOp27
 70
     1
102
RTVSPropertyOp28
 70
     1
102
RTVSPropertyOp29
 70
     1
102
RTVSPropertyOp30
 70
     1
102
RTVSPropertyOp31
 70
     1
102
RTVSPropertyOp32
 70
     1
102
RTVSPropertyOp33
 70
     1
102
RTVSPropertyOp34
 70
     1
102
RTVSPropertyOp35
 70
     1
102
RTVSPropertyOp36
 70
     1
102
RTVSPropertyOp37
 70
     1
102
RTVSPropertyOp38
 70
     1
102
RTVSPropertyOp39
 70
     1
102
RTVSPropertyOp40
 70
     1
102
RTVSPropertyOp41
 70
     1
102
RTVSPropertyOp42
 70
     1
102
RTVSPropertyOp43
 70
     1
102
RTVSPropertyOp44
 70
     1
102
RTVSPropertyOp45
 70
     1
102
RTVSPropertyOp46
 70
     1
102
RTVSPropertyOp47
 70
     1
102
RTVSPropertyOp48
 70
     1
102
RTVSPropertyOp49
 70
     1
102
RTVSPropertyOp50
 70
     1
102
RTVSPropertyOp51
 70
     0
102
RTVSPropertyOp52
 70
     0
102
RTVSPropertyOp53
 70
     1
102
RTVSPropertyOp54
 70
     1
102
RTVSPropertyOp55
 70
     1
102
RTVSPropertyOp56
 70
     1
102
RTVSPropertyOp57
 70
     1
102
RTVSPost2010Prop28
280
     0
102
RTVSPost2010PropOp28
 70
     1
102
RTVSPost2010Prop29
280
     1
102
RTVSPost2010PropOp29
 70
     1
102
RTVSPost2010Prop30
280
     1
102
RTVSPost2010PropOp30
 70
     1
102
RTVSPost2010Prop31
280
     0
102
RTVSPost2010PropOp31
 70
     1
102
RTVSPost2010Prop32
280
     0
102
RTVSPost2010PropOp32
 70
     1
102
RTVSPost2010Prop33
280
     0
102
RTVSPost2010PropOp33
 70
     1
102
RTVSPost2010Prop34
280
     0
102
RTVSPost2010PropOp34
 70
     1
102
RTVSPost2010Prop35
280
     0
102
RTVSPost2010PropOp35
 70
     1
102
RTVSPost2010Prop36
280
     0
102
RTVSPost2010PropOp36
 70
     1
102
RTVSPost2010Prop37
 90
       50
102
RTVSPost2010PropOp37
 70
     1
102
RTVSPost2010Prop38
140
0.0
102
RTVSPost2010PropOp38
 70
     1
102
RTVSPost2010Prop39
140
1.0
102
RTVSPost2010PropOp39
 70
     1
102
RTVSPost2010Prop40
 90
        0
102
RTVSPost2010PropOp40
 70
     1
102
RTVSPost2010Prop41ColorIndex
 90
       18
102
RTVSPost2010Prop41ColorRGB
 90
        0
102
RTVSPost2010PropOp41
 70
     1
102
RTVSPost2010Prop42
 90
       50
102
RTVSPost2010PropOp42
 70
     1
102
RTVSPost2010Prop43
 90
        3
102
RTVSPost2010PropOp43
 70
     1
102
RTVSPost2010Prop44ColorIndex
 90
        5
102
RTVSPost2010Prop44ColorRGB
 90
      255
102
RTVSPost2010PropOp44
 70
     1
102
RTVSPost2010Prop45
280
     0
102
RTVSPost2010PropOp45
 70
     1
102
RTVSPost2010Prop46
 90
       50
102
RTVSPost2010PropOp46
 70
     1
102
RTVSPost2010Prop47
 90
       50
102
RTVSPost2010PropOp47
 70
     1
102
RTVSPost2010Prop48
 90
       50
102
RTVSPost2010PropOp48
 70
     1
102
RTVSPost2010Prop49
280
     0
102
RTVSPost2010PropOp49
 70
     1
102
RTVSPost2010Prop50
 90
       50
102
RTVSPost2010PropOp50
 70
     1
102
RTVSPost2010Prop51ColorIndex
 90
      256
102
RTVSPost2010Prop51ColorRGB
 90
-16777216
102
RTVSPost2010PropOp51
 70
     0
102
RTVSPost2010Prop52
140
1.0
102
RTVSPost2010PropOp52
 70
     0
102
RTVSPost2010Prop53
 90
        2
102
RTVSPost2010PropOp53
 70
     1
102
RTVSPost2010Prop54
  1
strokes_ogs.tif
102
RTVSPost2010PropOp54
 70
     1
102
RTVSPost2010Prop55
280
     0
102
RTVSPost2010PropOp55
 70
     1
102
RTVSPost2010Prop56
140
1.0
102
RTVSPost2010PropOp56
 70
     1
102
RTVSPost2010Prop57
140
1.0
102
RTVSPost2010PropOp57
 70
     1
  0
XRECORD
  5
A59
102
{ACAD_REACTORS
330
A58
102
}
330
A58
100
AcDbXrecord
280
     1
102
RTVSPropertyOp0
 70
     1
102
RTVSPropertyOp1
 70
     1
102
RTVSPropertyOp2
 70
     1
102
RTVSPropertyOp3
 70
     1
102
RTVSPropertyOp4
 70
     1
102
RTVSPropertyOp5
 70
     1
102
RTVSPropertyOp6
 70
     1
102
RTVSPropertyOp7
 70
     1
102
RTVSPropertyOp8
 70
     1
102
RTVSPropertyOp9
 70
     1
102
RTVSPropertyOp10
 70
     1
102
RTVSPropertyOp11
 70
     1
102
RTVSPropertyOp12
 70
     1
102
RTVSPropertyOp13
 70
     1
102
RTVSPropertyOp14
 70
     1
102
RTVSPropertyOp15
 70
     1
102
RTVSPropertyOp16
 70
     1
102
RTVSPropertyOp17
 70
     1
102
RTVSPropertyOp18
 70
     1
102
RTVSPropertyOp19
 70
     1
102
RTVSPropertyOp20
 70
     1
102
RTVSPropertyOp21
 70
     1
102
RTVSPropertyOp22
 70
     1
102
RTVSPropertyOp23
 70
     1
102
RTVSPropertyOp24
 70
     1
102
RTVSPropertyOp25
 70
     1
102
RTVSPropertyOp26
 70
     1
102
RTVSPropertyOp27
 70
     1
102
RTVSPropertyOp28
 70
     1
102
RTVSPropertyOp29
 70
     1
102
RTVSPropertyOp30
 70
     1
102
RTVSPropertyOp31
 70
     1
102
RTVSPropertyOp32
 70
     1
102
RTVSPropertyOp33
 70
     1
102
RTVSPropertyOp34
 70
     1
102
RTVSPropertyOp35
 70
     1
102
RTVSPropertyOp36
 70
     1
102
RTVSPropertyOp37
 70
     1
102
RTVSPropertyOp38
 70
     1
102
RTVSPropertyOp39
 70
     1
102
RTVSPropertyOp40
 70
     1
102
RTVSPropertyOp41
 70
     1
102
RTVSPropertyOp42
 70
     1
102
RTVSPropertyOp43
 70
     1
102
RTVSPropertyOp44
 70
     1
102
RTVSPropertyOp45
 70
     1
102
RTVSPropertyOp46
 70
     1
102
RTVSPropertyOp47
 70
     1
102
RTVSPropertyOp48
 70
     1
102
RTVSPropertyOp49
 70
     1
102
RTVSPropertyOp50
 70
     1
102
RTVSPropertyOp51
 70
     0
102
RTVSPropertyOp52
 70
     0
102
RTVSPropertyOp53
 70
     1
102
RTVSPropertyOp54
 70
     1
102
RTVSPropertyOp55
 70
     1
102
RTVSPropertyOp56
 70
     1
102
RTVSPropertyOp57
 70
     1
102
RTVSPost2010Prop28
280
     0
102
RTVSPost2010PropOp28
 70
     1
102
RTVSPost2010Prop29
280
     1
102
RTVSPost2010PropOp29
 70
     1
102
RTVSPost2010Prop30
280
     1
102
RTVSPost2010PropOp30
 70
     1
102
RTVSPost2010Prop31
280
     0
102
RTVSPost2010PropOp31
 70
     1
102
RTVSPost2010Prop32
280
     0
102
RTVSPost2010PropOp32
 70
     1
102
RTVSPost2010Prop33
280
     0
102
RTVSPost2010PropOp33
 70
     1
102
RTVSPost2010Prop34
280
     0
102
RTVSPost2010PropOp34
 70
     1
102
RTVSPost2010Prop35
280
     0
102
RTVSPost2010PropOp35
 70
     1
102
RTVSPost2010Prop36
280
     0
102
RTVSPost2010PropOp36
 70
     1
102
RTVSPost2010Prop37
 90
       50
102
RTVSPost2010PropOp37
 70
     1
102
RTVSPost2010Prop38
140
0.0
102
RTVSPost2010PropOp38
 70
     1
102
RTVSPost2010Prop39
140
1.0
102
RTVSPost2010PropOp39
 70
     1
102
RTVSPost2010Prop40
 90
        0
102
RTVSPost2010PropOp40
 70
     1
102
RTVSPost2010Prop41ColorIndex
 90
       18
102
RTVSPost2010Prop41ColorRGB
 90
        0
102
RTVSPost2010PropOp41
 70
     1
102
RTVSPost2010Prop42
 90
       50
102
RTVSPost2010PropOp42
 70
     1
102
RTVSPost2010Prop43
 90
        3
102
RTVSPost2010PropOp43
 70
     1
102
RTVSPost2010Prop44ColorIndex
 90
        5
102
RTVSPost2010Prop44ColorRGB
 90
      255
102
RTVSPost2010PropOp44
 70
     1
102
RTVSPost2010Prop45
280
     0
102
RTVSPost2010PropOp45
 70
     1
102
RTVSPost2010Prop46
 90
       50
102
RTVSPost2010PropOp46
 70
     1
102
RTVSPost2010Prop47
 90
       50
102
RTVSPost2010PropOp47
 70
     1
102
RTVSPost2010Prop48
 90
       50
102
RTVSPost2010PropOp48
 70
     1
102
RTVSPost2010Prop49
280
     0
102
RTVSPost2010PropOp49
 70
     1
102
RTVSPost2010Prop50
 90
       50
102
RTVSPost2010PropOp50
 70
     1
102
RTVSPost2010Prop51ColorIndex
 90
      256
102
RTVSPost2010Prop51ColorRGB
 90
-16777216
102
RTVSPost2010PropOp51
 70
     0
102
RTVSPost2010Prop52
140
1.0
102
RTVSPost2010PropOp52
 70
     0
102
RTVSPost2010Prop53
 90
        2
102
RTVSPost2010PropOp53
 70
     1
102
RTVSPost2010Prop54
  1
strokes_ogs.tif
102
RTVSPost2010PropOp54
 70
     1
102
RTVSPost2010Prop55
280
     0
102
RTVSPost2010PropOp55
 70
     1
102
RTVSPost2010Prop56
140
1.0
102
RTVSPost2010PropOp56
 70
     1
102
RTVSPost2010Prop57
140
1.0
102
RTVSPost2010PropOp57
 70
     1
  0
XRECORD
  5
A5F
102
{ACAD_REACTORS
330
A5E
102
}
330
A5E
100
AcDbXrecord
280
     1
102
RTVSPropertyOp0
 70
     1
102
RTVSPropertyOp1
 70
     1
102
RTVSPropertyOp2
 70
     1
102
RTVSPropertyOp3
 70
     1
102
RTVSPropertyOp4
 70
     1
102
RTVSPropertyOp5
 70
     1
102
RTVSPropertyOp6
 70
     1
102
RTVSPropertyOp7
 70
     1
102
RTVSPropertyOp8
 70
     1
102
RTVSPropertyOp9
 70
     1
102
RTVSPropertyOp10
 70
     1
102
RTVSPropertyOp11
 70
     1
102
RTVSPropertyOp12
 70
     1
102
RTVSPropertyOp13
 70
     1
102
RTVSPropertyOp14
 70
     1
102
RTVSPropertyOp15
 70
     1
102
RTVSPropertyOp16
 70
     1
102
RTVSPropertyOp17
 70
     1
102
RTVSPropertyOp18
 70
     1
102
RTVSPropertyOp19
 70
     1
102
RTVSPropertyOp20
 70
     1
102
RTVSPropertyOp21
 70
     1
102
RTVSPropertyOp22
 70
     1
102
RTVSPropertyOp23
 70
     1
102
RTVSPropertyOp24
 70
     1
102
RTVSPropertyOp25
 70
     1
102
RTVSPropertyOp26
 70
     1
102
RTVSPropertyOp27
 70
     1
102
RTVSPropertyOp28
 70
     1
102
RTVSPropertyOp29
 70
     1
102
RTVSPropertyOp30
 70
     1
102
RTVSPropertyOp31
 70
     1
102
RTVSPropertyOp32
 70
     1
102
RTVSPropertyOp33
 70
     1
102
RTVSPropertyOp34
 70
     1
102
RTVSPropertyOp35
 70
     1
102
RTVSPropertyOp36
 70
     1
102
RTVSPropertyOp37
 70
     1
102
RTVSPropertyOp38
 70
     1
102
RTVSPropertyOp39
 70
     1
102
RTVSPropertyOp40
 70
     1
102
RTVSPropertyOp41
 70
     1
102
RTVSPropertyOp42
 70
     1
102
RTVSPropertyOp43
 70
     1
102
RTVSPropertyOp44
 70
     1
102
RTVSPropertyOp45
 70
     1
102
RTVSPropertyOp46
 70
     1
102
RTVSPropertyOp47
 70
     1
102
RTVSPropertyOp48
 70
     1
102
RTVSPropertyOp49
 70
     1
102
RTVSPropertyOp50
 70
     1
102
RTVSPropertyOp51
 70
     0
102
RTVSPropertyOp52
 70
     0
102
RTVSPropertyOp53
 70
     1
102
RTVSPropertyOp54
 70
     1
102
RTVSPropertyOp55
 70
     1
102
RTVSPropertyOp56
 70
     1
102
RTVSPropertyOp57
 70
     1
102
RTVSPost2010Prop28
280
     0
102
RTVSPost2010PropOp28
 70
     1
102
RTVSPost2010Prop29
280
     1
102
RTVSPost2010PropOp29
 70
     1
102
RTVSPost2010Prop30
280
     1
102
RTVSPost2010PropOp30
 70
     1
102
RTVSPost2010Prop31
280
     0
102
RTVSPost2010PropOp31
 70
     1
102
RTVSPost2010Prop32
280
     0
102
RTVSPost2010PropOp32
 70
     1
102
RTVSPost2010Prop33
280
     0
102
RTVSPost2010PropOp33
 70
     1
102
RTVSPost2010Prop34
280
     0
102
RTVSPost2010PropOp34
 70
     1
102
RTVSPost2010Prop35
280
     0
102
RTVSPost2010PropOp35
 70
     1
102
RTVSPost2010Prop36
280
     0
102
RTVSPost2010PropOp36
 70
     1
102
RTVSPost2010Prop37
 90
       50
102
RTVSPost2010PropOp37
 70
     1
102
RTVSPost2010Prop38
140
0.0
102
RTVSPost2010PropOp38
 70
     1
102
RTVSPost2010Prop39
140
1.0
102
RTVSPost2010PropOp39
 70
     1
102
RTVSPost2010Prop40
 90
        0
102
RTVSPost2010PropOp40
 70
     1
102
RTVSPost2010Prop41ColorIndex
 90
       18
102
RTVSPost2010Prop41ColorRGB
 90
        0
102
RTVSPost2010PropOp41
 70
     1
102
RTVSPost2010Prop42
 90
       50
102
RTVSPost2010PropOp42
 70
     1
102
RTVSPost2010Prop43
 90
        3
102
RTVSPost2010PropOp43
 70
     1
102
RTVSPost2010Prop44ColorIndex
 90
        5
102
RTVSPost2010Prop44ColorRGB
 90
      255
102
RTVSPost2010PropOp44
 70
     1
102
RTVSPost2010Prop45
280
     0
102
RTVSPost2010PropOp45
 70
     1
102
RTVSPost2010Prop46
 90
       50
102
RTVSPost2010PropOp46
 70
     1
102
RTVSPost2010Prop47
 90
       50
102
RTVSPost2010PropOp47
 70
     1
102
RTVSPost2010Prop48
 90
       50
102
RTVSPost2010PropOp48
 70
     1
102
RTVSPost2010Prop49
280
     0
102
RTVSPost2010PropOp49
 70
     1
102
RTVSPost2010Prop50
 90
       50
102
RTVSPost2010PropOp50
 70
     1
102
RTVSPost2010Prop51ColorIndex
 90
      256
102
RTVSPost2010Prop51ColorRGB
 90
-16777216
102
RTVSPost2010PropOp51
 70
     0
102
RTVSPost2010Prop52
140
1.0
102
RTVSPost2010PropOp52
 70
     0
102
RTVSPost2010Prop53
 90
        2
102
RTVSPost2010PropOp53
 70
     1
102
RTVSPost2010Prop54
  1
strokes_ogs.tif
102
RTVSPost2010PropOp54
 70
     1
102
RTVSPost2010Prop55
280
     0
102
RTVSPost2010PropOp55
 70
     1
102
RTVSPost2010Prop56
140
1.0
102
RTVSPost2010PropOp56
 70
     1
102
RTVSPost2010Prop57
140
1.0
102
RTVSPost2010PropOp57
 70
     1
  0
XRECORD
  5
A73
102
{ACAD_REACTORS
330
A72
102
}
330
A72
100
AcDbXrecord
280
     1
102
RTVSPropertyOp0
 70
     0
102
RTVSPropertyOp1
 70
     0
102
RTVSPropertyOp2
 70
     0
102
RTVSPropertyOp3
 70
     0
102
RTVSPropertyOp4
 70
     0
102
RTVSPropertyOp5
 70
     0
102
RTVSPropertyOp6
 70
     0
102
RTVSPropertyOp7
 70
     0
102
RTVSPropertyOp8
 70
     0
102
RTVSPropertyOp9
 70
     0
102
RTVSPropertyOp10
 70
     0
102
RTVSPropertyOp11
 70
     0
102
RTVSPropertyOp12
 70
     0
102
RTVSPropertyOp13
 70
     0
102
RTVSPropertyOp14
 70
     2
102
RTVSPropertyOp15
 70
     0
102
RTVSPropertyOp16
 70
     0
102
RTVSPropertyOp17
 70
     0
102
RTVSPropertyOp18
 70
     0
102
RTVSPropertyOp19
 70
     0
102
RTVSPropertyOp20
 70
     0
102
RTVSPropertyOp21
 70
     0
102
RTVSPropertyOp22
 70
     0
102
RTVSPropertyOp23
 70
     0
102
RTVSPropertyOp24
 70
     0
102
RTVSPropertyOp25
 70
     0
102
RTVSPropertyOp26
 70
     0
102
RTVSPropertyOp27
 70
     0
102
RTVSPropertyOp28
 70
     0
102
RTVSPropertyOp29
 70
     0
102
RTVSPropertyOp30
 70
     0
102
RTVSPropertyOp31
 70
     0
102
RTVSPropertyOp32
 70
     0
102
RTVSPropertyOp33
 70
     0
102
RTVSPropertyOp34
 70
     0
102
RTVSPropertyOp35
 70
     0
102
RTVSPropertyOp36
 70
     0
102
RTVSPropertyOp37
 70
     0
102
RTVSPropertyOp38
 70
     0
102
RTVSPropertyOp39
 70
     0
102
RTVSPropertyOp40
 70
     0
102
RTVSPropertyOp41
 70
     0
102
RTVSPropertyOp42
 70
     0
102
RTVSPropertyOp43
 70
     0
102
RTVSPropertyOp44
 70
     0
102
RTVSPropertyOp45
 70
     0
102
RTVSPropertyOp46
 70
     0
102
RTVSPropertyOp47
 70
     0
102
RTVSPropertyOp48
 70
     0
102
RTVSPropertyOp49
 70
     0
102
RTVSPropertyOp50
 70
     0
102
RTVSPropertyOp51
 70
     0
102
RTVSPropertyOp52
 70
     0
102
RTVSPropertyOp53
 70
     0
102
RTVSPropertyOp54
 70
     0
102
RTVSPropertyOp55
 70
     0
102
RTVSPropertyOp56
 70
     0
102
RTVSPropertyOp57
 70
     0
102
RTVSPost2010Prop28
280
     0
102
RTVSPost2010PropOp28
 70
     0
102
RTVSPost2010Prop29
280
     1
102
RTVSPost2010PropOp29
 70
     0
102
RTVSPost2010Prop30
280
     1
102
RTVSPost2010PropOp30
 70
     0
102
RTVSPost2010Prop31
280
     0
102
RTVSPost2010PropOp31
 70
     0
102
RTVSPost2010Prop32
280
     0
102
RTVSPost2010PropOp32
 70
     0
102
RTVSPost2010Prop33
280
     0
102
RTVSPost2010PropOp33
 70
     0
102
RTVSPost2010Prop34
280
     0
102
RTVSPost2010PropOp34
 70
     0
102
RTVSPost2010Prop35
280
     0
102
RTVSPost2010PropOp35
 70
     0
102
RTVSPost2010Prop36
280
     0
102
RTVSPost2010PropOp36
 70
     0
102
RTVSPost2010Prop37
 90
       50
102
RTVSPost2010PropOp37
 70
     0
102
RTVSPost2010Prop38
140
0.0
102
RTVSPost2010PropOp38
 70
     0
102
RTVSPost2010Prop39
140
1.0
102
RTVSPost2010PropOp39
 70
     0
102
RTVSPost2010Prop40
 90
        0
102
RTVSPost2010PropOp40
 70
     0
102
RTVSPost2010Prop41ColorIndex
 90
       18
102
RTVSPost2010Prop41ColorRGB
 90
        0
102
RTVSPost2010PropOp41
 70
     0
102
RTVSPost2010Prop42
 90
       50
102
RTVSPost2010PropOp42
 70
     0
102
RTVSPost2010Prop43
 90
        3
102
RTVSPost2010PropOp43
 70
     0
102
RTVSPost2010Prop44ColorIndex
 90
        5
102
RTVSPost2010Prop44ColorRGB
 90
      255
102
RTVSPost2010PropOp44
 70
     0
102
RTVSPost2010Prop45
280
     0
102
RTVSPost2010PropOp45
 70
     0
102
RTVSPost2010Prop46
 90
       50
102
RTVSPost2010PropOp46
 70
     0
102
RTVSPost2010Prop47
 90
       50
102
RTVSPost2010PropOp47
 70
     0
102
RTVSPost2010Prop48
 90
       50
102
RTVSPost2010PropOp48
 70
     0
102
RTVSPost2010Prop49
280
     0
102
RTVSPost2010PropOp49
 70
     0
102
RTVSPost2010Prop50
 90
       50
102
RTVSPost2010PropOp50
 70
     0
102
RTVSPost2010Prop51ColorIndex
 90
      256
102
RTVSPost2010Prop51ColorRGB
 90
-16777216
102
RTVSPost2010PropOp51
 70
     0
102
RTVSPost2010Prop52
140
1.0
102
RTVSPost2010PropOp52
 70
     0
102
RTVSPost2010Prop53
 90
        2
102
RTVSPost2010PropOp53
 70
     0
102
RTVSPost2010Prop54
  1
strokes_ogs.tif
102
RTVSPost2010PropOp54
 70
     0
102
RTVSPost2010Prop55
280
     0
102
RTVSPost2010PropOp55
 70
     0
102
RTVSPost2010Prop56
140
1.0
102
RTVSPost2010PropOp56
 70
     0
102
RTVSPost2010Prop57
140
1.0
102
RTVSPost2010PropOp57
 70
     0
  0
XRECORD
  5
A6D
102
{ACAD_REACTORS
330
A6C
102
}
330
A6C
100
AcDbXrecord
280
     1
102
RTVSPropertyOp0
 70
     1
102
RTVSPropertyOp1
 70
     1
102
RTVSPropertyOp2
 70
     1
102
RTVSPropertyOp3
 70
     1
102
RTVSPropertyOp4
 70
     1
102
RTVSPropertyOp5
 70
     1
102
RTVSPropertyOp6
 70
     1
102
RTVSPropertyOp7
 70
     1
102
RTVSPropertyOp8
 70
     1
102
RTVSPropertyOp9
 70
     1
102
RTVSPropertyOp10
 70
     1
102
RTVSPropertyOp11
 70
     1
102
RTVSPropertyOp12
 70
     1
102
RTVSPropertyOp13
 70
     1
102
RTVSPropertyOp14
 70
     1
102
RTVSPropertyOp15
 70
     1
102
RTVSPropertyOp16
 70
     1
102
RTVSPropertyOp17
 70
     1
102
RTVSPropertyOp18
 70
     1
102
RTVSPropertyOp19
 70
     1
102
RTVSPropertyOp20
 70
     1
102
RTVSPropertyOp21
 70
     1
102
RTVSPropertyOp22
 70
     1
102
RTVSPropertyOp23
 70
     1
102
RTVSPropertyOp24
 70
     1
102
RTVSPropertyOp25
 70
     1
102
RTVSPropertyOp26
 70
     1
102
RTVSPropertyOp27
 70
     1
102
RTVSPropertyOp28
 70
     1
102
RTVSPropertyOp29
 70
     1
102
RTVSPropertyOp30
 70
     1
102
RTVSPropertyOp31
 70
     1
102
RTVSPropertyOp32
 70
     1
102
RTVSPropertyOp33
 70
     1
102
RTVSPropertyOp34
 70
     1
102
RTVSPropertyOp35
 70
     1
102
RTVSPropertyOp36
 70
     1
102
RTVSPropertyOp37
 70
     1
102
RTVSPropertyOp38
 70
     1
102
RTVSPropertyOp39
 70
     1
102
RTVSPropertyOp40
 70
     1
102
RTVSPropertyOp41
 70
     1
102
RTVSPropertyOp42
 70
     1
102
RTVSPropertyOp43
 70
     1
102
RTVSPropertyOp44
 70
     1
102
RTVSPropertyOp45
 70
     1
102
RTVSPropertyOp46
 70
     1
102
RTVSPropertyOp47
 70
     1
102
RTVSPropertyOp48
 70
     1
102
RTVSPropertyOp49
 70
     1
102
RTVSPropertyOp50
 70
     1
102
RTVSPropertyOp51
 70
     0
102
RTVSPropertyOp52
 70
     0
102
RTVSPropertyOp53
 70
     1
102
RTVSPropertyOp54
 70
     1
102
RTVSPropertyOp55
 70
     1
102
RTVSPropertyOp56
 70
     1
102
RTVSPropertyOp57
 70
     1
102
RTVSPost2010Prop28
280
     0
102
RTVSPost2010PropOp28
 70
     1
102
RTVSPost2010Prop29
280
     1
102
RTVSPost2010PropOp29
 70
     1
102
RTVSPost2010Prop30
280
     1
102
RTVSPost2010PropOp30
 70
     1
102
RTVSPost2010Prop31
280
     0
102
RTVSPost2010PropOp31
 70
     1
102
RTVSPost2010Prop32
280
     0
102
RTVSPost2010PropOp32
 70
     1
102
RTVSPost2010Prop33
280
     0
102
RTVSPost2010PropOp33
 70
     1
102
RTVSPost2010Prop34
280
     0
102
RTVSPost2010PropOp34
 70
     1
102
RTVSPost2010Prop35
280
     0
102
RTVSPost2010PropOp35
 70
     1
102
RTVSPost2010Prop36
280
     0
102
RTVSPost2010PropOp36
 70
     1
102
RTVSPost2010Prop37
 90
       50
102
RTVSPost2010PropOp37
 70
     1
102
RTVSPost2010Prop38
140
0.0
102
RTVSPost2010PropOp38
 70
     1
102
RTVSPost2010Prop39
140
1.0
102
RTVSPost2010PropOp39
 70
     1
102
RTVSPost2010Prop40
 90
        0
102
RTVSPost2010PropOp40
 70
     1
102
RTVSPost2010Prop41ColorIndex
 90
       18
102
RTVSPost2010Prop41ColorRGB
 90
        0
102
RTVSPost2010PropOp41
 70
     1
102
RTVSPost2010Prop42
 90
       50
102
RTVSPost2010PropOp42
 70
     1
102
RTVSPost2010Prop43
 90
        3
102
RTVSPost2010PropOp43
 70
     1
102
RTVSPost2010Prop44ColorIndex
 90
        5
102
RTVSPost2010Prop44ColorRGB
 90
      255
102
RTVSPost2010PropOp44
 70
     1
102
RTVSPost2010Prop45
280
     0
102
RTVSPost2010PropOp45
 70
     1
102
RTVSPost2010Prop46
 90
       50
102
RTVSPost2010PropOp46
 70
     1
102
RTVSPost2010Prop47
 90
       50
102
RTVSPost2010PropOp47
 70
     1
102
RTVSPost2010Prop48
 90
       50
102
RTVSPost2010PropOp48
 70
     1
102
RTVSPost2010Prop49
280
     0
102
RTVSPost2010PropOp49
 70
     1
102
RTVSPost2010Prop50
 90
       50
102
RTVSPost2010PropOp50
 70
     1
102
RTVSPost2010Prop51ColorIndex
 90
      256
102
RTVSPost2010Prop51ColorRGB
 90
-16777216
102
RTVSPost2010PropOp51
 70
     0
102
RTVSPost2010Prop52
140
1.0
102
RTVSPost2010PropOp52
 70
     0
102
RTVSPost2010Prop53
 90
        2
102
RTVSPost2010PropOp53
 70
     1
102
RTVSPost2010Prop54
  1
strokes_ogs.tif
102
RTVSPost2010PropOp54
 70
     1
102
RTVSPost2010Prop55
280
     0
102
RTVSPost2010PropOp55
 70
     1
102
RTVSPost2010Prop56
140
1.0
102
RTVSPost2010PropOp56
 70
     1
102
RTVSPost2010Prop57
140
1.0
102
RTVSPost2010PropOp57
 70
     1
  0
XRECORD
  5
A75
102
{ACAD_REACTORS
330
A74
102
}
330
A74
100
AcDbXrecord
280
     1
102
RTVSPropertyOp0
 70
     0
102
RTVSPropertyOp1
 70
     0
102
RTVSPropertyOp2
 70
     0
102
RTVSPropertyOp3
 70
     0
102
RTVSPropertyOp4
 70
     0
102
RTVSPropertyOp5
 70
     0
102
RTVSPropertyOp6
 70
     0
102
RTVSPropertyOp7
 70
     0
102
RTVSPropertyOp8
 70
     0
102
RTVSPropertyOp9
 70
     0
102
RTVSPropertyOp10
 70
     0
102
RTVSPropertyOp11
 70
     0
102
RTVSPropertyOp12
 70
     0
102
RTVSPropertyOp13
 70
     0
102
RTVSPropertyOp14
 70
     2
102
RTVSPropertyOp15
 70
     0
102
RTVSPropertyOp16
 70
     0
102
RTVSPropertyOp17
 70
     0
102
RTVSPropertyOp18
 70
     0
102
RTVSPropertyOp19
 70
     0
102
RTVSPropertyOp20
 70
     0
102
RTVSPropertyOp21
 70
     0
102
RTVSPropertyOp22
 70
     0
102
RTVSPropertyOp23
 70
     0
102
RTVSPropertyOp24
 70
     0
102
RTVSPropertyOp25
 70
     0
102
RTVSPropertyOp26
 70
     0
102
RTVSPropertyOp27
 70
     0
102
RTVSPropertyOp28
 70
     0
102
RTVSPropertyOp29
 70
     0
102
RTVSPropertyOp30
 70
     0
102
RTVSPropertyOp31
 70
     0
102
RTVSPropertyOp32
 70
     0
102
RTVSPropertyOp33
 70
     0
102
RTVSPropertyOp34
 70
     0
102
RTVSPropertyOp35
 70
     0
102
RTVSPropertyOp36
 70
     0
102
RTVSPropertyOp37
 70
     0
102
RTVSPropertyOp38
 70
     0
102
RTVSPropertyOp39
 70
     0
102
RTVSPropertyOp40
 70
     0
102
RTVSPropertyOp41
 70
     0
102
RTVSPropertyOp42
 70
     0
102
RTVSPropertyOp43
 70
     0
102
RTVSPropertyOp44
 70
     0
102
RTVSPropertyOp45
 70
     0
102
RTVSPropertyOp46
 70
     0
102
RTVSPropertyOp47
 70
     0
102
RTVSPropertyOp48
 70
     0
102
RTVSPropertyOp49
 70
     0
102
RTVSPropertyOp50
 70
     0
102
RTVSPropertyOp51
 70
     0
102
RTVSPropertyOp52
 70
     0
102
RTVSPropertyOp53
 70
     0
102
RTVSPropertyOp54
 70
     0
102
RTVSPropertyOp55
 70
     0
102
RTVSPropertyOp56
 70
     0
102
RTVSPropertyOp57
 70
     0
102
RTVSPost2010Prop28
280
     0
102
RTVSPost2010PropOp28
 70
     0
102
RTVSPost2010Prop29
280
     1
102
RTVSPost2010PropOp29
 70
     0
102
RTVSPost2010Prop30
280
     1
102
RTVSPost2010PropOp30
 70
     0
102
RTVSPost2010Prop31
280
     0
102
RTVSPost2010PropOp31
 70
     0
102
RTVSPost2010Prop32
280
     0
102
RTVSPost2010PropOp32
 70
     0
102
RTVSPost2010Prop33
280
     0
102
RTVSPost2010PropOp33
 70
     0
102
RTVSPost2010Prop34
280
     0
102
RTVSPost2010PropOp34
 70
     0
102
RTVSPost2010Prop35
280
     0
102
RTVSPost2010PropOp35
 70
     0
102
RTVSPost2010Prop36
280
     0
102
RTVSPost2010PropOp36
 70
     0
102
RTVSPost2010Prop37
 90
       50
102
RTVSPost2010PropOp37
 70
     0
102
RTVSPost2010Prop38
140
0.0
102
RTVSPost2010PropOp38
 70
     0
102
RTVSPost2010Prop39
140
1.0
102
RTVSPost2010PropOp39
 70
     0
102
RTVSPost2010Prop40
 90
        0
102
RTVSPost2010PropOp40
 70
     0
102
RTVSPost2010Prop41ColorIndex
 90
       18
102
RTVSPost2010Prop41ColorRGB
 90
        0
102
RTVSPost2010PropOp41
 70
     0
102
RTVSPost2010Prop42
 90
       50
102
RTVSPost2010PropOp42
 70
     0
102
RTVSPost2010Prop43
 90
        3
102
RTVSPost2010PropOp43
 70
     0
102
RTVSPost2010Prop44ColorIndex
 90
        5
102
RTVSPost2010Prop44ColorRGB
 90
      255
102
RTVSPost2010PropOp44
 70
     0
102
RTVSPost2010Prop45
280
     0
102
RTVSPost2010PropOp45
 70
     0
102
RTVSPost2010Prop46
 90
       50
102
RTVSPost2010PropOp46
 70
     0
102
RTVSPost2010Prop47
 90
       50
102
RTVSPost2010PropOp47
 70
     0
102
RTVSPost2010Prop48
 90
       50
102
RTVSPost2010PropOp48
 70
     0
102
RTVSPost2010Prop49
280
     0
102
RTVSPost2010PropOp49
 70
     0
102
RTVSPost2010Prop50
 90
       50
102
RTVSPost2010PropOp50
 70
     0
102
RTVSPost2010Prop51ColorIndex
 90
      256
102
RTVSPost2010Prop51ColorRGB
 90
-16777216
102
RTVSPost2010PropOp51
 70
     0
102
RTVSPost2010Prop52
140
1.0
102
RTVSPost2010PropOp52
 70
     0
102
RTVSPost2010Prop53
 90
        2
102
RTVSPost2010PropOp53
 70
     0
102
RTVSPost2010Prop54
  1
strokes_ogs.tif
102
RTVSPost2010PropOp54
 70
     0
102
RTVSPost2010Prop55
280
     0
102
RTVSPost2010PropOp55
 70
     0
102
RTVSPost2010Prop56
140
1.0
102
RTVSPost2010PropOp56
 70
     0
102
RTVSPost2010Prop57
140
1.0
102
RTVSPost2010PropOp57
 70
     0
  0
XRECORD
  5
A63
102
{ACAD_REACTORS
330
A62
102
}
330
A62
100
AcDbXrecord
280
     1
102
RTVSPropertyOp0
 70
     1
102
RTVSPropertyOp1
 70
     1
102
RTVSPropertyOp2
 70
     1
102
RTVSPropertyOp3
 70
     1
102
RTVSPropertyOp4
 70
     1
102
RTVSPropertyOp5
 70
     1
102
RTVSPropertyOp6
 70
     1
102
RTVSPropertyOp7
 70
     1
102
RTVSPropertyOp8
 70
     1
102
RTVSPropertyOp9
 70
     1
102
RTVSPropertyOp10
 70
     1
102
RTVSPropertyOp11
 70
     1
102
RTVSPropertyOp12
 70
     1
102
RTVSPropertyOp13
 70
     1
102
RTVSPropertyOp14
 70
     1
102
RTVSPropertyOp15
 70
     1
102
RTVSPropertyOp16
 70
     1
102
RTVSPropertyOp17
 70
     1
102
RTVSPropertyOp18
 70
     1
102
RTVSPropertyOp19
 70
     1
102
RTVSPropertyOp20
 70
     1
102
RTVSPropertyOp21
 70
     1
102
RTVSPropertyOp22
 70
     1
102
RTVSPropertyOp23
 70
     1
102
RTVSPropertyOp24
 70
     1
102
RTVSPropertyOp25
 70
     1
102
RTVSPropertyOp26
 70
     1
102
RTVSPropertyOp27
 70
     1
102
RTVSPropertyOp28
 70
     1
102
RTVSPropertyOp29
 70
     1
102
RTVSPropertyOp30
 70
     1
102
RTVSPropertyOp31
 70
     1
102
RTVSPropertyOp32
 70
     1
102
RTVSPropertyOp33
 70
     1
102
RTVSPropertyOp34
 70
     1
102
RTVSPropertyOp35
 70
     1
102
RTVSPropertyOp36
 70
     1
102
RTVSPropertyOp37
 70
     1
102
RTVSPropertyOp38
 70
     1
102
RTVSPropertyOp39
 70
     1
102
RTVSPropertyOp40
 70
     1
102
RTVSPropertyOp41
 70
     1
102
RTVSPropertyOp42
 70
     1
102
RTVSPropertyOp43
 70
     1
102
RTVSPropertyOp44
 70
     1
102
RTVSPropertyOp45
 70
     1
102
RTVSPropertyOp46
 70
     1
102
RTVSPropertyOp47
 70
     1
102
RTVSPropertyOp48
 70
     1
102
RTVSPropertyOp49
 70
     1
102
RTVSPropertyOp50
 70
     1
102
RTVSPropertyOp51
 70
     0
102
RTVSPropertyOp52
 70
     0
102
RTVSPropertyOp53
 70
     1
102
RTVSPropertyOp54
 70
     1
102
RTVSPropertyOp55
 70
     1
102
RTVSPropertyOp56
 70
     1
102
RTVSPropertyOp57
 70
     1
102
RTVSPost2010Prop28
280
     0
102
RTVSPost2010PropOp28
 70
     1
102
RTVSPost2010Prop29
280
     1
102
RTVSPost2010PropOp29
 70
     1
102
RTVSPost2010Prop30
280
     1
102
RTVSPost2010PropOp30
 70
     1
102
RTVSPost2010Prop31
280
     0
102
RTVSPost2010PropOp31
 70
     1
102
RTVSPost2010Prop32
280
     0
102
RTVSPost2010PropOp32
 70
     1
102
RTVSPost2010Prop33
280
     0
102
RTVSPost2010PropOp33
 70
     1
102
RTVSPost2010Prop34
280
     0
102
RTVSPost2010PropOp34
 70
     1
102
RTVSPost2010Prop35
280
     0
102
RTVSPost2010PropOp35
 70
     1
102
RTVSPost2010Prop36
280
     0
102
RTVSPost2010PropOp36
 70
     1
102
RTVSPost2010Prop37
 90
       50
102
RTVSPost2010PropOp37
 70
     1
102
RTVSPost2010Prop38
140
0.0
102
RTVSPost2010PropOp38
 70
     1
102
RTVSPost2010Prop39
140
1.0
102
RTVSPost2010PropOp39
 70
     1
102
RTVSPost2010Prop40
 90
        0
102
RTVSPost2010PropOp40
 70
     1
102
RTVSPost2010Prop41ColorIndex
 90
       18
102
RTVSPost2010Prop41ColorRGB
 90
        0
102
RTVSPost2010PropOp41
 70
     1
102
RTVSPost2010Prop42
 90
       50
102
RTVSPost2010PropOp42
 70
     1
102
RTVSPost2010Prop43
 90
        3
102
RTVSPost2010PropOp43
 70
     1
102
RTVSPost2010Prop44ColorIndex
 90
        5
102
RTVSPost2010Prop44ColorRGB
 90
      255
102
RTVSPost2010PropOp44
 70
     1
102
RTVSPost2010Prop45
280
     0
102
RTVSPost2010PropOp45
 70
     1
102
RTVSPost2010Prop46
 90
       50
102
RTVSPost2010PropOp46
 70
     1
102
RTVSPost2010Prop47
 90
       50
102
RTVSPost2010PropOp47
 70
     1
102
RTVSPost2010Prop48
 90
       50
102
RTVSPost2010PropOp48
 70
     1
102
RTVSPost2010Prop49
280
     0
102
RTVSPost2010PropOp49
 70
     1
102
RTVSPost2010Prop50
 90
       50
102
RTVSPost2010PropOp50
 70
     1
102
RTVSPost2010Prop51ColorIndex
 90
      256
102
RTVSPost2010Prop51ColorRGB
 90
-16777216
102
RTVSPost2010PropOp51
 70
     0
102
RTVSPost2010Prop52
140
1.0
102
RTVSPost2010PropOp52
 70
     0
102
RTVSPost2010Prop53
 90
        2
102
RTVSPost2010PropOp53
 70
     1
102
RTVSPost2010Prop54
  1
strokes_ogs.tif
102
RTVSPost2010PropOp54
 70
     1
102
RTVSPost2010Prop55
280
     0
102
RTVSPost2010PropOp55
 70
     1
102
RTVSPost2010Prop56
140
1.0
102
RTVSPost2010PropOp56
 70
     1
102
RTVSPost2010Prop57
140
1.0
102
RTVSPost2010PropOp57
 70
     1
  0
XRECORD
  5
A81
102
{ACAD_REACTORS
330
A80
102
}
330
A80
100
AcDbXrecord
280
     1
102
RTVSPropertyOp0
 70
     1
102
RTVSPropertyOp1
 70
     1
102
RTVSPropertyOp2
 70
     1
102
RTVSPropertyOp3
 70
     1
102
RTVSPropertyOp4
 70
     1
102
RTVSPropertyOp5
 70
     1
102
RTVSPropertyOp6
 70
     1
102
RTVSPropertyOp7
 70
     1
102
RTVSPropertyOp8
 70
     1
102
RTVSPropertyOp9
 70
     1
102
RTVSPropertyOp10
 70
     1
102
RTVSPropertyOp11
 70
     1
102
RTVSPropertyOp12
 70
     1
102
RTVSPropertyOp13
 70
     1
102
RTVSPropertyOp14
 70
     1
102
RTVSPropertyOp15
 70
     1
102
RTVSPropertyOp16
 70
     1
102
RTVSPropertyOp17
 70
     1
102
RTVSPropertyOp18
 70
     1
102
RTVSPropertyOp19
 70
     1
102
RTVSPropertyOp20
 70
     1
102
RTVSPropertyOp21
 70
     1
102
RTVSPropertyOp22
 70
     1
102
RTVSPropertyOp23
 70
     1
102
RTVSPropertyOp24
 70
     1
102
RTVSPropertyOp25
 70
     1
102
RTVSPropertyOp26
 70
     1
102
RTVSPropertyOp27
 70
     1
102
RTVSPropertyOp28
 70
     1
102
RTVSPropertyOp29
 70
     1
102
RTVSPropertyOp30
 70
     1
102
RTVSPropertyOp31
 70
     1
102
RTVSPropertyOp32
 70
     1
102
RTVSPropertyOp33
 70
     1
102
RTVSPropertyOp34
 70
     1
102
RTVSPropertyOp35
 70
     1
102
RTVSPropertyOp36
 70
     1
102
RTVSPropertyOp37
 70
     1
102
RTVSPropertyOp38
 70
     1
102
RTVSPropertyOp39
 70
     1
102
RTVSPropertyOp40
 70
     1
102
RTVSPropertyOp41
 70
     1
102
RTVSPropertyOp42
 70
     1
102
RTVSPropertyOp43
 70
     1
102
RTVSPropertyOp44
 70
     1
102
RTVSPropertyOp45
 70
     1
102
RTVSPropertyOp46
 70
     1
102
RTVSPropertyOp47
 70
     1
102
RTVSPropertyOp48
 70
     1
102
RTVSPropertyOp49
 70
     1
102
RTVSPropertyOp50
 70
     1
102
RTVSPropertyOp51
 70
     0
102
RTVSPropertyOp52
 70
     0
102
RTVSPropertyOp53
 70
     1
102
RTVSPropertyOp54
 70
     1
102
RTVSPropertyOp55
 70
     1
102
RTVSPropertyOp56
 70
     1
102
RTVSPropertyOp57
 70
     1
102
RTVSPost2010Prop28
280
     0
102
RTVSPost2010PropOp28
 70
     1
102
RTVSPost2010Prop29
280
     1
102
RTVSPost2010PropOp29
 70
     1
102
RTVSPost2010Prop30
280
     1
102
RTVSPost2010PropOp30
 70
     1
102
RTVSPost2010Prop31
280
     0
102
RTVSPost2010PropOp31
 70
     1
102
RTVSPost2010Prop32
280
     0
102
RTVSPost2010PropOp32
 70
     1
102
RTVSPost2010Prop33
280
     0
102
RTVSPost2010PropOp33
 70
     1
102
RTVSPost2010Prop34
280
     0
102
RTVSPost2010PropOp34
 70
     1
102
RTVSPost2010Prop35
280
     0
102
RTVSPost2010PropOp35
 70
     1
102
RTVSPost2010Prop36
280
     0
102
RTVSPost2010PropOp36
 70
     1
102
RTVSPost2010Prop37
 90
       50
102
RTVSPost2010PropOp37
 70
     1
102
RTVSPost2010Prop38
140
0.0
102
RTVSPost2010PropOp38
 70
     1
102
RTVSPost2010Prop39
140
1.0
102
RTVSPost2010PropOp39
 70
     1
102
RTVSPost2010Prop40
 90
        0
102
RTVSPost2010PropOp40
 70
     1
102
RTVSPost2010Prop41ColorIndex
 90
       18
102
RTVSPost2010Prop41ColorRGB
 90
        0
102
RTVSPost2010PropOp41
 70
     1
102
RTVSPost2010Prop42
 90
       50
102
RTVSPost2010PropOp42
 70
     1
102
RTVSPost2010Prop43
 90
        3
102
RTVSPost2010PropOp43
 70
     1
102
RTVSPost2010Prop44ColorIndex
 90
        5
102
RTVSPost2010Prop44ColorRGB
 90
      255
102
RTVSPost2010PropOp44
 70
     1
102
RTVSPost2010Prop45
280
     0
102
RTVSPost2010PropOp45
 70
     1
102
RTVSPost2010Prop46
 90
       50
102
RTVSPost2010PropOp46
 70
     1
102
RTVSPost2010Prop47
 90
       50
102
RTVSPost2010PropOp47
 70
     1
102
RTVSPost2010Prop48
 90
       50
102
RTVSPost2010PropOp48
 70
     1
102
RTVSPost2010Prop49
280
     0
102
RTVSPost2010PropOp49
 70
     1
102
RTVSPost2010Prop50
 90
       50
102
RTVSPost2010PropOp50
 70
     1
102
RTVSPost2010Prop51ColorIndex
 90
      256
102
RTVSPost2010Prop51ColorRGB
 90
-16777216
102
RTVSPost2010PropOp51
 70
     0
102
RTVSPost2010Prop52
140
1.0
102
RTVSPost2010PropOp52
 70
     0
102
RTVSPost2010Prop53
 90
        2
102
RTVSPost2010PropOp53
 70
     1
102
RTVSPost2010Prop54
  1
strokes_ogs.tif
102
RTVSPost2010PropOp54
 70
     1
102
RTVSPost2010Prop55
280
     0
102
RTVSPost2010PropOp55
 70
     1
102
RTVSPost2010Prop56
140
1.0
102
RTVSPost2010PropOp56
 70
     1
102
RTVSPost2010Prop57
140
1.0
102
RTVSPost2010PropOp57
 70
     1
  0
XRECORD
  5
A7F
102
{ACAD_REACTORS
330
A7E
102
}
330
A7E
100
AcDbXrecord
280
     1
102
RTVSPropertyOp0
 70
     1
102
RTVSPropertyOp1
 70
     1
102
RTVSPropertyOp2
 70
     1
102
RTVSPropertyOp3
 70
     1
102
RTVSPropertyOp4
 70
     1
102
RTVSPropertyOp5
 70
     1
102
RTVSPropertyOp6
 70
     1
102
RTVSPropertyOp7
 70
     1
102
RTVSPropertyOp8
 70
     1
102
RTVSPropertyOp9
 70
     1
102
RTVSPropertyOp10
 70
     1
102
RTVSPropertyOp11
 70
     1
102
RTVSPropertyOp12
 70
     1
102
RTVSPropertyOp13
 70
     1
102
RTVSPropertyOp14
 70
     1
102
RTVSPropertyOp15
 70
     1
102
RTVSPropertyOp16
 70
     1
102
RTVSPropertyOp17
 70
     1
102
RTVSPropertyOp18
 70
     1
102
RTVSPropertyOp19
 70
     1
102
RTVSPropertyOp20
 70
     1
102
RTVSPropertyOp21
 70
     1
102
RTVSPropertyOp22
 70
     1
102
RTVSPropertyOp23
 70
     1
102
RTVSPropertyOp24
 70
     1
102
RTVSPropertyOp25
 70
     1
102
RTVSPropertyOp26
 70
     1
102
RTVSPropertyOp27
 70
     1
102
RTVSPropertyOp28
 70
     1
102
RTVSPropertyOp29
 70
     1
102
RTVSPropertyOp30
 70
     1
102
RTVSPropertyOp31
 70
     1
102
RTVSPropertyOp32
 70
     1
102
RTVSPropertyOp33
 70
     1
102
RTVSPropertyOp34
 70
     1
102
RTVSPropertyOp35
 70
     1
102
RTVSPropertyOp36
 70
     1
102
RTVSPropertyOp37
 70
     1
102
RTVSPropertyOp38
 70
     1
102
RTVSPropertyOp39
 70
     1
102
RTVSPropertyOp40
 70
     1
102
RTVSPropertyOp41
 70
     1
102
RTVSPropertyOp42
 70
     1
102
RTVSPropertyOp43
 70
     1
102
RTVSPropertyOp44
 70
     1
102
RTVSPropertyOp45
 70
     1
102
RTVSPropertyOp46
 70
     1
102
RTVSPropertyOp47
 70
     1
102
RTVSPropertyOp48
 70
     1
102
RTVSPropertyOp49
 70
     1
102
RTVSPropertyOp50
 70
     1
102
RTVSPropertyOp51
 70
     0
102
RTVSPropertyOp52
 70
     0
102
RTVSPropertyOp53
 70
     1
102
RTVSPropertyOp54
 70
     1
102
RTVSPropertyOp55
 70
     1
102
RTVSPropertyOp56
 70
     1
102
RTVSPropertyOp57
 70
     1
102
RTVSPost2010Prop28
280
     0
102
RTVSPost2010PropOp28
 70
     1
102
RTVSPost2010Prop29
280
     1
102
RTVSPost2010PropOp29
 70
     1
102
RTVSPost2010Prop30
280
     1
102
RTVSPost2010PropOp30
 70
     1
102
RTVSPost2010Prop31
280
     0
102
RTVSPost2010PropOp31
 70
     1
102
RTVSPost2010Prop32
280
     0
102
RTVSPost2010PropOp32
 70
     1
102
RTVSPost2010Prop33
280
     0
102
RTVSPost2010PropOp33
 70
     1
102
RTVSPost2010Prop34
280
     0
102
RTVSPost2010PropOp34
 70
     1
102
RTVSPost2010Prop35
280
     0
102
RTVSPost2010PropOp35
 70
     1
102
RTVSPost2010Prop36
280
     0
102
RTVSPost2010PropOp36
 70
     1
102
RTVSPost2010Prop37
 90
       50
102
RTVSPost2010PropOp37
 70
     1
102
RTVSPost2010Prop38
140
0.0
102
RTVSPost2010PropOp38
 70
     1
102
RTVSPost2010Prop39
140
1.0
102
RTVSPost2010PropOp39
 70
     1
102
RTVSPost2010Prop40
 90
        0
102
RTVSPost2010PropOp40
 70
     1
102
RTVSPost2010Prop41ColorIndex
 90
       18
102
RTVSPost2010Prop41ColorRGB
 90
        0
102
RTVSPost2010PropOp41
 70
     1
102
RTVSPost2010Prop42
 90
       50
102
RTVSPost2010PropOp42
 70
     1
102
RTVSPost2010Prop43
 90
        3
102
RTVSPost2010PropOp43
 70
     1
102
RTVSPost2010Prop44ColorIndex
 90
        5
102
RTVSPost2010Prop44ColorRGB
 90
      255
102
RTVSPost2010PropOp44
 70
     1
102
RTVSPost2010Prop45
280
     0
102
RTVSPost2010PropOp45
 70
     1
102
RTVSPost2010Prop46
 90
       50
102
RTVSPost2010PropOp46
 70
     1
102
RTVSPost2010Prop47
 90
       50
102
RTVSPost2010PropOp47
 70
     1
102
RTVSPost2010Prop48
 90
       50
102
RTVSPost2010PropOp48
 70
     1
102
RTVSPost2010Prop49
280
     0
102
RTVSPost2010PropOp49
 70
     1
102
RTVSPost2010Prop50
 90
       50
102
RTVSPost2010PropOp50
 70
     1
102
RTVSPost2010Prop51ColorIndex
 90
      256
102
RTVSPost2010Prop51ColorRGB
 90
-16777216
102
RTVSPost2010PropOp51
 70
     0
102
RTVSPost2010Prop52
140
1.0
102
RTVSPost2010PropOp52
 70
     0
102
RTVSPost2010Prop53
 90
        2
102
RTVSPost2010PropOp53
 70
     1
102
RTVSPost2010Prop54
  1
strokes_ogs.tif
102
RTVSPost2010PropOp54
 70
     1
102
RTVSPost2010Prop55
280
     0
102
RTVSPost2010PropOp55
 70
     1
102
RTVSPost2010Prop56
140
1.0
102
RTVSPost2010PropOp56
 70
     1
102
RTVSPost2010Prop57
140
1.0
102
RTVSPost2010PropOp57
 70
     1
  0
XRECORD
  5
A79
102
{ACAD_REACTORS
330
A78
102
}
330
A78
100
AcDbXrecord
280
     1
102
RTVSPropertyOp0
 70
     1
102
RTVSPropertyOp1
 70
     1
102
RTVSPropertyOp2
 70
     1
102
RTVSPropertyOp3
 70
     1
102
RTVSPropertyOp4
 70
     1
102
RTVSPropertyOp5
 70
     1
102
RTVSPropertyOp6
 70
     1
102
RTVSPropertyOp7
 70
     1
102
RTVSPropertyOp8
 70
     1
102
RTVSPropertyOp9
 70
     1
102
RTVSPropertyOp10
 70
     1
102
RTVSPropertyOp11
 70
     1
102
RTVSPropertyOp12
 70
     1
102
RTVSPropertyOp13
 70
     1
102
RTVSPropertyOp14
 70
     1
102
RTVSPropertyOp15
 70
     1
102
RTVSPropertyOp16
 70
     1
102
RTVSPropertyOp17
 70
     1
102
RTVSPropertyOp18
 70
     1
102
RTVSPropertyOp19
 70
     1
102
RTVSPropertyOp20
 70
     1
102
RTVSPropertyOp21
 70
     1
102
RTVSPropertyOp22
 70
     1
102
RTVSPropertyOp23
 70
     1
102
RTVSPropertyOp24
 70
     1
102
RTVSPropertyOp25
 70
     1
102
RTVSPropertyOp26
 70
     1
102
RTVSPropertyOp27
 70
     1
102
RTVSPropertyOp28
 70
     1
102
RTVSPropertyOp29
 70
     1
102
RTVSPropertyOp30
 70
     1
102
RTVSPropertyOp31
 70
     1
102
RTVSPropertyOp32
 70
     1
102
RTVSPropertyOp33
 70
     1
102
RTVSPropertyOp34
 70
     1
102
RTVSPropertyOp35
 70
     1
102
RTVSPropertyOp36
 70
     1
102
RTVSPropertyOp37
 70
     1
102
RTVSPropertyOp38
 70
     1
102
RTVSPropertyOp39
 70
     1
102
RTVSPropertyOp40
 70
     1
102
RTVSPropertyOp41
 70
     1
102
RTVSPropertyOp42
 70
     1
102
RTVSPropertyOp43
 70
     1
102
RTVSPropertyOp44
 70
     1
102
RTVSPropertyOp45
 70
     1
102
RTVSPropertyOp46
 70
     1
102
RTVSPropertyOp47
 70
     1
102
RTVSPropertyOp48
 70
     1
102
RTVSPropertyOp49
 70
     1
102
RTVSPropertyOp50
 70
     1
102
RTVSPropertyOp51
 70
     0
102
RTVSPropertyOp52
 70
     0
102
RTVSPropertyOp53
 70
     1
102
RTVSPropertyOp54
 70
     1
102
RTVSPropertyOp55
 70
     1
102
RTVSPropertyOp56
 70
     1
102
RTVSPropertyOp57
 70
     1
102
RTVSPost2010Prop28
280
     0
102
RTVSPost2010PropOp28
 70
     1
102
RTVSPost2010Prop29
280
     1
102
RTVSPost2010PropOp29
 70
     1
102
RTVSPost2010Prop30
280
     1
102
RTVSPost2010PropOp30
 70
     1
102
RTVSPost2010Prop31
280
     0
102
RTVSPost2010PropOp31
 70
     1
102
RTVSPost2010Prop32
280
     0
102
RTVSPost2010PropOp32
 70
     1
102
RTVSPost2010Prop33
280
     0
102
RTVSPost2010PropOp33
 70
     1
102
RTVSPost2010Prop34
280
     0
102
RTVSPost2010PropOp34
 70
     1
102
RTVSPost2010Prop35
280
     0
102
RTVSPost2010PropOp35
 70
     1
102
RTVSPost2010Prop36
280
     0
102
RTVSPost2010PropOp36
 70
     1
102
RTVSPost2010Prop37
 90
       50
102
RTVSPost2010PropOp37
 70
     1
102
RTVSPost2010Prop38
140
0.0
102
RTVSPost2010PropOp38
 70
     1
102
RTVSPost2010Prop39
140
1.0
102
RTVSPost2010PropOp39
 70
     1
102
RTVSPost2010Prop40
 90
        0
102
RTVSPost2010PropOp40
 70
     1
102
RTVSPost2010Prop41ColorIndex
 90
       18
102
RTVSPost2010Prop41ColorRGB
 90
        0
102
RTVSPost2010PropOp41
 70
     1
102
RTVSPost2010Prop42
 90
       50
102
RTVSPost2010PropOp42
 70
     1
102
RTVSPost2010Prop43
 90
        3
102
RTVSPost2010PropOp43
 70
     1
102
RTVSPost2010Prop44ColorIndex
 90
        5
102
RTVSPost2010Prop44ColorRGB
 90
      255
102
RTVSPost2010PropOp44
 70
     1
102
RTVSPost2010Prop45
280
     0
102
RTVSPost2010PropOp45
 70
     1
102
RTVSPost2010Prop46
 90
       50
102
RTVSPost2010PropOp46
 70
     1
102
RTVSPost2010Prop47
 90
       50
102
RTVSPost2010PropOp47
 70
     1
102
RTVSPost2010Prop48
 90
       50
102
RTVSPost2010PropOp48
 70
     1
102
RTVSPost2010Prop49
280
     0
102
RTVSPost2010PropOp49
 70
     1
102
RTVSPost2010Prop50
 90
       50
102
RTVSPost2010PropOp50
 70
     1
102
RTVSPost2010Prop51ColorIndex
 90
      256
102
RTVSPost2010Prop51ColorRGB
 90
-16777216
102
RTVSPost2010PropOp51
 70
     0
102
RTVSPost2010Prop52
140
1.0
102
RTVSPost2010PropOp52
 70
     0
102
RTVSPost2010Prop53
 90
        2
102
RTVSPost2010PropOp53
 70
     1
102
RTVSPost2010Prop54
  1
strokes_ogs.tif
102
RTVSPost2010PropOp54
 70
     1
102
RTVSPost2010Prop55
280
     0
102
RTVSPost2010PropOp55
 70
     1
102
RTVSPost2010Prop56
140
1.0
102
RTVSPost2010PropOp56
 70
     1
102
RTVSPost2010Prop57
140
1.0
102
RTVSPost2010PropOp57
 70
     1
  0
XRECORD
  5
A7B
102
{ACAD_REACTORS
330
A7A
102
}
330
A7A
100
AcDbXrecord
280
     1
102
RTVSPropertyOp0
 70
     1
102
RTVSPropertyOp1
 70
     1
102
RTVSPropertyOp2
 70
     1
102
RTVSPropertyOp3
 70
     1
102
RTVSPropertyOp4
 70
     1
102
RTVSPropertyOp5
 70
     1
102
RTVSPropertyOp6
 70
     1
102
RTVSPropertyOp7
 70
     1
102
RTVSPropertyOp8
 70
     1
102
RTVSPropertyOp9
 70
     1
102
RTVSPropertyOp10
 70
     1
102
RTVSPropertyOp11
 70
     1
102
RTVSPropertyOp12
 70
     1
102
RTVSPropertyOp13
 70
     1
102
RTVSPropertyOp14
 70
     1
102
RTVSPropertyOp15
 70
     1
102
RTVSPropertyOp16
 70
     1
102
RTVSPropertyOp17
 70
     1
102
RTVSPropertyOp18
 70
     1
102
RTVSPropertyOp19
 70
     1
102
RTVSPropertyOp20
 70
     1
102
RTVSPropertyOp21
 70
     1
102
RTVSPropertyOp22
 70
     1
102
RTVSPropertyOp23
 70
     1
102
RTVSPropertyOp24
 70
     1
102
RTVSPropertyOp25
 70
     1
102
RTVSPropertyOp26
 70
     1
102
RTVSPropertyOp27
 70
     1
102
RTVSPropertyOp28
 70
     1
102
RTVSPropertyOp29
 70
     1
102
RTVSPropertyOp30
 70
     1
102
RTVSPropertyOp31
 70
     1
102
RTVSPropertyOp32
 70
     1
102
RTVSPropertyOp33
 70
     1
102
RTVSPropertyOp34
 70
     1
102
RTVSPropertyOp35
 70
     1
102
RTVSPropertyOp36
 70
     1
102
RTVSPropertyOp37
 70
     1
102
RTVSPropertyOp38
 70
     1
102
RTVSPropertyOp39
 70
     1
102
RTVSPropertyOp40
 70
     1
102
RTVSPropertyOp41
 70
     1
102
RTVSPropertyOp42
 70
     1
102
RTVSPropertyOp43
 70
     1
102
RTVSPropertyOp44
 70
     1
102
RTVSPropertyOp45
 70
     1
102
RTVSPropertyOp46
 70
     1
102
RTVSPropertyOp47
 70
     1
102
RTVSPropertyOp48
 70
     1
102
RTVSPropertyOp49
 70
     1
102
RTVSPropertyOp50
 70
     1
102
RTVSPropertyOp51
 70
     0
102
RTVSPropertyOp52
 70
     0
102
RTVSPropertyOp53
 70
     1
102
RTVSPropertyOp54
 70
     1
102
RTVSPropertyOp55
 70
     1
102
RTVSPropertyOp56
 70
     1
102
RTVSPropertyOp57
 70
     1
102
RTVSPost2010Prop28
280
     0
102
RTVSPost2010PropOp28
 70
     1
102
RTVSPost2010Prop29
280
     1
102
RTVSPost2010PropOp29
 70
     1
102
RTVSPost2010Prop30
280
     1
102
RTVSPost2010PropOp30
 70
     1
102
RTVSPost2010Prop31
280
     0
102
RTVSPost2010PropOp31
 70
     1
102
RTVSPost2010Prop32
280
     0
102
RTVSPost2010PropOp32
 70
     1
102
RTVSPost2010Prop33
280
     0
102
RTVSPost2010PropOp33
 70
     1
102
RTVSPost2010Prop34
280
     0
102
RTVSPost2010PropOp34
 70
     1
102
RTVSPost2010Prop35
280
     0
102
RTVSPost2010PropOp35
 70
     1
102
RTVSPost2010Prop36
280
     0
102
RTVSPost2010PropOp36
 70
     1
102
RTVSPost2010Prop37
 90
       50
102
RTVSPost2010PropOp37
 70
     1
102
RTVSPost2010Prop38
140
0.0
102
RTVSPost2010PropOp38
 70
     1
102
RTVSPost2010Prop39
140
1.0
102
RTVSPost2010PropOp39
 70
     1
102
RTVSPost2010Prop40
 90
        0
102
RTVSPost2010PropOp40
 70
     1
102
RTVSPost2010Prop41ColorIndex
 90
       18
102
RTVSPost2010Prop41ColorRGB
 90
        0
102
RTVSPost2010PropOp41
 70
     1
102
RTVSPost2010Prop42
 90
       50
102
RTVSPost2010PropOp42
 70
     1
102
RTVSPost2010Prop43
 90
        3
102
RTVSPost2010PropOp43
 70
     1
102
RTVSPost2010Prop44ColorIndex
 90
        5
102
RTVSPost2010Prop44ColorRGB
 90
      255
102
RTVSPost2010PropOp44
 70
     1
102
RTVSPost2010Prop45
280
     0
102
RTVSPost2010PropOp45
 70
     1
102
RTVSPost2010Prop46
 90
       50
102
RTVSPost2010PropOp46
 70
     1
102
RTVSPost2010Prop47
 90
       50
102
RTVSPost2010PropOp47
 70
     1
102
RTVSPost2010Prop48
 90
       50
102
RTVSPost2010PropOp48
 70
     1
102
RTVSPost2010Prop49
280
     0
102
RTVSPost2010PropOp49
 70
     1
102
RTVSPost2010Prop50
 90
       50
102
RTVSPost2010PropOp50
 70
     1
102
RTVSPost2010Prop51ColorIndex
 90
      256
102
RTVSPost2010Prop51ColorRGB
 90
-16777216
102
RTVSPost2010PropOp51
 70
     0
102
RTVSPost2010Prop52
140
1.0
102
RTVSPost2010PropOp52
 70
     0
102
RTVSPost2010Prop53
 90
        2
102
RTVSPost2010PropOp53
 70
     1
102
RTVSPost2010Prop54
  1
strokes_ogs.tif
102
RTVSPost2010PropOp54
 70
     1
102
RTVSPost2010Prop55
280
     0
102
RTVSPost2010PropOp55
 70
     1
102
RTVSPost2010Prop56
140
1.0
102
RTVSPost2010PropOp56
 70
     1
102
RTVSPost2010Prop57
140
1.0
102
RTVSPost2010PropOp57
 70
     1
  0
XRECORD
  5
A6B
102
{ACAD_REACTORS
330
A6A
102
}
330
A6A
100
AcDbXrecord
280
     1
102
RTVSPropertyOp0
 70
     1
102
RTVSPropertyOp1
 70
     1
102
RTVSPropertyOp2
 70
     1
102
RTVSPropertyOp3
 70
     1
102
RTVSPropertyOp4
 70
     1
102
RTVSPropertyOp5
 70
     1
102
RTVSPropertyOp6
 70
     1
102
RTVSPropertyOp7
 70
     1
102
RTVSPropertyOp8
 70
     1
102
RTVSPropertyOp9
 70
     1
102
RTVSPropertyOp10
 70
     1
102
RTVSPropertyOp11
 70
     1
102
RTVSPropertyOp12
 70
     1
102
RTVSPropertyOp13
 70
     1
102
RTVSPropertyOp14
 70
     1
102
RTVSPropertyOp15
 70
     1
102
RTVSPropertyOp16
 70
     1
102
RTVSPropertyOp17
 70
     1
102
RTVSPropertyOp18
 70
     1
102
RTVSPropertyOp19
 70
     1
102
RTVSPropertyOp20
 70
     1
102
RTVSPropertyOp21
 70
     1
102
RTVSPropertyOp22
 70
     1
102
RTVSPropertyOp23
 70
     1
102
RTVSPropertyOp24
 70
     1
102
RTVSPropertyOp25
 70
     1
102
RTVSPropertyOp26
 70
     1
102
RTVSPropertyOp27
 70
     1
102
RTVSPropertyOp28
 70
     1
102
RTVSPropertyOp29
 70
     1
102
RTVSPropertyOp30
 70
     1
102
RTVSPropertyOp31
 70
     1
102
RTVSPropertyOp32
 70
     1
102
RTVSPropertyOp33
 70
     1
102
RTVSPropertyOp34
 70
     1
102
RTVSPropertyOp35
 70
     1
102
RTVSPropertyOp36
 70
     1
102
RTVSPropertyOp37
 70
     1
102
RTVSPropertyOp38
 70
     1
102
RTVSPropertyOp39
 70
     1
102
RTVSPropertyOp40
 70
     1
102
RTVSPropertyOp41
 70
     1
102
RTVSPropertyOp42
 70
     1
102
RTVSPropertyOp43
 70
     1
102
RTVSPropertyOp44
 70
     1
102
RTVSPropertyOp45
 70
     1
102
RTVSPropertyOp46
 70
     1
102
RTVSPropertyOp47
 70
     1
102
RTVSPropertyOp48
 70
     1
102
RTVSPropertyOp49
 70
     1
102
RTVSPropertyOp50
 70
     1
102
RTVSPropertyOp51
 70
     0
102
RTVSPropertyOp52
 70
     0
102
RTVSPropertyOp53
 70
     1
102
RTVSPropertyOp54
 70
     1
102
RTVSPropertyOp55
 70
     1
102
RTVSPropertyOp56
 70
     1
102
RTVSPropertyOp57
 70
     1
102
RTVSPost2010Prop28
280
     0
102
RTVSPost2010PropOp28
 70
     1
102
RTVSPost2010Prop29
280
     1
102
RTVSPost2010PropOp29
 70
     1
102
RTVSPost2010Prop30
280
     1
102
RTVSPost2010PropOp30
 70
     1
102
RTVSPost2010Prop31
280
     0
102
RTVSPost2010PropOp31
 70
     1
102
RTVSPost2010Prop32
280
     0
102
RTVSPost2010PropOp32
 70
     1
102
RTVSPost2010Prop33
280
     0
102
RTVSPost2010PropOp33
 70
     1
102
RTVSPost2010Prop34
280
     0
102
RTVSPost2010PropOp34
 70
     1
102
RTVSPost2010Prop35
280
     0
102
RTVSPost2010PropOp35
 70
     1
102
RTVSPost2010Prop36
280
     0
102
RTVSPost2010PropOp36
 70
     1
102
RTVSPost2010Prop37
 90
       50
102
RTVSPost2010PropOp37
 70
     1
102
RTVSPost2010Prop38
140
0.0
102
RTVSPost2010PropOp38
 70
     1
102
RTVSPost2010Prop39
140
1.0
102
RTVSPost2010PropOp39
 70
     1
102
RTVSPost2010Prop40
 90
        0
102
RTVSPost2010PropOp40
 70
     1
102
RTVSPost2010Prop41ColorIndex
 90
       18
102
RTVSPost2010Prop41ColorRGB
 90
        0
102
RTVSPost2010PropOp41
 70
     1
102
RTVSPost2010Prop42
 90
       50
102
RTVSPost2010PropOp42
 70
     1
102
RTVSPost2010Prop43
 90
        3
102
RTVSPost2010PropOp43
 70
     1
102
RTVSPost2010Prop44ColorIndex
 90
        5
102
RTVSPost2010Prop44ColorRGB
 90
      255
102
RTVSPost2010PropOp44
 70
     1
102
RTVSPost2010Prop45
280
     0
102
RTVSPost2010PropOp45
 70
     1
102
RTVSPost2010Prop46
 90
       50
102
RTVSPost2010PropOp46
 70
     1
102
RTVSPost2010Prop47
 90
       50
102
RTVSPost2010PropOp47
 70
     1
102
RTVSPost2010Prop48
 90
       50
102
RTVSPost2010PropOp48
 70
     1
102
RTVSPost2010Prop49
280
     0
102
RTVSPost2010PropOp49
 70
     1
102
RTVSPost2010Prop50
 90
       50
102
RTVSPost2010PropOp50
 70
     1
102
RTVSPost2010Prop51ColorIndex
 90
      256
102
RTVSPost2010Prop51ColorRGB
 90
-16777216
102
RTVSPost2010PropOp51
 70
     0
102
RTVSPost2010Prop52
140
1.0
102
RTVSPost2010PropOp52
 70
     0
102
RTVSPost2010Prop53
 90
        2
102
RTVSPost2010PropOp53
 70
     1
102
RTVSPost2010Prop54
  1
strokes_ogs.tif
102
RTVSPost2010PropOp54
 70
     1
102
RTVSPost2010Prop55
280
     0
102
RTVSPost2010PropOp55
 70
     1
102
RTVSPost2010Prop56
140
1.0
102
RTVSPost2010PropOp56
 70
     1
102
RTVSPost2010Prop57
140
1.0
102
RTVSPost2010PropOp57
 70
     1
  0
XRECORD
  5
A5D
102
{ACAD_REACTORS
330
A5C
102
}
330
A5C
100
AcDbXrecord
280
     1
102
RTVSPropertyOp0
 70
     1
102
RTVSPropertyOp1
 70
     1
102
RTVSPropertyOp2
 70
     1
102
RTVSPropertyOp3
 70
     1
102
RTVSPropertyOp4
 70
     1
102
RTVSPropertyOp5
 70
     1
102
RTVSPropertyOp6
 70
     1
102
RTVSPropertyOp7
 70
     1
102
RTVSPropertyOp8
 70
     1
102
RTVSPropertyOp9
 70
     1
102
RTVSPropertyOp10
 70
     1
102
RTVSPropertyOp11
 70
     1
102
RTVSPropertyOp12
 70
     1
102
RTVSPropertyOp13
 70
     1
102
RTVSPropertyOp14
 70
     1
102
RTVSPropertyOp15
 70
     1
102
RTVSPropertyOp16
 70
     1
102
RTVSPropertyOp17
 70
     1
102
RTVSPropertyOp18
 70
     1
102
RTVSPropertyOp19
 70
     1
102
RTVSPropertyOp20
 70
     1
102
RTVSPropertyOp21
 70
     1
102
RTVSPropertyOp22
 70
     1
102
RTVSPropertyOp23
 70
     1
102
RTVSPropertyOp24
 70
     1
102
RTVSPropertyOp25
 70
     1
102
RTVSPropertyOp26
 70
     1
102
RTVSPropertyOp27
 70
     1
102
RTVSPropertyOp28
 70
     1
102
RTVSPropertyOp29
 70
     1
102
RTVSPropertyOp30
 70
     1
102
RTVSPropertyOp31
 70
     1
102
RTVSPropertyOp32
 70
     1
102
RTVSPropertyOp33
 70
     1
102
RTVSPropertyOp34
 70
     1
102
RTVSPropertyOp35
 70
     1
102
RTVSPropertyOp36
 70
     1
102
RTVSPropertyOp37
 70
     1
102
RTVSPropertyOp38
 70
     1
102
RTVSPropertyOp39
 70
     1
102
RTVSPropertyOp40
 70
     1
102
RTVSPropertyOp41
 70
     1
102
RTVSPropertyOp42
 70
     1
102
RTVSPropertyOp43
 70
     1
102
RTVSPropertyOp44
 70
     1
102
RTVSPropertyOp45
 70
     1
102
RTVSPropertyOp46
 70
     1
102
RTVSPropertyOp47
 70
     1
102
RTVSPropertyOp48
 70
     1
102
RTVSPropertyOp49
 70
     1
102
RTVSPropertyOp50
 70
     1
102
RTVSPropertyOp51
 70
     0
102
RTVSPropertyOp52
 70
     0
102
RTVSPropertyOp53
 70
     1
102
RTVSPropertyOp54
 70
     1
102
RTVSPropertyOp55
 70
     1
102
RTVSPropertyOp56
 70
     1
102
RTVSPropertyOp57
 70
     1
102
RTVSPost2010Prop28
280
     0
102
RTVSPost2010PropOp28
 70
     1
102
RTVSPost2010Prop29
280
     1
102
RTVSPost2010PropOp29
 70
     1
102
RTVSPost2010Prop30
280
     1
102
RTVSPost2010PropOp30
 70
     1
102
RTVSPost2010Prop31
280
     0
102
RTVSPost2010PropOp31
 70
     1
102
RTVSPost2010Prop32
280
     0
102
RTVSPost2010PropOp32
 70
     1
102
RTVSPost2010Prop33
280
     0
102
RTVSPost2010PropOp33
 70
     1
102
RTVSPost2010Prop34
280
     0
102
RTVSPost2010PropOp34
 70
     1
102
RTVSPost2010Prop35
280
     0
102
RTVSPost2010PropOp35
 70
     1
102
RTVSPost2010Prop36
280
     0
102
RTVSPost2010PropOp36
 70
     1
102
RTVSPost2010Prop37
 90
       50
102
RTVSPost2010PropOp37
 70
     1
102
RTVSPost2010Prop38
140
0.0
102
RTVSPost2010PropOp38
 70
     1
102
RTVSPost2010Prop39
140
1.0
102
RTVSPost2010PropOp39
 70
     1
102
RTVSPost2010Prop40
 90
        0
102
RTVSPost2010PropOp40
 70
     1
102
RTVSPost2010Prop41ColorIndex
 90
       18
102
RTVSPost2010Prop41ColorRGB
 90
        0
102
RTVSPost2010PropOp41
 70
     1
102
RTVSPost2010Prop42
 90
       50
102
RTVSPost2010PropOp42
 70
     1
102
RTVSPost2010Prop43
 90
        3
102
RTVSPost2010PropOp43
 70
     1
102
RTVSPost2010Prop44ColorIndex
 90
        5
102
RTVSPost2010Prop44ColorRGB
 90
      255
102
RTVSPost2010PropOp44
 70
     1
102
RTVSPost2010Prop45
280
     0
102
RTVSPost2010PropOp45
 70
     1
102
RTVSPost2010Prop46
 90
       50
102
RTVSPost2010PropOp46
 70
     1
102
RTVSPost2010Prop47
 90
       50
102
RTVSPost2010PropOp47
 70
     1
102
RTVSPost2010Prop48
 90
       50
102
RTVSPost2010PropOp48
 70
     1
102
RTVSPost2010Prop49
280
     0
102
RTVSPost2010PropOp49
 70
     1
102
RTVSPost2010Prop50
 90
       50
102
RTVSPost2010PropOp50
 70
     1
102
RTVSPost2010Prop51ColorIndex
 90
      256
102
RTVSPost2010Prop51ColorRGB
 90
-16777216
102
RTVSPost2010PropOp51
 70
     0
102
RTVSPost2010Prop52
140
1.0
102
RTVSPost2010PropOp52
 70
     0
102
RTVSPost2010Prop53
 90
        2
102
RTVSPost2010PropOp53
 70
     1
102
RTVSPost2010Prop54
  1
strokes_ogs.tif
102
RTVSPost2010PropOp54
 70
     1
102
RTVSPost2010Prop55
280
     0
102
RTVSPost2010PropOp55
 70
     1
102
RTVSPost2010Prop56
140
1.0
102
RTVSPost2010PropOp56
 70
     1
102
RTVSPost2010Prop57
140
1.0
102
RTVSPost2010PropOp57
 70
     1
  0
XRECORD
  5
A7D
102
{ACAD_REACTORS
330
A7C
102
}
330
A7C
100
AcDbXrecord
280
     1
102
RTVSPropertyOp0
 70
     1
102
RTVSPropertyOp1
 70
     1
102
RTVSPropertyOp2
 70
     1
102
RTVSPropertyOp3
 70
     1
102
RTVSPropertyOp4
 70
     1
102
RTVSPropertyOp5
 70
     1
102
RTVSPropertyOp6
 70
     1
102
RTVSPropertyOp7
 70
     1
102
RTVSPropertyOp8
 70
     1
102
RTVSPropertyOp9
 70
     1
102
RTVSPropertyOp10
 70
     1
102
RTVSPropertyOp11
 70
     1
102
RTVSPropertyOp12
 70
     1
102
RTVSPropertyOp13
 70
     1
102
RTVSPropertyOp14
 70
     1
102
RTVSPropertyOp15
 70
     1
102
RTVSPropertyOp16
 70
     1
102
RTVSPropertyOp17
 70
     1
102
RTVSPropertyOp18
 70
     1
102
RTVSPropertyOp19
 70
     1
102
RTVSPropertyOp20
 70
     1
102
RTVSPropertyOp21
 70
     1
102
RTVSPropertyOp22
 70
     1
102
RTVSPropertyOp23
 70
     1
102
RTVSPropertyOp24
 70
     1
102
RTVSPropertyOp25
 70
     1
102
RTVSPropertyOp26
 70
     1
102
RTVSPropertyOp27
 70
     1
102
RTVSPropertyOp28
 70
     1
102
RTVSPropertyOp29
 70
     1
102
RTVSPropertyOp30
 70
     1
102
RTVSPropertyOp31
 70
     1
102
RTVSPropertyOp32
 70
     1
102
RTVSPropertyOp33
 70
     1
102
RTVSPropertyOp34
 70
     1
102
RTVSPropertyOp35
 70
     1
102
RTVSPropertyOp36
 70
     1
102
RTVSPropertyOp37
 70
     1
102
RTVSPropertyOp38
 70
     1
102
RTVSPropertyOp39
 70
     1
102
RTVSPropertyOp40
 70
     1
102
RTVSPropertyOp41
 70
     1
102
RTVSPropertyOp42
 70
     1
102
RTVSPropertyOp43
 70
     1
102
RTVSPropertyOp44
 70
     1
102
RTVSPropertyOp45
 70
     1
102
RTVSPropertyOp46
 70
     1
102
RTVSPropertyOp47
 70
     1
102
RTVSPropertyOp48
 70
     1
102
RTVSPropertyOp49
 70
     1
102
RTVSPropertyOp50
 70
     1
102
RTVSPropertyOp51
 70
     0
102
RTVSPropertyOp52
 70
     0
102
RTVSPropertyOp53
 70
     1
102
RTVSPropertyOp54
 70
     1
102
RTVSPropertyOp55
 70
     1
102
RTVSPropertyOp56
 70
     1
102
RTVSPropertyOp57
 70
     1
102
RTVSPost2010Prop28
280
     0
102
RTVSPost2010PropOp28
 70
     1
102
RTVSPost2010Prop29
280
     1
102
RTVSPost2010PropOp29
 70
     1
102
RTVSPost2010Prop30
280
     1
102
RTVSPost2010PropOp30
 70
     1
102
RTVSPost2010Prop31
280
     0
102
RTVSPost2010PropOp31
 70
     1
102
RTVSPost2010Prop32
280
     0
102
RTVSPost2010PropOp32
 70
     1
102
RTVSPost2010Prop33
280
     0
102
RTVSPost2010PropOp33
 70
     1
102
RTVSPost2010Prop34
280
     0
102
RTVSPost2010PropOp34
 70
     1
102
RTVSPost2010Prop35
280
     0
102
RTVSPost2010PropOp35
 70
     1
102
RTVSPost2010Prop36
280
     0
102
RTVSPost2010PropOp36
 70
     1
102
RTVSPost2010Prop37
 90
       50
102
RTVSPost2010PropOp37
 70
     1
102
RTVSPost2010Prop38
140
0.0
102
RTVSPost2010PropOp38
 70
     1
102
RTVSPost2010Prop39
140
1.0
102
RTVSPost2010PropOp39
 70
     1
102
RTVSPost2010Prop40
 90
        0
102
RTVSPost2010PropOp40
 70
     1
102
RTVSPost2010Prop41ColorIndex
 90
       18
102
RTVSPost2010Prop41ColorRGB
 90
        0
102
RTVSPost2010PropOp41
 70
     1
102
RTVSPost2010Prop42
 90
       50
102
RTVSPost2010PropOp42
 70
     1
102
RTVSPost2010Prop43
 90
        3
102
RTVSPost2010PropOp43
 70
     1
102
RTVSPost2010Prop44ColorIndex
 90
        5
102
RTVSPost2010Prop44ColorRGB
 90
      255
102
RTVSPost2010PropOp44
 70
     1
102
RTVSPost2010Prop45
280
     0
102
RTVSPost2010PropOp45
 70
     1
102
RTVSPost2010Prop46
 90
       50
102
RTVSPost2010PropOp46
 70
     1
102
RTVSPost2010Prop47
 90
       50
102
RTVSPost2010PropOp47
 70
     1
102
RTVSPost2010Prop48
 90
       50
102
RTVSPost2010PropOp48
 70
     1
102
RTVSPost2010Prop49
280
     0
102
RTVSPost2010PropOp49
 70
     1
102
RTVSPost2010Prop50
 90
       50
102
RTVSPost2010PropOp50
 70
     1
102
RTVSPost2010Prop51ColorIndex
 90
      256
102
RTVSPost2010Prop51ColorRGB
 90
-16777216
102
RTVSPost2010PropOp51
 70
     0
102
RTVSPost2010Prop52
140
1.0
102
RTVSPost2010PropOp52
 70
     0
102
RTVSPost2010Prop53
 90
        2
102
RTVSPost2010PropOp53
 70
     1
102
RTVSPost2010Prop54
  1
strokes_ogs.tif
102
RTVSPost2010PropOp54
 70
     1
102
RTVSPost2010Prop55
280
     0
102
RTVSPost2010PropOp55
 70
     1
102
RTVSPost2010Prop56
140
1.0
102
RTVSPost2010PropOp56
 70
     1
102
RTVSPost2010Prop57
140
1.0
102
RTVSPost2010PropOp57
 70
     1
  0
ENDSEC
  0
EOF
