  0
SECTION
  2
HEADER
  9
$ACADVER
  1
AC1021
  9
$ACADMAINTVER
 70
    25
  9
$DWGCODEPAGE
  3
ANSI_1254
  9
$INSBASE
 10
0.0
 20
0.0
 30
0.0
  9
$EXTMIN
 10
6487.9037
 20
-7384.1725
 30
0.0
  9
$EXTMAX
 10
7393.1037
 20
-5373.9725
 30
0.0
  9
$LIMMIN
 10
0.0
 20
0.0
  9
$LIMMAX
 10
12.0
 20
9.0
  9
$ORTHOMODE
 70
     0
  9
$REGENMODE
 70
     1
  9
$FILLMODE
 70
     1
  9
$QTEXTMODE
 70
     0
  9
$MIRRTEXT
 70
     1
  9
$LTSCALE
 40
1.0
  9
$ATTMODE
 70
     1
  9
$TEXTSIZE
 40
0.2
  9
$TRACEWID
 40
0.05
  9
$TEXTSTYLE
  7
Standard
  9
$CLAYER
  8
0
  9
$CELTYPE
  6
ByLayer
  9
$CECOLOR
 62
   256
  9
$CELTSCALE
 40
1.0
  9
$DISPSILH
 70
     0
  9
$DIMSCALE
 40
1.0
  9
$DIMASZ
 40
0.18
  9
$DIMEXO
 40
0.0625
  9
$DIMDLI
 40
0.38
  9
$DIMRND
 40
0.0
  9
$DIMDLE
 40
0.0
  9
$DIMEXE
 40
0.18
  9
$DIMTP
 40
0.0
  9
$DIMTM
 40
0.0
  9
$DIMTXT
 40
0.18
  9
$DIMCEN
 40
0.09
  9
$DIMTSZ
 40
0.0
  9
$DIMTOL
 70
     0
  9
$DIMLIM
 70
     0
  9
$DIMTIH
 70
     1
  9
$DIMTOH
 70
     1
  9
$DIMSE1
 70
     0
  9
$DIMSE2
 70
     0
  9
$DIMTAD
 70
     0
  9
$DIMZIN
 70
     0
  9
$DIMBLK
  1

  9
$DIMASO
 70
     1
  9
$DIMSHO
 70
     1
  9
$DIMPOST
  1

  9
$DIMAPOST
  1

  9
$DIMALT
 70
     0
  9
$DIMALTD
 70
     2
  9
$DIMALTF
 40
25.4
  9
$DIMLFAC
 40
1.0
  9
$DIMTOFL
 70
     0
  9
$DIMTVP
 40
0.0
  9
$DIMTIX
 70
     0
  9
$DIMSOXD
 70
     0
  9
$DIMSAH
 70
     0
  9
$DIMBLK1
  1

  9
$DIMBLK2
  1

  9
$DIMSTYLE
  2
Standard
  9
$DIMCLRD
 70
     0
  9
$DIMCLRE
 70
     0
  9
$DIMCLRT
 70
     0
  9
$DIMTFAC
 40
1.0
  9
$DIMGAP
 40
0.09
  9
$DIMJUST
 70
     0
  9
$DIMSD1
 70
     0
  9
$DIMSD2
 70
     0
  9
$DIMTOLJ
 70
     1
  9
$DIMTZIN
 70
     0
  9
$DIMALTZ
 70
     0
  9
$DIMALTTZ
 70
     0
  9
$DIMUPT
 70
     0
  9
$DIMDEC
 70
     4
  9
$DIMTDEC
 70
     4
  9
$DIMALTU
 70
     2
  9
$DIMALTTD
 70
     2
  9
$DIMTXSTY
  7
Standard
  9
$DIMAUNIT
 70
     0
  9
$DIMADEC
 70
     0
  9
$DIMALTRND
 40
0.0
  9
$DIMAZIN
 70
     0
  9
$DIMDSEP
 70
    46
  9
$DIMATFIT
 70
     3
  9
$DIMFRAC
 70
     0
  9
$DIMLDRBLK
  1

  9
$DIMLUNIT
 70
     2
  9
$DIMLWD
 70
    -2
  9
$DIMLWE
 70
    -2
  9
$DIMTMOVE
 70
     0
  9
$DIMFXL
 40
1.0
  9
$DIMFXLON
 70
     0
  9
$DIMJOGANG
 40
0.7853981633974483
  9
$DIMTFILL
 70
     0
  9
$DIMTFILLCLR
 70
     0
  9
$DIMARCSYM
 70
     0
  9
$DIMLTYPE
  6

  9
$DIMLTEX1
  6

  9
$DIMLTEX2
  6

  9
$LUNITS
 70
     2
  9
$LUPREC
 70
     4
  9
$SKETCHINC
 40
0.1
  9
$FILLETRAD
 40
0.5
  9
$AUNITS
 70
     0
  9
$AUPREC
 70
     0
  9
$MENU
  1
.
  9
$ELEVATION
 40
0.0
  9
$PELEVATION
 40
0.0
  9
$THICKNESS
 40
0.0
  9
$LIMCHECK
 70
     0
  9
$CHAMFERA
 40
0.5
  9
$CHAMFERB
 40
0.5
  9
$CHAMFERC
 40
1.0
  9
$CHAMFERD
 40
0.0
  9
$SKPOLY
 70
     0
  9
$TDCREATE
 40
2457896.74409382
  9
$TDUCREATE
 40
2457896.61909382
  9
$TDUPDATE
 40
2457896.744095845
  9
$TDUUPDATE
 40
2457896.619095845
  9
$TDINDWG
 40
0.0000000116
  9
$TDUSRTIMER
 40
0.0000000116
  9
$USRTIMER
 70
     1
  9
$ANGBASE
 50
0.0
  9
$ANGDIR
 70
     0
  9
$PDMODE
 70
     0
  9
$PDSIZE
 40
0.0
  9
$PLINEWID
 40
0.0
  9
$SPLFRAME
 70
     0
  9
$SPLINETYPE
 70
     6
  9
$SPLINESEGS
 70
     8
  9
$HANDSEED
  5
11B
  9
$SURFTAB1
 70
     6
  9
$SURFTAB2
 70
     6
  9
$SURFTYPE
 70
     6
  9
$SURFU
 70
     6
  9
$SURFV
 70
     6
  9
$UCSBASE
  2

  9
$UCSNAME
  2

  9
$UCSORG
 10
0.0
 20
0.0
 30
0.0
  9
$UCSXDIR
 10
1.0
 20
0.0
 30
0.0
  9
$UCSYDIR
 10
0.0
 20
1.0
 30
0.0
  9
$UCSORTHOREF
  2

  9
$UCSORTHOVIEW
 70
     0
  9
$UCSORGTOP
 10
0.0
 20
0.0
 30
0.0
  9
$UCSORGBOTTOM
 10
0.0
 20
0.0
 30
0.0
  9
$UCSORGLEFT
 10
0.0
 20
0.0
 30
0.0
  9
$UCSORGRIGHT
 10
0.0
 20
0.0
 30
0.0
  9
$UCSORGFRONT
 10
0.0
 20
0.0
 30
0.0
  9
$UCSORGBACK
 10
0.0
 20
0.0
 30
0.0
  9
$PUCSBASE
  2

  9
$PUCSNAME
  2

  9
$PUCSORG
 10
0.0
 20
0.0
 30
0.0
  9
$PUCSXDIR
 10
1.0
 20
0.0
 30
0.0
  9
$PUCSYDIR
 10
0.0
 20
1.0
 30
0.0
  9
$PUCSORTHOREF
  2

  9
$PUCSORTHOVIEW
 70
     0
  9
$PUCSORGTOP
 10
0.0
 20
0.0
 30
0.0
  9
$PUCSORGBOTTOM
 10
0.0
 20
0.0
 30
0.0
  9
$PUCSORGLEFT
 10
0.0
 20
0.0
 30
0.0
  9
$PUCSORGRIGHT
 10
0.0
 20
0.0
 30
0.0
  9
$PUCSORGFRONT
 10
0.0
 20
0.0
 30
0.0
  9
$PUCSORGBACK
 10
0.0
 20
0.0
 30
0.0
  9
$USERI1
 70
     0
  9
$USERI2
 70
     0
  9
$USERI3
 70
     0
  9
$USERI4
 70
     0
  9
$USERI5
 70
     0
  9
$USERR1
 40
0.0
  9
$USERR2
 40
0.0
  9
$USERR3
 40
0.0
  9
$USERR4
 40
0.0
  9
$USERR5
 40
0.0
  9
$WORLDVIEW
 70
     1
  9
$SHADEDGE
 70
     3
  9
$SHADEDIF
 70
    70
  9
$TILEMODE
 70
     1
  9
$MAXACTVP
 70
    64
  9
$PINSBASE
 10
0.0
 20
0.0
 30
0.0
  9
$PLIMCHECK
 70
     0
  9
$PEXTMIN
 10
1.000000000000000E+20
 20
1.000000000000000E+20
 30
1.000000000000000E+20
  9
$PEXTMAX
 10
-1.000000000000000E+20
 20
-1.000000000000000E+20
 30
-1.000000000000000E+20
  9
$PLIMMIN
 10
0.0
 20
0.0
  9
$PLIMMAX
 10
12.0
 20
9.0
  9
$UNITMODE
 70
     0
  9
$VISRETAIN
 70
     1
  9
$PLINEGEN
 70
     0
  9
$PSLTSCALE
 70
     1
  9
$TREEDEPTH
 70
  3020
  9
$CMLSTYLE
  2
Standard
  9
$CMLJUST
 70
     0
  9
$CMLSCALE
 40
1.0
  9
$PROXYGRAPHICS
 70
     1
  9
$MEASUREMENT
 70
     0
  9
$CELWEIGHT
370
    -1
  9
$ENDCAPS
280
     0
  9
$JOINSTYLE
280
     0
  9
$LWDISPLAY
290
     0
  9
$INSUNITS
 70
     4
  9
$HYPERLINKBASE
  1

  9
$STYLESHEET
  1

  9
$XEDIT
290
     1
  9
$CEPSNTYPE
380
     0
  9
$PSTYLEMODE
290
     1
  9
$FINGERPRINTGUID
  2
{8A63329F-DD34-4616-ACA6-E4C07EAB9E53}
  9
$VERSIONGUID
  2
{FAEB1C32-E019-11D5-929B-00C0DF256EC4}
  9
$EXTNAMES
290
     1
  9
$PSVPSCALE
 40
0.0
  9
$OLESTARTUP
290
     0
  9
$SORTENTS
280
   127
  9
$INDEXCTL
280
     0
  9
$HIDETEXT
280
     1
  9
$XCLIPFRAME
290
     0
  9
$HALOGAP
280
     0
  9
$OBSCOLOR
 70
   257
  9
$OBSLTYPE
280
     0
  9
$INTERSECTIONDISPLAY
280
     0
  9
$INTERSECTIONCOLOR
 70
   257
  9
$DIMASSOC
280
     2
  9
$PROJECTNAME
  1

  9
$CAMERADISPLAY
290
     0
  9
$LENSLENGTH
 40
50.0
  9
$CAMERAHEIGHT
 40
0.0
  9
$STEPSPERSEC
 40
2.0
  9
$STEPSIZE
 40
6.0
  9
$3DDWFPREC
 40
2.0
  9
$PSOLWIDTH
 40
0.25
  9
$PSOLHEIGHT
 40
4.0
  9
$LOFTANG1
 40
1.570796326794897
  9
$LOFTANG2
 40
1.570796326794897
  9
$LOFTMAG1
 40
0.0
  9
$LOFTMAG2
 40
0.0
  9
$LOFTPARAM
 70
     7
  9
$LOFTNORMALS
280
     1
  9
$LATITUDE
 40
37.795
  9
$LONGITUDE
 40
-122.394
  9
$NORTHDIRECTION
 40
0.0
  9
$TIMEZONE
 70
 -8000
  9
$LIGHTGLYPHDISPLAY
280
     1
  9
$TILEMODELIGHTSYNCH
280
     1
  9
$SOLIDHIST
280
     1
  9
$SHOWHIST
280
     1
  9
$DWFFRAME
280
     2
  9
$DGNFRAME
280
     2
  9
$REALWORLDSCALE
290
     1
  9
$INTERFERECOLOR
 62
   256
  9
$CSHADOW
280
     0
  9
$SHADOWPLANELOCATION
 40
0.0
  0
ENDSEC
  0
SECTION
  2
CLASSES
  0
CLASS
  1
ACDBDICTIONARYWDFLT
  2
AcDbDictionaryWithDefault
  3
ObjectDBX Classes
 90
        0
 91
        4
280
     0
281
     0
  0
CLASS
  1
VISUALSTYLE
  2
AcDbVisualStyle
  3
ObjectDBX Classes
 90
     4095
 91
        4
280
     0
281
     0
  0
CLASS
  1
MATERIAL
  2
AcDbMaterial
  3
ObjectDBX Classes
 90
     1153
 91
        4
280
     0
281
     0
  0
ENDSEC
  0
SECTION
  2
TABLES
  0
TABLE
  2
VPORT
  5
8
330
0
100
AcDbSymbolTable
 70
     1
  0
VPORT
  5
29
330
8
100
AcDbSymbolTableRecord
100
AcDbViewportTableRecord
  2
*Active
 70
     0
 10
0.0
 20
0.0
 11
1.0
 21
1.0
 12
10.42990654205607
 22
4.5
 13
0.0
 23
0.0
 14
0.5
 24
0.5
 15
0.5
 25
0.5
 16
0.0
 26
0.0
 36
1.0
 17
0.0
 27
0.0
 37
0.0
 40
9.0
 41
1.972972972850329
 42
50.0
 43
0.0
 44
0.0
 50
0.0
 51
0.0
 71
     0
 72
   100
 73
     1
 74
     3
 75
     0
 76
     0
 77
     0
 78
     0
281
     0
 65
     1
110
0.0
120
0.0
130
0.0
111
1.0
121
0.0
131
0.0
112
0.0
122
1.0
132
0.0
 79
     0
146
0.0
 60
     3
 61
     5
292
     1
282
     1
141
0.0
142
0.0
 63
   250
  0
ENDTAB
  0
TABLE
  2
LTYPE
  5
5
330
0
100
AcDbSymbolTable
 70
     1
  0
LTYPE
  5
14
330
5
100
AcDbSymbolTableRecord
100
AcDbLinetypeTableRecord
  2
ByBlock
 70
     0
  3

 72
    65
 73
     0
 40
0.0
  0
LTYPE
  5
15
330
5
100
AcDbSymbolTableRecord
100
AcDbLinetypeTableRecord
  2
ByLayer
 70
     0
  3

 72
    65
 73
     0
 40
0.0
  0
LTYPE
  5
16
330
5
100
AcDbSymbolTableRecord
100
AcDbLinetypeTableRecord
  2
Continuous
 70
     0
  3
Solid line
 72
    65
 73
     0
 40
0.0
  0
ENDTAB
  0
TABLE
  2
LAYER
  5
2
330
0
100
AcDbSymbolTable
 70
     2
  0
LAYER
  5
10
330
2
100
AcDbSymbolTableRecord
100
AcDbLayerTableRecord
  2
0
 70
     0
 62
     7
  6
Continuous
370
    -3
390
F
347
3E
  0
LAYER
  5
40
330
2
100
AcDbSymbolTableRecord
100
AcDbLayerTableRecord
  2
Layer 1
 70
     0
 62
     7
  6
Continuous
370
    -3
390
F
347
3E
  0
ENDTAB
  0
TABLE
  2
STYLE
  5
3
330
0
100
AcDbSymbolTable
 70
     1
  0
STYLE
  5
11
330
3
100
AcDbSymbolTableRecord
100
AcDbTextStyleTableRecord
  2
Standard
 70
     0
 40
0.0
 41
1.0
 50
0.0
 71
     0
 42
0.2
  3
txt
  4

  0
ENDTAB
  0
TABLE
  2
VIEW
  5
6
330
0
100
AcDbSymbolTable
 70
     0
  0
ENDTAB
  0
TABLE
  2
UCS
  5
7
330
0
100
AcDbSymbolTable
 70
     0
  0
ENDTAB
  0
TABLE
  2
APPID
  5
9
330
0
100
AcDbSymbolTable
 70
     2
  0
APPID
  5
12
330
9
100
AcDbSymbolTableRecord
100
AcDbRegAppTableRecord
  2
ACAD
 70
     0
  0
APPID
  5
3F
330
9
100
AcDbSymbolTableRecord
100
AcDbRegAppTableRecord
  2
ODA
 70
     0
  0
ENDTAB
  0
TABLE
  2
DIMSTYLE
  5
A
330
0
100
AcDbSymbolTable
 70
     1
100
AcDbDimStyleTable
  0
DIMSTYLE
105
27
330
A
100
AcDbSymbolTableRecord
100
AcDbDimStyleTableRecord
  2
Standard
 70
     0
178
     0
340
11
  0
ENDTAB
  0
TABLE
  2
BLOCK_RECORD
  5
1
330
0
100
AcDbSymbolTable
 70
     1
  0
BLOCK_RECORD
  5
1F
330
1
100
AcDbSymbolTableRecord
100
AcDbBlockTableRecord
  2
*Model_Space
340
22
 70
     0
280
     1
281
     0
  0
BLOCK_RECORD
  5
1B
330
1
100
AcDbSymbolTableRecord
100
AcDbBlockTableRecord
  2
*Paper_Space
340
1E
 70
     0
280
     1
281
     0
  0
BLOCK_RECORD
  5
23
330
1
100
AcDbSymbolTableRecord
100
AcDbBlockTableRecord
  2
*Paper_Space0
340
26
 70
     0
280
     1
281
     0
  0
ENDTAB
  0
ENDSEC
  0
SECTION
  2
BLOCKS
  0
BLOCK
  5
20
330
1F
100
AcDbEntity
  8
0
100
AcDbBlockBegin
  2
*Model_Space
 70
     0
 10
0.0
 20
0.0
 30
0.0
  3
*Model_Space
  1

  0
ENDBLK
  5
21
330
1F
100
AcDbEntity
  8
0
100
AcDbBlockEnd
  0
BLOCK
  5
1C
330
1B
100
AcDbEntity
 67
     1
  8
0
100
AcDbBlockBegin
  2
*Paper_Space
 70
     0
 10
0.0
 20
0.0
 30
0.0
  3
*Paper_Space
  1

  0
ENDBLK
  5
1D
330
1B
100
AcDbEntity
 67
     1
  8
0
100
AcDbBlockEnd
  0
BLOCK
  5
24
330
23
100
AcDbEntity
  8
0
100
AcDbBlockBegin
  2
*Paper_Space0
 70
     0
 10
0.0
 20
0.0
 30
0.0
  3
*Paper_Space0
  1

  0
ENDBLK
  5
25
330
23
100
AcDbEntity
  8
0
100
AcDbBlockEnd
  0
ENDSEC
  0
SECTION
  2
ENTITIES
  0
LWPOLYLINE
  5
41
330
1F
100
AcDbEntity
  8
Layer 1
370
    20
100
AcDbPolyline
 90
        5
 70
     1
 43
0.0
 10
6488.0037
 20
-7384.0725
 10
7393.0037
 20
-7384.0725
 10
7393.0037
 20
-5374.0725
 10
6488.0037
 20
-5374.0725
 10
6488.0037
 20
-7384.0725
  0
LWPOLYLINE
  5
42
330
1F
100
AcDbEntity
  8
Layer 1
 62
   251
370
    20
100
AcDbPolyline
 90
        5
 70
     1
 43
0.0
 10
6588.0038
 20
-7284.0725
 10
7293.0036
 20
-7284.0725
 10
7293.0036
 20
-5474.0725
 10
6588.0038
 20
-5474.0725
 10
6588.0038
 20
-7284.0725
  0
SPLINE
  5
43
330
1F
100
AcDbEntity
  8
Layer 1
 62
   250
370
    20
100
AcDbSpline
210
0.0
220
0.0
230
1.0
 70
    11
 71
     3
 72
    20
 73
    16
 74
     0
 42
0.0000000001
 43
0.0000000001
 12
1.0
 22
0.0
 32
0.0
 13
1.0
 23
0.0
 33
0.0
 40
0.0
 40
0.0
 40
0.0
 40
0.0
 40
0.2
 40
0.2
 40
0.2
 40
0.2
 40
0.4
 40
0.4
 40
0.4
 40
0.4
 40
0.6
 40
0.6
 40
0.6
 40
0.6
 40
1.0
 40
1.0
 40
1.0
 40
1.0
 10
6608.0038
 20
-5494.0725
 30
0.0
 10
6608.0038
 20
-5494.0725
 30
0.0
 10
7273.0037
 20
-5494.0725
 30
0.0
 10
7273.0037
 20
-5494.0725
 30
0.0
 10
7273.0037
 20
-5494.0725
 30
0.0
 10
7273.0037
 20
-5494.0725
 30
0.0
 10
7273.0037
 20
-7264.0725
 30
0.0
 10
7273.0037
 20
-7264.0725
 30
0.0
 10
7273.0037
 20
-7264.0725
 30
0.0
 10
7273.0037
 20
-7264.0725
 30
0.0
 10
6608.0038
 20
-7264.0725
 30
0.0
 10
6608.0038
 20
-7264.0725
 30
0.0
 10
6608.0038
 20
-7264.0725
 30
0.0
 10
6608.0038
 20
-7264.0725
 30
0.0
 10
6608.0038
 20
-5494.0725
 30
0.0
 10
6608.0038
 20
-5494.0725
 30
0.0
  0
SPLINE
  5
44
330
1F
100
AcDbEntity
  8
Layer 1
 62
   250
370
    20
100
AcDbSpline
210
0.0
220
0.0
230
1.0
 70
    11
 71
     3
 72
    20
 73
    16
 74
     0
 42
0.0000000001
 43
0.0000000001
 12
1.0
 22
0.0
 32
0.0
 13
1.0
 23
0.0
 33
0.0
 40
0.0
 40
0.0
 40
0.0
 40
0.0
 40
0.2
 40
0.2
 40
0.2
 40
0.2
 40
0.4
 40
0.4
 40
0.4
 40
0.4
 40
0.6
 40
0.6
 40
0.6
 40
0.6
 40
1.0
 40
1.0
 40
1.0
 40
1.0
 10
6623.0038
 20
-5509.0725
 30
0.0
 10
6623.0038
 20
-5509.0725
 30
0.0
 10
6623.0038
 20
-7249.0725
 30
0.0
 10
6623.0038
 20
-7249.0725
 30
0.0
 10
6623.0038
 20
-7249.0725
 30
0.0
 10
6623.0038
 20
-7249.0725
 30
0.0
 10
7258.0037
 20
-7249.0725
 30
0.0
 10
7258.0037
 20
-7249.0725
 30
0.0
 10
7258.0037
 20
-7249.0725
 30
0.0
 10
7258.0037
 20
-7249.0725
 30
0.0
 10
7258.0037
 20
-5509.0725
 30
0.0
 10
7258.0037
 20
-5509.0725
 30
0.0
 10
7258.0037
 20
-5509.0725
 30
0.0
 10
7258.0037
 20
-5509.0725
 30
0.0
 10
6623.0038
 20
-5509.0725
 30
0.0
 10
6623.0038
 20
-5509.0725
 30
0.0
  0
SPLINE
  5
45
330
1F
100
AcDbEntity
  8
Layer 1
 62
   250
370
    20
100
AcDbSpline
210
0.0
220
0.0
230
1.0
 70
    11
 71
     3
 72
    20
 73
    16
 74
     0
 42
0.0000000001
 43
0.0000000001
 12
1.0
 22
0.0
 32
0.0
 13
1.0
 23
0.0
 33
0.0
 40
0.0
 40
0.0
 40
0.0
 40
0.0
 40
0.2
 40
0.2
 40
0.2
 40
0.2
 40
0.4
 40
0.4
 40
0.4
 40
0.4
 40
0.6
 40
0.6
 40
0.6
 40
0.6
 40
1.0
 40
1.0
 40
1.0
 40
1.0
 10
7012.6806
 20
-5633.1923
 30
0.0
 10
7012.6806
 20
-5633.1923
 30
0.0
 10
6998.2406
 20
-5566.4016
 30
0.0
 10
6998.2406
 20
-5566.4016
 30
0.0
 10
6998.2406
 20
-5566.4016
 30
0.0
 10
6998.2406
 20
-5566.4016
 30
0.0
 10
6970.3749
 20
-5560.4675
 30
0.0
 10
6970.3749
 20
-5560.4675
 30
0.0
 10
6970.3749
 20
-5560.4675
 30
0.0
 10
6970.3749
 20
-5560.4675
 30
0.0
 10
6961.62
 20
-5587.3857
 30
0.0
 10
6961.62
 20
-5587.3857
 30
0.0
 10
6961.62
 20
-5587.3857
 30
0.0
 10
6961.62
 20
-5587.3857
 30
0.0
 10
7012.6806
 20
-5633.1923
 30
0.0
 10
7012.6806
 20
-5633.1923
 30
0.0
  0
SPLINE
  5
46
330
1F
100
AcDbEntity
  8
Layer 1
 62
   250
370
    20
100
AcDbSpline
210
0.0
220
0.0
230
1.0
 70
    11
 71
     3
 72
    48
 73
    44
 74
     0
 42
0.0000000001
 43
0.0000000001
 12
1.0
 22
0.0
 32
0.0
 13
1.0
 23
0.0
 33
0.0
 40
0.0
 40
0.0
 40
0.0
 40
0.0
 40
0.0833333333333333
 40
0.0833333333333333
 40
0.0833333333333333
 40
0.0833333333333333
 40
0.1666666666666667
 40
0.1666666666666667
 40
0.1666666666666667
 40
0.1666666666666667
 40
0.25
 40
0.25
 40
0.25
 40
0.25
 40
0.3333333333333333
 40
0.3333333333333333
 40
0.3333333333333333
 40
0.3333333333333333
 40
0.4166666666666667
 40
0.4166666666666667
 40
0.4166666666666667
 40
0.4166666666666667
 40
0.5
 40
0.5
 40
0.5
 40
0.5
 40
0.5833333333333334
 40
0.5833333333333334
 40
0.5833333333333334
 40
0.5833333333333334
 40
0.6666666666666666
 40
0.6666666666666666
 40
0.6666666666666666
 40
0.6666666666666666
 40
0.75
 40
0.75
 40
0.75
 40
0.75
 40
0.8333333333333334
 40
0.8333333333333334
 40
0.8333333333333334
 40
0.8333333333333334
 40
1.0
 40
1.0
 40
1.0
 40
1.0
 10
6623.0038
 20
-5547.1497
 30
0.0
 10
6623.0038
 20
-5547.1497
 30
0.0
 10
6623.0038
 20
-5556.5828
 30
0.0
 10
6623.0038
 20
-5556.5828
 30
0.0
 10
6623.0038
 20
-5556.5828
 30
0.0
 10
6623.0038
 20
-5556.5828
 30
0.0
 10
6640.8513
 20
-5566.7642
 30
0.0
 10
6640.8513
 20
-5566.7642
 30
0.0
 10
6640.8513
 20
-5566.7642
 30
0.0
 10
6640.8513
 20
-5566.7642
 30
0.0
 10
6633.1404
 20
-5602.432
 30
0.0
 10
6633.1404
 20
-5602.432
 30
0.0
 10
6633.1404
 20
-5602.432
 30
0.0
 10
6633.1404
 20
-5602.432
 30
0.0
 10
6660.408
 20
-5577.9704
 30
0.0
 10
6660.408
 20
-5577.9704
 30
0.0
 10
6660.408
 20
-5577.9704
 30
0.0
 10
6660.408
 20
-5577.9704
 30
0.0
 10
6692.2044
 20
-5596.2711
 30
0.0
 10
6692.2044
 20
-5596.2711
 30
0.0
 10
6692.2044
 20
-5596.2711
 30
0.0
 10
6692.2044
 20
-5596.2711
 30
0.0
 10
6677.1898
 20
-5562.9739
 30
0.0
 10
6677.1898
 20
-5562.9739
 30
0.0
 10
6677.1898
 20
-5562.9739
 30
0.0
 10
6677.1898
 20
-5562.9739
 30
0.0
 10
6704.5522
 20
-5538.616
 30
0.0
 10
6704.5522
 20
-5538.616
 30
0.0
 10
6704.5522
 20
-5538.616
 30
0.0
 10
6704.5522
 20
-5538.616
 30
0.0
 10
6668.0051
 20
-5542.499
 30
0.0
 10
6668.0051
 20
-5542.499
 30
0.0
 10
6668.0051
 20
-5542.499
 30
0.0
 10
6668.0051
 20
-5542.499
 30
0.0
 10
6653.1193
 20
-5509.1449
 30
0.0
 10
6653.1193
 20
-5509.1449
 30
0.0
 10
6653.1193
 20
-5509.1449
 30
0.0
 10
6653.1193
 20
-5509.1449
 30
0.0
 10
6645.5465
 20
-5544.8417
 30
0.0
 10
6645.5465
 20
-5544.8417
 30
0.0
 10
6645.5465
 20
-5544.8417
 30
0.0
 10
6645.5465
 20
-5544.8417
 30
0.0
 10
6623.0038
 20
-5547.1497
 30
0.0
 10
6623.0038
 20
-5547.1497
 30
0.0
  0
SPLINE
  5
47
330
1F
100
AcDbEntity
  8
Layer 1
 62
   250
370
    20
100
AcDbSpline
210
0.0
220
0.0
230
1.0
 70
    11
 71
     3
 72
    16
 73
    12
 74
     0
 42
0.0000000001
 43
0.0000000001
 12
1.0
 22
0.0
 32
0.0
 13
1.0
 23
0.0
 33
0.0
 40
0.0
 40
0.0
 40
0.0
 40
0.0
 40
0.25
 40
0.25
 40
0.25
 40
0.25
 40
0.5
 40
0.5
 40
0.5
 40
0.5
 40
1.0
 40
1.0
 40
1.0
 40
1.0
 10
6623.0038
 20
-5611.5254
 30
0.0
 10
6623.0038
 20
-5611.5254
 30
0.0
 10
6623.0038
 20
-5649.3179
 30
0.0
 10
6623.0038
 20
-5649.3179
 30
0.0
 10
6623.0038
 20
-5649.3179
 30
0.0
 10
6623.0038
 20
-5649.3179
 30
0.0
 10
6633.1401
 20
-5602.4321
 30
0.0
 10
6633.1401
 20
-5602.4321
 30
0.0
 10
6633.1401
 20
-5602.4321
 30
0.0
 10
6633.1401
 20
-5602.4321
 30
0.0
 10
6623.0038
 20
-5611.5254
 30
0.0
 10
6623.0038
 20
-5611.5254
 30
0.0
  0
SPLINE
  5
48
330
1F
100
AcDbEntity
  8
Layer 1
 62
   250
370
    20
100
AcDbSpline
210
0.0
220
0.0
230
1.0
 70
    11
 71
     3
 72
    20
 73
    16
 74
     0
 42
0.0000000001
 43
0.0000000001
 12
1.0
 22
0.0
 32
0.0
 13
1.0
 23
0.0
 33
0.0
 40
0.0
 40
0.0
 40
0.0
 40
0.0
 40
0.2
 40
0.2
 40
0.2
 40
0.2
 40
0.4
 40
0.4
 40
0.4
 40
0.4
 40
0.6
 40
0.6
 40
0.6
 40
0.6
 40
1.0
 40
1.0
 40
1.0
 40
1.0
 10
6623.0038
 20
-5668.3817
 30
0.0
 10
6623.0038
 20
-5668.3817
 30
0.0
 10
6623.0038
 20
-5700.1513
 30
0.0
 10
6623.0038
 20
-5700.1513
 30
0.0
 10
6623.0038
 20
-5700.1513
 30
0.0
 10
6623.0038
 20
-5700.1513
 30
0.0
 10
6639.8019
 20
-5705.4968
 30
0.0
 10
6639.8019
 20
-5705.4968
 30
0.0
 10
6639.8019
 20
-5705.4968
 30
0.0
 10
6639.8019
 20
-5705.4968
 30
0.0
 10
6685.997
 20
-5654.8916
 30
0.0
 10
6685.997
 20
-5654.8916
 30
0.0
 10
6685.997
 20
-5654.8916
 30
0.0
 10
6685.997
 20
-5654.8916
 30
0.0
 10
6623.0038
 20
-5668.3817
 30
0.0
 10
6623.0038
 20
-5668.3817
 30
0.0
  0
SPLINE
  5
49
330
1F
100
AcDbEntity
  8
Layer 1
 62
   250
370
    20
100
AcDbSpline
210
0.0
220
0.0
230
1.0
 70
    11
 71
     3
 72
    24
 73
    20
 74
     0
 42
0.0000000001
 43
0.0000000001
 12
1.0
 22
0.0
 32
0.0
 13
1.0
 23
0.0
 33
0.0
 40
0.0
 40
0.0
 40
0.0
 40
0.0
 40
0.1666666666666667
 40
0.1666666666666667
 40
0.1666666666666667
 40
0.1666666666666667
 40
0.3333333333333333
 40
0.3333333333333333
 40
0.3333333333333333
 40
0.3333333333333333
 40
0.5
 40
0.5
 40
0.5
 40
0.5
 40
0.6666666666666666
 40
0.6666666666666666
 40
0.6666666666666666
 40
0.6666666666666666
 40
1.0
 40
1.0
 40
1.0
 40
1.0
 10
6623.0038
 20
-5724.0585
 30
0.0
 10
6623.0038
 20
-5724.0585
 30
0.0
 10
6623.0038
 20
-5729.0464
 30
0.0
 10
6623.0038
 20
-5729.0464
 30
0.0
 10
6623.0038
 20
-5729.0464
 30
0.0
 10
6623.0038
 20
-5729.0464
 30
0.0
 10
6639.8434
 20
-5747.5365
 30
0.0
 10
6639.8434
 20
-5747.5365
 30
0.0
 10
6639.8434
 20
-5747.5365
 30
0.0
 10
6639.8434
 20
-5747.5365
 30
0.0
 10
6705.3438
 20
-5726.5523
 30
0.0
 10
6705.3438
 20
-5726.5523
 30
0.0
 10
6705.3438
 20
-5726.5523
 30
0.0
 10
6705.3438
 20
-5726.5523
 30
0.0
 10
6639.8434
 20
-5705.5681
 30
0.0
 10
6639.8434
 20
-5705.5681
 30
0.0
 10
6639.8434
 20
-5705.5681
 30
0.0
 10
6639.8434
 20
-5705.5681
 30
0.0
 10
6623.0038
 20
-5724.0585
 30
0.0
 10
6623.0038
 20
-5724.0585
 30
0.0
  0
SPLINE
  5
4A
330
1F
100
AcDbEntity
  8
Layer 1
 62
   250
370
    20
100
AcDbSpline
210
0.0
220
0.0
230
1.0
 70
    11
 71
     3
 72
    20
 73
    16
 74
     0
 42
0.0000000001
 43
0.0000000001
 12
1.0
 22
0.0
 32
0.0
 13
1.0
 23
0.0
 33
0.0
 40
0.0
 40
0.0
 40
0.0
 40
0.0
 40
0.2
 40
0.2
 40
0.2
 40
0.2
 40
0.4
 40
0.4
 40
0.4
 40
0.4
 40
0.6
 40
0.6
 40
0.6
 40
0.6
 40
1.0
 40
1.0
 40
1.0
 40
1.0
 10
6623.0038
 20
-5752.9535
 30
0.0
 10
6623.0038
 20
-5752.9535
 30
0.0
 10
6623.0038
 20
-5784.723
 30
0.0
 10
6623.0038
 20
-5784.723
 30
0.0
 10
6623.0038
 20
-5784.723
 30
0.0
 10
6623.0038
 20
-5784.723
 30
0.0
 10
6685.997
 20
-5798.2129
 30
0.0
 10
6685.997
 20
-5798.2129
 30
0.0
 10
6685.997
 20
-5798.2129
 30
0.0
 10
6685.997
 20
-5798.2129
 30
0.0
 10
6639.8019
 20
-5747.6081
 30
0.0
 10
6639.8019
 20
-5747.6081
 30
0.0
 10
6639.8019
 20
-5747.6081
 30
0.0
 10
6639.8019
 20
-5747.6081
 30
0.0
 10
6623.0038
 20
-5752.9535
 30
0.0
 10
6623.0038
 20
-5752.9535
 30
0.0
  0
SPLINE
  5
4B
330
1F
100
AcDbEntity
  8
Layer 1
 62
   250
370
    20
100
AcDbSpline
210
0.0
220
0.0
230
1.0
 70
    11
 71
     3
 72
    16
 73
    12
 74
     0
 42
0.0000000001
 43
0.0000000001
 12
1.0
 22
0.0
 32
0.0
 13
1.0
 23
0.0
 33
0.0
 40
0.0
 40
0.0
 40
0.0
 40
0.0
 40
0.25
 40
0.25
 40
0.25
 40
0.25
 40
0.5
 40
0.5
 40
0.5
 40
0.5
 40
1.0
 40
1.0
 40
1.0
 40
1.0
 10
6623.0038
 20
-5803.7875
 30
0.0
 10
6623.0038
 20
-5803.7875
 30
0.0
 10
6623.0038
 20
-5841.5792
 30
0.0
 10
6623.0038
 20
-5841.5792
 30
0.0
 10
6623.0038
 20
-5841.5792
 30
0.0
 10
6623.0038
 20
-5841.5792
 30
0.0
 10
6633.1401
 20
-5850.6725
 30
0.0
 10
6633.1401
 20
-5850.6725
 30
0.0
 10
6633.1401
 20
-5850.6725
 30
0.0
 10
6633.1401
 20
-5850.6725
 30
0.0
 10
6623.0038
 20
-5803.7875
 30
0.0
 10
6623.0038
 20
-5803.7875
 30
0.0
  0
SPLINE
  5
4C
330
1F
100
AcDbEntity
  8
Layer 1
 62
   250
370
    20
100
AcDbSpline
210
0.0
220
0.0
230
1.0
 70
    11
 71
     3
 72
    16
 73
    12
 74
     0
 42
0.0000000001
 43
0.0000000001
 12
1.0
 22
0.0
 32
0.0
 13
1.0
 23
0.0
 33
0.0
 40
0.0
 40
0.0
 40
0.0
 40
0.0
 40
0.25
 40
0.25
 40
0.25
 40
0.25
 40
0.5
 40
0.5
 40
0.5
 40
0.5
 40
1.0
 40
1.0
 40
1.0
 40
1.0
 10
7258.0037
 20
-5841.5769
 30
0.0
 10
7258.0037
 20
-5841.5769
 30
0.0
 10
7258.0037
 20
-5803.8565
 30
0.0
 10
7258.0037
 20
-5803.8565
 30
0.0
 10
7258.0037
 20
-5803.8565
 30
0.0
 10
7258.0037
 20
-5803.8565
 30
0.0
 10
7247.8866
 20
-5850.6529
 30
0.0
 10
7247.8866
 20
-5850.6529
 30
0.0
 10
7247.8866
 20
-5850.6529
 30
0.0
 10
7247.8866
 20
-5850.6529
 30
0.0
 10
7258.0037
 20
-5841.5769
 30
0.0
 10
7258.0037
 20
-5841.5769
 30
0.0
  0
SPLINE
  5
4D
330
1F
100
AcDbEntity
  8
Layer 1
 62
   250
370
    20
100
AcDbSpline
210
0.0
220
0.0
230
1.0
 70
    11
 71
     3
 72
    20
 73
    16
 74
     0
 42
0.0000000001
 43
0.0000000001
 12
1.0
 22
0.0
 32
0.0
 13
1.0
 23
0.0
 33
0.0
 40
0.0
 40
0.0
 40
0.0
 40
0.0
 40
0.2
 40
0.2
 40
0.2
 40
0.2
 40
0.4
 40
0.4
 40
0.4
 40
0.4
 40
0.6
 40
0.6
 40
0.6
 40
0.6
 40
1.0
 40
1.0
 40
1.0
 40
1.0
 10
7258.0037
 20
-5784.7078
 30
0.0
 10
7258.0037
 20
-5784.7078
 30
0.0
 10
7258.0037
 20
-5752.9277
 30
0.0
 10
7258.0037
 20
-5752.9277
 30
0.0
 10
7258.0037
 20
-5752.9277
 30
0.0
 10
7258.0037
 20
-5752.9277
 30
0.0
 10
7241.2249
 20
-5747.5884
 30
0.0
 10
7241.2249
 20
-5747.5884
 30
0.0
 10
7241.2249
 20
-5747.5884
 30
0.0
 10
7241.2249
 20
-5747.5884
 30
0.0
 10
7195.0299
 20
-5798.1937
 30
0.0
 10
7195.0299
 20
-5798.1937
 30
0.0
 10
7195.0299
 20
-5798.1937
 30
0.0
 10
7195.0299
 20
-5798.1937
 30
0.0
 10
7258.0037
 20
-5784.7078
 30
0.0
 10
7258.0037
 20
-5784.7078
 30
0.0
  0
SPLINE
  5
4E
330
1F
100
AcDbEntity
  8
Layer 1
 62
   250
370
    20
100
AcDbSpline
210
0.0
220
0.0
230
1.0
 70
    11
 71
     3
 72
    24
 73
    20
 74
     0
 42
0.0000000001
 43
0.0000000001
 12
1.0
 22
0.0
 32
0.0
 13
1.0
 23
0.0
 33
0.0
 40
0.0
 40
0.0
 40
0.0
 40
0.0
 40
0.1666666666666667
 40
0.1666666666666667
 40
0.1666666666666667
 40
0.1666666666666667
 40
0.3333333333333333
 40
0.3333333333333333
 40
0.3333333333333333
 40
0.3333333333333333
 40
0.5
 40
0.5
 40
0.5
 40
0.5
 40
0.6666666666666666
 40
0.6666666666666666
 40
0.6666666666666666
 40
0.6666666666666666
 40
1.0
 40
1.0
 40
1.0
 40
1.0
 10
7258.0037
 20
-5729.0482
 30
0.0
 10
7258.0037
 20
-5729.0482
 30
0.0
 10
7258.0037
 20
-5724.0178
 30
0.0
 10
7258.0037
 20
-5724.0178
 30
0.0
 10
7258.0037
 20
-5724.0178
 30
0.0
 10
7258.0037
 20
-5724.0178
 30
0.0
 10
7241.1834
 20
-5705.5488
 30
0.0
 10
7241.1834
 20
-5705.5488
 30
0.0
 10
7241.1834
 20
-5705.5488
 30
0.0
 10
7241.1834
 20
-5705.5488
 30
0.0
 10
7175.683
 20
-5726.533
 30
0.0
 10
7175.683
 20
-5726.533
 30
0.0
 10
7175.683
 20
-5726.533
 30
0.0
 10
7175.683
 20
-5726.533
 30
0.0
 10
7241.1835
 20
-5747.5169
 30
0.0
 10
7241.1835
 20
-5747.5169
 30
0.0
 10
7241.1835
 20
-5747.5169
 30
0.0
 10
7241.1835
 20
-5747.5169
 30
0.0
 10
7258.0037
 20
-5729.0482
 30
0.0
 10
7258.0037
 20
-5729.0482
 30
0.0
  0
SPLINE
  5
4F
330
1F
100
AcDbEntity
  8
Layer 1
 62
   250
370
    20
100
AcDbSpline
210
0.0
220
0.0
230
1.0
 70
    11
 71
     3
 72
    20
 73
    16
 74
     0
 42
0.0000000001
 43
0.0000000001
 12
1.0
 22
0.0
 32
0.0
 13
1.0
 23
0.0
 33
0.0
 40
0.0
 40
0.0
 40
0.0
 40
0.0
 40
0.2
 40
0.2
 40
0.2
 40
0.2
 40
0.4
 40
0.4
 40
0.4
 40
0.4
 40
0.6
 40
0.6
 40
0.6
 40
0.6
 40
1.0
 40
1.0
 40
1.0
 40
1.0
 10
7258.0037
 20
-5700.1379
 30
0.0
 10
7258.0037
 20
-5700.1379
 30
0.0
 10
7258.0037
 20
-5668.3582
 30
0.0
 10
7258.0037
 20
-5668.3582
 30
0.0
 10
7258.0037
 20
-5668.3582
 30
0.0
 10
7258.0037
 20
-5668.3582
 30
0.0
 10
7195.0299
 20
-5654.872
 30
0.0
 10
7195.0299
 20
-5654.872
 30
0.0
 10
7195.0299
 20
-5654.872
 30
0.0
 10
7195.0299
 20
-5654.872
 30
0.0
 10
7241.225
 20
-5705.4772
 30
0.0
 10
7241.225
 20
-5705.4772
 30
0.0
 10
7241.225
 20
-5705.4772
 30
0.0
 10
7241.225
 20
-5705.4772
 30
0.0
 10
7258.0037
 20
-5700.1379
 30
0.0
 10
7258.0037
 20
-5700.1379
 30
0.0
  0
SPLINE
  5
50
330
1F
100
AcDbEntity
  8
Layer 1
 62
   250
370
    20
100
AcDbSpline
210
0.0
220
0.0
230
1.0
 70
    11
 71
     3
 72
    16
 73
    12
 74
     0
 42
0.0000000001
 43
0.0000000001
 12
1.0
 22
0.0
 32
0.0
 13
1.0
 23
0.0
 33
0.0
 40
0.0
 40
0.0
 40
0.0
 40
0.0
 40
0.25
 40
0.25
 40
0.25
 40
0.25
 40
0.5
 40
0.5
 40
0.5
 40
0.5
 40
1.0
 40
1.0
 40
1.0
 40
1.0
 10
7258.0037
 20
-5649.2091
 30
0.0
 10
7258.0037
 20
-5649.2091
 30
0.0
 10
7258.0037
 20
-5611.4889
 30
0.0
 10
7258.0037
 20
-5611.4889
 30
0.0
 10
7258.0037
 20
-5611.4889
 30
0.0
 10
7258.0037
 20
-5611.4889
 30
0.0
 10
7247.8866
 20
-5602.4128
 30
0.0
 10
7247.8866
 20
-5602.4128
 30
0.0
 10
7247.8866
 20
-5602.4128
 30
0.0
 10
7247.8866
 20
-5602.4128
 30
0.0
 10
7258.0037
 20
-5649.2091
 30
0.0
 10
7258.0037
 20
-5649.2091
 30
0.0
  0
SPLINE
  5
51
330
1F
100
AcDbEntity
  8
Layer 1
 62
   250
370
    20
100
AcDbSpline
210
0.0
220
0.0
230
1.0
 70
    11
 71
     3
 72
    48
 73
    44
 74
     0
 42
0.0000000001
 43
0.0000000001
 12
1.0
 22
0.0
 32
0.0
 13
1.0
 23
0.0
 33
0.0
 40
0.0
 40
0.0
 40
0.0
 40
0.0
 40
0.0833333333333333
 40
0.0833333333333333
 40
0.0833333333333333
 40
0.0833333333333333
 40
0.1666666666666667
 40
0.1666666666666667
 40
0.1666666666666667
 40
0.1666666666666667
 40
0.25
 40
0.25
 40
0.25
 40
0.25
 40
0.3333333333333333
 40
0.3333333333333333
 40
0.3333333333333333
 40
0.3333333333333333
 40
0.4166666666666667
 40
0.4166666666666667
 40
0.4166666666666667
 40
0.4166666666666667
 40
0.5
 40
0.5
 40
0.5
 40
0.5
 40
0.5833333333333334
 40
0.5833333333333334
 40
0.5833333333333334
 40
0.5833333333333334
 40
0.6666666666666666
 40
0.6666666666666666
 40
0.6666666666666666
 40
0.6666666666666666
 40
0.75
 40
0.75
 40
0.75
 40
0.75
 40
0.8333333333333334
 40
0.8333333333333334
 40
0.8333333333333334
 40
0.8333333333333334
 40
1.0
 40
1.0
 40
1.0
 40
1.0
 10
7258.0037
 20
-5556.5743
 30
0.0
 10
7258.0037
 20
-5556.5743
 30
0.0
 10
7258.0037
 20
-5547.1283
 30
0.0
 10
7258.0037
 20
-5547.1283
 30
0.0
 10
7258.0037
 20
-5547.1283
 30
0.0
 10
7258.0037
 20
-5547.1283
 30
0.0
 10
7235.4803
 20
-5544.8223
 30
0.0
 10
7235.4803
 20
-5544.8223
 30
0.0
 10
7235.4803
 20
-5544.8223
 30
0.0
 10
7235.4803
 20
-5544.8223
 30
0.0
 10
7227.9076
 20
-5509.1251
 30
0.0
 10
7227.9076
 20
-5509.1251
 30
0.0
 10
7227.9076
 20
-5509.1251
 30
0.0
 10
7227.9076
 20
-5509.1251
 30
0.0
 10
7213.0219
 20
-5542.4793
 30
0.0
 10
7213.0219
 20
-5542.4793
 30
0.0
 10
7213.0219
 20
-5542.4793
 30
0.0
 10
7213.0219
 20
-5542.4793
 30
0.0
 10
7176.4746
 20
-5538.5966
 30
0.0
 10
7176.4746
 20
-5538.5966
 30
0.0
 10
7176.4746
 20
-5538.5966
 30
0.0
 10
7176.4746
 20
-5538.5966
 30
0.0
 10
7203.837
 20
-5562.9542
 30
0.0
 10
7203.837
 20
-5562.9542
 30
0.0
 10
7203.837
 20
-5562.9542
 30
0.0
 10
7203.837
 20
-5562.9542
 30
0.0
 10
7188.8224
 20
-5596.2514
 30
0.0
 10
7188.8224
 20
-5596.2514
 30
0.0
 10
7188.8224
 20
-5596.2514
 30
0.0
 10
7188.8224
 20
-5596.2514
 30
0.0
 10
7220.6187
 20
-5577.951
 30
0.0
 10
7220.6187
 20
-5577.951
 30
0.0
 10
7220.6187
 20
-5577.951
 30
0.0
 10
7220.6187
 20
-5577.951
 30
0.0
 10
7247.8865
 20
-5602.4128
 30
0.0
 10
7247.8865
 20
-5602.4128
 30
0.0
 10
7247.8865
 20
-5602.4128
 30
0.0
 10
7247.8865
 20
-5602.4128
 30
0.0
 10
7240.1754
 20
-5566.745
 30
0.0
 10
7240.1754
 20
-5566.745
 30
0.0
 10
7240.1754
 20
-5566.745
 30
0.0
 10
7240.1754
 20
-5566.745
 30
0.0
 10
7258.0037
 20
-5556.5743
 30
0.0
 10
7258.0037
 20
-5556.5743
 30
0.0
  0
SPLINE
  5
52
330
1F
100
AcDbEntity
  8
Layer 1
 62
   250
370
    20
100
AcDbSpline
210
0.0
220
0.0
230
1.0
 70
    11
 71
     3
 72
    28
 73
    24
 74
     0
 42
0.0000000001
 43
0.0000000001
 12
1.0
 22
0.0
 32
0.0
 13
1.0
 23
0.0
 33
0.0
 40
0.0
 40
0.0
 40
0.0
 40
0.0
 40
0.1428571428571428
 40
0.1428571428571428
 40
0.1428571428571428
 40
0.1428571428571428
 40
0.2857142857142857
 40
0.2857142857142857
 40
0.2857142857142857
 40
0.2857142857142857
 40
0.4285714285714285
 40
0.4285714285714285
 40
0.4285714285714285
 40
0.4285714285714285
 40
0.5714285714285714
 40
0.5714285714285714
 40
0.5714285714285714
 40
0.5714285714285714
 40
0.7142857142857143
 40
0.7142857142857143
 40
0.7142857142857143
 40
0.7142857142857143
 40
1.0
 40
1.0
 40
1.0
 40
1.0
 10
7154.6138
 20
-5509.0725
 30
0.0
 10
7154.6138
 20
-5509.0725
 30
0.0
 10
7084.8855
 20
-5509.0725
 30
0.0
 10
7084.8855
 20
-5509.0725
 30
0.0
 10
7084.8855
 20
-5509.0725
 30
0.0
 10
7084.8855
 20
-5509.0725
 30
0.0
 10
7119.8632
 20
-5520.2782
 30
0.0
 10
7119.8632
 20
-5520.2782
 30
0.0
 10
7119.8632
 20
-5520.2782
 30
0.0
 10
7119.8632
 20
-5520.2782
 30
0.0
 10
7119.7925
 20
-5556.7584
 30
0.0
 10
7119.7925
 20
-5556.7584
 30
0.0
 10
7119.7925
 20
-5556.7584
 30
0.0
 10
7119.7925
 20
-5556.7584
 30
0.0
 10
7141.34
 20
-5527.2041
 30
0.0
 10
7141.34
 20
-5527.2041
 30
0.0
 10
7141.34
 20
-5527.2041
 30
0.0
 10
7141.34
 20
-5527.2041
 30
0.0
 10
7176.2752
 20
-5538.5435
 30
0.0
 10
7176.2752
 20
-5538.5435
 30
0.0
 10
7176.2752
 20
-5538.5435
 30
0.0
 10
7176.2752
 20
-5538.5435
 30
0.0
 10
7154.6138
 20
-5509.0725
 30
0.0
 10
7154.6138
 20
-5509.0725
 30
0.0
  0
SPLINE
  5
53
330
1F
100
AcDbEntity
  8
Layer 1
 62
   250
370
    20
100
AcDbSpline
210
0.0
220
0.0
230
1.0
 70
    11
 71
     3
 72
    16
 73
    12
 74
     0
 42
0.0000000001
 43
0.0000000001
 12
1.0
 22
0.0
 32
0.0
 13
1.0
 23
0.0
 33
0.0
 40
0.0
 40
0.0
 40
0.0
 40
0.0
 40
0.25
 40
0.25
 40
0.25
 40
0.25
 40
0.5
 40
0.5
 40
0.5
 40
0.5
 40
1.0
 40
1.0
 40
1.0
 40
1.0
 10
7084.8833
 20
-5509.0725
 30
0.0
 10
7084.8833
 20
-5509.0725
 30
0.0
 10
7000.2731
 20
-5509.0725
 30
0.0
 10
7000.2731
 20
-5509.0725
 30
0.0
 10
7000.2731
 20
-5509.0725
 30
0.0
 10
7000.2731
 20
-5509.0725
 30
0.0
 10
7019.384
 20
-5530.0564
 30
0.0
 10
7019.384
 20
-5530.0564
 30
0.0
 10
7019.384
 20
-5530.0564
 30
0.0
 10
7019.384
 20
-5530.0564
 30
0.0
 10
7084.8833
 20
-5509.0725
 30
0.0
 10
7084.8833
 20
-5509.0725
 30
0.0
  0
SPLINE
  5
54
330
1F
100
AcDbEntity
  8
Layer 1
 62
   250
370
    20
100
AcDbSpline
210
0.0
220
0.0
230
1.0
 70
    11
 71
     3
 72
    16
 73
    12
 74
     0
 42
0.0000000001
 43
0.0000000001
 12
1.0
 22
0.0
 32
0.0
 13
1.0
 23
0.0
 33
0.0
 40
0.0
 40
0.0
 40
0.0
 40
0.0
 40
0.25
 40
0.25
 40
0.25
 40
0.25
 40
0.5
 40
0.5
 40
0.5
 40
0.5
 40
1.0
 40
1.0
 40
1.0
 40
1.0
 10
6880.6811
 20
-5509.0725
 30
0.0
 10
6880.6811
 20
-5509.0725
 30
0.0
 10
6796.0708
 20
-5509.0725
 30
0.0
 10
6796.0708
 20
-5509.0725
 30
0.0
 10
6796.0708
 20
-5509.0725
 30
0.0
 10
6796.0708
 20
-5509.0725
 30
0.0
 10
6861.5701
 20
-5530.0564
 30
0.0
 10
6861.5701
 20
-5530.0564
 30
0.0
 10
6861.5701
 20
-5530.0564
 30
0.0
 10
6861.5701
 20
-5530.0564
 30
0.0
 10
6880.6811
 20
-5509.0725
 30
0.0
 10
6880.6811
 20
-5509.0725
 30
0.0
  0
SPLINE
  5
55
330
1F
100
AcDbEntity
  8
Layer 1
 62
   250
370
    20
100
AcDbSpline
210
0.0
220
0.0
230
1.0
 70
    11
 71
     3
 72
    28
 73
    24
 74
     0
 42
0.0000000001
 43
0.0000000001
 12
1.0
 22
0.0
 32
0.0
 13
1.0
 23
0.0
 33
0.0
 40
0.0
 40
0.0
 40
0.0
 40
0.0
 40
0.1428571428571428
 40
0.1428571428571428
 40
0.1428571428571428
 40
0.1428571428571428
 40
0.2857142857142857
 40
0.2857142857142857
 40
0.2857142857142857
 40
0.2857142857142857
 40
0.4285714285714285
 40
0.4285714285714285
 40
0.4285714285714285
 40
0.4285714285714285
 40
0.5714285714285714
 40
0.5714285714285714
 40
0.5714285714285714
 40
0.5714285714285714
 40
0.7142857142857143
 40
0.7142857142857143
 40
0.7142857142857143
 40
0.7142857142857143
 40
1.0
 40
1.0
 40
1.0
 40
1.0
 10
6796.0684
 20
-5509.0725
 30
0.0
 10
6796.0684
 20
-5509.0725
 30
0.0
 10
6726.3401
 20
-5509.0725
 30
0.0
 10
6726.3401
 20
-5509.0725
 30
0.0
 10
6726.3401
 20
-5509.0725
 30
0.0
 10
6726.3401
 20
-5509.0725
 30
0.0
 10
6704.6787
 20
-5538.5435
 30
0.0
 10
6704.6787
 20
-5538.5435
 30
0.0
 10
6704.6787
 20
-5538.5435
 30
0.0
 10
6704.6787
 20
-5538.5435
 30
0.0
 10
6739.6137
 20
-5527.2041
 30
0.0
 10
6739.6137
 20
-5527.2041
 30
0.0
 10
6739.6137
 20
-5527.2041
 30
0.0
 10
6739.6137
 20
-5527.2041
 30
0.0
 10
6761.1613
 20
-5556.7579
 30
0.0
 10
6761.1613
 20
-5556.7579
 30
0.0
 10
6761.1613
 20
-5556.7579
 30
0.0
 10
6761.1613
 20
-5556.7579
 30
0.0
 10
6761.0908
 20
-5520.2781
 30
0.0
 10
6761.0908
 20
-5520.2781
 30
0.0
 10
6761.0908
 20
-5520.2781
 30
0.0
 10
6761.0908
 20
-5520.2781
 30
0.0
 10
6796.0684
 20
-5509.0725
 30
0.0
 10
6796.0684
 20
-5509.0725
 30
0.0
  0
SPLINE
  5
56
330
1F
100
AcDbEntity
  8
Layer 1
 62
   250
370
    20
100
AcDbSpline
210
0.0
220
0.0
230
1.0
 70
    11
 71
     3
 72
    44
 73
    40
 74
     0
 42
0.0000000001
 43
0.0000000001
 12
1.0
 22
0.0
 32
0.0
 13
1.0
 23
0.0
 33
0.0
 40
0.0
 40
0.0
 40
0.0
 40
0.0
 40
0.0909090909090909
 40
0.0909090909090909
 40
0.0909090909090909
 40
0.0909090909090909
 40
0.1818181818181818
 40
0.1818181818181818
 40
0.1818181818181818
 40
0.1818181818181818
 40
0.2727272727272727
 40
0.2727272727272727
 40
0.2727272727272727
 40
0.2727272727272727
 40
0.3636363636363636
 40
0.3636363636363636
 40
0.3636363636363636
 40
0.3636363636363636
 40
0.4545454545454545
 40
0.4545454545454545
 40
0.4545454545454545
 40
0.4545454545454545
 40
0.5454545454545454
 40
0.5454545454545454
 40
0.5454545454545454
 40
0.5454545454545454
 40
0.6363636363636364
 40
0.6363636363636364
 40
0.6363636363636364
 40
0.6363636363636364
 40
0.7272727272727273
 40
0.7272727272727273
 40
0.7272727272727273
 40
0.7272727272727273
 40
0.8181818181818182
 40
0.8181818181818182
 40
0.8181818181818182
 40
0.8181818181818182
 40
1.0
 40
1.0
 40
1.0
 40
1.0
 10
7012.6806
 20
-5633.1923
 30
0.0
 10
7012.6806
 20
-5633.1923
 30
0.0
 10
7020.3916
 20
-5668.8602
 30
0.0
 10
7020.3916
 20
-5668.8602
 30
0.0
 10
7020.3916
 20
-5668.8602
 30
0.0
 10
7020.3916
 20
-5668.8602
 30
0.0
 10
6988.5246
 20
-5687.0394
 30
0.0
 10
6988.5246
 20
-5687.0394
 30
0.0
 10
6988.5246
 20
-5687.0394
 30
0.0
 10
6988.5246
 20
-5687.0394
 30
0.0
 10
7025.0868
 20
-5690.7827
 30
0.0
 10
7025.0868
 20
-5690.7827
 30
0.0
 10
7025.0868
 20
-5690.7827
 30
0.0
 10
7025.0868
 20
-5690.7827
 30
0.0
 10
7032.6597
 20
-5726.4799
 30
0.0
 10
7032.6597
 20
-5726.4799
 30
0.0
 10
7032.6597
 20
-5726.4799
 30
0.0
 10
7032.6597
 20
-5726.4799
 30
0.0
 10
7047.5454
 20
-5693.1258
 30
0.0
 10
7047.5454
 20
-5693.1258
 30
0.0
 10
7047.5454
 20
-5693.1258
 30
0.0
 10
7047.5454
 20
-5693.1258
 30
0.0
 10
7084.0925
 20
-5697.0083
 30
0.0
 10
7084.0925
 20
-5697.0083
 30
0.0
 10
7084.0925
 20
-5697.0083
 30
0.0
 10
7084.0925
 20
-5697.0083
 30
0.0
 10
7056.7302
 20
-5672.6509
 30
0.0
 10
7056.7302
 20
-5672.6509
 30
0.0
 10
7056.7302
 20
-5672.6509
 30
0.0
 10
7056.7302
 20
-5672.6509
 30
0.0
 10
7071.7447
 20
-5639.3537
 30
0.0
 10
7071.7447
 20
-5639.3537
 30
0.0
 10
7071.7447
 20
-5639.3537
 30
0.0
 10
7071.7447
 20
-5639.3537
 30
0.0
 10
7039.9484
 20
-5657.6541
 30
0.0
 10
7039.9484
 20
-5657.6541
 30
0.0
 10
7039.9484
 20
-5657.6541
 30
0.0
 10
7039.9484
 20
-5657.6541
 30
0.0
 10
7012.6806
 20
-5633.1923
 30
0.0
 10
7012.6806
 20
-5633.1923
 30
0.0
  0
SPLINE
  5
57
330
1F
100
AcDbEntity
  8
Layer 1
 62
   250
370
    20
100
AcDbSpline
210
0.0
220
0.0
230
1.0
 70
    11
 71
     3
 72
    20
 73
    16
 74
     0
 42
0.0000000001
 43
0.0000000001
 12
1.0
 22
0.0
 32
0.0
 13
1.0
 23
0.0
 33
0.0
 40
0.0
 40
0.0
 40
0.0
 40
0.0
 40
0.2
 40
0.2
 40
0.2
 40
0.2
 40
0.4
 40
0.4
 40
0.4
 40
0.4
 40
0.6
 40
0.6
 40
0.6
 40
0.6
 40
1.0
 40
1.0
 40
1.0
 40
1.0
 10
6868.2733
 20
-5633.1923
 30
0.0
 10
6868.2733
 20
-5633.1923
 30
0.0
 10
6919.3338
 20
-5587.3858
 30
0.0
 10
6919.3338
 20
-5587.3858
 30
0.0
 10
6919.3338
 20
-5587.3858
 30
0.0
 10
6919.3338
 20
-5587.3858
 30
0.0
 10
6910.579
 20
-5560.4676
 30
0.0
 10
6910.579
 20
-5560.4676
 30
0.0
 10
6910.579
 20
-5560.4676
 30
0.0
 10
6910.579
 20
-5560.4676
 30
0.0
 10
6882.7132
 20
-5566.4016
 30
0.0
 10
6882.7132
 20
-5566.4016
 30
0.0
 10
6882.7132
 20
-5566.4016
 30
0.0
 10
6882.7132
 20
-5566.4016
 30
0.0
 10
6868.2733
 20
-5633.1923
 30
0.0
 10
6868.2733
 20
-5633.1923
 30
0.0
  0
SPLINE
  5
58
330
1F
100
AcDbEntity
  8
Layer 1
 62
   250
370
    20
100
AcDbSpline
210
0.0
220
0.0
230
1.0
 70
    11
 71
     3
 72
    44
 73
    40
 74
     0
 42
0.0000000001
 43
0.0000000001
 12
1.0
 22
0.0
 32
0.0
 13
1.0
 23
0.0
 33
0.0
 40
0.0
 40
0.0
 40
0.0
 40
0.0
 40
0.0909090909090909
 40
0.0909090909090909
 40
0.0909090909090909
 40
0.0909090909090909
 40
0.1818181818181818
 40
0.1818181818181818
 40
0.1818181818181818
 40
0.1818181818181818
 40
0.2727272727272727
 40
0.2727272727272727
 40
0.2727272727272727
 40
0.2727272727272727
 40
0.3636363636363636
 40
0.3636363636363636
 40
0.3636363636363636
 40
0.3636363636363636
 40
0.4545454545454545
 40
0.4545454545454545
 40
0.4545454545454545
 40
0.4545454545454545
 40
0.5454545454545454
 40
0.5454545454545454
 40
0.5454545454545454
 40
0.5454545454545454
 40
0.6363636363636364
 40
0.6363636363636364
 40
0.6363636363636364
 40
0.6363636363636364
 40
0.7272727272727273
 40
0.7272727272727273
 40
0.7272727272727273
 40
0.7272727272727273
 40
0.8181818181818182
 40
0.8181818181818182
 40
0.8181818181818182
 40
0.8181818181818182
 40
1.0
 40
1.0
 40
1.0
 40
1.0
 10
6868.2732
 20
-5633.1923
 30
0.0
 10
6868.2732
 20
-5633.1923
 30
0.0
 10
6841.0056
 20
-5657.6541
 30
0.0
 10
6841.0056
 20
-5657.6541
 30
0.0
 10
6841.0056
 20
-5657.6541
 30
0.0
 10
6841.0056
 20
-5657.6541
 30
0.0
 10
6809.209
 20
-5639.3537
 30
0.0
 10
6809.209
 20
-5639.3537
 30
0.0
 10
6809.209
 20
-5639.3537
 30
0.0
 10
6809.209
 20
-5639.3537
 30
0.0
 10
6824.2234
 20
-5672.6509
 30
0.0
 10
6824.2234
 20
-5672.6509
 30
0.0
 10
6824.2234
 20
-5672.6509
 30
0.0
 10
6824.2234
 20
-5672.6509
 30
0.0
 10
6796.8614
 20
-5697.0083
 30
0.0
 10
6796.8614
 20
-5697.0083
 30
0.0
 10
6796.8614
 20
-5697.0083
 30
0.0
 10
6796.8614
 20
-5697.0083
 30
0.0
 10
6833.4086
 20
-5693.1255
 30
0.0
 10
6833.4086
 20
-5693.1255
 30
0.0
 10
6833.4086
 20
-5693.1255
 30
0.0
 10
6833.4086
 20
-5693.1255
 30
0.0
 10
6848.2942
 20
-5726.4799
 30
0.0
 10
6848.2942
 20
-5726.4799
 30
0.0
 10
6848.2942
 20
-5726.4799
 30
0.0
 10
6848.2942
 20
-5726.4799
 30
0.0
 10
6855.867
 20
-5690.7827
 30
0.0
 10
6855.867
 20
-5690.7827
 30
0.0
 10
6855.867
 20
-5690.7827
 30
0.0
 10
6855.867
 20
-5690.7827
 30
0.0
 10
6892.4293
 20
-5687.0394
 30
0.0
 10
6892.4293
 20
-5687.0394
 30
0.0
 10
6892.4293
 20
-5687.0394
 30
0.0
 10
6892.4293
 20
-5687.0394
 30
0.0
 10
6860.5621
 20
-5668.8602
 30
0.0
 10
6860.5621
 20
-5668.8602
 30
0.0
 10
6860.5621
 20
-5668.8602
 30
0.0
 10
6860.5621
 20
-5668.8602
 30
0.0
 10
6868.2732
 20
-5633.1923
 30
0.0
 10
6868.2732
 20
-5633.1923
 30
0.0
  0
SPLINE
  5
59
330
1F
100
AcDbEntity
  8
Layer 1
 62
   250
370
    20
100
AcDbSpline
210
0.0
220
0.0
230
1.0
 70
    11
 71
     3
 72
    28
 73
    24
 74
     0
 42
0.0000000001
 43
0.0000000001
 12
1.0
 22
0.0
 32
0.0
 13
1.0
 23
0.0
 33
0.0
 40
0.0
 40
0.0
 40
0.0
 40
0.0
 40
0.1428571428571428
 40
0.1428571428571428
 40
0.1428571428571428
 40
0.1428571428571428
 40
0.2857142857142857
 40
0.2857142857142857
 40
0.2857142857142857
 40
0.2857142857142857
 40
0.4285714285714285
 40
0.4285714285714285
 40
0.4285714285714285
 40
0.4285714285714285
 40
0.5714285714285714
 40
0.5714285714285714
 40
0.5714285714285714
 40
0.5714285714285714
 40
0.7142857142857143
 40
0.7142857142857143
 40
0.7142857142857143
 40
0.7142857142857143
 40
1.0
 40
1.0
 40
1.0
 40
1.0
 10
7065.6094
 20
-5580.7742
 30
0.0
 10
7065.6094
 20
-5580.7742
 30
0.0
 10
7090.1841
 20
-5607.7957
 30
0.0
 10
7090.1841
 20
-5607.7957
 30
0.0
 10
7090.1841
 20
-5607.7957
 30
0.0
 10
7090.1841
 20
-5607.7957
 30
0.0
 10
7071.7866
 20
-5639.2816
 30
0.0
 10
7071.7866
 20
-5639.2816
 30
0.0
 10
7071.7866
 20
-5639.2816
 30
0.0
 10
7071.7866
 20
-5639.2816
 30
0.0
 10
7130.1839
 20
-5617.7762
 30
0.0
 10
7130.1839
 20
-5617.7762
 30
0.0
 10
7130.1839
 20
-5617.7762
 30
0.0
 10
7130.1839
 20
-5617.7762
 30
0.0
 10
7119.7505
 20
-5556.8301
 30
0.0
 10
7119.7505
 20
-5556.8301
 30
0.0
 10
7119.7505
 20
-5556.8301
 30
0.0
 10
7119.7505
 20
-5556.8301
 30
0.0
 10
7101.4753
 20
-5588.3861
 30
0.0
 10
7101.4753
 20
-5588.3861
 30
0.0
 10
7101.4753
 20
-5588.3861
 30
0.0
 10
7101.4753
 20
-5588.3861
 30
0.0
 10
7065.6094
 20
-5580.7742
 30
0.0
 10
7065.6094
 20
-5580.7742
 30
0.0
  0
SPLINE
  5
5A
330
1F
100
AcDbEntity
  8
Layer 1
 62
   250
370
    20
100
AcDbSpline
210
0.0
220
0.0
230
1.0
 70
    11
 71
     3
 72
    20
 73
    16
 74
     0
 42
0.0000000001
 43
0.0000000001
 12
1.0
 22
0.0
 32
0.0
 13
1.0
 23
0.0
 33
0.0
 40
0.0
 40
0.0
 40
0.0
 40
0.0
 40
0.2
 40
0.2
 40
0.2
 40
0.2
 40
0.4
 40
0.4
 40
0.4
 40
0.4
 40
0.6
 40
0.6
 40
0.6
 40
0.6
 40
1.0
 40
1.0
 40
1.0
 40
1.0
 10
7065.5371
 20
-5580.7331
 30
0.0
 10
7065.5371
 20
-5580.7331
 30
0.0
 10
7019.3421
 20
-5530.1279
 30
0.0
 10
7019.3421
 20
-5530.1279
 30
0.0
 10
7019.3421
 20
-5530.1279
 30
0.0
 10
7019.3421
 20
-5530.1279
 30
0.0
 10
6992.2616
 20
-5538.7453
 30
0.0
 10
6992.2616
 20
-5538.7453
 30
0.0
 10
6992.2616
 20
-5538.7453
 30
0.0
 10
6992.2616
 20
-5538.7453
 30
0.0
 10
6998.2824
 20
-5566.3299
 30
0.0
 10
6998.2824
 20
-5566.3299
 30
0.0
 10
6998.2824
 20
-5566.3299
 30
0.0
 10
6998.2824
 20
-5566.3299
 30
0.0
 10
7065.5371
 20
-5580.7331
 30
0.0
 10
7065.5371
 20
-5580.7331
 30
0.0
  0
SPLINE
  5
5B
330
1F
100
AcDbEntity
  8
Layer 1
 62
   250
370
    20
100
AcDbSpline
210
0.0
220
0.0
230
1.0
 70
    11
 71
     3
 72
    28
 73
    24
 74
     0
 42
0.0000000001
 43
0.0000000001
 12
1.0
 22
0.0
 32
0.0
 13
1.0
 23
0.0
 33
0.0
 40
0.0
 40
0.0
 40
0.0
 40
0.0
 40
0.1428571428571428
 40
0.1428571428571428
 40
0.1428571428571428
 40
0.1428571428571428
 40
0.2857142857142857
 40
0.2857142857142857
 40
0.2857142857142857
 40
0.2857142857142857
 40
0.4285714285714285
 40
0.4285714285714285
 40
0.4285714285714285
 40
0.4285714285714285
 40
0.5714285714285714
 40
0.5714285714285714
 40
0.5714285714285714
 40
0.5714285714285714
 40
0.7142857142857143
 40
0.7142857142857143
 40
0.7142857142857143
 40
0.7142857142857143
 40
1.0
 40
1.0
 40
1.0
 40
1.0
 10
6940.4771
 20
-5652.4762
 30
0.0
 10
6940.4771
 20
-5652.4762
 30
0.0
 10
6929.1859
 20
-5687.1095
 30
0.0
 10
6929.1859
 20
-5687.1095
 30
0.0
 10
6929.1859
 20
-5687.1095
 30
0.0
 10
6929.1859
 20
-5687.1095
 30
0.0
 10
6892.5129
 20
-5687.0394
 30
0.0
 10
6892.5129
 20
-5687.0394
 30
0.0
 10
6892.5129
 20
-5687.0394
 30
0.0
 10
6892.5129
 20
-5687.0394
 30
0.0
 10
6940.4769
 20
-5726.4799
 30
0.0
 10
6940.4769
 20
-5726.4799
 30
0.0
 10
6940.4769
 20
-5726.4799
 30
0.0
 10
6940.4769
 20
-5726.4799
 30
0.0
 10
6988.4408
 20
-5687.0394
 30
0.0
 10
6988.4408
 20
-5687.0394
 30
0.0
 10
6988.4408
 20
-5687.0394
 30
0.0
 10
6988.4408
 20
-5687.0394
 30
0.0
 10
6951.7679
 20
-5687.1096
 30
0.0
 10
6951.7679
 20
-5687.1096
 30
0.0
 10
6951.7679
 20
-5687.1096
 30
0.0
 10
6951.7679
 20
-5687.1096
 30
0.0
 10
6940.4771
 20
-5652.4762
 30
0.0
 10
6940.4771
 20
-5652.4762
 30
0.0
  0
SPLINE
  5
5C
330
1F
100
AcDbEntity
  8
Layer 1
 62
   250
370
    20
100
AcDbSpline
210
0.0
220
0.0
230
1.0
 70
    11
 71
     3
 72
    20
 73
    16
 74
     0
 42
0.0000000001
 43
0.0000000001
 12
1.0
 22
0.0
 32
0.0
 13
1.0
 23
0.0
 33
0.0
 40
0.0
 40
0.0
 40
0.0
 40
0.0
 40
0.2
 40
0.2
 40
0.2
 40
0.2
 40
0.4
 40
0.4
 40
0.4
 40
0.4
 40
0.6
 40
0.6
 40
0.6
 40
0.6
 40
1.0
 40
1.0
 40
1.0
 40
1.0
 10
6940.4771
 20
-5652.3938
 30
0.0
 10
6940.4771
 20
-5652.3938
 30
0.0
 10
6961.5367
 20
-5587.3858
 30
0.0
 10
6961.5367
 20
-5587.3858
 30
0.0
 10
6961.5367
 20
-5587.3858
 30
0.0
 10
6961.5367
 20
-5587.3858
 30
0.0
 10
6940.4771
 20
-5568.4186
 30
0.0
 10
6940.4771
 20
-5568.4186
 30
0.0
 10
6940.4771
 20
-5568.4186
 30
0.0
 10
6940.4771
 20
-5568.4186
 30
0.0
 10
6919.4172
 20
-5587.3859
 30
0.0
 10
6919.4172
 20
-5587.3859
 30
0.0
 10
6919.4172
 20
-5587.3859
 30
0.0
 10
6919.4172
 20
-5587.3859
 30
0.0
 10
6940.4771
 20
-5652.3938
 30
0.0
 10
6940.4771
 20
-5652.3938
 30
0.0
  0
SPLINE
  5
5D
330
1F
100
AcDbEntity
  8
Layer 1
 62
   250
370
    20
100
AcDbSpline
210
0.0
220
0.0
230
1.0
 70
    11
 71
     3
 72
    28
 73
    24
 74
     0
 42
0.0000000001
 43
0.0000000001
 12
1.0
 22
0.0
 32
0.0
 13
1.0
 23
0.0
 33
0.0
 40
0.0
 40
0.0
 40
0.0
 40
0.0
 40
0.1428571428571428
 40
0.1428571428571428
 40
0.1428571428571428
 40
0.1428571428571428
 40
0.2857142857142857
 40
0.2857142857142857
 40
0.2857142857142857
 40
0.2857142857142857
 40
0.4285714285714285
 40
0.4285714285714285
 40
0.4285714285714285
 40
0.4285714285714285
 40
0.5714285714285714
 40
0.5714285714285714
 40
0.5714285714285714
 40
0.5714285714285714
 40
0.7142857142857143
 40
0.7142857142857143
 40
0.7142857142857143
 40
0.7142857142857143
 40
1.0
 40
1.0
 40
1.0
 40
1.0
 10
6815.3443
 20
-5580.7744
 30
0.0
 10
6815.3443
 20
-5580.7744
 30
0.0
 10
6779.4785
 20
-5588.3858
 30
0.0
 10
6779.4785
 20
-5588.3858
 30
0.0
 10
6779.4785
 20
-5588.3858
 30
0.0
 10
6779.4785
 20
-5588.3858
 30
0.0
 10
6761.2032
 20
-5556.8301
 30
0.0
 10
6761.2032
 20
-5556.8301
 30
0.0
 10
6761.2032
 20
-5556.8301
 30
0.0
 10
6761.2032
 20
-5556.8301
 30
0.0
 10
6750.7699
 20
-5617.7762
 30
0.0
 10
6750.7699
 20
-5617.7762
 30
0.0
 10
6750.7699
 20
-5617.7762
 30
0.0
 10
6750.7699
 20
-5617.7762
 30
0.0
 10
6809.167
 20
-5639.2815
 30
0.0
 10
6809.167
 20
-5639.2815
 30
0.0
 10
6809.167
 20
-5639.2815
 30
0.0
 10
6809.167
 20
-5639.2815
 30
0.0
 10
6790.7695
 20
-5607.796
 30
0.0
 10
6790.7695
 20
-5607.796
 30
0.0
 10
6790.7695
 20
-5607.796
 30
0.0
 10
6790.7695
 20
-5607.796
 30
0.0
 10
6815.3443
 20
-5580.7744
 30
0.0
 10
6815.3443
 20
-5580.7744
 30
0.0
  0
SPLINE
  5
5E
330
1F
100
AcDbEntity
  8
Layer 1
 62
   250
370
    20
100
AcDbSpline
210
0.0
220
0.0
230
1.0
 70
    11
 71
     3
 72
    20
 73
    16
 74
     0
 42
0.0000000001
 43
0.0000000001
 12
1.0
 22
0.0
 32
0.0
 13
1.0
 23
0.0
 33
0.0
 40
0.0
 40
0.0
 40
0.0
 40
0.0
 40
0.2
 40
0.2
 40
0.2
 40
0.2
 40
0.4
 40
0.4
 40
0.4
 40
0.4
 40
0.6
 40
0.6
 40
0.6
 40
0.6
 40
1.0
 40
1.0
 40
1.0
 40
1.0
 10
6815.4166
 20
-5580.733
 30
0.0
 10
6815.4166
 20
-5580.733
 30
0.0
 10
6882.6715
 20
-5566.33
 30
0.0
 10
6882.6715
 20
-5566.33
 30
0.0
 10
6882.6715
 20
-5566.33
 30
0.0
 10
6882.6715
 20
-5566.33
 30
0.0
 10
6888.6922
 20
-5538.7454
 30
0.0
 10
6888.6922
 20
-5538.7454
 30
0.0
 10
6888.6922
 20
-5538.7454
 30
0.0
 10
6888.6922
 20
-5538.7454
 30
0.0
 10
6861.6116
 20
-5530.1279
 30
0.0
 10
6861.6116
 20
-5530.1279
 30
0.0
 10
6861.6116
 20
-5530.1279
 30
0.0
 10
6861.6116
 20
-5530.1279
 30
0.0
 10
6815.4166
 20
-5580.733
 30
0.0
 10
6815.4166
 20
-5580.733
 30
0.0
  0
SPLINE
  5
5F
330
1F
100
AcDbEntity
  8
Layer 1
 62
   250
370
    20
100
AcDbSpline
210
0.0
220
0.0
230
1.0
 70
    11
 71
     3
 72
    44
 73
    40
 74
     0
 42
0.0000000001
 43
0.0000000001
 12
1.0
 22
0.0
 32
0.0
 13
1.0
 23
0.0
 33
0.0
 40
0.0
 40
0.0
 40
0.0
 40
0.0
 40
0.0909090909090909
 40
0.0909090909090909
 40
0.0909090909090909
 40
0.0909090909090909
 40
0.1818181818181818
 40
0.1818181818181818
 40
0.1818181818181818
 40
0.1818181818181818
 40
0.2727272727272727
 40
0.2727272727272727
 40
0.2727272727272727
 40
0.2727272727272727
 40
0.3636363636363636
 40
0.3636363636363636
 40
0.3636363636363636
 40
0.3636363636363636
 40
0.4545454545454545
 40
0.4545454545454545
 40
0.4545454545454545
 40
0.4545454545454545
 40
0.5454545454545454
 40
0.5454545454545454
 40
0.5454545454545454
 40
0.5454545454545454
 40
0.6363636363636364
 40
0.6363636363636364
 40
0.6363636363636364
 40
0.6363636363636364
 40
0.7272727272727273
 40
0.7272727272727273
 40
0.7272727272727273
 40
0.7272727272727273
 40
0.8181818181818182
 40
0.8181818181818182
 40
0.8181818181818182
 40
0.8181818181818182
 40
1.0
 40
1.0
 40
1.0
 40
1.0
 10
7175.6828
 20
-5726.533
 30
0.0
 10
7175.6828
 20
-5726.533
 30
0.0
 10
7140.7038
 20
-5715.3268
 30
0.0
 10
7140.7038
 20
-5715.3268
 30
0.0
 10
7140.7038
 20
-5715.3268
 30
0.0
 10
7140.7038
 20
-5715.3268
 30
0.0
 10
7140.7745
 20
-5678.8467
 30
0.0
 10
7140.7745
 20
-5678.8467
 30
0.0
 10
7140.7745
 20
-5678.8467
 30
0.0
 10
7140.7745
 20
-5678.8467
 30
0.0
 10
7119.2271
 20
-5708.401
 30
0.0
 10
7119.2271
 20
-5708.401
 30
0.0
 10
7119.2271
 20
-5708.401
 30
0.0
 10
7119.2271
 20
-5708.401
 30
0.0
 10
7084.292
 20
-5697.0611
 30
0.0
 10
7084.292
 20
-5697.0611
 30
0.0
 10
7084.292
 20
-5697.0611
 30
0.0
 10
7084.292
 20
-5697.0611
 30
0.0
 10
7105.9534
 20
-5726.5326
 30
0.0
 10
7105.9534
 20
-5726.5326
 30
0.0
 10
7105.9534
 20
-5726.5326
 30
0.0
 10
7105.9534
 20
-5726.5326
 30
0.0
 10
7084.292
 20
-5756.0044
 30
0.0
 10
7084.292
 20
-5756.0044
 30
0.0
 10
7084.292
 20
-5756.0044
 30
0.0
 10
7084.292
 20
-5756.0044
 30
0.0
 10
7119.2271
 20
-5744.6647
 30
0.0
 10
7119.2271
 20
-5744.6647
 30
0.0
 10
7119.2271
 20
-5744.6647
 30
0.0
 10
7119.2271
 20
-5744.6647
 30
0.0
 10
7140.7746
 20
-5774.2187
 30
0.0
 10
7140.7746
 20
-5774.2187
 30
0.0
 10
7140.7746
 20
-5774.2187
 30
0.0
 10
7140.7746
 20
-5774.2187
 30
0.0
 10
7140.7041
 20
-5737.7391
 30
0.0
 10
7140.7041
 20
-5737.7391
 30
0.0
 10
7140.7041
 20
-5737.7391
 30
0.0
 10
7140.7041
 20
-5737.7391
 30
0.0
 10
7175.6828
 20
-5726.533
 30
0.0
 10
7175.6828
 20
-5726.533
 30
0.0
  0
SPLINE
  5
60
330
1F
100
AcDbEntity
  8
Layer 1
 62
   250
370
    20
100
AcDbSpline
210
0.0
220
0.0
230
1.0
 70
    11
 71
     3
 72
    28
 73
    24
 74
     0
 42
0.0000000001
 43
0.0000000001
 12
1.0
 22
0.0
 32
0.0
 13
1.0
 23
0.0
 33
0.0
 40
0.0
 40
0.0
 40
0.0
 40
0.0
 40
0.1428571428571428
 40
0.1428571428571428
 40
0.1428571428571428
 40
0.1428571428571428
 40
0.2857142857142857
 40
0.2857142857142857
 40
0.2857142857142857
 40
0.2857142857142857
 40
0.4285714285714285
 40
0.4285714285714285
 40
0.4285714285714285
 40
0.4285714285714285
 40
0.5714285714285714
 40
0.5714285714285714
 40
0.5714285714285714
 40
0.5714285714285714
 40
0.7142857142857143
 40
0.7142857142857143
 40
0.7142857142857143
 40
0.7142857142857143
 40
1.0
 40
1.0
 40
1.0
 40
1.0
 10
7194.9576
 20
-5798.2349
 30
0.0
 10
7194.9576
 20
-5798.2349
 30
0.0
 10
7159.0918
 20
-5805.8466
 30
0.0
 10
7159.0918
 20
-5805.8466
 30
0.0
 10
7159.0918
 20
-5805.8466
 30
0.0
 10
7159.0918
 20
-5805.8466
 30
0.0
 10
7140.8164
 20
-5774.2907
 30
0.0
 10
7140.8164
 20
-5774.2907
 30
0.0
 10
7140.8164
 20
-5774.2907
 30
0.0
 10
7140.8164
 20
-5774.2907
 30
0.0
 10
7130.3833
 20
-5835.2368
 30
0.0
 10
7130.3833
 20
-5835.2368
 30
0.0
 10
7130.3833
 20
-5835.2368
 30
0.0
 10
7130.3833
 20
-5835.2368
 30
0.0
 10
7188.7803
 20
-5856.742
 30
0.0
 10
7188.7803
 20
-5856.742
 30
0.0
 10
7188.7803
 20
-5856.742
 30
0.0
 10
7188.7803
 20
-5856.742
 30
0.0
 10
7170.3829
 20
-5825.2566
 30
0.0
 10
7170.3829
 20
-5825.2566
 30
0.0
 10
7170.3829
 20
-5825.2566
 30
0.0
 10
7170.3829
 20
-5825.2566
 30
0.0
 10
7194.9576
 20
-5798.2349
 30
0.0
 10
7194.9576
 20
-5798.2349
 30
0.0
  0
SPLINE
  5
61
330
1F
100
AcDbEntity
  8
Layer 1
 62
   250
370
    20
100
AcDbSpline
210
0.0
220
0.0
230
1.0
 70
    11
 71
     3
 72
    28
 73
    24
 74
     0
 42
0.0000000001
 43
0.0000000001
 12
1.0
 22
0.0
 32
0.0
 13
1.0
 23
0.0
 33
0.0
 40
0.0
 40
0.0
 40
0.0
 40
0.0
 40
0.1428571428571428
 40
0.1428571428571428
 40
0.1428571428571428
 40
0.1428571428571428
 40
0.2857142857142857
 40
0.2857142857142857
 40
0.2857142857142857
 40
0.2857142857142857
 40
0.4285714285714285
 40
0.4285714285714285
 40
0.4285714285714285
 40
0.4285714285714285
 40
0.5714285714285714
 40
0.5714285714285714
 40
0.5714285714285714
 40
0.5714285714285714
 40
0.7142857142857143
 40
0.7142857142857143
 40
0.7142857142857143
 40
0.7142857142857143
 40
1.0
 40
1.0
 40
1.0
 40
1.0
 10
7194.9576
 20
-5654.8308
 30
0.0
 10
7194.9576
 20
-5654.8308
 30
0.0
 10
7170.3829
 20
-5627.8094
 30
0.0
 10
7170.3829
 20
-5627.8094
 30
0.0
 10
7170.3829
 20
-5627.8094
 30
0.0
 10
7170.3829
 20
-5627.8094
 30
0.0
 10
7188.7803
 20
-5596.3236
 30
0.0
 10
7188.7803
 20
-5596.3236
 30
0.0
 10
7188.7803
 20
-5596.3236
 30
0.0
 10
7188.7803
 20
-5596.3236
 30
0.0
 10
7130.3833
 20
-5617.8289
 30
0.0
 10
7130.3833
 20
-5617.8289
 30
0.0
 10
7130.3833
 20
-5617.8289
 30
0.0
 10
7130.3833
 20
-5617.8289
 30
0.0
 10
7140.8164
 20
-5678.7745
 30
0.0
 10
7140.8164
 20
-5678.7745
 30
0.0
 10
7140.8164
 20
-5678.7745
 30
0.0
 10
7140.8164
 20
-5678.7745
 30
0.0
 10
7159.0915
 20
-5647.2189
 30
0.0
 10
7159.0915
 20
-5647.2189
 30
0.0
 10
7159.0915
 20
-5647.2189
 30
0.0
 10
7159.0915
 20
-5647.2189
 30
0.0
 10
7194.9576
 20
-5654.8308
 30
0.0
 10
7194.9576
 20
-5654.8308
 30
0.0
  0
SPLINE
  5
62
330
1F
100
AcDbEntity
  8
Layer 1
 62
   250
370
    20
100
AcDbSpline
210
0.0
220
0.0
230
1.0
 70
    11
 71
     3
 72
    44
 73
    40
 74
     0
 42
0.0000000001
 43
0.0000000001
 12
1.0
 22
0.0
 32
0.0
 13
1.0
 23
0.0
 33
0.0
 40
0.0
 40
0.0
 40
0.0
 40
0.0
 40
0.0909090909090909
 40
0.0909090909090909
 40
0.0909090909090909
 40
0.0909090909090909
 40
0.1818181818181818
 40
0.1818181818181818
 40
0.1818181818181818
 40
0.1818181818181818
 40
0.2727272727272727
 40
0.2727272727272727
 40
0.2727272727272727
 40
0.2727272727272727
 40
0.3636363636363636
 40
0.3636363636363636
 40
0.3636363636363636
 40
0.3636363636363636
 40
0.4545454545454545
 40
0.4545454545454545
 40
0.4545454545454545
 40
0.4545454545454545
 40
0.5454545454545454
 40
0.5454545454545454
 40
0.5454545454545454
 40
0.5454545454545454
 40
0.6363636363636364
 40
0.6363636363636364
 40
0.6363636363636364
 40
0.6363636363636364
 40
0.7272727272727273
 40
0.7272727272727273
 40
0.7272727272727273
 40
0.7272727272727273
 40
0.8181818181818182
 40
0.8181818181818182
 40
0.8181818181818182
 40
0.8181818181818182
 40
1.0
 40
1.0
 40
1.0
 40
1.0
 10
6705.3439
 20
-5726.5523
 30
0.0
 10
6705.3439
 20
-5726.5523
 30
0.0
 10
6740.3228
 20
-5715.3462
 30
0.0
 10
6740.3228
 20
-5715.3462
 30
0.0
 10
6740.3228
 20
-5715.3462
 30
0.0
 10
6740.3228
 20
-5715.3462
 30
0.0
 10
6740.2521
 20
-5678.8664
 30
0.0
 10
6740.2521
 20
-5678.8664
 30
0.0
 10
6740.2521
 20
-5678.8664
 30
0.0
 10
6740.2521
 20
-5678.8664
 30
0.0
 10
6761.7998
 20
-5708.4203
 30
0.0
 10
6761.7998
 20
-5708.4203
 30
0.0
 10
6761.7998
 20
-5708.4203
 30
0.0
 10
6761.7998
 20
-5708.4203
 30
0.0
 10
6796.735
 20
-5697.0808
 30
0.0
 10
6796.735
 20
-5697.0808
 30
0.0
 10
6796.735
 20
-5697.0808
 30
0.0
 10
6796.735
 20
-5697.0808
 30
0.0
 10
6775.0734
 20
-5726.5523
 30
0.0
 10
6775.0734
 20
-5726.5523
 30
0.0
 10
6775.0734
 20
-5726.5523
 30
0.0
 10
6775.0734
 20
-5726.5523
 30
0.0
 10
6796.735
 20
-5756.0238
 30
0.0
 10
6796.735
 20
-5756.0238
 30
0.0
 10
6796.735
 20
-5756.0238
 30
0.0
 10
6796.735
 20
-5756.0238
 30
0.0
 10
6761.7998
 20
-5744.6842
 30
0.0
 10
6761.7998
 20
-5744.6842
 30
0.0
 10
6761.7998
 20
-5744.6842
 30
0.0
 10
6761.7998
 20
-5744.6842
 30
0.0
 10
6740.2522
 20
-5774.2383
 30
0.0
 10
6740.2522
 20
-5774.2383
 30
0.0
 10
6740.2522
 20
-5774.2383
 30
0.0
 10
6740.2522
 20
-5774.2383
 30
0.0
 10
6740.3229
 20
-5737.7585
 30
0.0
 10
6740.3229
 20
-5737.7585
 30
0.0
 10
6740.3229
 20
-5737.7585
 30
0.0
 10
6740.3229
 20
-5737.7585
 30
0.0
 10
6705.3439
 20
-5726.5523
 30
0.0
 10
6705.3439
 20
-5726.5523
 30
0.0
  0
SPLINE
  5
63
330
1F
100
AcDbEntity
  8
Layer 1
 62
   250
370
    20
100
AcDbSpline
210
0.0
220
0.0
230
1.0
 70
    11
 71
     3
 72
    28
 73
    24
 74
     0
 42
0.0000000001
 43
0.0000000001
 12
1.0
 22
0.0
 32
0.0
 13
1.0
 23
0.0
 33
0.0
 40
0.0
 40
0.0
 40
0.0
 40
0.0
 40
0.1428571428571428
 40
0.1428571428571428
 40
0.1428571428571428
 40
0.1428571428571428
 40
0.2857142857142857
 40
0.2857142857142857
 40
0.2857142857142857
 40
0.2857142857142857
 40
0.4285714285714285
 40
0.4285714285714285
 40
0.4285714285714285
 40
0.4285714285714285
 40
0.5714285714285714
 40
0.5714285714285714
 40
0.5714285714285714
 40
0.5714285714285714
 40
0.7142857142857143
 40
0.7142857142857143
 40
0.7142857142857143
 40
0.7142857142857143
 40
1.0
 40
1.0
 40
1.0
 40
1.0
 10
6686.069
 20
-5798.2545
 30
0.0
 10
6686.069
 20
-5798.2545
 30
0.0
 10
6721.9348
 20
-5805.8661
 30
0.0
 10
6721.9348
 20
-5805.8661
 30
0.0
 10
6721.9348
 20
-5805.8661
 30
0.0
 10
6721.9348
 20
-5805.8661
 30
0.0
 10
6740.2103
 20
-5774.3103
 30
0.0
 10
6740.2103
 20
-5774.3103
 30
0.0
 10
6740.2103
 20
-5774.3103
 30
0.0
 10
6740.2103
 20
-5774.3103
 30
0.0
 10
6750.6435
 20
-5835.2561
 30
0.0
 10
6750.6435
 20
-5835.2561
 30
0.0
 10
6750.6435
 20
-5835.2561
 30
0.0
 10
6750.6435
 20
-5835.2561
 30
0.0
 10
6692.2465
 20
-5856.7616
 30
0.0
 10
6692.2465
 20
-5856.7616
 30
0.0
 10
6692.2465
 20
-5856.7616
 30
0.0
 10
6692.2465
 20
-5856.7616
 30
0.0
 10
6710.644
 20
-5825.2758
 30
0.0
 10
6710.644
 20
-5825.2758
 30
0.0
 10
6710.644
 20
-5825.2758
 30
0.0
 10
6710.644
 20
-5825.2758
 30
0.0
 10
6686.069
 20
-5798.2545
 30
0.0
 10
6686.069
 20
-5798.2545
 30
0.0
  0
SPLINE
  5
64
330
1F
100
AcDbEntity
  8
Layer 1
 62
   250
370
    20
100
AcDbSpline
210
0.0
220
0.0
230
1.0
 70
    11
 71
     3
 72
    28
 73
    24
 74
     0
 42
0.0000000001
 43
0.0000000001
 12
1.0
 22
0.0
 32
0.0
 13
1.0
 23
0.0
 33
0.0
 40
0.0
 40
0.0
 40
0.0
 40
0.0
 40
0.1428571428571428
 40
0.1428571428571428
 40
0.1428571428571428
 40
0.1428571428571428
 40
0.2857142857142857
 40
0.2857142857142857
 40
0.2857142857142857
 40
0.2857142857142857
 40
0.4285714285714285
 40
0.4285714285714285
 40
0.4285714285714285
 40
0.4285714285714285
 40
0.5714285714285714
 40
0.5714285714285714
 40
0.5714285714285714
 40
0.5714285714285714
 40
0.7142857142857143
 40
0.7142857142857143
 40
0.7142857142857143
 40
0.7142857142857143
 40
1.0
 40
1.0
 40
1.0
 40
1.0
 10
6686.0691
 20
-5654.85
 30
0.0
 10
6686.0691
 20
-5654.85
 30
0.0
 10
6710.6439
 20
-5627.8287
 30
0.0
 10
6710.6439
 20
-5627.8287
 30
0.0
 10
6710.6439
 20
-5627.8287
 30
0.0
 10
6710.6439
 20
-5627.8287
 30
0.0
 10
6692.2464
 20
-5596.3432
 30
0.0
 10
6692.2464
 20
-5596.3432
 30
0.0
 10
6692.2464
 20
-5596.3432
 30
0.0
 10
6692.2464
 20
-5596.3432
 30
0.0
 10
6750.6435
 20
-5617.8485
 30
0.0
 10
6750.6435
 20
-5617.8485
 30
0.0
 10
6750.6435
 20
-5617.8485
 30
0.0
 10
6750.6435
 20
-5617.8485
 30
0.0
 10
6740.2102
 20
-5678.7942
 30
0.0
 10
6740.2102
 20
-5678.7942
 30
0.0
 10
6740.2102
 20
-5678.7942
 30
0.0
 10
6740.2102
 20
-5678.7942
 30
0.0
 10
6721.9353
 20
-5647.2385
 30
0.0
 10
6721.9353
 20
-5647.2385
 30
0.0
 10
6721.9353
 20
-5647.2385
 30
0.0
 10
6721.9353
 20
-5647.2385
 30
0.0
 10
6686.0691
 20
-5654.85
 30
0.0
 10
6686.0691
 20
-5654.85
 30
0.0
  0
SPLINE
  5
65
330
1F
100
AcDbEntity
  8
Layer 1
 62
   250
370
    20
100
AcDbSpline
210
0.0
220
0.0
230
1.0
 70
    11
 71
     3
 72
    44
 73
    40
 74
     0
 42
0.0000000001
 43
0.0000000001
 12
1.0
 22
0.0
 32
0.0
 13
1.0
 23
0.0
 33
0.0
 40
0.0
 40
0.0
 40
0.0
 40
0.0
 40
0.0909090909090909
 40
0.0909090909090909
 40
0.0909090909090909
 40
0.0909090909090909
 40
0.1818181818181818
 40
0.1818181818181818
 40
0.1818181818181818
 40
0.1818181818181818
 40
0.2727272727272727
 40
0.2727272727272727
 40
0.2727272727272727
 40
0.2727272727272727
 40
0.3636363636363636
 40
0.3636363636363636
 40
0.3636363636363636
 40
0.3636363636363636
 40
0.4545454545454545
 40
0.4545454545454545
 40
0.4545454545454545
 40
0.4545454545454545
 40
0.5454545454545454
 40
0.5454545454545454
 40
0.5454545454545454
 40
0.5454545454545454
 40
0.6363636363636364
 40
0.6363636363636364
 40
0.6363636363636364
 40
0.6363636363636364
 40
0.7272727272727273
 40
0.7272727272727273
 40
0.7272727272727273
 40
0.7272727272727273
 40
0.8181818181818182
 40
0.8181818181818182
 40
0.8181818181818182
 40
0.8181818181818182
 40
1.0
 40
1.0
 40
1.0
 40
1.0
 10
6868.3461
 20
-5819.8928
 30
0.0
 10
6868.3461
 20
-5819.8928
 30
0.0
 10
6841.0784
 20
-5795.4309
 30
0.0
 10
6841.0784
 20
-5795.4309
 30
0.0
 10
6841.0784
 20
-5795.4309
 30
0.0
 10
6841.0784
 20
-5795.4309
 30
0.0
 10
6809.2819
 20
-5813.7318
 30
0.0
 10
6809.2819
 20
-5813.7318
 30
0.0
 10
6809.2819
 20
-5813.7318
 30
0.0
 10
6809.2819
 20
-5813.7318
 30
0.0
 10
6824.2967
 20
-5780.4344
 30
0.0
 10
6824.2967
 20
-5780.4344
 30
0.0
 10
6824.2967
 20
-5780.4344
 30
0.0
 10
6824.2967
 20
-5780.4344
 30
0.0
 10
6796.9343
 20
-5756.0768
 30
0.0
 10
6796.9343
 20
-5756.0768
 30
0.0
 10
6796.9343
 20
-5756.0768
 30
0.0
 10
6796.9343
 20
-5756.0768
 30
0.0
 10
6833.4813
 20
-5759.9595
 30
0.0
 10
6833.4813
 20
-5759.9595
 30
0.0
 10
6833.4813
 20
-5759.9595
 30
0.0
 10
6833.4813
 20
-5759.9595
 30
0.0
 10
6848.3671
 20
-5726.6054
 30
0.0
 10
6848.3671
 20
-5726.6054
 30
0.0
 10
6848.3671
 20
-5726.6054
 30
0.0
 10
6848.3671
 20
-5726.6054
 30
0.0
 10
6855.9402
 20
-5762.3022
 30
0.0
 10
6855.9402
 20
-5762.3022
 30
0.0
 10
6855.9402
 20
-5762.3022
 30
0.0
 10
6855.9402
 20
-5762.3022
 30
0.0
 10
6892.5022
 20
-5766.0458
 30
0.0
 10
6892.5022
 20
-5766.0458
 30
0.0
 10
6892.5022
 20
-5766.0458
 30
0.0
 10
6892.5022
 20
-5766.0458
 30
0.0
 10
6860.6352
 20
-5784.2251
 30
0.0
 10
6860.6352
 20
-5784.2251
 30
0.0
 10
6860.6352
 20
-5784.2251
 30
0.0
 10
6860.6352
 20
-5784.2251
 30
0.0
 10
6868.3461
 20
-5819.8928
 30
0.0
 10
6868.3461
 20
-5819.8928
 30
0.0
  0
SPLINE
  5
66
330
1F
100
AcDbEntity
  8
Layer 1
 62
   250
370
    20
100
AcDbSpline
210
0.0
220
0.0
230
1.0
 70
    11
 71
     3
 72
    44
 73
    40
 74
     0
 42
0.0000000001
 43
0.0000000001
 12
1.0
 22
0.0
 32
0.0
 13
1.0
 23
0.0
 33
0.0
 40
0.0
 40
0.0
 40
0.0
 40
0.0
 40
0.0909090909090909
 40
0.0909090909090909
 40
0.0909090909090909
 40
0.0909090909090909
 40
0.1818181818181818
 40
0.1818181818181818
 40
0.1818181818181818
 40
0.1818181818181818
 40
0.2727272727272727
 40
0.2727272727272727
 40
0.2727272727272727
 40
0.2727272727272727
 40
0.3636363636363636
 40
0.3636363636363636
 40
0.3636363636363636
 40
0.3636363636363636
 40
0.4545454545454545
 40
0.4545454545454545
 40
0.4545454545454545
 40
0.4545454545454545
 40
0.5454545454545454
 40
0.5454545454545454
 40
0.5454545454545454
 40
0.5454545454545454
 40
0.6363636363636364
 40
0.6363636363636364
 40
0.6363636363636364
 40
0.6363636363636364
 40
0.7272727272727273
 40
0.7272727272727273
 40
0.7272727272727273
 40
0.7272727272727273
 40
0.8181818181818182
 40
0.8181818181818182
 40
0.8181818181818182
 40
0.8181818181818182
 40
1.0
 40
1.0
 40
1.0
 40
1.0
 10
7012.7537
 20
-5819.8928
 30
0.0
 10
7012.7537
 20
-5819.8928
 30
0.0
 10
7020.4647
 20
-5784.2251
 30
0.0
 10
7020.4647
 20
-5784.2251
 30
0.0
 10
7020.4647
 20
-5784.2251
 30
0.0
 10
7020.4647
 20
-5784.2251
 30
0.0
 10
6988.5975
 20
-5766.0457
 30
0.0
 10
6988.5975
 20
-5766.0457
 30
0.0
 10
6988.5975
 20
-5766.0457
 30
0.0
 10
6988.5975
 20
-5766.0457
 30
0.0
 10
7025.1599
 20
-5762.3022
 30
0.0
 10
7025.1599
 20
-5762.3022
 30
0.0
 10
7025.1599
 20
-5762.3022
 30
0.0
 10
7025.1599
 20
-5762.3022
 30
0.0
 10
7032.7325
 20
-5726.6054
 30
0.0
 10
7032.7325
 20
-5726.6054
 30
0.0
 10
7032.7325
 20
-5726.6054
 30
0.0
 10
7032.7325
 20
-5726.6054
 30
0.0
 10
7047.6183
 20
-5759.9595
 30
0.0
 10
7047.6183
 20
-5759.9595
 30
0.0
 10
7047.6183
 20
-5759.9595
 30
0.0
 10
7047.6183
 20
-5759.9595
 30
0.0
 10
7084.1655
 20
-5756.0768
 30
0.0
 10
7084.1655
 20
-5756.0768
 30
0.0
 10
7084.1655
 20
-5756.0768
 30
0.0
 10
7084.1655
 20
-5756.0768
 30
0.0
 10
7056.8031
 20
-5780.4344
 30
0.0
 10
7056.8031
 20
-5780.4344
 30
0.0
 10
7056.8031
 20
-5780.4344
 30
0.0
 10
7056.8031
 20
-5780.4344
 30
0.0
 10
7071.8178
 20
-5813.7318
 30
0.0
 10
7071.8178
 20
-5813.7318
 30
0.0
 10
7071.8178
 20
-5813.7318
 30
0.0
 10
7071.8178
 20
-5813.7318
 30
0.0
 10
7040.0213
 20
-5795.4309
 30
0.0
 10
7040.0213
 20
-5795.4309
 30
0.0
 10
7040.0213
 20
-5795.4309
 30
0.0
 10
7040.0213
 20
-5795.4309
 30
0.0
 10
7012.7537
 20
-5819.8928
 30
0.0
 10
7012.7537
 20
-5819.8928
 30
0.0
  0
SPLINE
  5
67
330
1F
100
AcDbEntity
  8
Layer 1
 62
   250
370
    20
100
AcDbSpline
210
0.0
220
0.0
230
1.0
 70
    11
 71
     3
 72
    28
 73
    24
 74
     0
 42
0.0000000001
 43
0.0000000001
 12
1.0
 22
0.0
 32
0.0
 13
1.0
 23
0.0
 33
0.0
 40
0.0
 40
0.0
 40
0.0
 40
0.0
 40
0.1428571428571428
 40
0.1428571428571428
 40
0.1428571428571428
 40
0.1428571428571428
 40
0.2857142857142857
 40
0.2857142857142857
 40
0.2857142857142857
 40
0.2857142857142857
 40
0.4285714285714285
 40
0.4285714285714285
 40
0.4285714285714285
 40
0.4285714285714285
 40
0.5714285714285714
 40
0.5714285714285714
 40
0.5714285714285714
 40
0.5714285714285714
 40
0.7142857142857143
 40
0.7142857142857143
 40
0.7142857142857143
 40
0.7142857142857143
 40
1.0
 40
1.0
 40
1.0
 40
1.0
 10
6940.5501
 20
-5800.6087
 30
0.0
 10
6940.5501
 20
-5800.6087
 30
0.0
 10
6929.2589
 20
-5765.9756
 30
0.0
 10
6929.2589
 20
-5765.9756
 30
0.0
 10
6929.2589
 20
-5765.9756
 30
0.0
 10
6929.2589
 20
-5765.9756
 30
0.0
 10
6892.5861
 20
-5766.0457
 30
0.0
 10
6892.5861
 20
-5766.0457
 30
0.0
 10
6892.5861
 20
-5766.0457
 30
0.0
 10
6892.5861
 20
-5766.0457
 30
0.0
 10
6940.55
 20
-5726.6054
 30
0.0
 10
6940.55
 20
-5726.6054
 30
0.0
 10
6940.55
 20
-5726.6054
 30
0.0
 10
6940.55
 20
-5726.6054
 30
0.0
 10
6988.5136
 20
-5766.0457
 30
0.0
 10
6988.5136
 20
-5766.0457
 30
0.0
 10
6988.5136
 20
-5766.0457
 30
0.0
 10
6988.5136
 20
-5766.0457
 30
0.0
 10
6951.8411
 20
-5765.9755
 30
0.0
 10
6951.8411
 20
-5765.9755
 30
0.0
 10
6951.8411
 20
-5765.9755
 30
0.0
 10
6951.8411
 20
-5765.9755
 30
0.0
 10
6940.5501
 20
-5800.6087
 30
0.0
 10
6940.5501
 20
-5800.6087
 30
0.0
  0
SPLINE
  5
68
330
1F
100
AcDbEntity
  8
Layer 1
 62
   250
370
    20
100
AcDbSpline
210
0.0
220
0.0
230
1.0
 70
    11
 71
     3
 72
    16
 73
    12
 74
     0
 42
0.0000000001
 43
0.0000000001
 12
1.0
 22
0.0
 32
0.0
 13
1.0
 23
0.0
 33
0.0
 40
0.0
 40
0.0
 40
0.0
 40
0.0
 40
0.25
 40
0.25
 40
0.25
 40
0.25
 40
0.5
 40
0.5
 40
0.5
 40
0.5
 40
1.0
 40
1.0
 40
1.0
 40
1.0
 10
7258.0037
 20
-6084.4703
 30
0.0
 10
7258.0037
 20
-6084.4703
 30
0.0
 10
7258.0037
 20
-6046.5505
 30
0.0
 10
7258.0037
 20
-6046.5505
 30
0.0
 10
7258.0037
 20
-6046.5505
 30
0.0
 10
7258.0037
 20
-6046.5505
 30
0.0
 10
7247.833
 20
-6037.4264
 30
0.0
 10
7247.833
 20
-6037.4264
 30
0.0
 10
7247.833
 20
-6037.4264
 30
0.0
 10
7247.833
 20
-6037.4264
 30
0.0
 10
7258.0037
 20
-6084.4703
 30
0.0
 10
7258.0037
 20
-6084.4703
 30
0.0
  0
SPLINE
  5
69
330
1F
100
AcDbEntity
  8
Layer 1
 62
   250
370
    20
100
AcDbSpline
210
0.0
220
0.0
230
1.0
 70
    11
 71
     3
 72
    48
 73
    44
 74
     0
 42
0.0000000001
 43
0.0000000001
 12
1.0
 22
0.0
 32
0.0
 13
1.0
 23
0.0
 33
0.0
 40
0.0
 40
0.0
 40
0.0
 40
0.0
 40
0.0833333333333333
 40
0.0833333333333333
 40
0.0833333333333333
 40
0.0833333333333333
 40
0.1666666666666667
 40
0.1666666666666667
 40
0.1666666666666667
 40
0.1666666666666667
 40
0.25
 40
0.25
 40
0.25
 40
0.25
 40
0.3333333333333333
 40
0.3333333333333333
 40
0.3333333333333333
 40
0.3333333333333333
 40
0.4166666666666667
 40
0.4166666666666667
 40
0.4166666666666667
 40
0.4166666666666667
 40
0.5
 40
0.5
 40
0.5
 40
0.5
 40
0.5833333333333334
 40
0.5833333333333334
 40
0.5833333333333334
 40
0.5833333333333334
 40
0.6666666666666666
 40
0.6666666666666666
 40
0.6666666666666666
 40
0.6666666666666666
 40
0.75
 40
0.75
 40
0.75
 40
0.75
 40
0.8333333333333334
 40
0.8333333333333334
 40
0.8333333333333334
 40
0.8333333333333334
 40
1.0
 40
1.0
 40
1.0
 40
1.0
 10
7258.0037
 20
-5991.5572
 30
0.0
 10
7258.0037
 20
-5991.5572
 30
0.0
 10
7258.0037
 20
-5982.1472
 30
0.0
 10
7258.0037
 20
-5982.1472
 30
0.0
 10
7258.0037
 20
-5982.1472
 30
0.0
 10
7258.0037
 20
-5982.1472
 30
0.0
 10
7235.4269
 20
-5979.8357
 30
0.0
 10
7235.4269
 20
-5979.8357
 30
0.0
 10
7235.4269
 20
-5979.8357
 30
0.0
 10
7235.4269
 20
-5979.8357
 30
0.0
 10
7227.8539
 20
-5944.1387
 30
0.0
 10
7227.8539
 20
-5944.1387
 30
0.0
 10
7227.8539
 20
-5944.1387
 30
0.0
 10
7227.8539
 20
-5944.1387
 30
0.0
 10
7212.9682
 20
-5977.4928
 30
0.0
 10
7212.9682
 20
-5977.4928
 30
0.0
 10
7212.9682
 20
-5977.4928
 30
0.0
 10
7212.9682
 20
-5977.4928
 30
0.0
 10
7176.4212
 20
-5973.6103
 30
0.0
 10
7176.4212
 20
-5973.6103
 30
0.0
 10
7176.4212
 20
-5973.6103
 30
0.0
 10
7176.4212
 20
-5973.6103
 30
0.0
 10
7203.7835
 20
-5997.9677
 30
0.0
 10
7203.7835
 20
-5997.9677
 30
0.0
 10
7203.7835
 20
-5997.9677
 30
0.0
 10
7203.7835
 20
-5997.9677
 30
0.0
 10
7188.7689
 20
-6031.2651
 30
0.0
 10
7188.7689
 20
-6031.2651
 30
0.0
 10
7188.7689
 20
-6031.2651
 30
0.0
 10
7188.7689
 20
-6031.2651
 30
0.0
 10
7220.5652
 20
-6012.9643
 30
0.0
 10
7220.5652
 20
-6012.9643
 30
0.0
 10
7220.5652
 20
-6012.9643
 30
0.0
 10
7220.5652
 20
-6012.9643
 30
0.0
 10
7247.833
 20
-6037.426
 30
0.0
 10
7247.833
 20
-6037.426
 30
0.0
 10
7247.833
 20
-6037.426
 30
0.0
 10
7247.833
 20
-6037.426
 30
0.0
 10
7240.1219
 20
-6001.7582
 30
0.0
 10
7240.1219
 20
-6001.7582
 30
0.0
 10
7240.1219
 20
-6001.7582
 30
0.0
 10
7240.1219
 20
-6001.7582
 30
0.0
 10
7258.0037
 20
-5991.5572
 30
0.0
 10
7258.0037
 20
-5991.5572
 30
0.0
  0
SPLINE
  5
6A
330
1F
100
AcDbEntity
  8
Layer 1
 62
   250
370
    20
100
AcDbSpline
210
0.0
220
0.0
230
1.0
 70
    11
 71
     3
 72
    24
 73
    20
 74
     0
 42
0.0000000001
 43
0.0000000001
 12
1.0
 22
0.0
 32
0.0
 13
1.0
 23
0.0
 33
0.0
 40
0.0
 40
0.0
 40
0.0
 40
0.0
 40
0.1666666666666667
 40
0.1666666666666667
 40
0.1666666666666667
 40
0.1666666666666667
 40
0.3333333333333333
 40
0.3333333333333333
 40
0.3333333333333333
 40
0.3333333333333333
 40
0.5
 40
0.5
 40
0.5
 40
0.5
 40
0.6666666666666666
 40
0.6666666666666666
 40
0.6666666666666666
 40
0.6666666666666666
 40
1.0
 40
1.0
 40
1.0
 40
1.0
 10
7258.0037
 20
-6164.0031
 30
0.0
 10
7258.0037
 20
-6164.0031
 30
0.0
 10
7258.0037
 20
-6159.0897
 30
0.0
 10
7258.0037
 20
-6159.0897
 30
0.0
 10
7258.0037
 20
-6159.0897
 30
0.0
 10
7258.0037
 20
-6159.0897
 30
0.0
 10
7241.1298
 20
-6140.5623
 30
0.0
 10
7241.1298
 20
-6140.5623
 30
0.0
 10
7241.1298
 20
-6140.5623
 30
0.0
 10
7241.1298
 20
-6140.5623
 30
0.0
 10
7175.6295
 20
-6161.5463
 30
0.0
 10
7175.6295
 20
-6161.5463
 30
0.0
 10
7175.6295
 20
-6161.5463
 30
0.0
 10
7175.6295
 20
-6161.5463
 30
0.0
 10
7241.13
 20
-6182.5305
 30
0.0
 10
7241.13
 20
-6182.5305
 30
0.0
 10
7241.13
 20
-6182.5305
 30
0.0
 10
7241.13
 20
-6182.5305
 30
0.0
 10
7258.0037
 20
-6164.0031
 30
0.0
 10
7258.0037
 20
-6164.0031
 30
0.0
  0
SPLINE
  5
6B
330
1F
100
AcDbEntity
  8
Layer 1
 62
   250
370
    20
100
AcDbSpline
210
0.0
220
0.0
230
1.0
 70
    11
 71
     3
 72
    44
 73
    40
 74
     0
 42
0.0000000001
 43
0.0000000001
 12
1.0
 22
0.0
 32
0.0
 13
1.0
 23
0.0
 33
0.0
 40
0.0
 40
0.0
 40
0.0
 40
0.0
 40
0.0909090909090909
 40
0.0909090909090909
 40
0.0909090909090909
 40
0.0909090909090909
 40
0.1818181818181818
 40
0.1818181818181818
 40
0.1818181818181818
 40
0.1818181818181818
 40
0.2727272727272727
 40
0.2727272727272727
 40
0.2727272727272727
 40
0.2727272727272727
 40
0.3636363636363636
 40
0.3636363636363636
 40
0.3636363636363636
 40
0.3636363636363636
 40
0.4545454545454545
 40
0.4545454545454545
 40
0.4545454545454545
 40
0.4545454545454545
 40
0.5454545454545454
 40
0.5454545454545454
 40
0.5454545454545454
 40
0.5454545454545454
 40
0.6363636363636364
 40
0.6363636363636364
 40
0.6363636363636364
 40
0.6363636363636364
 40
0.7272727272727273
 40
0.7272727272727273
 40
0.7272727272727273
 40
0.7272727272727273
 40
0.8181818181818182
 40
0.8181818181818182
 40
0.8181818181818182
 40
0.8181818181818182
 40
1.0
 40
1.0
 40
1.0
 40
1.0
 10
7175.6292
 20
-6161.5463
 30
0.0
 10
7175.6292
 20
-6161.5463
 30
0.0
 10
7140.6504
 20
-6150.3402
 30
0.0
 10
7140.6504
 20
-6150.3402
 30
0.0
 10
7140.6504
 20
-6150.3402
 30
0.0
 10
7140.6504
 20
-6150.3402
 30
0.0
 10
7140.7212
 20
-6113.8602
 30
0.0
 10
7140.7212
 20
-6113.8602
 30
0.0
 10
7140.7212
 20
-6113.8602
 30
0.0
 10
7140.7212
 20
-6113.8602
 30
0.0
 10
7119.1736
 20
-6143.4142
 30
0.0
 10
7119.1736
 20
-6143.4142
 30
0.0
 10
7119.1736
 20
-6143.4142
 30
0.0
 10
7119.1736
 20
-6143.4142
 30
0.0
 10
7084.2383
 20
-6132.0748
 30
0.0
 10
7084.2383
 20
-6132.0748
 30
0.0
 10
7084.2383
 20
-6132.0748
 30
0.0
 10
7084.2383
 20
-6132.0748
 30
0.0
 10
7105.9
 20
-6161.5463
 30
0.0
 10
7105.9
 20
-6161.5463
 30
0.0
 10
7105.9
 20
-6161.5463
 30
0.0
 10
7105.9
 20
-6161.5463
 30
0.0
 10
7084.2385
 20
-6191.0177
 30
0.0
 10
7084.2385
 20
-6191.0177
 30
0.0
 10
7084.2385
 20
-6191.0177
 30
0.0
 10
7084.2385
 20
-6191.0177
 30
0.0
 10
7119.1736
 20
-6179.6782
 30
0.0
 10
7119.1736
 20
-6179.6782
 30
0.0
 10
7119.1736
 20
-6179.6782
 30
0.0
 10
7119.1736
 20
-6179.6782
 30
0.0
 10
7140.7212
 20
-6209.2323
 30
0.0
 10
7140.7212
 20
-6209.2323
 30
0.0
 10
7140.7212
 20
-6209.2323
 30
0.0
 10
7140.7212
 20
-6209.2323
 30
0.0
 10
7140.6505
 20
-6172.7523
 30
0.0
 10
7140.6505
 20
-6172.7523
 30
0.0
 10
7140.6505
 20
-6172.7523
 30
0.0
 10
7140.6505
 20
-6172.7523
 30
0.0
 10
7175.6292
 20
-6161.5463
 30
0.0
 10
7175.6292
 20
-6161.5463
 30
0.0
  0
SPLINE
  5
6C
330
1F
100
AcDbEntity
  8
Layer 1
 62
   250
370
    20
100
AcDbSpline
210
0.0
220
0.0
230
1.0
 70
    11
 71
     3
 72
    16
 73
    12
 74
     0
 42
0.0000000001
 43
0.0000000001
 12
1.0
 22
0.0
 32
0.0
 13
1.0
 23
0.0
 33
0.0
 40
0.0
 40
0.0
 40
0.0
 40
0.0
 40
0.25
 40
0.25
 40
0.25
 40
0.25
 40
0.5
 40
0.5
 40
0.5
 40
0.5
 40
1.0
 40
1.0
 40
1.0
 40
1.0
 10
7258.0037
 20
-6276.5423
 30
0.0
 10
7258.0037
 20
-6276.5423
 30
0.0
 10
7258.0037
 20
-6238.6223
 30
0.0
 10
7258.0037
 20
-6238.6223
 30
0.0
 10
7258.0037
 20
-6238.6223
 30
0.0
 10
7258.0037
 20
-6238.6223
 30
0.0
 10
7247.833
 20
-6285.6665
 30
0.0
 10
7247.833
 20
-6285.6665
 30
0.0
 10
7247.833
 20
-6285.6665
 30
0.0
 10
7247.833
 20
-6285.6665
 30
0.0
 10
7258.0037
 20
-6276.5423
 30
0.0
 10
7258.0037
 20
-6276.5423
 30
0.0
  0
SPLINE
  5
6D
330
1F
100
AcDbEntity
  8
Layer 1
 62
   250
370
    20
100
AcDbSpline
210
0.0
220
0.0
230
1.0
 70
    11
 71
     3
 72
    48
 73
    44
 74
     0
 42
0.0000000001
 43
0.0000000001
 12
1.0
 22
0.0
 32
0.0
 13
1.0
 23
0.0
 33
0.0
 40
0.0
 40
0.0
 40
0.0
 40
0.0
 40
0.0833333333333333
 40
0.0833333333333333
 40
0.0833333333333333
 40
0.0833333333333333
 40
0.1666666666666667
 40
0.1666666666666667
 40
0.1666666666666667
 40
0.1666666666666667
 40
0.25
 40
0.25
 40
0.25
 40
0.25
 40
0.3333333333333333
 40
0.3333333333333333
 40
0.3333333333333333
 40
0.3333333333333333
 40
0.4166666666666667
 40
0.4166666666666667
 40
0.4166666666666667
 40
0.4166666666666667
 40
0.5
 40
0.5
 40
0.5
 40
0.5
 40
0.5833333333333334
 40
0.5833333333333334
 40
0.5833333333333334
 40
0.5833333333333334
 40
0.6666666666666666
 40
0.6666666666666666
 40
0.6666666666666666
 40
0.6666666666666666
 40
0.75
 40
0.75
 40
0.75
 40
0.75
 40
0.8333333333333334
 40
0.8333333333333334
 40
0.8333333333333334
 40
0.8333333333333334
 40
1.0
 40
1.0
 40
1.0
 40
1.0
 10
7258.0037
 20
-6340.9455
 30
0.0
 10
7258.0037
 20
-6340.9455
 30
0.0
 10
7258.0037
 20
-6331.5353
 30
0.0
 10
7258.0037
 20
-6331.5353
 30
0.0
 10
7258.0037
 20
-6331.5353
 30
0.0
 10
7258.0037
 20
-6331.5353
 30
0.0
 10
7240.1219
 20
-6321.3344
 30
0.0
 10
7240.1219
 20
-6321.3344
 30
0.0
 10
7240.1219
 20
-6321.3344
 30
0.0
 10
7240.1219
 20
-6321.3344
 30
0.0
 10
7247.8328
 20
-6285.6665
 30
0.0
 10
7247.8328
 20
-6285.6665
 30
0.0
 10
7247.8328
 20
-6285.6665
 30
0.0
 10
7247.8328
 20
-6285.6665
 30
0.0
 10
7220.5655
 20
-6310.1282
 30
0.0
 10
7220.5655
 20
-6310.1282
 30
0.0
 10
7220.5655
 20
-6310.1282
 30
0.0
 10
7220.5655
 20
-6310.1282
 30
0.0
 10
7188.7689
 20
-6291.8275
 30
0.0
 10
7188.7689
 20
-6291.8275
 30
0.0
 10
7188.7689
 20
-6291.8275
 30
0.0
 10
7188.7689
 20
-6291.8275
 30
0.0
 10
7203.7835
 20
-6325.125
 30
0.0
 10
7203.7835
 20
-6325.125
 30
0.0
 10
7203.7835
 20
-6325.125
 30
0.0
 10
7203.7835
 20
-6325.125
 30
0.0
 10
7176.4213
 20
-6349.4825
 30
0.0
 10
7176.4213
 20
-6349.4825
 30
0.0
 10
7176.4213
 20
-6349.4825
 30
0.0
 10
7176.4213
 20
-6349.4825
 30
0.0
 10
7212.9684
 20
-6345.5999
 30
0.0
 10
7212.9684
 20
-6345.5999
 30
0.0
 10
7212.9684
 20
-6345.5999
 30
0.0
 10
7212.9684
 20
-6345.5999
 30
0.0
 10
7227.8539
 20
-6378.954
 30
0.0
 10
7227.8539
 20
-6378.954
 30
0.0
 10
7227.8539
 20
-6378.954
 30
0.0
 10
7227.8539
 20
-6378.954
 30
0.0
 10
7235.4269
 20
-6343.2569
 30
0.0
 10
7235.4269
 20
-6343.2569
 30
0.0
 10
7235.4269
 20
-6343.2569
 30
0.0
 10
7235.4269
 20
-6343.2569
 30
0.0
 10
7258.0037
 20
-6340.9455
 30
0.0
 10
7258.0037
 20
-6340.9455
 30
0.0
  0
SPLINE
  5
6E
330
1F
100
AcDbEntity
  8
Layer 1
 62
   250
370
    20
100
AcDbSpline
210
0.0
220
0.0
230
1.0
 70
    11
 71
     3
 72
    28
 73
    24
 74
     0
 42
0.0000000001
 43
0.0000000001
 12
1.0
 22
0.0
 32
0.0
 13
1.0
 23
0.0
 33
0.0
 40
0.0
 40
0.0
 40
0.0
 40
0.0
 40
0.1428571428571428
 40
0.1428571428571428
 40
0.1428571428571428
 40
0.1428571428571428
 40
0.2857142857142857
 40
0.2857142857142857
 40
0.2857142857142857
 40
0.2857142857142857
 40
0.4285714285714285
 40
0.4285714285714285
 40
0.4285714285714285
 40
0.4285714285714285
 40
0.5714285714285714
 40
0.5714285714285714
 40
0.5714285714285714
 40
0.5714285714285714
 40
0.7142857142857143
 40
0.7142857142857143
 40
0.7142857142857143
 40
0.7142857142857143
 40
1.0
 40
1.0
 40
1.0
 40
1.0
 10
7194.9043
 20
-6233.2485
 30
0.0
 10
7194.9043
 20
-6233.2485
 30
0.0
 10
7159.0382
 20
-6240.86
 30
0.0
 10
7159.0382
 20
-6240.86
 30
0.0
 10
7159.0382
 20
-6240.86
 30
0.0
 10
7159.0382
 20
-6240.86
 30
0.0
 10
7140.7629
 20
-6209.3042
 30
0.0
 10
7140.7629
 20
-6209.3042
 30
0.0
 10
7140.7629
 20
-6209.3042
 30
0.0
 10
7140.7629
 20
-6209.3042
 30
0.0
 10
7130.3297
 20
-6270.2501
 30
0.0
 10
7130.3297
 20
-6270.2501
 30
0.0
 10
7130.3297
 20
-6270.2501
 30
0.0
 10
7130.3297
 20
-6270.2501
 30
0.0
 10
7188.7268
 20
-6291.7555
 30
0.0
 10
7188.7268
 20
-6291.7555
 30
0.0
 10
7188.7268
 20
-6291.7555
 30
0.0
 10
7188.7268
 20
-6291.7555
 30
0.0
 10
7170.3293
 20
-6260.27
 30
0.0
 10
7170.3293
 20
-6260.27
 30
0.0
 10
7170.3293
 20
-6260.27
 30
0.0
 10
7170.3293
 20
-6260.27
 30
0.0
 10
7194.9043
 20
-6233.2485
 30
0.0
 10
7194.9043
 20
-6233.2485
 30
0.0
  0
SPLINE
  5
6F
330
1F
100
AcDbEntity
  8
Layer 1
 62
   250
370
    20
100
AcDbSpline
210
0.0
220
0.0
230
1.0
 70
    11
 71
     3
 72
    20
 73
    16
 74
     0
 42
0.0000000001
 43
0.0000000001
 12
1.0
 22
0.0
 32
0.0
 13
1.0
 23
0.0
 33
0.0
 40
0.0
 40
0.0
 40
0.0
 40
0.0
 40
0.2
 40
0.2
 40
0.2
 40
0.2
 40
0.4
 40
0.4
 40
0.4
 40
0.4
 40
0.6
 40
0.6
 40
0.6
 40
0.6
 40
1.0
 40
1.0
 40
1.0
 40
1.0
 10
7258.0037
 20
-6219.7097
 30
0.0
 10
7258.0037
 20
-6219.7097
 30
0.0
 10
7258.0037
 20
-6187.9582
 30
0.0
 10
7258.0037
 20
-6187.9582
 30
0.0
 10
7258.0037
 20
-6187.9582
 30
0.0
 10
7258.0037
 20
-6187.9582
 30
0.0
 10
7241.1714
 20
-6182.6019
 30
0.0
 10
7241.1714
 20
-6182.6019
 30
0.0
 10
7241.1714
 20
-6182.6019
 30
0.0
 10
7241.1714
 20
-6182.6019
 30
0.0
 10
7194.9762
 20
-6233.2071
 30
0.0
 10
7194.9762
 20
-6233.2071
 30
0.0
 10
7194.9762
 20
-6233.2071
 30
0.0
 10
7194.9762
 20
-6233.2071
 30
0.0
 10
7258.0037
 20
-6219.7097
 30
0.0
 10
7258.0037
 20
-6219.7097
 30
0.0
  0
SPLINE
  5
70
330
1F
100
AcDbEntity
  8
Layer 1
 62
   250
370
    20
100
AcDbSpline
210
0.0
220
0.0
230
1.0
 70
    11
 71
     3
 72
    28
 73
    24
 74
     0
 42
0.0000000001
 43
0.0000000001
 12
1.0
 22
0.0
 32
0.0
 13
1.0
 23
0.0
 33
0.0
 40
0.0
 40
0.0
 40
0.0
 40
0.0
 40
0.1428571428571428
 40
0.1428571428571428
 40
0.1428571428571428
 40
0.1428571428571428
 40
0.2857142857142857
 40
0.2857142857142857
 40
0.2857142857142857
 40
0.2857142857142857
 40
0.4285714285714285
 40
0.4285714285714285
 40
0.4285714285714285
 40
0.4285714285714285
 40
0.5714285714285714
 40
0.5714285714285714
 40
0.5714285714285714
 40
0.5714285714285714
 40
0.7142857142857143
 40
0.7142857142857143
 40
0.7142857142857143
 40
0.7142857142857143
 40
1.0
 40
1.0
 40
1.0
 40
1.0
 10
7194.9042
 20
-6089.8443
 30
0.0
 10
7194.9042
 20
-6089.8443
 30
0.0
 10
7170.3292
 20
-6062.8228
 30
0.0
 10
7170.3292
 20
-6062.8228
 30
0.0
 10
7170.3292
 20
-6062.8228
 30
0.0
 10
7170.3292
 20
-6062.8228
 30
0.0
 10
7188.7268
 20
-6031.3371
 30
0.0
 10
7188.7268
 20
-6031.3371
 30
0.0
 10
7188.7268
 20
-6031.3371
 30
0.0
 10
7188.7268
 20
-6031.3371
 30
0.0
 10
7130.3297
 20
-6052.8426
 30
0.0
 10
7130.3297
 20
-6052.8426
 30
0.0
 10
7130.3297
 20
-6052.8426
 30
0.0
 10
7130.3297
 20
-6052.8426
 30
0.0
 10
7140.7629
 20
-6113.7882
 30
0.0
 10
7140.7629
 20
-6113.7882
 30
0.0
 10
7140.7629
 20
-6113.7882
 30
0.0
 10
7140.7629
 20
-6113.7882
 30
0.0
 10
7159.038
 20
-6082.2325
 30
0.0
 10
7159.038
 20
-6082.2325
 30
0.0
 10
7159.038
 20
-6082.2325
 30
0.0
 10
7159.038
 20
-6082.2325
 30
0.0
 10
7194.9042
 20
-6089.8443
 30
0.0
 10
7194.9042
 20
-6089.8443
 30
0.0
  0
SPLINE
  5
71
330
1F
100
AcDbEntity
  8
Layer 1
 62
   250
370
    20
100
AcDbSpline
210
0.0
220
0.0
230
1.0
 70
    11
 71
     3
 72
    20
 73
    16
 74
     0
 42
0.0000000001
 43
0.0000000001
 12
1.0
 22
0.0
 32
0.0
 13
1.0
 23
0.0
 33
0.0
 40
0.0
 40
0.0
 40
0.0
 40
0.0
 40
0.2
 40
0.2
 40
0.2
 40
0.2
 40
0.4
 40
0.4
 40
0.4
 40
0.4
 40
0.6
 40
0.6
 40
0.6
 40
0.6
 40
1.0
 40
1.0
 40
1.0
 40
1.0
 10
7258.0037
 20
-6135.1344
 30
0.0
 10
7258.0037
 20
-6135.1344
 30
0.0
 10
7258.0037
 20
-6103.383
 30
0.0
 10
7258.0037
 20
-6103.383
 30
0.0
 10
7258.0037
 20
-6103.383
 30
0.0
 10
7258.0037
 20
-6103.383
 30
0.0
 10
7194.9762
 20
-6089.8856
 30
0.0
 10
7194.9762
 20
-6089.8856
 30
0.0
 10
7194.9762
 20
-6089.8856
 30
0.0
 10
7194.9762
 20
-6089.8856
 30
0.0
 10
7241.1715
 20
-6140.4907
 30
0.0
 10
7241.1715
 20
-6140.4907
 30
0.0
 10
7241.1715
 20
-6140.4907
 30
0.0
 10
7241.1715
 20
-6140.4907
 30
0.0
 10
7258.0037
 20
-6135.1344
 30
0.0
 10
7258.0037
 20
-6135.1344
 30
0.0
  0
SPLINE
  5
72
330
1F
100
AcDbEntity
  8
Layer 1
 62
   250
370
    20
100
AcDbSpline
210
0.0
220
0.0
230
1.0
 70
    11
 71
     3
 72
    48
 73
    44
 74
     0
 42
0.0000000001
 43
0.0000000001
 12
1.0
 22
0.0
 32
0.0
 13
1.0
 23
0.0
 33
0.0
 40
0.0
 40
0.0
 40
0.0
 40
0.0
 40
0.0833333333333333
 40
0.0833333333333333
 40
0.0833333333333333
 40
0.0833333333333333
 40
0.1666666666666667
 40
0.1666666666666667
 40
0.1666666666666667
 40
0.1666666666666667
 40
0.25
 40
0.25
 40
0.25
 40
0.25
 40
0.3333333333333333
 40
0.3333333333333333
 40
0.3333333333333333
 40
0.3333333333333333
 40
0.4166666666666667
 40
0.4166666666666667
 40
0.4166666666666667
 40
0.4166666666666667
 40
0.5
 40
0.5
 40
0.5
 40
0.5
 40
0.5833333333333334
 40
0.5833333333333334
 40
0.5833333333333334
 40
0.5833333333333334
 40
0.6666666666666666
 40
0.6666666666666666
 40
0.6666666666666666
 40
0.6666666666666666
 40
0.75
 40
0.75
 40
0.75
 40
0.75
 40
0.8333333333333334
 40
0.8333333333333334
 40
0.8333333333333334
 40
0.8333333333333334
 40
1.0
 40
1.0
 40
1.0
 40
1.0
 10
7258.0037
 20
-5905.9375
 30
0.0
 10
7258.0037
 20
-5905.9375
 30
0.0
 10
7258.0037
 20
-5896.4914
 30
0.0
 10
7258.0037
 20
-5896.4914
 30
0.0
 10
7258.0037
 20
-5896.4914
 30
0.0
 10
7258.0037
 20
-5896.4914
 30
0.0
 10
7240.1754
 20
-5886.321
 30
0.0
 10
7240.1754
 20
-5886.321
 30
0.0
 10
7240.1754
 20
-5886.321
 30
0.0
 10
7240.1754
 20
-5886.321
 30
0.0
 10
7247.8865
 20
-5850.6529
 30
0.0
 10
7247.8865
 20
-5850.6529
 30
0.0
 10
7247.8865
 20
-5850.6529
 30
0.0
 10
7247.8865
 20
-5850.6529
 30
0.0
 10
7220.6189
 20
-5875.1149
 30
0.0
 10
7220.6189
 20
-5875.1149
 30
0.0
 10
7220.6189
 20
-5875.1149
 30
0.0
 10
7220.6189
 20
-5875.1149
 30
0.0
 10
7188.8225
 20
-5856.8142
 30
0.0
 10
7188.8225
 20
-5856.8142
 30
0.0
 10
7188.8225
 20
-5856.8142
 30
0.0
 10
7188.8225
 20
-5856.8142
 30
0.0
 10
7203.8369
 20
-5890.1116
 30
0.0
 10
7203.8369
 20
-5890.1116
 30
0.0
 10
7203.8369
 20
-5890.1116
 30
0.0
 10
7203.8369
 20
-5890.1116
 30
0.0
 10
7176.4746
 20
-5914.469
 30
0.0
 10
7176.4746
 20
-5914.469
 30
0.0
 10
7176.4746
 20
-5914.469
 30
0.0
 10
7176.4746
 20
-5914.469
 30
0.0
 10
7213.0219
 20
-5910.5865
 30
0.0
 10
7213.0219
 20
-5910.5865
 30
0.0
 10
7213.0219
 20
-5910.5865
 30
0.0
 10
7213.0219
 20
-5910.5865
 30
0.0
 10
7227.9076
 20
-5943.9406
 30
0.0
 10
7227.9076
 20
-5943.9406
 30
0.0
 10
7227.9076
 20
-5943.9406
 30
0.0
 10
7227.9076
 20
-5943.9406
 30
0.0
 10
7235.4802
 20
-5908.2437
 30
0.0
 10
7235.4802
 20
-5908.2437
 30
0.0
 10
7235.4802
 20
-5908.2437
 30
0.0
 10
7235.4802
 20
-5908.2437
 30
0.0
 10
7258.0037
 20
-5905.9375
 30
0.0
 10
7258.0037
 20
-5905.9375
 30
0.0
  0
SPLINE
  5
73
330
1F
100
AcDbEntity
  8
Layer 1
 62
   250
370
    20
100
AcDbSpline
210
0.0
220
0.0
230
1.0
 70
    11
 71
     3
 72
    48
 73
    44
 74
     0
 42
0.0000000001
 43
0.0000000001
 12
1.0
 22
0.0
 32
0.0
 13
1.0
 23
0.0
 33
0.0
 40
0.0
 40
0.0
 40
0.0
 40
0.0
 40
0.0833333333333333
 40
0.0833333333333333
 40
0.0833333333333333
 40
0.0833333333333333
 40
0.1666666666666667
 40
0.1666666666666667
 40
0.1666666666666667
 40
0.1666666666666667
 40
0.25
 40
0.25
 40
0.25
 40
0.25
 40
0.3333333333333333
 40
0.3333333333333333
 40
0.3333333333333333
 40
0.3333333333333333
 40
0.4166666666666667
 40
0.4166666666666667
 40
0.4166666666666667
 40
0.4166666666666667
 40
0.5
 40
0.5
 40
0.5
 40
0.5
 40
0.5833333333333334
 40
0.5833333333333334
 40
0.5833333333333334
 40
0.5833333333333334
 40
0.6666666666666666
 40
0.6666666666666666
 40
0.6666666666666666
 40
0.6666666666666666
 40
0.75
 40
0.75
 40
0.75
 40
0.75
 40
0.8333333333333334
 40
0.8333333333333334
 40
0.8333333333333334
 40
0.8333333333333334
 40
1.0
 40
1.0
 40
1.0
 40
1.0
 10
6623.0038
 20
-5896.5217
 30
0.0
 10
6623.0038
 20
-5896.5217
 30
0.0
 10
6623.0038
 20
-5905.9547
 30
0.0
 10
6623.0038
 20
-5905.9547
 30
0.0
 10
6623.0038
 20
-5905.9547
 30
0.0
 10
6623.0038
 20
-5905.9547
 30
0.0
 10
6645.5464
 20
-5908.2629
 30
0.0
 10
6645.5464
 20
-5908.2629
 30
0.0
 10
6645.5464
 20
-5908.2629
 30
0.0
 10
6645.5464
 20
-5908.2629
 30
0.0
 10
6653.1193
 20
-5943.9598
 30
0.0
 10
6653.1193
 20
-5943.9598
 30
0.0
 10
6653.1193
 20
-5943.9598
 30
0.0
 10
6653.1193
 20
-5943.9598
 30
0.0
 10
6668.0051
 20
-5910.6057
 30
0.0
 10
6668.0051
 20
-5910.6057
 30
0.0
 10
6668.0051
 20
-5910.6057
 30
0.0
 10
6668.0051
 20
-5910.6057
 30
0.0
 10
6704.5522
 20
-5914.4886
 30
0.0
 10
6704.5522
 20
-5914.4886
 30
0.0
 10
6704.5522
 20
-5914.4886
 30
0.0
 10
6704.5522
 20
-5914.4886
 30
0.0
 10
6677.1897
 20
-5890.1308
 30
0.0
 10
6677.1897
 20
-5890.1308
 30
0.0
 10
6677.1897
 20
-5890.1308
 30
0.0
 10
6677.1897
 20
-5890.1308
 30
0.0
 10
6692.2045
 20
-5856.8335
 30
0.0
 10
6692.2045
 20
-5856.8335
 30
0.0
 10
6692.2045
 20
-5856.8335
 30
0.0
 10
6692.2045
 20
-5856.8335
 30
0.0
 10
6660.4081
 20
-5875.1343
 30
0.0
 10
6660.4081
 20
-5875.1343
 30
0.0
 10
6660.4081
 20
-5875.1343
 30
0.0
 10
6660.4081
 20
-5875.1343
 30
0.0
 10
6633.1404
 20
-5850.6726
 30
0.0
 10
6633.1404
 20
-5850.6726
 30
0.0
 10
6633.1404
 20
-5850.6726
 30
0.0
 10
6633.1404
 20
-5850.6726
 30
0.0
 10
6640.8513
 20
-5886.3403
 30
0.0
 10
6640.8513
 20
-5886.3403
 30
0.0
 10
6640.8513
 20
-5886.3403
 30
0.0
 10
6640.8513
 20
-5886.3403
 30
0.0
 10
6623.0038
 20
-5896.5217
 30
0.0
 10
6623.0038
 20
-5896.5217
 30
0.0
  0
SPLINE
  5
74
330
1F
100
AcDbEntity
  8
Layer 1
 62
   250
370
    20
100
AcDbSpline
210
0.0
220
0.0
230
1.0
 70
    11
 71
     3
 72
    16
 73
    12
 74
     0
 42
0.0000000001
 43
0.0000000001
 12
1.0
 22
0.0
 32
0.0
 13
1.0
 23
0.0
 33
0.0
 40
0.0
 40
0.0
 40
0.0
 40
0.0
 40
0.25
 40
0.25
 40
0.25
 40
0.25
 40
0.5
 40
0.5
 40
0.5
 40
0.5
 40
1.0
 40
1.0
 40
1.0
 40
1.0
 10
7258.0037
 20
-6955.3489
 30
0.0
 10
7258.0037
 20
-6955.3489
 30
0.0
 10
7258.0037
 20
-6916.758
 30
0.0
 10
7258.0037
 20
-6916.758
 30
0.0
 10
7258.0037
 20
-6916.758
 30
0.0
 10
7258.0037
 20
-6916.758
 30
0.0
 10
7247.653
 20
-6907.4724
 30
0.0
 10
7247.653
 20
-6907.4724
 30
0.0
 10
7247.653
 20
-6907.4724
 30
0.0
 10
7247.653
 20
-6907.4724
 30
0.0
 10
7258.0037
 20
-6955.3489
 30
0.0
 10
7258.0037
 20
-6955.3489
 30
0.0
  0
SPLINE
  5
75
330
1F
100
AcDbEntity
  8
Layer 1
 62
   250
370
    20
100
AcDbSpline
210
0.0
220
0.0
230
1.0
 70
    11
 71
     3
 72
    48
 73
    44
 74
     0
 42
0.0000000001
 43
0.0000000001
 12
1.0
 22
0.0
 32
0.0
 13
1.0
 23
0.0
 33
0.0
 40
0.0
 40
0.0
 40
0.0
 40
0.0
 40
0.0833333333333333
 40
0.0833333333333333
 40
0.0833333333333333
 40
0.0833333333333333
 40
0.1666666666666667
 40
0.1666666666666667
 40
0.1666666666666667
 40
0.1666666666666667
 40
0.25
 40
0.25
 40
0.25
 40
0.25
 40
0.3333333333333333
 40
0.3333333333333333
 40
0.3333333333333333
 40
0.3333333333333333
 40
0.4166666666666667
 40
0.4166666666666667
 40
0.4166666666666667
 40
0.4166666666666667
 40
0.5
 40
0.5
 40
0.5
 40
0.5
 40
0.5833333333333334
 40
0.5833333333333334
 40
0.5833333333333334
 40
0.5833333333333334
 40
0.6666666666666666
 40
0.6666666666666666
 40
0.6666666666666666
 40
0.6666666666666666
 40
0.75
 40
0.75
 40
0.75
 40
0.75
 40
0.8333333333333334
 40
0.8333333333333334
 40
0.8333333333333334
 40
0.8333333333333334
 40
1.0
 40
1.0
 40
1.0
 40
1.0
 10
7258.0037
 20
-6861.5009
 30
0.0
 10
7258.0037
 20
-6861.5009
 30
0.0
 10
7258.0037
 20
-6852.2119
 30
0.0
 10
7258.0037
 20
-6852.2119
 30
0.0
 10
7258.0037
 20
-6852.2119
 30
0.0
 10
7258.0037
 20
-6852.2119
 30
0.0
 10
7235.2468
 20
-6849.882
 30
0.0
 10
7235.2468
 20
-6849.882
 30
0.0
 10
7235.2468
 20
-6849.882
 30
0.0
 10
7235.2468
 20
-6849.882
 30
0.0
 10
7227.674
 20
-6814.1849
 30
0.0
 10
7227.674
 20
-6814.1849
 30
0.0
 10
7227.674
 20
-6814.1849
 30
0.0
 10
7227.674
 20
-6814.1849
 30
0.0
 10
7212.7883
 20
-6847.539
 30
0.0
 10
7212.7883
 20
-6847.539
 30
0.0
 10
7212.7883
 20
-6847.539
 30
0.0
 10
7212.7883
 20
-6847.539
 30
0.0
 10
7176.2411
 20
-6843.6563
 30
0.0
 10
7176.2411
 20
-6843.6563
 30
0.0
 10
7176.2411
 20
-6843.6563
 30
0.0
 10
7176.2411
 20
-6843.6563
 30
0.0
 10
7203.6035
 20
-6868.0138
 30
0.0
 10
7203.6035
 20
-6868.0138
 30
0.0
 10
7203.6035
 20
-6868.0138
 30
0.0
 10
7203.6035
 20
-6868.0138
 30
0.0
 10
7188.589
 20
-6901.3115
 30
0.0
 10
7188.589
 20
-6901.3115
 30
0.0
 10
7188.589
 20
-6901.3115
 30
0.0
 10
7188.589
 20
-6901.3115
 30
0.0
 10
7220.3854
 20
-6883.0107
 30
0.0
 10
7220.3854
 20
-6883.0107
 30
0.0
 10
7220.3854
 20
-6883.0107
 30
0.0
 10
7220.3854
 20
-6883.0107
 30
0.0
 10
7247.653
 20
-6907.4723
 30
0.0
 10
7247.653
 20
-6907.4723
 30
0.0
 10
7247.653
 20
-6907.4723
 30
0.0
 10
7247.653
 20
-6907.4723
 30
0.0
 10
7239.9421
 20
-6871.8045
 30
0.0
 10
7239.9421
 20
-6871.8045
 30
0.0
 10
7239.9421
 20
-6871.8045
 30
0.0
 10
7239.9421
 20
-6871.8045
 30
0.0
 10
7258.0037
 20
-6861.5009
 30
0.0
 10
7258.0037
 20
-6861.5009
 30
0.0
  0
SPLINE
  5
76
330
1F
100
AcDbEntity
  8
Layer 1
 62
   250
370
    20
100
AcDbSpline
210
0.0
220
0.0
230
1.0
 70
    11
 71
     3
 72
    24
 73
    20
 74
     0
 42
0.0000000001
 43
0.0000000001
 12
1.0
 22
0.0
 32
0.0
 13
1.0
 23
0.0
 33
0.0
 40
0.0
 40
0.0
 40
0.0
 40
0.0
 40
0.1666666666666667
 40
0.1666666666666667
 40
0.1666666666666667
 40
0.1666666666666667
 40
0.3333333333333333
 40
0.3333333333333333
 40
0.3333333333333333
 40
0.3333333333333333
 40
0.5
 40
0.5
 40
0.5
 40
0.5
 40
0.6666666666666666
 40
0.6666666666666666
 40
0.6666666666666666
 40
0.6666666666666666
 40
1.0
 40
1.0
 40
1.0
 40
1.0
 10
7258.0037
 20
-7033.8515
 30
0.0
 10
7258.0037
 20
-7033.8515
 30
0.0
 10
7258.0037
 20
-7029.3335
 30
0.0
 10
7258.0037
 20
-7029.3335
 30
0.0
 10
7258.0037
 20
-7029.3335
 30
0.0
 10
7258.0037
 20
-7029.3335
 30
0.0
 10
7240.9498
 20
-7010.6085
 30
0.0
 10
7240.9498
 20
-7010.6085
 30
0.0
 10
7240.9498
 20
-7010.6085
 30
0.0
 10
7240.9498
 20
-7010.6085
 30
0.0
 10
7175.4494
 20
-7031.5925
 30
0.0
 10
7175.4494
 20
-7031.5925
 30
0.0
 10
7175.4494
 20
-7031.5925
 30
0.0
 10
7175.4494
 20
-7031.5925
 30
0.0
 10
7240.9501
 20
-7052.5765
 30
0.0
 10
7240.9501
 20
-7052.5765
 30
0.0
 10
7240.9501
 20
-7052.5765
 30
0.0
 10
7240.9501
 20
-7052.5765
 30
0.0
 10
7258.0037
 20
-7033.8515
 30
0.0
 10
7258.0037
 20
-7033.8515
 30
0.0
  0
SPLINE
  5
77
330
1F
100
AcDbEntity
  8
Layer 1
 62
   250
370
    20
100
AcDbSpline
210
0.0
220
0.0
230
1.0
 70
    11
 71
     3
 72
    44
 73
    40
 74
     0
 42
0.0000000001
 43
0.0000000001
 12
1.0
 22
0.0
 32
0.0
 13
1.0
 23
0.0
 33
0.0
 40
0.0
 40
0.0
 40
0.0
 40
0.0
 40
0.0909090909090909
 40
0.0909090909090909
 40
0.0909090909090909
 40
0.0909090909090909
 40
0.1818181818181818
 40
0.1818181818181818
 40
0.1818181818181818
 40
0.1818181818181818
 40
0.2727272727272727
 40
0.2727272727272727
 40
0.2727272727272727
 40
0.2727272727272727
 40
0.3636363636363636
 40
0.3636363636363636
 40
0.3636363636363636
 40
0.3636363636363636
 40
0.4545454545454545
 40
0.4545454545454545
 40
0.4545454545454545
 40
0.4545454545454545
 40
0.5454545454545454
 40
0.5454545454545454
 40
0.5454545454545454
 40
0.5454545454545454
 40
0.6363636363636364
 40
0.6363636363636364
 40
0.6363636363636364
 40
0.6363636363636364
 40
0.7272727272727273
 40
0.7272727272727273
 40
0.7272727272727273
 40
0.7272727272727273
 40
0.8181818181818182
 40
0.8181818181818182
 40
0.8181818181818182
 40
0.8181818181818182
 40
1.0
 40
1.0
 40
1.0
 40
1.0
 10
7175.4493
 20
-7031.5925
 30
0.0
 10
7175.4493
 20
-7031.5925
 30
0.0
 10
7140.4706
 20
-7020.3864
 30
0.0
 10
7140.4706
 20
-7020.3864
 30
0.0
 10
7140.4706
 20
-7020.3864
 30
0.0
 10
7140.4706
 20
-7020.3864
 30
0.0
 10
7140.5412
 20
-6983.9064
 30
0.0
 10
7140.5412
 20
-6983.9064
 30
0.0
 10
7140.5412
 20
-6983.9064
 30
0.0
 10
7140.5412
 20
-6983.9064
 30
0.0
 10
7118.9937
 20
-7013.4605
 30
0.0
 10
7118.9937
 20
-7013.4605
 30
0.0
 10
7118.9937
 20
-7013.4605
 30
0.0
 10
7118.9937
 20
-7013.4605
 30
0.0
 10
7084.0584
 20
-7002.1212
 30
0.0
 10
7084.0584
 20
-7002.1212
 30
0.0
 10
7084.0584
 20
-7002.1212
 30
0.0
 10
7084.0584
 20
-7002.1212
 30
0.0
 10
7105.7201
 20
-7031.5925
 30
0.0
 10
7105.7201
 20
-7031.5925
 30
0.0
 10
7105.7201
 20
-7031.5925
 30
0.0
 10
7105.7201
 20
-7031.5925
 30
0.0
 10
7084.0584
 20
-7061.0642
 30
0.0
 10
7084.0584
 20
-7061.0642
 30
0.0
 10
7084.0584
 20
-7061.0642
 30
0.0
 10
7084.0584
 20
-7061.0642
 30
0.0
 10
7118.9937
 20
-7049.7244
 30
0.0
 10
7118.9937
 20
-7049.7244
 30
0.0
 10
7118.9937
 20
-7049.7244
 30
0.0
 10
7118.9937
 20
-7049.7244
 30
0.0
 10
7140.5412
 20
-7079.2786
 30
0.0
 10
7140.5412
 20
-7079.2786
 30
0.0
 10
7140.5412
 20
-7079.2786
 30
0.0
 10
7140.5412
 20
-7079.2786
 30
0.0
 10
7140.4706
 20
-7042.7986
 30
0.0
 10
7140.4706
 20
-7042.7986
 30
0.0
 10
7140.4706
 20
-7042.7986
 30
0.0
 10
7140.4706
 20
-7042.7986
 30
0.0
 10
7175.4493
 20
-7031.5925
 30
0.0
 10
7175.4493
 20
-7031.5925
 30
0.0
  0
SPLINE
  5
78
330
1F
100
AcDbEntity
  8
Layer 1
 62
   250
370
    20
100
AcDbSpline
210
0.0
220
0.0
230
1.0
 70
    11
 71
     3
 72
    16
 73
    12
 74
     0
 42
0.0000000001
 43
0.0000000001
 12
1.0
 22
0.0
 32
0.0
 13
1.0
 23
0.0
 33
0.0
 40
0.0
 40
0.0
 40
0.0
 40
0.0
 40
0.25
 40
0.25
 40
0.25
 40
0.25
 40
0.5
 40
0.5
 40
0.5
 40
0.5
 40
1.0
 40
1.0
 40
1.0
 40
1.0
 10
7258.0037
 20
-7146.4269
 30
0.0
 10
7258.0037
 20
-7146.4269
 30
0.0
 10
7258.0037
 20
-7107.8363
 30
0.0
 10
7258.0037
 20
-7107.8363
 30
0.0
 10
7258.0037
 20
-7107.8363
 30
0.0
 10
7258.0037
 20
-7107.8363
 30
0.0
 10
7247.653
 20
-7155.7124
 30
0.0
 10
7247.653
 20
-7155.7124
 30
0.0
 10
7247.653
 20
-7155.7124
 30
0.0
 10
7247.653
 20
-7155.7124
 30
0.0
 10
7258.0037
 20
-7146.4269
 30
0.0
 10
7258.0037
 20
-7146.4269
 30
0.0
  0
SPLINE
  5
79
330
1F
100
AcDbEntity
  8
Layer 1
 62
   250
370
    20
100
AcDbSpline
210
0.0
220
0.0
230
1.0
 70
    11
 71
     3
 72
    48
 73
    44
 74
     0
 42
0.0000000001
 43
0.0000000001
 12
1.0
 22
0.0
 32
0.0
 13
1.0
 23
0.0
 33
0.0
 40
0.0
 40
0.0
 40
0.0
 40
0.0
 40
0.0833333333333333
 40
0.0833333333333333
 40
0.0833333333333333
 40
0.0833333333333333
 40
0.1666666666666667
 40
0.1666666666666667
 40
0.1666666666666667
 40
0.1666666666666667
 40
0.25
 40
0.25
 40
0.25
 40
0.25
 40
0.3333333333333333
 40
0.3333333333333333
 40
0.3333333333333333
 40
0.3333333333333333
 40
0.4166666666666667
 40
0.4166666666666667
 40
0.4166666666666667
 40
0.4166666666666667
 40
0.5
 40
0.5
 40
0.5
 40
0.5
 40
0.5833333333333334
 40
0.5833333333333334
 40
0.5833333333333334
 40
0.5833333333333334
 40
0.6666666666666666
 40
0.6666666666666666
 40
0.6666666666666666
 40
0.6666666666666666
 40
0.75
 40
0.75
 40
0.75
 40
0.75
 40
0.8333333333333334
 40
0.8333333333333334
 40
0.8333333333333334
 40
0.8333333333333334
 40
1.0
 40
1.0
 40
1.0
 40
1.0
 10
7258.0037
 20
-7210.9733
 30
0.0
 10
7258.0037
 20
-7210.9733
 30
0.0
 10
7258.0037
 20
-7201.6843
 30
0.0
 10
7258.0037
 20
-7201.6843
 30
0.0
 10
7258.0037
 20
-7201.6843
 30
0.0
 10
7258.0037
 20
-7201.6843
 30
0.0
 10
7239.9421
 20
-7191.3808
 30
0.0
 10
7239.9421
 20
-7191.3808
 30
0.0
 10
7239.9421
 20
-7191.3808
 30
0.0
 10
7239.9421
 20
-7191.3808
 30
0.0
 10
7247.6529
 20
-7155.7124
 30
0.0
 10
7247.6529
 20
-7155.7124
 30
0.0
 10
7247.6529
 20
-7155.7124
 30
0.0
 10
7247.6529
 20
-7155.7124
 30
0.0
 10
7220.3854
 20
-7180.1745
 30
0.0
 10
7220.3854
 20
-7180.1745
 30
0.0
 10
7220.3854
 20
-7180.1745
 30
0.0
 10
7220.3854
 20
-7180.1745
 30
0.0
 10
7188.589
 20
-7161.8738
 30
0.0
 10
7188.589
 20
-7161.8738
 30
0.0
 10
7188.589
 20
-7161.8738
 30
0.0
 10
7188.589
 20
-7161.8738
 30
0.0
 10
7203.6035
 20
-7195.1711
 30
0.0
 10
7203.6035
 20
-7195.1711
 30
0.0
 10
7203.6035
 20
-7195.1711
 30
0.0
 10
7203.6035
 20
-7195.1711
 30
0.0
 10
7176.2411
 20
-7219.5287
 30
0.0
 10
7176.2411
 20
-7219.5287
 30
0.0
 10
7176.2411
 20
-7219.5287
 30
0.0
 10
7176.2411
 20
-7219.5287
 30
0.0
 10
7212.7884
 20
-7215.6459
 30
0.0
 10
7212.7884
 20
-7215.6459
 30
0.0
 10
7212.7884
 20
-7215.6459
 30
0.0
 10
7212.7884
 20
-7215.6459
 30
0.0
 10
7227.674
 20
-7249.0001
 30
0.0
 10
7227.674
 20
-7249.0001
 30
0.0
 10
7227.674
 20
-7249.0001
 30
0.0
 10
7227.674
 20
-7249.0001
 30
0.0
 10
7235.2468
 20
-7213.3032
 30
0.0
 10
7235.2468
 20
-7213.3032
 30
0.0
 10
7235.2468
 20
-7213.3032
 30
0.0
 10
7235.2468
 20
-7213.3032
 30
0.0
 10
7258.0037
 20
-7210.9733
 30
0.0
 10
7258.0037
 20
-7210.9733
 30
0.0
  0
SPLINE
  5
7A
330
1F
100
AcDbEntity
  8
Layer 1
 62
   250
370
    20
100
AcDbSpline
210
0.0
220
0.0
230
1.0
 70
    11
 71
     3
 72
    28
 73
    24
 74
     0
 42
0.0000000001
 43
0.0000000001
 12
1.0
 22
0.0
 32
0.0
 13
1.0
 23
0.0
 33
0.0
 40
0.0
 40
0.0
 40
0.0
 40
0.0
 40
0.1428571428571428
 40
0.1428571428571428
 40
0.1428571428571428
 40
0.1428571428571428
 40
0.2857142857142857
 40
0.2857142857142857
 40
0.2857142857142857
 40
0.2857142857142857
 40
0.4285714285714285
 40
0.4285714285714285
 40
0.4285714285714285
 40
0.4285714285714285
 40
0.5714285714285714
 40
0.5714285714285714
 40
0.5714285714285714
 40
0.5714285714285714
 40
0.7142857142857143
 40
0.7142857142857143
 40
0.7142857142857143
 40
0.7142857142857143
 40
1.0
 40
1.0
 40
1.0
 40
1.0
 10
7194.7243
 20
-7103.2946
 30
0.0
 10
7194.7243
 20
-7103.2946
 30
0.0
 10
7158.8583
 20
-7110.9064
 30
0.0
 10
7158.8583
 20
-7110.9064
 30
0.0
 10
7158.8583
 20
-7110.9064
 30
0.0
 10
7158.8583
 20
-7110.9064
 30
0.0
 10
7140.5831
 20
-7079.3504
 30
0.0
 10
7140.5831
 20
-7079.3504
 30
0.0
 10
7140.5831
 20
-7079.3504
 30
0.0
 10
7140.5831
 20
-7079.3504
 30
0.0
 10
7130.1499
 20
-7140.2964
 30
0.0
 10
7130.1499
 20
-7140.2964
 30
0.0
 10
7130.1499
 20
-7140.2964
 30
0.0
 10
7130.1499
 20
-7140.2964
 30
0.0
 10
7188.547
 20
-7161.8017
 30
0.0
 10
7188.547
 20
-7161.8017
 30
0.0
 10
7188.547
 20
-7161.8017
 30
0.0
 10
7188.547
 20
-7161.8017
 30
0.0
 10
7170.1494
 20
-7130.3161
 30
0.0
 10
7170.1494
 20
-7130.3161
 30
0.0
 10
7170.1494
 20
-7130.3161
 30
0.0
 10
7170.1494
 20
-7130.3161
 30
0.0
 10
7194.7243
 20
-7103.2946
 30
0.0
 10
7194.7243
 20
-7103.2946
 30
0.0
  0
SPLINE
  5
7B
330
1F
100
AcDbEntity
  8
Layer 1
 62
   250
370
    20
100
AcDbSpline
210
0.0
220
0.0
230
1.0
 70
    11
 71
     3
 72
    20
 73
    16
 74
     0
 42
0.0000000001
 43
0.0000000001
 12
1.0
 22
0.0
 32
0.0
 13
1.0
 23
0.0
 33
0.0
 40
0.0
 40
0.0
 40
0.0
 40
0.0
 40
0.2
 40
0.2
 40
0.2
 40
0.2
 40
0.4
 40
0.4
 40
0.4
 40
0.4
 40
0.6
 40
0.6
 40
0.6
 40
0.6
 40
1.0
 40
1.0
 40
1.0
 40
1.0
 10
7258.0037
 20
-7089.7173
 30
0.0
 10
7258.0037
 20
-7089.7173
 30
0.0
 10
7258.0037
 20
-7058.0617
 30
0.0
 10
7258.0037
 20
-7058.0617
 30
0.0
 10
7258.0037
 20
-7058.0617
 30
0.0
 10
7258.0037
 20
-7058.0617
 30
0.0
 10
7240.9914
 20
-7052.6481
 30
0.0
 10
7240.9914
 20
-7052.6481
 30
0.0
 10
7240.9914
 20
-7052.6481
 30
0.0
 10
7240.9914
 20
-7052.6481
 30
0.0
 10
7194.7964
 20
-7103.2533
 30
0.0
 10
7194.7964
 20
-7103.2533
 30
0.0
 10
7194.7964
 20
-7103.2533
 30
0.0
 10
7194.7964
 20
-7103.2533
 30
0.0
 10
7258.0037
 20
-7089.7173
 30
0.0
 10
7258.0037
 20
-7089.7173
 30
0.0
  0
SPLINE
  5
7C
330
1F
100
AcDbEntity
  8
Layer 1
 62
   250
370
    20
100
AcDbSpline
210
0.0
220
0.0
230
1.0
 70
    11
 71
     3
 72
    28
 73
    24
 74
     0
 42
0.0000000001
 43
0.0000000001
 12
1.0
 22
0.0
 32
0.0
 13
1.0
 23
0.0
 33
0.0
 40
0.0
 40
0.0
 40
0.0
 40
0.0
 40
0.1428571428571428
 40
0.1428571428571428
 40
0.1428571428571428
 40
0.1428571428571428
 40
0.2857142857142857
 40
0.2857142857142857
 40
0.2857142857142857
 40
0.2857142857142857
 40
0.4285714285714285
 40
0.4285714285714285
 40
0.4285714285714285
 40
0.4285714285714285
 40
0.5714285714285714
 40
0.5714285714285714
 40
0.5714285714285714
 40
0.5714285714285714
 40
0.7142857142857143
 40
0.7142857142857143
 40
0.7142857142857143
 40
0.7142857142857143
 40
1.0
 40
1.0
 40
1.0
 40
1.0
 10
7194.7242
 20
-6959.8905
 30
0.0
 10
7194.7242
 20
-6959.8905
 30
0.0
 10
7170.1494
 20
-6932.8692
 30
0.0
 10
7170.1494
 20
-6932.8692
 30
0.0
 10
7170.1494
 20
-6932.8692
 30
0.0
 10
7170.1494
 20
-6932.8692
 30
0.0
 10
7188.5468
 20
-6901.3833
 30
0.0
 10
7188.5468
 20
-6901.3833
 30
0.0
 10
7188.5468
 20
-6901.3833
 30
0.0
 10
7188.5468
 20
-6901.3833
 30
0.0
 10
7130.1499
 20
-6922.8886
 30
0.0
 10
7130.1499
 20
-6922.8886
 30
0.0
 10
7130.1499
 20
-6922.8886
 30
0.0
 10
7130.1499
 20
-6922.8886
 30
0.0
 10
7140.5831
 20
-6983.8346
 30
0.0
 10
7140.5831
 20
-6983.8346
 30
0.0
 10
7140.5831
 20
-6983.8346
 30
0.0
 10
7140.5831
 20
-6983.8346
 30
0.0
 10
7158.8581
 20
-6952.2785
 30
0.0
 10
7158.8581
 20
-6952.2785
 30
0.0
 10
7158.8581
 20
-6952.2785
 30
0.0
 10
7158.8581
 20
-6952.2785
 30
0.0
 10
7194.7242
 20
-6959.8905
 30
0.0
 10
7194.7242
 20
-6959.8905
 30
0.0
  0
SPLINE
  5
7D
330
1F
100
AcDbEntity
  8
Layer 1
 62
   250
370
    20
100
AcDbSpline
210
0.0
220
0.0
230
1.0
 70
    11
 71
     3
 72
    20
 73
    16
 74
     0
 42
0.0000000001
 43
0.0000000001
 12
1.0
 22
0.0
 32
0.0
 13
1.0
 23
0.0
 33
0.0
 40
0.0
 40
0.0
 40
0.0
 40
0.0
 40
0.2
 40
0.2
 40
0.2
 40
0.2
 40
0.4
 40
0.4
 40
0.4
 40
0.4
 40
0.6
 40
0.6
 40
0.6
 40
0.6
 40
1.0
 40
1.0
 40
1.0
 40
1.0
 10
7258.0037
 20
-7005.1234
 30
0.0
 10
7258.0037
 20
-7005.1234
 30
0.0
 10
7258.0037
 20
-6973.4679
 30
0.0
 10
7258.0037
 20
-6973.4679
 30
0.0
 10
7258.0037
 20
-6973.4679
 30
0.0
 10
7258.0037
 20
-6973.4679
 30
0.0
 10
7194.7964
 20
-6959.9317
 30
0.0
 10
7194.7964
 20
-6959.9317
 30
0.0
 10
7194.7964
 20
-6959.9317
 30
0.0
 10
7194.7964
 20
-6959.9317
 30
0.0
 10
7240.9915
 20
-7010.537
 30
0.0
 10
7240.9915
 20
-7010.537
 30
0.0
 10
7240.9915
 20
-7010.537
 30
0.0
 10
7240.9915
 20
-7010.537
 30
0.0
 10
7258.0037
 20
-7005.1234
 30
0.0
 10
7258.0037
 20
-7005.1234
 30
0.0
  0
SPLINE
  5
7E
330
1F
100
AcDbEntity
  8
Layer 1
 62
   250
370
    20
100
AcDbSpline
210
0.0
220
0.0
230
1.0
 70
    11
 71
     3
 72
    16
 73
    12
 74
     0
 42
0.0000000001
 43
0.0000000001
 12
1.0
 22
0.0
 32
0.0
 13
1.0
 23
0.0
 33
0.0
 40
0.0
 40
0.0
 40
0.0
 40
0.0
 40
0.25
 40
0.25
 40
0.25
 40
0.25
 40
0.5
 40
0.5
 40
0.5
 40
0.5
 40
1.0
 40
1.0
 40
1.0
 40
1.0
 10
7258.0037
 20
-6520.0875
 30
0.0
 10
7258.0037
 20
-6520.0875
 30
0.0
 10
7258.0037
 20
-6481.6965
 30
0.0
 10
7258.0037
 20
-6481.6965
 30
0.0
 10
7258.0037
 20
-6481.6965
 30
0.0
 10
7258.0037
 20
-6481.6965
 30
0.0
 10
7247.7068
 20
-6472.4591
 30
0.0
 10
7247.7068
 20
-6472.4591
 30
0.0
 10
7247.7068
 20
-6472.4591
 30
0.0
 10
7247.7068
 20
-6472.4591
 30
0.0
 10
7258.0037
 20
-6520.0875
 30
0.0
 10
7258.0037
 20
-6520.0875
 30
0.0
  0
SPLINE
  5
7F
330
1F
100
AcDbEntity
  8
Layer 1
 62
   250
370
    20
100
AcDbSpline
210
0.0
220
0.0
230
1.0
 70
    11
 71
     3
 72
    48
 73
    44
 74
     0
 42
0.0000000001
 43
0.0000000001
 12
1.0
 22
0.0
 32
0.0
 13
1.0
 23
0.0
 33
0.0
 40
0.0
 40
0.0
 40
0.0
 40
0.0
 40
0.0833333333333333
 40
0.0833333333333333
 40
0.0833333333333333
 40
0.0833333333333333
 40
0.1666666666666667
 40
0.1666666666666667
 40
0.1666666666666667
 40
0.1666666666666667
 40
0.25
 40
0.25
 40
0.25
 40
0.25
 40
0.3333333333333333
 40
0.3333333333333333
 40
0.3333333333333333
 40
0.3333333333333333
 40
0.4166666666666667
 40
0.4166666666666667
 40
0.4166666666666667
 40
0.4166666666666667
 40
0.5
 40
0.5
 40
0.5
 40
0.5
 40
0.5833333333333334
 40
0.5833333333333334
 40
0.5833333333333334
 40
0.5833333333333334
 40
0.6666666666666666
 40
0.6666666666666666
 40
0.6666666666666666
 40
0.6666666666666666
 40
0.75
 40
0.75
 40
0.75
 40
0.75
 40
0.8333333333333334
 40
0.8333333333333334
 40
0.8333333333333334
 40
0.8333333333333334
 40
1.0
 40
1.0
 40
1.0
 40
1.0
 10
7258.0037
 20
-6426.518
 30
0.0
 10
7258.0037
 20
-6426.518
 30
0.0
 10
7258.0037
 20
-6417.193
 30
0.0
 10
7258.0037
 20
-6417.193
 30
0.0
 10
7258.0037
 20
-6417.193
 30
0.0
 10
7258.0037
 20
-6417.193
 30
0.0
 10
7235.3006
 20
-6414.8685
 30
0.0
 10
7235.3006
 20
-6414.8685
 30
0.0
 10
7235.3006
 20
-6414.8685
 30
0.0
 10
7235.3006
 20
-6414.8685
 30
0.0
 10
7227.7274
 20
-6379.1713
 30
0.0
 10
7227.7274
 20
-6379.1713
 30
0.0
 10
7227.7274
 20
-6379.1713
 30
0.0
 10
7227.7274
 20
-6379.1713
 30
0.0
 10
7212.842
 20
-6412.5256
 30
0.0
 10
7212.842
 20
-6412.5256
 30
0.0
 10
7212.842
 20
-6412.5256
 30
0.0
 10
7212.842
 20
-6412.5256
 30
0.0
 10
7176.2948
 20
-6408.6428
 30
0.0
 10
7176.2948
 20
-6408.6428
 30
0.0
 10
7176.2948
 20
-6408.6428
 30
0.0
 10
7176.2948
 20
-6408.6428
 30
0.0
 10
7203.657
 20
-6433.0004
 30
0.0
 10
7203.657
 20
-6433.0004
 30
0.0
 10
7203.657
 20
-6433.0004
 30
0.0
 10
7203.657
 20
-6433.0004
 30
0.0
 10
7188.6424
 20
-6466.2979
 30
0.0
 10
7188.6424
 20
-6466.2979
 30
0.0
 10
7188.6424
 20
-6466.2979
 30
0.0
 10
7188.6424
 20
-6466.2979
 30
0.0
 10
7220.4387
 20
-6447.9972
 30
0.0
 10
7220.4387
 20
-6447.9972
 30
0.0
 10
7220.4387
 20
-6447.9972
 30
0.0
 10
7220.4387
 20
-6447.9972
 30
0.0
 10
7247.7066
 20
-6472.4589
 30
0.0
 10
7247.7066
 20
-6472.4589
 30
0.0
 10
7247.7066
 20
-6472.4589
 30
0.0
 10
7247.7066
 20
-6472.4589
 30
0.0
 10
7239.9955
 20
-6436.791
 30
0.0
 10
7239.9955
 20
-6436.791
 30
0.0
 10
7239.9955
 20
-6436.791
 30
0.0
 10
7239.9955
 20
-6436.791
 30
0.0
 10
7258.0037
 20
-6426.518
 30
0.0
 10
7258.0037
 20
-6426.518
 30
0.0
  0
SPLINE
  5
80
330
1F
100
AcDbEntity
  8
Layer 1
 62
   250
370
    20
100
AcDbSpline
210
0.0
220
0.0
230
1.0
 70
    11
 71
     3
 72
    24
 73
    20
 74
     0
 42
0.0000000001
 43
0.0000000001
 12
1.0
 22
0.0
 32
0.0
 13
1.0
 23
0.0
 33
0.0
 40
0.0
 40
0.0
 40
0.0
 40
0.0
 40
0.1666666666666667
 40
0.1666666666666667
 40
0.1666666666666667
 40
0.1666666666666667
 40
0.3333333333333333
 40
0.3333333333333333
 40
0.3333333333333333
 40
0.3333333333333333
 40
0.5
 40
0.5
 40
0.5
 40
0.5
 40
0.6666666666666666
 40
0.6666666666666666
 40
0.6666666666666666
 40
0.6666666666666666
 40
1.0
 40
1.0
 40
1.0
 40
1.0
 10
7258.0037
 20
-6598.8972
 30
0.0
 10
7258.0037
 20
-6598.8972
 30
0.0
 10
7258.0037
 20
-6594.2614
 30
0.0
 10
7258.0037
 20
-6594.2614
 30
0.0
 10
7258.0037
 20
-6594.2614
 30
0.0
 10
7258.0037
 20
-6594.2614
 30
0.0
 10
7241.0034
 20
-6575.5952
 30
0.0
 10
7241.0034
 20
-6575.5952
 30
0.0
 10
7241.0034
 20
-6575.5952
 30
0.0
 10
7241.0034
 20
-6575.5952
 30
0.0
 10
7175.5031
 20
-6596.5792
 30
0.0
 10
7175.5031
 20
-6596.5792
 30
0.0
 10
7175.5031
 20
-6596.5792
 30
0.0
 10
7175.5031
 20
-6596.5792
 30
0.0
 10
7241.0036
 20
-6617.5632
 30
0.0
 10
7241.0036
 20
-6617.5632
 30
0.0
 10
7241.0036
 20
-6617.5632
 30
0.0
 10
7241.0036
 20
-6617.5632
 30
0.0
 10
7258.0037
 20
-6598.8972
 30
0.0
 10
7258.0037
 20
-6598.8972
 30
0.0
  0
SPLINE
  5
81
330
1F
100
AcDbEntity
  8
Layer 1
 62
   250
370
    20
100
AcDbSpline
210
0.0
220
0.0
230
1.0
 70
    11
 71
     3
 72
    44
 73
    40
 74
     0
 42
0.0000000001
 43
0.0000000001
 12
1.0
 22
0.0
 32
0.0
 13
1.0
 23
0.0
 33
0.0
 40
0.0
 40
0.0
 40
0.0
 40
0.0
 40
0.0909090909090909
 40
0.0909090909090909
 40
0.0909090909090909
 40
0.0909090909090909
 40
0.1818181818181818
 40
0.1818181818181818
 40
0.1818181818181818
 40
0.1818181818181818
 40
0.2727272727272727
 40
0.2727272727272727
 40
0.2727272727272727
 40
0.2727272727272727
 40
0.3636363636363636
 40
0.3636363636363636
 40
0.3636363636363636
 40
0.3636363636363636
 40
0.4545454545454545
 40
0.4545454545454545
 40
0.4545454545454545
 40
0.4545454545454545
 40
0.5454545454545454
 40
0.5454545454545454
 40
0.5454545454545454
 40
0.5454545454545454
 40
0.6363636363636364
 40
0.6363636363636364
 40
0.6363636363636364
 40
0.6363636363636364
 40
0.7272727272727273
 40
0.7272727272727273
 40
0.7272727272727273
 40
0.7272727272727273
 40
0.8181818181818182
 40
0.8181818181818182
 40
0.8181818181818182
 40
0.8181818181818182
 40
1.0
 40
1.0
 40
1.0
 40
1.0
 10
7175.5029
 20
-6596.5791
 30
0.0
 10
7175.5029
 20
-6596.5791
 30
0.0
 10
7140.524
 20
-6585.3727
 30
0.0
 10
7140.524
 20
-6585.3727
 30
0.0
 10
7140.524
 20
-6585.3727
 30
0.0
 10
7140.524
 20
-6585.3727
 30
0.0
 10
7140.5947
 20
-6548.8931
 30
0.0
 10
7140.5947
 20
-6548.8931
 30
0.0
 10
7140.5947
 20
-6548.8931
 30
0.0
 10
7140.5947
 20
-6548.8931
 30
0.0
 10
7119.0472
 20
-6578.4471
 30
0.0
 10
7119.0472
 20
-6578.4471
 30
0.0
 10
7119.0472
 20
-6578.4471
 30
0.0
 10
7119.0472
 20
-6578.4471
 30
0.0
 10
7084.1119
 20
-6567.1075
 30
0.0
 10
7084.1119
 20
-6567.1075
 30
0.0
 10
7084.1119
 20
-6567.1075
 30
0.0
 10
7084.1119
 20
-6567.1075
 30
0.0
 10
7105.7736
 20
-6596.5791
 30
0.0
 10
7105.7736
 20
-6596.5791
 30
0.0
 10
7105.7736
 20
-6596.5791
 30
0.0
 10
7105.7736
 20
-6596.5791
 30
0.0
 10
7084.1119
 20
-6626.0506
 30
0.0
 10
7084.1119
 20
-6626.0506
 30
0.0
 10
7084.1119
 20
-6626.0506
 30
0.0
 10
7084.1119
 20
-6626.0506
 30
0.0
 10
7119.0472
 20
-6614.7111
 30
0.0
 10
7119.0472
 20
-6614.7111
 30
0.0
 10
7119.0472
 20
-6614.7111
 30
0.0
 10
7119.0472
 20
-6614.7111
 30
0.0
 10
7140.5947
 20
-6644.265
 30
0.0
 10
7140.5947
 20
-6644.265
 30
0.0
 10
7140.5947
 20
-6644.265
 30
0.0
 10
7140.5947
 20
-6644.265
 30
0.0
 10
7140.5241
 20
-6607.7852
 30
0.0
 10
7140.5241
 20
-6607.7852
 30
0.0
 10
7140.5241
 20
-6607.7852
 30
0.0
 10
7140.5241
 20
-6607.7852
 30
0.0
 10
7175.5029
 20
-6596.5791
 30
0.0
 10
7175.5029
 20
-6596.5791
 30
0.0
  0
SPLINE
  5
82
330
1F
100
AcDbEntity
  8
Layer 1
 62
   250
370
    20
100
AcDbSpline
210
0.0
220
0.0
230
1.0
 70
    11
 71
     3
 72
    16
 73
    12
 74
     0
 42
0.0000000001
 43
0.0000000001
 12
1.0
 22
0.0
 32
0.0
 13
1.0
 23
0.0
 33
0.0
 40
0.0
 40
0.0
 40
0.0
 40
0.0
 40
0.25
 40
0.25
 40
0.25
 40
0.25
 40
0.5
 40
0.5
 40
0.5
 40
0.5
 40
1.0
 40
1.0
 40
1.0
 40
1.0
 10
7258.0037
 20
-6711.4618
 30
0.0
 10
7258.0037
 20
-6711.4618
 30
0.0
 10
7258.0037
 20
-6673.0707
 30
0.0
 10
7258.0037
 20
-6673.0707
 30
0.0
 10
7258.0037
 20
-6673.0707
 30
0.0
 10
7258.0037
 20
-6673.0707
 30
0.0
 10
7247.7068
 20
-6720.6992
 30
0.0
 10
7247.7068
 20
-6720.6992
 30
0.0
 10
7247.7068
 20
-6720.6992
 30
0.0
 10
7247.7068
 20
-6720.6992
 30
0.0
 10
7258.0037
 20
-6711.4618
 30
0.0
 10
7258.0037
 20
-6711.4618
 30
0.0
  0
SPLINE
  5
83
330
1F
100
AcDbEntity
  8
Layer 1
 62
   250
370
    20
100
AcDbSpline
210
0.0
220
0.0
230
1.0
 70
    11
 71
     3
 72
    48
 73
    44
 74
     0
 42
0.0000000001
 43
0.0000000001
 12
1.0
 22
0.0
 32
0.0
 13
1.0
 23
0.0
 33
0.0
 40
0.0
 40
0.0
 40
0.0
 40
0.0
 40
0.0833333333333333
 40
0.0833333333333333
 40
0.0833333333333333
 40
0.0833333333333333
 40
0.1666666666666667
 40
0.1666666666666667
 40
0.1666666666666667
 40
0.1666666666666667
 40
0.25
 40
0.25
 40
0.25
 40
0.25
 40
0.3333333333333333
 40
0.3333333333333333
 40
0.3333333333333333
 40
0.3333333333333333
 40
0.4166666666666667
 40
0.4166666666666667
 40
0.4166666666666667
 40
0.4166666666666667
 40
0.5
 40
0.5
 40
0.5
 40
0.5
 40
0.5833333333333334
 40
0.5833333333333334
 40
0.5833333333333334
 40
0.5833333333333334
 40
0.6666666666666666
 40
0.6666666666666666
 40
0.6666666666666666
 40
0.6666666666666666
 40
0.75
 40
0.75
 40
0.75
 40
0.75
 40
0.8333333333333334
 40
0.8333333333333334
 40
0.8333333333333334
 40
0.8333333333333334
 40
1.0
 40
1.0
 40
1.0
 40
1.0
 10
7258.0037
 20
-6775.9653
 30
0.0
 10
7258.0037
 20
-6775.9653
 30
0.0
 10
7258.0037
 20
-6766.6403
 30
0.0
 10
7258.0037
 20
-6766.6403
 30
0.0
 10
7258.0037
 20
-6766.6403
 30
0.0
 10
7258.0037
 20
-6766.6403
 30
0.0
 10
7239.9955
 20
-6756.3672
 30
0.0
 10
7239.9955
 20
-6756.3672
 30
0.0
 10
7239.9955
 20
-6756.3672
 30
0.0
 10
7239.9955
 20
-6756.3672
 30
0.0
 10
7247.7066
 20
-6720.6992
 30
0.0
 10
7247.7066
 20
-6720.6992
 30
0.0
 10
7247.7066
 20
-6720.6992
 30
0.0
 10
7247.7066
 20
-6720.6992
 30
0.0
 10
7220.4391
 20
-6745.161
 30
0.0
 10
7220.4391
 20
-6745.161
 30
0.0
 10
7220.4391
 20
-6745.161
 30
0.0
 10
7220.4391
 20
-6745.161
 30
0.0
 10
7188.6424
 20
-6726.8603
 30
0.0
 10
7188.6424
 20
-6726.8603
 30
0.0
 10
7188.6424
 20
-6726.8603
 30
0.0
 10
7188.6424
 20
-6726.8603
 30
0.0
 10
7203.657
 20
-6760.158
 30
0.0
 10
7203.657
 20
-6760.158
 30
0.0
 10
7203.657
 20
-6760.158
 30
0.0
 10
7203.657
 20
-6760.158
 30
0.0
 10
7176.2948
 20
-6784.5154
 30
0.0
 10
7176.2948
 20
-6784.5154
 30
0.0
 10
7176.2948
 20
-6784.5154
 30
0.0
 10
7176.2948
 20
-6784.5154
 30
0.0
 10
7212.842
 20
-6780.6324
 30
0.0
 10
7212.842
 20
-6780.6324
 30
0.0
 10
7212.842
 20
-6780.6324
 30
0.0
 10
7212.842
 20
-6780.6324
 30
0.0
 10
7227.7277
 20
-6813.9869
 30
0.0
 10
7227.7277
 20
-6813.9869
 30
0.0
 10
7227.7277
 20
-6813.9869
 30
0.0
 10
7227.7277
 20
-6813.9869
 30
0.0
 10
7235.3005
 20
-6778.2895
 30
0.0
 10
7235.3005
 20
-6778.2895
 30
0.0
 10
7235.3005
 20
-6778.2895
 30
0.0
 10
7235.3005
 20
-6778.2895
 30
0.0
 10
7258.0037
 20
-6775.9653
 30
0.0
 10
7258.0037
 20
-6775.9653
 30
0.0
  0
SPLINE
  5
84
330
1F
100
AcDbEntity
  8
Layer 1
 62
   250
370
    20
100
AcDbSpline
210
0.0
220
0.0
230
1.0
 70
    11
 71
     3
 72
    28
 73
    24
 74
     0
 42
0.0000000001
 43
0.0000000001
 12
1.0
 22
0.0
 32
0.0
 13
1.0
 23
0.0
 33
0.0
 40
0.0
 40
0.0
 40
0.0
 40
0.0
 40
0.1428571428571428
 40
0.1428571428571428
 40
0.1428571428571428
 40
0.1428571428571428
 40
0.2857142857142857
 40
0.2857142857142857
 40
0.2857142857142857
 40
0.2857142857142857
 40
0.4285714285714285
 40
0.4285714285714285
 40
0.4285714285714285
 40
0.4285714285714285
 40
0.5714285714285714
 40
0.5714285714285714
 40
0.5714285714285714
 40
0.5714285714285714
 40
0.7142857142857143
 40
0.7142857142857143
 40
0.7142857142857143
 40
0.7142857142857143
 40
1.0
 40
1.0
 40
1.0
 40
1.0
 10
7194.7778
 20
-6668.2811
 30
0.0
 10
7194.7778
 20
-6668.2811
 30
0.0
 10
7158.912
 20
-6675.8929
 30
0.0
 10
7158.912
 20
-6675.8929
 30
0.0
 10
7158.912
 20
-6675.8929
 30
0.0
 10
7158.912
 20
-6675.8929
 30
0.0
 10
7140.6365
 20
-6644.3372
 30
0.0
 10
7140.6365
 20
-6644.3372
 30
0.0
 10
7140.6365
 20
-6644.3372
 30
0.0
 10
7140.6365
 20
-6644.3372
 30
0.0
 10
7130.2033
 20
-6705.2829
 30
0.0
 10
7130.2033
 20
-6705.2829
 30
0.0
 10
7130.2033
 20
-6705.2829
 30
0.0
 10
7130.2033
 20
-6705.2829
 30
0.0
 10
7188.6004
 20
-6726.7884
 30
0.0
 10
7188.6004
 20
-6726.7884
 30
0.0
 10
7188.6004
 20
-6726.7884
 30
0.0
 10
7188.6004
 20
-6726.7884
 30
0.0
 10
7170.2029
 20
-6695.3025
 30
0.0
 10
7170.2029
 20
-6695.3025
 30
0.0
 10
7170.2029
 20
-6695.3025
 30
0.0
 10
7170.2029
 20
-6695.3025
 30
0.0
 10
7194.7778
 20
-6668.2811
 30
0.0
 10
7194.7778
 20
-6668.2811
 30
0.0
  0
SPLINE
  5
85
330
1F
100
AcDbEntity
  8
Layer 1
 62
   250
370
    20
100
AcDbSpline
210
0.0
220
0.0
230
1.0
 70
    11
 71
     3
 72
    20
 73
    16
 74
     0
 42
0.0000000001
 43
0.0000000001
 12
1.0
 22
0.0
 32
0.0
 13
1.0
 23
0.0
 33
0.0
 40
0.0
 40
0.0
 40
0.0
 40
0.0
 40
0.2
 40
0.2
 40
0.2
 40
0.2
 40
0.4
 40
0.4
 40
0.4
 40
0.4
 40
0.6
 40
0.6
 40
0.6
 40
0.6
 40
1.0
 40
1.0
 40
1.0
 40
1.0
 10
7258.0037
 20
-6654.7154
 30
0.0
 10
7258.0037
 20
-6654.7154
 30
0.0
 10
7258.0037
 20
-6623.0315
 30
0.0
 10
7258.0037
 20
-6623.0315
 30
0.0
 10
7258.0037
 20
-6623.0315
 30
0.0
 10
7258.0037
 20
-6623.0315
 30
0.0
 10
7241.0449
 20
-6617.6349
 30
0.0
 10
7241.0449
 20
-6617.6349
 30
0.0
 10
7241.0449
 20
-6617.6349
 30
0.0
 10
7241.0449
 20
-6617.6349
 30
0.0
 10
7194.85
 20
-6668.2398
 30
0.0
 10
7194.85
 20
-6668.2398
 30
0.0
 10
7194.85
 20
-6668.2398
 30
0.0
 10
7194.85
 20
-6668.2398
 30
0.0
 10
7258.0037
 20
-6654.7154
 30
0.0
 10
7258.0037
 20
-6654.7154
 30
0.0
  0
SPLINE
  5
86
330
1F
100
AcDbEntity
  8
Layer 1
 62
   250
370
    20
100
AcDbSpline
210
0.0
220
0.0
230
1.0
 70
    11
 71
     3
 72
    28
 73
    24
 74
     0
 42
0.0000000001
 43
0.0000000001
 12
1.0
 22
0.0
 32
0.0
 13
1.0
 23
0.0
 33
0.0
 40
0.0
 40
0.0
 40
0.0
 40
0.0
 40
0.1428571428571428
 40
0.1428571428571428
 40
0.1428571428571428
 40
0.1428571428571428
 40
0.2857142857142857
 40
0.2857142857142857
 40
0.2857142857142857
 40
0.2857142857142857
 40
0.4285714285714285
 40
0.4285714285714285
 40
0.4285714285714285
 40
0.4285714285714285
 40
0.5714285714285714
 40
0.5714285714285714
 40
0.5714285714285714
 40
0.5714285714285714
 40
0.7142857142857143
 40
0.7142857142857143
 40
0.7142857142857143
 40
0.7142857142857143
 40
1.0
 40
1.0
 40
1.0
 40
1.0
 10
7194.7778
 20
-6524.8771
 30
0.0
 10
7194.7778
 20
-6524.8771
 30
0.0
 10
7170.2029
 20
-6497.8556
 30
0.0
 10
7170.2029
 20
-6497.8556
 30
0.0
 10
7170.2029
 20
-6497.8556
 30
0.0
 10
7170.2029
 20
-6497.8556
 30
0.0
 10
7188.6004
 20
-6466.3699
 30
0.0
 10
7188.6004
 20
-6466.3699
 30
0.0
 10
7188.6004
 20
-6466.3699
 30
0.0
 10
7188.6004
 20
-6466.3699
 30
0.0
 10
7130.2033
 20
-6487.8754
 30
0.0
 10
7130.2033
 20
-6487.8754
 30
0.0
 10
7130.2033
 20
-6487.8754
 30
0.0
 10
7130.2033
 20
-6487.8754
 30
0.0
 10
7140.6365
 20
-6548.8209
 30
0.0
 10
7140.6365
 20
-6548.8209
 30
0.0
 10
7140.6365
 20
-6548.8209
 30
0.0
 10
7140.6365
 20
-6548.8209
 30
0.0
 10
7158.9115
 20
-6517.2653
 30
0.0
 10
7158.9115
 20
-6517.2653
 30
0.0
 10
7158.9115
 20
-6517.2653
 30
0.0
 10
7158.9115
 20
-6517.2653
 30
0.0
 10
7194.7778
 20
-6524.8771
 30
0.0
 10
7194.7778
 20
-6524.8771
 30
0.0
  0
SPLINE
  5
87
330
1F
100
AcDbEntity
  8
Layer 1
 62
   250
370
    20
100
AcDbSpline
210
0.0
220
0.0
230
1.0
 70
    11
 71
     3
 72
    20
 73
    16
 74
     0
 42
0.0000000001
 43
0.0000000001
 12
1.0
 22
0.0
 32
0.0
 13
1.0
 23
0.0
 33
0.0
 40
0.0
 40
0.0
 40
0.0
 40
0.0
 40
0.2
 40
0.2
 40
0.2
 40
0.2
 40
0.4
 40
0.4
 40
0.4
 40
0.4
 40
0.6
 40
0.6
 40
0.6
 40
0.6
 40
1.0
 40
1.0
 40
1.0
 40
1.0
 10
7258.0037
 20
-6570.127
 30
0.0
 10
7258.0037
 20
-6570.127
 30
0.0
 10
7258.0037
 20
-6538.443
 30
0.0
 10
7258.0037
 20
-6538.443
 30
0.0
 10
7258.0037
 20
-6538.443
 30
0.0
 10
7258.0037
 20
-6538.443
 30
0.0
 10
7194.85
 20
-6524.9184
 30
0.0
 10
7194.85
 20
-6524.9184
 30
0.0
 10
7194.85
 20
-6524.9184
 30
0.0
 10
7194.85
 20
-6524.9184
 30
0.0
 10
7241.0451
 20
-6575.5236
 30
0.0
 10
7241.0451
 20
-6575.5236
 30
0.0
 10
7241.0451
 20
-6575.5236
 30
0.0
 10
7241.0451
 20
-6575.5236
 30
0.0
 10
7258.0037
 20
-6570.127
 30
0.0
 10
7258.0037
 20
-6570.127
 30
0.0
  0
SPLINE
  5
88
330
1F
100
AcDbEntity
  8
Layer 1
 62
   250
370
    20
100
AcDbSpline
210
0.0
220
0.0
230
1.0
 70
    11
 71
     3
 72
    20
 73
    16
 74
     0
 42
0.0000000001
 43
0.0000000001
 12
1.0
 22
0.0
 32
0.0
 13
1.0
 23
0.0
 33
0.0
 40
0.0
 40
0.0
 40
0.0
 40
0.0
 40
0.2
 40
0.2
 40
0.2
 40
0.2
 40
0.4
 40
0.4
 40
0.4
 40
0.4
 40
0.6
 40
0.6
 40
0.6
 40
0.6
 40
1.0
 40
1.0
 40
1.0
 40
1.0
 10
7012.5735
 20
-6938.1795
 30
0.0
 10
7012.5735
 20
-6938.1795
 30
0.0
 10
6961.5131
 20
-6892.373
 30
0.0
 10
6961.5131
 20
-6892.373
 30
0.0
 10
6961.5131
 20
-6892.373
 30
0.0
 10
6961.5131
 20
-6892.373
 30
0.0
 10
6970.2677
 20
-6865.4546
 30
0.0
 10
6970.2677
 20
-6865.4546
 30
0.0
 10
6970.2677
 20
-6865.4546
 30
0.0
 10
6970.2677
 20
-6865.4546
 30
0.0
 10
6998.1336
 20
-6871.3887
 30
0.0
 10
6998.1336
 20
-6871.3887
 30
0.0
 10
6998.1336
 20
-6871.3887
 30
0.0
 10
6998.1336
 20
-6871.3887
 30
0.0
 10
7012.5735
 20
-6938.1795
 30
0.0
 10
7012.5735
 20
-6938.1795
 30
0.0
  0
SPLINE
  5
89
330
1F
100
AcDbEntity
  8
Layer 1
 62
   250
370
    20
100
AcDbSpline
210
0.0
220
0.0
230
1.0
 70
    11
 71
     3
 72
    44
 73
    40
 74
     0
 42
0.0000000001
 43
0.0000000001
 12
1.0
 22
0.0
 32
0.0
 13
1.0
 23
0.0
 33
0.0
 40
0.0
 40
0.0
 40
0.0
 40
0.0
 40
0.0909090909090909
 40
0.0909090909090909
 40
0.0909090909090909
 40
0.0909090909090909
 40
0.1818181818181818
 40
0.1818181818181818
 40
0.1818181818181818
 40
0.1818181818181818
 40
0.2727272727272727
 40
0.2727272727272727
 40
0.2727272727272727
 40
0.2727272727272727
 40
0.3636363636363636
 40
0.3636363636363636
 40
0.3636363636363636
 40
0.3636363636363636
 40
0.4545454545454545
 40
0.4545454545454545
 40
0.4545454545454545
 40
0.4545454545454545
 40
0.5454545454545454
 40
0.5454545454545454
 40
0.5454545454545454
 40
0.5454545454545454
 40
0.6363636363636364
 40
0.6363636363636364
 40
0.6363636363636364
 40
0.6363636363636364
 40
0.7272727272727273
 40
0.7272727272727273
 40
0.7272727272727273
 40
0.7272727272727273
 40
0.8181818181818182
 40
0.8181818181818182
 40
0.8181818181818182
 40
0.8181818181818182
 40
1.0
 40
1.0
 40
1.0
 40
1.0
 10
7012.5736
 20
-6938.1796
 30
0.0
 10
7012.5736
 20
-6938.1796
 30
0.0
 10
7039.8415
 20
-6962.6412
 30
0.0
 10
7039.8415
 20
-6962.6412
 30
0.0
 10
7039.8415
 20
-6962.6412
 30
0.0
 10
7039.8415
 20
-6962.6412
 30
0.0
 10
7071.6379
 20
-6944.3404
 30
0.0
 10
7071.6379
 20
-6944.3404
 30
0.0
 10
7071.6379
 20
-6944.3404
 30
0.0
 10
7071.6379
 20
-6944.3404
 30
0.0
 10
7056.6231
 20
-6977.6378
 30
0.0
 10
7056.6231
 20
-6977.6378
 30
0.0
 10
7056.6231
 20
-6977.6378
 30
0.0
 10
7056.6231
 20
-6977.6378
 30
0.0
 10
7083.9855
 20
-7001.9953
 30
0.0
 10
7083.9855
 20
-7001.9953
 30
0.0
 10
7083.9855
 20
-7001.9953
 30
0.0
 10
7083.9855
 20
-7001.9953
 30
0.0
 10
7047.4383
 20
-6998.1127
 30
0.0
 10
7047.4383
 20
-6998.1127
 30
0.0
 10
7047.4383
 20
-6998.1127
 30
0.0
 10
7047.4383
 20
-6998.1127
 30
0.0
 10
7032.5525
 20
-7031.4671
 30
0.0
 10
7032.5525
 20
-7031.4671
 30
0.0
 10
7032.5525
 20
-7031.4671
 30
0.0
 10
7032.5525
 20
-7031.4671
 30
0.0
 10
7024.9798
 20
-6995.7698
 30
0.0
 10
7024.9798
 20
-6995.7698
 30
0.0
 10
7024.9798
 20
-6995.7698
 30
0.0
 10
7024.9798
 20
-6995.7698
 30
0.0
 10
6988.4176
 20
-6992.0262
 30
0.0
 10
6988.4176
 20
-6992.0262
 30
0.0
 10
6988.4176
 20
-6992.0262
 30
0.0
 10
6988.4176
 20
-6992.0262
 30
0.0
 10
7020.2848
 20
-6973.8472
 30
0.0
 10
7020.2848
 20
-6973.8472
 30
0.0
 10
7020.2848
 20
-6973.8472
 30
0.0
 10
7020.2848
 20
-6973.8472
 30
0.0
 10
7012.5736
 20
-6938.1796
 30
0.0
 10
7012.5736
 20
-6938.1796
 30
0.0
  0
SPLINE
  5
8A
330
1F
100
AcDbEntity
  8
Layer 1
 62
   250
370
    20
100
AcDbSpline
210
0.0
220
0.0
230
1.0
 70
    11
 71
     3
 72
    20
 73
    16
 74
     0
 42
0.0000000001
 43
0.0000000001
 12
1.0
 22
0.0
 32
0.0
 13
1.0
 23
0.0
 33
0.0
 40
0.0
 40
0.0
 40
0.0
 40
0.0
 40
0.2
 40
0.2
 40
0.2
 40
0.2
 40
0.4
 40
0.4
 40
0.4
 40
0.4
 40
0.6
 40
0.6
 40
0.6
 40
0.6
 40
1.0
 40
1.0
 40
1.0
 40
1.0
 10
6868.1662
 20
-6938.1795
 30
0.0
 10
6868.1662
 20
-6938.1795
 30
0.0
 10
6882.6062
 20
-6871.3886
 30
0.0
 10
6882.6062
 20
-6871.3886
 30
0.0
 10
6882.6062
 20
-6871.3886
 30
0.0
 10
6882.6062
 20
-6871.3886
 30
0.0
 10
6910.472
 20
-6865.4546
 30
0.0
 10
6910.472
 20
-6865.4546
 30
0.0
 10
6910.472
 20
-6865.4546
 30
0.0
 10
6910.472
 20
-6865.4546
 30
0.0
 10
6919.2268
 20
-6892.373
 30
0.0
 10
6919.2268
 20
-6892.373
 30
0.0
 10
6919.2268
 20
-6892.373
 30
0.0
 10
6919.2268
 20
-6892.373
 30
0.0
 10
6868.1662
 20
-6938.1795
 30
0.0
 10
6868.1662
 20
-6938.1795
 30
0.0
  0
SPLINE
  5
8B
330
1F
100
AcDbEntity
  8
Layer 1
 62
   250
370
    20
100
AcDbSpline
210
0.0
220
0.0
230
1.0
 70
    11
 71
     3
 72
    44
 73
    40
 74
     0
 42
0.0000000001
 43
0.0000000001
 12
1.0
 22
0.0
 32
0.0
 13
1.0
 23
0.0
 33
0.0
 40
0.0
 40
0.0
 40
0.0
 40
0.0
 40
0.0909090909090909
 40
0.0909090909090909
 40
0.0909090909090909
 40
0.0909090909090909
 40
0.1818181818181818
 40
0.1818181818181818
 40
0.1818181818181818
 40
0.1818181818181818
 40
0.2727272727272727
 40
0.2727272727272727
 40
0.2727272727272727
 40
0.2727272727272727
 40
0.3636363636363636
 40
0.3636363636363636
 40
0.3636363636363636
 40
0.3636363636363636
 40
0.4545454545454545
 40
0.4545454545454545
 40
0.4545454545454545
 40
0.4545454545454545
 40
0.5454545454545454
 40
0.5454545454545454
 40
0.5454545454545454
 40
0.5454545454545454
 40
0.6363636363636364
 40
0.6363636363636364
 40
0.6363636363636364
 40
0.6363636363636364
 40
0.7272727272727273
 40
0.7272727272727273
 40
0.7272727272727273
 40
0.7272727272727273
 40
0.8181818181818182
 40
0.8181818181818182
 40
0.8181818181818182
 40
0.8181818181818182
 40
1.0
 40
1.0
 40
1.0
 40
1.0
 10
6868.1662
 20
-6938.1796
 30
0.0
 10
6868.1662
 20
-6938.1796
 30
0.0
 10
6860.4551
 20
-6973.8473
 30
0.0
 10
6860.4551
 20
-6973.8473
 30
0.0
 10
6860.4551
 20
-6973.8473
 30
0.0
 10
6860.4551
 20
-6973.8473
 30
0.0
 10
6892.3223
 20
-6992.0262
 30
0.0
 10
6892.3223
 20
-6992.0262
 30
0.0
 10
6892.3223
 20
-6992.0262
 30
0.0
 10
6892.3223
 20
-6992.0262
 30
0.0
 10
6855.7599
 20
-6995.7698
 30
0.0
 10
6855.7599
 20
-6995.7698
 30
0.0
 10
6855.7599
 20
-6995.7698
 30
0.0
 10
6855.7599
 20
-6995.7698
 30
0.0
 10
6848.1873
 20
-7031.4671
 30
0.0
 10
6848.1873
 20
-7031.4671
 30
0.0
 10
6848.1873
 20
-7031.4671
 30
0.0
 10
6848.1873
 20
-7031.4671
 30
0.0
 10
6833.3016
 20
-6998.1126
 30
0.0
 10
6833.3016
 20
-6998.1126
 30
0.0
 10
6833.3016
 20
-6998.1126
 30
0.0
 10
6833.3016
 20
-6998.1126
 30
0.0
 10
6796.7544
 20
-7001.9953
 30
0.0
 10
6796.7544
 20
-7001.9953
 30
0.0
 10
6796.7544
 20
-7001.9953
 30
0.0
 10
6796.7544
 20
-7001.9953
 30
0.0
 10
6824.1166
 20
-6977.6378
 30
0.0
 10
6824.1166
 20
-6977.6378
 30
0.0
 10
6824.1166
 20
-6977.6378
 30
0.0
 10
6824.1166
 20
-6977.6378
 30
0.0
 10
6809.1021
 20
-6944.3404
 30
0.0
 10
6809.1021
 20
-6944.3404
 30
0.0
 10
6809.1021
 20
-6944.3404
 30
0.0
 10
6809.1021
 20
-6944.3404
 30
0.0
 10
6840.8987
 20
-6962.6412
 30
0.0
 10
6840.8987
 20
-6962.6412
 30
0.0
 10
6840.8987
 20
-6962.6412
 30
0.0
 10
6840.8987
 20
-6962.6412
 30
0.0
 10
6868.1662
 20
-6938.1796
 30
0.0
 10
6868.1662
 20
-6938.1796
 30
0.0
  0
SPLINE
  5
8C
330
1F
100
AcDbEntity
  8
Layer 1
 62
   250
370
    20
100
AcDbSpline
210
0.0
220
0.0
230
1.0
 70
    11
 71
     3
 72
    20
 73
    16
 74
     0
 42
0.0000000001
 43
0.0000000001
 12
1.0
 22
0.0
 32
0.0
 13
1.0
 23
0.0
 33
0.0
 40
0.0
 40
0.0
 40
0.0
 40
0.0
 40
0.2
 40
0.2
 40
0.2
 40
0.2
 40
0.4
 40
0.4
 40
0.4
 40
0.4
 40
0.6
 40
0.6
 40
0.6
 40
0.6
 40
1.0
 40
1.0
 40
1.0
 40
1.0
 10
6795.9626
 20
-6814.0592
 30
0.0
 10
6795.9626
 20
-6814.0592
 30
0.0
 10
6861.4631
 20
-6793.0752
 30
0.0
 10
6861.4631
 20
-6793.0752
 30
0.0
 10
6861.4631
 20
-6793.0752
 30
0.0
 10
6861.4631
 20
-6793.0752
 30
0.0
 10
6880.5741
 20
-6814.0591
 30
0.0
 10
6880.5741
 20
-6814.0591
 30
0.0
 10
6880.5741
 20
-6814.0591
 30
0.0
 10
6880.5741
 20
-6814.0591
 30
0.0
 10
6861.4631
 20
-6835.0432
 30
0.0
 10
6861.4631
 20
-6835.0432
 30
0.0
 10
6861.4631
 20
-6835.0432
 30
0.0
 10
6861.4631
 20
-6835.0432
 30
0.0
 10
6795.9626
 20
-6814.0592
 30
0.0
 10
6795.9626
 20
-6814.0592
 30
0.0
  0
SPLINE
  5
8D
330
1F
100
AcDbEntity
  8
Layer 1
 62
   250
370
    20
100
AcDbSpline
210
0.0
220
0.0
230
1.0
 70
    11
 71
     3
 72
    44
 73
    40
 74
     0
 42
0.0000000001
 43
0.0000000001
 12
1.0
 22
0.0
 32
0.0
 13
1.0
 23
0.0
 33
0.0
 40
0.0
 40
0.0
 40
0.0
 40
0.0
 40
0.0909090909090909
 40
0.0909090909090909
 40
0.0909090909090909
 40
0.0909090909090909
 40
0.1818181818181818
 40
0.1818181818181818
 40
0.1818181818181818
 40
0.1818181818181818
 40
0.2727272727272727
 40
0.2727272727272727
 40
0.2727272727272727
 40
0.2727272727272727
 40
0.3636363636363636
 40
0.3636363636363636
 40
0.3636363636363636
 40
0.3636363636363636
 40
0.4545454545454545
 40
0.4545454545454545
 40
0.4545454545454545
 40
0.4545454545454545
 40
0.5454545454545454
 40
0.5454545454545454
 40
0.5454545454545454
 40
0.5454545454545454
 40
0.6363636363636364
 40
0.6363636363636364
 40
0.6363636363636364
 40
0.6363636363636364
 40
0.7272727272727273
 40
0.7272727272727273
 40
0.7272727272727273
 40
0.7272727272727273
 40
0.8181818181818182
 40
0.8181818181818182
 40
0.8181818181818182
 40
0.8181818181818182
 40
1.0
 40
1.0
 40
1.0
 40
1.0
 10
6795.9625
 20
-6814.0592
 30
0.0
 10
6795.9625
 20
-6814.0592
 30
0.0
 10
6760.9839
 20
-6825.2653
 30
0.0
 10
6760.9839
 20
-6825.2653
 30
0.0
 10
6760.9839
 20
-6825.2653
 30
0.0
 10
6760.9839
 20
-6825.2653
 30
0.0
 10
6761.0545
 20
-6861.7451
 30
0.0
 10
6761.0545
 20
-6861.7451
 30
0.0
 10
6761.0545
 20
-6861.7451
 30
0.0
 10
6761.0545
 20
-6861.7451
 30
0.0
 10
6739.5069
 20
-6832.1913
 30
0.0
 10
6739.5069
 20
-6832.1913
 30
0.0
 10
6739.5069
 20
-6832.1913
 30
0.0
 10
6739.5069
 20
-6832.1913
 30
0.0
 10
6704.5718
 20
-6843.5307
 30
0.0
 10
6704.5718
 20
-6843.5307
 30
0.0
 10
6704.5718
 20
-6843.5307
 30
0.0
 10
6704.5718
 20
-6843.5307
 30
0.0
 10
6726.2333
 20
-6814.0591
 30
0.0
 10
6726.2333
 20
-6814.0591
 30
0.0
 10
6726.2333
 20
-6814.0591
 30
0.0
 10
6726.2333
 20
-6814.0591
 30
0.0
 10
6704.5718
 20
-6784.5876
 30
0.0
 10
6704.5718
 20
-6784.5876
 30
0.0
 10
6704.5718
 20
-6784.5876
 30
0.0
 10
6704.5718
 20
-6784.5876
 30
0.0
 10
6739.5069
 20
-6795.9272
 30
0.0
 10
6739.5069
 20
-6795.9272
 30
0.0
 10
6739.5069
 20
-6795.9272
 30
0.0
 10
6739.5069
 20
-6795.9272
 30
0.0
 10
6761.0545
 20
-6766.3733
 30
0.0
 10
6761.0545
 20
-6766.3733
 30
0.0
 10
6761.0545
 20
-6766.3733
 30
0.0
 10
6761.0545
 20
-6766.3733
 30
0.0
 10
6760.9836
 20
-6802.8527
 30
0.0
 10
6760.9836
 20
-6802.8527
 30
0.0
 10
6760.9836
 20
-6802.8527
 30
0.0
 10
6760.9836
 20
-6802.8527
 30
0.0
 10
6795.9625
 20
-6814.0592
 30
0.0
 10
6795.9625
 20
-6814.0592
 30
0.0
  0
SPLINE
  5
8E
330
1F
100
AcDbEntity
  8
Layer 1
 62
   250
370
    20
100
AcDbSpline
210
0.0
220
0.0
230
1.0
 70
    11
 71
     3
 72
    20
 73
    16
 74
     0
 42
0.0000000001
 43
0.0000000001
 12
1.0
 22
0.0
 32
0.0
 13
1.0
 23
0.0
 33
0.0
 40
0.0
 40
0.0
 40
0.0
 40
0.0
 40
0.2
 40
0.2
 40
0.2
 40
0.2
 40
0.4
 40
0.4
 40
0.4
 40
0.4
 40
0.6
 40
0.6
 40
0.6
 40
0.6
 40
1.0
 40
1.0
 40
1.0
 40
1.0
 10
6868.1662
 20
-6689.9394
 30
0.0
 10
6868.1662
 20
-6689.9394
 30
0.0
 10
6919.2269
 20
-6735.7457
 30
0.0
 10
6919.2269
 20
-6735.7457
 30
0.0
 10
6919.2269
 20
-6735.7457
 30
0.0
 10
6919.2269
 20
-6735.7457
 30
0.0
 10
6910.4721
 20
-6762.6638
 30
0.0
 10
6910.4721
 20
-6762.6638
 30
0.0
 10
6910.4721
 20
-6762.6638
 30
0.0
 10
6910.4721
 20
-6762.6638
 30
0.0
 10
6882.6063
 20
-6756.7293
 30
0.0
 10
6882.6063
 20
-6756.7293
 30
0.0
 10
6882.6063
 20
-6756.7293
 30
0.0
 10
6882.6063
 20
-6756.7293
 30
0.0
 10
6868.1662
 20
-6689.9394
 30
0.0
 10
6868.1662
 20
-6689.9394
 30
0.0
  0
SPLINE
  5
8F
330
1F
100
AcDbEntity
  8
Layer 1
 62
   250
370
    20
100
AcDbSpline
210
0.0
220
0.0
230
1.0
 70
    11
 71
     3
 72
    44
 73
    40
 74
     0
 42
0.0000000001
 43
0.0000000001
 12
1.0
 22
0.0
 32
0.0
 13
1.0
 23
0.0
 33
0.0
 40
0.0
 40
0.0
 40
0.0
 40
0.0
 40
0.0909090909090909
 40
0.0909090909090909
 40
0.0909090909090909
 40
0.0909090909090909
 40
0.1818181818181818
 40
0.1818181818181818
 40
0.1818181818181818
 40
0.1818181818181818
 40
0.2727272727272727
 40
0.2727272727272727
 40
0.2727272727272727
 40
0.2727272727272727
 40
0.3636363636363636
 40
0.3636363636363636
 40
0.3636363636363636
 40
0.3636363636363636
 40
0.4545454545454545
 40
0.4545454545454545
 40
0.4545454545454545
 40
0.4545454545454545
 40
0.5454545454545454
 40
0.5454545454545454
 40
0.5454545454545454
 40
0.5454545454545454
 40
0.6363636363636364
 40
0.6363636363636364
 40
0.6363636363636364
 40
0.6363636363636364
 40
0.7272727272727273
 40
0.7272727272727273
 40
0.7272727272727273
 40
0.7272727272727273
 40
0.8181818181818182
 40
0.8181818181818182
 40
0.8181818181818182
 40
0.8181818181818182
 40
1.0
 40
1.0
 40
1.0
 40
1.0
 10
6868.1662
 20
-6689.939
 30
0.0
 10
6868.1662
 20
-6689.939
 30
0.0
 10
6840.8985
 20
-6665.4773
 30
0.0
 10
6840.8985
 20
-6665.4773
 30
0.0
 10
6840.8985
 20
-6665.4773
 30
0.0
 10
6840.8985
 20
-6665.4773
 30
0.0
 10
6809.1021
 20
-6683.778
 30
0.0
 10
6809.1021
 20
-6683.778
 30
0.0
 10
6809.1021
 20
-6683.778
 30
0.0
 10
6809.1021
 20
-6683.778
 30
0.0
 10
6824.1166
 20
-6650.4804
 30
0.0
 10
6824.1166
 20
-6650.4804
 30
0.0
 10
6824.1166
 20
-6650.4804
 30
0.0
 10
6824.1166
 20
-6650.4804
 30
0.0
 10
6796.7542
 20
-6626.123
 30
0.0
 10
6796.7542
 20
-6626.123
 30
0.0
 10
6796.7542
 20
-6626.123
 30
0.0
 10
6796.7542
 20
-6626.123
 30
0.0
 10
6833.3015
 20
-6630.0058
 30
0.0
 10
6833.3015
 20
-6630.0058
 30
0.0
 10
6833.3015
 20
-6630.0058
 30
0.0
 10
6833.3015
 20
-6630.0058
 30
0.0
 10
6848.1871
 20
-6596.6514
 30
0.0
 10
6848.1871
 20
-6596.6514
 30
0.0
 10
6848.1871
 20
-6596.6514
 30
0.0
 10
6848.1871
 20
-6596.6514
 30
0.0
 10
6855.7599
 20
-6632.3487
 30
0.0
 10
6855.7599
 20
-6632.3487
 30
0.0
 10
6855.7599
 20
-6632.3487
 30
0.0
 10
6855.7599
 20
-6632.3487
 30
0.0
 10
6892.3223
 20
-6636.092
 30
0.0
 10
6892.3223
 20
-6636.092
 30
0.0
 10
6892.3223
 20
-6636.092
 30
0.0
 10
6892.3223
 20
-6636.092
 30
0.0
 10
6860.4551
 20
-6654.2712
 30
0.0
 10
6860.4551
 20
-6654.2712
 30
0.0
 10
6860.4551
 20
-6654.2712
 30
0.0
 10
6860.4551
 20
-6654.2712
 30
0.0
 10
6868.1662
 20
-6689.939
 30
0.0
 10
6868.1662
 20
-6689.939
 30
0.0
  0
SPLINE
  5
90
330
1F
100
AcDbEntity
  8
Layer 1
 62
   250
370
    20
100
AcDbSpline
210
0.0
220
0.0
230
1.0
 70
    11
 71
     3
 72
    20
 73
    16
 74
     0
 42
0.0000000001
 43
0.0000000001
 12
1.0
 22
0.0
 32
0.0
 13
1.0
 23
0.0
 33
0.0
 40
0.0
 40
0.0
 40
0.0
 40
0.0
 40
0.2
 40
0.2
 40
0.2
 40
0.2
 40
0.4
 40
0.4
 40
0.4
 40
0.4
 40
0.6
 40
0.6
 40
0.6
 40
0.6
 40
1.0
 40
1.0
 40
1.0
 40
1.0
 10
7012.5735
 20
-6689.9394
 30
0.0
 10
7012.5735
 20
-6689.9394
 30
0.0
 10
6998.134
 20
-6756.7298
 30
0.0
 10
6998.134
 20
-6756.7298
 30
0.0
 10
6998.134
 20
-6756.7298
 30
0.0
 10
6998.134
 20
-6756.7298
 30
0.0
 10
6970.2679
 20
-6762.664
 30
0.0
 10
6970.2679
 20
-6762.664
 30
0.0
 10
6970.2679
 20
-6762.664
 30
0.0
 10
6970.2679
 20
-6762.664
 30
0.0
 10
6961.5131
 20
-6735.7456
 30
0.0
 10
6961.5131
 20
-6735.7456
 30
0.0
 10
6961.5131
 20
-6735.7456
 30
0.0
 10
6961.5131
 20
-6735.7456
 30
0.0
 10
7012.5735
 20
-6689.9394
 30
0.0
 10
7012.5735
 20
-6689.9394
 30
0.0
  0
SPLINE
  5
91
330
1F
100
AcDbEntity
  8
Layer 1
 62
   250
370
    20
100
AcDbSpline
210
0.0
220
0.0
230
1.0
 70
    11
 71
     3
 72
    44
 73
    40
 74
     0
 42
0.0000000001
 43
0.0000000001
 12
1.0
 22
0.0
 32
0.0
 13
1.0
 23
0.0
 33
0.0
 40
0.0
 40
0.0
 40
0.0
 40
0.0
 40
0.0909090909090909
 40
0.0909090909090909
 40
0.0909090909090909
 40
0.0909090909090909
 40
0.1818181818181818
 40
0.1818181818181818
 40
0.1818181818181818
 40
0.1818181818181818
 40
0.2727272727272727
 40
0.2727272727272727
 40
0.2727272727272727
 40
0.2727272727272727
 40
0.3636363636363636
 40
0.3636363636363636
 40
0.3636363636363636
 40
0.3636363636363636
 40
0.4545454545454545
 40
0.4545454545454545
 40
0.4545454545454545
 40
0.4545454545454545
 40
0.5454545454545454
 40
0.5454545454545454
 40
0.5454545454545454
 40
0.5454545454545454
 40
0.6363636363636364
 40
0.6363636363636364
 40
0.6363636363636364
 40
0.6363636363636364
 40
0.7272727272727273
 40
0.7272727272727273
 40
0.7272727272727273
 40
0.7272727272727273
 40
0.8181818181818182
 40
0.8181818181818182
 40
0.8181818181818182
 40
0.8181818181818182
 40
1.0
 40
1.0
 40
1.0
 40
1.0
 10
7012.5736
 20
-6689.9389
 30
0.0
 10
7012.5736
 20
-6689.9389
 30
0.0
 10
7020.2848
 20
-6654.2711
 30
0.0
 10
7020.2848
 20
-6654.2711
 30
0.0
 10
7020.2848
 20
-6654.2711
 30
0.0
 10
7020.2848
 20
-6654.2711
 30
0.0
 10
6988.4176
 20
-6636.0919
 30
0.0
 10
6988.4176
 20
-6636.0919
 30
0.0
 10
6988.4176
 20
-6636.0919
 30
0.0
 10
6988.4176
 20
-6636.0919
 30
0.0
 10
7024.98
 20
-6632.3487
 30
0.0
 10
7024.98
 20
-6632.3487
 30
0.0
 10
7024.98
 20
-6632.3487
 30
0.0
 10
7024.98
 20
-6632.3487
 30
0.0
 10
7032.5525
 20
-6596.6514
 30
0.0
 10
7032.5525
 20
-6596.6514
 30
0.0
 10
7032.5525
 20
-6596.6514
 30
0.0
 10
7032.5525
 20
-6596.6514
 30
0.0
 10
7047.4383
 20
-6630.0058
 30
0.0
 10
7047.4383
 20
-6630.0058
 30
0.0
 10
7047.4383
 20
-6630.0058
 30
0.0
 10
7047.4383
 20
-6630.0058
 30
0.0
 10
7083.9855
 20
-6626.1233
 30
0.0
 10
7083.9855
 20
-6626.1233
 30
0.0
 10
7083.9855
 20
-6626.1233
 30
0.0
 10
7083.9855
 20
-6626.1233
 30
0.0
 10
7056.6232
 20
-6650.4804
 30
0.0
 10
7056.6232
 20
-6650.4804
 30
0.0
 10
7056.6232
 20
-6650.4804
 30
0.0
 10
7056.6232
 20
-6650.4804
 30
0.0
 10
7071.6378
 20
-6683.778
 30
0.0
 10
7071.6378
 20
-6683.778
 30
0.0
 10
7071.6378
 20
-6683.778
 30
0.0
 10
7071.6378
 20
-6683.778
 30
0.0
 10
7039.8415
 20
-6665.4773
 30
0.0
 10
7039.8415
 20
-6665.4773
 30
0.0
 10
7039.8415
 20
-6665.4773
 30
0.0
 10
7039.8415
 20
-6665.4773
 30
0.0
 10
7012.5736
 20
-6689.9389
 30
0.0
 10
7012.5736
 20
-6689.9389
 30
0.0
  0
SPLINE
  5
92
330
1F
100
AcDbEntity
  8
Layer 1
 62
   250
370
    20
100
AcDbSpline
210
0.0
220
0.0
230
1.0
 70
    11
 71
     3
 72
    20
 73
    16
 74
     0
 42
0.0000000001
 43
0.0000000001
 12
1.0
 22
0.0
 32
0.0
 13
1.0
 23
0.0
 33
0.0
 40
0.0
 40
0.0
 40
0.0
 40
0.0
 40
0.2
 40
0.2
 40
0.2
 40
0.2
 40
0.4
 40
0.4
 40
0.4
 40
0.4
 40
0.6
 40
0.6
 40
0.6
 40
0.6
 40
1.0
 40
1.0
 40
1.0
 40
1.0
 10
7084.7772
 20
-6814.0592
 30
0.0
 10
7084.7772
 20
-6814.0592
 30
0.0
 10
7019.2767
 20
-6835.0432
 30
0.0
 10
7019.2767
 20
-6835.0432
 30
0.0
 10
7019.2767
 20
-6835.0432
 30
0.0
 10
7019.2767
 20
-6835.0432
 30
0.0
 10
7000.1658
 20
-6814.0592
 30
0.0
 10
7000.1658
 20
-6814.0592
 30
0.0
 10
7000.1658
 20
-6814.0592
 30
0.0
 10
7000.1658
 20
-6814.0592
 30
0.0
 10
7019.2767
 20
-6793.0752
 30
0.0
 10
7019.2767
 20
-6793.0752
 30
0.0
 10
7019.2767
 20
-6793.0752
 30
0.0
 10
7019.2767
 20
-6793.0752
 30
0.0
 10
7084.7772
 20
-6814.0592
 30
0.0
 10
7084.7772
 20
-6814.0592
 30
0.0
  0
SPLINE
  5
93
330
1F
100
AcDbEntity
  8
Layer 1
 62
   250
370
    20
100
AcDbSpline
210
0.0
220
0.0
230
1.0
 70
    11
 71
     3
 72
    44
 73
    40
 74
     0
 42
0.0000000001
 43
0.0000000001
 12
1.0
 22
0.0
 32
0.0
 13
1.0
 23
0.0
 33
0.0
 40
0.0
 40
0.0
 40
0.0
 40
0.0
 40
0.0909090909090909
 40
0.0909090909090909
 40
0.0909090909090909
 40
0.0909090909090909
 40
0.1818181818181818
 40
0.1818181818181818
 40
0.1818181818181818
 40
0.1818181818181818
 40
0.2727272727272727
 40
0.2727272727272727
 40
0.2727272727272727
 40
0.2727272727272727
 40
0.3636363636363636
 40
0.3636363636363636
 40
0.3636363636363636
 40
0.3636363636363636
 40
0.4545454545454545
 40
0.4545454545454545
 40
0.4545454545454545
 40
0.4545454545454545
 40
0.5454545454545454
 40
0.5454545454545454
 40
0.5454545454545454
 40
0.5454545454545454
 40
0.6363636363636364
 40
0.6363636363636364
 40
0.6363636363636364
 40
0.6363636363636364
 40
0.7272727272727273
 40
0.7272727272727273
 40
0.7272727272727273
 40
0.7272727272727273
 40
0.8181818181818182
 40
0.8181818181818182
 40
0.8181818181818182
 40
0.8181818181818182
 40
1.0
 40
1.0
 40
1.0
 40
1.0
 10
7084.7773
 20
-6814.0591
 30
0.0
 10
7084.7773
 20
-6814.0591
 30
0.0
 10
7119.7561
 20
-6802.8532
 30
0.0
 10
7119.7561
 20
-6802.8532
 30
0.0
 10
7119.7561
 20
-6802.8532
 30
0.0
 10
7119.7561
 20
-6802.8532
 30
0.0
 10
7119.6856
 20
-6766.3733
 30
0.0
 10
7119.6856
 20
-6766.3733
 30
0.0
 10
7119.6856
 20
-6766.3733
 30
0.0
 10
7119.6856
 20
-6766.3733
 30
0.0
 10
7141.2331
 20
-6795.9272
 30
0.0
 10
7141.2331
 20
-6795.9272
 30
0.0
 10
7141.2331
 20
-6795.9272
 30
0.0
 10
7141.2331
 20
-6795.9272
 30
0.0
 10
7176.1684
 20
-6784.5877
 30
0.0
 10
7176.1684
 20
-6784.5877
 30
0.0
 10
7176.1684
 20
-6784.5877
 30
0.0
 10
7176.1684
 20
-6784.5877
 30
0.0
 10
7154.5066
 20
-6814.0592
 30
0.0
 10
7154.5066
 20
-6814.0592
 30
0.0
 10
7154.5066
 20
-6814.0592
 30
0.0
 10
7154.5066
 20
-6814.0592
 30
0.0
 10
7176.1684
 20
-6843.5307
 30
0.0
 10
7176.1684
 20
-6843.5307
 30
0.0
 10
7176.1684
 20
-6843.5307
 30
0.0
 10
7176.1684
 20
-6843.5307
 30
0.0
 10
7141.2331
 20
-6832.1913
 30
0.0
 10
7141.2331
 20
-6832.1913
 30
0.0
 10
7141.2331
 20
-6832.1913
 30
0.0
 10
7141.2331
 20
-6832.1913
 30
0.0
 10
7119.6857
 20
-6861.7451
 30
0.0
 10
7119.6857
 20
-6861.7451
 30
0.0
 10
7119.6857
 20
-6861.7451
 30
0.0
 10
7119.6857
 20
-6861.7451
 30
0.0
 10
7119.7562
 20
-6825.2654
 30
0.0
 10
7119.7562
 20
-6825.2654
 30
0.0
 10
7119.7562
 20
-6825.2654
 30
0.0
 10
7119.7562
 20
-6825.2654
 30
0.0
 10
7084.7773
 20
-6814.0591
 30
0.0
 10
7084.7773
 20
-6814.0591
 30
0.0
  0
SPLINE
  5
94
330
1F
100
AcDbEntity
  8
Layer 1
 62
   250
370
    20
100
AcDbSpline
210
0.0
220
0.0
230
1.0
 70
    11
 71
     3
 72
    28
 73
    24
 74
     0
 42
0.0000000001
 43
0.0000000001
 12
1.0
 22
0.0
 32
0.0
 13
1.0
 23
0.0
 33
0.0
 40
0.0
 40
0.0
 40
0.0
 40
0.0
 40
0.1428571428571428
 40
0.1428571428571428
 40
0.1428571428571428
 40
0.1428571428571428
 40
0.2857142857142857
 40
0.2857142857142857
 40
0.2857142857142857
 40
0.2857142857142857
 40
0.4285714285714285
 40
0.4285714285714285
 40
0.4285714285714285
 40
0.4285714285714285
 40
0.5714285714285714
 40
0.5714285714285714
 40
0.5714285714285714
 40
0.5714285714285714
 40
0.7142857142857143
 40
0.7142857142857143
 40
0.7142857142857143
 40
0.7142857142857143
 40
1.0
 40
1.0
 40
1.0
 40
1.0
 10
6815.2375
 20
-6885.7615
 30
0.0
 10
6815.2375
 20
-6885.7615
 30
0.0
 10
6790.6626
 20
-6912.7828
 30
0.0
 10
6790.6626
 20
-6912.7828
 30
0.0
 10
6790.6626
 20
-6912.7828
 30
0.0
 10
6790.6626
 20
-6912.7828
 30
0.0
 10
6809.0601
 20
-6944.2683
 30
0.0
 10
6809.0601
 20
-6944.2683
 30
0.0
 10
6809.0601
 20
-6944.2683
 30
0.0
 10
6809.0601
 20
-6944.2683
 30
0.0
 10
6750.663
 20
-6922.7631
 30
0.0
 10
6750.663
 20
-6922.7631
 30
0.0
 10
6750.663
 20
-6922.7631
 30
0.0
 10
6750.663
 20
-6922.7631
 30
0.0
 10
6761.0962
 20
-6861.8173
 30
0.0
 10
6761.0962
 20
-6861.8173
 30
0.0
 10
6761.0962
 20
-6861.8173
 30
0.0
 10
6761.0962
 20
-6861.8173
 30
0.0
 10
6779.3714
 20
-6893.3728
 30
0.0
 10
6779.3714
 20
-6893.3728
 30
0.0
 10
6779.3714
 20
-6893.3728
 30
0.0
 10
6779.3714
 20
-6893.3728
 30
0.0
 10
6815.2375
 20
-6885.7615
 30
0.0
 10
6815.2375
 20
-6885.7615
 30
0.0
  0
SPLINE
  5
95
330
1F
100
AcDbEntity
  8
Layer 1
 62
   250
370
    20
100
AcDbSpline
210
0.0
220
0.0
230
1.0
 70
    11
 71
     3
 72
    20
 73
    16
 74
     0
 42
0.0000000001
 43
0.0000000001
 12
1.0
 22
0.0
 32
0.0
 13
1.0
 23
0.0
 33
0.0
 40
0.0
 40
0.0
 40
0.0
 40
0.0
 40
0.2
 40
0.2
 40
0.2
 40
0.2
 40
0.4
 40
0.4
 40
0.4
 40
0.4
 40
0.6
 40
0.6
 40
0.6
 40
0.6
 40
1.0
 40
1.0
 40
1.0
 40
1.0
 10
6815.3095
 20
-6885.72
 30
0.0
 10
6815.3095
 20
-6885.72
 30
0.0
 10
6861.5047
 20
-6835.1147
 30
0.0
 10
6861.5047
 20
-6835.1147
 30
0.0
 10
6861.5047
 20
-6835.1147
 30
0.0
 10
6861.5047
 20
-6835.1147
 30
0.0
 10
6888.5852
 20
-6843.7321
 30
0.0
 10
6888.5852
 20
-6843.7321
 30
0.0
 10
6888.5852
 20
-6843.7321
 30
0.0
 10
6888.5852
 20
-6843.7321
 30
0.0
 10
6882.5645
 20
-6871.3171
 30
0.0
 10
6882.5645
 20
-6871.3171
 30
0.0
 10
6882.5645
 20
-6871.3171
 30
0.0
 10
6882.5645
 20
-6871.3171
 30
0.0
 10
6815.3095
 20
-6885.72
 30
0.0
 10
6815.3095
 20
-6885.72
 30
0.0
  0
SPLINE
  5
96
330
1F
100
AcDbEntity
  8
Layer 1
 62
   250
370
    20
100
AcDbSpline
210
0.0
220
0.0
230
1.0
 70
    11
 71
     3
 72
    28
 73
    24
 74
     0
 42
0.0000000001
 43
0.0000000001
 12
1.0
 22
0.0
 32
0.0
 13
1.0
 23
0.0
 33
0.0
 40
0.0
 40
0.0
 40
0.0
 40
0.0
 40
0.1428571428571428
 40
0.1428571428571428
 40
0.1428571428571428
 40
0.1428571428571428
 40
0.2857142857142857
 40
0.2857142857142857
 40
0.2857142857142857
 40
0.2857142857142857
 40
0.4285714285714285
 40
0.4285714285714285
 40
0.4285714285714285
 40
0.4285714285714285
 40
0.5714285714285714
 40
0.5714285714285714
 40
0.5714285714285714
 40
0.5714285714285714
 40
0.7142857142857143
 40
0.7142857142857143
 40
0.7142857142857143
 40
0.7142857142857143
 40
1.0
 40
1.0
 40
1.0
 40
1.0
 10
6940.37
 20
-6957.4632
 30
0.0
 10
6940.37
 20
-6957.4632
 30
0.0
 10
6951.661
 20
-6992.0965
 30
0.0
 10
6951.661
 20
-6992.0965
 30
0.0
 10
6951.661
 20
-6992.0965
 30
0.0
 10
6951.661
 20
-6992.0965
 30
0.0
 10
6988.334
 20
-6992.0263
 30
0.0
 10
6988.334
 20
-6992.0263
 30
0.0
 10
6988.334
 20
-6992.0263
 30
0.0
 10
6988.334
 20
-6992.0263
 30
0.0
 10
6940.37
 20
-7031.4671
 30
0.0
 10
6940.37
 20
-7031.4671
 30
0.0
 10
6940.37
 20
-7031.4671
 30
0.0
 10
6940.37
 20
-7031.4671
 30
0.0
 10
6892.4063
 20
-6992.0262
 30
0.0
 10
6892.4063
 20
-6992.0262
 30
0.0
 10
6892.4063
 20
-6992.0262
 30
0.0
 10
6892.4063
 20
-6992.0262
 30
0.0
 10
6929.079
 20
-6992.0963
 30
0.0
 10
6929.079
 20
-6992.0963
 30
0.0
 10
6929.079
 20
-6992.0963
 30
0.0
 10
6929.079
 20
-6992.0963
 30
0.0
 10
6940.37
 20
-6957.4632
 30
0.0
 10
6940.37
 20
-6957.4632
 30
0.0
  0
SPLINE
  5
97
330
1F
100
AcDbEntity
  8
Layer 1
 62
   250
370
    20
100
AcDbSpline
210
0.0
220
0.0
230
1.0
 70
    11
 71
     3
 72
    20
 73
    16
 74
     0
 42
0.0000000001
 43
0.0000000001
 12
1.0
 22
0.0
 32
0.0
 13
1.0
 23
0.0
 33
0.0
 40
0.0
 40
0.0
 40
0.0
 40
0.0
 40
0.2
 40
0.2
 40
0.2
 40
0.2
 40
0.4
 40
0.4
 40
0.4
 40
0.4
 40
0.6
 40
0.6
 40
0.6
 40
0.6
 40
1.0
 40
1.0
 40
1.0
 40
1.0
 10
6940.3701
 20
-6957.3806
 30
0.0
 10
6940.3701
 20
-6957.3806
 30
0.0
 10
6919.3102
 20
-6892.373
 30
0.0
 10
6919.3102
 20
-6892.373
 30
0.0
 10
6919.3102
 20
-6892.373
 30
0.0
 10
6919.3102
 20
-6892.373
 30
0.0
 10
6940.37
 20
-6873.4055
 30
0.0
 10
6940.37
 20
-6873.4055
 30
0.0
 10
6940.37
 20
-6873.4055
 30
0.0
 10
6940.37
 20
-6873.4055
 30
0.0
 10
6961.4298
 20
-6892.373
 30
0.0
 10
6961.4298
 20
-6892.373
 30
0.0
 10
6961.4298
 20
-6892.373
 30
0.0
 10
6961.4298
 20
-6892.373
 30
0.0
 10
6940.3701
 20
-6957.3806
 30
0.0
 10
6940.3701
 20
-6957.3806
 30
0.0
  0
SPLINE
  5
98
330
1F
100
AcDbEntity
  8
Layer 1
 62
   250
370
    20
100
AcDbSpline
210
0.0
220
0.0
230
1.0
 70
    11
 71
     3
 72
    28
 73
    24
 74
     0
 42
0.0000000001
 43
0.0000000001
 12
1.0
 22
0.0
 32
0.0
 13
1.0
 23
0.0
 33
0.0
 40
0.0
 40
0.0
 40
0.0
 40
0.0
 40
0.1428571428571428
 40
0.1428571428571428
 40
0.1428571428571428
 40
0.1428571428571428
 40
0.2857142857142857
 40
0.2857142857142857
 40
0.2857142857142857
 40
0.2857142857142857
 40
0.4285714285714285
 40
0.4285714285714285
 40
0.4285714285714285
 40
0.4285714285714285
 40
0.5714285714285714
 40
0.5714285714285714
 40
0.5714285714285714
 40
0.5714285714285714
 40
0.7142857142857143
 40
0.7142857142857143
 40
0.7142857142857143
 40
0.7142857142857143
 40
1.0
 40
1.0
 40
1.0
 40
1.0
 10
7065.5025
 20
-6885.7615
 30
0.0
 10
7065.5025
 20
-6885.7615
 30
0.0
 10
7101.3684
 20
-6893.3728
 30
0.0
 10
7101.3684
 20
-6893.3728
 30
0.0
 10
7101.3684
 20
-6893.3728
 30
0.0
 10
7101.3684
 20
-6893.3728
 30
0.0
 10
7119.644
 20
-6861.8173
 30
0.0
 10
7119.644
 20
-6861.8173
 30
0.0
 10
7119.644
 20
-6861.8173
 30
0.0
 10
7119.644
 20
-6861.8173
 30
0.0
 10
7130.0769
 20
-6922.7631
 30
0.0
 10
7130.0769
 20
-6922.7631
 30
0.0
 10
7130.0769
 20
-6922.7631
 30
0.0
 10
7130.0769
 20
-6922.7631
 30
0.0
 10
7071.6799
 20
-6944.2683
 30
0.0
 10
7071.6799
 20
-6944.2683
 30
0.0
 10
7071.6799
 20
-6944.2683
 30
0.0
 10
7071.6799
 20
-6944.2683
 30
0.0
 10
7090.0773
 20
-6912.7827
 30
0.0
 10
7090.0773
 20
-6912.7827
 30
0.0
 10
7090.0773
 20
-6912.7827
 30
0.0
 10
7090.0773
 20
-6912.7827
 30
0.0
 10
7065.5025
 20
-6885.7615
 30
0.0
 10
7065.5025
 20
-6885.7615
 30
0.0
  0
SPLINE
  5
99
330
1F
100
AcDbEntity
  8
Layer 1
 62
   250
370
    20
100
AcDbSpline
210
0.0
220
0.0
230
1.0
 70
    11
 71
     3
 72
    20
 73
    16
 74
     0
 42
0.0000000001
 43
0.0000000001
 12
1.0
 22
0.0
 32
0.0
 13
1.0
 23
0.0
 33
0.0
 40
0.0
 40
0.0
 40
0.0
 40
0.0
 40
0.2
 40
0.2
 40
0.2
 40
0.2
 40
0.4
 40
0.4
 40
0.4
 40
0.4
 40
0.6
 40
0.6
 40
0.6
 40
0.6
 40
1.0
 40
1.0
 40
1.0
 40
1.0
 10
7065.4303
 20
-6885.72
 30
0.0
 10
7065.4303
 20
-6885.72
 30
0.0
 10
6998.1755
 20
-6871.3171
 30
0.0
 10
6998.1755
 20
-6871.3171
 30
0.0
 10
6998.1755
 20
-6871.3171
 30
0.0
 10
6998.1755
 20
-6871.3171
 30
0.0
 10
6992.1545
 20
-6843.7322
 30
0.0
 10
6992.1545
 20
-6843.7322
 30
0.0
 10
6992.1545
 20
-6843.7322
 30
0.0
 10
6992.1545
 20
-6843.7322
 30
0.0
 10
7019.2353
 20
-6835.1148
 30
0.0
 10
7019.2353
 20
-6835.1148
 30
0.0
 10
7019.2353
 20
-6835.1148
 30
0.0
 10
7019.2353
 20
-6835.1148
 30
0.0
 10
7065.4303
 20
-6885.72
 30
0.0
 10
7065.4303
 20
-6885.72
 30
0.0
  0
SPLINE
  5
9A
330
1F
100
AcDbEntity
  8
Layer 1
 62
   250
370
    20
100
AcDbSpline
210
0.0
220
0.0
230
1.0
 70
    11
 71
     3
 72
    28
 73
    24
 74
     0
 42
0.0000000001
 43
0.0000000001
 12
1.0
 22
0.0
 32
0.0
 13
1.0
 23
0.0
 33
0.0
 40
0.0
 40
0.0
 40
0.0
 40
0.0
 40
0.1428571428571428
 40
0.1428571428571428
 40
0.1428571428571428
 40
0.1428571428571428
 40
0.2857142857142857
 40
0.2857142857142857
 40
0.2857142857142857
 40
0.2857142857142857
 40
0.4285714285714285
 40
0.4285714285714285
 40
0.4285714285714285
 40
0.4285714285714285
 40
0.5714285714285714
 40
0.5714285714285714
 40
0.5714285714285714
 40
0.5714285714285714
 40
0.7142857142857143
 40
0.7142857142857143
 40
0.7142857142857143
 40
0.7142857142857143
 40
1.0
 40
1.0
 40
1.0
 40
1.0
 10
7065.5026
 20
-6742.3571
 30
0.0
 10
7065.5026
 20
-6742.3571
 30
0.0
 10
7090.0772
 20
-6715.3357
 30
0.0
 10
7090.0772
 20
-6715.3357
 30
0.0
 10
7090.0772
 20
-6715.3357
 30
0.0
 10
7090.0772
 20
-6715.3357
 30
0.0
 10
7071.6797
 20
-6683.8498
 30
0.0
 10
7071.6797
 20
-6683.8498
 30
0.0
 10
7071.6797
 20
-6683.8498
 30
0.0
 10
7071.6797
 20
-6683.8498
 30
0.0
 10
7130.0769
 20
-6705.3554
 30
0.0
 10
7130.0769
 20
-6705.3554
 30
0.0
 10
7130.0769
 20
-6705.3554
 30
0.0
 10
7130.0769
 20
-6705.3554
 30
0.0
 10
7119.6437
 20
-6766.3011
 30
0.0
 10
7119.6437
 20
-6766.3011
 30
0.0
 10
7119.6437
 20
-6766.3011
 30
0.0
 10
7119.6437
 20
-6766.3011
 30
0.0
 10
7101.3686
 20
-6734.7452
 30
0.0
 10
7101.3686
 20
-6734.7452
 30
0.0
 10
7101.3686
 20
-6734.7452
 30
0.0
 10
7101.3686
 20
-6734.7452
 30
0.0
 10
7065.5026
 20
-6742.3571
 30
0.0
 10
7065.5026
 20
-6742.3571
 30
0.0
  0
SPLINE
  5
9B
330
1F
100
AcDbEntity
  8
Layer 1
 62
   250
370
    20
100
AcDbSpline
210
0.0
220
0.0
230
1.0
 70
    11
 71
     3
 72
    20
 73
    16
 74
     0
 42
0.0000000001
 43
0.0000000001
 12
1.0
 22
0.0
 32
0.0
 13
1.0
 23
0.0
 33
0.0
 40
0.0
 40
0.0
 40
0.0
 40
0.0
 40
0.2
 40
0.2
 40
0.2
 40
0.2
 40
0.4
 40
0.4
 40
0.4
 40
0.4
 40
0.6
 40
0.6
 40
0.6
 40
0.6
 40
1.0
 40
1.0
 40
1.0
 40
1.0
 10
7065.4303
 20
-6742.3985
 30
0.0
 10
7065.4303
 20
-6742.3985
 30
0.0
 10
7019.2353
 20
-6793.0039
 30
0.0
 10
7019.2353
 20
-6793.0039
 30
0.0
 10
7019.2353
 20
-6793.0039
 30
0.0
 10
7019.2353
 20
-6793.0039
 30
0.0
 10
6992.1547
 20
-6784.3864
 30
0.0
 10
6992.1547
 20
-6784.3864
 30
0.0
 10
6992.1547
 20
-6784.3864
 30
0.0
 10
6992.1547
 20
-6784.3864
 30
0.0
 10
6998.1756
 20
-6756.8011
 30
0.0
 10
6998.1756
 20
-6756.8011
 30
0.0
 10
6998.1756
 20
-6756.8011
 30
0.0
 10
6998.1756
 20
-6756.8011
 30
0.0
 10
7065.4303
 20
-6742.3985
 30
0.0
 10
7065.4303
 20
-6742.3985
 30
0.0
  0
SPLINE
  5
9C
330
1F
100
AcDbEntity
  8
Layer 1
 62
   250
370
    20
100
AcDbSpline
210
0.0
220
0.0
230
1.0
 70
    11
 71
     3
 72
    28
 73
    24
 74
     0
 42
0.0000000001
 43
0.0000000001
 12
1.0
 22
0.0
 32
0.0
 13
1.0
 23
0.0
 33
0.0
 40
0.0
 40
0.0
 40
0.0
 40
0.0
 40
0.1428571428571428
 40
0.1428571428571428
 40
0.1428571428571428
 40
0.1428571428571428
 40
0.2857142857142857
 40
0.2857142857142857
 40
0.2857142857142857
 40
0.2857142857142857
 40
0.4285714285714285
 40
0.4285714285714285
 40
0.4285714285714285
 40
0.4285714285714285
 40
0.5714285714285714
 40
0.5714285714285714
 40
0.5714285714285714
 40
0.5714285714285714
 40
0.7142857142857143
 40
0.7142857142857143
 40
0.7142857142857143
 40
0.7142857142857143
 40
1.0
 40
1.0
 40
1.0
 40
1.0
 10
6940.3701
 20
-6670.6551
 30
0.0
 10
6940.3701
 20
-6670.6551
 30
0.0
 10
6929.079
 20
-6636.0217
 30
0.0
 10
6929.079
 20
-6636.0217
 30
0.0
 10
6929.079
 20
-6636.0217
 30
0.0
 10
6929.079
 20
-6636.0217
 30
0.0
 10
6892.4063
 20
-6636.0917
 30
0.0
 10
6892.4063
 20
-6636.0917
 30
0.0
 10
6892.4063
 20
-6636.0917
 30
0.0
 10
6892.4063
 20
-6636.0917
 30
0.0
 10
6940.37
 20
-6596.6515
 30
0.0
 10
6940.37
 20
-6596.6515
 30
0.0
 10
6940.37
 20
-6596.6515
 30
0.0
 10
6940.37
 20
-6596.6515
 30
0.0
 10
6988.3336
 20
-6636.0917
 30
0.0
 10
6988.3336
 20
-6636.0917
 30
0.0
 10
6988.3336
 20
-6636.0917
 30
0.0
 10
6988.3336
 20
-6636.0917
 30
0.0
 10
6951.6611
 20
-6636.0216
 30
0.0
 10
6951.6611
 20
-6636.0216
 30
0.0
 10
6951.6611
 20
-6636.0216
 30
0.0
 10
6951.6611
 20
-6636.0216
 30
0.0
 10
6940.3701
 20
-6670.6551
 30
0.0
 10
6940.3701
 20
-6670.6551
 30
0.0
  0
SPLINE
  5
9D
330
1F
100
AcDbEntity
  8
Layer 1
 62
   250
370
    20
100
AcDbSpline
210
0.0
220
0.0
230
1.0
 70
    11
 71
     3
 72
    20
 73
    16
 74
     0
 42
0.0000000001
 43
0.0000000001
 12
1.0
 22
0.0
 32
0.0
 13
1.0
 23
0.0
 33
0.0
 40
0.0
 40
0.0
 40
0.0
 40
0.0
 40
0.2
 40
0.2
 40
0.2
 40
0.2
 40
0.4
 40
0.4
 40
0.4
 40
0.4
 40
0.6
 40
0.6
 40
0.6
 40
0.6
 40
1.0
 40
1.0
 40
1.0
 40
1.0
 10
6940.37
 20
-6670.7376
 30
0.0
 10
6940.37
 20
-6670.7376
 30
0.0
 10
6961.4298
 20
-6735.7457
 30
0.0
 10
6961.4298
 20
-6735.7457
 30
0.0
 10
6961.4298
 20
-6735.7457
 30
0.0
 10
6961.4298
 20
-6735.7457
 30
0.0
 10
6940.3701
 20
-6754.7129
 30
0.0
 10
6940.3701
 20
-6754.7129
 30
0.0
 10
6940.3701
 20
-6754.7129
 30
0.0
 10
6940.3701
 20
-6754.7129
 30
0.0
 10
6919.3102
 20
-6735.7457
 30
0.0
 10
6919.3102
 20
-6735.7457
 30
0.0
 10
6919.3102
 20
-6735.7457
 30
0.0
 10
6919.3102
 20
-6735.7457
 30
0.0
 10
6940.37
 20
-6670.7376
 30
0.0
 10
6940.37
 20
-6670.7376
 30
0.0
  0
SPLINE
  5
9E
330
1F
100
AcDbEntity
  8
Layer 1
 62
   250
370
    20
100
AcDbSpline
210
0.0
220
0.0
230
1.0
 70
    11
 71
     3
 72
    28
 73
    24
 74
     0
 42
0.0000000001
 43
0.0000000001
 12
1.0
 22
0.0
 32
0.0
 13
1.0
 23
0.0
 33
0.0
 40
0.0
 40
0.0
 40
0.0
 40
0.0
 40
0.1428571428571428
 40
0.1428571428571428
 40
0.1428571428571428
 40
0.1428571428571428
 40
0.2857142857142857
 40
0.2857142857142857
 40
0.2857142857142857
 40
0.2857142857142857
 40
0.4285714285714285
 40
0.4285714285714285
 40
0.4285714285714285
 40
0.4285714285714285
 40
0.5714285714285714
 40
0.5714285714285714
 40
0.5714285714285714
 40
0.5714285714285714
 40
0.7142857142857143
 40
0.7142857142857143
 40
0.7142857142857143
 40
0.7142857142857143
 40
1.0
 40
1.0
 40
1.0
 40
1.0
 10
6815.2376
 20
-6742.3572
 30
0.0
 10
6815.2376
 20
-6742.3572
 30
0.0
 10
6779.3715
 20
-6734.7452
 30
0.0
 10
6779.3715
 20
-6734.7452
 30
0.0
 10
6779.3715
 20
-6734.7452
 30
0.0
 10
6779.3715
 20
-6734.7452
 30
0.0
 10
6761.0963
 20
-6766.3011
 30
0.0
 10
6761.0963
 20
-6766.3011
 30
0.0
 10
6761.0963
 20
-6766.3011
 30
0.0
 10
6761.0963
 20
-6766.3011
 30
0.0
 10
6750.6632
 20
-6705.3552
 30
0.0
 10
6750.6632
 20
-6705.3552
 30
0.0
 10
6750.6632
 20
-6705.3552
 30
0.0
 10
6750.6632
 20
-6705.3552
 30
0.0
 10
6809.0601
 20
-6683.8498
 30
0.0
 10
6809.0601
 20
-6683.8498
 30
0.0
 10
6809.0601
 20
-6683.8498
 30
0.0
 10
6809.0601
 20
-6683.8498
 30
0.0
 10
6790.6626
 20
-6715.3357
 30
0.0
 10
6790.6626
 20
-6715.3357
 30
0.0
 10
6790.6626
 20
-6715.3357
 30
0.0
 10
6790.6626
 20
-6715.3357
 30
0.0
 10
6815.2376
 20
-6742.3572
 30
0.0
 10
6815.2376
 20
-6742.3572
 30
0.0
  0
SPLINE
  5
9F
330
1F
100
AcDbEntity
  8
Layer 1
 62
   250
370
    20
100
AcDbSpline
210
0.0
220
0.0
230
1.0
 70
    11
 71
     3
 72
    20
 73
    16
 74
     0
 42
0.0000000001
 43
0.0000000001
 12
1.0
 22
0.0
 32
0.0
 13
1.0
 23
0.0
 33
0.0
 40
0.0
 40
0.0
 40
0.0
 40
0.0
 40
0.2
 40
0.2
 40
0.2
 40
0.2
 40
0.4
 40
0.4
 40
0.4
 40
0.4
 40
0.6
 40
0.6
 40
0.6
 40
0.6
 40
1.0
 40
1.0
 40
1.0
 40
1.0
 10
6815.3096
 20
-6742.3985
 30
0.0
 10
6815.3096
 20
-6742.3985
 30
0.0
 10
6882.5647
 20
-6756.8011
 30
0.0
 10
6882.5647
 20
-6756.8011
 30
0.0
 10
6882.5647
 20
-6756.8011
 30
0.0
 10
6882.5647
 20
-6756.8011
 30
0.0
 10
6888.5853
 20
-6784.386
 30
0.0
 10
6888.5853
 20
-6784.386
 30
0.0
 10
6888.5853
 20
-6784.386
 30
0.0
 10
6888.5853
 20
-6784.386
 30
0.0
 10
6861.5047
 20
-6793.0034
 30
0.0
 10
6861.5047
 20
-6793.0034
 30
0.0
 10
6861.5047
 20
-6793.0034
 30
0.0
 10
6861.5047
 20
-6793.0034
 30
0.0
 10
6815.3096
 20
-6742.3985
 30
0.0
 10
6815.3096
 20
-6742.3985
 30
0.0
  0
SPLINE
  5
A0
330
1F
100
AcDbEntity
  8
Layer 1
 62
   250
370
    20
100
AcDbSpline
210
0.0
220
0.0
230
1.0
 70
    11
 71
     3
 72
    16
 73
    12
 74
     0
 42
0.0000000001
 43
0.0000000001
 12
1.0
 22
0.0
 32
0.0
 13
1.0
 23
0.0
 33
0.0
 40
0.0
 40
0.0
 40
0.0
 40
0.0
 40
0.25
 40
0.25
 40
0.25
 40
0.25
 40
0.5
 40
0.5
 40
0.5
 40
0.5
 40
1.0
 40
1.0
 40
1.0
 40
1.0
 10
6623.0038
 20
-7109.2687
 30
0.0
 10
6623.0038
 20
-7109.2687
 30
0.0
 10
6623.0038
 20
-7146.662
 30
0.0
 10
6623.0038
 20
-7146.662
 30
0.0
 10
6623.0038
 20
-7146.662
 30
0.0
 10
6623.0038
 20
-7146.662
 30
0.0
 10
6633.0332
 20
-7155.6595
 30
0.0
 10
6633.0332
 20
-7155.6595
 30
0.0
 10
6633.0332
 20
-7155.6595
 30
0.0
 10
6633.0332
 20
-7155.6595
 30
0.0
 10
6623.0038
 20
-7109.2687
 30
0.0
 10
6623.0038
 20
-7109.2687
 30
0.0
  0
SPLINE
  5
A1
330
1F
100
AcDbEntity
  8
Layer 1
 62
   250
370
    20
100
AcDbSpline
210
0.0
220
0.0
230
1.0
 70
    11
 71
     3
 72
    48
 73
    44
 74
     0
 42
0.0000000001
 43
0.0000000001
 12
1.0
 22
0.0
 32
0.0
 13
1.0
 23
0.0
 33
0.0
 40
0.0
 40
0.0
 40
0.0
 40
0.0
 40
0.0833333333333333
 40
0.0833333333333333
 40
0.0833333333333333
 40
0.0833333333333333
 40
0.1666666666666667
 40
0.1666666666666667
 40
0.1666666666666667
 40
0.1666666666666667
 40
0.25
 40
0.25
 40
0.25
 40
0.25
 40
0.3333333333333333
 40
0.3333333333333333
 40
0.3333333333333333
 40
0.3333333333333333
 40
0.4166666666666667
 40
0.4166666666666667
 40
0.4166666666666667
 40
0.4166666666666667
 40
0.5
 40
0.5
 40
0.5
 40
0.5
 40
0.5833333333333334
 40
0.5833333333333334
 40
0.5833333333333334
 40
0.5833333333333334
 40
0.6666666666666666
 40
0.6666666666666666
 40
0.6666666666666666
 40
0.6666666666666666
 40
0.75
 40
0.75
 40
0.75
 40
0.75
 40
0.8333333333333334
 40
0.8333333333333334
 40
0.8333333333333334
 40
0.8333333333333334
 40
1.0
 40
1.0
 40
1.0
 40
1.0
 10
6623.0038
 20
-7201.4477
 30
0.0
 10
6623.0038
 20
-7201.4477
 30
0.0
 10
6623.0038
 20
-7210.9527
 30
0.0
 10
6623.0038
 20
-7210.9527
 30
0.0
 10
6623.0038
 20
-7210.9527
 30
0.0
 10
6623.0038
 20
-7210.9527
 30
0.0
 10
6645.4395
 20
-7213.2497
 30
0.0
 10
6645.4395
 20
-7213.2497
 30
0.0
 10
6645.4395
 20
-7213.2497
 30
0.0
 10
6645.4395
 20
-7213.2497
 30
0.0
 10
6653.0125
 20
-7248.9468
 30
0.0
 10
6653.0125
 20
-7248.9468
 30
0.0
 10
6653.0125
 20
-7248.9468
 30
0.0
 10
6653.0125
 20
-7248.9468
 30
0.0
 10
6667.8981
 20
-7215.5928
 30
0.0
 10
6667.8981
 20
-7215.5928
 30
0.0
 10
6667.8981
 20
-7215.5928
 30
0.0
 10
6667.8981
 20
-7215.5928
 30
0.0
 10
6704.4453
 20
-7219.4755
 30
0.0
 10
6704.4453
 20
-7219.4755
 30
0.0
 10
6704.4453
 20
-7219.4755
 30
0.0
 10
6704.4453
 20
-7219.4755
 30
0.0
 10
6677.0827
 20
-7195.118
 30
0.0
 10
6677.0827
 20
-7195.118
 30
0.0
 10
6677.0827
 20
-7195.118
 30
0.0
 10
6677.0827
 20
-7195.118
 30
0.0
 10
6692.0975
 20
-7161.8206
 30
0.0
 10
6692.0975
 20
-7161.8206
 30
0.0
 10
6692.0975
 20
-7161.8206
 30
0.0
 10
6692.0975
 20
-7161.8206
 30
0.0
 10
6660.3013
 20
-7180.1213
 30
0.0
 10
6660.3013
 20
-7180.1213
 30
0.0
 10
6660.3013
 20
-7180.1213
 30
0.0
 10
6660.3013
 20
-7180.1213
 30
0.0
 10
6633.0333
 20
-7155.6596
 30
0.0
 10
6633.0333
 20
-7155.6596
 30
0.0
 10
6633.0333
 20
-7155.6596
 30
0.0
 10
6633.0333
 20
-7155.6596
 30
0.0
 10
6640.7444
 20
-7191.3271
 30
0.0
 10
6640.7444
 20
-7191.3271
 30
0.0
 10
6640.7444
 20
-7191.3271
 30
0.0
 10
6640.7444
 20
-7191.3271
 30
0.0
 10
6623.0038
 20
-7201.4477
 30
0.0
 10
6623.0038
 20
-7201.4477
 30
0.0
  0
SPLINE
  5
A2
330
1F
100
AcDbEntity
  8
Layer 1
 62
   250
370
    20
100
AcDbSpline
210
0.0
220
0.0
230
1.0
 70
    11
 71
     3
 72
    24
 73
    20
 74
     0
 42
0.0000000001
 43
0.0000000001
 12
1.0
 22
0.0
 32
0.0
 13
1.0
 23
0.0
 33
0.0
 40
0.0
 40
0.0
 40
0.0
 40
0.0
 40
0.1666666666666667
 40
0.1666666666666667
 40
0.1666666666666667
 40
0.1666666666666667
 40
0.3333333333333333
 40
0.3333333333333333
 40
0.3333333333333333
 40
0.3333333333333333
 40
0.5
 40
0.5
 40
0.5
 40
0.5
 40
0.6666666666666666
 40
0.6666666666666666
 40
0.6666666666666666
 40
0.6666666666666666
 40
1.0
 40
1.0
 40
1.0
 40
1.0
 10
6623.0038
 20
-7028.9277
 30
0.0
 10
6623.0038
 20
-7028.9277
 30
0.0
 10
6623.0038
 20
-7034.1507
 30
0.0
 10
6623.0038
 20
-7034.1507
 30
0.0
 10
6623.0038
 20
-7034.1507
 30
0.0
 10
6623.0038
 20
-7034.1507
 30
0.0
 10
6639.7367
 20
-7052.5233
 30
0.0
 10
6639.7367
 20
-7052.5233
 30
0.0
 10
6639.7367
 20
-7052.5233
 30
0.0
 10
6639.7367
 20
-7052.5233
 30
0.0
 10
6705.2369
 20
-7031.5395
 30
0.0
 10
6705.2369
 20
-7031.5395
 30
0.0
 10
6705.2369
 20
-7031.5395
 30
0.0
 10
6705.2369
 20
-7031.5395
 30
0.0
 10
6639.7366
 20
-7010.5552
 30
0.0
 10
6639.7366
 20
-7010.5552
 30
0.0
 10
6639.7366
 20
-7010.5552
 30
0.0
 10
6639.7366
 20
-7010.5552
 30
0.0
 10
6623.0038
 20
-7028.9277
 30
0.0
 10
6623.0038
 20
-7028.9277
 30
0.0
  0
SPLINE
  5
A3
330
1F
100
AcDbEntity
  8
Layer 1
 62
   250
370
    20
100
AcDbSpline
210
0.0
220
0.0
230
1.0
 70
    11
 71
     3
 72
    44
 73
    40
 74
     0
 42
0.0000000001
 43
0.0000000001
 12
1.0
 22
0.0
 32
0.0
 13
1.0
 23
0.0
 33
0.0
 40
0.0
 40
0.0
 40
0.0
 40
0.0
 40
0.0909090909090909
 40
0.0909090909090909
 40
0.0909090909090909
 40
0.0909090909090909
 40
0.1818181818181818
 40
0.1818181818181818
 40
0.1818181818181818
 40
0.1818181818181818
 40
0.2727272727272727
 40
0.2727272727272727
 40
0.2727272727272727
 40
0.2727272727272727
 40
0.3636363636363636
 40
0.3636363636363636
 40
0.3636363636363636
 40
0.3636363636363636
 40
0.4545454545454545
 40
0.4545454545454545
 40
0.4545454545454545
 40
0.4545454545454545
 40
0.5454545454545454
 40
0.5454545454545454
 40
0.5454545454545454
 40
0.5454545454545454
 40
0.6363636363636364
 40
0.6363636363636364
 40
0.6363636363636364
 40
0.6363636363636364
 40
0.7272727272727273
 40
0.7272727272727273
 40
0.7272727272727273
 40
0.7272727272727273
 40
0.8181818181818182
 40
0.8181818181818182
 40
0.8181818181818182
 40
0.8181818181818182
 40
1.0
 40
1.0
 40
1.0
 40
1.0
 10
6705.237
 20
-7031.5395
 30
0.0
 10
6705.237
 20
-7031.5395
 30
0.0
 10
6740.2159
 20
-7042.7456
 30
0.0
 10
6740.2159
 20
-7042.7456
 30
0.0
 10
6740.2159
 20
-7042.7456
 30
0.0
 10
6740.2159
 20
-7042.7456
 30
0.0
 10
6740.145
 20
-7079.2254
 30
0.0
 10
6740.145
 20
-7079.2254
 30
0.0
 10
6740.145
 20
-7079.2254
 30
0.0
 10
6740.145
 20
-7079.2254
 30
0.0
 10
6761.6927
 20
-7049.6711
 30
0.0
 10
6761.6927
 20
-7049.6711
 30
0.0
 10
6761.6927
 20
-7049.6711
 30
0.0
 10
6761.6927
 20
-7049.6711
 30
0.0
 10
6796.628
 20
-7061.011
 30
0.0
 10
6796.628
 20
-7061.011
 30
0.0
 10
6796.628
 20
-7061.011
 30
0.0
 10
6796.628
 20
-7061.011
 30
0.0
 10
6774.9663
 20
-7031.5395
 30
0.0
 10
6774.9663
 20
-7031.5395
 30
0.0
 10
6774.9663
 20
-7031.5395
 30
0.0
 10
6774.9663
 20
-7031.5395
 30
0.0
 10
6796.628
 20
-7002.0679
 30
0.0
 10
6796.628
 20
-7002.0679
 30
0.0
 10
6796.628
 20
-7002.0679
 30
0.0
 10
6796.628
 20
-7002.0679
 30
0.0
 10
6761.6927
 20
-7013.4075
 30
0.0
 10
6761.6927
 20
-7013.4075
 30
0.0
 10
6761.6927
 20
-7013.4075
 30
0.0
 10
6761.6927
 20
-7013.4075
 30
0.0
 10
6740.145
 20
-6983.8536
 30
0.0
 10
6740.145
 20
-6983.8536
 30
0.0
 10
6740.145
 20
-6983.8536
 30
0.0
 10
6740.145
 20
-6983.8536
 30
0.0
 10
6740.2158
 20
-7020.3334
 30
0.0
 10
6740.2158
 20
-7020.3334
 30
0.0
 10
6740.2158
 20
-7020.3334
 30
0.0
 10
6740.2158
 20
-7020.3334
 30
0.0
 10
6705.237
 20
-7031.5395
 30
0.0
 10
6705.237
 20
-7031.5395
 30
0.0
  0
SPLINE
  5
A4
330
1F
100
AcDbEntity
  8
Layer 1
 62
   250
370
    20
100
AcDbSpline
210
0.0
220
0.0
230
1.0
 70
    11
 71
     3
 72
    16
 73
    12
 74
     0
 42
0.0000000001
 43
0.0000000001
 12
1.0
 22
0.0
 32
0.0
 13
1.0
 23
0.0
 33
0.0
 40
0.0
 40
0.0
 40
0.0
 40
0.0
 40
0.25
 40
0.25
 40
0.25
 40
0.25
 40
0.5
 40
0.5
 40
0.5
 40
0.5
 40
1.0
 40
1.0
 40
1.0
 40
1.0
 10
6623.0038
 20
-6916.4167
 30
0.0
 10
6623.0038
 20
-6916.4167
 30
0.0
 10
6623.0038
 20
-6953.8102
 30
0.0
 10
6623.0038
 20
-6953.8102
 30
0.0
 10
6623.0038
 20
-6953.8102
 30
0.0
 10
6623.0038
 20
-6953.8102
 30
0.0
 10
6633.0332
 20
-6907.4193
 30
0.0
 10
6633.0332
 20
-6907.4193
 30
0.0
 10
6633.0332
 20
-6907.4193
 30
0.0
 10
6633.0332
 20
-6907.4193
 30
0.0
 10
6623.0038
 20
-6916.4167
 30
0.0
 10
6623.0038
 20
-6916.4167
 30
0.0
  0
SPLINE
  5
A5
330
1F
100
AcDbEntity
  8
Layer 1
 62
   250
370
    20
100
AcDbSpline
210
0.0
220
0.0
230
1.0
 70
    11
 71
     3
 72
    48
 73
    44
 74
     0
 42
0.0000000001
 43
0.0000000001
 12
1.0
 22
0.0
 32
0.0
 13
1.0
 23
0.0
 33
0.0
 40
0.0
 40
0.0
 40
0.0
 40
0.0
 40
0.0833333333333333
 40
0.0833333333333333
 40
0.0833333333333333
 40
0.0833333333333333
 40
0.1666666666666667
 40
0.1666666666666667
 40
0.1666666666666667
 40
0.1666666666666667
 40
0.25
 40
0.25
 40
0.25
 40
0.25
 40
0.3333333333333333
 40
0.3333333333333333
 40
0.3333333333333333
 40
0.3333333333333333
 40
0.4166666666666667
 40
0.4166666666666667
 40
0.4166666666666667
 40
0.4166666666666667
 40
0.5
 40
0.5
 40
0.5
 40
0.5
 40
0.5833333333333334
 40
0.5833333333333334
 40
0.5833333333333334
 40
0.5833333333333334
 40
0.6666666666666666
 40
0.6666666666666666
 40
0.6666666666666666
 40
0.6666666666666666
 40
0.75
 40
0.75
 40
0.75
 40
0.75
 40
0.8333333333333334
 40
0.8333333333333334
 40
0.8333333333333334
 40
0.8333333333333334
 40
1.0
 40
1.0
 40
1.0
 40
1.0
 10
6623.0038
 20
-6852.1258
 30
0.0
 10
6623.0038
 20
-6852.1258
 30
0.0
 10
6623.0038
 20
-6861.6306
 30
0.0
 10
6623.0038
 20
-6861.6306
 30
0.0
 10
6623.0038
 20
-6861.6306
 30
0.0
 10
6623.0038
 20
-6861.6306
 30
0.0
 10
6640.7444
 20
-6871.7509
 30
0.0
 10
6640.7444
 20
-6871.7509
 30
0.0
 10
6640.7444
 20
-6871.7509
 30
0.0
 10
6640.7444
 20
-6871.7509
 30
0.0
 10
6633.0333
 20
-6907.4192
 30
0.0
 10
6633.0333
 20
-6907.4192
 30
0.0
 10
6633.0333
 20
-6907.4192
 30
0.0
 10
6633.0333
 20
-6907.4192
 30
0.0
 10
6660.3012
 20
-6882.9575
 30
0.0
 10
6660.3012
 20
-6882.9575
 30
0.0
 10
6660.3012
 20
-6882.9575
 30
0.0
 10
6660.3012
 20
-6882.9575
 30
0.0
 10
6692.0975
 20
-6901.2582
 30
0.0
 10
6692.0975
 20
-6901.2582
 30
0.0
 10
6692.0975
 20
-6901.2582
 30
0.0
 10
6692.0975
 20
-6901.2582
 30
0.0
 10
6677.0827
 20
-6867.9606
 30
0.0
 10
6677.0827
 20
-6867.9606
 30
0.0
 10
6677.0827
 20
-6867.9606
 30
0.0
 10
6677.0827
 20
-6867.9606
 30
0.0
 10
6704.4453
 20
-6843.6031
 30
0.0
 10
6704.4453
 20
-6843.6031
 30
0.0
 10
6704.4453
 20
-6843.6031
 30
0.0
 10
6704.4453
 20
-6843.6031
 30
0.0
 10
6667.8979
 20
-6847.4857
 30
0.0
 10
6667.8979
 20
-6847.4857
 30
0.0
 10
6667.8979
 20
-6847.4857
 30
0.0
 10
6667.8979
 20
-6847.4857
 30
0.0
 10
6653.0125
 20
-6814.1316
 30
0.0
 10
6653.0125
 20
-6814.1316
 30
0.0
 10
6653.0125
 20
-6814.1316
 30
0.0
 10
6653.0125
 20
-6814.1316
 30
0.0
 10
6645.4395
 20
-6849.8288
 30
0.0
 10
6645.4395
 20
-6849.8288
 30
0.0
 10
6645.4395
 20
-6849.8288
 30
0.0
 10
6645.4395
 20
-6849.8288
 30
0.0
 10
6623.0038
 20
-6852.1258
 30
0.0
 10
6623.0038
 20
-6852.1258
 30
0.0
  0
SPLINE
  5
A6
330
1F
100
AcDbEntity
  8
Layer 1
 62
   250
370
    20
100
AcDbSpline
210
0.0
220
0.0
230
1.0
 70
    11
 71
     3
 72
    28
 73
    24
 74
     0
 42
0.0000000001
 43
0.0000000001
 12
1.0
 22
0.0
 32
0.0
 13
1.0
 23
0.0
 33
0.0
 40
0.0
 40
0.0
 40
0.0
 40
0.0
 40
0.1428571428571428
 40
0.1428571428571428
 40
0.1428571428571428
 40
0.1428571428571428
 40
0.2857142857142857
 40
0.2857142857142857
 40
0.2857142857142857
 40
0.2857142857142857
 40
0.4285714285714285
 40
0.4285714285714285
 40
0.4285714285714285
 40
0.4285714285714285
 40
0.5714285714285714
 40
0.5714285714285714
 40
0.5714285714285714
 40
0.5714285714285714
 40
0.7142857142857143
 40
0.7142857142857143
 40
0.7142857142857143
 40
0.7142857142857143
 40
1.0
 40
1.0
 40
1.0
 40
1.0
 10
6685.9624
 20
-6959.8371
 30
0.0
 10
6685.9624
 20
-6959.8371
 30
0.0
 10
6721.8284
 20
-6952.2253
 30
0.0
 10
6721.8284
 20
-6952.2253
 30
0.0
 10
6721.8284
 20
-6952.2253
 30
0.0
 10
6721.8284
 20
-6952.2253
 30
0.0
 10
6740.1034
 20
-6983.7814
 30
0.0
 10
6740.1034
 20
-6983.7814
 30
0.0
 10
6740.1034
 20
-6983.7814
 30
0.0
 10
6740.1034
 20
-6983.7814
 30
0.0
 10
6750.5366
 20
-6922.8357
 30
0.0
 10
6750.5366
 20
-6922.8357
 30
0.0
 10
6750.5366
 20
-6922.8357
 30
0.0
 10
6750.5366
 20
-6922.8357
 30
0.0
 10
6692.1395
 20
-6901.3299
 30
0.0
 10
6692.1395
 20
-6901.3299
 30
0.0
 10
6692.1395
 20
-6901.3299
 30
0.0
 10
6692.1395
 20
-6901.3299
 30
0.0
 10
6710.5372
 20
-6932.8157
 30
0.0
 10
6710.5372
 20
-6932.8157
 30
0.0
 10
6710.5372
 20
-6932.8157
 30
0.0
 10
6710.5372
 20
-6932.8157
 30
0.0
 10
6685.9624
 20
-6959.8371
 30
0.0
 10
6685.9624
 20
-6959.8371
 30
0.0
  0
SPLINE
  5
A7
330
1F
100
AcDbEntity
  8
Layer 1
 62
   250
370
    20
100
AcDbSpline
210
0.0
220
0.0
230
1.0
 70
    11
 71
     3
 72
    20
 73
    16
 74
     0
 42
0.0000000001
 43
0.0000000001
 12
1.0
 22
0.0
 32
0.0
 13
1.0
 23
0.0
 33
0.0
 40
0.0
 40
0.0
 40
0.0
 40
0.0
 40
0.2
 40
0.2
 40
0.2
 40
0.2
 40
0.4
 40
0.4
 40
0.4
 40
0.4
 40
0.6
 40
0.6
 40
0.6
 40
0.6
 40
1.0
 40
1.0
 40
1.0
 40
1.0
 10
6623.0038
 20
-6973.3457
 30
0.0
 10
6623.0038
 20
-6973.3457
 30
0.0
 10
6623.0038
 20
-7005.172
 30
0.0
 10
6623.0038
 20
-7005.172
 30
0.0
 10
6623.0038
 20
-7005.172
 30
0.0
 10
6623.0038
 20
-7005.172
 30
0.0
 10
6639.6952
 20
-7010.4835
 30
0.0
 10
6639.6952
 20
-7010.4835
 30
0.0
 10
6639.6952
 20
-7010.4835
 30
0.0
 10
6639.6952
 20
-7010.4835
 30
0.0
 10
6685.89
 20
-6959.8785
 30
0.0
 10
6685.89
 20
-6959.8785
 30
0.0
 10
6685.89
 20
-6959.8785
 30
0.0
 10
6685.89
 20
-6959.8785
 30
0.0
 10
6623.0038
 20
-6973.3457
 30
0.0
 10
6623.0038
 20
-6973.3457
 30
0.0
  0
SPLINE
  5
A8
330
1F
100
AcDbEntity
  8
Layer 1
 62
   250
370
    20
100
AcDbSpline
210
0.0
220
0.0
230
1.0
 70
    11
 71
     3
 72
    28
 73
    24
 74
     0
 42
0.0000000001
 43
0.0000000001
 12
1.0
 22
0.0
 32
0.0
 13
1.0
 23
0.0
 33
0.0
 40
0.0
 40
0.0
 40
0.0
 40
0.0
 40
0.1428571428571428
 40
0.1428571428571428
 40
0.1428571428571428
 40
0.1428571428571428
 40
0.2857142857142857
 40
0.2857142857142857
 40
0.2857142857142857
 40
0.2857142857142857
 40
0.4285714285714285
 40
0.4285714285714285
 40
0.4285714285714285
 40
0.4285714285714285
 40
0.5714285714285714
 40
0.5714285714285714
 40
0.5714285714285714
 40
0.5714285714285714
 40
0.7142857142857143
 40
0.7142857142857143
 40
0.7142857142857143
 40
0.7142857142857143
 40
1.0
 40
1.0
 40
1.0
 40
1.0
 10
6685.962
 20
-7103.2412
 30
0.0
 10
6685.962
 20
-7103.2412
 30
0.0
 10
6710.5371
 20
-7130.263
 30
0.0
 10
6710.5371
 20
-7130.263
 30
0.0
 10
6710.5371
 20
-7130.263
 30
0.0
 10
6710.5371
 20
-7130.263
 30
0.0
 10
6692.1395
 20
-7161.7487
 30
0.0
 10
6692.1395
 20
-7161.7487
 30
0.0
 10
6692.1395
 20
-7161.7487
 30
0.0
 10
6692.1395
 20
-7161.7487
 30
0.0
 10
6750.5366
 20
-7140.2432
 30
0.0
 10
6750.5366
 20
-7140.2432
 30
0.0
 10
6750.5366
 20
-7140.2432
 30
0.0
 10
6750.5366
 20
-7140.2432
 30
0.0
 10
6740.1034
 20
-7079.2972
 30
0.0
 10
6740.1034
 20
-7079.2972
 30
0.0
 10
6740.1034
 20
-7079.2972
 30
0.0
 10
6740.1034
 20
-7079.2972
 30
0.0
 10
6721.8279
 20
-7110.8531
 30
0.0
 10
6721.8279
 20
-7110.8531
 30
0.0
 10
6721.8279
 20
-7110.8531
 30
0.0
 10
6721.8279
 20
-7110.8531
 30
0.0
 10
6685.962
 20
-7103.2412
 30
0.0
 10
6685.962
 20
-7103.2412
 30
0.0
  0
SPLINE
  5
A9
330
1F
100
AcDbEntity
  8
Layer 1
 62
   250
370
    20
100
AcDbSpline
210
0.0
220
0.0
230
1.0
 70
    11
 71
     3
 72
    20
 73
    16
 74
     0
 42
0.0000000001
 43
0.0000000001
 12
1.0
 22
0.0
 32
0.0
 13
1.0
 23
0.0
 33
0.0
 40
0.0
 40
0.0
 40
0.0
 40
0.0
 40
0.2
 40
0.2
 40
0.2
 40
0.2
 40
0.4
 40
0.4
 40
0.4
 40
0.4
 40
0.6
 40
0.6
 40
0.6
 40
0.6
 40
1.0
 40
1.0
 40
1.0
 40
1.0
 10
6623.0038
 20
-7057.9063
 30
0.0
 10
6623.0038
 20
-7057.9063
 30
0.0
 10
6623.0038
 20
-7089.733
 30
0.0
 10
6623.0038
 20
-7089.733
 30
0.0
 10
6623.0038
 20
-7089.733
 30
0.0
 10
6623.0038
 20
-7089.733
 30
0.0
 10
6685.8899
 20
-7103.2
 30
0.0
 10
6685.8899
 20
-7103.2
 30
0.0
 10
6685.8899
 20
-7103.2
 30
0.0
 10
6685.8899
 20
-7103.2
 30
0.0
 10
6639.6949
 20
-7052.5949
 30
0.0
 10
6639.6949
 20
-7052.5949
 30
0.0
 10
6639.6949
 20
-7052.5949
 30
0.0
 10
6639.6949
 20
-7052.5949
 30
0.0
 10
6623.0038
 20
-7057.9063
 30
0.0
 10
6623.0038
 20
-7057.9063
 30
0.0
  0
SPLINE
  5
AA
330
1F
100
AcDbEntity
  8
Layer 1
 62
   250
370
    20
100
AcDbSpline
210
0.0
220
0.0
230
1.0
 70
    11
 71
     3
 72
    20
 73
    16
 74
     0
 42
0.0000000001
 43
0.0000000001
 12
1.0
 22
0.0
 32
0.0
 13
1.0
 23
0.0
 33
0.0
 40
0.0
 40
0.0
 40
0.0
 40
0.0
 40
0.2
 40
0.2
 40
0.2
 40
0.2
 40
0.4
 40
0.4
 40
0.4
 40
0.4
 40
0.6
 40
0.6
 40
0.6
 40
0.6
 40
1.0
 40
1.0
 40
1.0
 40
1.0
 10
6868.1127
 20
-7124.9527
 30
0.0
 10
6868.1127
 20
-7124.9527
 30
0.0
 10
6919.1735
 20
-7170.7592
 30
0.0
 10
6919.1735
 20
-7170.7592
 30
0.0
 10
6919.1735
 20
-7170.7592
 30
0.0
 10
6919.1735
 20
-7170.7592
 30
0.0
 10
6910.4188
 20
-7197.6774
 30
0.0
 10
6910.4188
 20
-7197.6774
 30
0.0
 10
6910.4188
 20
-7197.6774
 30
0.0
 10
6910.4188
 20
-7197.6774
 30
0.0
 10
6882.5527
 20
-7191.743
 30
0.0
 10
6882.5527
 20
-7191.743
 30
0.0
 10
6882.5527
 20
-7191.743
 30
0.0
 10
6882.5527
 20
-7191.743
 30
0.0
 10
6868.1127
 20
-7124.9527
 30
0.0
 10
6868.1127
 20
-7124.9527
 30
0.0
  0
SPLINE
  5
AB
330
1F
100
AcDbEntity
  8
Layer 1
 62
   250
370
    20
100
AcDbSpline
210
0.0
220
0.0
230
1.0
 70
    11
 71
     3
 72
    44
 73
    40
 74
     0
 42
0.0000000001
 43
0.0000000001
 12
1.0
 22
0.0
 32
0.0
 13
1.0
 23
0.0
 33
0.0
 40
0.0
 40
0.0
 40
0.0
 40
0.0
 40
0.0909090909090909
 40
0.0909090909090909
 40
0.0909090909090909
 40
0.0909090909090909
 40
0.1818181818181818
 40
0.1818181818181818
 40
0.1818181818181818
 40
0.1818181818181818
 40
0.2727272727272727
 40
0.2727272727272727
 40
0.2727272727272727
 40
0.2727272727272727
 40
0.3636363636363636
 40
0.3636363636363636
 40
0.3636363636363636
 40
0.3636363636363636
 40
0.4545454545454545
 40
0.4545454545454545
 40
0.4545454545454545
 40
0.4545454545454545
 40
0.5454545454545454
 40
0.5454545454545454
 40
0.5454545454545454
 40
0.5454545454545454
 40
0.6363636363636364
 40
0.6363636363636364
 40
0.6363636363636364
 40
0.6363636363636364
 40
0.7272727272727273
 40
0.7272727272727273
 40
0.7272727272727273
 40
0.7272727272727273
 40
0.8181818181818182
 40
0.8181818181818182
 40
0.8181818181818182
 40
0.8181818181818182
 40
1.0
 40
1.0
 40
1.0
 40
1.0
 10
6868.1126
 20
-7124.9526
 30
0.0
 10
6868.1126
 20
-7124.9526
 30
0.0
 10
6840.845
 20
-7100.4906
 30
0.0
 10
6840.845
 20
-7100.4906
 30
0.0
 10
6840.845
 20
-7100.4906
 30
0.0
 10
6840.845
 20
-7100.4906
 30
0.0
 10
6809.0488
 20
-7118.7913
 30
0.0
 10
6809.0488
 20
-7118.7913
 30
0.0
 10
6809.0488
 20
-7118.7913
 30
0.0
 10
6809.0488
 20
-7118.7913
 30
0.0
 10
6824.0632
 20
-7085.4939
 30
0.0
 10
6824.0632
 20
-7085.4939
 30
0.0
 10
6824.0632
 20
-7085.4939
 30
0.0
 10
6824.0632
 20
-7085.4939
 30
0.0
 10
6796.7009
 20
-7061.1366
 30
0.0
 10
6796.7009
 20
-7061.1366
 30
0.0
 10
6796.7009
 20
-7061.1366
 30
0.0
 10
6796.7009
 20
-7061.1366
 30
0.0
 10
6833.2482
 20
-7065.0191
 30
0.0
 10
6833.2482
 20
-7065.0191
 30
0.0
 10
6833.2482
 20
-7065.0191
 30
0.0
 10
6833.2482
 20
-7065.0191
 30
0.0
 10
6848.1338
 20
-7031.6651
 30
0.0
 10
6848.1338
 20
-7031.6651
 30
0.0
 10
6848.1338
 20
-7031.6651
 30
0.0
 10
6848.1338
 20
-7031.6651
 30
0.0
 10
6855.7066
 20
-7067.3622
 30
0.0
 10
6855.7066
 20
-7067.3622
 30
0.0
 10
6855.7066
 20
-7067.3622
 30
0.0
 10
6855.7066
 20
-7067.3622
 30
0.0
 10
6892.2687
 20
-7071.1055
 30
0.0
 10
6892.2687
 20
-7071.1055
 30
0.0
 10
6892.2687
 20
-7071.1055
 30
0.0
 10
6892.2687
 20
-7071.1055
 30
0.0
 10
6860.4016
 20
-7089.2844
 30
0.0
 10
6860.4016
 20
-7089.2844
 30
0.0
 10
6860.4016
 20
-7089.2844
 30
0.0
 10
6860.4016
 20
-7089.2844
 30
0.0
 10
6868.1126
 20
-7124.9526
 30
0.0
 10
6868.1126
 20
-7124.9526
 30
0.0
  0
SPLINE
  5
AC
330
1F
100
AcDbEntity
  8
Layer 1
 62
   250
370
    20
100
AcDbSpline
210
0.0
220
0.0
230
1.0
 70
    11
 71
     3
 72
    20
 73
    16
 74
     0
 42
0.0000000001
 43
0.0000000001
 12
1.0
 22
0.0
 32
0.0
 13
1.0
 23
0.0
 33
0.0
 40
0.0
 40
0.0
 40
0.0
 40
0.0
 40
0.2
 40
0.2
 40
0.2
 40
0.2
 40
0.4
 40
0.4
 40
0.4
 40
0.4
 40
0.6
 40
0.6
 40
0.6
 40
0.6
 40
1.0
 40
1.0
 40
1.0
 40
1.0
 10
7012.5201
 20
-7124.9527
 30
0.0
 10
7012.5201
 20
-7124.9527
 30
0.0
 10
6998.0804
 20
-7191.7431
 30
0.0
 10
6998.0804
 20
-7191.7431
 30
0.0
 10
6998.0804
 20
-7191.7431
 30
0.0
 10
6998.0804
 20
-7191.7431
 30
0.0
 10
6970.2143
 20
-7197.6776
 30
0.0
 10
6970.2143
 20
-7197.6776
 30
0.0
 10
6970.2143
 20
-7197.6776
 30
0.0
 10
6970.2143
 20
-7197.6776
 30
0.0
 10
6961.4597
 20
-7170.7591
 30
0.0
 10
6961.4597
 20
-7170.7591
 30
0.0
 10
6961.4597
 20
-7170.7591
 30
0.0
 10
6961.4597
 20
-7170.7591
 30
0.0
 10
7012.5201
 20
-7124.9527
 30
0.0
 10
7012.5201
 20
-7124.9527
 30
0.0
  0
SPLINE
  5
AD
330
1F
100
AcDbEntity
  8
Layer 1
 62
   250
370
    20
100
AcDbSpline
210
0.0
220
0.0
230
1.0
 70
    11
 71
     3
 72
    44
 73
    40
 74
     0
 42
0.0000000001
 43
0.0000000001
 12
1.0
 22
0.0
 32
0.0
 13
1.0
 23
0.0
 33
0.0
 40
0.0
 40
0.0
 40
0.0
 40
0.0
 40
0.0909090909090909
 40
0.0909090909090909
 40
0.0909090909090909
 40
0.0909090909090909
 40
0.1818181818181818
 40
0.1818181818181818
 40
0.1818181818181818
 40
0.1818181818181818
 40
0.2727272727272727
 40
0.2727272727272727
 40
0.2727272727272727
 40
0.2727272727272727
 40
0.3636363636363636
 40
0.3636363636363636
 40
0.3636363636363636
 40
0.3636363636363636
 40
0.4545454545454545
 40
0.4545454545454545
 40
0.4545454545454545
 40
0.4545454545454545
 40
0.5454545454545454
 40
0.5454545454545454
 40
0.5454545454545454
 40
0.5454545454545454
 40
0.6363636363636364
 40
0.6363636363636364
 40
0.6363636363636364
 40
0.6363636363636364
 40
0.7272727272727273
 40
0.7272727272727273
 40
0.7272727272727273
 40
0.7272727272727273
 40
0.8181818181818182
 40
0.8181818181818182
 40
0.8181818181818182
 40
0.8181818181818182
 40
1.0
 40
1.0
 40
1.0
 40
1.0
 10
7012.5201
 20
-7124.9526
 30
0.0
 10
7012.5201
 20
-7124.9526
 30
0.0
 10
7020.2311
 20
-7089.2844
 30
0.0
 10
7020.2311
 20
-7089.2844
 30
0.0
 10
7020.2311
 20
-7089.2844
 30
0.0
 10
7020.2311
 20
-7089.2844
 30
0.0
 10
6988.3642
 20
-7071.1054
 30
0.0
 10
6988.3642
 20
-7071.1054
 30
0.0
 10
6988.3642
 20
-7071.1054
 30
0.0
 10
6988.3642
 20
-7071.1054
 30
0.0
 10
7024.9263
 20
-7067.3622
 30
0.0
 10
7024.9263
 20
-7067.3622
 30
0.0
 10
7024.9263
 20
-7067.3622
 30
0.0
 10
7024.9263
 20
-7067.3622
 30
0.0
 10
7032.4992
 20
-7031.6651
 30
0.0
 10
7032.4992
 20
-7031.6651
 30
0.0
 10
7032.4992
 20
-7031.6651
 30
0.0
 10
7032.4992
 20
-7031.6651
 30
0.0
 10
7047.3847
 20
-7065.0192
 30
0.0
 10
7047.3847
 20
-7065.0192
 30
0.0
 10
7047.3847
 20
-7065.0192
 30
0.0
 10
7047.3847
 20
-7065.0192
 30
0.0
 10
7083.9319
 20
-7061.1366
 30
0.0
 10
7083.9319
 20
-7061.1366
 30
0.0
 10
7083.9319
 20
-7061.1366
 30
0.0
 10
7083.9319
 20
-7061.1366
 30
0.0
 10
7056.5697
 20
-7085.4939
 30
0.0
 10
7056.5697
 20
-7085.4939
 30
0.0
 10
7056.5697
 20
-7085.4939
 30
0.0
 10
7056.5697
 20
-7085.4939
 30
0.0
 10
7071.5842
 20
-7118.7913
 30
0.0
 10
7071.5842
 20
-7118.7913
 30
0.0
 10
7071.5842
 20
-7118.7913
 30
0.0
 10
7071.5842
 20
-7118.7913
 30
0.0
 10
7039.7878
 20
-7100.4906
 30
0.0
 10
7039.7878
 20
-7100.4906
 30
0.0
 10
7039.7878
 20
-7100.4906
 30
0.0
 10
7039.7878
 20
-7100.4906
 30
0.0
 10
7012.5201
 20
-7124.9526
 30
0.0
 10
7012.5201
 20
-7124.9526
 30
0.0
  0
SPLINE
  5
AE
330
1F
100
AcDbEntity
  8
Layer 1
 62
   250
370
    20
100
AcDbSpline
210
0.0
220
0.0
230
1.0
 70
    11
 71
     3
 72
    16
 73
    12
 74
     0
 42
0.0000000001
 43
0.0000000001
 12
1.0
 22
0.0
 32
0.0
 13
1.0
 23
0.0
 33
0.0
 40
0.0
 40
0.0
 40
0.0
 40
0.0
 40
0.25
 40
0.25
 40
0.25
 40
0.25
 40
0.5
 40
0.5
 40
0.5
 40
0.5
 40
1.0
 40
1.0
 40
1.0
 40
1.0
 10
6795.9096
 20
-7249.0725
 30
0.0
 10
6795.9096
 20
-7249.0725
 30
0.0
 10
6880.5205
 20
-7249.0725
 30
0.0
 10
6880.5205
 20
-7249.0725
 30
0.0
 10
6880.5205
 20
-7249.0725
 30
0.0
 10
6880.5205
 20
-7249.0725
 30
0.0
 10
6861.4095
 20
-7228.0886
 30
0.0
 10
6861.4095
 20
-7228.0886
 30
0.0
 10
6861.4095
 20
-7228.0886
 30
0.0
 10
6861.4095
 20
-7228.0886
 30
0.0
 10
6795.9096
 20
-7249.0725
 30
0.0
 10
6795.9096
 20
-7249.0725
 30
0.0
  0
SPLINE
  5
AF
330
1F
100
AcDbEntity
  8
Layer 1
 62
   250
370
    20
100
AcDbSpline
210
0.0
220
0.0
230
1.0
 70
    11
 71
     3
 72
    28
 73
    24
 74
     0
 42
0.0000000001
 43
0.0000000001
 12
1.0
 22
0.0
 32
0.0
 13
1.0
 23
0.0
 33
0.0
 40
0.0
 40
0.0
 40
0.0
 40
0.0
 40
0.1428571428571428
 40
0.1428571428571428
 40
0.1428571428571428
 40
0.1428571428571428
 40
0.2857142857142857
 40
0.2857142857142857
 40
0.2857142857142857
 40
0.2857142857142857
 40
0.4285714285714285
 40
0.4285714285714285
 40
0.4285714285714285
 40
0.4285714285714285
 40
0.5714285714285714
 40
0.5714285714285714
 40
0.5714285714285714
 40
0.5714285714285714
 40
0.7142857142857143
 40
0.7142857142857143
 40
0.7142857142857143
 40
0.7142857142857143
 40
1.0
 40
1.0
 40
1.0
 40
1.0
 10
6726.1796
 20
-7249.0725
 30
0.0
 10
6726.1796
 20
-7249.0725
 30
0.0
 10
6795.9088
 20
-7249.0725
 30
0.0
 10
6795.9088
 20
-7249.0725
 30
0.0
 10
6795.9088
 20
-7249.0725
 30
0.0
 10
6795.9088
 20
-7249.0725
 30
0.0
 10
6760.9301
 20
-7237.8664
 30
0.0
 10
6760.9301
 20
-7237.8664
 30
0.0
 10
6760.9301
 20
-7237.8664
 30
0.0
 10
6760.9301
 20
-7237.8664
 30
0.0
 10
6761.0008
 20
-7201.3866
 30
0.0
 10
6761.0008
 20
-7201.3866
 30
0.0
 10
6761.0008
 20
-7201.3866
 30
0.0
 10
6761.0008
 20
-7201.3866
 30
0.0
 10
6739.4535
 20
-7230.9409
 30
0.0
 10
6739.4535
 20
-7230.9409
 30
0.0
 10
6739.4535
 20
-7230.9409
 30
0.0
 10
6739.4535
 20
-7230.9409
 30
0.0
 10
6704.5182
 20
-7219.601
 30
0.0
 10
6704.5182
 20
-7219.601
 30
0.0
 10
6704.5182
 20
-7219.601
 30
0.0
 10
6704.5182
 20
-7219.601
 30
0.0
 10
6726.1796
 20
-7249.0725
 30
0.0
 10
6726.1796
 20
-7249.0725
 30
0.0
  0
SPLINE
  5
B0
330
1F
100
AcDbEntity
  8
Layer 1
 62
   250
370
    20
100
AcDbSpline
210
0.0
220
0.0
230
1.0
 70
    11
 71
     3
 72
    16
 73
    12
 74
     0
 42
0.0000000001
 43
0.0000000001
 12
1.0
 22
0.0
 32
0.0
 13
1.0
 23
0.0
 33
0.0
 40
0.0
 40
0.0
 40
0.0
 40
0.0
 40
0.25
 40
0.25
 40
0.25
 40
0.25
 40
0.5
 40
0.5
 40
0.5
 40
0.5
 40
1.0
 40
1.0
 40
1.0
 40
1.0
 10
7000.1125
 20
-7249.0725
 30
0.0
 10
7000.1125
 20
-7249.0725
 30
0.0
 10
7084.7234
 20
-7249.0725
 30
0.0
 10
7084.7234
 20
-7249.0725
 30
0.0
 10
7084.7234
 20
-7249.0725
 30
0.0
 10
7084.7234
 20
-7249.0725
 30
0.0
 10
7019.2234
 20
-7228.0886
 30
0.0
 10
7019.2234
 20
-7228.0886
 30
0.0
 10
7019.2234
 20
-7228.0886
 30
0.0
 10
7019.2234
 20
-7228.0886
 30
0.0
 10
7000.1125
 20
-7249.0725
 30
0.0
 10
7000.1125
 20
-7249.0725
 30
0.0
  0
SPLINE
  5
B1
330
1F
100
AcDbEntity
  8
Layer 1
 62
   250
370
    20
100
AcDbSpline
210
0.0
220
0.0
230
1.0
 70
    11
 71
     3
 72
    28
 73
    24
 74
     0
 42
0.0000000001
 43
0.0000000001
 12
1.0
 22
0.0
 32
0.0
 13
1.0
 23
0.0
 33
0.0
 40
0.0
 40
0.0
 40
0.0
 40
0.0
 40
0.1428571428571428
 40
0.1428571428571428
 40
0.1428571428571428
 40
0.1428571428571428
 40
0.2857142857142857
 40
0.2857142857142857
 40
0.2857142857142857
 40
0.2857142857142857
 40
0.4285714285714285
 40
0.4285714285714285
 40
0.4285714285714285
 40
0.4285714285714285
 40
0.5714285714285714
 40
0.5714285714285714
 40
0.5714285714285714
 40
0.5714285714285714
 40
0.7142857142857143
 40
0.7142857142857143
 40
0.7142857142857143
 40
0.7142857142857143
 40
1.0
 40
1.0
 40
1.0
 40
1.0
 10
7084.7238
 20
-7249.0725
 30
0.0
 10
7084.7238
 20
-7249.0725
 30
0.0
 10
7154.4532
 20
-7249.0725
 30
0.0
 10
7154.4532
 20
-7249.0725
 30
0.0
 10
7154.4532
 20
-7249.0725
 30
0.0
 10
7154.4532
 20
-7249.0725
 30
0.0
 10
7176.1147
 20
-7219.601
 30
0.0
 10
7176.1147
 20
-7219.601
 30
0.0
 10
7176.1147
 20
-7219.601
 30
0.0
 10
7176.1147
 20
-7219.601
 30
0.0
 10
7141.1795
 20
-7230.9409
 30
0.0
 10
7141.1795
 20
-7230.9409
 30
0.0
 10
7141.1795
 20
-7230.9409
 30
0.0
 10
7141.1795
 20
-7230.9409
 30
0.0
 10
7119.632
 20
-7201.3867
 30
0.0
 10
7119.632
 20
-7201.3867
 30
0.0
 10
7119.632
 20
-7201.3867
 30
0.0
 10
7119.632
 20
-7201.3867
 30
0.0
 10
7119.7026
 20
-7237.8668
 30
0.0
 10
7119.7026
 20
-7237.8668
 30
0.0
 10
7119.7026
 20
-7237.8668
 30
0.0
 10
7119.7026
 20
-7237.8668
 30
0.0
 10
7084.7238
 20
-7249.0725
 30
0.0
 10
7084.7238
 20
-7249.0725
 30
0.0
  0
SPLINE
  5
B2
330
1F
100
AcDbEntity
  8
Layer 1
 62
   250
370
    20
100
AcDbSpline
210
0.0
220
0.0
230
1.0
 70
    11
 71
     3
 72
    28
 73
    24
 74
     0
 42
0.0000000001
 43
0.0000000001
 12
1.0
 22
0.0
 32
0.0
 13
1.0
 23
0.0
 33
0.0
 40
0.0
 40
0.0
 40
0.0
 40
0.0
 40
0.1428571428571428
 40
0.1428571428571428
 40
0.1428571428571428
 40
0.1428571428571428
 40
0.2857142857142857
 40
0.2857142857142857
 40
0.2857142857142857
 40
0.2857142857142857
 40
0.4285714285714285
 40
0.4285714285714285
 40
0.4285714285714285
 40
0.4285714285714285
 40
0.5714285714285714
 40
0.5714285714285714
 40
0.5714285714285714
 40
0.5714285714285714
 40
0.7142857142857143
 40
0.7142857142857143
 40
0.7142857142857143
 40
0.7142857142857143
 40
1.0
 40
1.0
 40
1.0
 40
1.0
 10
7065.449
 20
-7177.3706
 30
0.0
 10
7065.449
 20
-7177.3706
 30
0.0
 10
7090.024
 20
-7150.349
 30
0.0
 10
7090.024
 20
-7150.349
 30
0.0
 10
7090.024
 20
-7150.349
 30
0.0
 10
7090.024
 20
-7150.349
 30
0.0
 10
7071.6264
 20
-7118.8633
 30
0.0
 10
7071.6264
 20
-7118.8633
 30
0.0
 10
7071.6264
 20
-7118.8633
 30
0.0
 10
7071.6264
 20
-7118.8633
 30
0.0
 10
7130.0233
 20
-7140.3688
 30
0.0
 10
7130.0233
 20
-7140.3688
 30
0.0
 10
7130.0233
 20
-7140.3688
 30
0.0
 10
7130.0233
 20
-7140.3688
 30
0.0
 10
7119.5901
 20
-7201.3147
 30
0.0
 10
7119.5901
 20
-7201.3147
 30
0.0
 10
7119.5901
 20
-7201.3147
 30
0.0
 10
7119.5901
 20
-7201.3147
 30
0.0
 10
7101.3149
 20
-7169.7588
 30
0.0
 10
7101.3149
 20
-7169.7588
 30
0.0
 10
7101.3149
 20
-7169.7588
 30
0.0
 10
7101.3149
 20
-7169.7588
 30
0.0
 10
7065.449
 20
-7177.3706
 30
0.0
 10
7065.449
 20
-7177.3706
 30
0.0
  0
SPLINE
  5
B3
330
1F
100
AcDbEntity
  8
Layer 1
 62
   250
370
    20
100
AcDbSpline
210
0.0
220
0.0
230
1.0
 70
    11
 71
     3
 72
    20
 73
    16
 74
     0
 42
0.0000000001
 43
0.0000000001
 12
1.0
 22
0.0
 32
0.0
 13
1.0
 23
0.0
 33
0.0
 40
0.0
 40
0.0
 40
0.0
 40
0.0
 40
0.2
 40
0.2
 40
0.2
 40
0.2
 40
0.4
 40
0.4
 40
0.4
 40
0.4
 40
0.6
 40
0.6
 40
0.6
 40
0.6
 40
1.0
 40
1.0
 40
1.0
 40
1.0
 10
7065.3769
 20
-7177.4118
 30
0.0
 10
7065.3769
 20
-7177.4118
 30
0.0
 10
7019.1818
 20
-7228.0172
 30
0.0
 10
7019.1818
 20
-7228.0172
 30
0.0
 10
7019.1818
 20
-7228.0172
 30
0.0
 10
7019.1818
 20
-7228.0172
 30
0.0
 10
6992.1012
 20
-7219.3997
 30
0.0
 10
6992.1012
 20
-7219.3997
 30
0.0
 10
6992.1012
 20
-7219.3997
 30
0.0
 10
6992.1012
 20
-7219.3997
 30
0.0
 10
6998.1221
 20
-7191.8146
 30
0.0
 10
6998.1221
 20
-7191.8146
 30
0.0
 10
6998.1221
 20
-7191.8146
 30
0.0
 10
6998.1221
 20
-7191.8146
 30
0.0
 10
7065.3769
 20
-7177.4118
 30
0.0
 10
7065.3769
 20
-7177.4118
 30
0.0
  0
SPLINE
  5
B4
330
1F
100
AcDbEntity
  8
Layer 1
 62
   250
370
    20
100
AcDbSpline
210
0.0
220
0.0
230
1.0
 70
    11
 71
     3
 72
    28
 73
    24
 74
     0
 42
0.0000000001
 43
0.0000000001
 12
1.0
 22
0.0
 32
0.0
 13
1.0
 23
0.0
 33
0.0
 40
0.0
 40
0.0
 40
0.0
 40
0.0
 40
0.1428571428571428
 40
0.1428571428571428
 40
0.1428571428571428
 40
0.1428571428571428
 40
0.2857142857142857
 40
0.2857142857142857
 40
0.2857142857142857
 40
0.2857142857142857
 40
0.4285714285714285
 40
0.4285714285714285
 40
0.4285714285714285
 40
0.4285714285714285
 40
0.5714285714285714
 40
0.5714285714285714
 40
0.5714285714285714
 40
0.5714285714285714
 40
0.7142857142857143
 40
0.7142857142857143
 40
0.7142857142857143
 40
0.7142857142857143
 40
1.0
 40
1.0
 40
1.0
 40
1.0
 10
6940.3166
 20
-7105.6684
 30
0.0
 10
6940.3166
 20
-7105.6684
 30
0.0
 10
6929.0256
 20
-7071.0352
 30
0.0
 10
6929.0256
 20
-7071.0352
 30
0.0
 10
6929.0256
 20
-7071.0352
 30
0.0
 10
6929.0256
 20
-7071.0352
 30
0.0
 10
6892.3525
 20
-7071.1054
 30
0.0
 10
6892.3525
 20
-7071.1054
 30
0.0
 10
6892.3525
 20
-7071.1054
 30
0.0
 10
6892.3525
 20
-7071.1054
 30
0.0
 10
6940.3165
 20
-7031.6651
 30
0.0
 10
6940.3165
 20
-7031.6651
 30
0.0
 10
6940.3165
 20
-7031.6651
 30
0.0
 10
6940.3165
 20
-7031.6651
 30
0.0
 10
6988.2803
 20
-7071.1053
 30
0.0
 10
6988.2803
 20
-7071.1053
 30
0.0
 10
6988.2803
 20
-7071.1053
 30
0.0
 10
6988.2803
 20
-7071.1053
 30
0.0
 10
6951.6077
 20
-7071.0352
 30
0.0
 10
6951.6077
 20
-7071.0352
 30
0.0
 10
6951.6077
 20
-7071.0352
 30
0.0
 10
6951.6077
 20
-7071.0352
 30
0.0
 10
6940.3166
 20
-7105.6684
 30
0.0
 10
6940.3166
 20
-7105.6684
 30
0.0
  0
SPLINE
  5
B5
330
1F
100
AcDbEntity
  8
Layer 1
 62
   250
370
    20
100
AcDbSpline
210
0.0
220
0.0
230
1.0
 70
    11
 71
     3
 72
    20
 73
    16
 74
     0
 42
0.0000000001
 43
0.0000000001
 12
1.0
 22
0.0
 32
0.0
 13
1.0
 23
0.0
 33
0.0
 40
0.0
 40
0.0
 40
0.0
 40
0.0
 40
0.2
 40
0.2
 40
0.2
 40
0.2
 40
0.4
 40
0.4
 40
0.4
 40
0.4
 40
0.6
 40
0.6
 40
0.6
 40
0.6
 40
1.0
 40
1.0
 40
1.0
 40
1.0
 10
6940.3165
 20
-7105.7511
 30
0.0
 10
6940.3165
 20
-7105.7511
 30
0.0
 10
6961.3763
 20
-7170.7592
 30
0.0
 10
6961.3763
 20
-7170.7592
 30
0.0
 10
6961.3763
 20
-7170.7592
 30
0.0
 10
6961.3763
 20
-7170.7592
 30
0.0
 10
6940.3166
 20
-7189.7264
 30
0.0
 10
6940.3166
 20
-7189.7264
 30
0.0
 10
6940.3166
 20
-7189.7264
 30
0.0
 10
6940.3166
 20
-7189.7264
 30
0.0
 10
6919.2568
 20
-7170.7592
 30
0.0
 10
6919.2568
 20
-7170.7592
 30
0.0
 10
6919.2568
 20
-7170.7592
 30
0.0
 10
6919.2568
 20
-7170.7592
 30
0.0
 10
6940.3165
 20
-7105.7511
 30
0.0
 10
6940.3165
 20
-7105.7511
 30
0.0
  0
SPLINE
  5
B6
330
1F
100
AcDbEntity
  8
Layer 1
 62
   250
370
    20
100
AcDbSpline
210
0.0
220
0.0
230
1.0
 70
    11
 71
     3
 72
    28
 73
    24
 74
     0
 42
0.0000000001
 43
0.0000000001
 12
1.0
 22
0.0
 32
0.0
 13
1.0
 23
0.0
 33
0.0
 40
0.0
 40
0.0
 40
0.0
 40
0.0
 40
0.1428571428571428
 40
0.1428571428571428
 40
0.1428571428571428
 40
0.1428571428571428
 40
0.2857142857142857
 40
0.2857142857142857
 40
0.2857142857142857
 40
0.2857142857142857
 40
0.4285714285714285
 40
0.4285714285714285
 40
0.4285714285714285
 40
0.4285714285714285
 40
0.5714285714285714
 40
0.5714285714285714
 40
0.5714285714285714
 40
0.5714285714285714
 40
0.7142857142857143
 40
0.7142857142857143
 40
0.7142857142857143
 40
0.7142857142857143
 40
1.0
 40
1.0
 40
1.0
 40
1.0
 10
6815.1839
 20
-7177.3707
 30
0.0
 10
6815.1839
 20
-7177.3707
 30
0.0
 10
6779.3182
 20
-7169.7588
 30
0.0
 10
6779.3182
 20
-7169.7588
 30
0.0
 10
6779.3182
 20
-7169.7588
 30
0.0
 10
6779.3182
 20
-7169.7588
 30
0.0
 10
6761.0428
 20
-7201.3147
 30
0.0
 10
6761.0428
 20
-7201.3147
 30
0.0
 10
6761.0428
 20
-7201.3147
 30
0.0
 10
6761.0428
 20
-7201.3147
 30
0.0
 10
6750.6097
 20
-7140.3688
 30
0.0
 10
6750.6097
 20
-7140.3688
 30
0.0
 10
6750.6097
 20
-7140.3688
 30
0.0
 10
6750.6097
 20
-7140.3688
 30
0.0
 10
6809.0064
 20
-7118.8634
 30
0.0
 10
6809.0064
 20
-7118.8634
 30
0.0
 10
6809.0064
 20
-7118.8634
 30
0.0
 10
6809.0064
 20
-7118.8634
 30
0.0
 10
6790.609
 20
-7150.349
 30
0.0
 10
6790.609
 20
-7150.349
 30
0.0
 10
6790.609
 20
-7150.349
 30
0.0
 10
6790.609
 20
-7150.349
 30
0.0
 10
6815.1839
 20
-7177.3707
 30
0.0
 10
6815.1839
 20
-7177.3707
 30
0.0
  0
SPLINE
  5
B7
330
1F
100
AcDbEntity
  8
Layer 1
 62
   250
370
    20
100
AcDbSpline
210
0.0
220
0.0
230
1.0
 70
    11
 71
     3
 72
    20
 73
    16
 74
     0
 42
0.0000000001
 43
0.0000000001
 12
1.0
 22
0.0
 32
0.0
 13
1.0
 23
0.0
 33
0.0
 40
0.0
 40
0.0
 40
0.0
 40
0.0
 40
0.2
 40
0.2
 40
0.2
 40
0.2
 40
0.4
 40
0.4
 40
0.4
 40
0.4
 40
0.6
 40
0.6
 40
0.6
 40
0.6
 40
1.0
 40
1.0
 40
1.0
 40
1.0
 10
6815.2563
 20
-7177.4118
 30
0.0
 10
6815.2563
 20
-7177.4118
 30
0.0
 10
6882.5112
 20
-7191.8146
 30
0.0
 10
6882.5112
 20
-7191.8146
 30
0.0
 10
6882.5112
 20
-7191.8146
 30
0.0
 10
6882.5112
 20
-7191.8146
 30
0.0
 10
6888.532
 20
-7219.3996
 30
0.0
 10
6888.532
 20
-7219.3996
 30
0.0
 10
6888.532
 20
-7219.3996
 30
0.0
 10
6888.532
 20
-7219.3996
 30
0.0
 10
6861.4511
 20
-7228.017
 30
0.0
 10
6861.4511
 20
-7228.017
 30
0.0
 10
6861.4511
 20
-7228.017
 30
0.0
 10
6861.4511
 20
-7228.017
 30
0.0
 10
6815.2563
 20
-7177.4118
 30
0.0
 10
6815.2563
 20
-7177.4118
 30
0.0
  0
SPLINE
  5
B8
330
1F
100
AcDbEntity
  8
Layer 1
 62
   250
370
    20
100
AcDbSpline
210
0.0
220
0.0
230
1.0
 70
    11
 71
     3
 72
    20
 73
    16
 74
     0
 42
0.0000000001
 43
0.0000000001
 12
1.0
 22
0.0
 32
0.0
 13
1.0
 23
0.0
 33
0.0
 40
0.0
 40
0.0
 40
0.0
 40
0.0
 40
0.2
 40
0.2
 40
0.2
 40
0.2
 40
0.4
 40
0.4
 40
0.4
 40
0.4
 40
0.6
 40
0.6
 40
0.6
 40
0.6
 40
1.0
 40
1.0
 40
1.0
 40
1.0
 10
7012.7534
 20
-6068.133
 30
0.0
 10
7012.7534
 20
-6068.133
 30
0.0
 10
6961.693
 20
-6022.3266
 30
0.0
 10
6961.693
 20
-6022.3266
 30
0.0
 10
6961.693
 20
-6022.3266
 30
0.0
 10
6961.693
 20
-6022.3266
 30
0.0
 10
6970.4476
 20
-5995.4082
 30
0.0
 10
6970.4476
 20
-5995.4082
 30
0.0
 10
6970.4476
 20
-5995.4082
 30
0.0
 10
6970.4476
 20
-5995.4082
 30
0.0
 10
6998.3137
 20
-6001.3426
 30
0.0
 10
6998.3137
 20
-6001.3426
 30
0.0
 10
6998.3137
 20
-6001.3426
 30
0.0
 10
6998.3137
 20
-6001.3426
 30
0.0
 10
7012.7534
 20
-6068.133
 30
0.0
 10
7012.7534
 20
-6068.133
 30
0.0
  0
SPLINE
  5
B9
330
1F
100
AcDbEntity
  8
Layer 1
 62
   250
370
    20
100
AcDbSpline
210
0.0
220
0.0
230
1.0
 70
    11
 71
     3
 72
    44
 73
    40
 74
     0
 42
0.0000000001
 43
0.0000000001
 12
1.0
 22
0.0
 32
0.0
 13
1.0
 23
0.0
 33
0.0
 40
0.0
 40
0.0
 40
0.0
 40
0.0
 40
0.0909090909090909
 40
0.0909090909090909
 40
0.0909090909090909
 40
0.0909090909090909
 40
0.1818181818181818
 40
0.1818181818181818
 40
0.1818181818181818
 40
0.1818181818181818
 40
0.2727272727272727
 40
0.2727272727272727
 40
0.2727272727272727
 40
0.2727272727272727
 40
0.3636363636363636
 40
0.3636363636363636
 40
0.3636363636363636
 40
0.3636363636363636
 40
0.4545454545454545
 40
0.4545454545454545
 40
0.4545454545454545
 40
0.4545454545454545
 40
0.5454545454545454
 40
0.5454545454545454
 40
0.5454545454545454
 40
0.5454545454545454
 40
0.6363636363636364
 40
0.6363636363636364
 40
0.6363636363636364
 40
0.6363636363636364
 40
0.7272727272727273
 40
0.7272727272727273
 40
0.7272727272727273
 40
0.7272727272727273
 40
0.8181818181818182
 40
0.8181818181818182
 40
0.8181818181818182
 40
0.8181818181818182
 40
1.0
 40
1.0
 40
1.0
 40
1.0
 10
7012.7537
 20
-6068.1333
 30
0.0
 10
7012.7537
 20
-6068.1333
 30
0.0
 10
7040.0214
 20
-6092.5949
 30
0.0
 10
7040.0214
 20
-6092.5949
 30
0.0
 10
7040.0214
 20
-6092.5949
 30
0.0
 10
7040.0214
 20
-6092.5949
 30
0.0
 10
7071.8178
 20
-6074.2943
 30
0.0
 10
7071.8178
 20
-6074.2943
 30
0.0
 10
7071.8178
 20
-6074.2943
 30
0.0
 10
7071.8178
 20
-6074.2943
 30
0.0
 10
7056.8031
 20
-6107.5916
 30
0.0
 10
7056.8031
 20
-6107.5916
 30
0.0
 10
7056.8031
 20
-6107.5916
 30
0.0
 10
7056.8031
 20
-6107.5916
 30
0.0
 10
7084.1655
 20
-6131.9492
 30
0.0
 10
7084.1655
 20
-6131.9492
 30
0.0
 10
7084.1655
 20
-6131.9492
 30
0.0
 10
7084.1655
 20
-6131.9492
 30
0.0
 10
7047.6183
 20
-6128.0665
 30
0.0
 10
7047.6183
 20
-6128.0665
 30
0.0
 10
7047.6183
 20
-6128.0665
 30
0.0
 10
7047.6183
 20
-6128.0665
 30
0.0
 10
7032.7326
 20
-6161.4206
 30
0.0
 10
7032.7326
 20
-6161.4206
 30
0.0
 10
7032.7326
 20
-6161.4206
 30
0.0
 10
7032.7326
 20
-6161.4206
 30
0.0
 10
7025.1597
 20
-6125.7238
 30
0.0
 10
7025.1597
 20
-6125.7238
 30
0.0
 10
7025.1597
 20
-6125.7238
 30
0.0
 10
7025.1597
 20
-6125.7238
 30
0.0
 10
6988.5975
 20
-6121.9802
 30
0.0
 10
6988.5975
 20
-6121.9802
 30
0.0
 10
6988.5975
 20
-6121.9802
 30
0.0
 10
6988.5975
 20
-6121.9802
 30
0.0
 10
7020.4647
 20
-6103.801
 30
0.0
 10
7020.4647
 20
-6103.801
 30
0.0
 10
7020.4647
 20
-6103.801
 30
0.0
 10
7020.4647
 20
-6103.801
 30
0.0
 10
7012.7537
 20
-6068.1333
 30
0.0
 10
7012.7537
 20
-6068.1333
 30
0.0
  0
SPLINE
  5
BA
330
1F
100
AcDbEntity
  8
Layer 1
 62
   250
370
    20
100
AcDbSpline
210
0.0
220
0.0
230
1.0
 70
    11
 71
     3
 72
    20
 73
    16
 74
     0
 42
0.0000000001
 43
0.0000000001
 12
1.0
 22
0.0
 32
0.0
 13
1.0
 23
0.0
 33
0.0
 40
0.0
 40
0.0
 40
0.0
 40
0.0
 40
0.2
 40
0.2
 40
0.2
 40
0.2
 40
0.4
 40
0.4
 40
0.4
 40
0.4
 40
0.6
 40
0.6
 40
0.6
 40
0.6
 40
1.0
 40
1.0
 40
1.0
 40
1.0
 10
6868.3461
 20
-6068.133
 30
0.0
 10
6868.3461
 20
-6068.133
 30
0.0
 10
6882.786
 20
-6001.3423
 30
0.0
 10
6882.786
 20
-6001.3423
 30
0.0
 10
6882.786
 20
-6001.3423
 30
0.0
 10
6882.786
 20
-6001.3423
 30
0.0
 10
6910.652
 20
-5995.4081
 30
0.0
 10
6910.652
 20
-5995.4081
 30
0.0
 10
6910.652
 20
-5995.4081
 30
0.0
 10
6910.652
 20
-5995.4081
 30
0.0
 10
6919.4066
 20
-6022.3267
 30
0.0
 10
6919.4066
 20
-6022.3267
 30
0.0
 10
6919.4066
 20
-6022.3267
 30
0.0
 10
6919.4066
 20
-6022.3267
 30
0.0
 10
6868.3461
 20
-6068.133
 30
0.0
 10
6868.3461
 20
-6068.133
 30
0.0
  0
SPLINE
  5
BB
330
1F
100
AcDbEntity
  8
Layer 1
 62
   250
370
    20
100
AcDbSpline
210
0.0
220
0.0
230
1.0
 70
    11
 71
     3
 72
    44
 73
    40
 74
     0
 42
0.0000000001
 43
0.0000000001
 12
1.0
 22
0.0
 32
0.0
 13
1.0
 23
0.0
 33
0.0
 40
0.0
 40
0.0
 40
0.0
 40
0.0
 40
0.0909090909090909
 40
0.0909090909090909
 40
0.0909090909090909
 40
0.0909090909090909
 40
0.1818181818181818
 40
0.1818181818181818
 40
0.1818181818181818
 40
0.1818181818181818
 40
0.2727272727272727
 40
0.2727272727272727
 40
0.2727272727272727
 40
0.2727272727272727
 40
0.3636363636363636
 40
0.3636363636363636
 40
0.3636363636363636
 40
0.3636363636363636
 40
0.4545454545454545
 40
0.4545454545454545
 40
0.4545454545454545
 40
0.4545454545454545
 40
0.5454545454545454
 40
0.5454545454545454
 40
0.5454545454545454
 40
0.5454545454545454
 40
0.6363636363636364
 40
0.6363636363636364
 40
0.6363636363636364
 40
0.6363636363636364
 40
0.7272727272727273
 40
0.7272727272727273
 40
0.7272727272727273
 40
0.7272727272727273
 40
0.8181818181818182
 40
0.8181818181818182
 40
0.8181818181818182
 40
0.8181818181818182
 40
1.0
 40
1.0
 40
1.0
 40
1.0
 10
6868.3461
 20
-6068.1333
 30
0.0
 10
6868.3461
 20
-6068.1333
 30
0.0
 10
6860.6352
 20
-6103.801
 30
0.0
 10
6860.6352
 20
-6103.801
 30
0.0
 10
6860.6352
 20
-6103.801
 30
0.0
 10
6860.6352
 20
-6103.801
 30
0.0
 10
6892.5022
 20
-6121.9803
 30
0.0
 10
6892.5022
 20
-6121.9803
 30
0.0
 10
6892.5022
 20
-6121.9803
 30
0.0
 10
6892.5022
 20
-6121.9803
 30
0.0
 10
6855.9401
 20
-6125.7238
 30
0.0
 10
6855.9401
 20
-6125.7238
 30
0.0
 10
6855.9401
 20
-6125.7238
 30
0.0
 10
6855.9401
 20
-6125.7238
 30
0.0
 10
6848.3672
 20
-6161.4206
 30
0.0
 10
6848.3672
 20
-6161.4206
 30
0.0
 10
6848.3672
 20
-6161.4206
 30
0.0
 10
6848.3672
 20
-6161.4206
 30
0.0
 10
6833.4815
 20
-6128.0662
 30
0.0
 10
6833.4815
 20
-6128.0662
 30
0.0
 10
6833.4815
 20
-6128.0662
 30
0.0
 10
6833.4815
 20
-6128.0662
 30
0.0
 10
6796.9343
 20
-6131.9492
 30
0.0
 10
6796.9343
 20
-6131.9492
 30
0.0
 10
6796.9343
 20
-6131.9492
 30
0.0
 10
6796.9343
 20
-6131.9492
 30
0.0
 10
6824.2967
 20
-6107.5916
 30
0.0
 10
6824.2967
 20
-6107.5916
 30
0.0
 10
6824.2967
 20
-6107.5916
 30
0.0
 10
6824.2967
 20
-6107.5916
 30
0.0
 10
6809.2819
 20
-6074.2943
 30
0.0
 10
6809.2819
 20
-6074.2943
 30
0.0
 10
6809.2819
 20
-6074.2943
 30
0.0
 10
6809.2819
 20
-6074.2943
 30
0.0
 10
6841.0785
 20
-6092.5949
 30
0.0
 10
6841.0785
 20
-6092.5949
 30
0.0
 10
6841.0785
 20
-6092.5949
 30
0.0
 10
6841.0785
 20
-6092.5949
 30
0.0
 10
6868.3461
 20
-6068.1333
 30
0.0
 10
6868.3461
 20
-6068.1333
 30
0.0
  0
SPLINE
  5
BC
330
1F
100
AcDbEntity
  8
Layer 1
 62
   250
370
    20
100
AcDbSpline
210
0.0
220
0.0
230
1.0
 70
    11
 71
     3
 72
    20
 73
    16
 74
     0
 42
0.0000000001
 43
0.0000000001
 12
1.0
 22
0.0
 32
0.0
 13
1.0
 23
0.0
 33
0.0
 40
0.0
 40
0.0
 40
0.0
 40
0.0
 40
0.2
 40
0.2
 40
0.2
 40
0.2
 40
0.4
 40
0.4
 40
0.4
 40
0.4
 40
0.6
 40
0.6
 40
0.6
 40
0.6
 40
1.0
 40
1.0
 40
1.0
 40
1.0
 10
6796.1426
 20
-5944.0128
 30
0.0
 10
6796.1426
 20
-5944.0128
 30
0.0
 10
6861.643
 20
-5923.029
 30
0.0
 10
6861.643
 20
-5923.029
 30
0.0
 10
6861.643
 20
-5923.029
 30
0.0
 10
6861.643
 20
-5923.029
 30
0.0
 10
6880.7541
 20
-5944.0128
 30
0.0
 10
6880.7541
 20
-5944.0128
 30
0.0
 10
6880.7541
 20
-5944.0128
 30
0.0
 10
6880.7541
 20
-5944.0128
 30
0.0
 10
6861.643
 20
-5964.9969
 30
0.0
 10
6861.643
 20
-5964.9969
 30
0.0
 10
6861.643
 20
-5964.9969
 30
0.0
 10
6861.643
 20
-5964.9969
 30
0.0
 10
6796.1426
 20
-5944.0128
 30
0.0
 10
6796.1426
 20
-5944.0128
 30
0.0
  0
SPLINE
  5
BD
330
1F
100
AcDbEntity
  8
Layer 1
 62
   250
370
    20
100
AcDbSpline
210
0.0
220
0.0
230
1.0
 70
    11
 71
     3
 72
    44
 73
    40
 74
     0
 42
0.0000000001
 43
0.0000000001
 12
1.0
 22
0.0
 32
0.0
 13
1.0
 23
0.0
 33
0.0
 40
0.0
 40
0.0
 40
0.0
 40
0.0
 40
0.0909090909090909
 40
0.0909090909090909
 40
0.0909090909090909
 40
0.0909090909090909
 40
0.1818181818181818
 40
0.1818181818181818
 40
0.1818181818181818
 40
0.1818181818181818
 40
0.2727272727272727
 40
0.2727272727272727
 40
0.2727272727272727
 40
0.2727272727272727
 40
0.3636363636363636
 40
0.3636363636363636
 40
0.3636363636363636
 40
0.3636363636363636
 40
0.4545454545454545
 40
0.4545454545454545
 40
0.4545454545454545
 40
0.4545454545454545
 40
0.5454545454545454
 40
0.5454545454545454
 40
0.5454545454545454
 40
0.5454545454545454
 40
0.6363636363636364
 40
0.6363636363636364
 40
0.6363636363636364
 40
0.6363636363636364
 40
0.7272727272727273
 40
0.7272727272727273
 40
0.7272727272727273
 40
0.7272727272727273
 40
0.8181818181818182
 40
0.8181818181818182
 40
0.8181818181818182
 40
0.8181818181818182
 40
1.0
 40
1.0
 40
1.0
 40
1.0
 10
6796.1426
 20
-5944.0128
 30
0.0
 10
6796.1426
 20
-5944.0128
 30
0.0
 10
6761.1637
 20
-5955.219
 30
0.0
 10
6761.1637
 20
-5955.219
 30
0.0
 10
6761.1637
 20
-5955.219
 30
0.0
 10
6761.1637
 20
-5955.219
 30
0.0
 10
6761.2343
 20
-5991.6988
 30
0.0
 10
6761.2343
 20
-5991.6988
 30
0.0
 10
6761.2343
 20
-5991.6988
 30
0.0
 10
6761.2343
 20
-5991.6988
 30
0.0
 10
6739.6868
 20
-5962.1449
 30
0.0
 10
6739.6868
 20
-5962.1449
 30
0.0
 10
6739.6868
 20
-5962.1449
 30
0.0
 10
6739.6868
 20
-5962.1449
 30
0.0
 10
6704.7516
 20
-5973.4844
 30
0.0
 10
6704.7516
 20
-5973.4844
 30
0.0
 10
6704.7516
 20
-5973.4844
 30
0.0
 10
6704.7516
 20
-5973.4844
 30
0.0
 10
6726.4131
 20
-5944.0128
 30
0.0
 10
6726.4131
 20
-5944.0128
 30
0.0
 10
6726.4131
 20
-5944.0128
 30
0.0
 10
6726.4131
 20
-5944.0128
 30
0.0
 10
6704.7516
 20
-5914.5415
 30
0.0
 10
6704.7516
 20
-5914.5415
 30
0.0
 10
6704.7516
 20
-5914.5415
 30
0.0
 10
6704.7516
 20
-5914.5415
 30
0.0
 10
6739.6868
 20
-5925.8812
 30
0.0
 10
6739.6868
 20
-5925.8812
 30
0.0
 10
6739.6868
 20
-5925.8812
 30
0.0
 10
6739.6868
 20
-5925.8812
 30
0.0
 10
6761.2343
 20
-5896.327
 30
0.0
 10
6761.2343
 20
-5896.327
 30
0.0
 10
6761.2343
 20
-5896.327
 30
0.0
 10
6761.2343
 20
-5896.327
 30
0.0
 10
6761.1636
 20
-5932.8067
 30
0.0
 10
6761.1636
 20
-5932.8067
 30
0.0
 10
6761.1636
 20
-5932.8067
 30
0.0
 10
6761.1636
 20
-5932.8067
 30
0.0
 10
6796.1426
 20
-5944.0128
 30
0.0
 10
6796.1426
 20
-5944.0128
 30
0.0
  0
SPLINE
  5
BE
330
1F
100
AcDbEntity
  8
Layer 1
 62
   250
370
    20
100
AcDbSpline
210
0.0
220
0.0
230
1.0
 70
    11
 71
     3
 72
    20
 73
    16
 74
     0
 42
0.0000000001
 43
0.0000000001
 12
1.0
 22
0.0
 32
0.0
 13
1.0
 23
0.0
 33
0.0
 40
0.0
 40
0.0
 40
0.0
 40
0.0
 40
0.2
 40
0.2
 40
0.2
 40
0.2
 40
0.4
 40
0.4
 40
0.4
 40
0.4
 40
0.6
 40
0.6
 40
0.6
 40
0.6
 40
1.0
 40
1.0
 40
1.0
 40
1.0
 10
6868.3461
 20
-5819.8929
 30
0.0
 10
6868.3461
 20
-5819.8929
 30
0.0
 10
6919.4066
 20
-5865.6994
 30
0.0
 10
6919.4066
 20
-5865.6994
 30
0.0
 10
6919.4066
 20
-5865.6994
 30
0.0
 10
6919.4066
 20
-5865.6994
 30
0.0
 10
6910.6521
 20
-5892.6175
 30
0.0
 10
6910.6521
 20
-5892.6175
 30
0.0
 10
6910.6521
 20
-5892.6175
 30
0.0
 10
6910.6521
 20
-5892.6175
 30
0.0
 10
6882.7861
 20
-5886.6834
 30
0.0
 10
6882.7861
 20
-5886.6834
 30
0.0
 10
6882.7861
 20
-5886.6834
 30
0.0
 10
6882.7861
 20
-5886.6834
 30
0.0
 10
6868.3461
 20
-5819.8929
 30
0.0
 10
6868.3461
 20
-5819.8929
 30
0.0
  0
SPLINE
  5
BF
330
1F
100
AcDbEntity
  8
Layer 1
 62
   250
370
    20
100
AcDbSpline
210
0.0
220
0.0
230
1.0
 70
    11
 71
     3
 72
    20
 73
    16
 74
     0
 42
0.0000000001
 43
0.0000000001
 12
1.0
 22
0.0
 32
0.0
 13
1.0
 23
0.0
 33
0.0
 40
0.0
 40
0.0
 40
0.0
 40
0.0
 40
0.2
 40
0.2
 40
0.2
 40
0.2
 40
0.4
 40
0.4
 40
0.4
 40
0.4
 40
0.6
 40
0.6
 40
0.6
 40
0.6
 40
1.0
 40
1.0
 40
1.0
 40
1.0
 10
7012.7534
 20
-5819.8929
 30
0.0
 10
7012.7534
 20
-5819.8929
 30
0.0
 10
6998.3139
 20
-5886.6835
 30
0.0
 10
6998.3139
 20
-5886.6835
 30
0.0
 10
6998.3139
 20
-5886.6835
 30
0.0
 10
6998.3139
 20
-5886.6835
 30
0.0
 10
6970.4479
 20
-5892.6179
 30
0.0
 10
6970.4479
 20
-5892.6179
 30
0.0
 10
6970.4479
 20
-5892.6179
 30
0.0
 10
6970.4479
 20
-5892.6179
 30
0.0
 10
6961.693
 20
-5865.6992
 30
0.0
 10
6961.693
 20
-5865.6992
 30
0.0
 10
6961.693
 20
-5865.6992
 30
0.0
 10
6961.693
 20
-5865.6992
 30
0.0
 10
7012.7534
 20
-5819.8929
 30
0.0
 10
7012.7534
 20
-5819.8929
 30
0.0
  0
SPLINE
  5
C0
330
1F
100
AcDbEntity
  8
Layer 1
 62
   250
370
    20
100
AcDbSpline
210
0.0
220
0.0
230
1.0
 70
    11
 71
     3
 72
    20
 73
    16
 74
     0
 42
0.0000000001
 43
0.0000000001
 12
1.0
 22
0.0
 32
0.0
 13
1.0
 23
0.0
 33
0.0
 40
0.0
 40
0.0
 40
0.0
 40
0.0
 40
0.2
 40
0.2
 40
0.2
 40
0.2
 40
0.4
 40
0.4
 40
0.4
 40
0.4
 40
0.6
 40
0.6
 40
0.6
 40
0.6
 40
1.0
 40
1.0
 40
1.0
 40
1.0
 10
7084.9571
 20
-5944.0128
 30
0.0
 10
7084.9571
 20
-5944.0128
 30
0.0
 10
7019.4568
 20
-5964.9969
 30
0.0
 10
7019.4568
 20
-5964.9969
 30
0.0
 10
7019.4568
 20
-5964.9969
 30
0.0
 10
7019.4568
 20
-5964.9969
 30
0.0
 10
7000.3457
 20
-5944.0131
 30
0.0
 10
7000.3457
 20
-5944.0131
 30
0.0
 10
7000.3457
 20
-5944.0131
 30
0.0
 10
7000.3457
 20
-5944.0131
 30
0.0
 10
7019.4566
 20
-5923.029
 30
0.0
 10
7019.4566
 20
-5923.029
 30
0.0
 10
7019.4566
 20
-5923.029
 30
0.0
 10
7019.4566
 20
-5923.029
 30
0.0
 10
7084.9571
 20
-5944.0128
 30
0.0
 10
7084.9571
 20
-5944.0128
 30
0.0
  0
SPLINE
  5
C1
330
1F
100
AcDbEntity
  8
Layer 1
 62
   250
370
    20
100
AcDbSpline
210
0.0
220
0.0
230
1.0
 70
    11
 71
     3
 72
    44
 73
    40
 74
     0
 42
0.0000000001
 43
0.0000000001
 12
1.0
 22
0.0
 32
0.0
 13
1.0
 23
0.0
 33
0.0
 40
0.0
 40
0.0
 40
0.0
 40
0.0
 40
0.0909090909090909
 40
0.0909090909090909
 40
0.0909090909090909
 40
0.0909090909090909
 40
0.1818181818181818
 40
0.1818181818181818
 40
0.1818181818181818
 40
0.1818181818181818
 40
0.2727272727272727
 40
0.2727272727272727
 40
0.2727272727272727
 40
0.2727272727272727
 40
0.3636363636363636
 40
0.3636363636363636
 40
0.3636363636363636
 40
0.3636363636363636
 40
0.4545454545454545
 40
0.4545454545454545
 40
0.4545454545454545
 40
0.4545454545454545
 40
0.5454545454545454
 40
0.5454545454545454
 40
0.5454545454545454
 40
0.5454545454545454
 40
0.6363636363636364
 40
0.6363636363636364
 40
0.6363636363636364
 40
0.6363636363636364
 40
0.7272727272727273
 40
0.7272727272727273
 40
0.7272727272727273
 40
0.7272727272727273
 40
0.8181818181818182
 40
0.8181818181818182
 40
0.8181818181818182
 40
0.8181818181818182
 40
1.0
 40
1.0
 40
1.0
 40
1.0
 10
7084.9573
 20
-5944.0128
 30
0.0
 10
7084.9573
 20
-5944.0128
 30
0.0
 10
7119.9361
 20
-5932.807
 30
0.0
 10
7119.9361
 20
-5932.807
 30
0.0
 10
7119.9361
 20
-5932.807
 30
0.0
 10
7119.9361
 20
-5932.807
 30
0.0
 10
7119.8655
 20
-5896.327
 30
0.0
 10
7119.8655
 20
-5896.327
 30
0.0
 10
7119.8655
 20
-5896.327
 30
0.0
 10
7119.8655
 20
-5896.327
 30
0.0
 10
7141.413
 20
-5925.8812
 30
0.0
 10
7141.413
 20
-5925.8812
 30
0.0
 10
7141.413
 20
-5925.8812
 30
0.0
 10
7141.413
 20
-5925.8812
 30
0.0
 10
7176.3483
 20
-5914.5415
 30
0.0
 10
7176.3483
 20
-5914.5415
 30
0.0
 10
7176.3483
 20
-5914.5415
 30
0.0
 10
7176.3483
 20
-5914.5415
 30
0.0
 10
7154.6868
 20
-5944.0128
 30
0.0
 10
7154.6868
 20
-5944.0128
 30
0.0
 10
7154.6868
 20
-5944.0128
 30
0.0
 10
7154.6868
 20
-5944.0128
 30
0.0
 10
7176.3483
 20
-5973.4844
 30
0.0
 10
7176.3483
 20
-5973.4844
 30
0.0
 10
7176.3483
 20
-5973.4844
 30
0.0
 10
7176.3483
 20
-5973.4844
 30
0.0
 10
7141.413
 20
-5962.1449
 30
0.0
 10
7141.413
 20
-5962.1449
 30
0.0
 10
7141.413
 20
-5962.1449
 30
0.0
 10
7141.413
 20
-5962.1449
 30
0.0
 10
7119.8655
 20
-5991.6992
 30
0.0
 10
7119.8655
 20
-5991.6992
 30
0.0
 10
7119.8655
 20
-5991.6992
 30
0.0
 10
7119.8655
 20
-5991.6992
 30
0.0
 10
7119.9362
 20
-5955.219
 30
0.0
 10
7119.9362
 20
-5955.219
 30
0.0
 10
7119.9362
 20
-5955.219
 30
0.0
 10
7119.9362
 20
-5955.219
 30
0.0
 10
7084.9573
 20
-5944.0128
 30
0.0
 10
7084.9573
 20
-5944.0128
 30
0.0
  0
SPLINE
  5
C2
330
1F
100
AcDbEntity
  8
Layer 1
 62
   250
370
    20
100
AcDbSpline
210
0.0
220
0.0
230
1.0
 70
    11
 71
     3
 72
    28
 73
    24
 74
     0
 42
0.0000000001
 43
0.0000000001
 12
1.0
 22
0.0
 32
0.0
 13
1.0
 23
0.0
 33
0.0
 40
0.0
 40
0.0
 40
0.0
 40
0.0
 40
0.1428571428571428
 40
0.1428571428571428
 40
0.1428571428571428
 40
0.1428571428571428
 40
0.2857142857142857
 40
0.2857142857142857
 40
0.2857142857142857
 40
0.2857142857142857
 40
0.4285714285714285
 40
0.4285714285714285
 40
0.4285714285714285
 40
0.4285714285714285
 40
0.5714285714285714
 40
0.5714285714285714
 40
0.5714285714285714
 40
0.5714285714285714
 40
0.7142857142857143
 40
0.7142857142857143
 40
0.7142857142857143
 40
0.7142857142857143
 40
1.0
 40
1.0
 40
1.0
 40
1.0
 10
6815.4174
 20
-6015.7151
 30
0.0
 10
6815.4174
 20
-6015.7151
 30
0.0
 10
6790.8425
 20
-6042.7363
 30
0.0
 10
6790.8425
 20
-6042.7363
 30
0.0
 10
6790.8425
 20
-6042.7363
 30
0.0
 10
6790.8425
 20
-6042.7363
 30
0.0
 10
6809.2399
 20
-6074.2223
 30
0.0
 10
6809.2399
 20
-6074.2223
 30
0.0
 10
6809.2399
 20
-6074.2223
 30
0.0
 10
6809.2399
 20
-6074.2223
 30
0.0
 10
6750.8429
 20
-6052.7168
 30
0.0
 10
6750.8429
 20
-6052.7168
 30
0.0
 10
6750.8429
 20
-6052.7168
 30
0.0
 10
6750.8429
 20
-6052.7168
 30
0.0
 10
6761.2761
 20
-5991.771
 30
0.0
 10
6761.2761
 20
-5991.771
 30
0.0
 10
6761.2761
 20
-5991.771
 30
0.0
 10
6761.2761
 20
-5991.771
 30
0.0
 10
6779.5513
 20
-6023.327
 30
0.0
 10
6779.5513
 20
-6023.327
 30
0.0
 10
6779.5513
 20
-6023.327
 30
0.0
 10
6779.5513
 20
-6023.327
 30
0.0
 10
6815.4174
 20
-6015.7151
 30
0.0
 10
6815.4174
 20
-6015.7151
 30
0.0
  0
SPLINE
  5
C3
330
1F
100
AcDbEntity
  8
Layer 1
 62
   250
370
    20
100
AcDbSpline
210
0.0
220
0.0
230
1.0
 70
    11
 71
     3
 72
    20
 73
    16
 74
     0
 42
0.0000000001
 43
0.0000000001
 12
1.0
 22
0.0
 32
0.0
 13
1.0
 23
0.0
 33
0.0
 40
0.0
 40
0.0
 40
0.0
 40
0.0
 40
0.2
 40
0.2
 40
0.2
 40
0.2
 40
0.4
 40
0.4
 40
0.4
 40
0.4
 40
0.6
 40
0.6
 40
0.6
 40
0.6
 40
1.0
 40
1.0
 40
1.0
 40
1.0
 10
6815.4894
 20
-6015.6738
 30
0.0
 10
6815.4894
 20
-6015.6738
 30
0.0
 10
6861.6846
 20
-5965.0685
 30
0.0
 10
6861.6846
 20
-5965.0685
 30
0.0
 10
6861.6846
 20
-5965.0685
 30
0.0
 10
6861.6846
 20
-5965.0685
 30
0.0
 10
6888.7651
 20
-5973.6859
 30
0.0
 10
6888.7651
 20
-5973.6859
 30
0.0
 10
6888.7651
 20
-5973.6859
 30
0.0
 10
6888.7651
 20
-5973.6859
 30
0.0
 10
6882.7444
 20
-6001.2711
 30
0.0
 10
6882.7444
 20
-6001.2711
 30
0.0
 10
6882.7444
 20
-6001.2711
 30
0.0
 10
6882.7444
 20
-6001.2711
 30
0.0
 10
6815.4894
 20
-6015.6738
 30
0.0
 10
6815.4894
 20
-6015.6738
 30
0.0
  0
SPLINE
  5
C4
330
1F
100
AcDbEntity
  8
Layer 1
 62
   250
370
    20
100
AcDbSpline
210
0.0
220
0.0
230
1.0
 70
    11
 71
     3
 72
    28
 73
    24
 74
     0
 42
0.0000000001
 43
0.0000000001
 12
1.0
 22
0.0
 32
0.0
 13
1.0
 23
0.0
 33
0.0
 40
0.0
 40
0.0
 40
0.0
 40
0.0
 40
0.1428571428571428
 40
0.1428571428571428
 40
0.1428571428571428
 40
0.1428571428571428
 40
0.2857142857142857
 40
0.2857142857142857
 40
0.2857142857142857
 40
0.2857142857142857
 40
0.4285714285714285
 40
0.4285714285714285
 40
0.4285714285714285
 40
0.4285714285714285
 40
0.5714285714285714
 40
0.5714285714285714
 40
0.5714285714285714
 40
0.5714285714285714
 40
0.7142857142857143
 40
0.7142857142857143
 40
0.7142857142857143
 40
0.7142857142857143
 40
1.0
 40
1.0
 40
1.0
 40
1.0
 10
6940.55
 20
-6087.417
 30
0.0
 10
6940.55
 20
-6087.417
 30
0.0
 10
6951.8411
 20
-6122.0503
 30
0.0
 10
6951.8411
 20
-6122.0503
 30
0.0
 10
6951.8411
 20
-6122.0503
 30
0.0
 10
6951.8411
 20
-6122.0503
 30
0.0
 10
6988.5138
 20
-6121.9803
 30
0.0
 10
6988.5138
 20
-6121.9803
 30
0.0
 10
6988.5138
 20
-6121.9803
 30
0.0
 10
6988.5138
 20
-6121.9803
 30
0.0
 10
6940.55
 20
-6161.4206
 30
0.0
 10
6940.55
 20
-6161.4206
 30
0.0
 10
6940.55
 20
-6161.4206
 30
0.0
 10
6940.55
 20
-6161.4206
 30
0.0
 10
6892.5861
 20
-6121.9803
 30
0.0
 10
6892.5861
 20
-6121.9803
 30
0.0
 10
6892.5861
 20
-6121.9803
 30
0.0
 10
6892.5861
 20
-6121.9803
 30
0.0
 10
6929.2589
 20
-6122.0503
 30
0.0
 10
6929.2589
 20
-6122.0503
 30
0.0
 10
6929.2589
 20
-6122.0503
 30
0.0
 10
6929.2589
 20
-6122.0503
 30
0.0
 10
6940.55
 20
-6087.417
 30
0.0
 10
6940.55
 20
-6087.417
 30
0.0
  0
SPLINE
  5
C5
330
1F
100
AcDbEntity
  8
Layer 1
 62
   250
370
    20
100
AcDbSpline
210
0.0
220
0.0
230
1.0
 70
    11
 71
     3
 72
    20
 73
    16
 74
     0
 42
0.0000000001
 43
0.0000000001
 12
1.0
 22
0.0
 32
0.0
 13
1.0
 23
0.0
 33
0.0
 40
0.0
 40
0.0
 40
0.0
 40
0.0
 40
0.2
 40
0.2
 40
0.2
 40
0.2
 40
0.4
 40
0.4
 40
0.4
 40
0.4
 40
0.6
 40
0.6
 40
0.6
 40
0.6
 40
1.0
 40
1.0
 40
1.0
 40
1.0
 10
6940.5501
 20
-6087.3345
 30
0.0
 10
6940.5501
 20
-6087.3345
 30
0.0
 10
6919.4902
 20
-6022.3266
 30
0.0
 10
6919.4902
 20
-6022.3266
 30
0.0
 10
6919.4902
 20
-6022.3266
 30
0.0
 10
6919.4902
 20
-6022.3266
 30
0.0
 10
6940.55
 20
-6003.359
 30
0.0
 10
6940.55
 20
-6003.359
 30
0.0
 10
6940.55
 20
-6003.359
 30
0.0
 10
6940.55
 20
-6003.359
 30
0.0
 10
6961.6096
 20
-6022.3266
 30
0.0
 10
6961.6096
 20
-6022.3266
 30
0.0
 10
6961.6096
 20
-6022.3266
 30
0.0
 10
6961.6096
 20
-6022.3266
 30
0.0
 10
6940.5501
 20
-6087.3345
 30
0.0
 10
6940.5501
 20
-6087.3345
 30
0.0
  0
SPLINE
  5
C6
330
1F
100
AcDbEntity
  8
Layer 1
 62
   250
370
    20
100
AcDbSpline
210
0.0
220
0.0
230
1.0
 70
    11
 71
     3
 72
    28
 73
    24
 74
     0
 42
0.0000000001
 43
0.0000000001
 12
1.0
 22
0.0
 32
0.0
 13
1.0
 23
0.0
 33
0.0
 40
0.0
 40
0.0
 40
0.0
 40
0.0
 40
0.1428571428571428
 40
0.1428571428571428
 40
0.1428571428571428
 40
0.1428571428571428
 40
0.2857142857142857
 40
0.2857142857142857
 40
0.2857142857142857
 40
0.2857142857142857
 40
0.4285714285714285
 40
0.4285714285714285
 40
0.4285714285714285
 40
0.4285714285714285
 40
0.5714285714285714
 40
0.5714285714285714
 40
0.5714285714285714
 40
0.5714285714285714
 40
0.7142857142857143
 40
0.7142857142857143
 40
0.7142857142857143
 40
0.7142857142857143
 40
1.0
 40
1.0
 40
1.0
 40
1.0
 10
7065.6823
 20
-6015.7151
 30
0.0
 10
7065.6823
 20
-6015.7151
 30
0.0
 10
7101.5482
 20
-6023.327
 30
0.0
 10
7101.5482
 20
-6023.327
 30
0.0
 10
7101.5482
 20
-6023.327
 30
0.0
 10
7101.5482
 20
-6023.327
 30
0.0
 10
7119.8238
 20
-5991.771
 30
0.0
 10
7119.8238
 20
-5991.771
 30
0.0
 10
7119.8238
 20
-5991.771
 30
0.0
 10
7119.8238
 20
-5991.771
 30
0.0
 10
7130.2568
 20
-6052.7168
 30
0.0
 10
7130.2568
 20
-6052.7168
 30
0.0
 10
7130.2568
 20
-6052.7168
 30
0.0
 10
7130.2568
 20
-6052.7168
 30
0.0
 10
7071.8598
 20
-6074.2222
 30
0.0
 10
7071.8598
 20
-6074.2222
 30
0.0
 10
7071.8598
 20
-6074.2222
 30
0.0
 10
7071.8598
 20
-6074.2222
 30
0.0
 10
7090.2573
 20
-6042.7363
 30
0.0
 10
7090.2573
 20
-6042.7363
 30
0.0
 10
7090.2573
 20
-6042.7363
 30
0.0
 10
7090.2573
 20
-6042.7363
 30
0.0
 10
7065.6823
 20
-6015.7151
 30
0.0
 10
7065.6823
 20
-6015.7151
 30
0.0
  0
SPLINE
  5
C7
330
1F
100
AcDbEntity
  8
Layer 1
 62
   250
370
    20
100
AcDbSpline
210
0.0
220
0.0
230
1.0
 70
    11
 71
     3
 72
    20
 73
    16
 74
     0
 42
0.0000000001
 43
0.0000000001
 12
1.0
 22
0.0
 32
0.0
 13
1.0
 23
0.0
 33
0.0
 40
0.0
 40
0.0
 40
0.0
 40
0.0
 40
0.2
 40
0.2
 40
0.2
 40
0.2
 40
0.4
 40
0.4
 40
0.4
 40
0.4
 40
0.6
 40
0.6
 40
0.6
 40
0.6
 40
1.0
 40
1.0
 40
1.0
 40
1.0
 10
7065.6102
 20
-6015.6738
 30
0.0
 10
7065.6102
 20
-6015.6738
 30
0.0
 10
6998.3554
 20
-6001.2711
 30
0.0
 10
6998.3554
 20
-6001.2711
 30
0.0
 10
6998.3554
 20
-6001.2711
 30
0.0
 10
6998.3554
 20
-6001.2711
 30
0.0
 10
6992.3345
 20
-5973.6861
 30
0.0
 10
6992.3345
 20
-5973.6861
 30
0.0
 10
6992.3345
 20
-5973.6861
 30
0.0
 10
6992.3345
 20
-5973.6861
 30
0.0
 10
7019.4154
 20
-5965.0688
 30
0.0
 10
7019.4154
 20
-5965.0688
 30
0.0
 10
7019.4154
 20
-5965.0688
 30
0.0
 10
7019.4154
 20
-5965.0688
 30
0.0
 10
7065.6102
 20
-6015.6738
 30
0.0
 10
7065.6102
 20
-6015.6738
 30
0.0
  0
SPLINE
  5
C8
330
1F
100
AcDbEntity
  8
Layer 1
 62
   250
370
    20
100
AcDbSpline
210
0.0
220
0.0
230
1.0
 70
    11
 71
     3
 72
    28
 73
    24
 74
     0
 42
0.0000000001
 43
0.0000000001
 12
1.0
 22
0.0
 32
0.0
 13
1.0
 23
0.0
 33
0.0
 40
0.0
 40
0.0
 40
0.0
 40
0.0
 40
0.1428571428571428
 40
0.1428571428571428
 40
0.1428571428571428
 40
0.1428571428571428
 40
0.2857142857142857
 40
0.2857142857142857
 40
0.2857142857142857
 40
0.2857142857142857
 40
0.4285714285714285
 40
0.4285714285714285
 40
0.4285714285714285
 40
0.4285714285714285
 40
0.5714285714285714
 40
0.5714285714285714
 40
0.5714285714285714
 40
0.5714285714285714
 40
0.7142857142857143
 40
0.7142857142857143
 40
0.7142857142857143
 40
0.7142857142857143
 40
1.0
 40
1.0
 40
1.0
 40
1.0
 10
7065.6824
 20
-5872.3108
 30
0.0
 10
7065.6824
 20
-5872.3108
 30
0.0
 10
7090.2572
 20
-5845.2894
 30
0.0
 10
7090.2572
 20
-5845.2894
 30
0.0
 10
7090.2572
 20
-5845.2894
 30
0.0
 10
7090.2572
 20
-5845.2894
 30
0.0
 10
7071.8597
 20
-5813.8038
 30
0.0
 10
7071.8597
 20
-5813.8038
 30
0.0
 10
7071.8597
 20
-5813.8038
 30
0.0
 10
7071.8597
 20
-5813.8038
 30
0.0
 10
7130.2569
 20
-5835.3092
 30
0.0
 10
7130.2569
 20
-5835.3092
 30
0.0
 10
7130.2569
 20
-5835.3092
 30
0.0
 10
7130.2569
 20
-5835.3092
 30
0.0
 10
7119.8236
 20
-5896.2548
 30
0.0
 10
7119.8236
 20
-5896.2548
 30
0.0
 10
7119.8236
 20
-5896.2548
 30
0.0
 10
7119.8236
 20
-5896.2548
 30
0.0
 10
7101.5486
 20
-5864.6991
 30
0.0
 10
7101.5486
 20
-5864.6991
 30
0.0
 10
7101.5486
 20
-5864.6991
 30
0.0
 10
7101.5486
 20
-5864.6991
 30
0.0
 10
7065.6824
 20
-5872.3108
 30
0.0
 10
7065.6824
 20
-5872.3108
 30
0.0
  0
SPLINE
  5
C9
330
1F
100
AcDbEntity
  8
Layer 1
 62
   250
370
    20
100
AcDbSpline
210
0.0
220
0.0
230
1.0
 70
    11
 71
     3
 72
    20
 73
    16
 74
     0
 42
0.0000000001
 43
0.0000000001
 12
1.0
 22
0.0
 32
0.0
 13
1.0
 23
0.0
 33
0.0
 40
0.0
 40
0.0
 40
0.0
 40
0.0
 40
0.2
 40
0.2
 40
0.2
 40
0.2
 40
0.4
 40
0.4
 40
0.4
 40
0.4
 40
0.6
 40
0.6
 40
0.6
 40
0.6
 40
1.0
 40
1.0
 40
1.0
 40
1.0
 10
7065.6102
 20
-5872.3522
 30
0.0
 10
7065.6102
 20
-5872.3522
 30
0.0
 10
7019.4154
 20
-5922.9575
 30
0.0
 10
7019.4154
 20
-5922.9575
 30
0.0
 10
7019.4154
 20
-5922.9575
 30
0.0
 10
7019.4154
 20
-5922.9575
 30
0.0
 10
6992.3347
 20
-5914.3399
 30
0.0
 10
6992.3347
 20
-5914.3399
 30
0.0
 10
6992.3347
 20
-5914.3399
 30
0.0
 10
6992.3347
 20
-5914.3399
 30
0.0
 10
6998.3555
 20
-5886.7549
 30
0.0
 10
6998.3555
 20
-5886.7549
 30
0.0
 10
6998.3555
 20
-5886.7549
 30
0.0
 10
6998.3555
 20
-5886.7549
 30
0.0
 10
7065.6102
 20
-5872.3522
 30
0.0
 10
7065.6102
 20
-5872.3522
 30
0.0
  0
SPLINE
  5
CA
330
1F
100
AcDbEntity
  8
Layer 1
 62
   250
370
    20
100
AcDbSpline
210
0.0
220
0.0
230
1.0
 70
    11
 71
     3
 72
    20
 73
    16
 74
     0
 42
0.0000000001
 43
0.0000000001
 12
1.0
 22
0.0
 32
0.0
 13
1.0
 23
0.0
 33
0.0
 40
0.0
 40
0.0
 40
0.0
 40
0.0
 40
0.2
 40
0.2
 40
0.2
 40
0.2
 40
0.4
 40
0.4
 40
0.4
 40
0.4
 40
0.6
 40
0.6
 40
0.6
 40
0.6
 40
1.0
 40
1.0
 40
1.0
 40
1.0
 10
6940.55
 20
-5800.6916
 30
0.0
 10
6940.55
 20
-5800.6916
 30
0.0
 10
6961.6096
 20
-5865.6994
 30
0.0
 10
6961.6096
 20
-5865.6994
 30
0.0
 10
6961.6096
 20
-5865.6994
 30
0.0
 10
6961.6096
 20
-5865.6994
 30
0.0
 10
6940.5501
 20
-5884.6666
 30
0.0
 10
6940.5501
 20
-5884.6666
 30
0.0
 10
6940.5501
 20
-5884.6666
 30
0.0
 10
6940.5501
 20
-5884.6666
 30
0.0
 10
6919.4902
 20
-5865.6994
 30
0.0
 10
6919.4902
 20
-5865.6994
 30
0.0
 10
6919.4902
 20
-5865.6994
 30
0.0
 10
6919.4902
 20
-5865.6994
 30
0.0
 10
6940.55
 20
-5800.6916
 30
0.0
 10
6940.55
 20
-5800.6916
 30
0.0
  0
SPLINE
  5
CB
330
1F
100
AcDbEntity
  8
Layer 1
 62
   250
370
    20
100
AcDbSpline
210
0.0
220
0.0
230
1.0
 70
    11
 71
     3
 72
    28
 73
    24
 74
     0
 42
0.0000000001
 43
0.0000000001
 12
1.0
 22
0.0
 32
0.0
 13
1.0
 23
0.0
 33
0.0
 40
0.0
 40
0.0
 40
0.0
 40
0.0
 40
0.1428571428571428
 40
0.1428571428571428
 40
0.1428571428571428
 40
0.1428571428571428
 40
0.2857142857142857
 40
0.2857142857142857
 40
0.2857142857142857
 40
0.2857142857142857
 40
0.4285714285714285
 40
0.4285714285714285
 40
0.4285714285714285
 40
0.4285714285714285
 40
0.5714285714285714
 40
0.5714285714285714
 40
0.5714285714285714
 40
0.5714285714285714
 40
0.7142857142857143
 40
0.7142857142857143
 40
0.7142857142857143
 40
0.7142857142857143
 40
1.0
 40
1.0
 40
1.0
 40
1.0
 10
6815.4175
 20
-5872.3109
 30
0.0
 10
6815.4175
 20
-5872.3109
 30
0.0
 10
6779.5516
 20
-5864.6991
 30
0.0
 10
6779.5516
 20
-5864.6991
 30
0.0
 10
6779.5516
 20
-5864.6991
 30
0.0
 10
6779.5516
 20
-5864.6991
 30
0.0
 10
6761.2762
 20
-5896.2548
 30
0.0
 10
6761.2762
 20
-5896.2548
 30
0.0
 10
6761.2762
 20
-5896.2548
 30
0.0
 10
6761.2762
 20
-5896.2548
 30
0.0
 10
6750.8432
 20
-5835.309
 30
0.0
 10
6750.8432
 20
-5835.309
 30
0.0
 10
6750.8432
 20
-5835.309
 30
0.0
 10
6750.8432
 20
-5835.309
 30
0.0
 10
6809.2399
 20
-5813.8039
 30
0.0
 10
6809.2399
 20
-5813.8039
 30
0.0
 10
6809.2399
 20
-5813.8039
 30
0.0
 10
6809.2399
 20
-5813.8039
 30
0.0
 10
6790.8426
 20
-5845.2894
 30
0.0
 10
6790.8426
 20
-5845.2894
 30
0.0
 10
6790.8426
 20
-5845.2894
 30
0.0
 10
6790.8426
 20
-5845.2894
 30
0.0
 10
6815.4175
 20
-5872.3109
 30
0.0
 10
6815.4175
 20
-5872.3109
 30
0.0
  0
SPLINE
  5
CC
330
1F
100
AcDbEntity
  8
Layer 1
 62
   250
370
    20
100
AcDbSpline
210
0.0
220
0.0
230
1.0
 70
    11
 71
     3
 72
    20
 73
    16
 74
     0
 42
0.0000000001
 43
0.0000000001
 12
1.0
 22
0.0
 32
0.0
 13
1.0
 23
0.0
 33
0.0
 40
0.0
 40
0.0
 40
0.0
 40
0.0
 40
0.2
 40
0.2
 40
0.2
 40
0.2
 40
0.4
 40
0.4
 40
0.4
 40
0.4
 40
0.6
 40
0.6
 40
0.6
 40
0.6
 40
1.0
 40
1.0
 40
1.0
 40
1.0
 10
6815.4895
 20
-5872.3521
 30
0.0
 10
6815.4895
 20
-5872.3521
 30
0.0
 10
6882.7445
 20
-5886.7549
 30
0.0
 10
6882.7445
 20
-5886.7549
 30
0.0
 10
6882.7445
 20
-5886.7549
 30
0.0
 10
6882.7445
 20
-5886.7549
 30
0.0
 10
6888.7652
 20
-5914.3397
 30
0.0
 10
6888.7652
 20
-5914.3397
 30
0.0
 10
6888.7652
 20
-5914.3397
 30
0.0
 10
6888.7652
 20
-5914.3397
 30
0.0
 10
6861.6846
 20
-5922.9573
 30
0.0
 10
6861.6846
 20
-5922.9573
 30
0.0
 10
6861.6846
 20
-5922.9573
 30
0.0
 10
6861.6846
 20
-5922.9573
 30
0.0
 10
6815.4895
 20
-5872.3521
 30
0.0
 10
6815.4895
 20
-5872.3521
 30
0.0
  0
SPLINE
  5
CD
330
1F
100
AcDbEntity
  8
Layer 1
 62
   250
370
    20
100
AcDbSpline
210
0.0
220
0.0
230
1.0
 70
    11
 71
     3
 72
    16
 73
    12
 74
     0
 42
0.0000000001
 43
0.0000000001
 12
1.0
 22
0.0
 32
0.0
 13
1.0
 23
0.0
 33
0.0
 40
0.0
 40
0.0
 40
0.0
 40
0.0
 40
0.25
 40
0.25
 40
0.25
 40
0.25
 40
0.5
 40
0.5
 40
0.5
 40
0.5
 40
1.0
 40
1.0
 40
1.0
 40
1.0
 10
6623.0038
 20
-6238.3904
 30
0.0
 10
6623.0038
 20
-6238.3904
 30
0.0
 10
6623.0038
 20
-6276.4543
 30
0.0
 10
6623.0038
 20
-6276.4543
 30
0.0
 10
6623.0038
 20
-6276.4543
 30
0.0
 10
6623.0038
 20
-6276.4543
 30
0.0
 10
6633.2132
 20
-6285.6132
 30
0.0
 10
6633.2132
 20
-6285.6132
 30
0.0
 10
6633.2132
 20
-6285.6132
 30
0.0
 10
6633.2132
 20
-6285.6132
 30
0.0
 10
6623.0038
 20
-6238.3904
 30
0.0
 10
6623.0038
 20
-6238.3904
 30
0.0
  0
SPLINE
  5
CE
330
1F
100
AcDbEntity
  8
Layer 1
 62
   250
370
    20
100
AcDbSpline
210
0.0
220
0.0
230
1.0
 70
    11
 71
     3
 72
    48
 73
    44
 74
     0
 42
0.0000000001
 43
0.0000000001
 12
1.0
 22
0.0
 32
0.0
 13
1.0
 23
0.0
 33
0.0
 40
0.0
 40
0.0
 40
0.0
 40
0.0
 40
0.0833333333333333
 40
0.0833333333333333
 40
0.0833333333333333
 40
0.0833333333333333
 40
0.1666666666666667
 40
0.1666666666666667
 40
0.1666666666666667
 40
0.1666666666666667
 40
0.25
 40
0.25
 40
0.25
 40
0.25
 40
0.3333333333333333
 40
0.3333333333333333
 40
0.3333333333333333
 40
0.3333333333333333
 40
0.4166666666666667
 40
0.4166666666666667
 40
0.4166666666666667
 40
0.4166666666666667
 40
0.5
 40
0.5
 40
0.5
 40
0.5
 40
0.5833333333333334
 40
0.5833333333333334
 40
0.5833333333333334
 40
0.5833333333333334
 40
0.6666666666666666
 40
0.6666666666666666
 40
0.6666666666666666
 40
0.6666666666666666
 40
0.75
 40
0.75
 40
0.75
 40
0.75
 40
0.8333333333333334
 40
0.8333333333333334
 40
0.8333333333333334
 40
0.8333333333333334
 40
1.0
 40
1.0
 40
1.0
 40
1.0
 10
6623.0038
 20
-6331.5042
 30
0.0
 10
6623.0038
 20
-6331.5042
 30
0.0
 10
6623.0038
 20
-6340.8881
 30
0.0
 10
6623.0038
 20
-6340.8881
 30
0.0
 10
6623.0038
 20
-6340.8881
 30
0.0
 10
6623.0038
 20
-6340.8881
 30
0.0
 10
6645.6194
 20
-6343.2036
 30
0.0
 10
6645.6194
 20
-6343.2036
 30
0.0
 10
6645.6194
 20
-6343.2036
 30
0.0
 10
6645.6194
 20
-6343.2036
 30
0.0
 10
6653.1924
 20
-6378.9008
 30
0.0
 10
6653.1924
 20
-6378.9008
 30
0.0
 10
6653.1924
 20
-6378.9008
 30
0.0
 10
6653.1924
 20
-6378.9008
 30
0.0
 10
6668.0779
 20
-6345.5467
 30
0.0
 10
6668.0779
 20
-6345.5467
 30
0.0
 10
6668.0779
 20
-6345.5467
 30
0.0
 10
6668.0779
 20
-6345.5467
 30
0.0
 10
6704.6253
 20
-6349.4293
 30
0.0
 10
6704.6253
 20
-6349.4293
 30
0.0
 10
6704.6253
 20
-6349.4293
 30
0.0
 10
6704.6253
 20
-6349.4293
 30
0.0
 10
6677.263
 20
-6325.0718
 30
0.0
 10
6677.263
 20
-6325.0718
 30
0.0
 10
6677.263
 20
-6325.0718
 30
0.0
 10
6677.263
 20
-6325.0718
 30
0.0
 10
6692.2775
 20
-6291.7742
 30
0.0
 10
6692.2775
 20
-6291.7742
 30
0.0
 10
6692.2775
 20
-6291.7742
 30
0.0
 10
6692.2775
 20
-6291.7742
 30
0.0
 10
6660.4811
 20
-6310.0749
 30
0.0
 10
6660.4811
 20
-6310.0749
 30
0.0
 10
6660.4811
 20
-6310.0749
 30
0.0
 10
6660.4811
 20
-6310.0749
 30
0.0
 10
6633.2133
 20
-6285.6133
 30
0.0
 10
6633.2133
 20
-6285.6133
 30
0.0
 10
6633.2133
 20
-6285.6133
 30
0.0
 10
6633.2133
 20
-6285.6133
 30
0.0
 10
6640.9245
 20
-6321.2812
 30
0.0
 10
6640.9245
 20
-6321.2812
 30
0.0
 10
6640.9245
 20
-6321.2812
 30
0.0
 10
6640.9245
 20
-6321.2812
 30
0.0
 10
6623.0038
 20
-6331.5042
 30
0.0
 10
6623.0038
 20
-6331.5042
 30
0.0
  0
SPLINE
  5
CF
330
1F
100
AcDbEntity
  8
Layer 1
 62
   250
370
    20
100
AcDbSpline
210
0.0
220
0.0
230
1.0
 70
    11
 71
     3
 72
    24
 73
    20
 74
     0
 42
0.0000000001
 43
0.0000000001
 12
1.0
 22
0.0
 32
0.0
 13
1.0
 23
0.0
 33
0.0
 40
0.0
 40
0.0
 40
0.0
 40
0.0
 40
0.1666666666666667
 40
0.1666666666666667
 40
0.1666666666666667
 40
0.1666666666666667
 40
0.3333333333333333
 40
0.3333333333333333
 40
0.3333333333333333
 40
0.3333333333333333
 40
0.5
 40
0.5
 40
0.5
 40
0.5
 40
0.6666666666666666
 40
0.6666666666666666
 40
0.6666666666666666
 40
0.6666666666666666
 40
1.0
 40
1.0
 40
1.0
 40
1.0
 10
6623.0038
 20
-6159.0792
 30
0.0
 10
6623.0038
 20
-6159.0792
 30
0.0
 10
6623.0038
 20
-6163.9067
 30
0.0
 10
6623.0038
 20
-6163.9067
 30
0.0
 10
6623.0038
 20
-6163.9067
 30
0.0
 10
6623.0038
 20
-6163.9067
 30
0.0
 10
6639.9165
 20
-6182.4773
 30
0.0
 10
6639.9165
 20
-6182.4773
 30
0.0
 10
6639.9165
 20
-6182.4773
 30
0.0
 10
6639.9165
 20
-6182.4773
 30
0.0
 10
6705.4168
 20
-6161.4932
 30
0.0
 10
6705.4168
 20
-6161.4932
 30
0.0
 10
6705.4168
 20
-6161.4932
 30
0.0
 10
6705.4168
 20
-6161.4932
 30
0.0
 10
6639.9165
 20
-6140.5089
 30
0.0
 10
6639.9165
 20
-6140.5089
 30
0.0
 10
6639.9165
 20
-6140.5089
 30
0.0
 10
6639.9165
 20
-6140.5089
 30
0.0
 10
6623.0038
 20
-6159.0792
 30
0.0
 10
6623.0038
 20
-6159.0792
 30
0.0
  0
SPLINE
  5
D0
330
1F
100
AcDbEntity
  8
Layer 1
 62
   250
370
    20
100
AcDbSpline
210
0.0
220
0.0
230
1.0
 70
    11
 71
     3
 72
    44
 73
    40
 74
     0
 42
0.0000000001
 43
0.0000000001
 12
1.0
 22
0.0
 32
0.0
 13
1.0
 23
0.0
 33
0.0
 40
0.0
 40
0.0
 40
0.0
 40
0.0
 40
0.0909090909090909
 40
0.0909090909090909
 40
0.0909090909090909
 40
0.0909090909090909
 40
0.1818181818181818
 40
0.1818181818181818
 40
0.1818181818181818
 40
0.1818181818181818
 40
0.2727272727272727
 40
0.2727272727272727
 40
0.2727272727272727
 40
0.2727272727272727
 40
0.3636363636363636
 40
0.3636363636363636
 40
0.3636363636363636
 40
0.3636363636363636
 40
0.4545454545454545
 40
0.4545454545454545
 40
0.4545454545454545
 40
0.4545454545454545
 40
0.5454545454545454
 40
0.5454545454545454
 40
0.5454545454545454
 40
0.5454545454545454
 40
0.6363636363636364
 40
0.6363636363636364
 40
0.6363636363636364
 40
0.6363636363636364
 40
0.7272727272727273
 40
0.7272727272727273
 40
0.7272727272727273
 40
0.7272727272727273
 40
0.8181818181818182
 40
0.8181818181818182
 40
0.8181818181818182
 40
0.8181818181818182
 40
1.0
 40
1.0
 40
1.0
 40
1.0
 10
6705.4171
 20
-6161.4932
 30
0.0
 10
6705.4171
 20
-6161.4932
 30
0.0
 10
6740.3959
 20
-6172.6993
 30
0.0
 10
6740.3959
 20
-6172.6993
 30
0.0
 10
6740.3959
 20
-6172.6993
 30
0.0
 10
6740.3959
 20
-6172.6993
 30
0.0
 10
6740.3254
 20
-6209.1791
 30
0.0
 10
6740.3254
 20
-6209.1791
 30
0.0
 10
6740.3254
 20
-6209.1791
 30
0.0
 10
6740.3254
 20
-6209.1791
 30
0.0
 10
6761.8727
 20
-6179.6251
 30
0.0
 10
6761.8727
 20
-6179.6251
 30
0.0
 10
6761.8727
 20
-6179.6251
 30
0.0
 10
6761.8727
 20
-6179.6251
 30
0.0
 10
6796.8078
 20
-6190.9645
 30
0.0
 10
6796.8078
 20
-6190.9645
 30
0.0
 10
6796.8078
 20
-6190.9645
 30
0.0
 10
6796.8078
 20
-6190.9645
 30
0.0
 10
6775.1462
 20
-6161.4932
 30
0.0
 10
6775.1462
 20
-6161.4932
 30
0.0
 10
6775.1462
 20
-6161.4932
 30
0.0
 10
6775.1462
 20
-6161.4932
 30
0.0
 10
6796.8078
 20
-6132.0216
 30
0.0
 10
6796.8078
 20
-6132.0216
 30
0.0
 10
6796.8078
 20
-6132.0216
 30
0.0
 10
6796.8078
 20
-6132.0216
 30
0.0
 10
6761.8727
 20
-6143.3611
 30
0.0
 10
6761.8727
 20
-6143.3611
 30
0.0
 10
6761.8727
 20
-6143.3611
 30
0.0
 10
6761.8727
 20
-6143.3611
 30
0.0
 10
6740.3251
 20
-6113.8072
 30
0.0
 10
6740.3251
 20
-6113.8072
 30
0.0
 10
6740.3251
 20
-6113.8072
 30
0.0
 10
6740.3251
 20
-6113.8072
 30
0.0
 10
6740.3957
 20
-6150.287
 30
0.0
 10
6740.3957
 20
-6150.287
 30
0.0
 10
6740.3957
 20
-6150.287
 30
0.0
 10
6740.3957
 20
-6150.287
 30
0.0
 10
6705.4171
 20
-6161.4932
 30
0.0
 10
6705.4171
 20
-6161.4932
 30
0.0
  0
SPLINE
  5
D1
330
1F
100
AcDbEntity
  8
Layer 1
 62
   250
370
    20
100
AcDbSpline
210
0.0
220
0.0
230
1.0
 70
    11
 71
     3
 72
    16
 73
    12
 74
     0
 42
0.0000000001
 43
0.0000000001
 12
1.0
 22
0.0
 32
0.0
 13
1.0
 23
0.0
 33
0.0
 40
0.0
 40
0.0
 40
0.0
 40
0.0
 40
0.25
 40
0.25
 40
0.25
 40
0.25
 40
0.5
 40
0.5
 40
0.5
 40
0.5
 40
1.0
 40
1.0
 40
1.0
 40
1.0
 10
6623.0038
 20
-6046.5319
 30
0.0
 10
6623.0038
 20
-6046.5319
 30
0.0
 10
6623.0038
 20
-6084.5957
 30
0.0
 10
6623.0038
 20
-6084.5957
 30
0.0
 10
6623.0038
 20
-6084.5957
 30
0.0
 10
6623.0038
 20
-6084.5957
 30
0.0
 10
6633.2132
 20
-6037.3731
 30
0.0
 10
6633.2132
 20
-6037.3731
 30
0.0
 10
6633.2132
 20
-6037.3731
 30
0.0
 10
6633.2132
 20
-6037.3731
 30
0.0
 10
6623.0038
 20
-6046.5319
 30
0.0
 10
6623.0038
 20
-6046.5319
 30
0.0
  0
SPLINE
  5
D2
330
1F
100
AcDbEntity
  8
Layer 1
 62
   250
370
    20
100
AcDbSpline
210
0.0
220
0.0
230
1.0
 70
    11
 71
     3
 72
    48
 73
    44
 74
     0
 42
0.0000000001
 43
0.0000000001
 12
1.0
 22
0.0
 32
0.0
 13
1.0
 23
0.0
 33
0.0
 40
0.0
 40
0.0
 40
0.0
 40
0.0
 40
0.0833333333333333
 40
0.0833333333333333
 40
0.0833333333333333
 40
0.0833333333333333
 40
0.1666666666666667
 40
0.1666666666666667
 40
0.1666666666666667
 40
0.1666666666666667
 40
0.25
 40
0.25
 40
0.25
 40
0.25
 40
0.3333333333333333
 40
0.3333333333333333
 40
0.3333333333333333
 40
0.3333333333333333
 40
0.4166666666666667
 40
0.4166666666666667
 40
0.4166666666666667
 40
0.4166666666666667
 40
0.5
 40
0.5
 40
0.5
 40
0.5
 40
0.5833333333333334
 40
0.5833333333333334
 40
0.5833333333333334
 40
0.5833333333333334
 40
0.6666666666666666
 40
0.6666666666666666
 40
0.6666666666666666
 40
0.6666666666666666
 40
0.75
 40
0.75
 40
0.75
 40
0.75
 40
0.8333333333333334
 40
0.8333333333333334
 40
0.8333333333333334
 40
0.8333333333333334
 40
1.0
 40
1.0
 40
1.0
 40
1.0
 10
6623.0038
 20
-5982.098
 30
0.0
 10
6623.0038
 20
-5982.098
 30
0.0
 10
6623.0038
 20
-5991.4818
 30
0.0
 10
6623.0038
 20
-5991.4818
 30
0.0
 10
6623.0038
 20
-5991.4818
 30
0.0
 10
6623.0038
 20
-5991.4818
 30
0.0
 10
6640.9245
 20
-6001.7049
 30
0.0
 10
6640.9245
 20
-6001.7049
 30
0.0
 10
6640.9245
 20
-6001.7049
 30
0.0
 10
6640.9245
 20
-6001.7049
 30
0.0
 10
6633.2133
 20
-6037.3728
 30
0.0
 10
6633.2133
 20
-6037.3728
 30
0.0
 10
6633.2133
 20
-6037.3728
 30
0.0
 10
6633.2133
 20
-6037.3728
 30
0.0
 10
6660.481
 20
-6012.9112
 30
0.0
 10
6660.481
 20
-6012.9112
 30
0.0
 10
6660.481
 20
-6012.9112
 30
0.0
 10
6660.481
 20
-6012.9112
 30
0.0
 10
6692.2775
 20
-6031.2119
 30
0.0
 10
6692.2775
 20
-6031.2119
 30
0.0
 10
6692.2775
 20
-6031.2119
 30
0.0
 10
6692.2775
 20
-6031.2119
 30
0.0
 10
6677.263
 20
-5997.9144
 30
0.0
 10
6677.263
 20
-5997.9144
 30
0.0
 10
6677.263
 20
-5997.9144
 30
0.0
 10
6677.263
 20
-5997.9144
 30
0.0
 10
6704.6253
 20
-5973.557
 30
0.0
 10
6704.6253
 20
-5973.557
 30
0.0
 10
6704.6253
 20
-5973.557
 30
0.0
 10
6704.6253
 20
-5973.557
 30
0.0
 10
6668.0777
 20
-5977.4396
 30
0.0
 10
6668.0777
 20
-5977.4396
 30
0.0
 10
6668.0777
 20
-5977.4396
 30
0.0
 10
6668.0777
 20
-5977.4396
 30
0.0
 10
6653.1924
 20
-5944.0855
 30
0.0
 10
6653.1924
 20
-5944.0855
 30
0.0
 10
6653.1924
 20
-5944.0855
 30
0.0
 10
6653.1924
 20
-5944.0855
 30
0.0
 10
6645.6194
 20
-5979.7825
 30
0.0
 10
6645.6194
 20
-5979.7825
 30
0.0
 10
6645.6194
 20
-5979.7825
 30
0.0
 10
6645.6194
 20
-5979.7825
 30
0.0
 10
6623.0038
 20
-5982.098
 30
0.0
 10
6623.0038
 20
-5982.098
 30
0.0
  0
SPLINE
  5
D3
330
1F
100
AcDbEntity
  8
Layer 1
 62
   250
370
    20
100
AcDbSpline
210
0.0
220
0.0
230
1.0
 70
    11
 71
     3
 72
    28
 73
    24
 74
     0
 42
0.0000000001
 43
0.0000000001
 12
1.0
 22
0.0
 32
0.0
 13
1.0
 23
0.0
 33
0.0
 40
0.0
 40
0.0
 40
0.0
 40
0.0
 40
0.1428571428571428
 40
0.1428571428571428
 40
0.1428571428571428
 40
0.1428571428571428
 40
0.2857142857142857
 40
0.2857142857142857
 40
0.2857142857142857
 40
0.2857142857142857
 40
0.4285714285714285
 40
0.4285714285714285
 40
0.4285714285714285
 40
0.4285714285714285
 40
0.5714285714285714
 40
0.5714285714285714
 40
0.5714285714285714
 40
0.5714285714285714
 40
0.7142857142857143
 40
0.7142857142857143
 40
0.7142857142857143
 40
0.7142857142857143
 40
1.0
 40
1.0
 40
1.0
 40
1.0
 10
6686.1422
 20
-6089.7908
 30
0.0
 10
6686.1422
 20
-6089.7908
 30
0.0
 10
6722.0082
 20
-6082.1792
 30
0.0
 10
6722.0082
 20
-6082.1792
 30
0.0
 10
6722.0082
 20
-6082.1792
 30
0.0
 10
6722.0082
 20
-6082.1792
 30
0.0
 10
6740.2834
 20
-6113.7351
 30
0.0
 10
6740.2834
 20
-6113.7351
 30
0.0
 10
6740.2834
 20
-6113.7351
 30
0.0
 10
6740.2834
 20
-6113.7351
 30
0.0
 10
6750.7165
 20
-6052.7893
 30
0.0
 10
6750.7165
 20
-6052.7893
 30
0.0
 10
6750.7165
 20
-6052.7893
 30
0.0
 10
6750.7165
 20
-6052.7893
 30
0.0
 10
6692.3194
 20
-6031.2837
 30
0.0
 10
6692.3194
 20
-6031.2837
 30
0.0
 10
6692.3194
 20
-6031.2837
 30
0.0
 10
6692.3194
 20
-6031.2837
 30
0.0
 10
6710.7172
 20
-6062.7695
 30
0.0
 10
6710.7172
 20
-6062.7695
 30
0.0
 10
6710.7172
 20
-6062.7695
 30
0.0
 10
6710.7172
 20
-6062.7695
 30
0.0
 10
6686.1422
 20
-6089.7908
 30
0.0
 10
6686.1422
 20
-6089.7908
 30
0.0
  0
SPLINE
  5
D4
330
1F
100
AcDbEntity
  8
Layer 1
 62
   250
370
    20
100
AcDbSpline
210
0.0
220
0.0
230
1.0
 70
    11
 71
     3
 72
    20
 73
    16
 74
     0
 42
0.0000000001
 43
0.0000000001
 12
1.0
 22
0.0
 32
0.0
 13
1.0
 23
0.0
 33
0.0
 40
0.0
 40
0.0
 40
0.0
 40
0.0
 40
0.2
 40
0.2
 40
0.2
 40
0.2
 40
0.4
 40
0.4
 40
0.4
 40
0.4
 40
0.6
 40
0.6
 40
0.6
 40
0.6
 40
1.0
 40
1.0
 40
1.0
 40
1.0
 10
6623.0038
 20
-6103.3381
 30
0.0
 10
6623.0038
 20
-6103.3381
 30
0.0
 10
6623.0038
 20
-6135.0688
 30
0.0
 10
6623.0038
 20
-6135.0688
 30
0.0
 10
6623.0038
 20
-6135.0688
 30
0.0
 10
6623.0038
 20
-6135.0688
 30
0.0
 10
6639.8749
 20
-6140.4375
 30
0.0
 10
6639.8749
 20
-6140.4375
 30
0.0
 10
6639.8749
 20
-6140.4375
 30
0.0
 10
6639.8749
 20
-6140.4375
 30
0.0
 10
6686.07
 20
-6089.8324
 30
0.0
 10
6686.07
 20
-6089.8324
 30
0.0
 10
6686.07
 20
-6089.8324
 30
0.0
 10
6686.07
 20
-6089.8324
 30
0.0
 10
6623.0038
 20
-6103.3381
 30
0.0
 10
6623.0038
 20
-6103.3381
 30
0.0
  0
SPLINE
  5
D5
330
1F
100
AcDbEntity
  8
Layer 1
 62
   250
370
    20
100
AcDbSpline
210
0.0
220
0.0
230
1.0
 70
    11
 71
     3
 72
    28
 73
    24
 74
     0
 42
0.0000000001
 43
0.0000000001
 12
1.0
 22
0.0
 32
0.0
 13
1.0
 23
0.0
 33
0.0
 40
0.0
 40
0.0
 40
0.0
 40
0.0
 40
0.1428571428571428
 40
0.1428571428571428
 40
0.1428571428571428
 40
0.1428571428571428
 40
0.2857142857142857
 40
0.2857142857142857
 40
0.2857142857142857
 40
0.2857142857142857
 40
0.4285714285714285
 40
0.4285714285714285
 40
0.4285714285714285
 40
0.4285714285714285
 40
0.5714285714285714
 40
0.5714285714285714
 40
0.5714285714285714
 40
0.5714285714285714
 40
0.7142857142857143
 40
0.7142857142857143
 40
0.7142857142857143
 40
0.7142857142857143
 40
1.0
 40
1.0
 40
1.0
 40
1.0
 10
6686.1421
 20
-6233.1949
 30
0.0
 10
6686.1421
 20
-6233.1949
 30
0.0
 10
6710.717
 20
-6260.2165
 30
0.0
 10
6710.717
 20
-6260.2165
 30
0.0
 10
6710.717
 20
-6260.2165
 30
0.0
 10
6710.717
 20
-6260.2165
 30
0.0
 10
6692.3194
 20
-6291.7026
 30
0.0
 10
6692.3194
 20
-6291.7026
 30
0.0
 10
6692.3194
 20
-6291.7026
 30
0.0
 10
6692.3194
 20
-6291.7026
 30
0.0
 10
6750.7165
 20
-6270.1969
 30
0.0
 10
6750.7165
 20
-6270.1969
 30
0.0
 10
6750.7165
 20
-6270.1969
 30
0.0
 10
6750.7165
 20
-6270.1969
 30
0.0
 10
6740.2834
 20
-6209.2512
 30
0.0
 10
6740.2834
 20
-6209.2512
 30
0.0
 10
6740.2834
 20
-6209.2512
 30
0.0
 10
6740.2834
 20
-6209.2512
 30
0.0
 10
6722.0078
 20
-6240.8071
 30
0.0
 10
6722.0078
 20
-6240.8071
 30
0.0
 10
6722.0078
 20
-6240.8071
 30
0.0
 10
6722.0078
 20
-6240.8071
 30
0.0
 10
6686.1421
 20
-6233.1949
 30
0.0
 10
6686.1421
 20
-6233.1949
 30
0.0
  0
SPLINE
  5
D6
330
1F
100
AcDbEntity
  8
Layer 1
 62
   250
370
    20
100
AcDbSpline
210
0.0
220
0.0
230
1.0
 70
    11
 71
     3
 72
    20
 73
    16
 74
     0
 42
0.0000000001
 43
0.0000000001
 12
1.0
 22
0.0
 32
0.0
 13
1.0
 23
0.0
 33
0.0
 40
0.0
 40
0.0
 40
0.0
 40
0.0
 40
0.2
 40
0.2
 40
0.2
 40
0.2
 40
0.4
 40
0.4
 40
0.4
 40
0.4
 40
0.6
 40
0.6
 40
0.6
 40
0.6
 40
1.0
 40
1.0
 40
1.0
 40
1.0
 10
6623.0038
 20
-6187.9174
 30
0.0
 10
6623.0038
 20
-6187.9174
 30
0.0
 10
6623.0038
 20
-6219.648
 30
0.0
 10
6623.0038
 20
-6219.648
 30
0.0
 10
6623.0038
 20
-6219.648
 30
0.0
 10
6623.0038
 20
-6219.648
 30
0.0
 10
6686.0699
 20
-6233.1538
 30
0.0
 10
6686.0699
 20
-6233.1538
 30
0.0
 10
6686.0699
 20
-6233.1538
 30
0.0
 10
6686.0699
 20
-6233.1538
 30
0.0
 10
6639.8748
 20
-6182.5487
 30
0.0
 10
6639.8748
 20
-6182.5487
 30
0.0
 10
6639.8748
 20
-6182.5487
 30
0.0
 10
6639.8748
 20
-6182.5487
 30
0.0
 10
6623.0038
 20
-6187.9174
 30
0.0
 10
6623.0038
 20
-6187.9174
 30
0.0
  0
SPLINE
  5
D7
330
1F
100
AcDbEntity
  8
Layer 1
 62
   250
370
    20
100
AcDbSpline
210
0.0
220
0.0
230
1.0
 70
    11
 71
     3
 72
    20
 73
    16
 74
     0
 42
0.0000000001
 43
0.0000000001
 12
1.0
 22
0.0
 32
0.0
 13
1.0
 23
0.0
 33
0.0
 40
0.0
 40
0.0
 40
0.0
 40
0.0
 40
0.2
 40
0.2
 40
0.2
 40
0.2
 40
0.4
 40
0.4
 40
0.4
 40
0.4
 40
0.6
 40
0.6
 40
0.6
 40
0.6
 40
1.0
 40
1.0
 40
1.0
 40
1.0
 10
7012.7
 20
-6503.1464
 30
0.0
 10
7012.7
 20
-6503.1464
 30
0.0
 10
6961.6395
 20
-6457.34
 30
0.0
 10
6961.6395
 20
-6457.34
 30
0.0
 10
6961.6395
 20
-6457.34
 30
0.0
 10
6961.6395
 20
-6457.34
 30
0.0
 10
6970.3941
 20
-6430.4219
 30
0.0
 10
6970.3941
 20
-6430.4219
 30
0.0
 10
6970.3941
 20
-6430.4219
 30
0.0
 10
6970.3941
 20
-6430.4219
 30
0.0
 10
6998.2602
 20
-6436.3561
 30
0.0
 10
6998.2602
 20
-6436.3561
 30
0.0
 10
6998.2602
 20
-6436.3561
 30
0.0
 10
6998.2602
 20
-6436.3561
 30
0.0
 10
7012.7
 20
-6503.1464
 30
0.0
 10
7012.7
 20
-6503.1464
 30
0.0
  0
SPLINE
  5
D8
330
1F
100
AcDbEntity
  8
Layer 1
 62
   250
370
    20
100
AcDbSpline
210
0.0
220
0.0
230
1.0
 70
    11
 71
     3
 72
    44
 73
    40
 74
     0
 42
0.0000000001
 43
0.0000000001
 12
1.0
 22
0.0
 32
0.0
 13
1.0
 23
0.0
 33
0.0
 40
0.0
 40
0.0
 40
0.0
 40
0.0
 40
0.0909090909090909
 40
0.0909090909090909
 40
0.0909090909090909
 40
0.0909090909090909
 40
0.1818181818181818
 40
0.1818181818181818
 40
0.1818181818181818
 40
0.1818181818181818
 40
0.2727272727272727
 40
0.2727272727272727
 40
0.2727272727272727
 40
0.2727272727272727
 40
0.3636363636363636
 40
0.3636363636363636
 40
0.3636363636363636
 40
0.3636363636363636
 40
0.4545454545454545
 40
0.4545454545454545
 40
0.4545454545454545
 40
0.4545454545454545
 40
0.5454545454545454
 40
0.5454545454545454
 40
0.5454545454545454
 40
0.5454545454545454
 40
0.6363636363636364
 40
0.6363636363636364
 40
0.6363636363636364
 40
0.6363636363636364
 40
0.7272727272727273
 40
0.7272727272727273
 40
0.7272727272727273
 40
0.7272727272727273
 40
0.8181818181818182
 40
0.8181818181818182
 40
0.8181818181818182
 40
0.8181818181818182
 40
1.0
 40
1.0
 40
1.0
 40
1.0
 10
7012.7
 20
-6503.1467
 30
0.0
 10
7012.7
 20
-6503.1467
 30
0.0
 10
7039.9679
 20
-6527.6083
 30
0.0
 10
7039.9679
 20
-6527.6083
 30
0.0
 10
7039.9679
 20
-6527.6083
 30
0.0
 10
7039.9679
 20
-6527.6083
 30
0.0
 10
7071.7643
 20
-6509.3076
 30
0.0
 10
7071.7643
 20
-6509.3076
 30
0.0
 10
7071.7643
 20
-6509.3076
 30
0.0
 10
7071.7643
 20
-6509.3076
 30
0.0
 10
7056.7496
 20
-6542.6051
 30
0.0
 10
7056.7496
 20
-6542.6051
 30
0.0
 10
7056.7496
 20
-6542.6051
 30
0.0
 10
7056.7496
 20
-6542.6051
 30
0.0
 10
7084.1119
 20
-6566.9625
 30
0.0
 10
7084.1119
 20
-6566.9625
 30
0.0
 10
7084.1119
 20
-6566.9625
 30
0.0
 10
7084.1119
 20
-6566.9625
 30
0.0
 10
7047.5648
 20
-6563.0799
 30
0.0
 10
7047.5648
 20
-6563.0799
 30
0.0
 10
7047.5648
 20
-6563.0799
 30
0.0
 10
7047.5648
 20
-6563.0799
 30
0.0
 10
7032.6791
 20
-6596.434
 30
0.0
 10
7032.6791
 20
-6596.434
 30
0.0
 10
7032.6791
 20
-6596.434
 30
0.0
 10
7032.6791
 20
-6596.434
 30
0.0
 10
7025.1063
 20
-6560.7369
 30
0.0
 10
7025.1063
 20
-6560.7369
 30
0.0
 10
7025.1063
 20
-6560.7369
 30
0.0
 10
7025.1063
 20
-6560.7369
 30
0.0
 10
6988.5441
 20
-6556.9936
 30
0.0
 10
6988.5441
 20
-6556.9936
 30
0.0
 10
6988.5441
 20
-6556.9936
 30
0.0
 10
6988.5441
 20
-6556.9936
 30
0.0
 10
7020.4111
 20
-6538.8145
 30
0.0
 10
7020.4111
 20
-6538.8145
 30
0.0
 10
7020.4111
 20
-6538.8145
 30
0.0
 10
7020.4111
 20
-6538.8145
 30
0.0
 10
7012.7
 20
-6503.1467
 30
0.0
 10
7012.7
 20
-6503.1467
 30
0.0
  0
SPLINE
  5
D9
330
1F
100
AcDbEntity
  8
Layer 1
 62
   250
370
    20
100
AcDbSpline
210
0.0
220
0.0
230
1.0
 70
    11
 71
     3
 72
    20
 73
    16
 74
     0
 42
0.0000000001
 43
0.0000000001
 12
1.0
 22
0.0
 32
0.0
 13
1.0
 23
0.0
 33
0.0
 40
0.0
 40
0.0
 40
0.0
 40
0.0
 40
0.2
 40
0.2
 40
0.2
 40
0.2
 40
0.4
 40
0.4
 40
0.4
 40
0.4
 40
0.6
 40
0.6
 40
0.6
 40
0.6
 40
1.0
 40
1.0
 40
1.0
 40
1.0
 10
6868.2928
 20
-6503.1464
 30
0.0
 10
6868.2928
 20
-6503.1464
 30
0.0
 10
6882.7326
 20
-6436.3559
 30
0.0
 10
6882.7326
 20
-6436.3559
 30
0.0
 10
6882.7326
 20
-6436.3559
 30
0.0
 10
6882.7326
 20
-6436.3559
 30
0.0
 10
6910.5983
 20
-6430.4215
 30
0.0
 10
6910.5983
 20
-6430.4215
 30
0.0
 10
6910.5983
 20
-6430.4215
 30
0.0
 10
6910.5983
 20
-6430.4215
 30
0.0
 10
6919.3533
 20
-6457.3402
 30
0.0
 10
6919.3533
 20
-6457.3402
 30
0.0
 10
6919.3533
 20
-6457.3402
 30
0.0
 10
6919.3533
 20
-6457.3402
 30
0.0
 10
6868.2928
 20
-6503.1464
 30
0.0
 10
6868.2928
 20
-6503.1464
 30
0.0
  0
SPLINE
  5
DA
330
1F
100
AcDbEntity
  8
Layer 1
 62
   250
370
    20
100
AcDbSpline
210
0.0
220
0.0
230
1.0
 70
    11
 71
     3
 72
    44
 73
    40
 74
     0
 42
0.0000000001
 43
0.0000000001
 12
1.0
 22
0.0
 32
0.0
 13
1.0
 23
0.0
 33
0.0
 40
0.0
 40
0.0
 40
0.0
 40
0.0
 40
0.0909090909090909
 40
0.0909090909090909
 40
0.0909090909090909
 40
0.0909090909090909
 40
0.1818181818181818
 40
0.1818181818181818
 40
0.1818181818181818
 40
0.1818181818181818
 40
0.2727272727272727
 40
0.2727272727272727
 40
0.2727272727272727
 40
0.2727272727272727
 40
0.3636363636363636
 40
0.3636363636363636
 40
0.3636363636363636
 40
0.3636363636363636
 40
0.4545454545454545
 40
0.4545454545454545
 40
0.4545454545454545
 40
0.4545454545454545
 40
0.5454545454545454
 40
0.5454545454545454
 40
0.5454545454545454
 40
0.5454545454545454
 40
0.6363636363636364
 40
0.6363636363636364
 40
0.6363636363636364
 40
0.6363636363636364
 40
0.7272727272727273
 40
0.7272727272727273
 40
0.7272727272727273
 40
0.7272727272727273
 40
0.8181818181818182
 40
0.8181818181818182
 40
0.8181818181818182
 40
0.8181818181818182
 40
1.0
 40
1.0
 40
1.0
 40
1.0
 10
6868.2928
 20
-6503.1467
 30
0.0
 10
6868.2928
 20
-6503.1467
 30
0.0
 10
6860.5817
 20
-6538.8145
 30
0.0
 10
6860.5817
 20
-6538.8145
 30
0.0
 10
6860.5817
 20
-6538.8145
 30
0.0
 10
6860.5817
 20
-6538.8145
 30
0.0
 10
6892.4487
 20
-6556.9937
 30
0.0
 10
6892.4487
 20
-6556.9937
 30
0.0
 10
6892.4487
 20
-6556.9937
 30
0.0
 10
6892.4487
 20
-6556.9937
 30
0.0
 10
6855.8865
 20
-6560.7369
 30
0.0
 10
6855.8865
 20
-6560.7369
 30
0.0
 10
6855.8865
 20
-6560.7369
 30
0.0
 10
6855.8865
 20
-6560.7369
 30
0.0
 10
6848.3137
 20
-6596.434
 30
0.0
 10
6848.3137
 20
-6596.434
 30
0.0
 10
6848.3137
 20
-6596.434
 30
0.0
 10
6848.3137
 20
-6596.434
 30
0.0
 10
6833.4281
 20
-6563.0799
 30
0.0
 10
6833.4281
 20
-6563.0799
 30
0.0
 10
6833.4281
 20
-6563.0799
 30
0.0
 10
6833.4281
 20
-6563.0799
 30
0.0
 10
6796.8808
 20
-6566.9625
 30
0.0
 10
6796.8808
 20
-6566.9625
 30
0.0
 10
6796.8808
 20
-6566.9625
 30
0.0
 10
6796.8808
 20
-6566.9625
 30
0.0
 10
6824.2433
 20
-6542.6051
 30
0.0
 10
6824.2433
 20
-6542.6051
 30
0.0
 10
6824.2433
 20
-6542.6051
 30
0.0
 10
6824.2433
 20
-6542.6051
 30
0.0
 10
6809.2286
 20
-6509.3076
 30
0.0
 10
6809.2286
 20
-6509.3076
 30
0.0
 10
6809.2286
 20
-6509.3076
 30
0.0
 10
6809.2286
 20
-6509.3076
 30
0.0
 10
6841.025
 20
-6527.6083
 30
0.0
 10
6841.025
 20
-6527.6083
 30
0.0
 10
6841.025
 20
-6527.6083
 30
0.0
 10
6841.025
 20
-6527.6083
 30
0.0
 10
6868.2928
 20
-6503.1467
 30
0.0
 10
6868.2928
 20
-6503.1467
 30
0.0
  0
SPLINE
  5
DB
330
1F
100
AcDbEntity
  8
Layer 1
 62
   250
370
    20
100
AcDbSpline
210
0.0
220
0.0
230
1.0
 70
    11
 71
     3
 72
    20
 73
    16
 74
     0
 42
0.0000000001
 43
0.0000000001
 12
1.0
 22
0.0
 32
0.0
 13
1.0
 23
0.0
 33
0.0
 40
0.0
 40
0.0
 40
0.0
 40
0.0
 40
0.2
 40
0.2
 40
0.2
 40
0.2
 40
0.4
 40
0.4
 40
0.4
 40
0.4
 40
0.6
 40
0.6
 40
0.6
 40
0.6
 40
1.0
 40
1.0
 40
1.0
 40
1.0
 10
6796.0889
 20
-6379.0264
 30
0.0
 10
6796.0889
 20
-6379.0264
 30
0.0
 10
6861.5895
 20
-6358.0423
 30
0.0
 10
6861.5895
 20
-6358.0423
 30
0.0
 10
6861.5895
 20
-6358.0423
 30
0.0
 10
6861.5895
 20
-6358.0423
 30
0.0
 10
6880.7005
 20
-6379.0263
 30
0.0
 10
6880.7005
 20
-6379.0263
 30
0.0
 10
6880.7005
 20
-6379.0263
 30
0.0
 10
6880.7005
 20
-6379.0263
 30
0.0
 10
6861.5895
 20
-6400.0105
 30
0.0
 10
6861.5895
 20
-6400.0105
 30
0.0
 10
6861.5895
 20
-6400.0105
 30
0.0
 10
6861.5895
 20
-6400.0105
 30
0.0
 10
6796.0889
 20
-6379.0264
 30
0.0
 10
6796.0889
 20
-6379.0264
 30
0.0
  0
SPLINE
  5
DC
330
1F
100
AcDbEntity
  8
Layer 1
 62
   250
370
    20
100
AcDbSpline
210
0.0
220
0.0
230
1.0
 70
    11
 71
     3
 72
    44
 73
    40
 74
     0
 42
0.0000000001
 43
0.0000000001
 12
1.0
 22
0.0
 32
0.0
 13
1.0
 23
0.0
 33
0.0
 40
0.0
 40
0.0
 40
0.0
 40
0.0
 40
0.0909090909090909
 40
0.0909090909090909
 40
0.0909090909090909
 40
0.0909090909090909
 40
0.1818181818181818
 40
0.1818181818181818
 40
0.1818181818181818
 40
0.1818181818181818
 40
0.2727272727272727
 40
0.2727272727272727
 40
0.2727272727272727
 40
0.2727272727272727
 40
0.3636363636363636
 40
0.3636363636363636
 40
0.3636363636363636
 40
0.3636363636363636
 40
0.4545454545454545
 40
0.4545454545454545
 40
0.4545454545454545
 40
0.4545454545454545
 40
0.5454545454545454
 40
0.5454545454545454
 40
0.5454545454545454
 40
0.5454545454545454
 40
0.6363636363636364
 40
0.6363636363636364
 40
0.6363636363636364
 40
0.6363636363636364
 40
0.7272727272727273
 40
0.7272727272727273
 40
0.7272727272727273
 40
0.7272727272727273
 40
0.8181818181818182
 40
0.8181818181818182
 40
0.8181818181818182
 40
0.8181818181818182
 40
1.0
 40
1.0
 40
1.0
 40
1.0
 10
6796.0889
 20
-6379.0265
 30
0.0
 10
6796.0889
 20
-6379.0265
 30
0.0
 10
6761.1103
 20
-6390.2325
 30
0.0
 10
6761.1103
 20
-6390.2325
 30
0.0
 10
6761.1103
 20
-6390.2325
 30
0.0
 10
6761.1103
 20
-6390.2325
 30
0.0
 10
6761.1808
 20
-6426.7123
 30
0.0
 10
6761.1808
 20
-6426.7123
 30
0.0
 10
6761.1808
 20
-6426.7123
 30
0.0
 10
6761.1808
 20
-6426.7123
 30
0.0
 10
6739.6333
 20
-6397.1584
 30
0.0
 10
6739.6333
 20
-6397.1584
 30
0.0
 10
6739.6333
 20
-6397.1584
 30
0.0
 10
6739.6333
 20
-6397.1584
 30
0.0
 10
6704.6982
 20
-6408.4981
 30
0.0
 10
6704.6982
 20
-6408.4981
 30
0.0
 10
6704.6982
 20
-6408.4981
 30
0.0
 10
6704.6982
 20
-6408.4981
 30
0.0
 10
6726.3598
 20
-6379.0264
 30
0.0
 10
6726.3598
 20
-6379.0264
 30
0.0
 10
6726.3598
 20
-6379.0264
 30
0.0
 10
6726.3598
 20
-6379.0264
 30
0.0
 10
6704.6982
 20
-6349.5549
 30
0.0
 10
6704.6982
 20
-6349.5549
 30
0.0
 10
6704.6982
 20
-6349.5549
 30
0.0
 10
6704.6982
 20
-6349.5549
 30
0.0
 10
6739.6333
 20
-6360.8945
 30
0.0
 10
6739.6333
 20
-6360.8945
 30
0.0
 10
6739.6333
 20
-6360.8945
 30
0.0
 10
6739.6333
 20
-6360.8945
 30
0.0
 10
6761.1808
 20
-6331.3405
 30
0.0
 10
6761.1808
 20
-6331.3405
 30
0.0
 10
6761.1808
 20
-6331.3405
 30
0.0
 10
6761.1808
 20
-6331.3405
 30
0.0
 10
6761.11
 20
-6367.8202
 30
0.0
 10
6761.11
 20
-6367.8202
 30
0.0
 10
6761.11
 20
-6367.8202
 30
0.0
 10
6761.11
 20
-6367.8202
 30
0.0
 10
6796.0889
 20
-6379.0265
 30
0.0
 10
6796.0889
 20
-6379.0265
 30
0.0
  0
SPLINE
  5
DD
330
1F
100
AcDbEntity
  8
Layer 1
 62
   250
370
    20
100
AcDbSpline
210
0.0
220
0.0
230
1.0
 70
    11
 71
     3
 72
    20
 73
    16
 74
     0
 42
0.0000000001
 43
0.0000000001
 12
1.0
 22
0.0
 32
0.0
 13
1.0
 23
0.0
 33
0.0
 40
0.0
 40
0.0
 40
0.0
 40
0.0
 40
0.2
 40
0.2
 40
0.2
 40
0.2
 40
0.4
 40
0.4
 40
0.4
 40
0.4
 40
0.6
 40
0.6
 40
0.6
 40
0.6
 40
1.0
 40
1.0
 40
1.0
 40
1.0
 10
6868.2928
 20
-6254.9063
 30
0.0
 10
6868.2928
 20
-6254.9063
 30
0.0
 10
6919.3534
 20
-6300.7128
 30
0.0
 10
6919.3534
 20
-6300.7128
 30
0.0
 10
6919.3534
 20
-6300.7128
 30
0.0
 10
6919.3534
 20
-6300.7128
 30
0.0
 10
6910.5986
 20
-6327.631
 30
0.0
 10
6910.5986
 20
-6327.631
 30
0.0
 10
6910.5986
 20
-6327.631
 30
0.0
 10
6910.5986
 20
-6327.631
 30
0.0
 10
6882.7327
 20
-6321.6968
 30
0.0
 10
6882.7327
 20
-6321.6968
 30
0.0
 10
6882.7327
 20
-6321.6968
 30
0.0
 10
6882.7327
 20
-6321.6968
 30
0.0
 10
6868.2928
 20
-6254.9063
 30
0.0
 10
6868.2928
 20
-6254.9063
 30
0.0
  0
SPLINE
  5
DE
330
1F
100
AcDbEntity
  8
Layer 1
 62
   250
370
    20
100
AcDbSpline
210
0.0
220
0.0
230
1.0
 70
    11
 71
     3
 72
    44
 73
    40
 74
     0
 42
0.0000000001
 43
0.0000000001
 12
1.0
 22
0.0
 32
0.0
 13
1.0
 23
0.0
 33
0.0
 40
0.0
 40
0.0
 40
0.0
 40
0.0
 40
0.0909090909090909
 40
0.0909090909090909
 40
0.0909090909090909
 40
0.0909090909090909
 40
0.1818181818181818
 40
0.1818181818181818
 40
0.1818181818181818
 40
0.1818181818181818
 40
0.2727272727272727
 40
0.2727272727272727
 40
0.2727272727272727
 40
0.2727272727272727
 40
0.3636363636363636
 40
0.3636363636363636
 40
0.3636363636363636
 40
0.3636363636363636
 40
0.4545454545454545
 40
0.4545454545454545
 40
0.4545454545454545
 40
0.4545454545454545
 40
0.5454545454545454
 40
0.5454545454545454
 40
0.5454545454545454
 40
0.5454545454545454
 40
0.6363636363636364
 40
0.6363636363636364
 40
0.6363636363636364
 40
0.6363636363636364
 40
0.7272727272727273
 40
0.7272727272727273
 40
0.7272727272727273
 40
0.7272727272727273
 40
0.8181818181818182
 40
0.8181818181818182
 40
0.8181818181818182
 40
0.8181818181818182
 40
1.0
 40
1.0
 40
1.0
 40
1.0
 10
6868.2926
 20
-6254.9063
 30
0.0
 10
6868.2926
 20
-6254.9063
 30
0.0
 10
6841.0249
 20
-6230.4446
 30
0.0
 10
6841.0249
 20
-6230.4446
 30
0.0
 10
6841.0249
 20
-6230.4446
 30
0.0
 10
6841.0249
 20
-6230.4446
 30
0.0
 10
6809.2286
 20
-6248.7452
 30
0.0
 10
6809.2286
 20
-6248.7452
 30
0.0
 10
6809.2286
 20
-6248.7452
 30
0.0
 10
6809.2286
 20
-6248.7452
 30
0.0
 10
6824.2433
 20
-6215.4477
 30
0.0
 10
6824.2433
 20
-6215.4477
 30
0.0
 10
6824.2433
 20
-6215.4477
 30
0.0
 10
6824.2433
 20
-6215.4477
 30
0.0
 10
6796.8808
 20
-6191.0902
 30
0.0
 10
6796.8808
 20
-6191.0902
 30
0.0
 10
6796.8808
 20
-6191.0902
 30
0.0
 10
6796.8808
 20
-6191.0902
 30
0.0
 10
6833.4279
 20
-6194.9726
 30
0.0
 10
6833.4279
 20
-6194.9726
 30
0.0
 10
6833.4279
 20
-6194.9726
 30
0.0
 10
6833.4279
 20
-6194.9726
 30
0.0
 10
6848.3137
 20
-6161.6186
 30
0.0
 10
6848.3137
 20
-6161.6186
 30
0.0
 10
6848.3137
 20
-6161.6186
 30
0.0
 10
6848.3137
 20
-6161.6186
 30
0.0
 10
6855.8865
 20
-6197.3157
 30
0.0
 10
6855.8865
 20
-6197.3157
 30
0.0
 10
6855.8865
 20
-6197.3157
 30
0.0
 10
6855.8865
 20
-6197.3157
 30
0.0
 10
6892.4486
 20
-6201.0593
 30
0.0
 10
6892.4486
 20
-6201.0593
 30
0.0
 10
6892.4486
 20
-6201.0593
 30
0.0
 10
6892.4486
 20
-6201.0593
 30
0.0
 10
6860.5817
 20
-6219.2383
 30
0.0
 10
6860.5817
 20
-6219.2383
 30
0.0
 10
6860.5817
 20
-6219.2383
 30
0.0
 10
6860.5817
 20
-6219.2383
 30
0.0
 10
6868.2926
 20
-6254.9063
 30
0.0
 10
6868.2926
 20
-6254.9063
 30
0.0
  0
SPLINE
  5
DF
330
1F
100
AcDbEntity
  8
Layer 1
 62
   250
370
    20
100
AcDbSpline
210
0.0
220
0.0
230
1.0
 70
    11
 71
     3
 72
    20
 73
    16
 74
     0
 42
0.0000000001
 43
0.0000000001
 12
1.0
 22
0.0
 32
0.0
 13
1.0
 23
0.0
 33
0.0
 40
0.0
 40
0.0
 40
0.0
 40
0.0
 40
0.2
 40
0.2
 40
0.2
 40
0.2
 40
0.4
 40
0.4
 40
0.4
 40
0.4
 40
0.6
 40
0.6
 40
0.6
 40
0.6
 40
1.0
 40
1.0
 40
1.0
 40
1.0
 10
7012.7
 20
-6254.9063
 30
0.0
 10
7012.7
 20
-6254.9063
 30
0.0
 10
6998.2603
 20
-6321.697
 30
0.0
 10
6998.2603
 20
-6321.697
 30
0.0
 10
6998.2603
 20
-6321.697
 30
0.0
 10
6998.2603
 20
-6321.697
 30
0.0
 10
6970.3942
 20
-6327.6311
 30
0.0
 10
6970.3942
 20
-6327.6311
 30
0.0
 10
6970.3942
 20
-6327.6311
 30
0.0
 10
6970.3942
 20
-6327.6311
 30
0.0
 10
6961.6397
 20
-6300.7126
 30
0.0
 10
6961.6397
 20
-6300.7126
 30
0.0
 10
6961.6397
 20
-6300.7126
 30
0.0
 10
6961.6397
 20
-6300.7126
 30
0.0
 10
7012.7
 20
-6254.9063
 30
0.0
 10
7012.7
 20
-6254.9063
 30
0.0
  0
SPLINE
  5
E0
330
1F
100
AcDbEntity
  8
Layer 1
 62
   250
370
    20
100
AcDbSpline
210
0.0
220
0.0
230
1.0
 70
    11
 71
     3
 72
    44
 73
    40
 74
     0
 42
0.0000000001
 43
0.0000000001
 12
1.0
 22
0.0
 32
0.0
 13
1.0
 23
0.0
 33
0.0
 40
0.0
 40
0.0
 40
0.0
 40
0.0
 40
0.0909090909090909
 40
0.0909090909090909
 40
0.0909090909090909
 40
0.0909090909090909
 40
0.1818181818181818
 40
0.1818181818181818
 40
0.1818181818181818
 40
0.1818181818181818
 40
0.2727272727272727
 40
0.2727272727272727
 40
0.2727272727272727
 40
0.2727272727272727
 40
0.3636363636363636
 40
0.3636363636363636
 40
0.3636363636363636
 40
0.3636363636363636
 40
0.4545454545454545
 40
0.4545454545454545
 40
0.4545454545454545
 40
0.4545454545454545
 40
0.5454545454545454
 40
0.5454545454545454
 40
0.5454545454545454
 40
0.5454545454545454
 40
0.6363636363636364
 40
0.6363636363636364
 40
0.6363636363636364
 40
0.6363636363636364
 40
0.7272727272727273
 40
0.7272727272727273
 40
0.7272727272727273
 40
0.7272727272727273
 40
0.8181818181818182
 40
0.8181818181818182
 40
0.8181818181818182
 40
0.8181818181818182
 40
1.0
 40
1.0
 40
1.0
 40
1.0
 10
7012.7
 20
-6254.9063
 30
0.0
 10
7012.7
 20
-6254.9063
 30
0.0
 10
7020.4111
 20
-6219.2383
 30
0.0
 10
7020.4111
 20
-6219.2383
 30
0.0
 10
7020.4111
 20
-6219.2383
 30
0.0
 10
7020.4111
 20
-6219.2383
 30
0.0
 10
6988.5439
 20
-6201.0592
 30
0.0
 10
6988.5439
 20
-6201.0592
 30
0.0
 10
6988.5439
 20
-6201.0592
 30
0.0
 10
6988.5439
 20
-6201.0592
 30
0.0
 10
7025.1063
 20
-6197.3157
 30
0.0
 10
7025.1063
 20
-6197.3157
 30
0.0
 10
7025.1063
 20
-6197.3157
 30
0.0
 10
7025.1063
 20
-6197.3157
 30
0.0
 10
7032.6791
 20
-6161.6186
 30
0.0
 10
7032.6791
 20
-6161.6186
 30
0.0
 10
7032.6791
 20
-6161.6186
 30
0.0
 10
7032.6791
 20
-6161.6186
 30
0.0
 10
7047.5647
 20
-6194.9729
 30
0.0
 10
7047.5647
 20
-6194.9729
 30
0.0
 10
7047.5647
 20
-6194.9729
 30
0.0
 10
7047.5647
 20
-6194.9729
 30
0.0
 10
7084.1119
 20
-6191.0902
 30
0.0
 10
7084.1119
 20
-6191.0902
 30
0.0
 10
7084.1119
 20
-6191.0902
 30
0.0
 10
7084.1119
 20
-6191.0902
 30
0.0
 10
7056.7496
 20
-6215.4477
 30
0.0
 10
7056.7496
 20
-6215.4477
 30
0.0
 10
7056.7496
 20
-6215.4477
 30
0.0
 10
7056.7496
 20
-6215.4477
 30
0.0
 10
7071.7643
 20
-6248.7452
 30
0.0
 10
7071.7643
 20
-6248.7452
 30
0.0
 10
7071.7643
 20
-6248.7452
 30
0.0
 10
7071.7643
 20
-6248.7452
 30
0.0
 10
7039.9679
 20
-6230.4446
 30
0.0
 10
7039.9679
 20
-6230.4446
 30
0.0
 10
7039.9679
 20
-6230.4446
 30
0.0
 10
7039.9679
 20
-6230.4446
 30
0.0
 10
7012.7
 20
-6254.9063
 30
0.0
 10
7012.7
 20
-6254.9063
 30
0.0
  0
SPLINE
  5
E1
330
1F
100
AcDbEntity
  8
Layer 1
 62
   250
370
    20
100
AcDbSpline
210
0.0
220
0.0
230
1.0
 70
    11
 71
     3
 72
    20
 73
    16
 74
     0
 42
0.0000000001
 43
0.0000000001
 12
1.0
 22
0.0
 32
0.0
 13
1.0
 23
0.0
 33
0.0
 40
0.0
 40
0.0
 40
0.0
 40
0.0
 40
0.2
 40
0.2
 40
0.2
 40
0.2
 40
0.4
 40
0.4
 40
0.4
 40
0.4
 40
0.6
 40
0.6
 40
0.6
 40
0.6
 40
1.0
 40
1.0
 40
1.0
 40
1.0
 10
7084.9035
 20
-6379.0264
 30
0.0
 10
7084.9035
 20
-6379.0264
 30
0.0
 10
7019.4033
 20
-6400.0105
 30
0.0
 10
7019.4033
 20
-6400.0105
 30
0.0
 10
7019.4033
 20
-6400.0105
 30
0.0
 10
7019.4033
 20
-6400.0105
 30
0.0
 10
7000.2923
 20
-6379.0265
 30
0.0
 10
7000.2923
 20
-6379.0265
 30
0.0
 10
7000.2923
 20
-6379.0265
 30
0.0
 10
7000.2923
 20
-6379.0265
 30
0.0
 10
7019.4033
 20
-6358.0423
 30
0.0
 10
7019.4033
 20
-6358.0423
 30
0.0
 10
7019.4033
 20
-6358.0423
 30
0.0
 10
7019.4033
 20
-6358.0423
 30
0.0
 10
7084.9035
 20
-6379.0264
 30
0.0
 10
7084.9035
 20
-6379.0264
 30
0.0
  0
SPLINE
  5
E2
330
1F
100
AcDbEntity
  8
Layer 1
 62
   250
370
    20
100
AcDbSpline
210
0.0
220
0.0
230
1.0
 70
    11
 71
     3
 72
    44
 73
    40
 74
     0
 42
0.0000000001
 43
0.0000000001
 12
1.0
 22
0.0
 32
0.0
 13
1.0
 23
0.0
 33
0.0
 40
0.0
 40
0.0
 40
0.0
 40
0.0
 40
0.0909090909090909
 40
0.0909090909090909
 40
0.0909090909090909
 40
0.0909090909090909
 40
0.1818181818181818
 40
0.1818181818181818
 40
0.1818181818181818
 40
0.1818181818181818
 40
0.2727272727272727
 40
0.2727272727272727
 40
0.2727272727272727
 40
0.2727272727272727
 40
0.3636363636363636
 40
0.3636363636363636
 40
0.3636363636363636
 40
0.3636363636363636
 40
0.4545454545454545
 40
0.4545454545454545
 40
0.4545454545454545
 40
0.4545454545454545
 40
0.5454545454545454
 40
0.5454545454545454
 40
0.5454545454545454
 40
0.5454545454545454
 40
0.6363636363636364
 40
0.6363636363636364
 40
0.6363636363636364
 40
0.6363636363636364
 40
0.7272727272727273
 40
0.7272727272727273
 40
0.7272727272727273
 40
0.7272727272727273
 40
0.8181818181818182
 40
0.8181818181818182
 40
0.8181818181818182
 40
0.8181818181818182
 40
1.0
 40
1.0
 40
1.0
 40
1.0
 10
7084.9038
 20
-6379.0264
 30
0.0
 10
7084.9038
 20
-6379.0264
 30
0.0
 10
7119.8827
 20
-6367.8203
 30
0.0
 10
7119.8827
 20
-6367.8203
 30
0.0
 10
7119.8827
 20
-6367.8203
 30
0.0
 10
7119.8827
 20
-6367.8203
 30
0.0
 10
7119.8119
 20
-6331.3406
 30
0.0
 10
7119.8119
 20
-6331.3406
 30
0.0
 10
7119.8119
 20
-6331.3406
 30
0.0
 10
7119.8119
 20
-6331.3406
 30
0.0
 10
7141.3596
 20
-6360.8945
 30
0.0
 10
7141.3596
 20
-6360.8945
 30
0.0
 10
7141.3596
 20
-6360.8945
 30
0.0
 10
7141.3596
 20
-6360.8945
 30
0.0
 10
7176.2948
 20
-6349.5549
 30
0.0
 10
7176.2948
 20
-6349.5549
 30
0.0
 10
7176.2948
 20
-6349.5549
 30
0.0
 10
7176.2948
 20
-6349.5549
 30
0.0
 10
7154.633
 20
-6379.0265
 30
0.0
 10
7154.633
 20
-6379.0265
 30
0.0
 10
7154.633
 20
-6379.0265
 30
0.0
 10
7154.633
 20
-6379.0265
 30
0.0
 10
7176.2948
 20
-6408.4981
 30
0.0
 10
7176.2948
 20
-6408.4981
 30
0.0
 10
7176.2948
 20
-6408.4981
 30
0.0
 10
7176.2948
 20
-6408.4981
 30
0.0
 10
7141.3596
 20
-6397.1584
 30
0.0
 10
7141.3596
 20
-6397.1584
 30
0.0
 10
7141.3596
 20
-6397.1584
 30
0.0
 10
7141.3596
 20
-6397.1584
 30
0.0
 10
7119.8119
 20
-6426.7124
 30
0.0
 10
7119.8119
 20
-6426.7124
 30
0.0
 10
7119.8119
 20
-6426.7124
 30
0.0
 10
7119.8119
 20
-6426.7124
 30
0.0
 10
7119.8827
 20
-6390.2326
 30
0.0
 10
7119.8827
 20
-6390.2326
 30
0.0
 10
7119.8827
 20
-6390.2326
 30
0.0
 10
7119.8827
 20
-6390.2326
 30
0.0
 10
7084.9038
 20
-6379.0264
 30
0.0
 10
7084.9038
 20
-6379.0264
 30
0.0
  0
SPLINE
  5
E3
330
1F
100
AcDbEntity
  8
Layer 1
 62
   250
370
    20
100
AcDbSpline
210
0.0
220
0.0
230
1.0
 70
    11
 71
     3
 72
    28
 73
    24
 74
     0
 42
0.0000000001
 43
0.0000000001
 12
1.0
 22
0.0
 32
0.0
 13
1.0
 23
0.0
 33
0.0
 40
0.0
 40
0.0
 40
0.0
 40
0.0
 40
0.1428571428571428
 40
0.1428571428571428
 40
0.1428571428571428
 40
0.1428571428571428
 40
0.2857142857142857
 40
0.2857142857142857
 40
0.2857142857142857
 40
0.2857142857142857
 40
0.4285714285714285
 40
0.4285714285714285
 40
0.4285714285714285
 40
0.4285714285714285
 40
0.5714285714285714
 40
0.5714285714285714
 40
0.5714285714285714
 40
0.5714285714285714
 40
0.7142857142857143
 40
0.7142857142857143
 40
0.7142857142857143
 40
0.7142857142857143
 40
1.0
 40
1.0
 40
1.0
 40
1.0
 10
6815.3638
 20
-6450.7286
 30
0.0
 10
6815.3638
 20
-6450.7286
 30
0.0
 10
6790.7888
 20
-6477.7501
 30
0.0
 10
6790.7888
 20
-6477.7501
 30
0.0
 10
6790.7888
 20
-6477.7501
 30
0.0
 10
6790.7888
 20
-6477.7501
 30
0.0
 10
6809.1865
 20
-6509.2358
 30
0.0
 10
6809.1865
 20
-6509.2358
 30
0.0
 10
6809.1865
 20
-6509.2358
 30
0.0
 10
6809.1865
 20
-6509.2358
 30
0.0
 10
6750.7896
 20
-6487.7301
 30
0.0
 10
6750.7896
 20
-6487.7301
 30
0.0
 10
6750.7896
 20
-6487.7301
 30
0.0
 10
6750.7896
 20
-6487.7301
 30
0.0
 10
6761.2227
 20
-6426.7844
 30
0.0
 10
6761.2227
 20
-6426.7844
 30
0.0
 10
6761.2227
 20
-6426.7844
 30
0.0
 10
6761.2227
 20
-6426.7844
 30
0.0
 10
6779.4978
 20
-6458.3403
 30
0.0
 10
6779.4978
 20
-6458.3403
 30
0.0
 10
6779.4978
 20
-6458.3403
 30
0.0
 10
6779.4978
 20
-6458.3403
 30
0.0
 10
6815.3638
 20
-6450.7286
 30
0.0
 10
6815.3638
 20
-6450.7286
 30
0.0
  0
SPLINE
  5
E4
330
1F
100
AcDbEntity
  8
Layer 1
 62
   250
370
    20
100
AcDbSpline
210
0.0
220
0.0
230
1.0
 70
    11
 71
     3
 72
    20
 73
    16
 74
     0
 42
0.0000000001
 43
0.0000000001
 12
1.0
 22
0.0
 32
0.0
 13
1.0
 23
0.0
 33
0.0
 40
0.0
 40
0.0
 40
0.0
 40
0.0
 40
0.2
 40
0.2
 40
0.2
 40
0.2
 40
0.4
 40
0.4
 40
0.4
 40
0.4
 40
0.6
 40
0.6
 40
0.6
 40
0.6
 40
1.0
 40
1.0
 40
1.0
 40
1.0
 10
6815.436
 20
-6450.6871
 30
0.0
 10
6815.436
 20
-6450.6871
 30
0.0
 10
6861.6311
 20
-6400.0819
 30
0.0
 10
6861.6311
 20
-6400.0819
 30
0.0
 10
6861.6311
 20
-6400.0819
 30
0.0
 10
6861.6311
 20
-6400.0819
 30
0.0
 10
6888.7117
 20
-6408.6993
 30
0.0
 10
6888.7117
 20
-6408.6993
 30
0.0
 10
6888.7117
 20
-6408.6993
 30
0.0
 10
6888.7117
 20
-6408.6993
 30
0.0
 10
6882.6908
 20
-6436.2845
 30
0.0
 10
6882.6908
 20
-6436.2845
 30
0.0
 10
6882.6908
 20
-6436.2845
 30
0.0
 10
6882.6908
 20
-6436.2845
 30
0.0
 10
6815.436
 20
-6450.6871
 30
0.0
 10
6815.436
 20
-6450.6871
 30
0.0
  0
SPLINE
  5
E5
330
1F
100
AcDbEntity
  8
Layer 1
 62
   250
370
    20
100
AcDbSpline
210
0.0
220
0.0
230
1.0
 70
    11
 71
     3
 72
    28
 73
    24
 74
     0
 42
0.0000000001
 43
0.0000000001
 12
1.0
 22
0.0
 32
0.0
 13
1.0
 23
0.0
 33
0.0
 40
0.0
 40
0.0
 40
0.0
 40
0.0
 40
0.1428571428571428
 40
0.1428571428571428
 40
0.1428571428571428
 40
0.1428571428571428
 40
0.2857142857142857
 40
0.2857142857142857
 40
0.2857142857142857
 40
0.2857142857142857
 40
0.4285714285714285
 40
0.4285714285714285
 40
0.4285714285714285
 40
0.4285714285714285
 40
0.5714285714285714
 40
0.5714285714285714
 40
0.5714285714285714
 40
0.5714285714285714
 40
0.7142857142857143
 40
0.7142857142857143
 40
0.7142857142857143
 40
0.7142857142857143
 40
1.0
 40
1.0
 40
1.0
 40
1.0
 10
6940.4963
 20
-6522.4305
 30
0.0
 10
6940.4963
 20
-6522.4305
 30
0.0
 10
6951.7876
 20
-6557.0637
 30
0.0
 10
6951.7876
 20
-6557.0637
 30
0.0
 10
6951.7876
 20
-6557.0637
 30
0.0
 10
6951.7876
 20
-6557.0637
 30
0.0
 10
6988.4604
 20
-6556.9937
 30
0.0
 10
6988.4604
 20
-6556.9937
 30
0.0
 10
6988.4604
 20
-6556.9937
 30
0.0
 10
6988.4604
 20
-6556.9937
 30
0.0
 10
6940.4963
 20
-6596.434
 30
0.0
 10
6940.4963
 20
-6596.434
 30
0.0
 10
6940.4963
 20
-6596.434
 30
0.0
 10
6940.4963
 20
-6596.434
 30
0.0
 10
6892.5325
 20
-6556.9937
 30
0.0
 10
6892.5325
 20
-6556.9937
 30
0.0
 10
6892.5325
 20
-6556.9937
 30
0.0
 10
6892.5325
 20
-6556.9937
 30
0.0
 10
6929.2055
 20
-6557.0637
 30
0.0
 10
6929.2055
 20
-6557.0637
 30
0.0
 10
6929.2055
 20
-6557.0637
 30
0.0
 10
6929.2055
 20
-6557.0637
 30
0.0
 10
6940.4963
 20
-6522.4305
 30
0.0
 10
6940.4963
 20
-6522.4305
 30
0.0
  0
SPLINE
  5
E6
330
1F
100
AcDbEntity
  8
Layer 1
 62
   250
370
    20
100
AcDbSpline
210
0.0
220
0.0
230
1.0
 70
    11
 71
     3
 72
    20
 73
    16
 74
     0
 42
0.0000000001
 43
0.0000000001
 12
1.0
 22
0.0
 32
0.0
 13
1.0
 23
0.0
 33
0.0
 40
0.0
 40
0.0
 40
0.0
 40
0.0
 40
0.2
 40
0.2
 40
0.2
 40
0.2
 40
0.4
 40
0.4
 40
0.4
 40
0.4
 40
0.6
 40
0.6
 40
0.6
 40
0.6
 40
1.0
 40
1.0
 40
1.0
 40
1.0
 10
6940.4964
 20
-6522.3478
 30
0.0
 10
6940.4964
 20
-6522.3478
 30
0.0
 10
6919.4367
 20
-6457.34
 30
0.0
 10
6919.4367
 20
-6457.34
 30
0.0
 10
6919.4367
 20
-6457.34
 30
0.0
 10
6919.4367
 20
-6457.34
 30
0.0
 10
6940.4963
 20
-6438.3726
 30
0.0
 10
6940.4963
 20
-6438.3726
 30
0.0
 10
6940.4963
 20
-6438.3726
 30
0.0
 10
6940.4963
 20
-6438.3726
 30
0.0
 10
6961.5562
 20
-6457.34
 30
0.0
 10
6961.5562
 20
-6457.34
 30
0.0
 10
6961.5562
 20
-6457.34
 30
0.0
 10
6961.5562
 20
-6457.34
 30
0.0
 10
6940.4964
 20
-6522.3478
 30
0.0
 10
6940.4964
 20
-6522.3478
 30
0.0
  0
SPLINE
  5
E7
330
1F
100
AcDbEntity
  8
Layer 1
 62
   250
370
    20
100
AcDbSpline
210
0.0
220
0.0
230
1.0
 70
    11
 71
     3
 72
    28
 73
    24
 74
     0
 42
0.0000000001
 43
0.0000000001
 12
1.0
 22
0.0
 32
0.0
 13
1.0
 23
0.0
 33
0.0
 40
0.0
 40
0.0
 40
0.0
 40
0.0
 40
0.1428571428571428
 40
0.1428571428571428
 40
0.1428571428571428
 40
0.1428571428571428
 40
0.2857142857142857
 40
0.2857142857142857
 40
0.2857142857142857
 40
0.2857142857142857
 40
0.4285714285714285
 40
0.4285714285714285
 40
0.4285714285714285
 40
0.4285714285714285
 40
0.5714285714285714
 40
0.5714285714285714
 40
0.5714285714285714
 40
0.5714285714285714
 40
0.7142857142857143
 40
0.7142857142857143
 40
0.7142857142857143
 40
0.7142857142857143
 40
1.0
 40
1.0
 40
1.0
 40
1.0
 10
7065.629
 20
-6450.7284
 30
0.0
 10
7065.629
 20
-6450.7284
 30
0.0
 10
7101.4946
 20
-6458.3403
 30
0.0
 10
7101.4946
 20
-6458.3403
 30
0.0
 10
7101.4946
 20
-6458.3403
 30
0.0
 10
7101.4946
 20
-6458.3403
 30
0.0
 10
7119.7702
 20
-6426.7844
 30
0.0
 10
7119.7702
 20
-6426.7844
 30
0.0
 10
7119.7702
 20
-6426.7844
 30
0.0
 10
7119.7702
 20
-6426.7844
 30
0.0
 10
7130.2033
 20
-6487.7301
 30
0.0
 10
7130.2033
 20
-6487.7301
 30
0.0
 10
7130.2033
 20
-6487.7301
 30
0.0
 10
7130.2033
 20
-6487.7301
 30
0.0
 10
7071.8064
 20
-6509.2356
 30
0.0
 10
7071.8064
 20
-6509.2356
 30
0.0
 10
7071.8064
 20
-6509.2356
 30
0.0
 10
7071.8064
 20
-6509.2356
 30
0.0
 10
7090.204
 20
-6477.7498
 30
0.0
 10
7090.204
 20
-6477.7498
 30
0.0
 10
7090.204
 20
-6477.7498
 30
0.0
 10
7090.204
 20
-6477.7498
 30
0.0
 10
7065.629
 20
-6450.7284
 30
0.0
 10
7065.629
 20
-6450.7284
 30
0.0
  0
SPLINE
  5
E8
330
1F
100
AcDbEntity
  8
Layer 1
 62
   250
370
    20
100
AcDbSpline
210
0.0
220
0.0
230
1.0
 70
    11
 71
     3
 72
    20
 73
    16
 74
     0
 42
0.0000000001
 43
0.0000000001
 12
1.0
 22
0.0
 32
0.0
 13
1.0
 23
0.0
 33
0.0
 40
0.0
 40
0.0
 40
0.0
 40
0.0
 40
0.2
 40
0.2
 40
0.2
 40
0.2
 40
0.4
 40
0.4
 40
0.4
 40
0.4
 40
0.6
 40
0.6
 40
0.6
 40
0.6
 40
1.0
 40
1.0
 40
1.0
 40
1.0
 10
7065.5568
 20
-6450.6871
 30
0.0
 10
7065.5568
 20
-6450.6871
 30
0.0
 10
6998.3018
 20
-6436.2845
 30
0.0
 10
6998.3018
 20
-6436.2845
 30
0.0
 10
6998.3018
 20
-6436.2845
 30
0.0
 10
6998.3018
 20
-6436.2845
 30
0.0
 10
6992.2809
 20
-6408.6997
 30
0.0
 10
6992.2809
 20
-6408.6997
 30
0.0
 10
6992.2809
 20
-6408.6997
 30
0.0
 10
6992.2809
 20
-6408.6997
 30
0.0
 10
7019.3616
 20
-6400.0823
 30
0.0
 10
7019.3616
 20
-6400.0823
 30
0.0
 10
7019.3616
 20
-6400.0823
 30
0.0
 10
7019.3616
 20
-6400.0823
 30
0.0
 10
7065.5568
 20
-6450.6871
 30
0.0
 10
7065.5568
 20
-6450.6871
 30
0.0
  0
SPLINE
  5
E9
330
1F
100
AcDbEntity
  8
Layer 1
 62
   250
370
    20
100
AcDbSpline
210
0.0
220
0.0
230
1.0
 70
    11
 71
     3
 72
    28
 73
    24
 74
     0
 42
0.0000000001
 43
0.0000000001
 12
1.0
 22
0.0
 32
0.0
 13
1.0
 23
0.0
 33
0.0
 40
0.0
 40
0.0
 40
0.0
 40
0.0
 40
0.1428571428571428
 40
0.1428571428571428
 40
0.1428571428571428
 40
0.1428571428571428
 40
0.2857142857142857
 40
0.2857142857142857
 40
0.2857142857142857
 40
0.2857142857142857
 40
0.4285714285714285
 40
0.4285714285714285
 40
0.4285714285714285
 40
0.4285714285714285
 40
0.5714285714285714
 40
0.5714285714285714
 40
0.5714285714285714
 40
0.5714285714285714
 40
0.7142857142857143
 40
0.7142857142857143
 40
0.7142857142857143
 40
0.7142857142857143
 40
1.0
 40
1.0
 40
1.0
 40
1.0
 10
7065.629
 20
-6307.3242
 30
0.0
 10
7065.629
 20
-6307.3242
 30
0.0
 10
7090.2038
 20
-6280.3029
 30
0.0
 10
7090.2038
 20
-6280.3029
 30
0.0
 10
7090.2038
 20
-6280.3029
 30
0.0
 10
7090.2038
 20
-6280.3029
 30
0.0
 10
7071.8063
 20
-6248.8171
 30
0.0
 10
7071.8063
 20
-6248.8171
 30
0.0
 10
7071.8063
 20
-6248.8171
 30
0.0
 10
7071.8063
 20
-6248.8171
 30
0.0
 10
7130.2033
 20
-6270.3227
 30
0.0
 10
7130.2033
 20
-6270.3227
 30
0.0
 10
7130.2033
 20
-6270.3227
 30
0.0
 10
7130.2033
 20
-6270.3227
 30
0.0
 10
7119.77
 20
-6331.2683
 30
0.0
 10
7119.77
 20
-6331.2683
 30
0.0
 10
7119.77
 20
-6331.2683
 30
0.0
 10
7119.77
 20
-6331.2683
 30
0.0
 10
7101.495
 20
-6299.7127
 30
0.0
 10
7101.495
 20
-6299.7127
 30
0.0
 10
7101.495
 20
-6299.7127
 30
0.0
 10
7101.495
 20
-6299.7127
 30
0.0
 10
7065.629
 20
-6307.3242
 30
0.0
 10
7065.629
 20
-6307.3242
 30
0.0
  0
SPLINE
  5
EA
330
1F
100
AcDbEntity
  8
Layer 1
 62
   250
370
    20
100
AcDbSpline
210
0.0
220
0.0
230
1.0
 70
    11
 71
     3
 72
    20
 73
    16
 74
     0
 42
0.0000000001
 43
0.0000000001
 12
1.0
 22
0.0
 32
0.0
 13
1.0
 23
0.0
 33
0.0
 40
0.0
 40
0.0
 40
0.0
 40
0.0
 40
0.2
 40
0.2
 40
0.2
 40
0.2
 40
0.4
 40
0.4
 40
0.4
 40
0.4
 40
0.6
 40
0.6
 40
0.6
 40
0.6
 40
1.0
 40
1.0
 40
1.0
 40
1.0
 10
7065.5568
 20
-6307.3656
 30
0.0
 10
7065.5568
 20
-6307.3656
 30
0.0
 10
7019.3616
 20
-6357.9708
 30
0.0
 10
7019.3616
 20
-6357.9708
 30
0.0
 10
7019.3616
 20
-6357.9708
 30
0.0
 10
7019.3616
 20
-6357.9708
 30
0.0
 10
6992.281
 20
-6349.3535
 30
0.0
 10
6992.281
 20
-6349.3535
 30
0.0
 10
6992.281
 20
-6349.3535
 30
0.0
 10
6992.281
 20
-6349.3535
 30
0.0
 10
6998.302
 20
-6321.7684
 30
0.0
 10
6998.302
 20
-6321.7684
 30
0.0
 10
6998.302
 20
-6321.7684
 30
0.0
 10
6998.302
 20
-6321.7684
 30
0.0
 10
7065.5568
 20
-6307.3656
 30
0.0
 10
7065.5568
 20
-6307.3656
 30
0.0
  0
SPLINE
  5
EB
330
1F
100
AcDbEntity
  8
Layer 1
 62
   250
370
    20
100
AcDbSpline
210
0.0
220
0.0
230
1.0
 70
    11
 71
     3
 72
    28
 73
    24
 74
     0
 42
0.0000000001
 43
0.0000000001
 12
1.0
 22
0.0
 32
0.0
 13
1.0
 23
0.0
 33
0.0
 40
0.0
 40
0.0
 40
0.0
 40
0.0
 40
0.1428571428571428
 40
0.1428571428571428
 40
0.1428571428571428
 40
0.1428571428571428
 40
0.2857142857142857
 40
0.2857142857142857
 40
0.2857142857142857
 40
0.2857142857142857
 40
0.4285714285714285
 40
0.4285714285714285
 40
0.4285714285714285
 40
0.4285714285714285
 40
0.5714285714285714
 40
0.5714285714285714
 40
0.5714285714285714
 40
0.5714285714285714
 40
0.7142857142857143
 40
0.7142857142857143
 40
0.7142857142857143
 40
0.7142857142857143
 40
1.0
 40
1.0
 40
1.0
 40
1.0
 10
6940.4964
 20
-6235.6223
 30
0.0
 10
6940.4964
 20
-6235.6223
 30
0.0
 10
6929.2055
 20
-6200.9888
 30
0.0
 10
6929.2055
 20
-6200.9888
 30
0.0
 10
6929.2055
 20
-6200.9888
 30
0.0
 10
6929.2055
 20
-6200.9888
 30
0.0
 10
6892.5325
 20
-6201.0592
 30
0.0
 10
6892.5325
 20
-6201.0592
 30
0.0
 10
6892.5325
 20
-6201.0592
 30
0.0
 10
6892.5325
 20
-6201.0592
 30
0.0
 10
6940.4963
 20
-6161.6186
 30
0.0
 10
6940.4963
 20
-6161.6186
 30
0.0
 10
6940.4963
 20
-6161.6186
 30
0.0
 10
6940.4963
 20
-6161.6186
 30
0.0
 10
6988.4602
 20
-6201.0592
 30
0.0
 10
6988.4602
 20
-6201.0592
 30
0.0
 10
6988.4602
 20
-6201.0592
 30
0.0
 10
6988.4602
 20
-6201.0592
 30
0.0
 10
6951.7876
 20
-6200.9888
 30
0.0
 10
6951.7876
 20
-6200.9888
 30
0.0
 10
6951.7876
 20
-6200.9888
 30
0.0
 10
6951.7876
 20
-6200.9888
 30
0.0
 10
6940.4964
 20
-6235.6223
 30
0.0
 10
6940.4964
 20
-6235.6223
 30
0.0
  0
SPLINE
  5
EC
330
1F
100
AcDbEntity
  8
Layer 1
 62
   250
370
    20
100
AcDbSpline
210
0.0
220
0.0
230
1.0
 70
    11
 71
     3
 72
    20
 73
    16
 74
     0
 42
0.0000000001
 43
0.0000000001
 12
1.0
 22
0.0
 32
0.0
 13
1.0
 23
0.0
 33
0.0
 40
0.0
 40
0.0
 40
0.0
 40
0.0
 40
0.2
 40
0.2
 40
0.2
 40
0.2
 40
0.4
 40
0.4
 40
0.4
 40
0.4
 40
0.6
 40
0.6
 40
0.6
 40
0.6
 40
1.0
 40
1.0
 40
1.0
 40
1.0
 10
6940.4963
 20
-6235.7049
 30
0.0
 10
6940.4963
 20
-6235.7049
 30
0.0
 10
6961.5562
 20
-6300.7128
 30
0.0
 10
6961.5562
 20
-6300.7128
 30
0.0
 10
6961.5562
 20
-6300.7128
 30
0.0
 10
6961.5562
 20
-6300.7128
 30
0.0
 10
6940.4964
 20
-6319.6802
 30
0.0
 10
6940.4964
 20
-6319.6802
 30
0.0
 10
6940.4964
 20
-6319.6802
 30
0.0
 10
6940.4964
 20
-6319.6802
 30
0.0
 10
6919.4367
 20
-6300.7128
 30
0.0
 10
6919.4367
 20
-6300.7128
 30
0.0
 10
6919.4367
 20
-6300.7128
 30
0.0
 10
6919.4367
 20
-6300.7128
 30
0.0
 10
6940.4963
 20
-6235.7049
 30
0.0
 10
6940.4963
 20
-6235.7049
 30
0.0
  0
SPLINE
  5
ED
330
1F
100
AcDbEntity
  8
Layer 1
 62
   250
370
    20
100
AcDbSpline
210
0.0
220
0.0
230
1.0
 70
    11
 71
     3
 72
    28
 73
    24
 74
     0
 42
0.0000000001
 43
0.0000000001
 12
1.0
 22
0.0
 32
0.0
 13
1.0
 23
0.0
 33
0.0
 40
0.0
 40
0.0
 40
0.0
 40
0.0
 40
0.1428571428571428
 40
0.1428571428571428
 40
0.1428571428571428
 40
0.1428571428571428
 40
0.2857142857142857
 40
0.2857142857142857
 40
0.2857142857142857
 40
0.2857142857142857
 40
0.4285714285714285
 40
0.4285714285714285
 40
0.4285714285714285
 40
0.4285714285714285
 40
0.5714285714285714
 40
0.5714285714285714
 40
0.5714285714285714
 40
0.5714285714285714
 40
0.7142857142857143
 40
0.7142857142857143
 40
0.7142857142857143
 40
0.7142857142857143
 40
1.0
 40
1.0
 40
1.0
 40
1.0
 10
6815.3642
 20
-6307.3245
 30
0.0
 10
6815.3642
 20
-6307.3245
 30
0.0
 10
6779.498
 20
-6299.7126
 30
0.0
 10
6779.498
 20
-6299.7126
 30
0.0
 10
6779.498
 20
-6299.7126
 30
0.0
 10
6779.498
 20
-6299.7126
 30
0.0
 10
6761.2229
 20
-6331.2683
 30
0.0
 10
6761.2229
 20
-6331.2683
 30
0.0
 10
6761.2229
 20
-6331.2683
 30
0.0
 10
6761.2229
 20
-6331.2683
 30
0.0
 10
6750.7897
 20
-6270.3227
 30
0.0
 10
6750.7897
 20
-6270.3227
 30
0.0
 10
6750.7897
 20
-6270.3227
 30
0.0
 10
6750.7897
 20
-6270.3227
 30
0.0
 10
6809.1863
 20
-6248.8172
 30
0.0
 10
6809.1863
 20
-6248.8172
 30
0.0
 10
6809.1863
 20
-6248.8172
 30
0.0
 10
6809.1863
 20
-6248.8172
 30
0.0
 10
6790.7891
 20
-6280.3029
 30
0.0
 10
6790.7891
 20
-6280.3029
 30
0.0
 10
6790.7891
 20
-6280.3029
 30
0.0
 10
6790.7891
 20
-6280.3029
 30
0.0
 10
6815.3642
 20
-6307.3245
 30
0.0
 10
6815.3642
 20
-6307.3245
 30
0.0
  0
SPLINE
  5
EE
330
1F
100
AcDbEntity
  8
Layer 1
 62
   250
370
    20
100
AcDbSpline
210
0.0
220
0.0
230
1.0
 70
    11
 71
     3
 72
    20
 73
    16
 74
     0
 42
0.0000000001
 43
0.0000000001
 12
1.0
 22
0.0
 32
0.0
 13
1.0
 23
0.0
 33
0.0
 40
0.0
 40
0.0
 40
0.0
 40
0.0
 40
0.2
 40
0.2
 40
0.2
 40
0.2
 40
0.4
 40
0.4
 40
0.4
 40
0.4
 40
0.6
 40
0.6
 40
0.6
 40
0.6
 40
1.0
 40
1.0
 40
1.0
 40
1.0
 10
6815.4362
 20
-6307.3656
 30
0.0
 10
6815.4362
 20
-6307.3656
 30
0.0
 10
6882.691
 20
-6321.7684
 30
0.0
 10
6882.691
 20
-6321.7684
 30
0.0
 10
6882.691
 20
-6321.7684
 30
0.0
 10
6882.691
 20
-6321.7684
 30
0.0
 10
6888.7118
 20
-6349.3532
 30
0.0
 10
6888.7118
 20
-6349.3532
 30
0.0
 10
6888.7118
 20
-6349.3532
 30
0.0
 10
6888.7118
 20
-6349.3532
 30
0.0
 10
6861.6311
 20
-6357.9706
 30
0.0
 10
6861.6311
 20
-6357.9706
 30
0.0
 10
6861.6311
 20
-6357.9706
 30
0.0
 10
6861.6311
 20
-6357.9706
 30
0.0
 10
6815.4362
 20
-6307.3656
 30
0.0
 10
6815.4362
 20
-6307.3656
 30
0.0
  0
SPLINE
  5
EF
330
1F
100
AcDbEntity
  8
Layer 1
 62
   250
370
    20
100
AcDbSpline
210
0.0
220
0.0
230
1.0
 70
    11
 71
     3
 72
    16
 73
    12
 74
     0
 42
0.0000000001
 43
0.0000000001
 12
1.0
 22
0.0
 32
0.0
 13
1.0
 23
0.0
 33
0.0
 40
0.0
 40
0.0
 40
0.0
 40
0.0
 40
0.25
 40
0.25
 40
0.25
 40
0.25
 40
0.5
 40
0.5
 40
0.5
 40
0.5
 40
1.0
 40
1.0
 40
1.0
 40
1.0
 10
6623.0038
 20
-6673.6511
 30
0.0
 10
6623.0038
 20
-6673.6511
 30
0.0
 10
6623.0038
 20
-6711.5157
 30
0.0
 10
6623.0038
 20
-6711.5157
 30
0.0
 10
6623.0038
 20
-6711.5157
 30
0.0
 10
6623.0038
 20
-6711.5157
 30
0.0
 10
6633.1596
 20
-6720.6265
 30
0.0
 10
6633.1596
 20
-6720.6265
 30
0.0
 10
6633.1596
 20
-6720.6265
 30
0.0
 10
6633.1596
 20
-6720.6265
 30
0.0
 10
6623.0038
 20
-6673.6511
 30
0.0
 10
6623.0038
 20
-6673.6511
 30
0.0
  0
SPLINE
  5
F0
330
1F
100
AcDbEntity
  8
Layer 1
 62
   250
370
    20
100
AcDbSpline
210
0.0
220
0.0
230
1.0
 70
    11
 71
     3
 72
    48
 73
    44
 74
     0
 42
0.0000000001
 43
0.0000000001
 12
1.0
 22
0.0
 32
0.0
 13
1.0
 23
0.0
 33
0.0
 40
0.0
 40
0.0
 40
0.0
 40
0.0
 40
0.0833333333333333
 40
0.0833333333333333
 40
0.0833333333333333
 40
0.0833333333333333
 40
0.1666666666666667
 40
0.1666666666666667
 40
0.1666666666666667
 40
0.1666666666666667
 40
0.25
 40
0.25
 40
0.25
 40
0.25
 40
0.3333333333333333
 40
0.3333333333333333
 40
0.3333333333333333
 40
0.3333333333333333
 40
0.4166666666666667
 40
0.4166666666666667
 40
0.4166666666666667
 40
0.4166666666666667
 40
0.5
 40
0.5
 40
0.5
 40
0.5
 40
0.5833333333333334
 40
0.5833333333333334
 40
0.5833333333333334
 40
0.5833333333333334
 40
0.6666666666666666
 40
0.6666666666666666
 40
0.6666666666666666
 40
0.6666666666666666
 40
0.75
 40
0.75
 40
0.75
 40
0.75
 40
0.8333333333333334
 40
0.8333333333333334
 40
0.8333333333333334
 40
0.8333333333333334
 40
1.0
 40
1.0
 40
1.0
 40
1.0
 10
6623.0038
 20
-6766.487
 30
0.0
 10
6623.0038
 20
-6766.487
 30
0.0
 10
6623.0038
 20
-6775.907
 30
0.0
 10
6623.0038
 20
-6775.907
 30
0.0
 10
6623.0038
 20
-6775.907
 30
0.0
 10
6623.0038
 20
-6775.907
 30
0.0
 10
6645.566
 20
-6778.2172
 30
0.0
 10
6645.566
 20
-6778.2172
 30
0.0
 10
6645.566
 20
-6778.2172
 30
0.0
 10
6645.566
 20
-6778.2172
 30
0.0
 10
6653.1389
 20
-6813.9141
 30
0.0
 10
6653.1389
 20
-6813.9141
 30
0.0
 10
6653.1389
 20
-6813.9141
 30
0.0
 10
6653.1389
 20
-6813.9141
 30
0.0
 10
6668.0244
 20
-6780.5599
 30
0.0
 10
6668.0244
 20
-6780.5599
 30
0.0
 10
6668.0244
 20
-6780.5599
 30
0.0
 10
6668.0244
 20
-6780.5599
 30
0.0
 10
6704.5718
 20
-6784.4426
 30
0.0
 10
6704.5718
 20
-6784.4426
 30
0.0
 10
6704.5718
 20
-6784.4426
 30
0.0
 10
6704.5718
 20
-6784.4426
 30
0.0
 10
6677.2093
 20
-6760.0851
 30
0.0
 10
6677.2093
 20
-6760.0851
 30
0.0
 10
6677.2093
 20
-6760.0851
 30
0.0
 10
6677.2093
 20
-6760.0851
 30
0.0
 10
6692.2238
 20
-6726.7877
 30
0.0
 10
6692.2238
 20
-6726.7877
 30
0.0
 10
6692.2238
 20
-6726.7877
 30
0.0
 10
6692.2238
 20
-6726.7877
 30
0.0
 10
6660.4275
 20
-6745.0885
 30
0.0
 10
6660.4275
 20
-6745.0885
 30
0.0
 10
6660.4275
 20
-6745.0885
 30
0.0
 10
6660.4275
 20
-6745.0885
 30
0.0
 10
6633.1596
 20
-6720.6266
 30
0.0
 10
6633.1596
 20
-6720.6266
 30
0.0
 10
6633.1596
 20
-6720.6266
 30
0.0
 10
6633.1596
 20
-6720.6266
 30
0.0
 10
6640.8707
 20
-6756.2947
 30
0.0
 10
6640.8707
 20
-6756.2947
 30
0.0
 10
6640.8707
 20
-6756.2947
 30
0.0
 10
6640.8707
 20
-6756.2947
 30
0.0
 10
6623.0038
 20
-6766.487
 30
0.0
 10
6623.0038
 20
-6766.487
 30
0.0
  0
SPLINE
  5
F1
330
1F
100
AcDbEntity
  8
Layer 1
 62
   250
370
    20
100
AcDbSpline
210
0.0
220
0.0
230
1.0
 70
    11
 71
     3
 72
    24
 73
    20
 74
     0
 42
0.0000000001
 43
0.0000000001
 12
1.0
 22
0.0
 32
0.0
 13
1.0
 23
0.0
 33
0.0
 40
0.0
 40
0.0
 40
0.0
 40
0.0
 40
0.1666666666666667
 40
0.1666666666666667
 40
0.1666666666666667
 40
0.1666666666666667
 40
0.3333333333333333
 40
0.3333333333333333
 40
0.3333333333333333
 40
0.3333333333333333
 40
0.5
 40
0.5
 40
0.5
 40
0.5
 40
0.6666666666666666
 40
0.6666666666666666
 40
0.6666666666666666
 40
0.6666666666666666
 40
1.0
 40
1.0
 40
1.0
 40
1.0
 10
6623.0038
 20
-6594.0337
 30
0.0
 10
6623.0038
 20
-6594.0337
 30
0.0
 10
6623.0038
 20
-6598.9791
 30
0.0
 10
6623.0038
 20
-6598.9791
 30
0.0
 10
6623.0038
 20
-6598.9791
 30
0.0
 10
6623.0038
 20
-6598.9791
 30
0.0
 10
6639.8632
 20
-6617.4905
 30
0.0
 10
6639.8632
 20
-6617.4905
 30
0.0
 10
6639.8632
 20
-6617.4905
 30
0.0
 10
6639.8632
 20
-6617.4905
 30
0.0
 10
6705.3634
 20
-6596.5064
 30
0.0
 10
6705.3634
 20
-6596.5064
 30
0.0
 10
6705.3634
 20
-6596.5064
 30
0.0
 10
6705.3634
 20
-6596.5064
 30
0.0
 10
6639.8629
 20
-6575.5223
 30
0.0
 10
6639.8629
 20
-6575.5223
 30
0.0
 10
6639.8629
 20
-6575.5223
 30
0.0
 10
6639.8629
 20
-6575.5223
 30
0.0
 10
6623.0038
 20
-6594.0337
 30
0.0
 10
6623.0038
 20
-6594.0337
 30
0.0
  0
SPLINE
  5
F2
330
1F
100
AcDbEntity
  8
Layer 1
 62
   250
370
    20
100
AcDbSpline
210
0.0
220
0.0
230
1.0
 70
    11
 71
     3
 72
    44
 73
    40
 74
     0
 42
0.0000000001
 43
0.0000000001
 12
1.0
 22
0.0
 32
0.0
 13
1.0
 23
0.0
 33
0.0
 40
0.0
 40
0.0
 40
0.0
 40
0.0
 40
0.0909090909090909
 40
0.0909090909090909
 40
0.0909090909090909
 40
0.0909090909090909
 40
0.1818181818181818
 40
0.1818181818181818
 40
0.1818181818181818
 40
0.1818181818181818
 40
0.2727272727272727
 40
0.2727272727272727
 40
0.2727272727272727
 40
0.2727272727272727
 40
0.3636363636363636
 40
0.3636363636363636
 40
0.3636363636363636
 40
0.3636363636363636
 40
0.4545454545454545
 40
0.4545454545454545
 40
0.4545454545454545
 40
0.4545454545454545
 40
0.5454545454545454
 40
0.5454545454545454
 40
0.5454545454545454
 40
0.5454545454545454
 40
0.6363636363636364
 40
0.6363636363636364
 40
0.6363636363636364
 40
0.6363636363636364
 40
0.7272727272727273
 40
0.7272727272727273
 40
0.7272727272727273
 40
0.7272727272727273
 40
0.8181818181818182
 40
0.8181818181818182
 40
0.8181818181818182
 40
0.8181818181818182
 40
1.0
 40
1.0
 40
1.0
 40
1.0
 10
6705.3635
 20
-6596.5064
 30
0.0
 10
6705.3635
 20
-6596.5064
 30
0.0
 10
6740.3424
 20
-6607.7127
 30
0.0
 10
6740.3424
 20
-6607.7127
 30
0.0
 10
6740.3424
 20
-6607.7127
 30
0.0
 10
6740.3424
 20
-6607.7127
 30
0.0
 10
6740.2716
 20
-6644.1927
 30
0.0
 10
6740.2716
 20
-6644.1927
 30
0.0
 10
6740.2716
 20
-6644.1927
 30
0.0
 10
6740.2716
 20
-6644.1927
 30
0.0
 10
6761.8191
 20
-6614.6384
 30
0.0
 10
6761.8191
 20
-6614.6384
 30
0.0
 10
6761.8191
 20
-6614.6384
 30
0.0
 10
6761.8191
 20
-6614.6384
 30
0.0
 10
6796.7542
 20
-6625.978
 30
0.0
 10
6796.7542
 20
-6625.978
 30
0.0
 10
6796.7542
 20
-6625.978
 30
0.0
 10
6796.7542
 20
-6625.978
 30
0.0
 10
6775.0927
 20
-6596.5067
 30
0.0
 10
6775.0927
 20
-6596.5067
 30
0.0
 10
6775.0927
 20
-6596.5067
 30
0.0
 10
6775.0927
 20
-6596.5067
 30
0.0
 10
6796.7542
 20
-6567.0352
 30
0.0
 10
6796.7542
 20
-6567.0352
 30
0.0
 10
6796.7542
 20
-6567.0352
 30
0.0
 10
6796.7542
 20
-6567.0352
 30
0.0
 10
6761.8191
 20
-6578.3746
 30
0.0
 10
6761.8191
 20
-6578.3746
 30
0.0
 10
6761.8191
 20
-6578.3746
 30
0.0
 10
6761.8191
 20
-6578.3746
 30
0.0
 10
6740.2716
 20
-6548.8206
 30
0.0
 10
6740.2716
 20
-6548.8206
 30
0.0
 10
6740.2716
 20
-6548.8206
 30
0.0
 10
6740.2716
 20
-6548.8206
 30
0.0
 10
6740.3422
 20
-6585.3004
 30
0.0
 10
6740.3422
 20
-6585.3004
 30
0.0
 10
6740.3422
 20
-6585.3004
 30
0.0
 10
6740.3422
 20
-6585.3004
 30
0.0
 10
6705.3635
 20
-6596.5064
 30
0.0
 10
6705.3635
 20
-6596.5064
 30
0.0
  0
SPLINE
  5
F3
330
1F
100
AcDbEntity
  8
Layer 1
 62
   250
370
    20
100
AcDbSpline
210
0.0
220
0.0
230
1.0
 70
    11
 71
     3
 72
    16
 73
    12
 74
     0
 42
0.0000000001
 43
0.0000000001
 12
1.0
 22
0.0
 32
0.0
 13
1.0
 23
0.0
 33
0.0
 40
0.0
 40
0.0
 40
0.0
 40
0.0
 40
0.25
 40
0.25
 40
0.25
 40
0.25
 40
0.5
 40
0.5
 40
0.5
 40
0.5
 40
1.0
 40
1.0
 40
1.0
 40
1.0
 10
6623.0038
 20
-6481.4972
 30
0.0
 10
6623.0038
 20
-6481.4972
 30
0.0
 10
6623.0038
 20
-6519.3618
 30
0.0
 10
6623.0038
 20
-6519.3618
 30
0.0
 10
6623.0038
 20
-6519.3618
 30
0.0
 10
6623.0038
 20
-6519.3618
 30
0.0
 10
6633.1596
 20
-6472.3864
 30
0.0
 10
6633.1596
 20
-6472.3864
 30
0.0
 10
6633.1596
 20
-6472.3864
 30
0.0
 10
6633.1596
 20
-6472.3864
 30
0.0
 10
6623.0038
 20
-6481.4972
 30
0.0
 10
6623.0038
 20
-6481.4972
 30
0.0
  0
SPLINE
  5
F4
330
1F
100
AcDbEntity
  8
Layer 1
 62
   250
370
    20
100
AcDbSpline
210
0.0
220
0.0
230
1.0
 70
    11
 71
     3
 72
    48
 73
    44
 74
     0
 42
0.0000000001
 43
0.0000000001
 12
1.0
 22
0.0
 32
0.0
 13
1.0
 23
0.0
 33
0.0
 40
0.0
 40
0.0
 40
0.0
 40
0.0
 40
0.0833333333333333
 40
0.0833333333333333
 40
0.0833333333333333
 40
0.0833333333333333
 40
0.1666666666666667
 40
0.1666666666666667
 40
0.1666666666666667
 40
0.1666666666666667
 40
0.25
 40
0.25
 40
0.25
 40
0.25
 40
0.3333333333333333
 40
0.3333333333333333
 40
0.3333333333333333
 40
0.3333333333333333
 40
0.4166666666666667
 40
0.4166666666666667
 40
0.4166666666666667
 40
0.4166666666666667
 40
0.5
 40
0.5
 40
0.5
 40
0.5
 40
0.5833333333333334
 40
0.5833333333333334
 40
0.5833333333333334
 40
0.5833333333333334
 40
0.6666666666666666
 40
0.6666666666666666
 40
0.6666666666666666
 40
0.6666666666666666
 40
0.75
 40
0.75
 40
0.75
 40
0.75
 40
0.8333333333333334
 40
0.8333333333333334
 40
0.8333333333333334
 40
0.8333333333333334
 40
1.0
 40
1.0
 40
1.0
 40
1.0
 10
6623.0038
 20
-6417.1058
 30
0.0
 10
6623.0038
 20
-6417.1058
 30
0.0
 10
6623.0038
 20
-6426.5258
 30
0.0
 10
6623.0038
 20
-6426.5258
 30
0.0
 10
6623.0038
 20
-6426.5258
 30
0.0
 10
6623.0038
 20
-6426.5258
 30
0.0
 10
6640.8707
 20
-6436.7185
 30
0.0
 10
6640.8707
 20
-6436.7185
 30
0.0
 10
6640.8707
 20
-6436.7185
 30
0.0
 10
6640.8707
 20
-6436.7185
 30
0.0
 10
6633.16
 20
-6472.3864
 30
0.0
 10
6633.16
 20
-6472.3864
 30
0.0
 10
6633.16
 20
-6472.3864
 30
0.0
 10
6633.16
 20
-6472.3864
 30
0.0
 10
6660.4274
 20
-6447.9247
 30
0.0
 10
6660.4274
 20
-6447.9247
 30
0.0
 10
6660.4274
 20
-6447.9247
 30
0.0
 10
6660.4274
 20
-6447.9247
 30
0.0
 10
6692.2238
 20
-6466.2254
 30
0.0
 10
6692.2238
 20
-6466.2254
 30
0.0
 10
6692.2238
 20
-6466.2254
 30
0.0
 10
6692.2238
 20
-6466.2254
 30
0.0
 10
6677.2093
 20
-6432.9279
 30
0.0
 10
6677.2093
 20
-6432.9279
 30
0.0
 10
6677.2093
 20
-6432.9279
 30
0.0
 10
6677.2093
 20
-6432.9279
 30
0.0
 10
6704.5717
 20
-6408.5703
 30
0.0
 10
6704.5717
 20
-6408.5703
 30
0.0
 10
6704.5717
 20
-6408.5703
 30
0.0
 10
6704.5717
 20
-6408.5703
 30
0.0
 10
6668.0243
 20
-6412.4532
 30
0.0
 10
6668.0243
 20
-6412.4532
 30
0.0
 10
6668.0243
 20
-6412.4532
 30
0.0
 10
6668.0243
 20
-6412.4532
 30
0.0
 10
6653.1387
 20
-6379.0988
 30
0.0
 10
6653.1387
 20
-6379.0988
 30
0.0
 10
6653.1387
 20
-6379.0988
 30
0.0
 10
6653.1387
 20
-6379.0988
 30
0.0
 10
6645.566
 20
-6414.796
 30
0.0
 10
6645.566
 20
-6414.796
 30
0.0
 10
6645.566
 20
-6414.796
 30
0.0
 10
6645.566
 20
-6414.796
 30
0.0
 10
6623.0038
 20
-6417.1058
 30
0.0
 10
6623.0038
 20
-6417.1058
 30
0.0
  0
SPLINE
  5
F5
330
1F
100
AcDbEntity
  8
Layer 1
 62
   250
370
    20
100
AcDbSpline
210
0.0
220
0.0
230
1.0
 70
    11
 71
     3
 72
    28
 73
    24
 74
     0
 42
0.0000000001
 43
0.0000000001
 12
1.0
 22
0.0
 32
0.0
 13
1.0
 23
0.0
 33
0.0
 40
0.0
 40
0.0
 40
0.0
 40
0.0
 40
0.1428571428571428
 40
0.1428571428571428
 40
0.1428571428571428
 40
0.1428571428571428
 40
0.2857142857142857
 40
0.2857142857142857
 40
0.2857142857142857
 40
0.2857142857142857
 40
0.4285714285714285
 40
0.4285714285714285
 40
0.4285714285714285
 40
0.4285714285714285
 40
0.5714285714285714
 40
0.5714285714285714
 40
0.5714285714285714
 40
0.5714285714285714
 40
0.7142857142857143
 40
0.7142857142857143
 40
0.7142857142857143
 40
0.7142857142857143
 40
1.0
 40
1.0
 40
1.0
 40
1.0
 10
6686.0887
 20
-6524.8045
 30
0.0
 10
6686.0887
 20
-6524.8045
 30
0.0
 10
6721.9546
 20
-6517.1926
 30
0.0
 10
6721.9546
 20
-6517.1926
 30
0.0
 10
6721.9546
 20
-6517.1926
 30
0.0
 10
6721.9546
 20
-6517.1926
 30
0.0
 10
6740.2298
 20
-6548.7486
 30
0.0
 10
6740.2298
 20
-6548.7486
 30
0.0
 10
6740.2298
 20
-6548.7486
 30
0.0
 10
6740.2298
 20
-6548.7486
 30
0.0
 10
6750.663
 20
-6487.8026
 30
0.0
 10
6750.663
 20
-6487.8026
 30
0.0
 10
6750.663
 20
-6487.8026
 30
0.0
 10
6750.663
 20
-6487.8026
 30
0.0
 10
6692.2661
 20
-6466.2971
 30
0.0
 10
6692.2661
 20
-6466.2971
 30
0.0
 10
6692.2661
 20
-6466.2971
 30
0.0
 10
6692.2661
 20
-6466.2971
 30
0.0
 10
6710.6637
 20
-6497.7831
 30
0.0
 10
6710.6637
 20
-6497.7831
 30
0.0
 10
6710.6637
 20
-6497.7831
 30
0.0
 10
6710.6637
 20
-6497.7831
 30
0.0
 10
6686.0887
 20
-6524.8045
 30
0.0
 10
6686.0887
 20
-6524.8045
 30
0.0
  0
SPLINE
  5
F6
330
1F
100
AcDbEntity
  8
Layer 1
 62
   250
370
    20
100
AcDbSpline
210
0.0
220
0.0
230
1.0
 70
    11
 71
     3
 72
    20
 73
    16
 74
     0
 42
0.0000000001
 43
0.0000000001
 12
1.0
 22
0.0
 32
0.0
 13
1.0
 23
0.0
 33
0.0
 40
0.0
 40
0.0
 40
0.0
 40
0.0
 40
0.2
 40
0.2
 40
0.2
 40
0.2
 40
0.4
 40
0.4
 40
0.4
 40
0.4
 40
0.6
 40
0.6
 40
0.6
 40
0.6
 40
1.0
 40
1.0
 40
1.0
 40
1.0
 10
6623.0038
 20
-6538.3398
 30
0.0
 10
6623.0038
 20
-6538.3398
 30
0.0
 10
6623.0038
 20
-6570.0993
 30
0.0
 10
6623.0038
 20
-6570.0993
 30
0.0
 10
6623.0038
 20
-6570.0993
 30
0.0
 10
6623.0038
 20
-6570.0993
 30
0.0
 10
6639.8216
 20
-6575.451
 30
0.0
 10
6639.8216
 20
-6575.451
 30
0.0
 10
6639.8216
 20
-6575.451
 30
0.0
 10
6639.8216
 20
-6575.451
 30
0.0
 10
6686.0163
 20
-6524.846
 30
0.0
 10
6686.0163
 20
-6524.846
 30
0.0
 10
6686.0163
 20
-6524.846
 30
0.0
 10
6686.0163
 20
-6524.846
 30
0.0
 10
6623.0038
 20
-6538.3398
 30
0.0
 10
6623.0038
 20
-6538.3398
 30
0.0
  0
SPLINE
  5
F7
330
1F
100
AcDbEntity
  8
Layer 1
 62
   250
370
    20
100
AcDbSpline
210
0.0
220
0.0
230
1.0
 70
    11
 71
     3
 72
    28
 73
    24
 74
     0
 42
0.0000000001
 43
0.0000000001
 12
1.0
 22
0.0
 32
0.0
 13
1.0
 23
0.0
 33
0.0
 40
0.0
 40
0.0
 40
0.0
 40
0.0
 40
0.1428571428571428
 40
0.1428571428571428
 40
0.1428571428571428
 40
0.1428571428571428
 40
0.2857142857142857
 40
0.2857142857142857
 40
0.2857142857142857
 40
0.2857142857142857
 40
0.4285714285714285
 40
0.4285714285714285
 40
0.4285714285714285
 40
0.4285714285714285
 40
0.5714285714285714
 40
0.5714285714285714
 40
0.5714285714285714
 40
0.5714285714285714
 40
0.7142857142857143
 40
0.7142857142857143
 40
0.7142857142857143
 40
0.7142857142857143
 40
1.0
 40
1.0
 40
1.0
 40
1.0
 10
6686.0885
 20
-6668.2086
 30
0.0
 10
6686.0885
 20
-6668.2086
 30
0.0
 10
6710.6637
 20
-6695.2301
 30
0.0
 10
6710.6637
 20
-6695.2301
 30
0.0
 10
6710.6637
 20
-6695.2301
 30
0.0
 10
6710.6637
 20
-6695.2301
 30
0.0
 10
6692.2657
 20
-6726.7158
 30
0.0
 10
6692.2657
 20
-6726.7158
 30
0.0
 10
6692.2657
 20
-6726.7158
 30
0.0
 10
6692.2657
 20
-6726.7158
 30
0.0
 10
6750.663
 20
-6705.2104
 30
0.0
 10
6750.663
 20
-6705.2104
 30
0.0
 10
6750.663
 20
-6705.2104
 30
0.0
 10
6750.663
 20
-6705.2104
 30
0.0
 10
6740.2298
 20
-6644.2646
 30
0.0
 10
6740.2298
 20
-6644.2646
 30
0.0
 10
6740.2298
 20
-6644.2646
 30
0.0
 10
6740.2298
 20
-6644.2646
 30
0.0
 10
6721.9545
 20
-6675.8204
 30
0.0
 10
6721.9545
 20
-6675.8204
 30
0.0
 10
6721.9545
 20
-6675.8204
 30
0.0
 10
6721.9545
 20
-6675.8204
 30
0.0
 10
6686.0885
 20
-6668.2086
 30
0.0
 10
6686.0885
 20
-6668.2086
 30
0.0
  0
SPLINE
  5
F8
330
1F
100
AcDbEntity
  8
Layer 1
 62
   250
370
    20
100
AcDbSpline
210
0.0
220
0.0
230
1.0
 70
    11
 71
     3
 72
    20
 73
    16
 74
     0
 42
0.0000000001
 43
0.0000000001
 12
1.0
 22
0.0
 32
0.0
 13
1.0
 23
0.0
 33
0.0
 40
0.0
 40
0.0
 40
0.0
 40
0.0
 40
0.2
 40
0.2
 40
0.2
 40
0.2
 40
0.4
 40
0.4
 40
0.4
 40
0.4
 40
0.6
 40
0.6
 40
0.6
 40
0.6
 40
1.0
 40
1.0
 40
1.0
 40
1.0
 10
6623.0038
 20
-6622.9137
 30
0.0
 10
6623.0038
 20
-6622.9137
 30
0.0
 10
6623.0038
 20
-6654.6729
 30
0.0
 10
6623.0038
 20
-6654.6729
 30
0.0
 10
6623.0038
 20
-6654.6729
 30
0.0
 10
6623.0038
 20
-6654.6729
 30
0.0
 10
6686.0162
 20
-6668.1674
 30
0.0
 10
6686.0162
 20
-6668.1674
 30
0.0
 10
6686.0162
 20
-6668.1674
 30
0.0
 10
6686.0162
 20
-6668.1674
 30
0.0
 10
6639.8212
 20
-6617.5621
 30
0.0
 10
6639.8212
 20
-6617.5621
 30
0.0
 10
6639.8212
 20
-6617.5621
 30
0.0
 10
6639.8212
 20
-6617.5621
 30
0.0
 10
6623.0038
 20
-6622.9137
 30
0.0
 10
6623.0038
 20
-6622.9137
 30
0.0
  0
ENDSEC
  0
SECTION
  2
OBJECTS
  0
DICTIONARY
  5
C
330
0
100
AcDbDictionary
281
     1
  3
ACAD_GROUP
350
D
  3
ACAD_LAYOUT
350
1A
  3
ACAD_MATERIAL
350
3B
  3
ACAD_MLEADERSTYLE
350
11A
  3
ACAD_MLINESTYLE
350
17
  3
ACAD_PLOTSETTINGS
350
19
  3
ACAD_PLOTSTYLENAME
350
E
  3
ACAD_TABLESTYLE
350
119
  3
ACAD_VISUALSTYLE
350
2A
  0
DICTIONARY
  5
D
102
{ACAD_REACTORS
330
C
102
}
330
C
100
AcDbDictionary
281
     1
  0
DICTIONARY
  5
1A
102
{ACAD_REACTORS
330
C
102
}
330
C
100
AcDbDictionary
281
     1
  3
Layout1
350
1E
  3
Layout2
350
26
  3
Model
350
22
  0
DICTIONARY
  5
3B
102
{ACAD_REACTORS
330
C
102
}
330
C
100
AcDbDictionary
281
     1
  3
ByBlock
350
3D
  3
ByLayer
350
3C
  3
Global
350
3E
  0
DICTIONARY
  5
11A
102
{ACAD_REACTORS
330
C
102
}
330
C
100
AcDbDictionary
281
     1
  0
DICTIONARY
  5
17
102
{ACAD_REACTORS
330
C
102
}
330
C
100
AcDbDictionary
281
     1
  3
Standard
350
18
  0
DICTIONARY
  5
19
102
{ACAD_REACTORS
330
C
102
}
330
C
100
AcDbDictionary
281
     1
  0
ACDBDICTIONARYWDFLT
  5
E
102
{ACAD_REACTORS
330
C
102
}
330
C
100
AcDbDictionary
281
     1
  3
Normal
350
F
100
AcDbDictionaryWithDefault
340
F
  0
DICTIONARY
  5
119
102
{ACAD_REACTORS
330
C
102
}
330
C
100
AcDbDictionary
281
     1
  0
DICTIONARY
  5
2A
102
{ACAD_REACTORS
330
C
102
}
330
C
100
AcDbDictionary
281
     1
  3
2dWireframe
350
2F
  3
3D Hidden
350
31
  3
3dWireframe
350
30
  3
Basic
350
32
  3
Brighten
350
36
  3
ColorChange
350
3A
  3
Conceptual
350
34
  3
Dim
350
35
  3
Facepattern
350
39
  3
Flat
350
2B
  3
FlatWithEdges
350
2C
  3
Gouraud
350
2D
  3
GouraudWithEdges
350
2E
  3
Linepattern
350
38
  3
Realistic
350
33
  3
Thicken
350
37
  0
LAYOUT
  5
1E
102
{ACAD_REACTORS
330
1A
102
}
330
1A
100
AcDbPlotSettings
  1

  2
none_device
  4

  6

 40
0.0
 41
0.0
 42
0.0
 43
0.0
 44
0.0
 45
0.0
 46
0.0
 47
0.0
 48
0.0
 49
0.0
140
0.0
141
0.0
142
1.0
143
1.0
 70
   688
 72
     0
 73
     0
 74
     5
  7

 75
    16
 76
     0
 77
     2
 78
   300
147
1.0
148
0.0
149
0.0
100
AcDbLayout
  1
Layout1
 70
     1
 71
     1
 10
0.0
 20
0.0
 11
12.0
 21
9.0
 12
0.0
 22
0.0
 32
0.0
 14
1.000000000000000E+20
 24
1.000000000000000E+20
 34
1.000000000000000E+20
 15
-1.000000000000000E+20
 25
-1.000000000000000E+20
 35
-1.000000000000000E+20
146
0.0
 13
0.0
 23
0.0
 33
0.0
 16
1.0
 26
0.0
 36
0.0
 17
0.0
 27
1.0
 37
0.0
 76
     0
330
1B
  0
LAYOUT
  5
26
102
{ACAD_REACTORS
330
1A
102
}
330
1A
100
AcDbPlotSettings
  1

  2
none_device
  4

  6

 40
0.0
 41
0.0
 42
0.0
 43
0.0
 44
0.0
 45
0.0
 46
0.0
 47
0.0
 48
0.0
 49
0.0
140
0.0
141
0.0
142
1.0
143
1.0
 70
   688
 72
     0
 73
     0
 74
     5
  7

 75
    16
 76
     0
 77
     2
 78
   300
147
1.0
148
0.0
149
0.0
100
AcDbLayout
  1
Layout2
 70
     1
 71
     2
 10
0.0
 20
0.0
 11
0.0
 21
0.0
 12
0.0
 22
0.0
 32
0.0
 14
0.0
 24
0.0
 34
0.0
 15
0.0
 25
0.0
 35
0.0
146
0.0
 13
0.0
 23
0.0
 33
0.0
 16
1.0
 26
0.0
 36
0.0
 17
0.0
 27
1.0
 37
0.0
 76
     0
330
23
  0
LAYOUT
  5
22
102
{ACAD_REACTORS
330
1A
102
}
330
1A
100
AcDbPlotSettings
  1

  2
none_device
  4

  6

 40
0.0
 41
0.0
 42
0.0
 43
0.0
 44
0.0
 45
0.0
 46
0.0
 47
0.0
 48
0.0
 49
0.0
140
0.0
141
0.0
142
1.0
143
1.0
 70
  1712
 72
     0
 73
     0
 74
     0
  7

 75
     0
 76
     0
 77
     2
 78
   300
147
1.0
148
0.0
149
0.0
100
AcDbLayout
  1
Model
 70
     1
 71
     0
 10
0.0
 20
0.0
 11
12.0
 21
9.0
 12
0.0
 22
0.0
 32
0.0
 14
6487.9037
 24
-7384.1725
 34
0.0
 15
7393.1037
 25
-5373.9725
 35
0.0
146
0.0
 13
0.0
 23
0.0
 33
0.0
 16
1.0
 26
0.0
 36
0.0
 17
0.0
 27
1.0
 37
0.0
 76
     0
330
1F
331
29
  0
MATERIAL
  5
3D
102
{ACAD_REACTORS
330
3B
102
}
330
3B
100
AcDbMaterial
  1
ByBlock
 72
     1
 94
      127
  0
MATERIAL
  5
3C
102
{ACAD_REACTORS
330
3B
102
}
330
3B
100
AcDbMaterial
  1
ByLayer
 72
     1
 94
      127
  0
MATERIAL
  5
3E
102
{ACAD_REACTORS
330
3B
102
}
330
3B
100
AcDbMaterial
  1
Global
 72
     1
 94
      127
  0
MLINESTYLE
  5
18
102
{ACAD_REACTORS
330
17
102
}
330
17
100
AcDbMlineStyle
  2
Standard
 70
     0
  3

 62
   256
 51
90.0
 52
90.0
 71
     2
 49
0.5
 62
   256
  6
BYLAYER
 49
-0.5
 62
   256
  6
BYLAYER
  0
ACDBPLACEHOLDER
  5
F
102
{ACAD_REACTORS
330
E
102
}
330
E
  0
VISUALSTYLE
  5
2F
102
{ACAD_REACTORS
330
2A
102
}
102
{ACAD_XDICTIONARY
360
101
102
}
330
2A
100
AcDbVisualStyle
  2
2dWireframe
 70
     4
 71
     0
 72
     2
 73
     0
 90
        0
 40
-0.6
 41
-30.0
 62
     5
 63
     7
421
 16777215
 74
     1
 91
        4
 64
     7
 65
   257
 75
     1
175
     1
 42
1.0
 92
        0
 66
   257
 43
1.0
 76
     1
 77
     6
 78
     2
 67
     7
 79
     5
170
     0
171
     0
290
     0
174
     0
 93
        1
 44
0.0
173
     0
291
     0
 45
0.0
  0
VISUALSTYLE
  5
31
102
{ACAD_REACTORS
330
2A
102
}
102
{ACAD_XDICTIONARY
360
105
102
}
330
2A
100
AcDbVisualStyle
  2
3D Hidden
 70
     6
 71
     1
 72
     2
 73
     2
 90
        0
 40
-0.6
 41
-30.0
 62
     5
 63
     7
421
 16777215
 74
     2
 91
        2
 64
     7
 65
   257
 75
     2
175
     1
 42
40.0
 92
        0
 66
   257
 43
1.0
 76
     1
 77
     6
 78
     2
 67
     7
 79
     3
170
     0
171
     0
290
     0
174
     0
 93
        1
 44
0.0
173
     0
291
     0
 45
0.0
  0
VISUALSTYLE
  5
30
102
{ACAD_REACTORS
330
2A
102
}
102
{ACAD_XDICTIONARY
360
103
102
}
330
2A
100
AcDbVisualStyle
  2
3dWireframe
 70
     5
 71
     0
 72
     2
 73
     0
 90
        0
 40
-0.6
 41
-30.0
 62
     5
 63
     7
421
 16777215
 74
     1
 91
        4
 64
     7
 65
   257
 75
     1
175
     1
 42
1.0
 92
        0
 66
   257
 43
1.0
 76
     1
 77
     6
 78
     2
 67
     7
 79
     5
170
     0
171
     0
290
     0
174
     0
 93
        1
 44
0.0
173
     0
291
     0
 45
0.0
  0
VISUALSTYLE
  5
32
102
{ACAD_REACTORS
330
2A
102
}
102
{ACAD_XDICTIONARY
360
107
102
}
330
2A
100
AcDbVisualStyle
  2
Basic
 70
     7
 71
     1
 72
     0
 73
     1
 90
        0
 40
-0.6
 41
-30.0
 62
     5
 63
     7
421
 16777215
 74
     0
 91
        4
 64
     7
 65
   257
 75
     1
175
     1
 42
1.0
 92
        8
 66
     7
 43
1.0
 76
     1
 77
     6
 78
     2
 67
     7
 79
     5
170
     0
171
     0
290
     0
174
     0
 93
        1
 44
0.0
173
     0
291
     1
 45
0.0
  0
VISUALSTYLE
  5
36
102
{ACAD_REACTORS
330
2A
102
}
102
{ACAD_XDICTIONARY
360
10F
102
}
330
2A
100
AcDbVisualStyle
  2
Brighten
 70
    12
 71
     2
 72
     2
 73
     0
 90
        0
 40
-0.6
 41
-30.0
 62
     5
 63
     7
421
 16777215
 74
     1
 91
        4
 64
     7
 65
   257
 75
     1
175
     1
 42
1.0
 92
        8
 66
     7
 43
1.0
 76
     1
 77
     6
 78
     2
 67
     7
 79
     5
170
     0
171
     0
290
     0
174
     0
 93
        1
 44
50.0
173
     0
291
     1
 45
0.0
  0
VISUALSTYLE
  5
3A
102
{ACAD_REACTORS
330
2A
102
}
102
{ACAD_XDICTIONARY
360
117
102
}
330
2A
100
AcDbVisualStyle
  2
ColorChange
 70
    16
 71
     2
 72
     2
 73
     3
 90
        0
 40
-0.6
 41
-30.0
 62
     5
 63
     8
421
  8421504
 74
     1
 91
        4
 64
     7
 65
   257
 75
     1
175
     1
 42
1.0
 92
        8
 66
     8
424
  8421504
 43
1.0
 76
     1
 77
     6
 78
     2
 67
     7
 79
     5
170
     0
171
     0
290
     0
174
     0
 93
        1
 44
0.0
173
     0
291
     1
 45
0.0
  0
VISUALSTYLE
  5
34
102
{ACAD_REACTORS
330
2A
102
}
102
{ACAD_XDICTIONARY
360
10B
102
}
330
2A
100
AcDbVisualStyle
  2
Conceptual
 70
     9
 71
     3
 72
     2
 73
     0
 90
        0
 40
-0.6
 41
-30.0
 62
     5
 63
     7
421
 16777215
 74
     2
 91
        2
 64
     7
 65
   257
 75
     1
175
     1
 42
40.0
 92
        8
 66
     7
 43
1.0
 76
     1
 77
     6
 78
     2
 67
     7
 79
     3
170
     0
171
     0
290
     0
174
     0
 93
        1
 44
0.0
173
     0
291
     0
 45
0.0
  0
VISUALSTYLE
  5
35
102
{ACAD_REACTORS
330
2A
102
}
102
{ACAD_XDICTIONARY
360
10D
102
}
330
2A
100
AcDbVisualStyle
  2
Dim
 70
    11
 71
     2
 72
     2
 73
     0
 90
        0
 40
-0.6
 41
-30.0
 62
     5
 63
     7
421
 16777215
 74
     1
 91
        4
 64
     7
 65
   257
 75
     1
175
     1
 42
1.0
 92
        8
 66
     7
 43
1.0
 76
     1
 77
     6
 78
     2
 67
     7
 79
     5
170
     0
171
     0
290
     0
174
     0
 93
        1
 44
-50.0
173
     0
291
     1
 45
0.0
  0
VISUALSTYLE
  5
39
102
{ACAD_REACTORS
330
2A
102
}
102
{ACAD_XDICTIONARY
360
115
102
}
330
2A
100
AcDbVisualStyle
  2
Facepattern
 70
    15
 71
     2
 72
     2
 73
     0
 90
        0
 40
-0.6
 41
-30.0
 62
     5
 63
     7
421
 16777215
 74
     1
 91
        4
 64
     7
 65
   257
 75
     1
175
     1
 42
1.0
 92
        8
 66
     7
 43
1.0
 76
     1
 77
     6
 78
     2
 67
     7
 79
     5
170
     0
171
     0
290
     0
174
     0
 93
        1
 44
0.0
173
     0
291
     1
 45
0.0
  0
VISUALSTYLE
  5
2B
102
{ACAD_REACTORS
330
2A
102
}
102
{ACAD_XDICTIONARY
360
F9
102
}
330
2A
100
AcDbVisualStyle
  2
Flat
 70
     0
 71
     2
 72
     1
 73
     1
 90
        2
 40
-0.6
 41
30.0
 62
     5
 63
     7
421
 16777215
 74
     0
 91
        4
 64
     7
 65
   257
 75
     1
175
     1
 42
1.0
 92
        8
 66
     7
 43
1.0
 76
     1
 77
     6
 78
     2
 67
     7
 79
     5
170
     0
171
     0
290
     0
174
     0
 93
       13
 44
0.0
173
     0
291
     1
 45
0.0
  0
VISUALSTYLE
  5
2C
102
{ACAD_REACTORS
330
2A
102
}
102
{ACAD_XDICTIONARY
360
FB
102
}
330
2A
100
AcDbVisualStyle
  2
FlatWithEdges
 70
     1
 71
     2
 72
     1
 73
     1
 90
        2
 40
-0.6
 41
30.0
 62
     5
 63
     7
421
 16777215
 74
     1
 91
        4
 64
     7
 65
   257
 75
     1
175
     1
 42
1.0
 92
        0
 66
   257
 43
1.0
 76
     1
 77
     6
 78
     2
 67
     7
 79
     5
170
     0
171
     0
290
     0
174
     0
 93
       13
 44
0.0
173
     0
291
     1
 45
0.0
  0
VISUALSTYLE
  5
2D
102
{ACAD_REACTORS
330
2A
102
}
102
{ACAD_XDICTIONARY
360
FD
102
}
330
2A
100
AcDbVisualStyle
  2
Gouraud
 70
     2
 71
     2
 72
     2
 73
     1
 90
        2
 40
-0.6
 41
30.0
 62
     5
 63
     7
421
 16777215
 74
     0
 91
        4
 64
     7
 65
   257
 75
     1
175
     1
 42
1.0
 92
        0
 66
     7
 43
1.0
 76
     1
 77
     6
 78
     2
 67
     7
 79
     5
170
     0
171
     0
290
     0
174
     0
 93
       13
 44
0.0
173
     0
291
     1
 45
0.0
  0
VISUALSTYLE
  5
2E
102
{ACAD_REACTORS
330
2A
102
}
102
{ACAD_XDICTIONARY
360
FF
102
}
330
2A
100
AcDbVisualStyle
  2
GouraudWithEdges
 70
     3
 71
     2
 72
     2
 73
     1
 90
        2
 40
-0.6
 41
30.0
 62
     5
 63
     7
421
 16777215
 74
     1
 91
        4
 64
     7
 65
   257
 75
     1
175
     1
 42
1.0
 92
        0
 66
   257
 43
1.0
 76
     1
 77
     6
 78
     2
 67
     7
 79
     5
170
     0
171
     0
290
     0
174
     0
 93
       13
 44
0.0
173
     0
291
     1
 45
0.0
  0
VISUALSTYLE
  5
38
102
{ACAD_REACTORS
330
2A
102
}
102
{ACAD_XDICTIONARY
360
113
102
}
330
2A
100
AcDbVisualStyle
  2
Linepattern
 70
    14
 71
     2
 72
     2
 73
     0
 90
        0
 40
-0.6
 41
-30.0
 62
     5
 63
     7
421
 16777215
 74
     1
 91
        4
 64
     7
 65
   257
 75
     7
175
     7
 42
1.0
 92
        8
 66
     7
 43
1.0
 76
     1
 77
     6
 78
     2
 67
     7
 79
     5
170
     0
171
     0
290
     0
174
     0
 93
        1
 44
0.0
173
     0
291
     1
 45
0.0
  0
VISUALSTYLE
  5
33
102
{ACAD_REACTORS
330
2A
102
}
102
{ACAD_XDICTIONARY
360
109
102
}
330
2A
100
AcDbVisualStyle
  2
Realistic
 70
     8
 71
     2
 72
     2
 73
     0
 90
        0
 40
-0.6
 41
-30.0
 62
     5
 63
     7
421
 16777215
 74
     1
 91
        0
 64
     7
 65
   257
 75
     1
175
     1
 42
1.0
 92
        8
 66
     8
424
  7895160
 43
1.0
 76
     1
 77
     6
 78
     2
 67
     7
 79
     5
170
     0
171
     0
290
     0
174
     0
 93
       13
 44
0.0
173
     0
291
     0
 45
0.0
  0
VISUALSTYLE
  5
37
102
{ACAD_REACTORS
330
2A
102
}
102
{ACAD_XDICTIONARY
360
111
102
}
330
2A
100
AcDbVisualStyle
  2
Thicken
 70
    13
 71
     2
 72
     2
 73
     0
 90
        0
 40
-0.6
 41
-30.0
 62
     5
 63
     7
421
 16777215
 74
     1
 91
        4
 64
     7
 65
   257
 75
     1
175
     1
 42
1.0
 92
       12
 66
     7
 43
1.0
 76
     1
 77
     6
 78
     2
 67
     7
 79
     5
170
     0
171
     0
290
     0
174
     0
 93
        1
 44
0.0
173
     0
291
     1
 45
0.0
  0
DICTIONARY
  5
101
330
2F
100
AcDbDictionary
280
     1
281
     1
  3
ACAD_XREC_ROUNDTRIP
360
102
  0
DICTIONARY
  5
105
330
31
100
AcDbDictionary
280
     1
281
     1
  3
ACAD_XREC_ROUNDTRIP
360
106
  0
DICTIONARY
  5
103
330
30
100
AcDbDictionary
280
     1
281
     1
  3
ACAD_XREC_ROUNDTRIP
360
104
  0
DICTIONARY
  5
107
330
32
100
AcDbDictionary
280
     1
281
     1
  3
ACAD_XREC_ROUNDTRIP
360
108
  0
DICTIONARY
  5
10F
330
36
100
AcDbDictionary
280
     1
281
     1
  3
ACAD_XREC_ROUNDTRIP
360
110
  0
DICTIONARY
  5
117
330
3A
100
AcDbDictionary
280
     1
281
     1
  3
ACAD_XREC_ROUNDTRIP
360
118
  0
DICTIONARY
  5
10B
330
34
100
AcDbDictionary
280
     1
281
     1
  3
ACAD_XREC_ROUNDTRIP
360
10C
  0
DICTIONARY
  5
10D
330
35
100
AcDbDictionary
280
     1
281
     1
  3
ACAD_XREC_ROUNDTRIP
360
10E
  0
DICTIONARY
  5
115
330
39
100
AcDbDictionary
280
     1
281
     1
  3
ACAD_XREC_ROUNDTRIP
360
116
  0
DICTIONARY
  5
F9
330
2B
100
AcDbDictionary
280
     1
281
     1
  3
ACAD_XREC_ROUNDTRIP
360
FA
  0
DICTIONARY
  5
FB
330
2C
100
AcDbDictionary
280
     1
281
     1
  3
ACAD_XREC_ROUNDTRIP
360
FC
  0
DICTIONARY
  5
FD
330
2D
100
AcDbDictionary
280
     1
281
     1
  3
ACAD_XREC_ROUNDTRIP
360
FE
  0
DICTIONARY
  5
FF
330
2E
100
AcDbDictionary
280
     1
281
     1
  3
ACAD_XREC_ROUNDTRIP
360
100
  0
DICTIONARY
  5
113
330
38
100
AcDbDictionary
280
     1
281
     1
  3
ACAD_XREC_ROUNDTRIP
360
114
  0
DICTIONARY
  5
109
330
33
100
AcDbDictionary
280
     1
281
     1
  3
ACAD_XREC_ROUNDTRIP
360
10A
  0
DICTIONARY
  5
111
330
37
100
AcDbDictionary
280
     1
281
     1
  3
ACAD_XREC_ROUNDTRIP
360
112
  0
XRECORD
  5
102
102
{ACAD_REACTORS
330
101
102
}
330
101
100
AcDbXrecord
280
     1
102
RTVSPropertyOp0
 70
     1
102
RTVSPropertyOp1
 70
     1
102
RTVSPropertyOp2
 70
     1
102
RTVSPropertyOp3
 70
     1
102
RTVSPropertyOp4
 70
     1
102
RTVSPropertyOp5
 70
     1
102
RTVSPropertyOp6
 70
     1
102
RTVSPropertyOp7
 70
     1
102
RTVSPropertyOp8
 70
     1
102
RTVSPropertyOp9
 70
     1
102
RTVSPropertyOp10
 70
     1
102
RTVSPropertyOp11
 70
     1
102
RTVSPropertyOp12
 70
     1
102
RTVSPropertyOp13
 70
     1
102
RTVSPropertyOp14
 70
     1
102
RTVSPropertyOp15
 70
     1
102
RTVSPropertyOp16
 70
     1
102
RTVSPropertyOp17
 70
     1
102
RTVSPropertyOp18
 70
     1
102
RTVSPropertyOp19
 70
     1
102
RTVSPropertyOp20
 70
     1
102
RTVSPropertyOp21
 70
     1
102
RTVSPropertyOp22
 70
     1
102
RTVSPropertyOp23
 70
     1
102
RTVSPropertyOp24
 70
     1
102
RTVSPropertyOp25
 70
     1
102
RTVSPropertyOp26
 70
     1
102
RTVSPropertyOp27
 70
     1
102
RTVSPropertyOp28
 70
     1
102
RTVSPropertyOp29
 70
     1
102
RTVSPropertyOp30
 70
     1
102
RTVSPropertyOp31
 70
     1
102
RTVSPropertyOp32
 70
     1
  0
XRECORD
  5
106
102
{ACAD_REACTORS
330
105
102
}
330
105
100
AcDbXrecord
280
     1
102
RTVSPropertyOp0
 70
     1
102
RTVSPropertyOp1
 70
     1
102
RTVSPropertyOp2
 70
     1
102
RTVSPropertyOp3
 70
     1
102
RTVSPropertyOp4
 70
     1
102
RTVSPropertyOp5
 70
     1
102
RTVSPropertyOp6
 70
     1
102
RTVSPropertyOp7
 70
     1
102
RTVSPropertyOp8
 70
     1
102
RTVSPropertyOp9
 70
     1
102
RTVSPropertyOp10
 70
     1
102
RTVSPropertyOp11
 70
     1
102
RTVSPropertyOp12
 70
     1
102
RTVSPropertyOp13
 70
     1
102
RTVSPropertyOp14
 70
     1
102
RTVSPropertyOp15
 70
     1
102
RTVSPropertyOp16
 70
     1
102
RTVSPropertyOp17
 70
     1
102
RTVSPropertyOp18
 70
     1
102
RTVSPropertyOp19
 70
     1
102
RTVSPropertyOp20
 70
     1
102
RTVSPropertyOp21
 70
     1
102
RTVSPropertyOp22
 70
     1
102
RTVSPropertyOp23
 70
     1
102
RTVSPropertyOp24
 70
     1
102
RTVSPropertyOp25
 70
     1
102
RTVSPropertyOp26
 70
     1
102
RTVSPropertyOp27
 70
     1
102
RTVSPropertyOp28
 70
     1
102
RTVSPropertyOp29
 70
     1
102
RTVSPropertyOp30
 70
     1
102
RTVSPropertyOp31
 70
     1
102
RTVSPropertyOp32
 70
     1
  0
XRECORD
  5
104
102
{ACAD_REACTORS
330
103
102
}
330
103
100
AcDbXrecord
280
     1
102
RTVSPropertyOp0
 70
     1
102
RTVSPropertyOp1
 70
     1
102
RTVSPropertyOp2
 70
     1
102
RTVSPropertyOp3
 70
     1
102
RTVSPropertyOp4
 70
     1
102
RTVSPropertyOp5
 70
     1
102
RTVSPropertyOp6
 70
     1
102
RTVSPropertyOp7
 70
     1
102
RTVSPropertyOp8
 70
     1
102
RTVSPropertyOp9
 70
     1
102
RTVSPropertyOp10
 70
     1
102
RTVSPropertyOp11
 70
     1
102
RTVSPropertyOp12
 70
     1
102
RTVSPropertyOp13
 70
     1
102
RTVSPropertyOp14
 70
     1
102
RTVSPropertyOp15
 70
     1
102
RTVSPropertyOp16
 70
     1
102
RTVSPropertyOp17
 70
     1
102
RTVSPropertyOp18
 70
     1
102
RTVSPropertyOp19
 70
     1
102
RTVSPropertyOp20
 70
     1
102
RTVSPropertyOp21
 70
     1
102
RTVSPropertyOp22
 70
     1
102
RTVSPropertyOp23
 70
     1
102
RTVSPropertyOp24
 70
     1
102
RTVSPropertyOp25
 70
     1
102
RTVSPropertyOp26
 70
     1
102
RTVSPropertyOp27
 70
     1
102
RTVSPropertyOp28
 70
     1
102
RTVSPropertyOp29
 70
     1
102
RTVSPropertyOp30
 70
     1
102
RTVSPropertyOp31
 70
     1
102
RTVSPropertyOp32
 70
     1
  0
XRECORD
  5
108
102
{ACAD_REACTORS
330
107
102
}
330
107
100
AcDbXrecord
280
     1
102
RTVSPropertyOp0
 70
     1
102
RTVSPropertyOp1
 70
     1
102
RTVSPropertyOp2
 70
     1
102
RTVSPropertyOp3
 70
     1
102
RTVSPropertyOp4
 70
     1
102
RTVSPropertyOp5
 70
     1
102
RTVSPropertyOp6
 70
     1
102
RTVSPropertyOp7
 70
     1
102
RTVSPropertyOp8
 70
     1
102
RTVSPropertyOp9
 70
     1
102
RTVSPropertyOp10
 70
     1
102
RTVSPropertyOp11
 70
     1
102
RTVSPropertyOp12
 70
     1
102
RTVSPropertyOp13
 70
     1
102
RTVSPropertyOp14
 70
     1
102
RTVSPropertyOp15
 70
     1
102
RTVSPropertyOp16
 70
     1
102
RTVSPropertyOp17
 70
     1
102
RTVSPropertyOp18
 70
     1
102
RTVSPropertyOp19
 70
     1
102
RTVSPropertyOp20
 70
     1
102
RTVSPropertyOp21
 70
     1
102
RTVSPropertyOp22
 70
     1
102
RTVSPropertyOp23
 70
     1
102
RTVSPropertyOp24
 70
     1
102
RTVSPropertyOp25
 70
     1
102
RTVSPropertyOp26
 70
     1
102
RTVSPropertyOp27
 70
     1
102
RTVSPropertyOp28
 70
     1
102
RTVSPropertyOp29
 70
     1
102
RTVSPropertyOp30
 70
     1
102
RTVSPropertyOp31
 70
     1
102
RTVSPropertyOp32
 70
     1
  0
XRECORD
  5
110
102
{ACAD_REACTORS
330
10F
102
}
330
10F
100
AcDbXrecord
280
     1
102
RTVSPropertyOp0
 70
     1
102
RTVSPropertyOp1
 70
     1
102
RTVSPropertyOp2
 70
     1
102
RTVSPropertyOp3
 70
     1
102
RTVSPropertyOp4
 70
     1
102
RTVSPropertyOp5
 70
     1
102
RTVSPropertyOp6
 70
     1
102
RTVSPropertyOp7
 70
     1
102
RTVSPropertyOp8
 70
     1
102
RTVSPropertyOp9
 70
     1
102
RTVSPropertyOp10
 70
     1
102
RTVSPropertyOp11
 70
     1
102
RTVSPropertyOp12
 70
     1
102
RTVSPropertyOp13
 70
     1
102
RTVSPropertyOp14
 70
     1
102
RTVSPropertyOp15
 70
     1
102
RTVSPropertyOp16
 70
     1
102
RTVSPropertyOp17
 70
     1
102
RTVSPropertyOp18
 70
     1
102
RTVSPropertyOp19
 70
     1
102
RTVSPropertyOp20
 70
     1
102
RTVSPropertyOp21
 70
     1
102
RTVSPropertyOp22
 70
     1
102
RTVSPropertyOp23
 70
     1
102
RTVSPropertyOp24
 70
     1
102
RTVSPropertyOp25
 70
     1
102
RTVSPropertyOp26
 70
     1
102
RTVSPropertyOp27
 70
     1
102
RTVSPropertyOp28
 70
     1
102
RTVSPropertyOp29
 70
     1
102
RTVSPropertyOp30
 70
     1
102
RTVSPropertyOp31
 70
     1
102
RTVSPropertyOp32
 70
     1
  0
XRECORD
  5
118
102
{ACAD_REACTORS
330
117
102
}
330
117
100
AcDbXrecord
280
     1
102
RTVSPropertyOp0
 70
     1
102
RTVSPropertyOp1
 70
     1
102
RTVSPropertyOp2
 70
     1
102
RTVSPropertyOp3
 70
     1
102
RTVSPropertyOp4
 70
     1
102
RTVSPropertyOp5
 70
     1
102
RTVSPropertyOp6
 70
     1
102
RTVSPropertyOp7
 70
     1
102
RTVSPropertyOp8
 70
     1
102
RTVSPropertyOp9
 70
     1
102
RTVSPropertyOp10
 70
     1
102
RTVSPropertyOp11
 70
     1
102
RTVSPropertyOp12
 70
     1
102
RTVSPropertyOp13
 70
     1
102
RTVSPropertyOp14
 70
     1
102
RTVSPropertyOp15
 70
     1
102
RTVSPropertyOp16
 70
     1
102
RTVSPropertyOp17
 70
     1
102
RTVSPropertyOp18
 70
     1
102
RTVSPropertyOp19
 70
     1
102
RTVSPropertyOp20
 70
     1
102
RTVSPropertyOp21
 70
     1
102
RTVSPropertyOp22
 70
     1
102
RTVSPropertyOp23
 70
     1
102
RTVSPropertyOp24
 70
     1
102
RTVSPropertyOp25
 70
     1
102
RTVSPropertyOp26
 70
     1
102
RTVSPropertyOp27
 70
     1
102
RTVSPropertyOp28
 70
     1
102
RTVSPropertyOp29
 70
     1
102
RTVSPropertyOp30
 70
     1
102
RTVSPropertyOp31
 70
     1
102
RTVSPropertyOp32
 70
     1
  0
XRECORD
  5
10C
102
{ACAD_REACTORS
330
10B
102
}
330
10B
100
AcDbXrecord
280
     1
102
RTVSPropertyOp0
 70
     1
102
RTVSPropertyOp1
 70
     1
102
RTVSPropertyOp2
 70
     1
102
RTVSPropertyOp3
 70
     1
102
RTVSPropertyOp4
 70
     1
102
RTVSPropertyOp5
 70
     1
102
RTVSPropertyOp6
 70
     1
102
RTVSPropertyOp7
 70
     1
102
RTVSPropertyOp8
 70
     1
102
RTVSPropertyOp9
 70
     1
102
RTVSPropertyOp10
 70
     1
102
RTVSPropertyOp11
 70
     1
102
RTVSPropertyOp12
 70
     1
102
RTVSPropertyOp13
 70
     1
102
RTVSPropertyOp14
 70
     1
102
RTVSPropertyOp15
 70
     1
102
RTVSPropertyOp16
 70
     1
102
RTVSPropertyOp17
 70
     1
102
RTVSPropertyOp18
 70
     1
102
RTVSPropertyOp19
 70
     1
102
RTVSPropertyOp20
 70
     1
102
RTVSPropertyOp21
 70
     1
102
RTVSPropertyOp22
 70
     1
102
RTVSPropertyOp23
 70
     1
102
RTVSPropertyOp24
 70
     1
102
RTVSPropertyOp25
 70
     1
102
RTVSPropertyOp26
 70
     1
102
RTVSPropertyOp27
 70
     1
102
RTVSPropertyOp28
 70
     1
102
RTVSPropertyOp29
 70
     1
102
RTVSPropertyOp30
 70
     1
102
RTVSPropertyOp31
 70
     1
102
RTVSPropertyOp32
 70
     1
  0
XRECORD
  5
10E
102
{ACAD_REACTORS
330
10D
102
}
330
10D
100
AcDbXrecord
280
     1
102
RTVSPropertyOp0
 70
     1
102
RTVSPropertyOp1
 70
     1
102
RTVSPropertyOp2
 70
     1
102
RTVSPropertyOp3
 70
     1
102
RTVSPropertyOp4
 70
     1
102
RTVSPropertyOp5
 70
     1
102
RTVSPropertyOp6
 70
     1
102
RTVSPropertyOp7
 70
     1
102
RTVSPropertyOp8
 70
     1
102
RTVSPropertyOp9
 70
     1
102
RTVSPropertyOp10
 70
     1
102
RTVSPropertyOp11
 70
     1
102
RTVSPropertyOp12
 70
     1
102
RTVSPropertyOp13
 70
     1
102
RTVSPropertyOp14
 70
     1
102
RTVSPropertyOp15
 70
     1
102
RTVSPropertyOp16
 70
     1
102
RTVSPropertyOp17
 70
     1
102
RTVSPropertyOp18
 70
     1
102
RTVSPropertyOp19
 70
     1
102
RTVSPropertyOp20
 70
     1
102
RTVSPropertyOp21
 70
     1
102
RTVSPropertyOp22
 70
     1
102
RTVSPropertyOp23
 70
     1
102
RTVSPropertyOp24
 70
     1
102
RTVSPropertyOp25
 70
     1
102
RTVSPropertyOp26
 70
     1
102
RTVSPropertyOp27
 70
     1
102
RTVSPropertyOp28
 70
     1
102
RTVSPropertyOp29
 70
     1
102
RTVSPropertyOp30
 70
     1
102
RTVSPropertyOp31
 70
     1
102
RTVSPropertyOp32
 70
     1
  0
XRECORD
  5
116
102
{ACAD_REACTORS
330
115
102
}
330
115
100
AcDbXrecord
280
     1
102
RTVSPropertyOp0
 70
     1
102
RTVSPropertyOp1
 70
     1
102
RTVSPropertyOp2
 70
     1
102
RTVSPropertyOp3
 70
     1
102
RTVSPropertyOp4
 70
     1
102
RTVSPropertyOp5
 70
     1
102
RTVSPropertyOp6
 70
     1
102
RTVSPropertyOp7
 70
     1
102
RTVSPropertyOp8
 70
     1
102
RTVSPropertyOp9
 70
     1
102
RTVSPropertyOp10
 70
     1
102
RTVSPropertyOp11
 70
     1
102
RTVSPropertyOp12
 70
     1
102
RTVSPropertyOp13
 70
     1
102
RTVSPropertyOp14
 70
     1
102
RTVSPropertyOp15
 70
     1
102
RTVSPropertyOp16
 70
     1
102
RTVSPropertyOp17
 70
     1
102
RTVSPropertyOp18
 70
     1
102
RTVSPropertyOp19
 70
     1
102
RTVSPropertyOp20
 70
     1
102
RTVSPropertyOp21
 70
     1
102
RTVSPropertyOp22
 70
     1
102
RTVSPropertyOp23
 70
     1
102
RTVSPropertyOp24
 70
     1
102
RTVSPropertyOp25
 70
     1
102
RTVSPropertyOp26
 70
     1
102
RTVSPropertyOp27
 70
     1
102
RTVSPropertyOp28
 70
     1
102
RTVSPropertyOp29
 70
     1
102
RTVSPropertyOp30
 70
     1
102
RTVSPropertyOp31
 70
     1
102
RTVSPropertyOp32
 70
     1
  0
XRECORD
  5
FA
102
{ACAD_REACTORS
330
F9
102
}
330
F9
100
AcDbXrecord
280
     1
102
RTVSPropertyOp0
 70
     1
102
RTVSPropertyOp1
 70
     1
102
RTVSPropertyOp2
 70
     1
102
RTVSPropertyOp3
 70
     1
102
RTVSPropertyOp4
 70
     1
102
RTVSPropertyOp5
 70
     1
102
RTVSPropertyOp6
 70
     1
102
RTVSPropertyOp7
 70
     1
102
RTVSPropertyOp8
 70
     1
102
RTVSPropertyOp9
 70
     1
102
RTVSPropertyOp10
 70
     1
102
RTVSPropertyOp11
 70
     1
102
RTVSPropertyOp12
 70
     1
102
RTVSPropertyOp13
 70
     1
102
RTVSPropertyOp14
 70
     1
102
RTVSPropertyOp15
 70
     1
102
RTVSPropertyOp16
 70
     1
102
RTVSPropertyOp17
 70
     1
102
RTVSPropertyOp18
 70
     1
102
RTVSPropertyOp19
 70
     1
102
RTVSPropertyOp20
 70
     1
102
RTVSPropertyOp21
 70
     1
102
RTVSPropertyOp22
 70
     1
102
RTVSPropertyOp23
 70
     1
102
RTVSPropertyOp24
 70
     1
102
RTVSPropertyOp25
 70
     1
102
RTVSPropertyOp26
 70
     1
102
RTVSPropertyOp27
 70
     1
102
RTVSPropertyOp28
 70
     1
102
RTVSPropertyOp29
 70
     1
102
RTVSPropertyOp30
 70
     1
102
RTVSPropertyOp31
 70
     1
102
RTVSPropertyOp32
 70
     1
  0
XRECORD
  5
FC
102
{ACAD_REACTORS
330
FB
102
}
330
FB
100
AcDbXrecord
280
     1
102
RTVSPropertyOp0
 70
     1
102
RTVSPropertyOp1
 70
     1
102
RTVSPropertyOp2
 70
     1
102
RTVSPropertyOp3
 70
     1
102
RTVSPropertyOp4
 70
     1
102
RTVSPropertyOp5
 70
     1
102
RTVSPropertyOp6
 70
     1
102
RTVSPropertyOp7
 70
     1
102
RTVSPropertyOp8
 70
     1
102
RTVSPropertyOp9
 70
     1
102
RTVSPropertyOp10
 70
     1
102
RTVSPropertyOp11
 70
     1
102
RTVSPropertyOp12
 70
     1
102
RTVSPropertyOp13
 70
     1
102
RTVSPropertyOp14
 70
     1
102
RTVSPropertyOp15
 70
     1
102
RTVSPropertyOp16
 70
     1
102
RTVSPropertyOp17
 70
     1
102
RTVSPropertyOp18
 70
     1
102
RTVSPropertyOp19
 70
     1
102
RTVSPropertyOp20
 70
     1
102
RTVSPropertyOp21
 70
     1
102
RTVSPropertyOp22
 70
     1
102
RTVSPropertyOp23
 70
     1
102
RTVSPropertyOp24
 70
     1
102
RTVSPropertyOp25
 70
     1
102
RTVSPropertyOp26
 70
     1
102
RTVSPropertyOp27
 70
     1
102
RTVSPropertyOp28
 70
     1
102
RTVSPropertyOp29
 70
     1
102
RTVSPropertyOp30
 70
     1
102
RTVSPropertyOp31
 70
     1
102
RTVSPropertyOp32
 70
     1
  0
XRECORD
  5
FE
102
{ACAD_REACTORS
330
FD
102
}
330
FD
100
AcDbXrecord
280
     1
102
RTVSPropertyOp0
 70
     1
102
RTVSPropertyOp1
 70
     1
102
RTVSPropertyOp2
 70
     1
102
RTVSPropertyOp3
 70
     1
102
RTVSPropertyOp4
 70
     1
102
RTVSPropertyOp5
 70
     1
102
RTVSPropertyOp6
 70
     1
102
RTVSPropertyOp7
 70
     1
102
RTVSPropertyOp8
 70
     1
102
RTVSPropertyOp9
 70
     1
102
RTVSPropertyOp10
 70
     1
102
RTVSPropertyOp11
 70
     1
102
RTVSPropertyOp12
 70
     1
102
RTVSPropertyOp13
 70
     1
102
RTVSPropertyOp14
 70
     1
102
RTVSPropertyOp15
 70
     1
102
RTVSPropertyOp16
 70
     1
102
RTVSPropertyOp17
 70
     1
102
RTVSPropertyOp18
 70
     1
102
RTVSPropertyOp19
 70
     1
102
RTVSPropertyOp20
 70
     1
102
RTVSPropertyOp21
 70
     1
102
RTVSPropertyOp22
 70
     1
102
RTVSPropertyOp23
 70
     1
102
RTVSPropertyOp24
 70
     1
102
RTVSPropertyOp25
 70
     1
102
RTVSPropertyOp26
 70
     1
102
RTVSPropertyOp27
 70
     1
102
RTVSPropertyOp28
 70
     1
102
RTVSPropertyOp29
 70
     1
102
RTVSPropertyOp30
 70
     1
102
RTVSPropertyOp31
 70
     1
102
RTVSPropertyOp32
 70
     1
  0
XRECORD
  5
100
102
{ACAD_REACTORS
330
FF
102
}
330
FF
100
AcDbXrecord
280
     1
102
RTVSPropertyOp0
 70
     1
102
RTVSPropertyOp1
 70
     1
102
RTVSPropertyOp2
 70
     1
102
RTVSPropertyOp3
 70
     1
102
RTVSPropertyOp4
 70
     1
102
RTVSPropertyOp5
 70
     1
102
RTVSPropertyOp6
 70
     1
102
RTVSPropertyOp7
 70
     1
102
RTVSPropertyOp8
 70
     1
102
RTVSPropertyOp9
 70
     1
102
RTVSPropertyOp10
 70
     1
102
RTVSPropertyOp11
 70
     1
102
RTVSPropertyOp12
 70
     1
102
RTVSPropertyOp13
 70
     1
102
RTVSPropertyOp14
 70
     1
102
RTVSPropertyOp15
 70
     1
102
RTVSPropertyOp16
 70
     1
102
RTVSPropertyOp17
 70
     1
102
RTVSPropertyOp18
 70
     1
102
RTVSPropertyOp19
 70
     1
102
RTVSPropertyOp20
 70
     1
102
RTVSPropertyOp21
 70
     1
102
RTVSPropertyOp22
 70
     1
102
RTVSPropertyOp23
 70
     1
102
RTVSPropertyOp24
 70
     1
102
RTVSPropertyOp25
 70
     1
102
RTVSPropertyOp26
 70
     1
102
RTVSPropertyOp27
 70
     1
102
RTVSPropertyOp28
 70
     1
102
RTVSPropertyOp29
 70
     1
102
RTVSPropertyOp30
 70
     1
102
RTVSPropertyOp31
 70
     1
102
RTVSPropertyOp32
 70
     1
  0
XRECORD
  5
114
102
{ACAD_REACTORS
330
113
102
}
330
113
100
AcDbXrecord
280
     1
102
RTVSPropertyOp0
 70
     1
102
RTVSPropertyOp1
 70
     1
102
RTVSPropertyOp2
 70
     1
102
RTVSPropertyOp3
 70
     1
102
RTVSPropertyOp4
 70
     1
102
RTVSPropertyOp5
 70
     1
102
RTVSPropertyOp6
 70
     1
102
RTVSPropertyOp7
 70
     1
102
RTVSPropertyOp8
 70
     1
102
RTVSPropertyOp9
 70
     1
102
RTVSPropertyOp10
 70
     1
102
RTVSPropertyOp11
 70
     1
102
RTVSPropertyOp12
 70
     1
102
RTVSPropertyOp13
 70
     1
102
RTVSPropertyOp14
 70
     1
102
RTVSPropertyOp15
 70
     1
102
RTVSPropertyOp16
 70
     1
102
RTVSPropertyOp17
 70
     1
102
RTVSPropertyOp18
 70
     1
102
RTVSPropertyOp19
 70
     1
102
RTVSPropertyOp20
 70
     1
102
RTVSPropertyOp21
 70
     1
102
RTVSPropertyOp22
 70
     1
102
RTVSPropertyOp23
 70
     1
102
RTVSPropertyOp24
 70
     1
102
RTVSPropertyOp25
 70
     1
102
RTVSPropertyOp26
 70
     1
102
RTVSPropertyOp27
 70
     1
102
RTVSPropertyOp28
 70
     1
102
RTVSPropertyOp29
 70
     1
102
RTVSPropertyOp30
 70
     1
102
RTVSPropertyOp31
 70
     1
102
RTVSPropertyOp32
 70
     1
  0
XRECORD
  5
10A
102
{ACAD_REACTORS
330
109
102
}
330
109
100
AcDbXrecord
280
     1
102
RTVSPropertyOp0
 70
     1
102
RTVSPropertyOp1
 70
     1
102
RTVSPropertyOp2
 70
     1
102
RTVSPropertyOp3
 70
     1
102
RTVSPropertyOp4
 70
     1
102
RTVSPropertyOp5
 70
     1
102
RTVSPropertyOp6
 70
     1
102
RTVSPropertyOp7
 70
     1
102
RTVSPropertyOp8
 70
     1
102
RTVSPropertyOp9
 70
     1
102
RTVSPropertyOp10
 70
     1
102
RTVSPropertyOp11
 70
     1
102
RTVSPropertyOp12
 70
     1
102
RTVSPropertyOp13
 70
     1
102
RTVSPropertyOp14
 70
     1
102
RTVSPropertyOp15
 70
     1
102
RTVSPropertyOp16
 70
     1
102
RTVSPropertyOp17
 70
     1
102
RTVSPropertyOp18
 70
     1
102
RTVSPropertyOp19
 70
     1
102
RTVSPropertyOp20
 70
     1
102
RTVSPropertyOp21
 70
     1
102
RTVSPropertyOp22
 70
     1
102
RTVSPropertyOp23
 70
     1
102
RTVSPropertyOp24
 70
     1
102
RTVSPropertyOp25
 70
     1
102
RTVSPropertyOp26
 70
     1
102
RTVSPropertyOp27
 70
     1
102
RTVSPropertyOp28
 70
     1
102
RTVSPropertyOp29
 70
     1
102
RTVSPropertyOp30
 70
     1
102
RTVSPropertyOp31
 70
     1
102
RTVSPropertyOp32
 70
     1
  0
XRECORD
  5
112
102
{ACAD_REACTORS
330
111
102
}
330
111
100
AcDbXrecord
280
     1
102
RTVSPropertyOp0
 70
     1
102
RTVSPropertyOp1
 70
     1
102
RTVSPropertyOp2
 70
     1
102
RTVSPropertyOp3
 70
     1
102
RTVSPropertyOp4
 70
     1
102
RTVSPropertyOp5
 70
     1
102
RTVSPropertyOp6
 70
     1
102
RTVSPropertyOp7
 70
     1
102
RTVSPropertyOp8
 70
     1
102
RTVSPropertyOp9
 70
     1
102
RTVSPropertyOp10
 70
     1
102
RTVSPropertyOp11
 70
     1
102
RTVSPropertyOp12
 70
     1
102
RTVSPropertyOp13
 70
     1
102
RTVSPropertyOp14
 70
     1
102
RTVSPropertyOp15
 70
     1
102
RTVSPropertyOp16
 70
     1
102
RTVSPropertyOp17
 70
     1
102
RTVSPropertyOp18
 70
     1
102
RTVSPropertyOp19
 70
     1
102
RTVSPropertyOp20
 70
     1
102
RTVSPropertyOp21
 70
     1
102
RTVSPropertyOp22
 70
     1
102
RTVSPropertyOp23
 70
     1
102
RTVSPropertyOp24
 70
     1
102
RTVSPropertyOp25
 70
     1
102
RTVSPropertyOp26
 70
     1
102
RTVSPropertyOp27
 70
     1
102
RTVSPropertyOp28
 70
     1
102
RTVSPropertyOp29
 70
     1
102
RTVSPropertyOp30
 70
     1
102
RTVSPropertyOp31
 70
     1
102
RTVSPropertyOp32
 70
     1
  0
ENDSEC
  0
EOF
