  0
SECTION
  2
HEADER
  9
$FLATLAND
 70
1
  9
$HANDLING
 70
0
  0
ENDSEC
  0
SECTION
  2
TABLES
  0
TABLE
  2
LTYPE
 70
15
  0
LTYPE
  2
CONTINUOUS
  5
linetype0
 70
64
  3
Solid line
 72
65
 73
0
 40
0.000000
  0
LTYPE
  2
DOTTED
  5
linetype1
 70
64
  3
........................................
 72
65
 73
2
 40
0.250000
 49
0.000000
 49
-0.250000
  0
LTYPE
  2
DASHED
  5
linetype2
 70
64
  3
____    ____    ____    ____    ____    
 72
65
 73
2
 40
1.000000
 49
0.500000
 49
-0.500000
  0
LTYPE
  2
HIDDEN
  5
linetype3
 70
64
  3
__  ________  __  ________  __  ________
 72
65
 73
4
 40
1.750000
 49
0.250000
 49
-0.250000
 49
1.000000
 49
-0.250000
  0
LTYPE
  2
PHANTOM
  5
linetype4
 70
64
  3
__  __  ________  __  __  ________      
 72
65
 73
6
 40
2.500000
 49
0.250000
 49
-0.250000
 49
0.250000
 49
-0.250000
 49
1.000000
 49
-0.250000
  0
LTYPE
  2
ME1
  5
linetype5
 70
64
  3
________        ________        ________
 72
65
 73
2
 40
2.000000
 49
1.000000
 49
-1.000000
  0
LTYPE
  2
ME2
  5
linetype6
 70
64
  3
__  __  __  __  __  __  __  __  __  __  
 72
65
 73
2
 40
0.500000
 49
0.250000
 49
-0.250000
  0
LTYPE
  2
ME3
  5
linetype7
 70
64
  3
_____________._____________.____________
 72
65
 73
4
 40
2.000000
 49
1.625000
 49
-0.125000
 49
0.125000
 49
-0.125000
  0
LTYPE
  2
ME4
  5
linetype8
 70
64
  3
___________..___________..___________.. 
 72
65
 73
6
 40
2.000000
 49
1.375000
 49
-0.125000
 49
0.125000
 49
-0.125000
 49
0.125000
 49
-0.125000
  0
LTYPE
  2
ME5
  5
linetype9
 70
64
  3
____________    ____________            
 72
65
 73
2
 40
2.000000
 49
1.500000
 49
-0.500000
  0
LTYPE
  2
ME6
  5
linetype10
 70
64
  3
____________ __ ____________ __         
 72
65
 73
4
 40
2.000000
 49
1.500000
 49
-0.125000
 49
0.250000
 49
-0.125000
  0
LTYPE
  2
ME7
  5
linetype11
 70
64
  3
___________..___________..___________.. 
 72
65
 73
6
 40
2.000000
 49
1.375000
 49
-0.125000
 49
0.125000
 49
-0.125000
 49
0.125000
 49
-0.125000
  0
LTYPE
  2
ME8
  5
linetype12
 70
64
  3
___________..___________..___________.. 
 72
65
 73
6
 40
2.000000
 49
1.375000
 49
-0.125000
 49
0.125000
 49
-0.125000
 49
0.125000
 49
-0.125000
  0
LTYPE
  2
ME9
  5
linetype13
 70
64
  3
________        ________        ________
 72
65
 73
2
 40
2.000000
 49
1.000000
 49
-1.000000
  0
LTYPE
  2
ME10
  5
linetype14
 70
64
  3
_________ __ __ _________ __ __         
 72
65
 73
6
 40
2.000000
 49
1.125000
 49
-0.125000
 49
0.250000
 49
-0.125000
 49
0.250000
 49
-0.125000
  0
ENDTAB
  0
TABLE
  2
LAYER
 70
1
  0
LAYER
  2
L1
  5
layer0
 70
0
 62
7
  6
CONTINUOUS
  0
ENDTAB
  0
ENDSEC
  0
SECTION
  2
ENTITIES
  0
POINT
  8
L1
  6
CONTINUOUS
 62
7
 10
0.000000
 20
0.000000
  0
LINE
  8
L2
  6
CONTINUOUS
 62
3
 10
3.324389
 20
0.299839
 11
3.431974
 21
0.299839
  0
LINE
  8
L2
  6
CONTINUOUS
 62
3
 10
0.186857
 20
0.299839
 11
0.226245
 21
0.092482
  0
LINE
  8
L2
  6
CONTINUOUS
 62
3
 10
0.226245
 20
0.092482
 11
0.228584
 21
0.082879
  0
LINE
  8
L2
  6
CONTINUOUS
 62
3
 10
0.228584
 20
0.082879
 11
0.234154
 21
0.071527
  0
LINE
  8
L2
  6
CONTINUOUS
 62
3
 10
0.234154
 20
0.071527
 11
0.242195
 21
0.063836
  0
LINE
  8
L2
  6
CONTINUOUS
 62
3
 10
0.242195
 20
0.063836
 11
0.242195
 21
0.013869
  0
LINE
  8
L2
  6
CONTINUOUS
 62
3
 10
0.242195
 20
0.013869
 11
0.129239
 21
0.013869
  0
LINE
  8
L2
  6
CONTINUOUS
 62
3
 10
0.129239
 20
0.013869
 11
0.129239
 21
0.063836
  0
LINE
  8
L2
  6
CONTINUOUS
 62
3
 10
0.129239
 20
0.063836
 11
0.133931
 21
0.068829
  0
LINE
  8
L2
  6
CONTINUOUS
 62
3
 10
0.133931
 20
0.068829
 11
0.138558
 21
0.079152
  0
LINE
  8
L2
  6
CONTINUOUS
 62
3
 10
0.138558
 20
0.079152
 11
0.139819
 21
0.089878
  0
LINE
  8
L2
  6
CONTINUOUS
 62
3
 10
0.139819
 20
0.089878
 11
0.095222
 21
0.089878
  0
LINE
  8
L2
  6
CONTINUOUS
 62
3
 10
0.095222
 20
0.089878
 11
0.097786
 21
0.075209
  0
LINE
  8
L2
  6
CONTINUOUS
 62
3
 10
0.097786
 20
0.075209
 11
0.100990
 21
0.068798
  0
LINE
  8
L2
  6
CONTINUOUS
 62
3
 10
0.100990
 20
0.068798
 11
0.105476
 21
0.063836
  0
LINE
  8
L2
  6
CONTINUOUS
 62
3
 10
0.105476
 20
0.063836
 11
0.105476
 21
0.013869
  0
LINE
  8
L2
  6
CONTINUOUS
 62
3
 10
0.105476
 20
0.013869
 11
0.008471
 21
0.013869
  0
LINE
  8
L2
  6
CONTINUOUS
 62
3
 10
0.008471
 20
0.013869
 11
0.008471
 21
0.066278
  0
LINE
  8
L2
  6
CONTINUOUS
 62
3
 10
0.008471
 20
0.066278
 11
0.012772
 21
0.071812
  0
LINE
  8
L2
  6
CONTINUOUS
 62
3
 10
0.012772
 20
0.071812
 11
0.018102
 21
0.082535
  0
LINE
  8
L2
  6
CONTINUOUS
 62
3
 10
0.018102
 20
0.082535
 11
0.021492
 21
0.095249
  0
LINE
  8
L2
  6
CONTINUOUS
 62
3
 10
0.021492
 20
0.095249
 11
0.058276
 21
0.299839
  0
LINE
  8
L2
  6
CONTINUOUS
 62
3
 10
0.058276
 20
0.299839
 11
0.186857
 21
0.299839
  0
LINE
  8
L2
  6
CONTINUOUS
 62
3
 10
0.129239
 20
0.145217
 11
0.116219
 21
0.229201
  0
LINE
  8
L2
  6
CONTINUOUS
 62
3
 10
0.116219
 20
0.229201
 11
0.102872
 21
0.145217
  0
LINE
  8
L2
  6
CONTINUOUS
 62
3
 10
0.102872
 20
0.145217
 11
0.129239
 21
0.145217
  0
LINE
  8
L2
  6
CONTINUOUS
 62
3
 10
0.370776
 20
0.299839
 11
0.481127
 21
0.299839
  0
LINE
  8
L2
  6
CONTINUOUS
 62
3
 10
0.481127
 20
0.299839
 11
0.500595
 21
0.298983
  0
LINE
  8
L2
  6
CONTINUOUS
 62
3
 10
0.500595
 20
0.298983
 11
0.518229
 21
0.296551
  0
LINE
  8
L2
  6
CONTINUOUS
 62
3
 10
0.518229
 20
0.296551
 11
0.533469
 21
0.292912
  0
LINE
  8
L2
  6
CONTINUOUS
 62
3
 10
0.533469
 20
0.292912
 11
0.546251
 21
0.288488
  0
LINE
  8
L2
  6
CONTINUOUS
 62
3
 10
0.546251
 20
0.288488
 11
0.566407
 21
0.277933
  0
LINE
  8
L2
  6
CONTINUOUS
 62
3
 10
0.566407
 20
0.277933
 11
0.578893
 21
0.267795
  0
LINE
  8
L2
  6
CONTINUOUS
 62
3
 10
0.578893
 20
0.267795
 11
0.586370
 21
0.259097
  0
LINE
  8
L2
  6
CONTINUOUS
 62
3
 10
0.586370
 20
0.259097
 11
0.593998
 21
0.244665
  0
LINE
  8
L2
  6
CONTINUOUS
 62
3
 10
0.593998
 20
0.244665
 11
0.596687
 21
0.229201
  0
LINE
  8
L2
  6
CONTINUOUS
 62
3
 10
0.596687
 20
0.229201
 11
0.595661
 21
0.218686
  0
LINE
  8
L2
  6
CONTINUOUS
 62
3
 10
0.595661
 20
0.218686
 11
0.589469
 21
0.200005
  0
LINE
  8
L2
  6
CONTINUOUS
 62
3
 10
0.589469
 20
0.200005
 11
0.581830
 21
0.186970
  0
LINE
  8
L2
  6
CONTINUOUS
 62
3
 10
0.581830
 20
0.186970
 11
0.574794
 21
0.178422
  0
LINE
  8
L2
  6
CONTINUOUS
 62
3
 10
0.574794
 20
0.178422
 11
0.562706
 21
0.168587
  0
LINE
  8
L2
  6
CONTINUOUS
 62
3
 10
0.562706
 20
0.168587
 11
0.556188
 21
0.165401
  0
LINE
  8
L2
  6
CONTINUOUS
 62
3
 10
0.556188
 20
0.165401
 11
0.549487
 21
0.163609
  0
LINE
  8
L2
  6
CONTINUOUS
 62
3
 10
0.549487
 20
0.163609
 11
0.558967
 21
0.160992
  0
LINE
  8
L2
  6
CONTINUOUS
 62
3
 10
0.558967
 20
0.160992
 11
0.567470
 21
0.156490
  0
LINE
  8
L2
  6
CONTINUOUS
 62
3
 10
0.567470
 20
0.156490
 11
0.581416
 21
0.144623
  0
LINE
  8
L2
  6
CONTINUOUS
 62
3
 10
0.581416
 20
0.144623
 11
0.590128
 21
0.133378
  0
LINE
  8
L2
  6
CONTINUOUS
 62
3
 10
0.590128
 20
0.133378
 11
0.595270
 21
0.124253
  0
LINE
  8
L2
  6
CONTINUOUS
 62
3
 10
0.595270
 20
0.124253
 11
0.600356
 21
0.110513
  0
LINE
  8
L2
  6
CONTINUOUS
 62
3
 10
0.600356
 20
0.110513
 11
0.602058
 21
0.098179
  0
LINE
  8
L2
  6
CONTINUOUS
 62
3
 10
0.602058
 20
0.098179
 11
0.600302
 21
0.083069
  0
LINE
  8
L2
  6
CONTINUOUS
 62
3
 10
0.600302
 20
0.083069
 11
0.595817
 21
0.069114
  0
LINE
  8
L2
  6
CONTINUOUS
 62
3
 10
0.595817
 20
0.069114
 11
0.589609
 21
0.057244
  0
LINE
  8
L2
  6
CONTINUOUS
 62
3
 10
0.589609
 20
0.057244
 11
0.582463
 21
0.047577
  0
LINE
  8
L2
  6
CONTINUOUS
 62
3
 10
0.582463
 20
0.047577
 11
0.574968
 21
0.039895
  0
LINE
  8
L2
  6
CONTINUOUS
 62
3
 10
0.574968
 20
0.039895
 11
0.559390
 21
0.028602
  0
LINE
  8
L2
  6
CONTINUOUS
 62
3
 10
0.559390
 20
0.028602
 11
0.546101
 21
0.022150
  0
LINE
  8
L2
  6
CONTINUOUS
 62
3
 10
0.546101
 20
0.022150
 11
0.524929
 21
0.015924
  0
LINE
  8
L2
  6
CONTINUOUS
 62
3
 10
0.524929
 20
0.015924
 11
0.504728
 21
0.013869
  0
LINE
  8
L2
  6
CONTINUOUS
 62
3
 10
0.504728
 20
0.013869
 11
0.370776
 21
0.013869
  0
LINE
  8
L2
  6
CONTINUOUS
 62
3
 10
0.370776
 20
0.013869
 11
0.370776
 21
0.066278
  0
LINE
  8
L2
  6
CONTINUOUS
 62
3
 10
0.370776
 20
0.066278
 11
0.376706
 21
0.070576
  0
LINE
  8
L2
  6
CONTINUOUS
 62
3
 10
0.376706
 20
0.070576
 11
0.379989
 21
0.075553
  0
LINE
  8
L2
  6
CONTINUOUS
 62
3
 10
0.379989
 20
0.075553
 11
0.383104
 21
0.084882
  0
LINE
  8
L2
  6
CONTINUOUS
 62
3
 10
0.383104
 20
0.084882
 11
0.384122
 21
0.095249
  0
LINE
  8
L2
  6
CONTINUOUS
 62
3
 10
0.384122
 20
0.095249
 11
0.384122
 21
0.213251
  0
LINE
  8
L2
  6
CONTINUOUS
 62
3
 10
0.384122
 20
0.213251
 11
0.383296
 21
0.223838
  0
LINE
  8
L2
  6
CONTINUOUS
 62
3
 10
0.383296
 20
0.223838
 11
0.381585
 21
0.231328
  0
LINE
  8
L2
  6
CONTINUOUS
 62
3
 10
0.381585
 20
0.231328
 11
0.377251
 21
0.240345
  0
LINE
  8
L2
  6
CONTINUOUS
 62
3
 10
0.377251
 20
0.240345
 11
0.374282
 21
0.243284
  0
LINE
  8
L2
  6
CONTINUOUS
 62
3
 10
0.374282
 20
0.243284
 11
0.370776
 21
0.244826
  0
LINE
  8
L2
  6
CONTINUOUS
 62
3
 10
0.370776
 20
0.244826
 11
0.370776
 21
0.299839
  0
LINE
  8
L2
  6
CONTINUOUS
 62
3
 10
0.470711
 20
0.239455
 11
0.470711
 21
0.187209
  0
LINE
  8
L2
  6
CONTINUOUS
 62
3
 10
0.470711
 20
0.187209
 11
0.483988
 21
0.189287
  0
LINE
  8
L2
  6
CONTINUOUS
 62
3
 10
0.483988
 20
0.189287
 11
0.492874
 21
0.193227
  0
LINE
  8
L2
  6
CONTINUOUS
 62
3
 10
0.492874
 20
0.193227
 11
0.498523
 21
0.197267
  0
LINE
  8
L2
  6
CONTINUOUS
 62
3
 10
0.498523
 20
0.197267
 11
0.504746
 21
0.204684
  0
LINE
  8
L2
  6
CONTINUOUS
 62
3
 10
0.504746
 20
0.204684
 11
0.507495
 21
0.213251
  0
LINE
  8
L2
  6
CONTINUOUS
 62
3
 10
0.507495
 20
0.213251
 11
0.506670
 21
0.217918
  0
LINE
  8
L2
  6
CONTINUOUS
 62
3
 10
0.506670
 20
0.217918
 11
0.501540
 21
0.226201
  0
LINE
  8
L2
  6
CONTINUOUS
 62
3
 10
0.501540
 20
0.226201
 11
0.495147
 21
0.231665
  0
LINE
  8
L2
  6
CONTINUOUS
 62
3
 10
0.495147
 20
0.231665
 11
0.483053
 21
0.237440
  0
LINE
  8
L2
  6
CONTINUOUS
 62
3
 10
0.483053
 20
0.237440
 11
0.470711
 21
0.239455
  0
LINE
  8
L2
  6
CONTINUOUS
 62
3
 10
0.470711
 20
0.134474
 11
0.470711
 21
0.074253
  0
LINE
  8
L2
  6
CONTINUOUS
 62
3
 10
0.470711
 20
0.074253
 11
0.484629
 21
0.077335
  0
LINE
  8
L2
  6
CONTINUOUS
 62
3
 10
0.484629
 20
0.077335
 11
0.494003
 21
0.082812
  0
LINE
  8
L2
  6
CONTINUOUS
 62
3
 10
0.494003
 20
0.082812
 11
0.499731
 21
0.088361
  0
LINE
  8
L2
  6
CONTINUOUS
 62
3
 10
0.499731
 20
0.088361
 11
0.505525
 21
0.098158
  0
LINE
  8
L2
  6
CONTINUOUS
 62
3
 10
0.505525
 20
0.098158
 11
0.507495
 21
0.108270
  0
LINE
  8
L2
  6
CONTINUOUS
 62
3
 10
0.507495
 20
0.108270
 11
0.506655
 21
0.113415
  0
LINE
  8
L2
  6
CONTINUOUS
 62
3
 10
0.506655
 20
0.113415
 11
0.501839
 21
0.121647
  0
LINE
  8
L2
  6
CONTINUOUS
 62
3
 10
0.501839
 20
0.121647
 11
0.495924
 21
0.126845
  0
LINE
  8
L2
  6
CONTINUOUS
 62
3
 10
0.495924
 20
0.126845
 11
0.484334
 21
0.132412
  0
LINE
  8
L2
  6
CONTINUOUS
 62
3
 10
0.484334
 20
0.132412
 11
0.470711
 21
0.134474
  0
LINE
  8
L2
  6
CONTINUOUS
 62
3
 10
0.856616
 20
0.194859
 11
0.945646
 21
0.194859
  0
LINE
  8
L2
  6
CONTINUOUS
 62
3
 10
0.945646
 20
0.194859
 11
0.945646
 21
0.276239
  0
LINE
  8
L2
  6
CONTINUOUS
 62
3
 10
0.945646
 20
0.276239
 11
0.935674
 21
0.281604
  0
LINE
  8
L2
  6
CONTINUOUS
 62
3
 10
0.935674
 20
0.281604
 11
0.924607
 21
0.286348
  0
LINE
  8
L2
  6
CONTINUOUS
 62
3
 10
0.924607
 20
0.286348
 11
0.901606
 21
0.294034
  0
LINE
  8
L2
  6
CONTINUOUS
 62
3
 10
0.901606
 20
0.294034
 11
0.863801
 21
0.302329
  0
LINE
  8
L2
  6
CONTINUOUS
 62
3
 10
0.863801
 20
0.302329
 11
0.845965
 21
0.304493
  0
LINE
  8
L2
  6
CONTINUOUS
 62
3
 10
0.845965
 20
0.304493
 11
0.830411
 21
0.305210
  0
LINE
  8
L2
  6
CONTINUOUS
 62
3
 10
0.830411
 20
0.305210
 11
0.813585
 21
0.303486
  0
LINE
  8
L2
  6
CONTINUOUS
 62
3
 10
0.813585
 20
0.303486
 11
0.797716
 21
0.299170
  0
LINE
  8
L2
  6
CONTINUOUS
 62
3
 10
0.797716
 20
0.299170
 11
0.784065
 21
0.293288
  0
LINE
  8
L2
  6
CONTINUOUS
 62
3
 10
0.784065
 20
0.293288
 11
0.772857
 21
0.286595
  0
LINE
  8
L2
  6
CONTINUOUS
 62
3
 10
0.772857
 20
0.286595
 11
0.763896
 21
0.279635
  0
LINE
  8
L2
  6
CONTINUOUS
 62
3
 10
0.763896
 20
0.279635
 11
0.750612
 21
0.265299
  0
LINE
  8
L2
  6
CONTINUOUS
 62
3
 10
0.750612
 20
0.265299
 11
0.742942
 21
0.253169
  0
LINE
  8
L2
  6
CONTINUOUS
 62
3
 10
0.742942
 20
0.253169
 11
0.735442
 21
0.233988
  0
LINE
  8
L2
  6
CONTINUOUS
 62
3
 10
0.735442
 20
0.233988
 11
0.733551
 21
0.224601
  0
LINE
  8
L2
  6
CONTINUOUS
 62
3
 10
0.733551
 20
0.224601
 11
0.732918
 21
0.215855
  0
LINE
  8
L2
  6
CONTINUOUS
 62
3
 10
0.732918
 20
0.215855
 11
0.732918
 21
0.097853
  0
LINE
  8
L2
  6
CONTINUOUS
 62
3
 10
0.732918
 20
0.097853
 11
0.735538
 21
0.081329
  0
LINE
  8
L2
  6
CONTINUOUS
 62
3
 10
0.735538
 20
0.081329
 11
0.741718
 21
0.067433
  0
LINE
  8
L2
  6
CONTINUOUS
 62
3
 10
0.741718
 20
0.067433
 11
0.749658
 21
0.055960
  0
LINE
  8
L2
  6
CONTINUOUS
 62
3
 10
0.749658
 20
0.055960
 11
0.758247
 21
0.046618
  0
LINE
  8
L2
  6
CONTINUOUS
 62
3
 10
0.758247
 20
0.046618
 11
0.776211
 21
0.032267
  0
LINE
  8
L2
  6
CONTINUOUS
 62
3
 10
0.776211
 20
0.032267
 11
0.791476
 21
0.023549
  0
LINE
  8
L2
  6
CONTINUOUS
 62
3
 10
0.791476
 20
0.023549
 11
0.803564
 21
0.018373
  0
LINE
  8
L2
  6
CONTINUOUS
 62
3
 10
0.803564
 20
0.018373
 11
0.822174
 21
0.013116
  0
LINE
  8
L2
  6
CONTINUOUS
 62
3
 10
0.822174
 20
0.013116
 11
0.840665
 21
0.011265
  0
LINE
  8
L2
  6
CONTINUOUS
 62
3
 10
0.840665
 20
0.011265
 11
0.853806
 21
0.011932
  0
LINE
  8
L2
  6
CONTINUOUS
 62
3
 10
0.853806
 20
0.011932
 11
0.881775
 21
0.016166
  0
LINE
  8
L2
  6
CONTINUOUS
 62
3
 10
0.881775
 20
0.016166
 11
0.903420
 21
0.021546
  0
LINE
  8
L2
  6
CONTINUOUS
 62
3
 10
0.903420
 20
0.021546
 11
0.918266
 21
0.026501
  0
LINE
  8
L2
  6
CONTINUOUS
 62
3
 10
0.918266
 20
0.026501
 11
0.927951
 21
0.030551
  0
LINE
  8
L2
  6
CONTINUOUS
 62
3
 10
0.927951
 20
0.030551
 11
0.939246
 21
0.036825
  0
LINE
  8
L2
  6
CONTINUOUS
 62
3
 10
0.939246
 20
0.036825
 11
0.943124
 21
0.039903
  0
LINE
  8
L2
  6
CONTINUOUS
 62
3
 10
0.943124
 20
0.039903
 11
0.945646
 21
0.042840
  0
LINE
  8
L2
  6
CONTINUOUS
 62
3
 10
0.945646
 20
0.042840
 11
0.945646
 21
0.134474
  0
LINE
  8
L2
  6
CONTINUOUS
 62
3
 10
0.945646
 20
0.134474
 11
0.856616
 21
0.134474
  0
LINE
  8
L2
  6
CONTINUOUS
 62
3
 10
0.856616
 20
0.134474
 11
0.856616
 21
0.089878
  0
LINE
  8
L2
  6
CONTINUOUS
 62
3
 10
0.856616
 20
0.089878
 11
0.855166
 21
0.082750
  0
LINE
  8
L2
  6
CONTINUOUS
 62
3
 10
0.855166
 20
0.082750
 11
0.849211
 21
0.073883
  0
LINE
  8
L2
  6
CONTINUOUS
 62
3
 10
0.849211
 20
0.073883
 11
0.845498
 21
0.071179
  0
LINE
  8
L2
  6
CONTINUOUS
 62
3
 10
0.845498
 20
0.071179
 11
0.841891
 21
0.070184
  0
LINE
  8
L2
  6
CONTINUOUS
 62
3
 10
0.841891
 20
0.070184
 11
0.836403
 21
0.072025
  0
LINE
  8
L2
  6
CONTINUOUS
 62
3
 10
0.836403
 20
0.072025
 11
0.828492
 21
0.079784
  0
LINE
  8
L2
  6
CONTINUOUS
 62
3
 10
0.828492
 20
0.079784
 11
0.825873
 21
0.084797
  0
LINE
  8
L2
  6
CONTINUOUS
 62
3
 10
0.825873
 20
0.084797
 11
0.824877
 21
0.089878
  0
LINE
  8
L2
  6
CONTINUOUS
 62
3
 10
0.824877
 20
0.089878
 11
0.824877
 21
0.221226
  0
LINE
  8
L2
  6
CONTINUOUS
 62
3
 10
0.824877
 20
0.221226
 11
0.826593
 21
0.229242
  0
LINE
  8
L2
  6
CONTINUOUS
 62
3
 10
0.826593
 20
0.229242
 11
0.833561
 21
0.239301
  0
LINE
  8
L2
  6
CONTINUOUS
 62
3
 10
0.833561
 20
0.239301
 11
0.837831
 21
0.242387
  0
LINE
  8
L2
  6
CONTINUOUS
 62
3
 10
0.837831
 20
0.242387
 11
0.841891
 21
0.243524
  0
LINE
  8
L2
  6
CONTINUOUS
 62
3
 10
0.841891
 20
0.243524
 11
0.846746
 21
0.242001
  0
LINE
  8
L2
  6
CONTINUOUS
 62
3
 10
0.846746
 20
0.242001
 11
0.853553
 21
0.235457
  0
LINE
  8
L2
  6
CONTINUOUS
 62
3
 10
0.853553
 20
0.235457
 11
0.855776
 21
0.231120
  0
LINE
  8
L2
  6
CONTINUOUS
 62
3
 10
0.855776
 20
0.231120
 11
0.856616
 21
0.226597
  0
LINE
  8
L2
  6
CONTINUOUS
 62
3
 10
0.856616
 20
0.226597
 11
0.856616
 21
0.194859
  0
LINE
  8
L2
  6
CONTINUOUS
 62
3
 10
1.076831
 20
0.299839
 11
1.210945
 21
0.299839
  0
LINE
  8
L2
  6
CONTINUOUS
 62
3
 10
1.210945
 20
0.299839
 11
1.226504
 21
0.298313
  0
LINE
  8
L2
  6
CONTINUOUS
 62
3
 10
1.226504
 20
0.298313
 11
1.240596
 21
0.294569
  0
LINE
  8
L2
  6
CONTINUOUS
 62
3
 10
1.240596
 20
0.294569
 11
1.252846
 21
0.289548
  0
LINE
  8
L2
  6
CONTINUOUS
 62
3
 10
1.252846
 20
0.289548
 11
1.272968
 21
0.277104
  0
LINE
  8
L2
  6
CONTINUOUS
 62
3
 10
1.272968
 20
0.277104
 11
1.285974
 21
0.264938
  0
LINE
  8
L2
  6
CONTINUOUS
 62
3
 10
1.285974
 20
0.264938
 11
1.294001
 21
0.254346
  0
LINE
  8
L2
  6
CONTINUOUS
 62
3
 10
1.294001
 20
0.254346
 11
1.298817
 21
0.245628
  0
LINE
  8
L2
  6
CONTINUOUS
 62
3
 10
1.298817
 20
0.245628
 11
1.303754
 21
0.231390
  0
LINE
  8
L2
  6
CONTINUOUS
 62
3
 10
1.303754
 20
0.231390
 11
1.305509
 21
0.215855
  0
LINE
  8
L2
  6
CONTINUOUS
 62
3
 10
1.305509
 20
0.215855
 11
1.305509
 21
0.103224
  0
LINE
  8
L2
  6
CONTINUOUS
 62
3
 10
1.305509
 20
0.103224
 11
1.304070
 21
0.089780
  0
LINE
  8
L2
  6
CONTINUOUS
 62
3
 10
1.304070
 20
0.089780
 11
1.300257
 21
0.076765
  0
LINE
  8
L2
  6
CONTINUOUS
 62
3
 10
1.300257
 20
0.076765
 11
1.294850
 21
0.065078
  0
LINE
  8
L2
  6
CONTINUOUS
 62
3
 10
1.294850
 20
0.065078
 11
1.288530
 21
0.055038
  0
LINE
  8
L2
  6
CONTINUOUS
 62
3
 10
1.288530
 20
0.055038
 11
1.274094
 21
0.038850
  0
LINE
  8
L2
  6
CONTINUOUS
 62
3
 10
1.274094
 20
0.038850
 11
1.260789
 21
0.028640
  0
LINE
  8
L2
  6
CONTINUOUS
 62
3
 10
1.260789
 20
0.028640
 11
1.249703
 21
0.022465
  0
LINE
  8
L2
  6
CONTINUOUS
 62
3
 10
1.249703
 20
0.022465
 11
1.231883
 21
0.016119
  0
LINE
  8
L2
  6
CONTINUOUS
 62
3
 10
1.231883
 20
0.016119
 11
1.213549
 21
0.013869
  0
LINE
  8
L2
  6
CONTINUOUS
 62
3
 10
1.213549
 20
0.013869
 11
1.076831
 21
0.013869
  0
LINE
  8
L2
  6
CONTINUOUS
 62
3
 10
1.076831
 20
0.013869
 11
1.076831
 21
0.066278
  0
LINE
  8
L2
  6
CONTINUOUS
 62
3
 10
1.076831
 20
0.066278
 11
1.082830
 21
0.070235
  0
LINE
  8
L2
  6
CONTINUOUS
 62
3
 10
1.082830
 20
0.070235
 11
1.086112
 21
0.074638
  0
LINE
  8
L2
  6
CONTINUOUS
 62
3
 10
1.086112
 20
0.074638
 11
1.089186
 21
0.082933
  0
LINE
  8
L2
  6
CONTINUOUS
 62
3
 10
1.089186
 20
0.082933
 11
1.090177
 21
0.092482
  0
LINE
  8
L2
  6
CONTINUOUS
 62
3
 10
1.090177
 20
0.092482
 11
1.090177
 21
0.223830
  0
LINE
  8
L2
  6
CONTINUOUS
 62
3
 10
1.090177
 20
0.223830
 11
1.089099
 21
0.230587
  0
LINE
  8
L2
  6
CONTINUOUS
 62
3
 10
1.089099
 20
0.230587
 11
1.084201
 21
0.241347
  0
LINE
  8
L2
  6
CONTINUOUS
 62
3
 10
1.084201
 20
0.241347
 11
1.080722
 21
0.245405
  0
LINE
  8
L2
  6
CONTINUOUS
 62
3
 10
1.080722
 20
0.245405
 11
1.076831
 21
0.247593
  0
LINE
  8
L2
  6
CONTINUOUS
 62
3
 10
1.076831
 20
0.247593
 11
1.076831
 21
0.299839
  0
LINE
  8
L2
  6
CONTINUOUS
 62
3
 10
1.181974
 20
0.236851
 11
1.181974
 21
0.074253
  0
LINE
  8
L2
  6
CONTINUOUS
 62
3
 10
1.181974
 20
0.074253
 11
1.188647
 21
0.073928
  0
LINE
  8
L2
  6
CONTINUOUS
 62
3
 10
1.188647
 20
0.073928
 11
1.198512
 21
0.075949
  0
LINE
  8
L2
  6
CONTINUOUS
 62
3
 10
1.198512
 20
0.075949
 11
1.204656
 21
0.079716
  0
LINE
  8
L2
  6
CONTINUOUS
 62
3
 10
1.204656
 20
0.079716
 11
1.211163
 21
0.087919
  0
LINE
  8
L2
  6
CONTINUOUS
 62
3
 10
1.211163
 20
0.087919
 11
1.213549
 21
0.097853
  0
LINE
  8
L2
  6
CONTINUOUS
 62
3
 10
1.213549
 20
0.097853
 11
1.213549
 21
0.215855
  0
LINE
  8
L2
  6
CONTINUOUS
 62
3
 10
1.213549
 20
0.215855
 11
1.211042
 21
0.224628
  0
LINE
  8
L2
  6
CONTINUOUS
 62
3
 10
1.211042
 20
0.224628
 11
1.206279
 21
0.229802
  0
LINE
  8
L2
  6
CONTINUOUS
 62
3
 10
1.206279
 20
0.229802
 11
1.195582
 21
0.235023
  0
LINE
  8
L2
  6
CONTINUOUS
 62
3
 10
1.195582
 20
0.235023
 11
1.181974
 21
0.236851
  0
LINE
  8
L2
  6
CONTINUOUS
 62
3
 10
1.436531
 20
0.299839
 11
1.651863
 21
0.299839
  0
LINE
  8
L2
  6
CONTINUOUS
 62
3
 10
1.651863
 20
0.299839
 11
1.651863
 21
0.200230
  0
LINE
  8
L2
  6
CONTINUOUS
 62
3
 10
1.651863
 20
0.200230
 11
1.567879
 21
0.200230
  0
LINE
  8
L2
  6
CONTINUOUS
 62
3
 10
1.567879
 20
0.200230
 11
1.567879
 21
0.218459
  0
LINE
  8
L2
  6
CONTINUOUS
 62
3
 10
1.567879
 20
0.218459
 11
1.565915
 21
0.226505
  0
LINE
  8
L2
  6
CONTINUOUS
 62
3
 10
1.565915
 20
0.226505
 11
1.561866
 21
0.231031
  0
LINE
  8
L2
  6
CONTINUOUS
 62
3
 10
1.561866
 20
0.231031
 11
1.557380
 21
0.233577
  0
LINE
  8
L2
  6
CONTINUOUS
 62
3
 10
1.557380
 20
0.233577
 11
1.548321
 21
0.236032
  0
LINE
  8
L2
  6
CONTINUOUS
 62
3
 10
1.548321
 20
0.236032
 11
1.536466
 21
0.236851
  0
LINE
  8
L2
  6
CONTINUOUS
 62
3
 10
1.536466
 20
0.236851
 11
1.536466
 21
0.184605
  0
LINE
  8
L2
  6
CONTINUOUS
 62
3
 10
1.536466
 20
0.184605
 11
1.594246
 21
0.184605
  0
LINE
  8
L2
  6
CONTINUOUS
 62
3
 10
1.594246
 20
0.184605
 11
1.594246
 21
0.129266
  0
LINE
  8
L2
  6
CONTINUOUS
 62
3
 10
1.594246
 20
0.129266
 11
1.536466
 21
0.129266
  0
LINE
  8
L2
  6
CONTINUOUS
 62
3
 10
1.536466
 20
0.129266
 11
1.536466
 21
0.074253
  0
LINE
  8
L2
  6
CONTINUOUS
 62
3
 10
1.536466
 20
0.074253
 11
1.549494
 21
0.076292
  0
LINE
  8
L2
  6
CONTINUOUS
 62
3
 10
1.549494
 20
0.076292
 11
1.557687
 21
0.079971
  0
LINE
  8
L2
  6
CONTINUOUS
 62
3
 10
1.557687
 20
0.079971
 11
1.562353
 21
0.083524
  0
LINE
  8
L2
  6
CONTINUOUS
 62
3
 10
1.562353
 20
0.083524
 11
1.566632
 21
0.089465
  0
LINE
  8
L2
  6
CONTINUOUS
 62
3
 10
1.566632
 20
0.089465
 11
1.567879
 21
0.095249
  0
LINE
  8
L2
  6
CONTINUOUS
 62
3
 10
1.567879
 20
0.095249
 11
1.567879
 21
0.116245
  0
LINE
  8
L2
  6
CONTINUOUS
 62
3
 10
1.567879
 20
0.116245
 11
1.651863
 21
0.116245
  0
LINE
  8
L2
  6
CONTINUOUS
 62
3
 10
1.651863
 20
0.116245
 11
1.651863
 21
0.013869
  0
LINE
  8
L2
  6
CONTINUOUS
 62
3
 10
1.651863
 20
0.013869
 11
1.436531
 21
0.013869
  0
LINE
  8
L2
  6
CONTINUOUS
 62
3
 10
1.436531
 20
0.013869
 11
1.436531
 21
0.066278
  0
LINE
  8
L2
  6
CONTINUOUS
 62
3
 10
1.436531
 20
0.066278
 11
1.439774
 21
0.069111
  0
LINE
  8
L2
  6
CONTINUOUS
 62
3
 10
1.439774
 20
0.069111
 11
1.443307
 21
0.075926
  0
LINE
  8
L2
  6
CONTINUOUS
 62
3
 10
1.443307
 20
0.075926
 11
1.444832
 21
0.083530
  0
LINE
  8
L2
  6
CONTINUOUS
 62
3
 10
1.444832
 20
0.083530
 11
1.444750
 21
0.088779
  0
LINE
  8
L2
  6
CONTINUOUS
 62
3
 10
1.444750
 20
0.088779
 11
1.444506
 21
0.092482
  0
LINE
  8
L2
  6
CONTINUOUS
 62
3
 10
1.444506
 20
0.092482
 11
1.444506
 21
0.226597
  0
LINE
  8
L2
  6
CONTINUOUS
 62
3
 10
1.444506
 20
0.226597
 11
1.444008
 21
0.233931
  0
LINE
  8
L2
  6
CONTINUOUS
 62
3
 10
1.444008
 20
0.233931
 11
1.441391
 21
0.243140
  0
LINE
  8
L2
  6
CONTINUOUS
 62
3
 10
1.441391
 20
0.243140
 11
1.436531
 21
0.250197
  0
LINE
  8
L2
  6
CONTINUOUS
 62
3
 10
1.436531
 20
0.250197
 11
1.436531
 21
0.299839
  0
LINE
  8
L2
  6
CONTINUOUS
 62
3
 10
1.777677
 20
0.299839
 11
1.777677
 21
0.247593
  0
LINE
  8
L2
  6
CONTINUOUS
 62
3
 10
1.777677
 20
0.247593
 11
1.783516
 21
0.244572
  0
LINE
  8
L2
  6
CONTINUOUS
 62
3
 10
1.783516
 20
0.244572
 11
1.789146
 21
0.237255
  0
LINE
  8
L2
  6
CONTINUOUS
 62
3
 10
1.789146
 20
0.237255
 11
1.791023
 21
0.226597
  0
LINE
  8
L2
  6
CONTINUOUS
 62
3
 10
1.791023
 20
0.226597
 11
1.791023
 21
0.089878
  0
LINE
  8
L2
  6
CONTINUOUS
 62
3
 10
1.791023
 20
0.089878
 11
1.790362
 21
0.082116
  0
LINE
  8
L2
  6
CONTINUOUS
 62
3
 10
1.790362
 20
0.082116
 11
1.786891
 21
0.072801
  0
LINE
  8
L2
  6
CONTINUOUS
 62
3
 10
1.786891
 20
0.072801
 11
1.780444
 21
0.066278
  0
LINE
  8
L2
  6
CONTINUOUS
 62
3
 10
1.780444
 20
0.066278
 11
1.780444
 21
0.013869
  0
LINE
  8
L2
  6
CONTINUOUS
 62
3
 10
1.780444
 20
0.013869
 11
1.888028
 21
0.013869
  0
LINE
  8
L2
  6
CONTINUOUS
 62
3
 10
1.888028
 20
0.013869
 11
1.888028
 21
0.066278
  0
LINE
  8
L2
  6
CONTINUOUS
 62
3
 10
1.888028
 20
0.066278
 11
1.884636
 21
0.071356
  0
LINE
  8
L2
  6
CONTINUOUS
 62
3
 10
1.884636
 20
0.071356
 11
1.881426
 21
0.081430
  0
LINE
  8
L2
  6
CONTINUOUS
 62
3
 10
1.881426
 20
0.081430
 11
1.880379
 21
0.092482
  0
LINE
  8
L2
  6
CONTINUOUS
 62
3
 10
1.880379
 20
0.092482
 11
1.880379
 21
0.129266
  0
LINE
  8
L2
  6
CONTINUOUS
 62
3
 10
1.880379
 20
0.129266
 11
1.935392
 21
0.129266
  0
LINE
  8
L2
  6
CONTINUOUS
 62
3
 10
1.935392
 20
0.129266
 11
1.935392
 21
0.184605
  0
LINE
  8
L2
  6
CONTINUOUS
 62
3
 10
1.935392
 20
0.184605
 11
1.880379
 21
0.184605
  0
LINE
  8
L2
  6
CONTINUOUS
 62
3
 10
1.880379
 20
0.184605
 11
1.880379
 21
0.239455
  0
LINE
  8
L2
  6
CONTINUOUS
 62
3
 10
1.880379
 20
0.239455
 11
1.888940
 21
0.237740
  0
LINE
  8
L2
  6
CONTINUOUS
 62
3
 10
1.888940
 20
0.237740
 11
1.896364
 21
0.235052
  0
LINE
  8
L2
  6
CONTINUOUS
 62
3
 10
1.896364
 20
0.235052
 11
1.905474
 21
0.228232
  0
LINE
  8
L2
  6
CONTINUOUS
 62
3
 10
1.905474
 20
0.228232
 11
1.908103
 21
0.223641
  0
LINE
  8
L2
  6
CONTINUOUS
 62
3
 10
1.908103
 20
0.223641
 11
1.909025
 21
0.218459
  0
LINE
  8
L2
  6
CONTINUOUS
 62
3
 10
1.909025
 20
0.218459
 11
1.909025
 21
0.200230
  0
LINE
  8
L2
  6
CONTINUOUS
 62
3
 10
1.909025
 20
0.200230
 11
1.987801
 21
0.200230
  0
LINE
  8
L2
  6
CONTINUOUS
 62
3
 10
1.987801
 20
0.200230
 11
1.987801
 21
0.299839
  0
LINE
  8
L2
  6
CONTINUOUS
 62
3
 10
1.987801
 20
0.299839
 11
1.777677
 21
0.299839
  0
LINE
  8
L2
  6
CONTINUOUS
 62
3
 10
2.108732
 20
0.103224
 11
2.108732
 21
0.221226
  0
LINE
  8
L2
  6
CONTINUOUS
 62
3
 10
2.108732
 20
0.221226
 11
2.111112
 21
0.236964
  0
LINE
  8
L2
  6
CONTINUOUS
 62
3
 10
2.111112
 20
0.236964
 11
2.116882
 21
0.250629
  0
LINE
  8
L2
  6
CONTINUOUS
 62
3
 10
2.116882
 20
0.250629
 11
2.124457
 21
0.261971
  0
LINE
  8
L2
  6
CONTINUOUS
 62
3
 10
2.124457
 20
0.261971
 11
2.132772
 21
0.271125
  0
LINE
  8
L2
  6
CONTINUOUS
 62
3
 10
2.132772
 20
0.271125
 11
2.150354
 21
0.284814
  0
LINE
  8
L2
  6
CONTINUOUS
 62
3
 10
2.150354
 20
0.284814
 11
2.165295
 21
0.292744
  0
LINE
  8
L2
  6
CONTINUOUS
 62
3
 10
2.165295
 20
0.292744
 11
2.188719
 21
0.300426
  0
LINE
  8
L2
  6
CONTINUOUS
 62
3
 10
2.188719
 20
0.300426
 11
2.200094
 21
0.302315
  0
LINE
  8
L2
  6
CONTINUOUS
 62
3
 10
2.200094
 20
0.302315
 11
2.210704
 21
0.302932
  0
LINE
  8
L2
  6
CONTINUOUS
 62
3
 10
2.210704
 20
0.302932
 11
2.218591
 21
0.302850
  0
LINE
  8
L2
  6
CONTINUOUS
 62
3
 10
2.218591
 20
0.302850
 11
2.224365
 21
0.302606
  0
LINE
  8
L2
  6
CONTINUOUS
 62
3
 10
2.224365
 20
0.302606
 11
2.249594
 21
0.299178
  0
LINE
  8
L2
  6
CONTINUOUS
 62
3
 10
2.249594
 20
0.299178
 11
2.267794
 21
0.294671
  0
LINE
  8
L2
  6
CONTINUOUS
 62
3
 10
2.267794
 20
0.294671
 11
2.293938
 21
0.284799
  0
LINE
  8
L2
  6
CONTINUOUS
 62
3
 10
2.293938
 20
0.284799
 11
2.318693
 21
0.271193
  0
LINE
  8
L2
  6
CONTINUOUS
 62
3
 10
2.318693
 20
0.271193
 11
2.318693
 21
0.200230
  0
LINE
  8
L2
  6
CONTINUOUS
 62
3
 10
2.318693
 20
0.200230
 11
2.232333
 21
0.200230
  0
LINE
  8
L2
  6
CONTINUOUS
 62
3
 10
2.232333
 20
0.200230
 11
2.232333
 21
0.218459
  0
LINE
  8
L2
  6
CONTINUOUS
 62
3
 10
2.232333
 20
0.218459
 11
2.230752
 21
0.227286
  0
LINE
  8
L2
  6
CONTINUOUS
 62
3
 10
2.230752
 20
0.227286
 11
2.227924
 21
0.233323
  0
LINE
  8
L2
  6
CONTINUOUS
 62
3
 10
2.227924
 20
0.233323
 11
2.222183
 21
0.240192
  0
LINE
  8
L2
  6
CONTINUOUS
 62
3
 10
2.222183
 20
0.240192
 11
2.216070
 21
0.242873
  0
LINE
  8
L2
  6
CONTINUOUS
 62
3
 10
2.216070
 20
0.242873
 11
2.210299
 21
0.240391
  0
LINE
  8
L2
  6
CONTINUOUS
 62
3
 10
2.210299
 20
0.240391
 11
2.205823
 21
0.235879
  0
LINE
  8
L2
  6
CONTINUOUS
 62
3
 10
2.205823
 20
0.235879
 11
2.200306
 21
0.226456
  0
LINE
  8
L2
  6
CONTINUOUS
 62
3
 10
2.200306
 20
0.226456
 11
2.198018
 21
0.215855
  0
LINE
  8
L2
  6
CONTINUOUS
 62
3
 10
2.198018
 20
0.215855
 11
2.198018
 21
0.092482
  0
LINE
  8
L2
  6
CONTINUOUS
 62
3
 10
2.198018
 20
0.092482
 11
2.199782
 21
0.084655
  0
LINE
  8
L2
  6
CONTINUOUS
 62
3
 10
2.199782
 20
0.084655
 11
2.206992
 21
0.074715
  0
LINE
  8
L2
  6
CONTINUOUS
 62
3
 10
2.206992
 20
0.074715
 11
2.211452
 21
0.071645
  0
LINE
  8
L2
  6
CONTINUOUS
 62
3
 10
2.211452
 20
0.071645
 11
2.215744
 21
0.070510
  0
LINE
  8
L2
  6
CONTINUOUS
 62
3
 10
2.215744
 20
0.070510
 11
2.221149
 21
0.072277
  0
LINE
  8
L2
  6
CONTINUOUS
 62
3
 10
2.221149
 20
0.072277
 11
2.228842
 21
0.079816
  0
LINE
  8
L2
  6
CONTINUOUS
 62
3
 10
2.228842
 20
0.079816
 11
2.231373
 21
0.084767
  0
LINE
  8
L2
  6
CONTINUOUS
 62
3
 10
2.231373
 20
0.084767
 11
2.232333
 21
0.089878
  0
LINE
  8
L2
  6
CONTINUOUS
 62
3
 10
2.232333
 20
0.089878
 11
2.232333
 21
0.118849
  0
LINE
  8
L2
  6
CONTINUOUS
 62
3
 10
2.232333
 20
0.118849
 11
2.218997
 21
0.118849
  0
LINE
  8
L2
  6
CONTINUOUS
 62
3
 10
2.218997
 20
0.118849
 11
2.218997
 21
0.173862
  0
LINE
  8
L2
  6
CONTINUOUS
 62
3
 10
2.218997
 20
0.173862
 11
2.318693
 21
0.173862
  0
LINE
  8
L2
  6
CONTINUOUS
 62
3
 10
2.318693
 20
0.173862
 11
2.318693
 21
0.037469
  0
LINE
  8
L2
  6
CONTINUOUS
 62
3
 10
2.318693
 20
0.037469
 11
2.313116
 21
0.033304
  0
LINE
  8
L2
  6
CONTINUOUS
 62
3
 10
2.313116
 20
0.033304
 11
2.304685
 21
0.029101
  0
LINE
  8
L2
  6
CONTINUOUS
 62
3
 10
2.304685
 20
0.029101
 11
2.295181
 21
0.025266
  0
LINE
  8
L2
  6
CONTINUOUS
 62
3
 10
2.295181
 20
0.025266
 11
2.275363
 21
0.018799
  0
LINE
  8
L2
  6
CONTINUOUS
 62
3
 10
2.275363
 20
0.018799
 11
2.243642
 21
0.011334
  0
LINE
  8
L2
  6
CONTINUOUS
 62
3
 10
2.243642
 20
0.011334
 11
2.229733
 21
0.009232
  0
LINE
  8
L2
  6
CONTINUOUS
 62
3
 10
2.229733
 20
0.009232
 11
2.218997
 21
0.008498
  0
LINE
  8
L2
  6
CONTINUOUS
 62
3
 10
2.218997
 20
0.008498
 11
2.197375
 21
0.010311
  0
LINE
  8
L2
  6
CONTINUOUS
 62
3
 10
2.197375
 20
0.010311
 11
2.178787
 21
0.014869
  0
LINE
  8
L2
  6
CONTINUOUS
 62
3
 10
2.178787
 20
0.014869
 11
2.163458
 21
0.021060
  0
LINE
  8
L2
  6
CONTINUOUS
 62
3
 10
2.163458
 20
0.021060
 11
2.151142
 21
0.028063
  0
LINE
  8
L2
  6
CONTINUOUS
 62
3
 10
2.151142
 20
0.028063
 11
2.141415
 21
0.035301
  0
LINE
  8
L2
  6
CONTINUOUS
 62
3
 10
2.141415
 20
0.035301
 11
2.127163
 21
0.050121
  0
LINE
  8
L2
  6
CONTINUOUS
 62
3
 10
2.127163
 20
0.050121
 11
2.119042
 21
0.062659
  0
LINE
  8
L2
  6
CONTINUOUS
 62
3
 10
2.119042
 20
0.062659
 11
2.114483
 21
0.072610
  0
LINE
  8
L2
  6
CONTINUOUS
 62
3
 10
2.114483
 20
0.072610
 11
2.110142
 21
0.087974
  0
LINE
  8
L2
  6
CONTINUOUS
 62
3
 10
2.110142
 20
0.087974
 11
2.108732
 21
0.103224
  0
LINE
  8
L2
  6
CONTINUOUS
 62
3
 10
2.455249
 20
0.299839
 11
2.562833
 21
0.299839
  0
LINE
  8
L2
  6
CONTINUOUS
 62
3
 10
2.562833
 20
0.299839
 11
2.562833
 21
0.250197
  0
LINE
  8
L2
  6
CONTINUOUS
 62
3
 10
2.562833
 20
0.250197
 11
2.559509
 21
0.244961
  0
LINE
  8
L2
  6
CONTINUOUS
 62
3
 10
2.559509
 20
0.244961
 11
2.556273
 21
0.233668
  0
LINE
  8
L2
  6
CONTINUOUS
 62
3
 10
2.556273
 20
0.233668
 11
2.555183
 21
0.221226
  0
LINE
  8
L2
  6
CONTINUOUS
 62
3
 10
2.555183
 20
0.221226
 11
2.555183
 21
0.189813
  0
LINE
  8
L2
  6
CONTINUOUS
 62
3
 10
2.555183
 20
0.189813
 11
2.586596
 21
0.189813
  0
LINE
  8
L2
  6
CONTINUOUS
 62
3
 10
2.586596
 20
0.189813
 11
2.586596
 21
0.223830
  0
LINE
  8
L2
  6
CONTINUOUS
 62
3
 10
2.586596
 20
0.223830
 11
2.586596
 21
0.232131
  0
LINE
  8
L2
  6
CONTINUOUS
 62
3
 10
2.586596
 20
0.232131
 11
2.584602
 21
0.242425
  0
LINE
  8
L2
  6
CONTINUOUS
 62
3
 10
2.584602
 20
0.242425
 11
2.578621
 21
0.250197
  0
LINE
  8
L2
  6
CONTINUOUS
 62
3
 10
2.578621
 20
0.250197
 11
2.578621
 21
0.299839
  0
LINE
  8
L2
  6
CONTINUOUS
 62
3
 10
2.578621
 20
0.299839
 11
2.688972
 21
0.299839
  0
LINE
  8
L2
  6
CONTINUOUS
 62
3
 10
2.688972
 20
0.299839
 11
2.688972
 21
0.250197
  0
LINE
  8
L2
  6
CONTINUOUS
 62
3
 10
2.688972
 20
0.250197
 11
2.684685
 21
0.244630
  0
LINE
  8
L2
  6
CONTINUOUS
 62
3
 10
2.684685
 20
0.244630
 11
2.679998
 21
0.233939
  0
LINE
  8
L2
  6
CONTINUOUS
 62
3
 10
2.679998
 20
0.233939
 11
2.678230
 21
0.223504
  0
LINE
  8
L2
  6
CONTINUOUS
 62
3
 10
2.678230
 20
0.223504
 11
2.678556
 21
0.097853
  0
LINE
  8
L2
  6
CONTINUOUS
 62
3
 10
2.678556
 20
0.097853
 11
2.681140
 21
0.077915
  0
LINE
  8
L2
  6
CONTINUOUS
 62
3
 10
2.681140
 20
0.077915
 11
2.684392
 21
0.069518
  0
LINE
  8
L2
  6
CONTINUOUS
 62
3
 10
2.684392
 20
0.069518
 11
2.688972
 21
0.063836
  0
LINE
  8
L2
  6
CONTINUOUS
 62
3
 10
2.688972
 20
0.063836
 11
2.688972
 21
0.013869
  0
LINE
  8
L2
  6
CONTINUOUS
 62
3
 10
2.688972
 20
0.013869
 11
2.578621
 21
0.013869
  0
LINE
  8
L2
  6
CONTINUOUS
 62
3
 10
2.578621
 20
0.013869
 11
2.578621
 21
0.063836
  0
LINE
  8
L2
  6
CONTINUOUS
 62
3
 10
2.578621
 20
0.063836
 11
2.582133
 21
0.067750
  0
LINE
  8
L2
  6
CONTINUOUS
 62
3
 10
2.582133
 20
0.067750
 11
2.585489
 21
0.077040
  0
LINE
  8
L2
  6
CONTINUOUS
 62
3
 10
2.585489
 20
0.077040
 11
2.586596
 21
0.087274
  0
LINE
  8
L2
  6
CONTINUOUS
 62
3
 10
2.586596
 20
0.087274
 11
2.586596
 21
0.134474
  0
LINE
  8
L2
  6
CONTINUOUS
 62
3
 10
2.586596
 20
0.134474
 11
2.555183
 21
0.134474
  0
LINE
  8
L2
  6
CONTINUOUS
 62
3
 10
2.555183
 20
0.134474
 11
2.555509
 21
0.087274
  0
LINE
  8
L2
  6
CONTINUOUS
 62
3
 10
2.555509
 20
0.087274
 11
2.557106
 21
0.073744
  0
LINE
  8
L2
  6
CONTINUOUS
 62
3
 10
2.557106
 20
0.073744
 11
2.559474
 21
0.068281
  0
LINE
  8
L2
  6
CONTINUOUS
 62
3
 10
2.559474
 20
0.068281
 11
2.562833
 21
0.063836
  0
LINE
  8
L2
  6
CONTINUOUS
 62
3
 10
2.562833
 20
0.063836
 11
2.562833
 21
0.013869
  0
LINE
  8
L2
  6
CONTINUOUS
 62
3
 10
2.562833
 20
0.013869
 11
2.455249
 21
0.013869
  0
LINE
  8
L2
  6
CONTINUOUS
 62
3
 10
2.455249
 20
0.013869
 11
2.455249
 21
0.063836
  0
LINE
  8
L2
  6
CONTINUOUS
 62
3
 10
2.455249
 20
0.063836
 11
2.459630
 21
0.068877
  0
LINE
  8
L2
  6
CONTINUOUS
 62
3
 10
2.459630
 20
0.068877
 11
2.464377
 21
0.079652
  0
LINE
  8
L2
  6
CONTINUOUS
 62
3
 10
2.464377
 20
0.079652
 11
2.466153
 21
0.090529
  0
LINE
  8
L2
  6
CONTINUOUS
 62
3
 10
2.466153
 20
0.090529
 11
2.465828
 21
0.218459
  0
LINE
  8
L2
  6
CONTINUOUS
 62
3
 10
2.465828
 20
0.218459
 11
2.465159
 21
0.227515
  0
LINE
  8
L2
  6
CONTINUOUS
 62
3
 10
2.465159
 20
0.227515
 11
2.461672
 21
0.240942
  0
LINE
  8
L2
  6
CONTINUOUS
 62
3
 10
2.461672
 20
0.240942
 11
2.458824
 21
0.246371
  0
LINE
  8
L2
  6
CONTINUOUS
 62
3
 10
2.458824
 20
0.246371
 11
2.455249
 21
0.250197
  0
LINE
  8
L2
  6
CONTINUOUS
 62
3
 10
2.455249
 20
0.250197
 11
2.455249
 21
0.299839
  0
LINE
  8
L2
  6
CONTINUOUS
 62
3
 10
2.825203
 20
0.299839
 11
2.938484
 21
0.299839
  0
LINE
  8
L2
  6
CONTINUOUS
 62
3
 10
2.938484
 20
0.299839
 11
2.938484
 21
0.250197
  0
LINE
  8
L2
  6
CONTINUOUS
 62
3
 10
2.938484
 20
0.250197
 11
2.933966
 21
0.244961
  0
LINE
  8
L2
  6
CONTINUOUS
 62
3
 10
2.933966
 20
0.244961
 11
2.929548
 21
0.233668
  0
LINE
  8
L2
  6
CONTINUOUS
 62
3
 10
2.929548
 20
0.233668
 11
2.928052
 21
0.221226
  0
LINE
  8
L2
  6
CONTINUOUS
 62
3
 10
2.928052
 20
0.221226
 11
2.928052
 21
0.095249
  0
LINE
  8
L2
  6
CONTINUOUS
 62
3
 10
2.928052
 20
0.095249
 11
2.928723
 21
0.085273
  0
LINE
  8
L2
  6
CONTINUOUS
 62
3
 10
2.928723
 20
0.085273
 11
2.932205
 21
0.072571
  0
LINE
  8
L2
  6
CONTINUOUS
 62
3
 10
2.932205
 20
0.072571
 11
2.938484
 21
0.063836
  0
LINE
  8
L2
  6
CONTINUOUS
 62
3
 10
2.938484
 20
0.063836
 11
2.938484
 21
0.013869
  0
LINE
  8
L2
  6
CONTINUOUS
 62
3
 10
2.938484
 20
0.013869
 11
2.825203
 21
0.013869
  0
LINE
  8
L2
  6
CONTINUOUS
 62
3
 10
2.825203
 20
0.013869
 11
2.825203
 21
0.063836
  0
LINE
  8
L2
  6
CONTINUOUS
 62
3
 10
2.825203
 20
0.063836
 11
2.830052
 21
0.068740
  0
LINE
  8
L2
  6
CONTINUOUS
 62
3
 10
2.830052
 20
0.068740
 11
2.834727
 21
0.078917
  0
LINE
  8
L2
  6
CONTINUOUS
 62
3
 10
2.834727
 20
0.078917
 11
2.836286
 21
0.092482
  0
LINE
  8
L2
  6
CONTINUOUS
 62
3
 10
2.836286
 20
0.092482
 11
2.834981
 21
0.221877
  0
LINE
  8
L2
  6
CONTINUOUS
 62
3
 10
2.834981
 20
0.221877
 11
2.834324
 21
0.229712
  0
LINE
  8
L2
  6
CONTINUOUS
 62
3
 10
2.834324
 20
0.229712
 11
2.831018
 21
0.242109
  0
LINE
  8
L2
  6
CONTINUOUS
 62
3
 10
2.831018
 20
0.242109
 11
2.828405
 21
0.247049
  0
LINE
  8
L2
  6
CONTINUOUS
 62
3
 10
2.828405
 20
0.247049
 11
2.825203
 21
0.250197
  0
LINE
  8
L2
  6
CONTINUOUS
 62
3
 10
2.825203
 20
0.250197
 11
2.825203
 21
0.299839
  0
LINE
  8
L2
  6
CONTINUOUS
 62
3
 10
3.083015
 20
0.299839
 11
3.190763
 21
0.299839
  0
LINE
  8
L2
  6
CONTINUOUS
 62
3
 10
3.190763
 20
0.299839
 11
3.190763
 21
0.250197
  0
LINE
  8
L2
  6
CONTINUOUS
 62
3
 10
3.190763
 20
0.250197
 11
3.187113
 21
0.245098
  0
LINE
  8
L2
  6
CONTINUOUS
 62
3
 10
3.187113
 20
0.245098
 11
3.183809
 21
0.234612
  0
LINE
  8
L2
  6
CONTINUOUS
 62
3
 10
3.183809
 20
0.234612
 11
3.182788
 21
0.221226
  0
LINE
  8
L2
  6
CONTINUOUS
 62
3
 10
3.182788
 20
0.221226
 11
3.183113
 21
0.088251
  0
LINE
  8
L2
  6
CONTINUOUS
 62
3
 10
3.183113
 20
0.088251
 11
3.181054
 21
0.072816
  0
LINE
  8
L2
  6
CONTINUOUS
 62
3
 10
3.181054
 20
0.072816
 11
3.176125
 21
0.058780
  0
LINE
  8
L2
  6
CONTINUOUS
 62
3
 10
3.176125
 20
0.058780
 11
3.169713
 21
0.047039
  0
LINE
  8
L2
  6
CONTINUOUS
 62
3
 10
3.169713
 20
0.047039
 11
3.162726
 21
0.037638
  0
LINE
  8
L2
  6
CONTINUOUS
 62
3
 10
3.162726
 20
0.037638
 11
3.148114
 21
0.023899
  0
LINE
  8
L2
  6
CONTINUOUS
 62
3
 10
3.148114
 20
0.023899
 11
3.135916
 21
0.016220
  0
LINE
  8
L2
  6
CONTINUOUS
 62
3
 10
3.135916
 20
0.016220
 11
3.117516
 21
0.009090
  0
LINE
  8
L2
  6
CONTINUOUS
 62
3
 10
3.117516
 20
0.009090
 11
3.109170
 21
0.007408
  0
LINE
  8
L2
  6
CONTINUOUS
 62
3
 10
3.109170
 20
0.007408
 11
3.102058
 21
0.006870
  0
LINE
  8
L2
  6
CONTINUOUS
 62
3
 10
3.102058
 20
0.006870
 11
3.078377
 21
0.008620
  0
LINE
  8
L2
  6
CONTINUOUS
 62
3
 10
3.078377
 20
0.008620
 11
3.056811
 21
0.013869
  0
LINE
  8
L2
  6
CONTINUOUS
 62
3
 10
3.056811
 20
0.013869
 11
3.056811
 21
0.066278
  0
LINE
  8
L2
  6
CONTINUOUS
 62
3
 10
3.056811
 20
0.066278
 11
3.064482
 21
0.067252
  0
LINE
  8
L2
  6
CONTINUOUS
 62
3
 10
3.064482
 20
0.067252
 11
3.076328
 21
0.072807
  0
LINE
  8
L2
  6
CONTINUOUS
 62
3
 10
3.076328
 20
0.072807
 11
3.083096
 21
0.079161
  0
LINE
  8
L2
  6
CONTINUOUS
 62
3
 10
3.083096
 20
0.079161
 11
3.089171
 21
0.090178
  0
LINE
  8
L2
  6
CONTINUOUS
 62
3
 10
3.089171
 20
0.090178
 11
3.090828
 21
0.100458
  0
LINE
  8
L2
  6
CONTINUOUS
 62
3
 10
3.090828
 20
0.100458
 11
3.091479
 21
0.223179
  0
LINE
  8
L2
  6
CONTINUOUS
 62
3
 10
3.091479
 20
0.223179
 11
3.088590
 21
0.239496
  0
LINE
  8
L2
  6
CONTINUOUS
 62
3
 10
3.088590
 20
0.239496
 11
3.085848
 21
0.246250
  0
LINE
  8
L2
  6
CONTINUOUS
 62
3
 10
3.085848
 20
0.246250
 11
3.083015
 21
0.250197
  0
LINE
  8
L2
  6
CONTINUOUS
 62
3
 10
3.083015
 20
0.250197
 11
3.083015
 21
0.299839
  0
LINE
  8
L2
  6
CONTINUOUS
 62
3
 10
3.431974
 20
0.299839
 11
3.431974
 21
0.247593
  0
LINE
  8
L2
  6
CONTINUOUS
 62
3
 10
3.431974
 20
0.247593
 11
3.428736
 21
0.242490
  0
LINE
  8
L2
  6
CONTINUOUS
 62
3
 10
3.428736
 20
0.242490
 11
3.426763
 21
0.236991
  0
LINE
  8
L2
  6
CONTINUOUS
 62
3
 10
3.426763
 20
0.236991
 11
3.424882
 21
0.226411
  0
LINE
  8
L2
  6
CONTINUOUS
 62
3
 10
3.424882
 20
0.226411
 11
3.424324
 21
0.213576
  0
LINE
  8
L2
  6
CONTINUOUS
 62
3
 10
3.424324
 20
0.213576
 11
3.424324
 21
0.184605
  0
LINE
  8
L2
  6
CONTINUOUS
 62
3
 10
3.424324
 20
0.184605
 11
3.433958
 21
0.199771
  0
LINE
  8
L2
  6
CONTINUOUS
 62
3
 10
3.433958
 20
0.199771
 11
3.440719
 21
0.210746
  0
LINE
  8
L2
  6
CONTINUOUS
 62
3
 10
3.440719
 20
0.210746
 11
3.445512
 21
0.218913
  0
LINE
  8
L2
  6
CONTINUOUS
 62
3
 10
3.445512
 20
0.218913
 11
3.451728
 21
0.230697
  0
LINE
  8
L2
  6
CONTINUOUS
 62
3
 10
3.451728
 20
0.230697
 11
3.454852
 21
0.237971
  0
LINE
  8
L2
  6
CONTINUOUS
 62
3
 10
3.454852
 20
0.237971
 11
3.457546
 21
0.247222
  0
LINE
  8
L2
  6
CONTINUOUS
 62
3
 10
3.457546
 20
0.247222
 11
3.458341
 21
0.255243
  0
LINE
  8
L2
  6
CONTINUOUS
 62
3
 10
3.458341
 20
0.255243
 11
3.458341
 21
0.299839
  0
LINE
  8
L2
  6
CONTINUOUS
 62
3
 10
3.458341
 20
0.299839
 11
3.555346
 21
0.299839
  0
LINE
  8
L2
  6
CONTINUOUS
 62
3
 10
3.555346
 20
0.299839
 11
3.555346
 21
0.247593
  0
LINE
  8
L2
  6
CONTINUOUS
 62
3
 10
3.555346
 20
0.247593
 11
3.551420
 21
0.244878
  0
LINE
  8
L2
  6
CONTINUOUS
 62
3
 10
3.551420
 20
0.244878
 11
3.546873
 21
0.240079
  0
LINE
  8
L2
  6
CONTINUOUS
 62
3
 10
3.546873
 20
0.240079
 11
3.542068
 21
0.233996
  0
LINE
  8
L2
  6
CONTINUOUS
 62
3
 10
3.542068
 20
0.233996
 11
3.532042
 21
0.219534
  0
LINE
  8
L2
  6
CONTINUOUS
 62
3
 10
3.532042
 20
0.219534
 11
3.514897
 21
0.192332
  0
LINE
  8
L2
  6
CONTINUOUS
 62
3
 10
3.514897
 20
0.192332
 11
3.506795
 21
0.179140
  0
LINE
  8
L2
  6
CONTINUOUS
 62
3
 10
3.506795
 20
0.179140
 11
3.500333
 21
0.168817
  0
LINE
  8
L2
  6
CONTINUOUS
 62
3
 10
3.500333
 20
0.168817
 11
3.522231
 21
0.124867
  0
LINE
  8
L2
  6
CONTINUOUS
 62
3
 10
3.522231
 20
0.124867
 11
3.529934
 21
0.109689
  0
LINE
  8
L2
  6
CONTINUOUS
 62
3
 10
3.529934
 20
0.109689
 11
3.536003
 21
0.098051
  0
LINE
  8
L2
  6
CONTINUOUS
 62
3
 10
3.536003
 20
0.098051
 11
3.540725
 21
0.089336
  0
LINE
  8
L2
  6
CONTINUOUS
 62
3
 10
3.540725
 20
0.089336
 11
3.547652
 21
0.077527
  0
LINE
  8
L2
  6
CONTINUOUS
 62
3
 10
3.547652
 20
0.077527
 11
3.551826
 21
0.071414
  0
LINE
  8
L2
  6
CONTINUOUS
 62
3
 10
3.551826
 20
0.071414
 11
3.556795
 21
0.065969
  0
LINE
  8
L2
  6
CONTINUOUS
 62
3
 10
3.556795
 20
0.065969
 11
3.560717
 21
0.063836
  0
LINE
  8
L2
  6
CONTINUOUS
 62
3
 10
3.560717
 20
0.063836
 11
3.560717
 21
0.013869
  0
LINE
  8
L2
  6
CONTINUOUS
 62
3
 10
3.560717
 20
0.013869
 11
3.458341
 21
0.013869
  0
LINE
  8
L2
  6
CONTINUOUS
 62
3
 10
3.458341
 20
0.013869
 11
3.458341
 21
0.050490
  0
LINE
  8
L2
  6
CONTINUOUS
 62
3
 10
3.458341
 20
0.050490
 11
3.456968
 21
0.062300
  0
LINE
  8
L2
  6
CONTINUOUS
 62
3
 10
3.456968
 20
0.062300
 11
3.453610
 21
0.073495
  0
LINE
  8
L2
  6
CONTINUOUS
 62
3
 10
3.453610
 20
0.073495
 11
3.449351
 21
0.084060
  0
LINE
  8
L2
  6
CONTINUOUS
 62
3
 10
3.449351
 20
0.084060
 11
3.444978
 21
0.093645
  0
LINE
  8
L2
  6
CONTINUOUS
 62
3
 10
3.444978
 20
0.093645
 11
3.440945
 21
0.101980
  0
LINE
  8
L2
  6
CONTINUOUS
 62
3
 10
3.440945
 20
0.101980
 11
3.433541
 21
0.116674
  0
LINE
  8
L2
  6
CONTINUOUS
 62
3
 10
3.433541
 20
0.116674
 11
3.424324
 21
0.134474
  0
LINE
  8
L2
  6
CONTINUOUS
 62
3
 10
3.424324
 20
0.134474
 11
3.424389
 21
0.117809
  0
LINE
  8
L2
  6
CONTINUOUS
 62
3
 10
3.424389
 20
0.117809
 11
3.424592
 21
0.105094
  0
LINE
  8
L2
  6
CONTINUOUS
 62
3
 10
3.424592
 20
0.105094
 11
3.424911
 21
0.095515
  0
LINE
  8
L2
  6
CONTINUOUS
 62
3
 10
3.424911
 20
0.095515
 11
3.425843
 21
0.082277
  0
LINE
  8
L2
  6
CONTINUOUS
 62
3
 10
3.425843
 20
0.082277
 11
3.426882
 21
0.075132
  0
LINE
  8
L2
  6
CONTINUOUS
 62
3
 10
3.426882
 20
0.075132
 11
3.429035
 21
0.068100
  0
LINE
  8
L2
  6
CONTINUOUS
 62
3
 10
3.429035
 20
0.068100
 11
3.431974
 21
0.063836
  0
LINE
  8
L2
  6
CONTINUOUS
 62
3
 10
3.431974
 20
0.063836
 11
3.431974
 21
0.013869
  0
LINE
  8
L2
  6
CONTINUOUS
 62
3
 10
3.431974
 20
0.013869
 11
3.324389
 21
0.013869
  0
LINE
  8
L2
  6
CONTINUOUS
 62
3
 10
3.324389
 20
0.013869
 11
3.324389
 21
0.063836
  0
LINE
  8
L2
  6
CONTINUOUS
 62
3
 10
3.324389
 20
0.063836
 11
3.328840
 21
0.067916
  0
LINE
  8
L2
  6
CONTINUOUS
 62
3
 10
3.328840
 20
0.067916
 11
3.331528
 21
0.073181
  0
LINE
  8
L2
  6
CONTINUOUS
 62
3
 10
3.331528
 20
0.073181
 11
3.334302
 21
0.083084
  0
LINE
  8
L2
  6
CONTINUOUS
 62
3
 10
3.334302
 20
0.083084
 11
3.335294
 21
0.093459
  0
LINE
  8
L2
  6
CONTINUOUS
 62
3
 10
3.335294
 20
0.093459
 11
3.334969
 21
0.213251
  0
LINE
  8
L2
  6
CONTINUOUS
 62
3
 10
3.334969
 20
0.213251
 11
3.334300
 21
0.224041
  0
LINE
  8
L2
  6
CONTINUOUS
 62
3
 10
3.334300
 20
0.224041
 11
3.330812
 21
0.238915
  0
LINE
  8
L2
  6
CONTINUOUS
 62
3
 10
3.330812
 20
0.238915
 11
3.327964
 21
0.244354
  0
LINE
  8
L2
  6
CONTINUOUS
 62
3
 10
3.327964
 20
0.244354
 11
3.324389
 21
0.247593
  0
LINE
  8
L2
  6
CONTINUOUS
 62
3
 10
3.324389
 20
0.247593
 11
3.324389
 21
0.299839
  0
LINE
  8
L2
  6
CONTINUOUS
 62
3
 10
3.686531
 20
0.299839
 11
3.794278
 21
0.299839
  0
LINE
  8
L2
  6
CONTINUOUS
 62
3
 10
3.794278
 20
0.299839
 11
3.794278
 21
0.247593
  0
LINE
  8
L2
  6
CONTINUOUS
 62
3
 10
3.794278
 20
0.247593
 11
3.789922
 21
0.244228
  0
LINE
  8
L2
  6
CONTINUOUS
 62
3
 10
3.789922
 20
0.244228
 11
3.785261
 21
0.235076
  0
LINE
  8
L2
  6
CONTINUOUS
 62
3
 10
3.785261
 20
0.235076
 11
3.783536
 21
0.224155
  0
LINE
  8
L2
  6
CONTINUOUS
 62
3
 10
3.783536
 20
0.224155
 11
3.784025
 21
0.074253
  0
LINE
  8
L2
  6
CONTINUOUS
 62
3
 10
3.784025
 20
0.074253
 11
3.791142
 21
0.075543
  0
LINE
  8
L2
  6
CONTINUOUS
 62
3
 10
3.791142
 20
0.075543
 11
3.796867
 21
0.078831
  0
LINE
  8
L2
  6
CONTINUOUS
 62
3
 10
3.796867
 20
0.078831
 11
3.801233
 21
0.083389
  0
LINE
  8
L2
  6
CONTINUOUS
 62
3
 10
3.801233
 20
0.083389
 11
3.807104
 21
0.095095
  0
LINE
  8
L2
  6
CONTINUOUS
 62
3
 10
3.807104
 20
0.095095
 11
3.809983
 21
0.106811
  0
LINE
  8
L2
  6
CONTINUOUS
 62
3
 10
3.809983
 20
0.106811
 11
3.812185
 21
0.128331
  0
LINE
  8
L2
  6
CONTINUOUS
 62
3
 10
3.812185
 20
0.128331
 11
3.812670
 21
0.152866
  0
LINE
  8
L2
  6
CONTINUOUS
 62
3
 10
3.812670
 20
0.152866
 11
3.894213
 21
0.152866
  0
LINE
  8
L2
  6
CONTINUOUS
 62
3
 10
3.894213
 20
0.152866
 11
3.894213
 21
0.013869
  0
LINE
  8
L2
  6
CONTINUOUS
 62
3
 10
3.894213
 20
0.013869
 11
3.684252
 21
0.013869
  0
LINE
  8
L2
  6
CONTINUOUS
 62
3
 10
3.684252
 20
0.013869
 11
3.684252
 21
0.063836
  0
LINE
  8
L2
  6
CONTINUOUS
 62
3
 10
3.684252
 20
0.063836
 11
3.688708
 21
0.066614
  0
LINE
  8
L2
  6
CONTINUOUS
 62
3
 10
3.688708
 20
0.066614
 11
3.693179
 21
0.073259
  0
LINE
  8
L2
  6
CONTINUOUS
 62
3
 10
3.693179
 20
0.073259
 11
3.694995
 21
0.082879
  0
LINE
  8
L2
  6
CONTINUOUS
 62
3
 10
3.694995
 20
0.082879
 11
3.694913
 21
0.088617
  0
LINE
  8
L2
  6
CONTINUOUS
 62
3
 10
3.694913
 20
0.088617
 11
3.694669
 21
0.092482
  0
LINE
  8
L2
  6
CONTINUOUS
 62
3
 10
3.694669
 20
0.092482
 11
3.694669
 21
0.221226
  0
LINE
  8
L2
  6
CONTINUOUS
 62
3
 10
3.694669
 20
0.221226
 11
3.694221
 21
0.230518
  0
LINE
  8
L2
  6
CONTINUOUS
 62
3
 10
3.694221
 20
0.230518
 11
3.691681
 21
0.241339
  0
LINE
  8
L2
  6
CONTINUOUS
 62
3
 10
3.691681
 20
0.241339
 11
3.689458
 21
0.245095
  0
LINE
  8
L2
  6
CONTINUOUS
 62
3
 10
3.689458
 20
0.245095
 11
3.686531
 21
0.247593
  0
LINE
  8
L2
  6
CONTINUOUS
 62
3
 10
3.686531
 20
0.247593
 11
3.686531
 21
0.299839
  0
LINE
  8
L2
  6
CONTINUOUS
 62
3
 10
4.030444
 20
0.299839
 11
4.146166
 21
0.299839
  0
LINE
  8
L2
  6
CONTINUOUS
 62
3
 10
4.146166
 20
0.299839
 11
4.174812
 21
0.189813
  0
LINE
  8
L2
  6
CONTINUOUS
 62
3
 10
4.174812
 20
0.189813
 11
4.203784
 21
0.299839
  0
LINE
  8
L2
  6
CONTINUOUS
 62
3
 10
4.203784
 20
0.299839
 11
4.314135
 21
0.299839
  0
LINE
  8
L2
  6
CONTINUOUS
 62
3
 10
4.314135
 20
0.299839
 11
4.314135
 21
0.250197
  0
LINE
  8
L2
  6
CONTINUOUS
 62
3
 10
4.314135
 20
0.250197
 11
4.310241
 21
0.247280
  0
LINE
  8
L2
  6
CONTINUOUS
 62
3
 10
4.310241
 20
0.247280
 11
4.307544
 21
0.243663
  0
LINE
  8
L2
  6
CONTINUOUS
 62
3
 10
4.307544
 20
0.243663
 11
4.304646
 21
0.235133
  0
LINE
  8
L2
  6
CONTINUOUS
 62
3
 10
4.304646
 20
0.235133
 11
4.303556
 21
0.223179
  0
LINE
  8
L2
  6
CONTINUOUS
 62
3
 10
4.303556
 20
0.223179
 11
4.303556
 21
0.097853
  0
LINE
  8
L2
  6
CONTINUOUS
 62
3
 10
4.303556
 20
0.097853
 11
4.304156
 21
0.086786
  0
LINE
  8
L2
  6
CONTINUOUS
 62
3
 10
4.304156
 20
0.086786
 11
4.305441
 21
0.079663
  0
LINE
  8
L2
  6
CONTINUOUS
 62
3
 10
4.305441
 20
0.079663
 11
4.308832
 21
0.071305
  0
LINE
  8
L2
  6
CONTINUOUS
 62
3
 10
4.308832
 20
0.071305
 11
4.314135
 21
0.066278
  0
LINE
  8
L2
  6
CONTINUOUS
 62
3
 10
4.314135
 20
0.066278
 11
4.314135
 21
0.013869
  0
LINE
  8
L2
  6
CONTINUOUS
 62
3
 10
4.314135
 20
0.013869
 11
4.206551
 21
0.013869
  0
LINE
  8
L2
  6
CONTINUOUS
 62
3
 10
4.206551
 20
0.013869
 11
4.206551
 21
0.066278
  0
LINE
  8
L2
  6
CONTINUOUS
 62
3
 10
4.206551
 20
0.066278
 11
4.211070
 21
0.070093
  0
LINE
  8
L2
  6
CONTINUOUS
 62
3
 10
4.211070
 20
0.070093
 11
4.213757
 21
0.075187
  0
LINE
  8
L2
  6
CONTINUOUS
 62
3
 10
4.213757
 20
0.075187
 11
4.216491
 21
0.085861
  0
LINE
  8
L2
  6
CONTINUOUS
 62
3
 10
4.216491
 20
0.085861
 11
4.217456
 21
0.099481
  0
LINE
  8
L2
  6
CONTINUOUS
 62
3
 10
4.217456
 20
0.099481
 11
4.217433
 21
0.105234
  0
LINE
  8
L2
  6
CONTINUOUS
 62
3
 10
4.217433
 20
0.105234
 11
4.217311
 21
0.118251
  0
LINE
  8
L2
  6
CONTINUOUS
 62
3
 10
4.217311
 20
0.118251
 11
4.217016
 21
0.141478
  0
LINE
  8
L2
  6
CONTINUOUS
 62
3
 10
4.217016
 20
0.141478
 11
4.216805
 21
0.166213
  0
LINE
  8
L2
  6
CONTINUOUS
 62
3
 10
4.216805
 20
0.166213
 11
4.177416
 21
0.013869
  0
LINE
  8
L2
  6
CONTINUOUS
 62
3
 10
4.177416
 20
0.013869
 11
4.151212
 21
0.013869
  0
LINE
  8
L2
  6
CONTINUOUS
 62
3
 10
4.151212
 20
0.013869
 11
4.111824
 21
0.163609
  0
LINE
  8
L2
  6
CONTINUOUS
 62
3
 10
4.111824
 20
0.163609
 11
4.111824
 21
0.109898
  0
LINE
  8
L2
  6
CONTINUOUS
 62
3
 10
4.111824
 20
0.109898
 11
4.112362
 21
0.091279
  0
LINE
  8
L2
  6
CONTINUOUS
 62
3
 10
4.112362
 20
0.091279
 11
4.113580
 21
0.080809
  0
LINE
  8
L2
  6
CONTINUOUS
 62
3
 10
4.113580
 20
0.080809
 11
4.115028
 21
0.075064
  0
LINE
  8
L2
  6
CONTINUOUS
 62
3
 10
4.115028
 20
0.075064
 11
4.118161
 21
0.069457
  0
LINE
  8
L2
  6
CONTINUOUS
 62
3
 10
4.118161
 20
0.069457
 11
4.122566
 21
0.066278
  0
LINE
  8
L2
  6
CONTINUOUS
 62
3
 10
4.122566
 20
0.066278
 11
4.122566
 21
0.013869
  0
LINE
  8
L2
  6
CONTINUOUS
 62
3
 10
4.122566
 20
0.013869
 11
4.030444
 21
0.013869
  0
LINE
  8
L2
  6
CONTINUOUS
 62
3
 10
4.030444
 20
0.013869
 11
4.030444
 21
0.066278
  0
LINE
  8
L2
  6
CONTINUOUS
 62
3
 10
4.030444
 20
0.066278
 11
4.034920
 21
0.068506
  0
LINE
  8
L2
  6
CONTINUOUS
 62
3
 10
4.034920
 20
0.068506
 11
4.039726
 21
0.075109
  0
LINE
  8
L2
  6
CONTINUOUS
 62
3
 10
4.039726
 20
0.075109
 11
4.041512
 21
0.082879
  0
LINE
  8
L2
  6
CONTINUOUS
 62
3
 10
4.041512
 20
0.082879
 11
4.041186
 21
0.092482
  0
LINE
  8
L2
  6
CONTINUOUS
 62
3
 10
4.041186
 20
0.092482
 11
4.041186
 21
0.221226
  0
LINE
  8
L2
  6
CONTINUOUS
 62
3
 10
4.041186
 20
0.221226
 11
4.040332
 21
0.232436
  0
LINE
  8
L2
  6
CONTINUOUS
 62
3
 10
4.040332
 20
0.232436
 11
4.038709
 21
0.239168
  0
LINE
  8
L2
  6
CONTINUOUS
 62
3
 10
4.038709
 20
0.239168
 11
4.035069
 21
0.246450
  0
LINE
  8
L2
  6
CONTINUOUS
 62
3
 10
4.035069
 20
0.246450
 11
4.030444
 21
0.250197
  0
LINE
  8
L2
  6
CONTINUOUS
 62
3
 10
4.030444
 20
0.250197
 11
4.030444
 21
0.299839
  0
LINE
  8
L2
  6
CONTINUOUS
 62
3
 10
4.455737
 20
0.299839
 11
4.553068
 21
0.299839
  0
LINE
  8
L2
  6
CONTINUOUS
 62
3
 10
4.553068
 20
0.299839
 11
4.602709
 21
0.171258
  0
LINE
  8
L2
  6
CONTINUOUS
 62
3
 10
4.602709
 20
0.171258
 11
4.602709
 21
0.221226
  0
LINE
  8
L2
  6
CONTINUOUS
 62
3
 10
4.602709
 20
0.221226
 11
4.602247
 21
0.231360
  0
LINE
  8
L2
  6
CONTINUOUS
 62
3
 10
4.602247
 20
0.231360
 11
4.599769
 21
0.243105
  0
LINE
  8
L2
  6
CONTINUOUS
 62
3
 10
4.599769
 20
0.243105
 11
4.597700
 21
0.247268
  0
LINE
  8
L2
  6
CONTINUOUS
 62
3
 10
4.597700
 20
0.247268
 11
4.595060
 21
0.250197
  0
LINE
  8
L2
  6
CONTINUOUS
 62
3
 10
4.595060
 20
0.250197
 11
4.595060
 21
0.299839
  0
LINE
  8
L2
  6
CONTINUOUS
 62
3
 10
4.595060
 20
0.299839
 11
4.686857
 21
0.299839
  0
LINE
  8
L2
  6
CONTINUOUS
 62
3
 10
4.686857
 20
0.299839
 11
4.686857
 21
0.250197
  0
LINE
  8
L2
  6
CONTINUOUS
 62
3
 10
4.686857
 20
0.250197
 11
4.679024
 21
0.239262
  0
LINE
  8
L2
  6
CONTINUOUS
 62
3
 10
4.679024
 20
0.239262
 11
4.677049
 21
0.233548
  0
LINE
  8
L2
  6
CONTINUOUS
 62
3
 10
4.677049
 20
0.233548
 11
4.676440
 21
0.228550
  0
LINE
  8
L2
  6
CONTINUOUS
 62
3
 10
4.676440
 20
0.228550
 11
4.676440
 21
0.221226
  0
LINE
  8
L2
  6
CONTINUOUS
 62
3
 10
4.676440
 20
0.221226
 11
4.676440
 21
0.013869
  0
LINE
  8
L2
  6
CONTINUOUS
 62
3
 10
4.676440
 20
0.013869
 11
4.589851
 21
0.013869
  0
LINE
  8
L2
  6
CONTINUOUS
 62
3
 10
4.589851
 20
0.013869
 11
4.534513
 21
0.142612
  0
LINE
  8
L2
  6
CONTINUOUS
 62
3
 10
4.534513
 20
0.142612
 11
4.534513
 21
0.097853
  0
LINE
  8
L2
  6
CONTINUOUS
 62
3
 10
4.534513
 20
0.097853
 11
4.535159
 21
0.088657
  0
LINE
  8
L2
  6
CONTINUOUS
 62
3
 10
4.535159
 20
0.088657
 11
4.538598
 21
0.076504
  0
LINE
  8
L2
  6
CONTINUOUS
 62
3
 10
4.538598
 20
0.076504
 11
4.541457
 21
0.071946
  0
LINE
  8
L2
  6
CONTINUOUS
 62
3
 10
4.541457
 20
0.071946
 11
4.545092
 21
0.068882
  0
LINE
  8
L2
  6
CONTINUOUS
 62
3
 10
4.545092
 20
0.068882
 11
4.545092
 21
0.013869
  0
LINE
  8
L2
  6
CONTINUOUS
 62
3
 10
4.545092
 20
0.013869
 11
4.455737
 21
0.013869
  0
LINE
  8
L2
  6
CONTINUOUS
 62
3
 10
4.455737
 20
0.013869
 11
4.455737
 21
0.066278
  0
LINE
  8
L2
  6
CONTINUOUS
 62
3
 10
4.455737
 20
0.066278
 11
4.460116
 21
0.070100
  0
LINE
  8
L2
  6
CONTINUOUS
 62
3
 10
4.460116
 20
0.070100
 11
4.464654
 21
0.078566
  0
LINE
  8
L2
  6
CONTINUOUS
 62
3
 10
4.464654
 20
0.078566
 11
4.466479
 21
0.088251
  0
LINE
  8
L2
  6
CONTINUOUS
 62
3
 10
4.466479
 20
0.088251
 11
4.466479
 21
0.097853
  0
LINE
  8
L2
  6
CONTINUOUS
 62
3
 10
4.466479
 20
0.097853
 11
4.466479
 21
0.218459
  0
LINE
  8
L2
  6
CONTINUOUS
 62
3
 10
4.466479
 20
0.218459
 11
4.465762
 21
0.229918
  0
LINE
  8
L2
  6
CONTINUOUS
 62
3
 10
4.465762
 20
0.229918
 11
4.464318
 21
0.237106
  0
LINE
  8
L2
  6
CONTINUOUS
 62
3
 10
4.464318
 20
0.237106
 11
4.460788
 21
0.245348
  0
LINE
  8
L2
  6
CONTINUOUS
 62
3
 10
4.460788
 20
0.245348
 11
4.455737
 21
0.250197
  0
LINE
  8
L2
  6
CONTINUOUS
 62
3
 10
4.455737
 20
0.250197
 11
4.455737
 21
0.299839
  0
LINE
  8
L2
  6
CONTINUOUS
 62
3
 10
4.826017
 20
0.100458
 11
4.828155
 21
0.084440
  0
LINE
  8
L2
  6
CONTINUOUS
 62
3
 10
4.828155
 20
0.084440
 11
4.833531
 21
0.069907
  0
LINE
  8
L2
  6
CONTINUOUS
 62
3
 10
4.833531
 20
0.069907
 11
4.840834
 21
0.057442
  0
LINE
  8
L2
  6
CONTINUOUS
 62
3
 10
4.840834
 20
0.057442
 11
4.849085
 21
0.047111
  0
LINE
  8
L2
  6
CONTINUOUS
 62
3
 10
4.849085
 20
0.047111
 11
4.867195
 21
0.031147
  0
LINE
  8
L2
  6
CONTINUOUS
 62
3
 10
4.867195
 20
0.031147
 11
4.883234
 21
0.021540
  0
LINE
  8
L2
  6
CONTINUOUS
 62
3
 10
4.883234
 20
0.021540
 11
4.896215
 21
0.015933
  0
LINE
  8
L2
  6
CONTINUOUS
 62
3
 10
4.896215
 20
0.015933
 11
4.916428
 21
0.010382
  0
LINE
  8
L2
  6
CONTINUOUS
 62
3
 10
4.916428
 20
0.010382
 11
4.936368
 21
0.008498
  0
LINE
  8
L2
  6
CONTINUOUS
 62
3
 10
4.936368
 20
0.008498
 11
4.955916
 21
0.010166
  0
LINE
  8
L2
  6
CONTINUOUS
 62
3
 10
4.955916
 20
0.010166
 11
4.973726
 21
0.014325
  0
LINE
  8
L2
  6
CONTINUOUS
 62
3
 10
4.973726
 20
0.014325
 11
4.988695
 21
0.019960
  0
LINE
  8
L2
  6
CONTINUOUS
 62
3
 10
4.988695
 20
0.019960
 11
5.000757
 21
0.026336
  0
LINE
  8
L2
  6
CONTINUOUS
 62
3
 10
5.000757
 20
0.026336
 11
5.010243
 21
0.032935
  0
LINE
  8
L2
  6
CONTINUOUS
 62
3
 10
5.010243
 20
0.032935
 11
5.023994
 21
0.046440
  0
LINE
  8
L2
  6
CONTINUOUS
 62
3
 10
5.023994
 20
0.046440
 11
5.031710
 21
0.057795
  0
LINE
  8
L2
  6
CONTINUOUS
 62
3
 10
5.031710
 20
0.057795
 11
5.039003
 21
0.075651
  0
LINE
  8
L2
  6
CONTINUOUS
 62
3
 10
5.039003
 20
0.075651
 11
5.041349
 21
0.092482
  0
LINE
  8
L2
  6
CONTINUOUS
 62
3
 10
5.041349
 20
0.092482
 11
5.041349
 21
0.221226
  0
LINE
  8
L2
  6
CONTINUOUS
 62
3
 10
5.041349
 20
0.221226
 11
5.039154
 21
0.237452
  0
LINE
  8
L2
  6
CONTINUOUS
 62
3
 10
5.039154
 20
0.237452
 11
5.033878
 21
0.251016
  0
LINE
  8
L2
  6
CONTINUOUS
 62
3
 10
5.033878
 20
0.251016
 11
5.026953
 21
0.262166
  0
LINE
  8
L2
  6
CONTINUOUS
 62
3
 10
5.026953
 20
0.262166
 11
5.019303
 21
0.271215
  0
LINE
  8
L2
  6
CONTINUOUS
 62
3
 10
5.019303
 20
0.271215
 11
5.002789
 21
0.285064
  0
LINE
  8
L2
  6
CONTINUOUS
 62
3
 10
5.002789
 20
0.285064
 11
4.988181
 21
0.293446
  0
LINE
  8
L2
  6
CONTINUOUS
 62
3
 10
4.988181
 20
0.293446
 11
4.976192
 21
0.298411
  0
LINE
  8
L2
  6
CONTINUOUS
 62
3
 10
4.976192
 20
0.298411
 11
4.956876
 21
0.303442
  0
LINE
  8
L2
  6
CONTINUOUS
 62
3
 10
4.956876
 20
0.303442
 11
4.936368
 21
0.305210
  0
LINE
  8
L2
  6
CONTINUOUS
 62
3
 10
4.936368
 20
0.305210
 11
4.917080
 21
0.303532
  0
LINE
  8
L2
  6
CONTINUOUS
 62
3
 10
4.917080
 20
0.303532
 11
4.899009
 21
0.299320
  0
LINE
  8
L2
  6
CONTINUOUS
 62
3
 10
4.899009
 20
0.299320
 11
4.883525
 21
0.293574
  0
LINE
  8
L2
  6
CONTINUOUS
 62
3
 10
4.883525
 20
0.293574
 11
4.870849
 21
0.287037
  0
LINE
  8
L2
  6
CONTINUOUS
 62
3
 10
4.870849
 20
0.287037
 11
4.860738
 21
0.280243
  0
LINE
  8
L2
  6
CONTINUOUS
 62
3
 10
4.860738
 20
0.280243
 11
4.845795
 21
0.266272
  0
LINE
  8
L2
  6
CONTINUOUS
 62
3
 10
4.845795
 20
0.266272
 11
4.837197
 21
0.254480
  0
LINE
  8
L2
  6
CONTINUOUS
 62
3
 10
4.837197
 20
0.254480
 11
4.832318
 21
0.245222
  0
LINE
  8
L2
  6
CONTINUOUS
 62
3
 10
4.832318
 20
0.245222
 11
4.827595
 21
0.231324
  0
LINE
  8
L2
  6
CONTINUOUS
 62
3
 10
4.827595
 20
0.231324
 11
4.826017
 21
0.218459
  0
LINE
  8
L2
  6
CONTINUOUS
 62
3
 10
4.826017
 20
0.218459
 11
4.826017
 21
0.100458
  0
LINE
  8
L2
  6
CONTINUOUS
 62
3
 10
4.951993
 20
0.097853
 11
4.950834
 21
0.088240
  0
LINE
  8
L2
  6
CONTINUOUS
 62
3
 10
4.950834
 20
0.088240
 11
4.948582
 21
0.081721
  0
LINE
  8
L2
  6
CONTINUOUS
 62
3
 10
4.948582
 20
0.081721
 11
4.943354
 21
0.074349
  0
LINE
  8
L2
  6
CONTINUOUS
 62
3
 10
4.943354
 20
0.074349
 11
4.940048
 21
0.072240
  0
LINE
  8
L2
  6
CONTINUOUS
 62
3
 10
4.940048
 20
0.072240
 11
4.936368
 21
0.071486
  0
LINE
  8
L2
  6
CONTINUOUS
 62
3
 10
4.936368
 20
0.071486
 11
4.929100
 21
0.073958
  0
LINE
  8
L2
  6
CONTINUOUS
 62
3
 10
4.929100
 20
0.073958
 11
4.924562
 21
0.078426
  0
LINE
  8
L2
  6
CONTINUOUS
 62
3
 10
4.924562
 20
0.078426
 11
4.919746
 21
0.087662
  0
LINE
  8
L2
  6
CONTINUOUS
 62
3
 10
4.919746
 20
0.087662
 11
4.917976
 21
0.097853
  0
LINE
  8
L2
  6
CONTINUOUS
 62
3
 10
4.917976
 20
0.097853
 11
4.917976
 21
0.218459
  0
LINE
  8
L2
  6
CONTINUOUS
 62
3
 10
4.917976
 20
0.218459
 11
4.919500
 21
0.227253
  0
LINE
  8
L2
  6
CONTINUOUS
 62
3
 10
4.919500
 20
0.227253
 11
4.922355
 21
0.233126
  0
LINE
  8
L2
  6
CONTINUOUS
 62
3
 10
4.922355
 20
0.233126
 11
4.928636
 21
0.239694
  0
LINE
  8
L2
  6
CONTINUOUS
 62
3
 10
4.928636
 20
0.239694
 11
4.936368
 21
0.242222
  0
LINE
  8
L2
  6
CONTINUOUS
 62
3
 10
4.936368
 20
0.242222
 11
4.943342
 21
0.240454
  0
LINE
  8
L2
  6
CONTINUOUS
 62
3
 10
4.943342
 20
0.240454
 11
4.947185
 21
0.237025
  0
LINE
  8
L2
  6
CONTINUOUS
 62
3
 10
4.947185
 20
0.237025
 11
4.950813
 21
0.229071
  0
LINE
  8
L2
  6
CONTINUOUS
 62
3
 10
4.950813
 20
0.229071
 11
4.951993
 21
0.218459
  0
LINE
  8
L2
  6
CONTINUOUS
 62
3
 10
4.951993
 20
0.218459
 11
4.951993
 21
0.097853
  0
LINE
  8
L2
  6
CONTINUOUS
 62
3
 10
5.177579
 20
0.299839
 11
5.311628
 21
0.299839
  0
LINE
  8
L2
  6
CONTINUOUS
 62
3
 10
5.311628
 20
0.299839
 11
5.324159
 21
0.298442
  0
LINE
  8
L2
  6
CONTINUOUS
 62
3
 10
5.324159
 20
0.298442
 11
5.337366
 21
0.294867
  0
LINE
  8
L2
  6
CONTINUOUS
 62
3
 10
5.337366
 20
0.294867
 11
5.349587
 21
0.289900
  0
LINE
  8
L2
  6
CONTINUOUS
 62
3
 10
5.349587
 20
0.289900
 11
5.360200
 21
0.284163
  0
LINE
  8
L2
  6
CONTINUOUS
 62
3
 10
5.360200
 20
0.284163
 11
5.377352
 21
0.271214
  0
LINE
  8
L2
  6
CONTINUOUS
 62
3
 10
5.377352
 20
0.271214
 11
5.388136
 21
0.259469
  0
LINE
  8
L2
  6
CONTINUOUS
 62
3
 10
5.388136
 20
0.259469
 11
5.394633
 21
0.249880
  0
LINE
  8
L2
  6
CONTINUOUS
 62
3
 10
5.394633
 20
0.249880
 11
5.401292
 21
0.235067
  0
LINE
  8
L2
  6
CONTINUOUS
 62
3
 10
5.401292
 20
0.235067
 11
5.403653
 21
0.221162
  0
LINE
  8
L2
  6
CONTINUOUS
 62
3
 10
5.403653
 20
0.221162
 11
5.403653
 21
0.173763
  0
LINE
  8
L2
  6
CONTINUOUS
 62
3
 10
5.403653
 20
0.173763
 11
5.402300
 21
0.155323
  0
LINE
  8
L2
  6
CONTINUOUS
 62
3
 10
5.402300
 20
0.155323
 11
5.398894
 21
0.141205
  0
LINE
  8
L2
  6
CONTINUOUS
 62
3
 10
5.398894
 20
0.141205
 11
5.394213
 21
0.130396
  0
LINE
  8
L2
  6
CONTINUOUS
 62
3
 10
5.394213
 20
0.130396
 11
5.388815
 21
0.122121
  0
LINE
  8
L2
  6
CONTINUOUS
 62
3
 10
5.388815
 20
0.122121
 11
5.376444
 21
0.110293
  0
LINE
  8
L2
  6
CONTINUOUS
 62
3
 10
5.376444
 20
0.110293
 11
5.364724
 21
0.103640
  0
LINE
  8
L2
  6
CONTINUOUS
 62
3
 10
5.364724
 20
0.103640
 11
5.354559
 21
0.099898
  0
LINE
  8
L2
  6
CONTINUOUS
 62
3
 10
5.354559
 20
0.099898
 11
5.337105
 21
0.096289
  0
LINE
  8
L2
  6
CONTINUOUS
 62
3
 10
5.337105
 20
0.096289
 11
5.317001
 21
0.095086
  0
LINE
  8
L2
  6
CONTINUOUS
 62
3
 10
5.317001
 20
0.095086
 11
5.280029
 21
0.095086
  0
LINE
  8
L2
  6
CONTINUOUS
 62
3
 10
5.280029
 20
0.095086
 11
5.278564
 21
0.083065
  0
LINE
  8
L2
  6
CONTINUOUS
 62
3
 10
5.278564
 20
0.083065
 11
5.281455
 21
0.073158
  0
LINE
  8
L2
  6
CONTINUOUS
 62
3
 10
5.281455
 20
0.073158
 11
5.284473
 21
0.069042
  0
LINE
  8
L2
  6
CONTINUOUS
 62
3
 10
5.284473
 20
0.069042
 11
5.288010
 21
0.066174
  0
LINE
  8
L2
  6
CONTINUOUS
 62
3
 10
5.288010
 20
0.066174
 11
5.288010
 21
0.013869
  0
LINE
  8
L2
  6
CONTINUOUS
 62
3
 10
5.288010
 20
0.013869
 11
5.177579
 21
0.013869
  0
LINE
  8
L2
  6
CONTINUOUS
 62
3
 10
5.177579
 20
0.013869
 11
5.177579
 21
0.066278
  0
LINE
  8
L2
  6
CONTINUOUS
 62
3
 10
5.177579
 20
0.066278
 11
5.182567
 21
0.069258
  0
LINE
  8
L2
  6
CONTINUOUS
 62
3
 10
5.182567
 20
0.069258
 11
5.185373
 21
0.072842
  0
LINE
  8
L2
  6
CONTINUOUS
 62
3
 10
5.185373
 20
0.072842
 11
5.188078
 21
0.080385
  0
LINE
  8
L2
  6
CONTINUOUS
 62
3
 10
5.188078
 20
0.080385
 11
5.188980
 21
0.090529
  0
LINE
  8
L2
  6
CONTINUOUS
 62
3
 10
5.188980
 20
0.090529
 11
5.188573
 21
0.095961
  0
LINE
  8
L2
  6
CONTINUOUS
 62
3
 10
5.188573
 20
0.095961
 11
5.188293
 21
0.097693
  0
LINE
  8
L2
  6
CONTINUOUS
 62
3
 10
5.188293
 20
0.097693
 11
5.188166
 21
0.097853
  0
LINE
  8
L2
  6
CONTINUOUS
 62
3
 10
5.188166
 20
0.097853
 11
5.188166
 21
0.215855
  0
LINE
  8
L2
  6
CONTINUOUS
 62
3
 10
5.188166
 20
0.215855
 11
5.187289
 21
0.226947
  0
LINE
  8
L2
  6
CONTINUOUS
 62
3
 10
5.187289
 20
0.226947
 11
5.185601
 21
0.234076
  0
LINE
  8
L2
  6
CONTINUOUS
 62
3
 10
5.185601
 20
0.234076
 11
5.181884
 21
0.241540
  0
LINE
  8
L2
  6
CONTINUOUS
 62
3
 10
5.181884
 20
0.241540
 11
5.177579
 21
0.244826
  0
LINE
  8
L2
  6
CONTINUOUS
 62
3
 10
5.177579
 20
0.244826
 11
5.177579
 21
0.299839
  0
LINE
  8
L2
  6
CONTINUOUS
 62
3
 10
5.280029
 20
0.236851
 11
5.280029
 21
0.155471
  0
LINE
  8
L2
  6
CONTINUOUS
 62
3
 10
5.280029
 20
0.155471
 11
5.287186
 21
0.156044
  0
LINE
  8
L2
  6
CONTINUOUS
 62
3
 10
5.287186
 20
0.156044
 11
5.297634
 21
0.159427
  0
LINE
  8
L2
  6
CONTINUOUS
 62
3
 10
5.297634
 20
0.159427
 11
5.303653
 21
0.163478
  0
LINE
  8
L2
  6
CONTINUOUS
 62
3
 10
5.303653
 20
0.163478
 11
5.309595
 21
0.171049
  0
LINE
  8
L2
  6
CONTINUOUS
 62
3
 10
5.309595
 20
0.171049
 11
5.311628
 21
0.179234
  0
LINE
  8
L2
  6
CONTINUOUS
 62
3
 10
5.311628
 20
0.179234
 11
5.311628
 21
0.210809
  0
LINE
  8
L2
  6
CONTINUOUS
 62
3
 10
5.311628
 20
0.210809
 11
5.309382
 21
0.221230
  0
LINE
  8
L2
  6
CONTINUOUS
 62
3
 10
5.309382
 20
0.221230
 11
5.304779
 21
0.227882
  0
LINE
  8
L2
  6
CONTINUOUS
 62
3
 10
5.304779
 20
0.227882
 11
5.299844
 21
0.231801
  0
LINE
  8
L2
  6
CONTINUOUS
 62
3
 10
5.299844
 20
0.231801
 11
5.290572
 21
0.235616
  0
LINE
  8
L2
  6
CONTINUOUS
 62
3
 10
5.290572
 20
0.235616
 11
5.280029
 21
0.236851
  0
LINE
  8
L2
  6
CONTINUOUS
 62
3
 10
5.527026
 20
0.095249
 11
5.527026
 21
0.210809
  0
LINE
  8
L2
  6
CONTINUOUS
 62
3
 10
5.527026
 20
0.210809
 11
5.528957
 21
0.227027
  0
LINE
  8
L2
  6
CONTINUOUS
 62
3
 10
5.528957
 20
0.227027
 11
5.533867
 21
0.242064
  0
LINE
  8
L2
  6
CONTINUOUS
 62
3
 10
5.533867
 20
0.242064
 11
5.540638
 21
0.254916
  0
LINE
  8
L2
  6
CONTINUOUS
 62
3
 10
5.540638
 20
0.254916
 11
5.548405
 21
0.265436
  0
LINE
  8
L2
  6
CONTINUOUS
 62
3
 10
5.548405
 20
0.265436
 11
5.556531
 21
0.273833
  0
LINE
  8
L2
  6
CONTINUOUS
 62
3
 10
5.556531
 20
0.273833
 11
5.573366
 21
0.286250
  0
LINE
  8
L2
  6
CONTINUOUS
 62
3
 10
5.573366
 20
0.286250
 11
5.587688
 21
0.293388
  0
LINE
  8
L2
  6
CONTINUOUS
 62
3
 10
5.587688
 20
0.293388
 11
5.610456
 21
0.300312
  0
LINE
  8
L2
  6
CONTINUOUS
 62
3
 10
5.610456
 20
0.300312
 11
5.621665
 21
0.302035
  0
LINE
  8
L2
  6
CONTINUOUS
 62
3
 10
5.621665
 20
0.302035
 11
5.632169
 21
0.302606
  0
LINE
  8
L2
  6
CONTINUOUS
 62
3
 10
5.632169
 20
0.302606
 11
5.651228
 21
0.301042
  0
LINE
  8
L2
  6
CONTINUOUS
 62
3
 10
5.651228
 20
0.301042
 11
5.669117
 21
0.297082
  0
LINE
  8
L2
  6
CONTINUOUS
 62
3
 10
5.669117
 20
0.297082
 11
5.684499
 21
0.291633
  0
LINE
  8
L2
  6
CONTINUOUS
 62
3
 10
5.684499
 20
0.291633
 11
5.697137
 21
0.285391
  0
LINE
  8
L2
  6
CONTINUOUS
 62
3
 10
5.697137
 20
0.285391
 11
5.707255
 21
0.278868
  0
LINE
  8
L2
  6
CONTINUOUS
 62
3
 10
5.707255
 20
0.278868
 11
5.722283
 21
0.265363
  0
LINE
  8
L2
  6
CONTINUOUS
 62
3
 10
5.722283
 20
0.265363
 11
5.730978
 21
0.253889
  0
LINE
  8
L2
  6
CONTINUOUS
 62
3
 10
5.730978
 20
0.253889
 11
5.735931
 21
0.244837
  0
LINE
  8
L2
  6
CONTINUOUS
 62
3
 10
5.735931
 20
0.244837
 11
5.740744
 21
0.231181
  0
LINE
  8
L2
  6
CONTINUOUS
 62
3
 10
5.740744
 20
0.231181
 11
5.742358
 21
0.218459
  0
LINE
  8
L2
  6
CONTINUOUS
 62
3
 10
5.742358
 20
0.218459
 11
5.742358
 21
0.095249
  0
LINE
  8
L2
  6
CONTINUOUS
 62
3
 10
5.742358
 20
0.095249
 11
5.741020
 21
0.081618
  0
LINE
  8
L2
  6
CONTINUOUS
 62
3
 10
5.741020
 20
0.081618
 11
5.734617
 21
0.058902
  0
LINE
  8
L2
  6
CONTINUOUS
 62
3
 10
5.734617
 20
0.058902
 11
5.729800
 21
0.048586
  0
LINE
  8
L2
  6
CONTINUOUS
 62
3
 10
5.729800
 20
0.048586
 11
5.724129
 21
0.040236
  0
LINE
  8
L2
  6
CONTINUOUS
 62
3
 10
5.724129
 20
0.040236
 11
5.727404
 21
0.034224
  0
LINE
  8
L2
  6
CONTINUOUS
 62
3
 10
5.727404
 20
0.034224
 11
5.733920
 21
0.027686
  0
LINE
  8
L2
  6
CONTINUOUS
 62
3
 10
5.733920
 20
0.027686
 11
5.742358
 21
0.024123
  0
LINE
  8
L2
  6
CONTINUOUS
 62
3
 10
5.742358
 20
0.024123
 11
5.713712
 21
-0.028123
  0
LINE
  8
L2
  6
CONTINUOUS
 62
3
 10
5.713712
 20
-0.028123
 11
5.705689
 21
-0.026026
  0
LINE
  8
L2
  6
CONTINUOUS
 62
3
 10
5.705689
 20
-0.026026
 11
5.688596
 21
-0.019427
  0
LINE
  8
L2
  6
CONTINUOUS
 62
3
 10
5.688596
 20
-0.019427
 11
5.675328
 21
-0.012737
  0
LINE
  8
L2
  6
CONTINUOUS
 62
3
 10
5.675328
 20
-0.012737
 11
5.658259
 21
-0.001570
  0
LINE
  8
L2
  6
CONTINUOUS
 62
3
 10
5.658259
 20
-0.001570
 11
5.652114
 21
0.003790
  0
LINE
  8
L2
  6
CONTINUOUS
 62
3
 10
5.652114
 20
0.003790
 11
5.648120
 21
0.008498
  0
LINE
  8
L2
  6
CONTINUOUS
 62
3
 10
5.648120
 20
0.008498
 11
5.642016
 21
0.008254
  0
LINE
  8
L2
  6
CONTINUOUS
 62
3
 10
5.642016
 20
0.008254
 11
5.633797
 21
0.008172
  0
LINE
  8
L2
  6
CONTINUOUS
 62
3
 10
5.633797
 20
0.008172
 11
5.613357
 21
0.010234
  0
LINE
  8
L2
  6
CONTINUOUS
 62
3
 10
5.613357
 20
0.010234
 11
5.594814
 21
0.015193
  0
LINE
  8
L2
  6
CONTINUOUS
 62
3
 10
5.594814
 20
0.015193
 11
5.579365
 21
0.021693
  0
LINE
  8
L2
  6
CONTINUOUS
 62
3
 10
5.579365
 20
0.021693
 11
5.567045
 21
0.028842
  0
LINE
  8
L2
  6
CONTINUOUS
 62
3
 10
5.567045
 20
0.028842
 11
5.557457
 21
0.036064
  0
LINE
  8
L2
  6
CONTINUOUS
 62
3
 10
5.557457
 20
0.036064
 11
5.543762
 21
0.050396
  0
LINE
  8
L2
  6
CONTINUOUS
 62
3
 10
5.543762
 20
0.050396
 11
5.536218
 21
0.062046
  0
LINE
  8
L2
  6
CONTINUOUS
 62
3
 10
5.536218
 20
0.062046
 11
5.529227
 21
0.079650
  0
LINE
  8
L2
  6
CONTINUOUS
 62
3
 10
5.529227
 20
0.079650
 11
5.527563
 21
0.087877
  0
LINE
  8
L2
  6
CONTINUOUS
 62
3
 10
5.527563
 20
0.087877
 11
5.527026
 21
0.095249
  0
LINE
  8
L2
  6
CONTINUOUS
 62
3
 10
5.616381
 20
0.213113
 11
5.616381
 21
0.100430
  0
LINE
  8
L2
  6
CONTINUOUS
 62
3
 10
5.616381
 20
0.100430
 11
5.617289
 21
0.090796
  0
LINE
  8
L2
  6
CONTINUOUS
 62
3
 10
5.617289
 20
0.090796
 11
5.619546
 21
0.083635
  0
LINE
  8
L2
  6
CONTINUOUS
 62
3
 10
5.619546
 20
0.083635
 11
5.625808
 21
0.075009
  0
LINE
  8
L2
  6
CONTINUOUS
 62
3
 10
5.625808
 20
0.075009
 11
5.630056
 21
0.072428
  0
LINE
  8
L2
  6
CONTINUOUS
 62
3
 10
5.630056
 20
0.072428
 11
5.634773
 21
0.071486
  0
LINE
  8
L2
  6
CONTINUOUS
 62
3
 10
5.634773
 20
0.071486
 11
5.641866
 21
0.073607
  0
LINE
  8
L2
  6
CONTINUOUS
 62
3
 10
5.641866
 20
0.073607
 11
5.645790
 21
0.077744
  0
LINE
  8
L2
  6
CONTINUOUS
 62
3
 10
5.645790
 20
0.077744
 11
5.649508
 21
0.087406
  0
LINE
  8
L2
  6
CONTINUOUS
 62
3
 10
5.649508
 20
0.087406
 11
5.650724
 21
0.100430
  0
LINE
  8
L2
  6
CONTINUOUS
 62
3
 10
5.650724
 20
0.100430
 11
5.650724
 21
0.213113
  0
LINE
  8
L2
  6
CONTINUOUS
 62
3
 10
5.650724
 20
0.213113
 11
5.649289
 21
0.223652
  0
LINE
  8
L2
  6
CONTINUOUS
 62
3
 10
5.649289
 20
0.223652
 11
5.646541
 21
0.230108
  0
LINE
  8
L2
  6
CONTINUOUS
 62
3
 10
5.646541
 20
0.230108
 11
5.640287
 21
0.236852
  0
LINE
  8
L2
  6
CONTINUOUS
 62
3
 10
5.640287
 20
0.236852
 11
5.632169
 21
0.239292
  0
LINE
  8
L2
  6
CONTINUOUS
 62
3
 10
5.632169
 20
0.239292
 11
5.625262
 21
0.237656
  0
LINE
  8
L2
  6
CONTINUOUS
 62
3
 10
5.625262
 20
0.237656
 11
5.621377
 21
0.234281
  0
LINE
  8
L2
  6
CONTINUOUS
 62
3
 10
5.621377
 20
0.234281
 11
5.617630
 21
0.225768
  0
LINE
  8
L2
  6
CONTINUOUS
 62
3
 10
5.617630
 20
0.225768
 11
5.616381
 21
0.213113
  0
LINE
  8
L2
  6
CONTINUOUS
 62
3
 10
5.870776
 20
0.299839
 11
6.002218
 21
0.299839
  0
LINE
  8
L2
  6
CONTINUOUS
 62
3
 10
6.002218
 20
0.299839
 11
6.016532
 21
0.298516
  0
LINE
  8
L2
  6
CONTINUOUS
 62
3
 10
6.016532
 20
0.298516
 11
6.030100
 21
0.295246
  0
LINE
  8
L2
  6
CONTINUOUS
 62
3
 10
6.030100
 20
0.295246
 11
6.042235
 21
0.290833
  0
LINE
  8
L2
  6
CONTINUOUS
 62
3
 10
6.042235
 20
0.290833
 11
6.062708
 21
0.279787
  0
LINE
  8
L2
  6
CONTINUOUS
 62
3
 10
6.062708
 20
0.279787
 11
6.076242
 21
0.268869
  0
LINE
  8
L2
  6
CONTINUOUS
 62
3
 10
6.076242
 20
0.268869
 11
6.084707
 21
0.259278
  0
LINE
  8
L2
  6
CONTINUOUS
 62
3
 10
6.084707
 20
0.259278
 11
6.089828
 21
0.251331
  0
LINE
  8
L2
  6
CONTINUOUS
 62
3
 10
6.089828
 20
0.251331
 11
6.095116
 21
0.238247
  0
LINE
  8
L2
  6
CONTINUOUS
 62
3
 10
6.095116
 20
0.238247
 11
6.097010
 21
0.223830
  0
LINE
  8
L2
  6
CONTINUOUS
 62
3
 10
6.097010
 20
0.223830
 11
6.096037
 21
0.212226
  0
LINE
  8
L2
  6
CONTINUOUS
 62
3
 10
6.096037
 20
0.212226
 11
6.090154
 21
0.192108
  0
LINE
  8
L2
  6
CONTINUOUS
 62
3
 10
6.090154
 20
0.192108
 11
6.082964
 21
0.178772
  0
LINE
  8
L2
  6
CONTINUOUS
 62
3
 10
6.082964
 20
0.178772
 11
6.076471
 21
0.170393
  0
LINE
  8
L2
  6
CONTINUOUS
 62
3
 10
6.076471
 20
0.170393
 11
6.065756
 21
0.160964
  0
LINE
  8
L2
  6
CONTINUOUS
 62
3
 10
6.065756
 20
0.160964
 11
6.054988
 21
0.155471
  0
LINE
  8
L2
  6
CONTINUOUS
 62
3
 10
6.054988
 20
0.155471
 11
6.063193
 21
0.153277
  0
LINE
  8
L2
  6
CONTINUOUS
 62
3
 10
6.063193
 20
0.153277
 11
6.075823
 21
0.145779
  0
LINE
  8
L2
  6
CONTINUOUS
 62
3
 10
6.075823
 20
0.145779
 11
6.083084
 21
0.137483
  0
LINE
  8
L2
  6
CONTINUOUS
 62
3
 10
6.083084
 20
0.137483
 11
6.087054
 21
0.130038
  0
LINE
  8
L2
  6
CONTINUOUS
 62
3
 10
6.087054
 20
0.130038
 11
6.090609
 21
0.117430
  0
LINE
  8
L2
  6
CONTINUOUS
 62
3
 10
6.090609
 20
0.117430
 11
6.091634
 21
0.103876
  0
LINE
  8
L2
  6
CONTINUOUS
 62
3
 10
6.091634
 20
0.103876
 11
6.091634
 21
0.089878
  0
LINE
  8
L2
  6
CONTINUOUS
 62
3
 10
6.091634
 20
0.089878
 11
6.092278
 21
0.081895
  0
LINE
  8
L2
  6
CONTINUOUS
 62
3
 10
6.092278
 20
0.081895
 11
6.095682
 21
0.070832
  0
LINE
  8
L2
  6
CONTINUOUS
 62
3
 10
6.095682
 20
0.070832
 11
6.098496
 21
0.066616
  0
LINE
  8
L2
  6
CONTINUOUS
 62
3
 10
6.098496
 20
0.066616
 11
6.102058
 21
0.063836
  0
LINE
  8
L2
  6
CONTINUOUS
 62
3
 10
6.102058
 20
0.063836
 11
6.102058
 21
0.013869
  0
LINE
  8
L2
  6
CONTINUOUS
 62
3
 10
6.102058
 20
0.013869
 11
6.010035
 21
0.013869
  0
LINE
  8
L2
  6
CONTINUOUS
 62
3
 10
6.010035
 20
0.013869
 11
6.007763
 21
0.021435
  0
LINE
  8
L2
  6
CONTINUOUS
 62
3
 10
6.007763
 20
0.021435
 11
6.004365
 21
0.038328
  0
LINE
  8
L2
  6
CONTINUOUS
 62
3
 10
6.004365
 20
0.038328
 11
6.000863
 21
0.068933
  0
LINE
  8
L2
  6
CONTINUOUS
 62
3
 10
6.000863
 20
0.068933
 11
5.999611
 21
0.100458
  0
LINE
  8
L2
  6
CONTINUOUS
 62
3
 10
5.999611
 20
0.100458
 11
5.997102
 21
0.110093
  0
LINE
  8
L2
  6
CONTINUOUS
 62
3
 10
5.997102
 20
0.110093
 11
5.992476
 21
0.116101
  0
LINE
  8
L2
  6
CONTINUOUS
 62
3
 10
5.992476
 20
0.116101
 11
5.982578
 21
0.122922
  0
LINE
  8
L2
  6
CONTINUOUS
 62
3
 10
5.982578
 20
0.122922
 11
5.970945
 21
0.126825
  0
LINE
  8
L2
  6
CONTINUOUS
 62
3
 10
5.970945
 20
0.126825
 11
5.970945
 21
0.092482
  0
LINE
  8
L2
  6
CONTINUOUS
 62
3
 10
5.970945
 20
0.092482
 11
5.973571
 21
0.074436
  0
LINE
  8
L2
  6
CONTINUOUS
 62
3
 10
5.973571
 20
0.074436
 11
5.976785
 21
0.067420
  0
LINE
  8
L2
  6
CONTINUOUS
 62
3
 10
5.976785
 20
0.067420
 11
5.981206
 21
0.063836
  0
LINE
  8
L2
  6
CONTINUOUS
 62
3
 10
5.981206
 20
0.063836
 11
5.981206
 21
0.013869
  0
LINE
  8
L2
  6
CONTINUOUS
 62
3
 10
5.981206
 20
0.013869
 11
5.870776
 21
0.013869
  0
LINE
  8
L2
  6
CONTINUOUS
 62
3
 10
5.870776
 20
0.013869
 11
5.870776
 21
0.063836
  0
LINE
  8
L2
  6
CONTINUOUS
 62
3
 10
5.870776
 20
0.063836
 11
5.875651
 21
0.069569
  0
LINE
  8
L2
  6
CONTINUOUS
 62
3
 10
5.875651
 20
0.069569
 11
5.880283
 21
0.082822
  0
LINE
  8
L2
  6
CONTINUOUS
 62
3
 10
5.880283
 20
0.082822
 11
5.881526
 21
0.097853
  0
LINE
  8
L2
  6
CONTINUOUS
 62
3
 10
5.881526
 20
0.097853
 11
5.881526
 21
0.215855
  0
LINE
  8
L2
  6
CONTINUOUS
 62
3
 10
5.881526
 20
0.215855
 11
5.880640
 21
0.226947
  0
LINE
  8
L2
  6
CONTINUOUS
 62
3
 10
5.880640
 20
0.226947
 11
5.878924
 21
0.234076
  0
LINE
  8
L2
  6
CONTINUOUS
 62
3
 10
5.878924
 20
0.234076
 11
5.875132
 21
0.241540
  0
LINE
  8
L2
  6
CONTINUOUS
 62
3
 10
5.875132
 20
0.241540
 11
5.870776
 21
0.244826
  0
LINE
  8
L2
  6
CONTINUOUS
 62
3
 10
5.870776
 20
0.244826
 11
5.870776
 21
0.299839
  0
LINE
  8
L2
  6
CONTINUOUS
 62
3
 10
5.970945
 20
0.239455
 11
5.970945
 21
0.181838
  0
LINE
  8
L2
  6
CONTINUOUS
 62
3
 10
5.970945
 20
0.181838
 11
5.982843
 21
0.183427
  0
LINE
  8
L2
  6
CONTINUOUS
 62
3
 10
5.982843
 20
0.183427
 11
5.991389
 21
0.187177
  0
LINE
  8
L2
  6
CONTINUOUS
 62
3
 10
5.991389
 20
0.187177
 11
5.996895
 21
0.191548
  0
LINE
  8
L2
  6
CONTINUOUS
 62
3
 10
5.996895
 20
0.191548
 11
6.002812
 21
0.200316
  0
LINE
  8
L2
  6
CONTINUOUS
 62
3
 10
6.002812
 20
0.200316
 11
6.004985
 21
0.210809
  0
LINE
  8
L2
  6
CONTINUOUS
 62
3
 10
6.004985
 20
0.210809
 11
6.004250
 21
0.217087
  0
LINE
  8
L2
  6
CONTINUOUS
 62
3
 10
6.004250
 20
0.217087
 11
6.000006
 21
0.226444
  0
LINE
  8
L2
  6
CONTINUOUS
 62
3
 10
6.000006
 20
0.226444
 11
5.994699
 21
0.231955
  0
LINE
  8
L2
  6
CONTINUOUS
 62
3
 10
5.994699
 20
0.231955
 11
5.984020
 21
0.237512
  0
LINE
  8
L2
  6
CONTINUOUS
 62
3
 10
5.984020
 20
0.237512
 11
5.970945
 21
0.239455
  0
LINE
  8
L2
  6
CONTINUOUS
 62
3
 10
6.238614
 20
0.116245
 11
6.327970
 21
0.116245
  0
LINE
  8
L2
  6
CONTINUOUS
 62
3
 10
6.327970
 20
0.116245
 11
6.327970
 21
0.097853
  0
LINE
  8
L2
  6
CONTINUOUS
 62
3
 10
6.327970
 20
0.097853
 11
6.329696
 21
0.088450
  0
LINE
  8
L2
  6
CONTINUOUS
 62
3
 10
6.329696
 20
0.088450
 11
6.333061
 21
0.082395
  0
LINE
  8
L2
  6
CONTINUOUS
 62
3
 10
6.333061
 20
0.082395
 11
6.340510
 21
0.076254
  0
LINE
  8
L2
  6
CONTINUOUS
 62
3
 10
6.340510
 20
0.076254
 11
6.348966
 21
0.074253
  0
LINE
  8
L2
  6
CONTINUOUS
 62
3
 10
6.348966
 20
0.074253
 11
6.354708
 21
0.077340
  0
LINE
  8
L2
  6
CONTINUOUS
 62
3
 10
6.354708
 20
0.077340
 11
6.357912
 21
0.081607
  0
LINE
  8
L2
  6
CONTINUOUS
 62
3
 10
6.357912
 20
0.081607
 11
6.360975
 21
0.090248
  0
LINE
  8
L2
  6
CONTINUOUS
 62
3
 10
6.360975
 20
0.090248
 11
6.361987
 21
0.100458
  0
LINE
  8
L2
  6
CONTINUOUS
 62
3
 10
6.361987
 20
0.100458
 11
6.359637
 21
0.107052
  0
LINE
  8
L2
  6
CONTINUOUS
 62
3
 10
6.359637
 20
0.107052
 11
6.354309
 21
0.112895
  0
LINE
  8
L2
  6
CONTINUOUS
 62
3
 10
6.354309
 20
0.112895
 11
6.347578
 21
0.117790
  0
LINE
  8
L2
  6
CONTINUOUS
 62
3
 10
6.347578
 20
0.117790
 11
6.331932
 21
0.125624
  0
LINE
  8
L2
  6
CONTINUOUS
 62
3
 10
6.331932
 20
0.125624
 11
6.302906
 21
0.135600
  0
LINE
  8
L2
  6
CONTINUOUS
 62
3
 10
6.302906
 20
0.135600
 11
6.289389
 21
0.139659
  0
LINE
  8
L2
  6
CONTINUOUS
 62
3
 10
6.289389
 20
0.139659
 11
6.284137
 21
0.141318
  0
LINE
  8
L2
  6
CONTINUOUS
 62
3
 10
6.284137
 20
0.141318
 11
6.280607
 21
0.142612
  0
LINE
  8
L2
  6
CONTINUOUS
 62
3
 10
6.280607
 20
0.142612
 11
6.271329
 21
0.147822
  0
LINE
  8
L2
  6
CONTINUOUS
 62
3
 10
6.271329
 20
0.147822
 11
6.263510
 21
0.154500
  0
LINE
  8
L2
  6
CONTINUOUS
 62
3
 10
6.263510
 20
0.154500
 11
6.251499
 21
0.169728
  0
LINE
  8
L2
  6
CONTINUOUS
 62
3
 10
6.251499
 20
0.169728
 11
6.244502
 21
0.182976
  0
LINE
  8
L2
  6
CONTINUOUS
 62
3
 10
6.244502
 20
0.182976
 11
6.237880
 21
0.203388
  0
LINE
  8
L2
  6
CONTINUOUS
 62
3
 10
6.237880
 20
0.203388
 11
6.236331
 21
0.212865
  0
LINE
  8
L2
  6
CONTINUOUS
 62
3
 10
6.236331
 20
0.212865
 11
6.235847
 21
0.221226
  0
LINE
  8
L2
  6
CONTINUOUS
 62
3
 10
6.235847
 20
0.221226
 11
6.237489
 21
0.233770
  0
LINE
  8
L2
  6
CONTINUOUS
 62
3
 10
6.237489
 20
0.233770
 11
6.241809
 21
0.246171
  0
LINE
  8
L2
  6
CONTINUOUS
 62
3
 10
6.241809
 20
0.246171
 11
6.247966
 21
0.257224
  0
LINE
  8
L2
  6
CONTINUOUS
 62
3
 10
6.247966
 20
0.257224
 11
6.255231
 21
0.266570
  0
LINE
  8
L2
  6
CONTINUOUS
 62
3
 10
6.255231
 20
0.266570
 11
6.263010
 21
0.274235
  0
LINE
  8
L2
  6
CONTINUOUS
 62
3
 10
6.263010
 20
0.274235
 11
6.279589
 21
0.285967
  0
LINE
  8
L2
  6
CONTINUOUS
 62
3
 10
6.279589
 20
0.285967
 11
6.294093
 21
0.292991
  0
LINE
  8
L2
  6
CONTINUOUS
 62
3
 10
6.294093
 20
0.292991
 11
6.317777
 21
0.300115
  0
LINE
  8
L2
  6
CONTINUOUS
 62
3
 10
6.317777
 20
0.300115
 11
6.329688
 21
0.301973
  0
LINE
  8
L2
  6
CONTINUOUS
 62
3
 10
6.329688
 20
0.301973
 11
6.340991
 21
0.302606
  0
LINE
  8
L2
  6
CONTINUOUS
 62
3
 10
6.340991
 20
0.302606
 11
6.352743
 21
0.301925
  0
LINE
  8
L2
  6
CONTINUOUS
 62
3
 10
6.352743
 20
0.301925
 11
6.377549
 21
0.297783
  0
LINE
  8
L2
  6
CONTINUOUS
 62
3
 10
6.377549
 20
0.297783
 11
6.397213
 21
0.292723
  0
LINE
  8
L2
  6
CONTINUOUS
 62
3
 10
6.397213
 20
0.292723
 11
6.411321
 21
0.288185
  0
LINE
  8
L2
  6
CONTINUOUS
 62
3
 10
6.411321
 20
0.288185
 11
6.429853
 21
0.280838
  0
LINE
  8
L2
  6
CONTINUOUS
 62
3
 10
6.429853
 20
0.280838
 11
6.437405
 21
0.277206
  0
LINE
  8
L2
  6
CONTINUOUS
 62
3
 10
6.437405
 20
0.277206
 11
6.443530
 21
0.273797
  0
LINE
  8
L2
  6
CONTINUOUS
 62
3
 10
6.443530
 20
0.273797
 11
6.443530
 21
0.205601
  0
LINE
  8
L2
  6
CONTINUOUS
 62
3
 10
6.443530
 20
0.205601
 11
6.359545
 21
0.205601
  0
LINE
  8
L2
  6
CONTINUOUS
 62
3
 10
6.359545
 20
0.205601
 11
6.360034
 21
0.210606
  0
LINE
  8
L2
  6
CONTINUOUS
 62
3
 10
6.360034
 20
0.210606
 11
6.360196
 21
0.217157
  0
LINE
  8
L2
  6
CONTINUOUS
 62
3
 10
6.360196
 20
0.217157
 11
6.359179
 21
0.227980
  0
LINE
  8
L2
  6
CONTINUOUS
 62
3
 10
6.359179
 20
0.227980
 11
6.357081
 21
0.234069
  0
LINE
  8
L2
  6
CONTINUOUS
 62
3
 10
6.357081
 20
0.234069
 11
6.351788
 21
0.239939
  0
LINE
  8
L2
  6
CONTINUOUS
 62
3
 10
6.351788
 20
0.239939
 11
6.343920
 21
0.241896
  0
LINE
  8
L2
  6
CONTINUOUS
 62
3
 10
6.343920
 20
0.241896
 11
6.339231
 21
0.240691
  0
LINE
  8
L2
  6
CONTINUOUS
 62
3
 10
6.339231
 20
0.240691
 11
6.331987
 21
0.235650
  0
LINE
  8
L2
  6
CONTINUOUS
 62
3
 10
6.331987
 20
0.235650
 11
6.327970
 21
0.229201
  0
LINE
  8
L2
  6
CONTINUOUS
 62
3
 10
6.327970
 20
0.229201
 11
6.329800
 21
0.221914
  0
LINE
  8
L2
  6
CONTINUOUS
 62
3
 10
6.329800
 20
0.221914
 11
6.334021
 21
0.215428
  0
LINE
  8
L2
  6
CONTINUOUS
 62
3
 10
6.334021
 20
0.215428
 11
6.345762
 21
0.205252
  0
LINE
  8
L2
  6
CONTINUOUS
 62
3
 10
6.345762
 20
0.205252
 11
6.356854
 21
0.199250
  0
LINE
  8
L2
  6
CONTINUOUS
 62
3
 10
6.356854
 20
0.199250
 11
6.374241
 21
0.193123
  0
LINE
  8
L2
  6
CONTINUOUS
 62
3
 10
6.374241
 20
0.193123
 11
6.381990
 21
0.191185
  0
LINE
  8
L2
  6
CONTINUOUS
 62
3
 10
6.381990
 20
0.191185
 11
6.388191
 21
0.189813
  0
LINE
  8
L2
  6
CONTINUOUS
 62
3
 10
6.388191
 20
0.189813
 11
6.401040
 21
0.185154
  0
LINE
  8
L2
  6
CONTINUOUS
 62
3
 10
6.401040
 20
0.185154
 11
6.411849
 21
0.178832
  0
LINE
  8
L2
  6
CONTINUOUS
 62
3
 10
6.411849
 20
0.178832
 11
6.429037
 21
0.163910
  0
LINE
  8
L2
  6
CONTINUOUS
 62
3
 10
6.429037
 20
0.163910
 11
6.439828
 21
0.150527
  0
LINE
  8
L2
  6
CONTINUOUS
 62
3
 10
6.439828
 20
0.150527
 11
6.446371
 21
0.139838
  0
LINE
  8
L2
  6
CONTINUOUS
 62
3
 10
6.446371
 20
0.139838
 11
6.453144
 21
0.123620
  0
LINE
  8
L2
  6
CONTINUOUS
 62
3
 10
6.453144
 20
0.123620
 11
6.455574
 21
0.108270
  0
LINE
  8
L2
  6
CONTINUOUS
 62
3
 10
6.455574
 20
0.108270
 11
6.453824
 21
0.087925
  0
LINE
  8
L2
  6
CONTINUOUS
 62
3
 10
6.453824
 20
0.087925
 11
6.448575
 21
0.066278
  0
LINE
  8
L2
  6
CONTINUOUS
 62
3
 10
6.448575
 20
0.066278
 11
6.442563
 21
0.054267
  0
LINE
  8
L2
  6
CONTINUOUS
 62
3
 10
6.442563
 20
0.054267
 11
6.433869
 21
0.043961
  0
LINE
  8
L2
  6
CONTINUOUS
 62
3
 10
6.433869
 20
0.043961
 11
6.424250
 21
0.035688
  0
LINE
  8
L2
  6
CONTINUOUS
 62
3
 10
6.424250
 20
0.035688
 11
6.404350
 21
0.023776
  0
LINE
  8
L2
  6
CONTINUOUS
 62
3
 10
6.404350
 20
0.023776
 11
6.387986
 21
0.017298
  0
LINE
  8
L2
  6
CONTINUOUS
 62
3
 10
6.387986
 20
0.017298
 11
6.362904
 21
0.011291
  0
LINE
  8
L2
  6
CONTINUOUS
 62
3
 10
6.362904
 20
0.011291
 11
6.338549
 21
0.008498
  0
LINE
  8
L2
  6
CONTINUOUS
 62
3
 10
6.338549
 20
0.008498
 11
6.335026
 21
0.008664
  0
LINE
  8
L2
  6
CONTINUOUS
 62
3
 10
6.335026
 20
0.008664
 11
6.325077
 21
0.009885
  0
LINE
  8
L2
  6
CONTINUOUS
 62
3
 10
6.325077
 20
0.009885
 11
6.313717
 21
0.011929
  0
LINE
  8
L2
  6
CONTINUOUS
 62
3
 10
6.313717
 20
0.011929
 11
6.290670
 21
0.017589
  0
LINE
  8
L2
  6
CONTINUOUS
 62
3
 10
6.290670
 20
0.017589
 11
6.273071
 21
0.023318
  0
LINE
  8
L2
  6
CONTINUOUS
 62
3
 10
6.273071
 20
0.023318
 11
6.260965
 21
0.028197
  0
LINE
  8
L2
  6
CONTINUOUS
 62
3
 10
6.260965
 20
0.028197
 11
6.253028
 21
0.032023
  0
LINE
  8
L2
  6
CONTINUOUS
 62
3
 10
6.253028
 20
0.032023
 11
6.243747
 21
0.037715
  0
LINE
  8
L2
  6
CONTINUOUS
 62
3
 10
6.243747
 20
0.037715
 11
6.238614
 21
0.042840
  0
LINE
  8
L2
  6
CONTINUOUS
 62
3
 10
6.238614
 20
0.042840
 11
6.238614
 21
0.116245
  0
LINE
  8
L2
  6
CONTINUOUS
 62
3
 10
6.580249
 20
0.299839
 11
6.826831
 21
0.299839
  0
LINE
  8
L2
  6
CONTINUOUS
 62
3
 10
6.826831
 20
0.299839
 11
6.826831
 21
0.171258
  0
LINE
  8
L2
  6
CONTINUOUS
 62
3
 10
6.826831
 20
0.171258
 11
6.761238
 21
0.171258
  0
LINE
  8
L2
  6
CONTINUOUS
 62
3
 10
6.761238
 20
0.171258
 11
6.761238
 21
0.221226
  0
LINE
  8
L2
  6
CONTINUOUS
 62
3
 10
6.761238
 20
0.221226
 11
6.760396
 21
0.225979
  0
LINE
  8
L2
  6
CONTINUOUS
 62
3
 10
6.760396
 20
0.225979
 11
6.756096
 21
0.232780
  0
LINE
  8
L2
  6
CONTINUOUS
 62
3
 10
6.756096
 20
0.232780
 11
6.748380
 21
0.236851
  0
LINE
  8
L2
  6
CONTINUOUS
 62
3
 10
6.748380
 20
0.236851
 11
6.748380
 21
0.095249
  0
LINE
  8
L2
  6
CONTINUOUS
 62
3
 10
6.748380
 20
0.095249
 11
6.749021
 21
0.083856
  0
LINE
  8
L2
  6
CONTINUOUS
 62
3
 10
6.749021
 20
0.083856
 11
6.750343
 21
0.077127
  0
LINE
  8
L2
  6
CONTINUOUS
 62
3
 10
6.750343
 20
0.077127
 11
6.753677
 21
0.069951
  0
LINE
  8
L2
  6
CONTINUOUS
 62
3
 10
6.753677
 20
0.069951
 11
6.758634
 21
0.066278
  0
LINE
  8
L2
  6
CONTINUOUS
 62
3
 10
6.758634
 20
0.066278
 11
6.758634
 21
0.013869
  0
LINE
  8
L2
  6
CONTINUOUS
 62
3
 10
6.758634
 20
0.013869
 11
6.648445
 21
0.013869
  0
LINE
  8
L2
  6
CONTINUOUS
 62
3
 10
6.648445
 20
0.013869
 11
6.648445
 21
0.063836
  0
LINE
  8
L2
  6
CONTINUOUS
 62
3
 10
6.648445
 20
0.063836
 11
6.650622
 21
0.065205
  0
LINE
  8
L2
  6
CONTINUOUS
 62
3
 10
6.650622
 20
0.065205
 11
6.653966
 21
0.071060
  0
LINE
  8
L2
  6
CONTINUOUS
 62
3
 10
6.653966
 20
0.071060
 11
6.657540
 21
0.084489
  0
LINE
  8
L2
  6
CONTINUOUS
 62
3
 10
6.657540
 20
0.084489
 11
6.658862
 21
0.097853
  0
LINE
  8
L2
  6
CONTINUOUS
 62
3
 10
6.658862
 20
0.097853
 11
6.658862
 21
0.236851
  0
LINE
  8
L2
  6
CONTINUOUS
 62
3
 10
6.658862
 20
0.236851
 11
6.653188
 21
0.235190
  0
LINE
  8
L2
  6
CONTINUOUS
 62
3
 10
6.653188
 20
0.235190
 11
6.649983
 21
0.232156
  0
LINE
  8
L2
  6
CONTINUOUS
 62
3
 10
6.649983
 20
0.232156
 11
6.646880
 21
0.225765
  0
LINE
  8
L2
  6
CONTINUOUS
 62
3
 10
6.646880
 20
0.225765
 11
6.645841
 21
0.218459
  0
LINE
  8
L2
  6
CONTINUOUS
 62
3
 10
6.645841
 20
0.218459
 11
6.645841
 21
0.171258
  0
LINE
  8
L2
  6
CONTINUOUS
 62
3
 10
6.645841
 20
0.171258
 11
6.580249
 21
0.171258
  0
LINE
  8
L2
  6
CONTINUOUS
 62
3
 10
6.580249
 20
0.171258
 11
6.580249
 21
0.299839
  0
LINE
  8
L2
  6
CONTINUOUS
 62
3
 10
6.952482
 20
0.299839
 11
7.062912
 21
0.299839
  0
LINE
  8
L2
  6
CONTINUOUS
 62
3
 10
7.062912
 20
0.299839
 11
7.062912
 21
0.247593
  0
LINE
  8
L2
  6
CONTINUOUS
 62
3
 10
7.062912
 20
0.247593
 11
7.058491
 21
0.243069
  0
LINE
  8
L2
  6
CONTINUOUS
 62
3
 10
7.058491
 20
0.243069
 11
7.055965
 21
0.237575
  0
LINE
  8
L2
  6
CONTINUOUS
 62
3
 10
7.055965
 20
0.237575
 11
7.053490
 21
0.227209
  0
LINE
  8
L2
  6
CONTINUOUS
 62
3
 10
7.053490
 20
0.227209
 11
7.052650
 21
0.215855
  0
LINE
  8
L2
  6
CONTINUOUS
 62
3
 10
7.052650
 20
0.215855
 11
7.052650
 21
0.105829
  0
LINE
  8
L2
  6
CONTINUOUS
 62
3
 10
7.052650
 20
0.105829
 11
7.053509
 21
0.093106
  0
LINE
  8
L2
  6
CONTINUOUS
 62
3
 10
7.053509
 20
0.093106
 11
7.055696
 21
0.084612
  0
LINE
  8
L2
  6
CONTINUOUS
 62
3
 10
7.055696
 20
0.084612
 11
7.058368
 21
0.079292
  0
LINE
  8
L2
  6
CONTINUOUS
 62
3
 10
7.058368
 20
0.079292
 11
7.063972
 21
0.073633
  0
LINE
  8
L2
  6
CONTINUOUS
 62
3
 10
7.063972
 20
0.073633
 11
7.071055
 21
0.071486
  0
LINE
  8
L2
  6
CONTINUOUS
 62
3
 10
7.071055
 20
0.071486
 11
7.074673
 21
0.072161
  0
LINE
  8
L2
  6
CONTINUOUS
 62
3
 10
7.074673
 20
0.072161
 11
7.079885
 21
0.076327
  0
LINE
  8
L2
  6
CONTINUOUS
 62
3
 10
7.079885
 20
0.076327
 11
7.082843
 21
0.081623
  0
LINE
  8
L2
  6
CONTINUOUS
 62
3
 10
7.082843
 20
0.081623
 11
7.085721
 21
0.092417
  0
LINE
  8
L2
  6
CONTINUOUS
 62
3
 10
7.085721
 20
0.092417
 11
7.086690
 21
0.105829
  0
LINE
  8
L2
  6
CONTINUOUS
 62
3
 10
7.086690
 20
0.105829
 11
7.086690
 21
0.213251
  0
LINE
  8
L2
  6
CONTINUOUS
 62
3
 10
7.086690
 20
0.213251
 11
7.086069
 21
0.226330
  0
LINE
  8
L2
  6
CONTINUOUS
 62
3
 10
7.086069
 20
0.226330
 11
7.084765
 21
0.234391
  0
LINE
  8
L2
  6
CONTINUOUS
 62
3
 10
7.084765
 20
0.234391
 11
7.081400
 21
0.243226
  0
LINE
  8
L2
  6
CONTINUOUS
 62
3
 10
7.081400
 20
0.243226
 11
7.076266
 21
0.247593
  0
LINE
  8
L2
  6
CONTINUOUS
 62
3
 10
7.076266
 20
0.247593
 11
7.076266
 21
0.299839
  0
LINE
  8
L2
  6
CONTINUOUS
 62
3
 10
7.076266
 20
0.299839
 11
7.183764
 21
0.299839
  0
LINE
  8
L2
  6
CONTINUOUS
 62
3
 10
7.183764
 20
0.299839
 11
7.183764
 21
0.247593
  0
LINE
  8
L2
  6
CONTINUOUS
 62
3
 10
7.183764
 20
0.247593
 11
7.178086
 21
0.241172
  0
LINE
  8
L2
  6
CONTINUOUS
 62
3
 10
7.178086
 20
0.241172
 11
7.174693
 21
0.233788
  0
LINE
  8
L2
  6
CONTINUOUS
 62
3
 10
7.174693
 20
0.233788
 11
7.171583
 21
0.220869
  0
LINE
  8
L2
  6
CONTINUOUS
 62
3
 10
7.171583
 20
0.220869
 11
7.170733
 21
0.208205
  0
LINE
  8
L2
  6
CONTINUOUS
 62
3
 10
7.170733
 20
0.208205
 11
7.170733
 21
0.100458
  0
LINE
  8
L2
  6
CONTINUOUS
 62
3
 10
7.170733
 20
0.100458
 11
7.168824
 21
0.084268
  0
LINE
  8
L2
  6
CONTINUOUS
 62
3
 10
7.168824
 20
0.084268
 11
7.164162
 21
0.070026
  0
LINE
  8
L2
  6
CONTINUOUS
 62
3
 10
7.164162
 20
0.070026
 11
7.157943
 21
0.057886
  0
LINE
  8
L2
  6
CONTINUOUS
 62
3
 10
7.157943
 20
0.057886
 11
7.150963
 21
0.047763
  0
LINE
  8
L2
  6
CONTINUOUS
 62
3
 10
7.150963
 20
0.047763
 11
7.135553
 21
0.031813
  0
LINE
  8
L2
  6
CONTINUOUS
 62
3
 10
7.135553
 20
0.031813
 11
7.121550
 21
0.021883
  0
LINE
  8
L2
  6
CONTINUOUS
 62
3
 10
7.121550
 20
0.021883
 11
7.109796
 21
0.015895
  0
LINE
  8
L2
  6
CONTINUOUS
 62
3
 10
7.109796
 20
0.015895
 11
7.090343
 21
0.009725
  0
LINE
  8
L2
  6
CONTINUOUS
 62
3
 10
7.090343
 20
0.009725
 11
7.068937
 21
0.007521
  0
LINE
  8
L2
  6
CONTINUOUS
 62
3
 10
7.068937
 20
0.007521
 11
7.053107
 21
0.008758
  0
LINE
  8
L2
  6
CONTINUOUS
 62
3
 10
7.053107
 20
0.008758
 11
7.037408
 21
0.012200
  0
LINE
  8
L2
  6
CONTINUOUS
 62
3
 10
7.037408
 20
0.012200
 11
7.023287
 21
0.017316
  0
LINE
  8
L2
  6
CONTINUOUS
 62
3
 10
7.023287
 20
0.017316
 11
7.011223
 21
0.023528
  0
LINE
  8
L2
  6
CONTINUOUS
 62
3
 10
7.011223
 20
0.023528
 11
7.001229
 21
0.030319
  0
LINE
  8
L2
  6
CONTINUOUS
 62
3
 10
7.001229
 20
0.030319
 11
6.985735
 21
0.045131
  0
LINE
  8
L2
  6
CONTINUOUS
 62
3
 10
6.985735
 20
0.045131
 11
6.976324
 21
0.058383
  0
LINE
  8
L2
  6
CONTINUOUS
 62
3
 10
6.976324
 20
0.058383
 11
6.970768
 21
0.069237
  0
LINE
  8
L2
  6
CONTINUOUS
 62
3
 10
6.970768
 20
0.069237
 11
6.965176
 21
0.086321
  0
LINE
  8
L2
  6
CONTINUOUS
 62
3
 10
6.965176
 20
0.086321
 11
6.963231
 21
0.103224
  0
LINE
  8
L2
  6
CONTINUOUS
 62
3
 10
6.963231
 20
0.103224
 11
6.963231
 21
0.213251
  0
LINE
  8
L2
  6
CONTINUOUS
 62
3
 10
6.963231
 20
0.213251
 11
6.962537
 21
0.224888
  0
LINE
  8
L2
  6
CONTINUOUS
 62
3
 10
6.962537
 20
0.224888
 11
6.961121
 21
0.232611
  0
LINE
  8
L2
  6
CONTINUOUS
 62
3
 10
6.961121
 20
0.232611
 11
6.957607
 21
0.241903
  0
LINE
  8
L2
  6
CONTINUOUS
 62
3
 10
6.957607
 20
0.241903
 11
6.952482
 21
0.247593
  0
LINE
  8
L2
  6
CONTINUOUS
 62
3
 10
6.952482
 20
0.247593
 11
6.952482
 21
0.299839
  0
LINE
  8
L2
  6
CONTINUOUS
 62
3
 10
7.301765
 20
0.299839
 11
7.414637
 21
0.299839
  0
LINE
  8
L2
  6
CONTINUOUS
 62
3
 10
7.414637
 20
0.299839
 11
7.414637
 21
0.247593
  0
LINE
  8
L2
  6
CONTINUOUS
 62
3
 10
7.414637
 20
0.247593
 11
7.406819
 21
0.237543
  0
LINE
  8
L2
  6
CONTINUOUS
 62
3
 10
7.406819
 20
0.237543
 11
7.404213
 21
0.228224
  0
LINE
  8
L2
  6
CONTINUOUS
 62
3
 10
7.404213
 20
0.228224
 11
7.404386
 21
0.226434
  0
LINE
  8
L2
  6
CONTINUOUS
 62
3
 10
7.404386
 20
0.226434
 11
7.405295
 21
0.221307
  0
LINE
  8
L2
  6
CONTINUOUS
 62
3
 10
7.405295
 20
0.221307
 11
7.406982
 21
0.213251
  0
LINE
  8
L2
  6
CONTINUOUS
 62
3
 10
7.406982
 20
0.213251
 11
7.425224
 21
0.103224
  0
LINE
  8
L2
  6
CONTINUOUS
 62
3
 10
7.425224
 20
0.103224
 11
7.440859
 21
0.213251
  0
LINE
  8
L2
  6
CONTINUOUS
 62
3
 10
7.440859
 20
0.213251
 11
7.441122
 21
0.215237
  0
LINE
  8
L2
  6
CONTINUOUS
 62
3
 10
7.441122
 20
0.215237
 11
7.442978
 21
0.227573
  0
LINE
  8
L2
  6
CONTINUOUS
 62
3
 10
7.442978
 20
0.227573
 11
7.442367
 21
0.233891
  0
LINE
  8
L2
  6
CONTINUOUS
 62
3
 10
7.442367
 20
0.233891
 11
7.439160
 21
0.241726
  0
LINE
  8
L2
  6
CONTINUOUS
 62
3
 10
7.439160
 20
0.241726
 11
7.433205
 21
0.247593
  0
LINE
  8
L2
  6
CONTINUOUS
 62
3
 10
7.433205
 20
0.247593
 11
7.433205
 21
0.299839
  0
LINE
  8
L2
  6
CONTINUOUS
 62
3
 10
7.433205
 20
0.299839
 11
7.533048
 21
0.299839
  0
LINE
  8
L2
  6
CONTINUOUS
 62
3
 10
7.533048
 20
0.299839
 11
7.533048
 21
0.247593
  0
LINE
  8
L2
  6
CONTINUOUS
 62
3
 10
7.533048
 20
0.247593
 11
7.529015
 21
0.242016
  0
LINE
  8
L2
  6
CONTINUOUS
 62
3
 10
7.529015
 20
0.242016
 11
7.523503
 21
0.229631
  0
LINE
  8
L2
  6
CONTINUOUS
 62
3
 10
7.523503
 20
0.229631
 11
7.519691
 21
0.215855
  0
LINE
  8
L2
  6
CONTINUOUS
 62
3
 10
7.519691
 20
0.215855
 11
7.480275
 21
0.013869
  0
LINE
  8
L2
  6
CONTINUOUS
 62
3
 10
7.480275
 20
0.013869
 11
7.356817
 21
0.013869
  0
LINE
  8
L2
  6
CONTINUOUS
 62
3
 10
7.356817
 20
0.013869
 11
7.316424
 21
0.216506
  0
LINE
  8
L2
  6
CONTINUOUS
 62
3
 10
7.316424
 20
0.216506
 11
7.313996
 21
0.226261
  0
LINE
  8
L2
  6
CONTINUOUS
 62
3
 10
7.313996
 20
0.226261
 11
7.308723
 21
0.238300
  0
LINE
  8
L2
  6
CONTINUOUS
 62
3
 10
7.308723
 20
0.238300
 11
7.301765
 21
0.247593
  0
LINE
  8
L2
  6
CONTINUOUS
 62
3
 10
7.301765
 20
0.247593
 11
7.301765
 21
0.299839
  0
LINE
  8
L2
  6
CONTINUOUS
 62
3
 10
7.645841
 20
0.299839
 11
7.756193
 21
0.299839
  0
LINE
  8
L2
  6
CONTINUOUS
 62
3
 10
7.756193
 20
0.299839
 11
7.756193
 21
0.250197
  0
LINE
  8
L2
  6
CONTINUOUS
 62
3
 10
7.756193
 20
0.250197
 11
7.752276
 21
0.247298
  0
LINE
  8
L2
  6
CONTINUOUS
 62
3
 10
7.752276
 20
0.247298
 11
7.748500
 21
0.240317
  0
LINE
  8
L2
  6
CONTINUOUS
 62
3
 10
7.748500
 20
0.240317
 11
7.747241
 21
0.230178
  0
LINE
  8
L2
  6
CONTINUOUS
 62
3
 10
7.747241
 20
0.230178
 11
7.747485
 21
0.225051
  0
LINE
  8
L2
  6
CONTINUOUS
 62
3
 10
7.747485
 20
0.225051
 11
7.748217
 21
0.218459
  0
LINE
  8
L2
  6
CONTINUOUS
 62
3
 10
7.748217
 20
0.218459
 11
7.758634
 21
0.147821
  0
LINE
  8
L2
  6
CONTINUOUS
 62
3
 10
7.758634
 20
0.147821
 11
7.787605
 21
0.299839
  0
LINE
  8
L2
  6
CONTINUOUS
 62
3
 10
7.787605
 20
0.299839
 11
7.842618
 21
0.299839
  0
LINE
  8
L2
  6
CONTINUOUS
 62
3
 10
7.842618
 20
0.299839
 11
7.874194
 21
0.147821
  0
LINE
  8
L2
  6
CONTINUOUS
 62
3
 10
7.874194
 20
0.147821
 11
7.884610
 21
0.223830
  0
LINE
  8
L2
  6
CONTINUOUS
 62
3
 10
7.884610
 20
0.223830
 11
7.883944
 21
0.231864
  0
LINE
  8
L2
  6
CONTINUOUS
 62
3
 10
7.883944
 20
0.231864
 11
7.880494
 21
0.243099
  0
LINE
  8
L2
  6
CONTINUOUS
 62
3
 10
7.880494
 20
0.243099
 11
7.877694
 21
0.247387
  0
LINE
  8
L2
  6
CONTINUOUS
 62
3
 10
7.877694
 20
0.247387
 11
7.874194
 21
0.250197
  0
LINE
  8
L2
  6
CONTINUOUS
 62
3
 10
7.874194
 20
0.250197
 11
7.874194
 21
0.299839
  0
LINE
  8
L2
  6
CONTINUOUS
 62
3
 10
7.874194
 20
0.299839
 11
7.971199
 21
0.299839
  0
LINE
  8
L2
  6
CONTINUOUS
 62
3
 10
7.971199
 20
0.299839
 11
7.971199
 21
0.250197
  0
LINE
  8
L2
  6
CONTINUOUS
 62
3
 10
7.971199
 20
0.250197
 11
7.967494
 21
0.244717
  0
LINE
  8
L2
  6
CONTINUOUS
 62
3
 10
7.967494
 20
0.244717
 11
7.962398
 21
0.231856
  0
LINE
  8
L2
  6
CONTINUOUS
 62
3
 10
7.962398
 20
0.231856
 11
7.958178
 21
0.215855
  0
LINE
  8
L2
  6
CONTINUOUS
 62
3
 10
7.958178
 20
0.215855
 11
7.918953
 21
0.013869
  0
LINE
  8
L2
  6
CONTINUOUS
 62
3
 10
7.918953
 20
0.013869
 11
7.832202
 21
0.013869
  0
LINE
  8
L2
  6
CONTINUOUS
 62
3
 10
7.832202
 20
0.013869
 11
7.808601
 21
0.150262
  0
LINE
  8
L2
  6
CONTINUOUS
 62
3
 10
7.808601
 20
0.150262
 11
7.782234
 21
0.013869
  0
LINE
  8
L2
  6
CONTINUOUS
 62
3
 10
7.782234
 20
0.013869
 11
7.695646
 21
0.013869
  0
LINE
  8
L2
  6
CONTINUOUS
 62
3
 10
7.695646
 20
0.013869
 11
7.661629
 21
0.215855
  0
LINE
  8
L2
  6
CONTINUOUS
 62
3
 10
7.661629
 20
0.215855
 11
7.656217
 21
0.232660
  0
LINE
  8
L2
  6
CONTINUOUS
 62
3
 10
7.656217
 20
0.232660
 11
7.645841
 21
0.250197
  0
LINE
  8
L2
  6
CONTINUOUS
 62
3
 10
7.645841
 20
0.250197
 11
7.645841
 21
0.299839
  0
LINE
  8
L2
  6
CONTINUOUS
 62
3
 10
8.094897
 20
0.299839
 11
8.199877
 21
0.299839
  0
LINE
  8
L2
  6
CONTINUOUS
 62
3
 10
8.199877
 20
0.299839
 11
8.199877
 21
0.268589
  0
LINE
  8
L2
  6
CONTINUOUS
 62
3
 10
8.199877
 20
0.268589
 11
8.200691
 21
0.260492
  0
LINE
  8
L2
  6
CONTINUOUS
 62
3
 10
8.200691
 20
0.260492
 11
8.204964
 21
0.246972
  0
LINE
  8
L2
  6
CONTINUOUS
 62
3
 10
8.204964
 20
0.246972
 11
8.212898
 21
0.231805
  0
LINE
  8
L2
  6
CONTINUOUS
 62
3
 10
8.212898
 20
0.231805
 11
8.221972
 21
0.250869
  0
LINE
  8
L2
  6
CONTINUOUS
 62
3
 10
8.221972
 20
0.250869
 11
8.224846
 21
0.260530
  0
LINE
  8
L2
  6
CONTINUOUS
 62
3
 10
8.224846
 20
0.260530
 11
8.225919
 21
0.268589
  0
LINE
  8
L2
  6
CONTINUOUS
 62
3
 10
8.225919
 20
0.268589
 11
8.225919
 21
0.299839
  0
LINE
  8
L2
  6
CONTINUOUS
 62
3
 10
8.225919
 20
0.299839
 11
8.317879
 21
0.299839
  0
LINE
  8
L2
  6
CONTINUOUS
 62
3
 10
8.317879
 20
0.299839
 11
8.317879
 21
0.250197
  0
LINE
  8
L2
  6
CONTINUOUS
 62
3
 10
8.317879
 20
0.250197
 11
8.312141
 21
0.244287
  0
LINE
  8
L2
  6
CONTINUOUS
 62
3
 10
8.312141
 20
0.244287
 11
8.305824
 21
0.237062
  0
LINE
  8
L2
  6
CONTINUOUS
 62
3
 10
8.305824
 20
0.237062
 11
8.302254
 21
0.231805
  0
LINE
  8
L2
  6
CONTINUOUS
 62
3
 10
8.302254
 20
0.231805
 11
8.260262
 21
0.166213
  0
LINE
  8
L2
  6
CONTINUOUS
 62
3
 10
8.260262
 20
0.166213
 11
8.302254
 21
0.087274
  0
LINE
  8
L2
  6
CONTINUOUS
 62
3
 10
8.302254
 20
0.087274
 11
8.310310
 21
0.073195
  0
LINE
  8
L2
  6
CONTINUOUS
 62
3
 10
8.310310
 20
0.073195
 11
8.317879
 21
0.063836
  0
LINE
  8
L2
  6
CONTINUOUS
 62
3
 10
8.317879
 20
0.063836
 11
8.317879
 21
0.013869
  0
LINE
  8
L2
  6
CONTINUOUS
 62
3
 10
8.317879
 20
0.013869
 11
8.210131
 21
0.013869
  0
LINE
  8
L2
  6
CONTINUOUS
 62
3
 10
8.210131
 20
0.013869
 11
8.210131
 21
0.047886
  0
LINE
  8
L2
  6
CONTINUOUS
 62
3
 10
8.210131
 20
0.047886
 11
8.209155
 21
0.059696
  0
LINE
  8
L2
  6
CONTINUOUS
 62
3
 10
8.209155
 20
0.059696
 11
8.204028
 21
0.077450
  0
LINE
  8
L2
  6
CONTINUOUS
 62
3
 10
8.204028
 20
0.077450
 11
8.194506
 21
0.095249
  0
LINE
  8
L2
  6
CONTINUOUS
 62
3
 10
8.194506
 20
0.095249
 11
8.188632
 21
0.083500
  0
LINE
  8
L2
  6
CONTINUOUS
 62
3
 10
8.188632
 20
0.083500
 11
8.181679
 21
0.064217
  0
LINE
  8
L2
  6
CONTINUOUS
 62
3
 10
8.181679
 20
0.064217
 11
8.179626
 21
0.055335
  0
LINE
  8
L2
  6
CONTINUOUS
 62
3
 10
8.179626
 20
0.055335
 11
8.178881
 21
0.047886
  0
LINE
  8
L2
  6
CONTINUOUS
 62
3
 10
8.178881
 20
0.047886
 11
8.178881
 21
0.013869
  0
LINE
  8
L2
  6
CONTINUOUS
 62
3
 10
8.178881
 20
0.013869
 11
8.089526
 21
0.013869
  0
LINE
  8
L2
  6
CONTINUOUS
 62
3
 10
8.089526
 20
0.013869
 11
8.089526
 21
0.063836
  0
LINE
  8
L2
  6
CONTINUOUS
 62
3
 10
8.089526
 20
0.063836
 11
8.095393
 21
0.069820
  0
LINE
  8
L2
  6
CONTINUOUS
 62
3
 10
8.095393
 20
0.069820
 11
8.104580
 21
0.083179
  0
LINE
  8
L2
  6
CONTINUOUS
 62
3
 10
8.104580
 20
0.083179
 11
8.108217
 21
0.089835
  0
LINE
  8
L2
  6
CONTINUOUS
 62
3
 10
8.108217
 20
0.089835
 11
8.110522
 21
0.095249
  0
LINE
  8
L2
  6
CONTINUOUS
 62
3
 10
8.110522
 20
0.095249
 11
8.152514
 21
0.166213
  0
LINE
  8
L2
  6
CONTINUOUS
 62
3
 10
8.152514
 20
0.166213
 11
8.118497
 21
0.218459
  0
LINE
  8
L2
  6
CONTINUOUS
 62
3
 10
8.118497
 20
0.218459
 11
8.113792
 21
0.225807
  0
LINE
  8
L2
  6
CONTINUOUS
 62
3
 10
8.113792
 20
0.225807
 11
8.103353
 21
0.240685
  0
LINE
  8
L2
  6
CONTINUOUS
 62
3
 10
8.103353
 20
0.240685
 11
8.098428
 21
0.246770
  0
LINE
  8
L2
  6
CONTINUOUS
 62
3
 10
8.098428
 20
0.246770
 11
8.094897
 21
0.250197
  0
LINE
  8
L2
  6
CONTINUOUS
 62
3
 10
8.094897
 20
0.250197
 11
8.094897
 21
0.299839
  0
LINE
  8
L2
  6
CONTINUOUS
 62
3
 10
8.436206
 20
0.299839
 11
8.538508
 21
0.299839
  0
LINE
  8
L2
  6
CONTINUOUS
 62
3
 10
8.538508
 20
0.299839
 11
8.538508
 21
0.260614
  0
LINE
  8
L2
  6
CONTINUOUS
 62
3
 10
8.538508
 20
0.260614
 11
8.539736
 21
0.250200
  0
LINE
  8
L2
  6
CONTINUOUS
 62
3
 10
8.539736
 20
0.250200
 11
8.545394
 21
0.231388
  0
LINE
  8
L2
  6
CONTINUOUS
 62
3
 10
8.545394
 20
0.231388
 11
8.554123
 21
0.210809
  0
LINE
  8
L2
  6
CONTINUOUS
 62
3
 10
8.554123
 20
0.210809
 11
8.561025
 21
0.222650
  0
LINE
  8
L2
  6
CONTINUOUS
 62
3
 10
8.561025
 20
0.222650
 11
8.567680
 21
0.241174
  0
LINE
  8
L2
  6
CONTINUOUS
 62
3
 10
8.567680
 20
0.241174
 11
8.569898
 21
0.260614
  0
LINE
  8
L2
  6
CONTINUOUS
 62
3
 10
8.569898
 20
0.260614
 11
8.569898
 21
0.299839
  0
LINE
  8
L2
  6
CONTINUOUS
 62
3
 10
8.569898
 20
0.299839
 11
8.661791
 21
0.299839
  0
LINE
  8
L2
  6
CONTINUOUS
 62
3
 10
8.661791
 20
0.299839
 11
8.661791
 21
0.250197
  0
LINE
  8
L2
  6
CONTINUOUS
 62
3
 10
8.661791
 20
0.250197
 11
8.650204
 21
0.236607
  0
LINE
  8
L2
  6
CONTINUOUS
 62
3
 10
8.650204
 20
0.236607
 11
8.640811
 21
0.221226
  0
LINE
  8
L2
  6
CONTINUOUS
 62
3
 10
8.640811
 20
0.221226
 11
8.593480
 21
0.124221
  0
LINE
  8
L2
  6
CONTINUOUS
 62
3
 10
8.593480
 20
0.124221
 11
8.593480
 21
0.087274
  0
LINE
  8
L2
  6
CONTINUOUS
 62
3
 10
8.593480
 20
0.087274
 11
8.594262
 21
0.080346
  0
LINE
  8
L2
  6
CONTINUOUS
 62
3
 10
8.594262
 20
0.080346
 11
8.598322
 21
0.070117
  0
LINE
  8
L2
  6
CONTINUOUS
 62
3
 10
8.598322
 20
0.070117
 11
8.601244
 21
0.066261
  0
LINE
  8
L2
  6
CONTINUOUS
 62
3
 10
8.601244
 20
0.066261
 11
8.604215
 21
0.063836
  0
LINE
  8
L2
  6
CONTINUOUS
 62
3
 10
8.604215
 20
0.063836
 11
8.604215
 21
0.013869
  0
LINE
  8
L2
  6
CONTINUOUS
 62
3
 10
8.604215
 20
0.013869
 11
8.493945
 21
0.013869
  0
LINE
  8
L2
  6
CONTINUOUS
 62
3
 10
8.493945
 20
0.013869
 11
8.493945
 21
0.063836
  0
LINE
  8
L2
  6
CONTINUOUS
 62
3
 10
8.493945
 20
0.063836
 11
8.498684
 21
0.068483
  0
LINE
  8
L2
  6
CONTINUOUS
 62
3
 10
8.498684
 20
0.068483
 11
8.503101
 21
0.077269
  0
LINE
  8
L2
  6
CONTINUOUS
 62
3
 10
8.503101
 20
0.077269
 11
8.504517
 21
0.087274
  0
LINE
  8
L2
  6
CONTINUOUS
 62
3
 10
8.504517
 20
0.087274
 11
8.504517
 21
0.121616
  0
LINE
  8
L2
  6
CONTINUOUS
 62
3
 10
8.504517
 20
0.121616
 11
8.459951
 21
0.210809
  0
LINE
  8
L2
  6
CONTINUOUS
 62
3
 10
8.459951
 20
0.210809
 11
8.458487
 21
0.213915
  0
LINE
  8
L2
  6
CONTINUOUS
 62
3
 10
8.458487
 20
0.213915
 11
8.453614
 21
0.224292
  0
LINE
  8
L2
  6
CONTINUOUS
 62
3
 10
8.453614
 20
0.224292
 11
8.444141
 21
0.241664
  0
LINE
  8
L2
  6
CONTINUOUS
 62
3
 10
8.444141
 20
0.241664
 11
8.439745
 21
0.247579
  0
LINE
  8
L2
  6
CONTINUOUS
 62
3
 10
8.439745
 20
0.247579
 11
8.436206
 21
0.250197
  0
LINE
  8
L2
  6
CONTINUOUS
 62
3
 10
8.436206
 20
0.250197
 11
8.436206
 21
0.299839
  0
LINE
  8
L2
  6
CONTINUOUS
 62
3
 10
8.790372
 20
0.299839
 11
9.008308
 21
0.299839
  0
LINE
  8
L2
  6
CONTINUOUS
 62
3
 10
9.008308
 20
0.299839
 11
9.008308
 21
0.250197
  0
LINE
  8
L2
  6
CONTINUOUS
 62
3
 10
9.008308
 20
0.250197
 11
8.895353
 21
0.074253
  0
LINE
  8
L2
  6
CONTINUOUS
 62
3
 10
8.895353
 20
0.074253
 11
8.906093
 21
0.074880
  0
LINE
  8
L2
  6
CONTINUOUS
 62
3
 10
8.906093
 20
0.074880
 11
8.914726
 21
0.076494
  0
LINE
  8
L2
  6
CONTINUOUS
 62
3
 10
8.914726
 20
0.076494
 11
8.927388
 21
0.081752
  0
LINE
  8
L2
  6
CONTINUOUS
 62
3
 10
8.927388
 20
0.081752
 11
8.934443
 21
0.087640
  0
LINE
  8
L2
  6
CONTINUOUS
 62
3
 10
8.934443
 20
0.087640
 11
8.938264
 21
0.093033
  0
LINE
  8
L2
  6
CONTINUOUS
 62
3
 10
8.938264
 20
0.093033
 11
8.941701
 21
0.102406
  0
LINE
  8
L2
  6
CONTINUOUS
 62
3
 10
8.941701
 20
0.102406
 11
8.942716
 21
0.112827
  0
LINE
  8
L2
  6
CONTINUOUS
 62
3
 10
8.942716
 20
0.112827
 11
8.942716
 21
0.134474
  0
LINE
  8
L2
  6
CONTINUOUS
 62
3
 10
8.942716
 20
0.134474
 11
9.011075
 21
0.134474
  0
LINE
  8
L2
  6
CONTINUOUS
 62
3
 10
9.011075
 20
0.134474
 11
9.011075
 21
0.013869
  0
LINE
  8
L2
  6
CONTINUOUS
 62
3
 10
9.011075
 20
0.013869
 11
8.790372
 21
0.013869
  0
LINE
  8
L2
  6
CONTINUOUS
 62
3
 10
8.790372
 20
0.013869
 11
8.790372
 21
0.066278
  0
LINE
  8
L2
  6
CONTINUOUS
 62
3
 10
8.790372
 20
0.066278
 11
8.897957
 21
0.239455
  0
LINE
  8
L2
  6
CONTINUOUS
 62
3
 10
8.897957
 20
0.239455
 11
8.880639
 21
0.237689
  0
LINE
  8
L2
  6
CONTINUOUS
 62
3
 10
8.880639
 20
0.237689
 11
8.869613
 21
0.233315
  0
LINE
  8
L2
  6
CONTINUOUS
 62
3
 10
8.869613
 20
0.233315
 11
8.863255
 21
0.227959
  0
LINE
  8
L2
  6
CONTINUOUS
 62
3
 10
8.863255
 20
0.227959
 11
8.859707
 21
0.222788
  0
LINE
  8
L2
  6
CONTINUOUS
 62
3
 10
8.859707
 20
0.222788
 11
8.856375
 21
0.213540
  0
LINE
  8
L2
  6
CONTINUOUS
 62
3
 10
8.856375
 20
0.213540
 11
8.855314
 21
0.203485
  0
LINE
  8
L2
  6
CONTINUOUS
 62
3
 10
8.855314
 20
0.203485
 11
8.855476
 21
0.197300
  0
LINE
  8
L2
  6
CONTINUOUS
 62
3
 10
8.855476
 20
0.197300
 11
8.855965
 21
0.187209
  0
LINE
  8
L2
  6
CONTINUOUS
 62
3
 10
8.855965
 20
0.187209
 11
8.790372
 21
0.187209
  0
LINE
  8
L2
  6
CONTINUOUS
 62
3
 10
8.790372
 20
0.187209
 11
8.790372
 21
0.299839
  0
LINE
  8
L2
  6
CONTINUOUS
 62
3
 10
0.021492
 20
-0.197166
 11
0.021492
 21
-0.249738
  0
LINE
  8
L2
  6
CONTINUOUS
 62
3
 10
0.021492
 20
-0.249738
 11
0.095222
 21
-0.249738
  0
LINE
  8
L2
  6
CONTINUOUS
 62
3
 10
0.095222
 20
-0.249738
 11
0.096654
 21
-0.239306
  0
LINE
  8
L2
  6
CONTINUOUS
 62
3
 10
0.096654
 20
-0.239306
 11
0.099391
 21
-0.232141
  0
LINE
  8
L2
  6
CONTINUOUS
 62
3
 10
0.099391
 20
-0.232141
 11
0.105599
 21
-0.223965
  0
LINE
  8
L2
  6
CONTINUOUS
 62
3
 10
0.105599
 20
-0.223965
 11
0.109431
 21
-0.221610
  0
LINE
  8
L2
  6
CONTINUOUS
 62
3
 10
0.109431
 20
-0.221610
 11
0.113614
 21
-0.220766
  0
LINE
  8
L2
  6
CONTINUOUS
 62
3
 10
0.113614
 20
-0.220766
 11
0.117945
 21
-0.223012
  0
LINE
  8
L2
  6
CONTINUOUS
 62
3
 10
0.117945
 20
-0.223012
 11
0.122520
 21
-0.229876
  0
LINE
  8
L2
  6
CONTINUOUS
 62
3
 10
0.122520
 20
-0.229876
 11
0.124194
 21
-0.238507
  0
LINE
  8
L2
  6
CONTINUOUS
 62
3
 10
0.124194
 20
-0.238507
 11
0.123868
 21
-0.249738
  0
LINE
  8
L2
  6
CONTINUOUS
 62
3
 10
0.123868
 20
-0.249738
 11
0.066251
 21
-0.268130
  0
LINE
  8
L2
  6
CONTINUOUS
 62
3
 10
0.066251
 20
-0.268130
 11
0.058852
 21
-0.270596
  0
LINE
  8
L2
  6
CONTINUOUS
 62
3
 10
0.058852
 20
-0.270596
 11
0.051153
 21
-0.274561
  0
LINE
  8
L2
  6
CONTINUOUS
 62
3
 10
0.051153
 20
-0.274561
 11
0.036819
 21
-0.284993
  0
LINE
  8
L2
  6
CONTINUOUS
 62
3
 10
0.036819
 20
-0.284993
 11
0.026817
 21
-0.295066
  0
LINE
  8
L2
  6
CONTINUOUS
 62
3
 10
0.026817
 20
-0.295066
 11
0.020462
 21
-0.303415
  0
LINE
  8
L2
  6
CONTINUOUS
 62
3
 10
0.020462
 20
-0.303415
 11
0.013700
 21
-0.316350
  0
LINE
  8
L2
  6
CONTINUOUS
 62
3
 10
0.013700
 20
-0.316350
 11
0.011238
 21
-0.328514
  0
LINE
  8
L2
  6
CONTINUOUS
 62
3
 10
0.011238
 20
-0.328514
 11
0.013377
 21
-0.340707
  0
LINE
  8
L2
  6
CONTINUOUS
 62
3
 10
0.013377
 20
-0.340707
 11
0.017407
 21
-0.350890
  0
LINE
  8
L2
  6
CONTINUOUS
 62
3
 10
0.017407
 20
-0.350890
 11
0.028291
 21
-0.366963
  0
LINE
  8
L2
  6
CONTINUOUS
 62
3
 10
0.028291
 20
-0.366963
 11
0.038766
 21
-0.376984
  0
LINE
  8
L2
  6
CONTINUOUS
 62
3
 10
0.038766
 20
-0.376984
 11
0.047426
 21
-0.383034
  0
LINE
  8
L2
  6
CONTINUOUS
 62
3
 10
0.047426
 20
-0.383034
 11
0.060964
 21
-0.389272
  0
LINE
  8
L2
  6
CONTINUOUS
 62
3
 10
0.060964
 20
-0.389272
 11
0.074226
 21
-0.391502
  0
LINE
  8
L2
  6
CONTINUOUS
 62
3
 10
0.074226
 20
-0.391502
 11
0.081793
 21
-0.390888
  0
LINE
  8
L2
  6
CONTINUOUS
 62
3
 10
0.081793
 20
-0.390888
 11
0.096512
 21
-0.387017
  0
LINE
  8
L2
  6
CONTINUOUS
 62
3
 10
0.096512
 20
-0.387017
 11
0.118184
 21
-0.377097
  0
LINE
  8
L2
  6
CONTINUOUS
 62
3
 10
0.118184
 20
-0.377097
 11
0.125950
 21
-0.372591
  0
LINE
  8
L2
  6
CONTINUOUS
 62
3
 10
0.125950
 20
-0.372591
 11
0.128288
 21
-0.371125
  0
LINE
  8
L2
  6
CONTINUOUS
 62
3
 10
0.128288
 20
-0.371125
 11
0.129239
 21
-0.370506
  0
LINE
  8
L2
  6
CONTINUOUS
 62
3
 10
0.129239
 20
-0.370506
 11
0.129239
 21
-0.386131
  0
LINE
  8
L2
  6
CONTINUOUS
 62
3
 10
0.129239
 20
-0.386131
 11
0.215828
 21
-0.386131
  0
LINE
  8
L2
  6
CONTINUOUS
 62
3
 10
0.215828
 20
-0.386131
 11
0.215828
 21
-0.338768
  0
LINE
  8
L2
  6
CONTINUOUS
 62
3
 10
0.215828
 20
-0.338768
 11
0.208494
 21
-0.329765
  0
LINE
  8
L2
  6
CONTINUOUS
 62
3
 10
0.208494
 20
-0.329765
 11
0.206163
 21
-0.323831
  0
LINE
  8
L2
  6
CONTINUOUS
 62
3
 10
0.206163
 20
-0.323831
 11
0.205249
 21
-0.317772
  0
LINE
  8
L2
  6
CONTINUOUS
 62
3
 10
0.205249
 20
-0.317772
 11
0.205249
 21
-0.233787
  0
LINE
  8
L2
  6
CONTINUOUS
 62
3
 10
0.205249
 20
-0.233787
 11
0.202949
 21
-0.222360
  0
LINE
  8
L2
  6
CONTINUOUS
 62
3
 10
0.202949
 20
-0.222360
 11
0.197490
 21
-0.212121
  0
LINE
  8
L2
  6
CONTINUOUS
 62
3
 10
0.197490
 20
-0.212121
 11
0.190467
 21
-0.203444
  0
LINE
  8
L2
  6
CONTINUOUS
 62
3
 10
0.190467
 20
-0.203444
 11
0.174293
 21
-0.189867
  0
LINE
  8
L2
  6
CONTINUOUS
 62
3
 10
0.174293
 20
-0.189867
 11
0.160071
 21
-0.181687
  0
LINE
  8
L2
  6
CONTINUOUS
 62
3
 10
0.160071
 20
-0.181687
 11
0.138004
 21
-0.173527
  0
LINE
  8
L2
  6
CONTINUOUS
 62
3
 10
0.138004
 20
-0.173527
 11
0.127768
 21
-0.171476
  0
LINE
  8
L2
  6
CONTINUOUS
 62
3
 10
0.127768
 20
-0.171476
 11
0.118823
 21
-0.170799
  0
LINE
  8
L2
  6
CONTINUOUS
 62
3
 10
0.118823
 20
-0.170799
 11
0.107558
 21
-0.171338
  0
LINE
  8
L2
  6
CONTINUOUS
 62
3
 10
0.107558
 20
-0.171338
 11
0.084630
 21
-0.174634
  0
LINE
  8
L2
  6
CONTINUOUS
 62
3
 10
0.084630
 20
-0.174634
 11
0.066426
 21
-0.178776
  0
LINE
  8
L2
  6
CONTINUOUS
 62
3
 10
0.066426
 20
-0.178776
 11
0.040839
 21
-0.187083
  0
LINE
  8
L2
  6
CONTINUOUS
 62
3
 10
0.040839
 20
-0.187083
 11
0.030092
 21
-0.191954
  0
LINE
  8
L2
  6
CONTINUOUS
 62
3
 10
0.030092
 20
-0.191954
 11
0.021492
 21
-0.197166
  0
LINE
  8
L2
  6
CONTINUOUS
 62
3
 10
0.123868
 20
-0.323143
 11
0.120387
 21
-0.326451
  0
LINE
  8
L2
  6
CONTINUOUS
 62
3
 10
0.120387
 20
-0.326451
 11
0.111526
 21
-0.331696
  0
LINE
  8
L2
  6
CONTINUOUS
 62
3
 10
0.111526
 20
-0.331696
 11
0.106951
 21
-0.333510
  0
LINE
  8
L2
  6
CONTINUOUS
 62
3
 10
0.106951
 20
-0.333510
 11
0.103198
 21
-0.334210
  0
LINE
  8
L2
  6
CONTINUOUS
 62
3
 10
0.103198
 20
-0.334210
 11
0.098498
 21
-0.333356
  0
LINE
  8
L2
  6
CONTINUOUS
 62
3
 10
0.098498
 20
-0.333356
 11
0.093966
 21
-0.328870
  0
LINE
  8
L2
  6
CONTINUOUS
 62
3
 10
0.093966
 20
-0.328870
 11
0.092456
 21
-0.320539
  0
LINE
  8
L2
  6
CONTINUOUS
 62
3
 10
0.092456
 20
-0.320539
 11
0.093485
 21
-0.316839
  0
LINE
  8
L2
  6
CONTINUOUS
 62
3
 10
0.093485
 20
-0.316839
 11
0.099222
 21
-0.310695
  0
LINE
  8
L2
  6
CONTINUOUS
 62
3
 10
0.099222
 20
-0.310695
 11
0.112470
 21
-0.303265
  0
LINE
  8
L2
  6
CONTINUOUS
 62
3
 10
0.112470
 20
-0.303265
 11
0.118922
 21
-0.300830
  0
LINE
  8
L2
  6
CONTINUOUS
 62
3
 10
0.118922
 20
-0.300830
 11
0.123868
 21
-0.299542
  0
LINE
  8
L2
  6
CONTINUOUS
 62
3
 10
0.123868
 20
-0.299542
 11
0.123868
 21
-0.323143
  0
LINE
  8
L2
  6
CONTINUOUS
 62
3
 10
0.336922
 20
-0.100161
 11
0.336922
 21
-0.149803
  0
LINE
  8
L2
  6
CONTINUOUS
 62
3
 10
0.336922
 20
-0.149803
 11
0.341408
 21
-0.152560
  0
LINE
  8
L2
  6
CONTINUOUS
 62
3
 10
0.341408
 20
-0.152560
 11
0.343931
 21
-0.156002
  0
LINE
  8
L2
  6
CONTINUOUS
 62
3
 10
0.343931
 20
-0.156002
 11
0.346364
 21
-0.163377
  0
LINE
  8
L2
  6
CONTINUOUS
 62
3
 10
0.346364
 20
-0.163377
 11
0.347176
 21
-0.173403
  0
LINE
  8
L2
  6
CONTINUOUS
 62
3
 10
0.347176
 20
-0.173403
 11
0.347176
 21
-0.362531
  0
LINE
  8
L2
  6
CONTINUOUS
 62
3
 10
0.347176
 20
-0.362531
 11
0.357657
 21
-0.368583
  0
LINE
  8
L2
  6
CONTINUOUS
 62
3
 10
0.357657
 20
-0.368583
 11
0.380989
 21
-0.378776
  0
LINE
  8
L2
  6
CONTINUOUS
 62
3
 10
0.380989
 20
-0.378776
 11
0.399835
 21
-0.384761
  0
LINE
  8
L2
  6
CONTINUOUS
 62
3
 10
0.399835
 20
-0.384761
 11
0.413547
 21
-0.387974
  0
LINE
  8
L2
  6
CONTINUOUS
 62
3
 10
0.413547
 20
-0.387974
 11
0.432122
 21
-0.390745
  0
LINE
  8
L2
  6
CONTINUOUS
 62
3
 10
0.432122
 20
-0.390745
 11
0.446948
 21
-0.391502
  0
LINE
  8
L2
  6
CONTINUOUS
 62
3
 10
0.446948
 20
-0.391502
 11
0.459587
 21
-0.390412
  0
LINE
  8
L2
  6
CONTINUOUS
 62
3
 10
0.459587
 20
-0.390412
 11
0.472627
 21
-0.387531
  0
LINE
  8
L2
  6
CONTINUOUS
 62
3
 10
0.472627
 20
-0.387531
 11
0.484552
 21
-0.383413
  0
LINE
  8
L2
  6
CONTINUOUS
 62
3
 10
0.484552
 20
-0.383413
 11
0.504547
 21
-0.372515
  0
LINE
  8
L2
  6
CONTINUOUS
 62
3
 10
0.504547
 20
-0.372515
 11
0.517409
 21
-0.361437
  0
LINE
  8
L2
  6
CONTINUOUS
 62
3
 10
0.517409
 20
-0.361437
 11
0.525228
 21
-0.351798
  0
LINE
  8
L2
  6
CONTINUOUS
 62
3
 10
0.525228
 20
-0.351798
 11
0.533279
 21
-0.336074
  0
LINE
  8
L2
  6
CONTINUOUS
 62
3
 10
0.533279
 20
-0.336074
 11
0.535409
 21
-0.328134
  0
LINE
  8
L2
  6
CONTINUOUS
 62
3
 10
0.535409
 20
-0.328134
 11
0.536140
 21
-0.320539
  0
LINE
  8
L2
  6
CONTINUOUS
 62
3
 10
0.536140
 20
-0.320539
 11
0.536140
 21
-0.233787
  0
LINE
  8
L2
  6
CONTINUOUS
 62
3
 10
0.536140
 20
-0.233787
 11
0.534922
 21
-0.222113
  0
LINE
  8
L2
  6
CONTINUOUS
 62
3
 10
0.534922
 20
-0.222113
 11
0.532030
 21
-0.212332
  0
LINE
  8
L2
  6
CONTINUOUS
 62
3
 10
0.532030
 20
-0.212332
 11
0.523569
 21
-0.196843
  0
LINE
  8
L2
  6
CONTINUOUS
 62
3
 10
0.523569
 20
-0.196843
 11
0.514995
 21
-0.187156
  0
LINE
  8
L2
  6
CONTINUOUS
 62
3
 10
0.514995
 20
-0.187156
 11
0.507655
 21
-0.181297
  0
LINE
  8
L2
  6
CONTINUOUS
 62
3
 10
0.507655
 20
-0.181297
 11
0.495697
 21
-0.175245
  0
LINE
  8
L2
  6
CONTINUOUS
 62
3
 10
0.495697
 20
-0.175245
 11
0.483243
 21
-0.173078
  0
LINE
  8
L2
  6
CONTINUOUS
 62
3
 10
0.483243
 20
-0.173078
 11
0.475919
 21
-0.173403
  0
LINE
  8
L2
  6
CONTINUOUS
 62
3
 10
0.475919
 20
-0.173403
 11
0.463254
 21
-0.174075
  0
LINE
  8
L2
  6
CONTINUOUS
 62
3
 10
0.463254
 20
-0.174075
 11
0.445287
 21
-0.177599
  0
LINE
  8
L2
  6
CONTINUOUS
 62
3
 10
0.445287
 20
-0.177599
 11
0.428556
 21
-0.184145
  0
LINE
  8
L2
  6
CONTINUOUS
 62
3
 10
0.428556
 20
-0.184145
 11
0.428556
 21
-0.100161
  0
LINE
  8
L2
  6
CONTINUOUS
 62
3
 10
0.428556
 20
-0.100161
 11
0.336922
 21
-0.100161
  0
LINE
  8
L2
  6
CONTINUOUS
 62
3
 10
0.428556
 20
-0.270734
 11
0.428556
 21
-0.236391
  0
LINE
  8
L2
  6
CONTINUOUS
 62
3
 10
0.428556
 20
-0.236391
 11
0.437426
 21
-0.232973
  0
LINE
  8
L2
  6
CONTINUOUS
 62
3
 10
0.437426
 20
-0.232973
 11
0.444181
 21
-0.231834
  0
LINE
  8
L2
  6
CONTINUOUS
 62
3
 10
0.444181
 20
-0.231834
 11
0.450020
 21
-0.233106
  0
LINE
  8
L2
  6
CONTINUOUS
 62
3
 10
0.450020
 20
-0.233106
 11
0.453304
 21
-0.235728
  0
LINE
  8
L2
  6
CONTINUOUS
 62
3
 10
0.453304
 20
-0.235728
 11
0.456471
 21
-0.242344
  0
LINE
  8
L2
  6
CONTINUOUS
 62
3
 10
0.456471
 20
-0.242344
 11
0.457527
 21
-0.252179
  0
LINE
  8
L2
  6
CONTINUOUS
 62
3
 10
0.457527
 20
-0.252179
 11
0.457527
 21
-0.307518
  0
LINE
  8
L2
  6
CONTINUOUS
 62
3
 10
0.457527
 20
-0.307518
 11
0.456342
 21
-0.317782
  0
LINE
  8
L2
  6
CONTINUOUS
 62
3
 10
0.456342
 20
-0.317782
 11
0.454120
 21
-0.324455
  0
LINE
  8
L2
  6
CONTINUOUS
 62
3
 10
0.454120
 20
-0.324455
 11
0.449229
 21
-0.331770
  0
LINE
  8
L2
  6
CONTINUOUS
 62
3
 10
0.449229
 20
-0.331770
 11
0.446307
 21
-0.333814
  0
LINE
  8
L2
  6
CONTINUOUS
 62
3
 10
0.446307
 20
-0.333814
 11
0.443204
 21
-0.334536
  0
LINE
  8
L2
  6
CONTINUOUS
 62
3
 10
0.443204
 20
-0.334536
 11
0.437182
 21
-0.333681
  0
LINE
  8
L2
  6
CONTINUOUS
 62
3
 10
0.437182
 20
-0.333681
 11
0.428556
 21
-0.331118
  0
LINE
  8
L2
  6
CONTINUOUS
 62
3
 10
0.428556
 20
-0.331118
 11
0.428556
 21
-0.270734
  0
LINE
  8
L2
  6
CONTINUOUS
 62
3
 10
0.670255
 20
-0.320539
 11
0.672386
 21
-0.334628
  0
LINE
  8
L2
  6
CONTINUOUS
 62
3
 10
0.672386
 20
-0.334628
 11
0.677467
 21
-0.346999
  0
LINE
  8
L2
  6
CONTINUOUS
 62
3
 10
0.677467
 20
-0.346999
 11
0.684031
 21
-0.357115
  0
LINE
  8
L2
  6
CONTINUOUS
 62
3
 10
0.684031
 20
-0.357115
 11
0.691133
 21
-0.365081
  0
LINE
  8
L2
  6
CONTINUOUS
 62
3
 10
0.691133
 20
-0.365081
 11
0.705868
 21
-0.376524
  0
LINE
  8
L2
  6
CONTINUOUS
 62
3
 10
0.705868
 20
-0.376524
 11
0.718136
 21
-0.382847
  0
LINE
  8
L2
  6
CONTINUOUS
 62
3
 10
0.718136
 20
-0.382847
 11
0.736963
 21
-0.388868
  0
LINE
  8
L2
  6
CONTINUOUS
 62
3
 10
0.736963
 20
-0.388868
 11
0.754239
 21
-0.391502
  0
LINE
  8
L2
  6
CONTINUOUS
 62
3
 10
0.754239
 20
-0.391502
 11
0.758430
 21
-0.391746
  0
LINE
  8
L2
  6
CONTINUOUS
 62
3
 10
0.758430
 20
-0.391746
 11
0.764493
 21
-0.391828
  0
LINE
  8
L2
  6
CONTINUOUS
 62
3
 10
0.764493
 20
-0.391828
 11
0.773008
 21
-0.391287
  0
LINE
  8
L2
  6
CONTINUOUS
 62
3
 10
0.773008
 20
-0.391287
 11
0.782651
 21
-0.389912
  0
LINE
  8
L2
  6
CONTINUOUS
 62
3
 10
0.782651
 20
-0.389912
 11
0.802268
 21
-0.385478
  0
LINE
  8
L2
  6
CONTINUOUS
 62
3
 10
0.802268
 20
-0.385478
 11
0.817565
 21
-0.380598
  0
LINE
  8
L2
  6
CONTINUOUS
 62
3
 10
0.817565
 20
-0.380598
 11
0.838183
 21
-0.371565
  0
LINE
  8
L2
  6
CONTINUOUS
 62
3
 10
0.838183
 20
-0.371565
 11
0.846123
 21
-0.366847
  0
LINE
  8
L2
  6
CONTINUOUS
 62
3
 10
0.846123
 20
-0.366847
 11
0.851570
 21
-0.362531
  0
LINE
  8
L2
  6
CONTINUOUS
 62
3
 10
0.851570
 20
-0.362531
 11
0.851570
 21
-0.296776
  0
LINE
  8
L2
  6
CONTINUOUS
 62
3
 10
0.851570
 20
-0.296776
 11
0.777840
 21
-0.296776
  0
LINE
  8
L2
  6
CONTINUOUS
 62
3
 10
0.777840
 20
-0.296776
 11
0.777840
 21
-0.315167
  0
LINE
  8
L2
  6
CONTINUOUS
 62
3
 10
0.777840
 20
-0.315167
 11
0.776680
 21
-0.324849
  0
LINE
  8
L2
  6
CONTINUOUS
 62
3
 10
0.776680
 20
-0.324849
 11
0.774428
 21
-0.331367
  0
LINE
  8
L2
  6
CONTINUOUS
 62
3
 10
0.774428
 20
-0.331367
 11
0.769200
 21
-0.338699
  0
LINE
  8
L2
  6
CONTINUOUS
 62
3
 10
0.769200
 20
-0.338699
 11
0.765895
 21
-0.340789
  0
LINE
  8
L2
  6
CONTINUOUS
 62
3
 10
0.765895
 20
-0.340789
 11
0.762215
 21
-0.341535
  0
LINE
  8
L2
  6
CONTINUOUS
 62
3
 10
0.762215
 20
-0.341535
 11
0.756541
 21
-0.339007
  0
LINE
  8
L2
  6
CONTINUOUS
 62
3
 10
0.756541
 20
-0.339007
 11
0.753150
 21
-0.334322
  0
LINE
  8
L2
  6
CONTINUOUS
 62
3
 10
0.753150
 20
-0.334322
 11
0.750042
 21
-0.324300
  0
LINE
  8
L2
  6
CONTINUOUS
 62
3
 10
0.750042
 20
-0.324300
 11
0.749194
 21
-0.312726
  0
LINE
  8
L2
  6
CONTINUOUS
 62
3
 10
0.749194
 20
-0.312726
 11
0.749194
 21
-0.247134
  0
LINE
  8
L2
  6
CONTINUOUS
 62
3
 10
0.749194
 20
-0.247134
 11
0.750356
 21
-0.237383
  0
LINE
  8
L2
  6
CONTINUOUS
 62
3
 10
0.750356
 20
-0.237383
 11
0.752619
 21
-0.230867
  0
LINE
  8
L2
  6
CONTINUOUS
 62
3
 10
0.752619
 20
-0.230867
 11
0.757894
 21
-0.223574
  0
LINE
  8
L2
  6
CONTINUOUS
 62
3
 10
0.757894
 20
-0.223574
 11
0.761242
 21
-0.221504
  0
LINE
  8
L2
  6
CONTINUOUS
 62
3
 10
0.761242
 20
-0.221504
 11
0.764982
 21
-0.220766
  0
LINE
  8
L2
  6
CONTINUOUS
 62
3
 10
0.764982
 20
-0.220766
 11
0.770561
 21
-0.222559
  0
LINE
  8
L2
  6
CONTINUOUS
 62
3
 10
0.770561
 20
-0.222559
 11
0.773726
 21
-0.225889
  0
LINE
  8
L2
  6
CONTINUOUS
 62
3
 10
0.773726
 20
-0.225889
 11
0.776804
 21
-0.233103
  0
LINE
  8
L2
  6
CONTINUOUS
 62
3
 10
0.776804
 20
-0.233103
 11
0.777840
 21
-0.241763
  0
LINE
  8
L2
  6
CONTINUOUS
 62
3
 10
0.777840
 20
-0.241763
 11
0.777840
 21
-0.254783
  0
LINE
  8
L2
  6
CONTINUOUS
 62
3
 10
0.777840
 20
-0.254783
 11
0.851570
 21
-0.254783
  0
LINE
  8
L2
  6
CONTINUOUS
 62
3
 10
0.851570
 20
-0.254783
 11
0.851570
 21
-0.199770
  0
LINE
  8
L2
  6
CONTINUOUS
 62
3
 10
0.851570
 20
-0.199770
 11
0.845078
 21
-0.193591
  0
LINE
  8
L2
  6
CONTINUOUS
 62
3
 10
0.845078
 20
-0.193591
 11
0.830276
 21
-0.184759
  0
LINE
  8
L2
  6
CONTINUOUS
 62
3
 10
0.830276
 20
-0.184759
 11
0.816303
 21
-0.179791
  0
LINE
  8
L2
  6
CONTINUOUS
 62
3
 10
0.816303
 20
-0.179791
 11
0.804207
 21
-0.176996
  0
LINE
  8
L2
  6
CONTINUOUS
 62
3
 10
0.804207
 20
-0.176996
 11
0.783467
 21
-0.174301
  0
LINE
  8
L2
  6
CONTINUOUS
 62
3
 10
0.783467
 20
-0.174301
 11
0.759610
 21
-0.173403
  0
LINE
  8
L2
  6
CONTINUOUS
 62
3
 10
0.759610
 20
-0.173403
 11
0.742073
 21
-0.174846
  0
LINE
  8
L2
  6
CONTINUOUS
 62
3
 10
0.742073
 20
-0.174846
 11
0.726987
 21
-0.178428
  0
LINE
  8
L2
  6
CONTINUOUS
 62
3
 10
0.726987
 20
-0.178428
 11
0.714546
 21
-0.183238
  0
LINE
  8
L2
  6
CONTINUOUS
 62
3
 10
0.714546
 20
-0.183238
 11
0.704554
 21
-0.188628
  0
LINE
  8
L2
  6
CONTINUOUS
 62
3
 10
0.704554
 20
-0.188628
 11
0.689699
 21
-0.200350
  0
LINE
  8
L2
  6
CONTINUOUS
 62
3
 10
0.689699
 20
-0.200350
 11
0.681146
 21
-0.210649
  0
LINE
  8
L2
  6
CONTINUOUS
 62
3
 10
0.681146
 20
-0.210649
 11
0.676328
 21
-0.218948
  0
LINE
  8
L2
  6
CONTINUOUS
 62
3
 10
0.676328
 20
-0.218948
 11
0.671739
 21
-0.231831
  0
LINE
  8
L2
  6
CONTINUOUS
 62
3
 10
0.671739
 20
-0.231831
 11
0.670255
 21
-0.244529
  0
LINE
  8
L2
  6
CONTINUOUS
 62
3
 10
0.670255
 20
-0.244529
 11
0.670255
 21
-0.320539
  0
LINE
  8
L2
  6
CONTINUOUS
 62
3
 10
0.982755
 20
-0.323143
 11
0.982430
 21
-0.330141
  0
LINE
  8
L2
  6
CONTINUOUS
 62
3
 10
0.982430
 20
-0.330141
 11
0.983806
 21
-0.341797
  0
LINE
  8
L2
  6
CONTINUOUS
 62
3
 10
0.983806
 20
-0.341797
 11
0.987044
 21
-0.351620
  0
LINE
  8
L2
  6
CONTINUOUS
 62
3
 10
0.987044
 20
-0.351620
 11
0.996359
 21
-0.367271
  0
LINE
  8
L2
  6
CONTINUOUS
 62
3
 10
0.996359
 20
-0.367271
 11
1.005593
 21
-0.377114
  0
LINE
  8
L2
  6
CONTINUOUS
 62
3
 10
1.005593
 20
-0.377114
 11
1.013335
 21
-0.383089
  0
LINE
  8
L2
  6
CONTINUOUS
 62
3
 10
1.013335
 20
-0.383089
 11
1.025588
 21
-0.389279
  0
LINE
  8
L2
  6
CONTINUOUS
 62
3
 10
1.025588
 20
-0.389279
 11
1.037768
 21
-0.391502
  0
LINE
  8
L2
  6
CONTINUOUS
 62
3
 10
1.037768
 20
-0.391502
 11
1.055753
 21
-0.390668
  0
LINE
  8
L2
  6
CONTINUOUS
 62
3
 10
1.055753
 20
-0.390668
 11
1.067106
 21
-0.388948
  0
LINE
  8
L2
  6
CONTINUOUS
 62
3
 10
1.067106
 20
-0.388948
 11
1.080701
 21
-0.384607
  0
LINE
  8
L2
  6
CONTINUOUS
 62
3
 10
1.080701
 20
-0.384607
 11
1.090177
 21
-0.378156
  0
LINE
  8
L2
  6
CONTINUOUS
 62
3
 10
1.090177
 20
-0.378156
 11
1.090177
 21
-0.386131
  0
LINE
  8
L2
  6
CONTINUOUS
 62
3
 10
1.090177
 20
-0.386131
 11
1.179370
 21
-0.386131
  0
LINE
  8
L2
  6
CONTINUOUS
 62
3
 10
1.179370
 20
-0.386131
 11
1.179370
 21
-0.338768
  0
LINE
  8
L2
  6
CONTINUOUS
 62
3
 10
1.179370
 20
-0.338768
 11
1.174830
 21
-0.333921
  0
LINE
  8
L2
  6
CONTINUOUS
 62
3
 10
1.174830
 20
-0.333921
 11
1.172166
 21
-0.327589
  0
LINE
  8
L2
  6
CONTINUOUS
 62
3
 10
1.172166
 20
-0.327589
 11
1.169758
 21
-0.315453
  0
LINE
  8
L2
  6
CONTINUOUS
 62
3
 10
1.169758
 20
-0.315453
 11
1.169111
 21
-0.302147
  0
LINE
  8
L2
  6
CONTINUOUS
 62
3
 10
1.169111
 20
-0.302147
 11
1.169111
 21
-0.100161
  0
LINE
  8
L2
  6
CONTINUOUS
 62
3
 10
1.169111
 20
-0.100161
 11
1.082484
 21
-0.100161
  0
LINE
  8
L2
  6
CONTINUOUS
 62
3
 10
1.082484
 20
-0.100161
 11
1.082484
 21
-0.149803
  0
LINE
  8
L2
  6
CONTINUOUS
 62
3
 10
1.082484
 20
-0.149803
 11
1.085850
 21
-0.152682
  0
LINE
  8
L2
  6
CONTINUOUS
 62
3
 10
1.085850
 20
-0.152682
 11
1.089095
 21
-0.160776
  0
LINE
  8
L2
  6
CONTINUOUS
 62
3
 10
1.089095
 20
-0.160776
 11
1.090177
 21
-0.173403
  0
LINE
  8
L2
  6
CONTINUOUS
 62
3
 10
1.090177
 20
-0.173403
 11
1.090177
 21
-0.186749
  0
LINE
  8
L2
  6
CONTINUOUS
 62
3
 10
1.090177
 20
-0.186749
 11
1.079257
 21
-0.181231
  0
LINE
  8
L2
  6
CONTINUOUS
 62
3
 10
1.079257
 20
-0.181231
 11
1.061284
 21
-0.175480
  0
LINE
  8
L2
  6
CONTINUOUS
 62
3
 10
1.061284
 20
-0.175480
 11
1.043139
 21
-0.173403
  0
LINE
  8
L2
  6
CONTINUOUS
 62
3
 10
1.043139
 20
-0.173403
 11
1.030731
 21
-0.175035
  0
LINE
  8
L2
  6
CONTINUOUS
 62
3
 10
1.030731
 20
-0.175035
 11
1.020656
 21
-0.178855
  0
LINE
  8
L2
  6
CONTINUOUS
 62
3
 10
1.020656
 20
-0.178855
 11
1.012556
 21
-0.183723
  0
LINE
  8
L2
  6
CONTINUOUS
 62
3
 10
1.012556
 20
-0.183723
 11
1.000289
 21
-0.194888
  0
LINE
  8
L2
  6
CONTINUOUS
 62
3
 10
1.000289
 20
-0.194888
 11
0.992943
 21
-0.204795
  0
LINE
  8
L2
  6
CONTINUOUS
 62
3
 10
0.992943
 20
-0.204795
 11
0.985424
 21
-0.220770
  0
LINE
  8
L2
  6
CONTINUOUS
 62
3
 10
0.985424
 20
-0.220770
 11
0.983437
 21
-0.228743
  0
LINE
  8
L2
  6
CONTINUOUS
 62
3
 10
0.983437
 20
-0.228743
 11
0.982755
 21
-0.236391
  0
LINE
  8
L2
  6
CONTINUOUS
 62
3
 10
0.982755
 20
-0.236391
 11
0.982755
 21
-0.323143
  0
LINE
  8
L2
  6
CONTINUOUS
 62
3
 10
1.090177
 20
-0.328514
 11
1.082893
 21
-0.330467
  0
LINE
  8
L2
  6
CONTINUOUS
 62
3
 10
1.082893
 20
-0.330467
 11
1.077410
 21
-0.331118
  0
LINE
  8
L2
  6
CONTINUOUS
 62
3
 10
1.077410
 20
-0.331118
 11
1.074176
 21
-0.330390
  0
LINE
  8
L2
  6
CONTINUOUS
 62
3
 10
1.074176
 20
-0.330390
 11
1.069056
 21
-0.325975
  0
LINE
  8
L2
  6
CONTINUOUS
 62
3
 10
1.069056
 20
-0.325975
 11
1.065856
 21
-0.320485
  0
LINE
  8
L2
  6
CONTINUOUS
 62
3
 10
1.065856
 20
-0.320485
 11
1.062456
 21
-0.309641
  0
LINE
  8
L2
  6
CONTINUOUS
 62
3
 10
1.062456
 20
-0.309641
 11
1.061206
 21
-0.296776
  0
LINE
  8
L2
  6
CONTINUOUS
 62
3
 10
1.061206
 20
-0.296776
 11
1.061206
 21
-0.254783
  0
LINE
  8
L2
  6
CONTINUOUS
 62
3
 10
1.061206
 20
-0.254783
 11
1.062065
 21
-0.244885
  0
LINE
  8
L2
  6
CONTINUOUS
 62
3
 10
1.062065
 20
-0.244885
 11
1.063837
 21
-0.239318
  0
LINE
  8
L2
  6
CONTINUOUS
 62
3
 10
1.063837
 20
-0.239318
 11
1.068308
 21
-0.233949
  0
LINE
  8
L2
  6
CONTINUOUS
 62
3
 10
1.068308
 20
-0.233949
 11
1.074954
 21
-0.232160
  0
LINE
  8
L2
  6
CONTINUOUS
 62
3
 10
1.074954
 20
-0.232160
 11
1.081706
 21
-0.233218
  0
LINE
  8
L2
  6
CONTINUOUS
 62
3
 10
1.081706
 20
-0.233218
 11
1.090177
 21
-0.236391
  0
LINE
  8
L2
  6
CONTINUOUS
 62
3
 10
1.090177
 20
-0.236391
 11
1.090177
 21
-0.328514
  0
LINE
  8
L2
  6
CONTINUOUS
 62
3
 10
1.310717
 20
-0.320539
 11
1.312498
 21
-0.332982
  0
LINE
  8
L2
  6
CONTINUOUS
 62
3
 10
1.312498
 20
-0.332982
 11
1.316954
 21
-0.344450
  0
LINE
  8
L2
  6
CONTINUOUS
 62
3
 10
1.316954
 20
-0.344450
 11
1.323002
 21
-0.354213
  0
LINE
  8
L2
  6
CONTINUOUS
 62
3
 10
1.323002
 20
-0.354213
 11
1.329843
 21
-0.362187
  0
LINE
  8
L2
  6
CONTINUOUS
 62
3
 10
1.329843
 20
-0.362187
 11
1.344873
 21
-0.374224
  0
LINE
  8
L2
  6
CONTINUOUS
 62
3
 10
1.344873
 20
-0.374224
 11
1.358144
 21
-0.381300
  0
LINE
  8
L2
  6
CONTINUOUS
 62
3
 10
1.358144
 20
-0.381300
 11
1.379634
 21
-0.388460
  0
LINE
  8
L2
  6
CONTINUOUS
 62
3
 10
1.379634
 20
-0.388460
 11
1.400073
 21
-0.391502
  0
LINE
  8
L2
  6
CONTINUOUS
 62
3
 10
1.400073
 20
-0.391502
 11
1.411106
 21
-0.390723
  0
LINE
  8
L2
  6
CONTINUOUS
 62
3
 10
1.411106
 20
-0.390723
 11
1.423062
 21
-0.388869
  0
LINE
  8
L2
  6
CONTINUOUS
 62
3
 10
1.423062
 20
-0.388869
 11
1.446407
 21
-0.383503
  0
LINE
  8
L2
  6
CONTINUOUS
 62
3
 10
1.446407
 20
-0.383503
 11
1.463719
 21
-0.378258
  0
LINE
  8
L2
  6
CONTINUOUS
 62
3
 10
1.463719
 20
-0.378258
 11
1.475445
 21
-0.374002
  0
LINE
  8
L2
  6
CONTINUOUS
 62
3
 10
1.475445
 20
-0.374002
 11
1.489454
 21
-0.367740
  0
LINE
  8
L2
  6
CONTINUOUS
 62
3
 10
1.489454
 20
-0.367740
 11
1.494302
 21
-0.364935
  0
LINE
  8
L2
  6
CONTINUOUS
 62
3
 10
1.494302
 20
-0.364935
 11
1.497403
 21
-0.362531
  0
LINE
  8
L2
  6
CONTINUOUS
 62
3
 10
1.497403
 20
-0.362531
 11
1.497403
 21
-0.307518
  0
LINE
  8
L2
  6
CONTINUOUS
 62
3
 10
1.497403
 20
-0.307518
 11
1.415860
 21
-0.307518
  0
LINE
  8
L2
  6
CONTINUOUS
 62
3
 10
1.415860
 20
-0.307518
 11
1.415860
 21
-0.323143
  0
LINE
  8
L2
  6
CONTINUOUS
 62
3
 10
1.415860
 20
-0.323143
 11
1.414586
 21
-0.328656
  0
LINE
  8
L2
  6
CONTINUOUS
 62
3
 10
1.414586
 20
-0.328656
 11
1.409399
 21
-0.335935
  0
LINE
  8
L2
  6
CONTINUOUS
 62
3
 10
1.409399
 20
-0.335935
 11
1.406210
 21
-0.338235
  0
LINE
  8
L2
  6
CONTINUOUS
 62
3
 10
1.406210
 20
-0.338235
 11
1.403165
 21
-0.339093
  0
LINE
  8
L2
  6
CONTINUOUS
 62
3
 10
1.403165
 20
-0.339093
 11
1.398677
 21
-0.337295
  0
LINE
  8
L2
  6
CONTINUOUS
 62
3
 10
1.398677
 20
-0.337295
 11
1.395371
 21
-0.333943
  0
LINE
  8
L2
  6
CONTINUOUS
 62
3
 10
1.395371
 20
-0.333943
 11
1.391421
 21
-0.326636
  0
LINE
  8
L2
  6
CONTINUOUS
 62
3
 10
1.391421
 20
-0.326636
 11
1.389819
 21
-0.317772
  0
LINE
  8
L2
  6
CONTINUOUS
 62
3
 10
1.389819
 20
-0.317772
 11
1.389819
 21
-0.296776
  0
LINE
  8
L2
  6
CONTINUOUS
 62
3
 10
1.389819
 20
-0.296776
 11
1.497403
 21
-0.296776
  0
LINE
  8
L2
  6
CONTINUOUS
 62
3
 10
1.497403
 20
-0.296776
 11
1.497403
 21
-0.231183
  0
LINE
  8
L2
  6
CONTINUOUS
 62
3
 10
1.497403
 20
-0.231183
 11
1.495174
 21
-0.219764
  0
LINE
  8
L2
  6
CONTINUOUS
 62
3
 10
1.495174
 20
-0.219764
 11
1.489825
 21
-0.209375
  0
LINE
  8
L2
  6
CONTINUOUS
 62
3
 10
1.489825
 20
-0.209375
 11
1.482836
 21
-0.200682
  0
LINE
  8
L2
  6
CONTINUOUS
 62
3
 10
1.482836
 20
-0.200682
 11
1.475176
 21
-0.193718
  0
LINE
  8
L2
  6
CONTINUOUS
 62
3
 10
1.475176
 20
-0.193718
 11
1.458985
 21
-0.183526
  0
LINE
  8
L2
  6
CONTINUOUS
 62
3
 10
1.458985
 20
-0.183526
 11
1.445259
 21
-0.177813
  0
LINE
  8
L2
  6
CONTINUOUS
 62
3
 10
1.445259
 20
-0.177813
 11
1.424071
 21
-0.172478
  0
LINE
  8
L2
  6
CONTINUOUS
 62
3
 10
1.424071
 20
-0.172478
 11
1.414164
 21
-0.171208
  0
LINE
  8
L2
  6
CONTINUOUS
 62
3
 10
1.414164
 20
-0.171208
 11
1.405444
 21
-0.170799
  0
LINE
  8
L2
  6
CONTINUOUS
 62
3
 10
1.405444
 20
-0.170799
 11
1.389229
 21
-0.171828
  0
LINE
  8
L2
  6
CONTINUOUS
 62
3
 10
1.389229
 20
-0.171828
 11
1.374040
 21
-0.174593
  0
LINE
  8
L2
  6
CONTINUOUS
 62
3
 10
1.374040
 20
-0.174593
 11
1.360947
 21
-0.178597
  0
LINE
  8
L2
  6
CONTINUOUS
 62
3
 10
1.360947
 20
-0.178597
 11
1.350140
 21
-0.183371
  0
LINE
  8
L2
  6
CONTINUOUS
 62
3
 10
1.350140
 20
-0.183371
 11
1.333630
 21
-0.194547
  0
LINE
  8
L2
  6
CONTINUOUS
 62
3
 10
1.333630
 20
-0.194547
 11
1.323840
 21
-0.205055
  0
LINE
  8
L2
  6
CONTINUOUS
 62
3
 10
1.323840
 20
-0.205055
 11
1.318180
 21
-0.213866
  0
LINE
  8
L2
  6
CONTINUOUS
 62
3
 10
1.318180
 20
-0.213866
 11
1.312609
 21
-0.227915
  0
LINE
  8
L2
  6
CONTINUOUS
 62
3
 10
1.312609
 20
-0.227915
 11
1.310717
 21
-0.241763
  0
LINE
  8
L2
  6
CONTINUOUS
 62
3
 10
1.310717
 20
-0.241763
 11
1.310717
 21
-0.320539
  0
LINE
  8
L2
  6
CONTINUOUS
 62
3
 10
1.389819
 20
-0.249738
 11
1.390956
 21
-0.238825
  0
LINE
  8
L2
  6
CONTINUOUS
 62
3
 10
1.390956
 20
-0.238825
 11
1.393178
 21
-0.231668
  0
LINE
  8
L2
  6
CONTINUOUS
 62
3
 10
1.393178
 20
-0.231668
 11
1.398387
 21
-0.223771
  0
LINE
  8
L2
  6
CONTINUOUS
 62
3
 10
1.398387
 20
-0.223771
 11
1.401713
 21
-0.221552
  0
LINE
  8
L2
  6
CONTINUOUS
 62
3
 10
1.401713
 20
-0.221552
 11
1.405444
 21
-0.220766
  0
LINE
  8
L2
  6
CONTINUOUS
 62
3
 10
1.405444
 20
-0.220766
 11
1.411799
 21
-0.223165
  0
LINE
  8
L2
  6
CONTINUOUS
 62
3
 10
1.411799
 20
-0.223165
 11
1.415652
 21
-0.227661
  0
LINE
  8
L2
  6
CONTINUOUS
 62
3
 10
1.415652
 20
-0.227661
 11
1.419639
 21
-0.237554
  0
LINE
  8
L2
  6
CONTINUOUS
 62
3
 10
1.419639
 20
-0.237554
 11
1.421069
 21
-0.249738
  0
LINE
  8
L2
  6
CONTINUOUS
 62
3
 10
1.421069
 20
-0.249738
 11
1.389819
 21
-0.249738
  0
LINE
  8
L2
  6
CONTINUOUS
 62
3
 10
1.623380
 20
-0.223533
 11
1.633634
 21
-0.223533
  0
LINE
  8
L2
  6
CONTINUOUS
 62
3
 10
1.633634
 20
-0.223533
 11
1.633634
 21
-0.312726
  0
LINE
  8
L2
  6
CONTINUOUS
 62
3
 10
1.633634
 20
-0.312726
 11
1.631070
 21
-0.328371
  0
LINE
  8
L2
  6
CONTINUOUS
 62
3
 10
1.631070
 20
-0.328371
 11
1.627866
 21
-0.334722
  0
LINE
  8
L2
  6
CONTINUOUS
 62
3
 10
1.627866
 20
-0.334722
 11
1.623380
 21
-0.338768
  0
LINE
  8
L2
  6
CONTINUOUS
 62
3
 10
1.623380
 20
-0.338768
 11
1.623380
 21
-0.386131
  0
LINE
  8
L2
  6
CONTINUOUS
 62
3
 10
1.623380
 20
-0.386131
 11
1.722989
 21
-0.386131
  0
LINE
  8
L2
  6
CONTINUOUS
 62
3
 10
1.722989
 20
-0.386131
 11
1.722989
 21
-0.338768
  0
LINE
  8
L2
  6
CONTINUOUS
 62
3
 10
1.722989
 20
-0.338768
 11
1.718246
 21
-0.334635
  0
LINE
  8
L2
  6
CONTINUOUS
 62
3
 10
1.718246
 20
-0.334635
 11
1.715645
 21
-0.329978
  0
LINE
  8
L2
  6
CONTINUOUS
 62
3
 10
1.715645
 20
-0.329978
 11
1.713201
 21
-0.320966
  0
LINE
  8
L2
  6
CONTINUOUS
 62
3
 10
1.713201
 20
-0.320966
 11
1.712410
 21
-0.310122
  0
LINE
  8
L2
  6
CONTINUOUS
 62
3
 10
1.712410
 20
-0.310122
 11
1.712410
 21
-0.223533
  0
LINE
  8
L2
  6
CONTINUOUS
 62
3
 10
1.712410
 20
-0.223533
 11
1.736010
 21
-0.223533
  0
LINE
  8
L2
  6
CONTINUOUS
 62
3
 10
1.736010
 20
-0.223533
 11
1.736010
 21
-0.176170
  0
LINE
  8
L2
  6
CONTINUOUS
 62
3
 10
1.736010
 20
-0.176170
 11
1.712410
 21
-0.176170
  0
LINE
  8
L2
  6
CONTINUOUS
 62
3
 10
1.712410
 20
-0.176170
 11
1.713107
 21
-0.170205
  0
LINE
  8
L2
  6
CONTINUOUS
 62
3
 10
1.713107
 20
-0.170205
 11
1.717222
 21
-0.160953
  0
LINE
  8
L2
  6
CONTINUOUS
 62
3
 10
1.717222
 20
-0.160953
 11
1.722153
 21
-0.155278
  0
LINE
  8
L2
  6
CONTINUOUS
 62
3
 10
1.722153
 20
-0.155278
 11
1.731381
 21
-0.149347
  0
LINE
  8
L2
  6
CONTINUOUS
 62
3
 10
1.731381
 20
-0.149347
 11
1.741381
 21
-0.147199
  0
LINE
  8
L2
  6
CONTINUOUS
 62
3
 10
1.741381
 20
-0.147199
 11
1.741381
 21
-0.100161
  0
LINE
  8
L2
  6
CONTINUOUS
 62
3
 10
1.741381
 20
-0.100161
 11
1.730222
 21
-0.097811
  0
LINE
  8
L2
  6
CONTINUOUS
 62
3
 10
1.730222
 20
-0.097811
 11
1.708124
 21
-0.095545
  0
LINE
  8
L2
  6
CONTINUOUS
 62
3
 10
1.708124
 20
-0.095545
 11
1.686368
 21
-0.094790
  0
LINE
  8
L2
  6
CONTINUOUS
 62
3
 10
1.686368
 20
-0.094790
 11
1.676298
 21
-0.096462
  0
LINE
  8
L2
  6
CONTINUOUS
 62
3
 10
1.676298
 20
-0.096462
 11
1.667833
 21
-0.100365
  0
LINE
  8
L2
  6
CONTINUOUS
 62
3
 10
1.667833
 20
-0.100365
 11
1.654381
 21
-0.111444
  0
LINE
  8
L2
  6
CONTINUOUS
 62
3
 10
1.654381
 20
-0.111444
 11
1.645941
 21
-0.122228
  0
LINE
  8
L2
  6
CONTINUOUS
 62
3
 10
1.645941
 20
-0.122228
 11
1.636950
 21
-0.140240
  0
LINE
  8
L2
  6
CONTINUOUS
 62
3
 10
1.636950
 20
-0.140240
 11
1.634493
 21
-0.149257
  0
LINE
  8
L2
  6
CONTINUOUS
 62
3
 10
1.634493
 20
-0.149257
 11
1.633634
 21
-0.157778
  0
LINE
  8
L2
  6
CONTINUOUS
 62
3
 10
1.633634
 20
-0.157778
 11
1.633634
 21
-0.176170
  0
LINE
  8
L2
  6
CONTINUOUS
 62
3
 10
1.633634
 20
-0.176170
 11
1.623380
 21
-0.176170
  0
LINE
  8
L2
  6
CONTINUOUS
 62
3
 10
1.623380
 20
-0.176170
 11
1.623380
 21
-0.223533
  0
LINE
  8
L2
  6
CONTINUOUS
 62
3
 10
1.867195
 20
-0.331118
 11
1.868457
 21
-0.340735
  0
LINE
  8
L2
  6
CONTINUOUS
 62
3
 10
1.868457
 20
-0.340735
 11
1.871601
 21
-0.350149
  0
LINE
  8
L2
  6
CONTINUOUS
 62
3
 10
1.871601
 20
-0.350149
 11
1.875860
 21
-0.358463
  0
LINE
  8
L2
  6
CONTINUOUS
 62
3
 10
1.875860
 20
-0.358463
 11
1.886434
 21
-0.371864
  0
LINE
  8
L2
  6
CONTINUOUS
 62
3
 10
1.886434
 20
-0.371864
 11
1.896547
 21
-0.380127
  0
LINE
  8
L2
  6
CONTINUOUS
 62
3
 10
1.896547
 20
-0.380127
 11
1.904981
 21
-0.384992
  0
LINE
  8
L2
  6
CONTINUOUS
 62
3
 10
1.904981
 20
-0.384992
 11
1.918128
 21
-0.389841
  0
LINE
  8
L2
  6
CONTINUOUS
 62
3
 10
1.918128
 20
-0.389841
 11
1.930346
 21
-0.391502
  0
LINE
  8
L2
  6
CONTINUOUS
 62
3
 10
1.930346
 20
-0.391502
 11
1.942551
 21
-0.389976
  0
LINE
  8
L2
  6
CONTINUOUS
 62
3
 10
1.942551
 20
-0.389976
 11
1.962598
 21
-0.383682
  0
LINE
  8
L2
  6
CONTINUOUS
 62
3
 10
1.962598
 20
-0.383682
 11
1.971215
 21
-0.379737
  0
LINE
  8
L2
  6
CONTINUOUS
 62
3
 10
1.971215
 20
-0.379737
 11
1.977547
 21
-0.375877
  0
LINE
  8
L2
  6
CONTINUOUS
 62
3
 10
1.977547
 20
-0.375877
 11
1.977547
 21
-0.394172
  0
LINE
  8
L2
  6
CONTINUOUS
 62
3
 10
1.977547
 20
-0.394172
 11
1.977547
 21
-0.403974
  0
LINE
  8
L2
  6
CONTINUOUS
 62
3
 10
1.977547
 20
-0.403974
 11
1.976669
 21
-0.409800
  0
LINE
  8
L2
  6
CONTINUOUS
 62
3
 10
1.976669
 20
-0.409800
 11
1.974639
 21
-0.413952
  0
LINE
  8
L2
  6
CONTINUOUS
 62
3
 10
1.974639
 20
-0.413952
 11
1.969294
 21
-0.418598
  0
LINE
  8
L2
  6
CONTINUOUS
 62
3
 10
1.969294
 20
-0.418598
 11
1.961922
 21
-0.420311
  0
LINE
  8
L2
  6
CONTINUOUS
 62
3
 10
1.961922
 20
-0.420311
 11
1.956248
 21
-0.418265
  0
LINE
  8
L2
  6
CONTINUOUS
 62
3
 10
1.956248
 20
-0.418265
 11
1.952857
 21
-0.414428
  0
LINE
  8
L2
  6
CONTINUOUS
 62
3
 10
1.952857
 20
-0.414428
 11
1.949749
 21
-0.406141
  0
LINE
  8
L2
  6
CONTINUOUS
 62
3
 10
1.949749
 20
-0.406141
 11
1.948901
 21
-0.396548
  0
LINE
  8
L2
  6
CONTINUOUS
 62
3
 10
1.948901
 20
-0.396548
 11
1.872566
 21
-0.396548
  0
LINE
  8
L2
  6
CONTINUOUS
 62
3
 10
1.872566
 20
-0.396548
 11
1.872566
 21
-0.446571
  0
LINE
  8
L2
  6
CONTINUOUS
 62
3
 10
1.872566
 20
-0.446571
 11
1.878447
 21
-0.450746
  0
LINE
  8
L2
  6
CONTINUOUS
 62
3
 10
1.878447
 20
-0.450746
 11
1.886283
 21
-0.454626
  0
LINE
  8
L2
  6
CONTINUOUS
 62
3
 10
1.886283
 20
-0.454626
 11
1.904201
 21
-0.461392
  0
LINE
  8
L2
  6
CONTINUOUS
 62
3
 10
1.904201
 20
-0.461392
 11
1.935068
 21
-0.469743
  0
LINE
  8
L2
  6
CONTINUOUS
 62
3
 10
1.935068
 20
-0.469743
 11
1.949416
 21
-0.472278
  0
LINE
  8
L2
  6
CONTINUOUS
 62
3
 10
1.949416
 20
-0.472278
 11
1.961271
 21
-0.473208
  0
LINE
  8
L2
  6
CONTINUOUS
 62
3
 10
1.961271
 20
-0.473208
 11
1.966438
 21
-0.473086
  0
LINE
  8
L2
  6
CONTINUOUS
 62
3
 10
1.966438
 20
-0.473086
 11
1.969897
 21
-0.472720
  0
LINE
  8
L2
  6
CONTINUOUS
 62
3
 10
1.969897
 20
-0.472720
 11
1.985735
 21
-0.470973
  0
LINE
  8
L2
  6
CONTINUOUS
 62
3
 10
1.985735
 20
-0.470973
 11
1.999601
 21
-0.467572
  0
LINE
  8
L2
  6
CONTINUOUS
 62
3
 10
1.999601
 20
-0.467572
 11
2.011265
 21
-0.463009
  0
LINE
  8
L2
  6
CONTINUOUS
 62
3
 10
2.011265
 20
-0.463009
 11
2.020831
 21
-0.457760
  0
LINE
  8
L2
  6
CONTINUOUS
 62
3
 10
2.020831
 20
-0.457760
 11
2.035501
 21
-0.445805
  0
LINE
  8
L2
  6
CONTINUOUS
 62
3
 10
2.035501
 20
-0.445805
 11
2.044306
 21
-0.434714
  0
LINE
  8
L2
  6
CONTINUOUS
 62
3
 10
2.044306
 20
-0.434714
 11
2.049453
 21
-0.425383
  0
LINE
  8
L2
  6
CONTINUOUS
 62
3
 10
2.049453
 20
-0.425383
 11
2.054571
 21
-0.410158
  0
LINE
  8
L2
  6
CONTINUOUS
 62
3
 10
2.054571
 20
-0.410158
 11
2.056323
 21
-0.394106
  0
LINE
  8
L2
  6
CONTINUOUS
 62
3
 10
2.056323
 20
-0.394106
 11
2.056323
 21
-0.247134
  0
LINE
  8
L2
  6
CONTINUOUS
 62
3
 10
2.056323
 20
-0.247134
 11
2.056984
 21
-0.239372
  0
LINE
  8
L2
  6
CONTINUOUS
 62
3
 10
2.056984
 20
-0.239372
 11
2.060455
 21
-0.230056
  0
LINE
  8
L2
  6
CONTINUOUS
 62
3
 10
2.060455
 20
-0.230056
 11
2.066902
 21
-0.223533
  0
LINE
  8
L2
  6
CONTINUOUS
 62
3
 10
2.066902
 20
-0.223533
 11
2.066902
 21
-0.176170
  0
LINE
  8
L2
  6
CONTINUOUS
 62
3
 10
2.066902
 20
-0.176170
 11
1.977547
 21
-0.176170
  0
LINE
  8
L2
  6
CONTINUOUS
 62
3
 10
1.977547
 20
-0.176170
 11
1.977547
 21
-0.189191
  0
LINE
  8
L2
  6
CONTINUOUS
 62
3
 10
1.977547
 20
-0.189191
 11
1.967753
 21
-0.182261
  0
LINE
  8
L2
  6
CONTINUOUS
 62
3
 10
1.967753
 20
-0.182261
 11
1.958354
 21
-0.178376
  0
LINE
  8
L2
  6
CONTINUOUS
 62
3
 10
1.958354
 20
-0.178376
 11
1.942822
 21
-0.174643
  0
LINE
  8
L2
  6
CONTINUOUS
 62
3
 10
1.942822
 20
-0.174643
 11
1.927905
 21
-0.173403
  0
LINE
  8
L2
  6
CONTINUOUS
 62
3
 10
1.927905
 20
-0.173403
 11
1.915376
 21
-0.175086
  0
LINE
  8
L2
  6
CONTINUOUS
 62
3
 10
1.915376
 20
-0.175086
 11
1.904814
 21
-0.179168
  0
LINE
  8
L2
  6
CONTINUOUS
 62
3
 10
1.904814
 20
-0.179168
 11
1.896247
 21
-0.184537
  0
LINE
  8
L2
  6
CONTINUOUS
 62
3
 10
1.896247
 20
-0.184537
 11
1.883480
 21
-0.197309
  0
LINE
  8
L2
  6
CONTINUOUS
 62
3
 10
1.883480
 20
-0.197309
 11
1.876189
 21
-0.209013
  0
LINE
  8
L2
  6
CONTINUOUS
 62
3
 10
1.876189
 20
-0.209013
 11
1.869324
 21
-0.228299
  0
LINE
  8
L2
  6
CONTINUOUS
 62
3
 10
1.869324
 20
-0.228299
 11
1.867195
 21
-0.247134
  0
LINE
  8
L2
  6
CONTINUOUS
 62
3
 10
1.867195
 20
-0.247134
 11
1.867195
 21
-0.331118
  0
LINE
  8
L2
  6
CONTINUOUS
 62
3
 10
1.977547
 20
-0.328514
 11
1.969653
 21
-0.330467
  0
LINE
  8
L2
  6
CONTINUOUS
 62
3
 10
1.969653
 20
-0.330467
 11
1.963549
 21
-0.331118
  0
LINE
  8
L2
  6
CONTINUOUS
 62
3
 10
1.963549
 20
-0.331118
 11
1.957965
 21
-0.328668
  0
LINE
  8
L2
  6
CONTINUOUS
 62
3
 10
1.957965
 20
-0.328668
 11
1.954144
 21
-0.323762
  0
LINE
  8
L2
  6
CONTINUOUS
 62
3
 10
1.954144
 20
-0.323762
 11
1.950184
 21
-0.312596
  0
LINE
  8
L2
  6
CONTINUOUS
 62
3
 10
1.950184
 20
-0.312596
 11
1.948901
 21
-0.299542
  0
LINE
  8
L2
  6
CONTINUOUS
 62
3
 10
1.948901
 20
-0.299542
 11
1.948901
 21
-0.252179
  0
LINE
  8
L2
  6
CONTINUOUS
 62
3
 10
1.948901
 20
-0.252179
 11
1.950366
 21
-0.244196
  0
LINE
  8
L2
  6
CONTINUOUS
 62
3
 10
1.950366
 20
-0.244196
 11
1.953036
 21
-0.238846
  0
LINE
  8
L2
  6
CONTINUOUS
 62
3
 10
1.953036
 20
-0.238846
 11
1.958644
 21
-0.232846
  0
LINE
  8
L2
  6
CONTINUOUS
 62
3
 10
1.958644
 20
-0.232846
 11
1.965014
 21
-0.230532
  0
LINE
  8
L2
  6
CONTINUOUS
 62
3
 10
1.965014
 20
-0.230532
 11
1.971158
 21
-0.231346
  0
LINE
  8
L2
  6
CONTINUOUS
 62
3
 10
1.971158
 20
-0.231346
 11
1.977547
 21
-0.233787
  0
LINE
  8
L2
  6
CONTINUOUS
 62
3
 10
1.977547
 20
-0.233787
 11
1.977547
 21
-0.328514
  0
LINE
  8
L2
  6
CONTINUOUS
 62
3
 10
2.198087
 20
-0.100161
 11
2.198087
 21
-0.152407
  0
LINE
  8
L2
  6
CONTINUOUS
 62
3
 10
2.198087
 20
-0.152407
 11
2.202787
 21
-0.155571
  0
LINE
  8
L2
  6
CONTINUOUS
 62
3
 10
2.202787
 20
-0.155571
 11
2.207319
 21
-0.165046
  0
LINE
  8
L2
  6
CONTINUOUS
 62
3
 10
2.207319
 20
-0.165046
 11
2.208829
 21
-0.176170
  0
LINE
  8
L2
  6
CONTINUOUS
 62
3
 10
2.208829
 20
-0.176170
 11
2.208829
 21
-0.312726
  0
LINE
  8
L2
  6
CONTINUOUS
 62
3
 10
2.208829
 20
-0.312726
 11
2.208181
 21
-0.320004
  0
LINE
  8
L2
  6
CONTINUOUS
 62
3
 10
2.208181
 20
-0.320004
 11
2.204705
 21
-0.329749
  0
LINE
  8
L2
  6
CONTINUOUS
 62
3
 10
2.204705
 20
-0.329749
 11
2.201798
 21
-0.333508
  0
LINE
  8
L2
  6
CONTINUOUS
 62
3
 10
2.201798
 20
-0.333508
 11
2.198087
 21
-0.336164
  0
LINE
  8
L2
  6
CONTINUOUS
 62
3
 10
2.198087
 20
-0.336164
 11
2.198087
 21
-0.386131
  0
LINE
  8
L2
  6
CONTINUOUS
 62
3
 10
2.198087
 20
-0.386131
 11
2.298185
 21
-0.386131
  0
LINE
  8
L2
  6
CONTINUOUS
 62
3
 10
2.298185
 20
-0.386131
 11
2.298185
 21
-0.336164
  0
LINE
  8
L2
  6
CONTINUOUS
 62
3
 10
2.298185
 20
-0.336164
 11
2.294673
 21
-0.333341
  0
LINE
  8
L2
  6
CONTINUOUS
 62
3
 10
2.294673
 20
-0.333341
 11
2.291317
 21
-0.325130
  0
LINE
  8
L2
  6
CONTINUOUS
 62
3
 10
2.291317
 20
-0.325130
 11
2.290209
 21
-0.315167
  0
LINE
  8
L2
  6
CONTINUOUS
 62
3
 10
2.290209
 20
-0.315167
 11
2.290209
 21
-0.231183
  0
LINE
  8
L2
  6
CONTINUOUS
 62
3
 10
2.290209
 20
-0.231183
 11
2.296191
 21
-0.229108
  0
LINE
  8
L2
  6
CONTINUOUS
 62
3
 10
2.296191
 20
-0.229108
 11
2.301114
 21
-0.228416
  0
LINE
  8
L2
  6
CONTINUOUS
 62
3
 10
2.301114
 20
-0.228416
 11
2.306826
 21
-0.230550
  0
LINE
  8
L2
  6
CONTINUOUS
 62
3
 10
2.306826
 20
-0.230550
 11
2.310648
 21
-0.234454
  0
LINE
  8
L2
  6
CONTINUOUS
 62
3
 10
2.310648
 20
-0.234454
 11
2.314928
 21
-0.242702
  0
LINE
  8
L2
  6
CONTINUOUS
 62
3
 10
2.314928
 20
-0.242702
 11
2.316577
 21
-0.252179
  0
LINE
  8
L2
  6
CONTINUOUS
 62
3
 10
2.316577
 20
-0.252179
 11
2.316577
 21
-0.323143
  0
LINE
  8
L2
  6
CONTINUOUS
 62
3
 10
2.316577
 20
-0.323143
 11
2.316856
 21
-0.334100
  0
LINE
  8
L2
  6
CONTINUOUS
 62
3
 10
2.316856
 20
-0.334100
 11
2.317495
 21
-0.345210
  0
LINE
  8
L2
  6
CONTINUOUS
 62
3
 10
2.317495
 20
-0.345210
 11
2.319214
 21
-0.365220
  0
LINE
  8
L2
  6
CONTINUOUS
 62
3
 10
2.319214
 20
-0.365220
 11
2.321785
 21
-0.386131
  0
LINE
  8
L2
  6
CONTINUOUS
 62
3
 10
2.321785
 20
-0.386131
 11
2.408211
 21
-0.386131
  0
LINE
  8
L2
  6
CONTINUOUS
 62
3
 10
2.408211
 20
-0.386131
 11
2.408211
 21
-0.336164
  0
LINE
  8
L2
  6
CONTINUOUS
 62
3
 10
2.408211
 20
-0.336164
 11
2.403631
 21
-0.332901
  0
LINE
  8
L2
  6
CONTINUOUS
 62
3
 10
2.403631
 20
-0.332901
 11
2.400915
 21
-0.328126
  0
LINE
  8
L2
  6
CONTINUOUS
 62
3
 10
2.400915
 20
-0.328126
 11
2.398453
 21
-0.318484
  0
LINE
  8
L2
  6
CONTINUOUS
 62
3
 10
2.398453
 20
-0.318484
 11
2.397794
 21
-0.307518
  0
LINE
  8
L2
  6
CONTINUOUS
 62
3
 10
2.397794
 20
-0.307518
 11
2.397794
 21
-0.226138
  0
LINE
  8
L2
  6
CONTINUOUS
 62
3
 10
2.397794
 20
-0.226138
 11
2.395981
 21
-0.216295
  0
LINE
  8
L2
  6
CONTINUOUS
 62
3
 10
2.395981
 20
-0.216295
 11
2.391702
 21
-0.207134
  0
LINE
  8
L2
  6
CONTINUOUS
 62
3
 10
2.391702
 20
-0.207134
 11
2.386203
 21
-0.199350
  0
LINE
  8
L2
  6
CONTINUOUS
 62
3
 10
2.386203
 20
-0.199350
 11
2.373477
 21
-0.187376
  0
LINE
  8
L2
  6
CONTINUOUS
 62
3
 10
2.373477
 20
-0.187376
 11
2.362172
 21
-0.180384
  0
LINE
  8
L2
  6
CONTINUOUS
 62
3
 10
2.362172
 20
-0.180384
 11
2.344431
 21
-0.173643
  0
LINE
  8
L2
  6
CONTINUOUS
 62
3
 10
2.344431
 20
-0.173643
 11
2.336190
 21
-0.171991
  0
LINE
  8
L2
  6
CONTINUOUS
 62
3
 10
2.336190
 20
-0.171991
 11
2.329109
 21
-0.171450
  0
LINE
  8
L2
  6
CONTINUOUS
 62
3
 10
2.329109
 20
-0.171450
 11
2.318911
 21
-0.172363
  0
LINE
  8
L2
  6
CONTINUOUS
 62
3
 10
2.318911
 20
-0.172363
 11
2.302003
 21
-0.176274
  0
LINE
  8
L2
  6
CONTINUOUS
 62
3
 10
2.302003
 20
-0.176274
 11
2.294971
 21
-0.178857
  0
LINE
  8
L2
  6
CONTINUOUS
 62
3
 10
2.294971
 20
-0.178857
 11
2.290209
 21
-0.181541
  0
LINE
  8
L2
  6
CONTINUOUS
 62
3
 10
2.290209
 20
-0.181541
 11
2.290209
 21
-0.100161
  0
LINE
  8
L2
  6
CONTINUOUS
 62
3
 10
2.290209
 20
-0.100161
 11
2.198087
 21
-0.100161
  0
LINE
  8
L2
  6
CONTINUOUS
 62
3
 10
2.534513
 20
-0.176170
 11
2.534513
 21
-0.226138
  0
LINE
  8
L2
  6
CONTINUOUS
 62
3
 10
2.534513
 20
-0.226138
 11
2.537488
 21
-0.229761
  0
LINE
  8
L2
  6
CONTINUOUS
 62
3
 10
2.537488
 20
-0.229761
 11
2.540847
 21
-0.237443
  0
LINE
  8
L2
  6
CONTINUOUS
 62
3
 10
2.540847
 20
-0.237443
 11
2.542150
 21
-0.247134
  0
LINE
  8
L2
  6
CONTINUOUS
 62
3
 10
2.542150
 20
-0.247134
 11
2.542150
 21
-0.312726
  0
LINE
  8
L2
  6
CONTINUOUS
 62
3
 10
2.542150
 20
-0.312726
 11
2.542475
 21
-0.324445
  0
LINE
  8
L2
  6
CONTINUOUS
 62
3
 10
2.542475
 20
-0.324445
 11
2.540485
 21
-0.333234
  0
LINE
  8
L2
  6
CONTINUOUS
 62
3
 10
2.540485
 20
-0.333234
 11
2.534513
 21
-0.338768
  0
LINE
  8
L2
  6
CONTINUOUS
 62
3
 10
2.534513
 20
-0.338768
 11
2.534513
 21
-0.386131
  0
LINE
  8
L2
  6
CONTINUOUS
 62
3
 10
2.534513
 20
-0.386131
 11
2.634122
 21
-0.386131
  0
LINE
  8
L2
  6
CONTINUOUS
 62
3
 10
2.634122
 20
-0.386131
 11
2.634122
 21
-0.336164
  0
LINE
  8
L2
  6
CONTINUOUS
 62
3
 10
2.634122
 20
-0.336164
 11
2.629430
 21
-0.334699
  0
LINE
  8
L2
  6
CONTINUOUS
 62
3
 10
2.629430
 20
-0.334699
 11
2.626791
 21
-0.331677
  0
LINE
  8
L2
  6
CONTINUOUS
 62
3
 10
2.626791
 20
-0.331677
 11
2.624246
 21
-0.324056
  0
LINE
  8
L2
  6
CONTINUOUS
 62
3
 10
2.624246
 20
-0.324056
 11
2.623398
 21
-0.312726
  0
LINE
  8
L2
  6
CONTINUOUS
 62
3
 10
2.623398
 20
-0.312726
 11
2.623398
 21
-0.176170
  0
LINE
  8
L2
  6
CONTINUOUS
 62
3
 10
2.623398
 20
-0.176170
 11
2.534513
 21
-0.176170
  0
LINE
  8
L2
  6
CONTINUOUS
 62
3
 10
2.536789
 20
-0.128807
 11
2.537828
 21
-0.133781
  0
LINE
  8
L2
  6
CONTINUOUS
 62
3
 10
2.537828
 20
-0.133781
 11
2.544159
 21
-0.143967
  0
LINE
  8
L2
  6
CONTINUOUS
 62
3
 10
2.544159
 20
-0.143967
 11
2.551853
 21
-0.151407
  0
LINE
  8
L2
  6
CONTINUOUS
 62
3
 10
2.551853
 20
-0.151407
 11
2.565826
 21
-0.159925
  0
LINE
  8
L2
  6
CONTINUOUS
 62
3
 10
2.565826
 20
-0.159925
 11
2.572777
 21
-0.162315
  0
LINE
  8
L2
  6
CONTINUOUS
 62
3
 10
2.572777
 20
-0.162315
 11
2.578875
 21
-0.163149
  0
LINE
  8
L2
  6
CONTINUOUS
 62
3
 10
2.578875
 20
-0.163149
 11
2.586200
 21
-0.162361
  0
LINE
  8
L2
  6
CONTINUOUS
 62
3
 10
2.586200
 20
-0.162361
 11
2.599413
 21
-0.157665
  0
LINE
  8
L2
  6
CONTINUOUS
 62
3
 10
2.599413
 20
-0.157665
 11
2.608615
 21
-0.151959
  0
LINE
  8
L2
  6
CONTINUOUS
 62
3
 10
2.608615
 20
-0.151959
 11
2.614537
 21
-0.146780
  0
LINE
  8
L2
  6
CONTINUOUS
 62
3
 10
2.614537
 20
-0.146780
 11
2.620978
 21
-0.138057
  0
LINE
  8
L2
  6
CONTINUOUS
 62
3
 10
2.620978
 20
-0.138057
 11
2.623398
 21
-0.128807
  0
LINE
  8
L2
  6
CONTINUOUS
 62
3
 10
2.623398
 20
-0.128807
 11
2.622313
 21
-0.122888
  0
LINE
  8
L2
  6
CONTINUOUS
 62
3
 10
2.622313
 20
-0.122888
 11
2.615849
 21
-0.112190
  0
LINE
  8
L2
  6
CONTINUOUS
 62
3
 10
2.615849
 20
-0.112190
 11
2.608144
 21
-0.105050
  0
LINE
  8
L2
  6
CONTINUOUS
 62
3
 10
2.608144
 20
-0.105050
 11
2.594348
 21
-0.097451
  0
LINE
  8
L2
  6
CONTINUOUS
 62
3
 10
2.594348
 20
-0.097451
 11
2.587515
 21
-0.095458
  0
LINE
  8
L2
  6
CONTINUOUS
 62
3
 10
2.587515
 20
-0.095458
 11
2.581474
 21
-0.094790
  0
LINE
  8
L2
  6
CONTINUOUS
 62
3
 10
2.581474
 20
-0.094790
 11
2.575139
 21
-0.095481
  0
LINE
  8
L2
  6
CONTINUOUS
 62
3
 10
2.575139
 20
-0.095481
 11
2.562103
 21
-0.099948
  0
LINE
  8
L2
  6
CONTINUOUS
 62
3
 10
2.562103
 20
-0.099948
 11
2.552451
 21
-0.105714
  0
LINE
  8
L2
  6
CONTINUOUS
 62
3
 10
2.552451
 20
-0.105714
 11
2.546150
 21
-0.111069
  0
LINE
  8
L2
  6
CONTINUOUS
 62
3
 10
2.546150
 20
-0.111069
 11
2.539316
 21
-0.120012
  0
LINE
  8
L2
  6
CONTINUOUS
 62
3
 10
2.539316
 20
-0.120012
 11
2.536789
 21
-0.128807
  0
LINE
  8
L2
  6
CONTINUOUS
 62
3
 10
2.762540
 20
-0.176170
 11
2.762540
 21
-0.226138
  0
LINE
  8
L2
  6
CONTINUOUS
 62
3
 10
2.762540
 20
-0.226138
 11
2.767119
 21
-0.230205
  0
LINE
  8
L2
  6
CONTINUOUS
 62
3
 10
2.767119
 20
-0.230205
 11
2.772069
 21
-0.240371
  0
LINE
  8
L2
  6
CONTINUOUS
 62
3
 10
2.772069
 20
-0.240371
 11
2.773608
 21
-0.251854
  0
LINE
  8
L2
  6
CONTINUOUS
 62
3
 10
2.773608
 20
-0.251854
 11
2.773282
 21
-0.270734
  0
LINE
  8
L2
  6
CONTINUOUS
 62
3
 10
2.773282
 20
-0.270734
 11
2.773282
 21
-0.378156
  0
LINE
  8
L2
  6
CONTINUOUS
 62
3
 10
2.773282
 20
-0.378156
 11
2.771807
 21
-0.391881
  0
LINE
  8
L2
  6
CONTINUOUS
 62
3
 10
2.771807
 20
-0.391881
 11
2.768952
 21
-0.400435
  0
LINE
  8
L2
  6
CONTINUOUS
 62
3
 10
2.768952
 20
-0.400435
 11
2.765966
 21
-0.405598
  0
LINE
  8
L2
  6
CONTINUOUS
 62
3
 10
2.765966
 20
-0.405598
 11
2.760336
 21
-0.410921
  0
LINE
  8
L2
  6
CONTINUOUS
 62
3
 10
2.760336
 20
-0.410921
 11
2.753588
 21
-0.412824
  0
LINE
  8
L2
  6
CONTINUOUS
 62
3
 10
2.753588
 20
-0.412824
 11
2.746915
 21
-0.412498
  0
LINE
  8
L2
  6
CONTINUOUS
 62
3
 10
2.746915
 20
-0.412498
 11
2.746915
 21
-0.459536
  0
LINE
  8
L2
  6
CONTINUOUS
 62
3
 10
2.746915
 20
-0.459536
 11
2.765551
 21
-0.465273
  0
LINE
  8
L2
  6
CONTINUOUS
 62
3
 10
2.765551
 20
-0.465273
 11
2.785652
 21
-0.467186
  0
LINE
  8
L2
  6
CONTINUOUS
 62
3
 10
2.785652
 20
-0.467186
 11
2.797290
 21
-0.466555
  0
LINE
  8
L2
  6
CONTINUOUS
 62
3
 10
2.797290
 20
-0.466555
 11
2.813525
 21
-0.463244
  0
LINE
  8
L2
  6
CONTINUOUS
 62
3
 10
2.813525
 20
-0.463244
 11
2.828295
 21
-0.457095
  0
LINE
  8
L2
  6
CONTINUOUS
 62
3
 10
2.828295
 20
-0.457095
 11
2.833262
 21
-0.452930
  0
LINE
  8
L2
  6
CONTINUOUS
 62
3
 10
2.833262
 20
-0.452930
 11
2.841301
 21
-0.442170
  0
LINE
  8
L2
  6
CONTINUOUS
 62
3
 10
2.841301
 20
-0.442170
 11
2.846146
 21
-0.432326
  0
LINE
  8
L2
  6
CONTINUOUS
 62
3
 10
2.846146
 20
-0.432326
 11
2.850798
 21
-0.416987
  0
LINE
  8
L2
  6
CONTINUOUS
 62
3
 10
2.850798
 20
-0.416987
 11
2.852221
 21
-0.403872
  0
LINE
  8
L2
  6
CONTINUOUS
 62
3
 10
2.852221
 20
-0.403872
 11
2.852119
 21
-0.392906
  0
LINE
  8
L2
  6
CONTINUOUS
 62
3
 10
2.852119
 20
-0.392906
 11
2.851896
 21
-0.383527
  0
LINE
  8
L2
  6
CONTINUOUS
 62
3
 10
2.851896
 20
-0.383527
 11
2.851896
 21
-0.176170
  0
LINE
  8
L2
  6
CONTINUOUS
 62
3
 10
2.851896
 20
-0.176170
 11
2.762540
 21
-0.176170
  0
LINE
  8
L2
  6
CONTINUOUS
 62
3
 10
2.765307
 20
-0.126203
 11
2.766284
 21
-0.132136
  0
LINE
  8
L2
  6
CONTINUOUS
 62
3
 10
2.766284
 20
-0.132136
 11
2.772087
 21
-0.143021
  0
LINE
  8
L2
  6
CONTINUOUS
 62
3
 10
2.772087
 20
-0.143021
 11
2.779111
 21
-0.150695
  0
LINE
  8
L2
  6
CONTINUOUS
 62
3
 10
2.779111
 20
-0.150695
 11
2.792453
 21
-0.159611
  0
LINE
  8
L2
  6
CONTINUOUS
 62
3
 10
2.792453
 20
-0.159611
 11
2.799819
 21
-0.162212
  0
LINE
  8
L2
  6
CONTINUOUS
 62
3
 10
2.799819
 20
-0.162212
 11
2.807299
 21
-0.163149
  0
LINE
  8
L2
  6
CONTINUOUS
 62
3
 10
2.807299
 20
-0.163149
 11
2.814613
 21
-0.162323
  0
LINE
  8
L2
  6
CONTINUOUS
 62
3
 10
2.814613
 20
-0.162323
 11
2.828277
 21
-0.157175
  0
LINE
  8
L2
  6
CONTINUOUS
 62
3
 10
2.828277
 20
-0.157175
 11
2.837702
 21
-0.150749
  0
LINE
  8
L2
  6
CONTINUOUS
 62
3
 10
2.837702
 20
-0.150749
 11
2.843594
 21
-0.144911
  0
LINE
  8
L2
  6
CONTINUOUS
 62
3
 10
2.843594
 20
-0.144911
 11
2.849728
 21
-0.135369
  0
LINE
  8
L2
  6
CONTINUOUS
 62
3
 10
2.849728
 20
-0.135369
 11
2.851896
 21
-0.126203
  0
LINE
  8
L2
  6
CONTINUOUS
 62
3
 10
2.851896
 20
-0.126203
 11
2.850173
 21
-0.120460
  0
LINE
  8
L2
  6
CONTINUOUS
 62
3
 10
2.850173
 20
-0.120460
 11
2.843121
 21
-0.110824
  0
LINE
  8
L2
  6
CONTINUOUS
 62
3
 10
2.843121
 20
-0.110824
 11
2.835357
 21
-0.104482
  0
LINE
  8
L2
  6
CONTINUOUS
 62
3
 10
2.835357
 20
-0.104482
 11
2.821523
 21
-0.097465
  0
LINE
  8
L2
  6
CONTINUOUS
 62
3
 10
2.821523
 20
-0.097465
 11
2.807299
 21
-0.094790
  0
LINE
  8
L2
  6
CONTINUOUS
 62
3
 10
2.807299
 20
-0.094790
 11
2.800355
 21
-0.095572
  0
LINE
  8
L2
  6
CONTINUOUS
 62
3
 10
2.800355
 20
-0.095572
 11
2.787873
 21
-0.100155
  0
LINE
  8
L2
  6
CONTINUOUS
 62
3
 10
2.787873
 20
-0.100155
 11
2.779204
 21
-0.105597
  0
LINE
  8
L2
  6
CONTINUOUS
 62
3
 10
2.779204
 20
-0.105597
 11
2.769232
 21
-0.115626
  0
LINE
  8
L2
  6
CONTINUOUS
 62
3
 10
2.769232
 20
-0.115626
 11
2.766345
 21
-0.120965
  0
LINE
  8
L2
  6
CONTINUOUS
 62
3
 10
2.766345
 20
-0.120965
 11
2.765307
 21
-0.126203
  0
LINE
  8
L2
  6
CONTINUOUS
 62
3
 10
2.983569
 20
-0.100161
 11
2.983569
 21
-0.147199
  0
LINE
  8
L2
  6
CONTINUOUS
 62
3
 10
2.983569
 20
-0.147199
 11
2.987986
 21
-0.151703
  0
LINE
  8
L2
  6
CONTINUOUS
 62
3
 10
2.987986
 20
-0.151703
 11
2.992338
 21
-0.163499
  0
LINE
  8
L2
  6
CONTINUOUS
 62
3
 10
2.992338
 20
-0.163499
 11
2.993823
 21
-0.176170
  0
LINE
  8
L2
  6
CONTINUOUS
 62
3
 10
2.993823
 20
-0.176170
 11
2.993823
 21
-0.310122
  0
LINE
  8
L2
  6
CONTINUOUS
 62
3
 10
2.993823
 20
-0.310122
 11
2.993182
 21
-0.318654
  0
LINE
  8
L2
  6
CONTINUOUS
 62
3
 10
2.993182
 20
-0.318654
 11
2.989817
 21
-0.329512
  0
LINE
  8
L2
  6
CONTINUOUS
 62
3
 10
2.989817
 20
-0.329512
 11
2.987054
 21
-0.333495
  0
LINE
  8
L2
  6
CONTINUOUS
 62
3
 10
2.987054
 20
-0.333495
 11
2.983569
 21
-0.336164
  0
LINE
  8
L2
  6
CONTINUOUS
 62
3
 10
2.983569
 20
-0.336164
 11
2.983569
 21
-0.386131
  0
LINE
  8
L2
  6
CONTINUOUS
 62
3
 10
2.983569
 20
-0.386131
 11
3.085945
 21
-0.386131
  0
LINE
  8
L2
  6
CONTINUOUS
 62
3
 10
3.085945
 20
-0.386131
 11
3.085945
 21
-0.336164
  0
LINE
  8
L2
  6
CONTINUOUS
 62
3
 10
3.085945
 20
-0.336164
 11
3.078438
 21
-0.327883
  0
LINE
  8
L2
  6
CONTINUOUS
 62
3
 10
3.078438
 20
-0.327883
 11
3.076080
 21
-0.322728
  0
LINE
  8
L2
  6
CONTINUOUS
 62
3
 10
3.076080
 20
-0.322728
 11
3.075203
 21
-0.317772
  0
LINE
  8
L2
  6
CONTINUOUS
 62
3
 10
3.075203
 20
-0.317772
 11
3.075203
 21
-0.294171
  0
LINE
  8
L2
  6
CONTINUOUS
 62
3
 10
3.075203
 20
-0.294171
 11
3.117195
 21
-0.386131
  0
LINE
  8
L2
  6
CONTINUOUS
 62
3
 10
3.117195
 20
-0.386131
 11
3.190926
 21
-0.386131
  0
LINE
  8
L2
  6
CONTINUOUS
 62
3
 10
3.190926
 20
-0.386131
 11
3.190926
 21
-0.336164
  0
LINE
  8
L2
  6
CONTINUOUS
 62
3
 10
3.190926
 20
-0.336164
 11
3.185117
 21
-0.332990
  0
LINE
  8
L2
  6
CONTINUOUS
 62
3
 10
3.185117
 20
-0.332990
 11
3.178731
 21
-0.327313
  0
LINE
  8
L2
  6
CONTINUOUS
 62
3
 10
3.178731
 20
-0.327313
 11
3.175138
 21
-0.320539
  0
LINE
  8
L2
  6
CONTINUOUS
 62
3
 10
3.175138
 20
-0.320539
 11
3.148933
 21
-0.265526
  0
LINE
  8
L2
  6
CONTINUOUS
 62
3
 10
3.148933
 20
-0.265526
 11
3.169930
 21
-0.236391
  0
LINE
  8
L2
  6
CONTINUOUS
 62
3
 10
3.169930
 20
-0.236391
 11
3.178739
 21
-0.227541
  0
LINE
  8
L2
  6
CONTINUOUS
 62
3
 10
3.178739
 20
-0.227541
 11
3.183823
 21
-0.223276
  0
LINE
  8
L2
  6
CONTINUOUS
 62
3
 10
3.183823
 20
-0.223276
 11
3.188159
 21
-0.220766
  0
LINE
  8
L2
  6
CONTINUOUS
 62
3
 10
3.188159
 20
-0.220766
 11
3.188159
 21
-0.176170
  0
LINE
  8
L2
  6
CONTINUOUS
 62
3
 10
3.188159
 20
-0.176170
 11
3.098803
 21
-0.176170
  0
LINE
  8
L2
  6
CONTINUOUS
 62
3
 10
3.098803
 20
-0.176170
 11
3.098803
 21
-0.189191
  0
LINE
  8
L2
  6
CONTINUOUS
 62
3
 10
3.098803
 20
-0.189191
 11
3.097651
 21
-0.198707
  0
LINE
  8
L2
  6
CONTINUOUS
 62
3
 10
3.097651
 20
-0.198707
 11
3.094780
 21
-0.207118
  0
LINE
  8
L2
  6
CONTINUOUS
 62
3
 10
3.094780
 20
-0.207118
 11
3.086779
 21
-0.220876
  0
LINE
  8
L2
  6
CONTINUOUS
 62
3
 10
3.086779
 20
-0.220876
 11
3.075203
 21
-0.233787
  0
LINE
  8
L2
  6
CONTINUOUS
 62
3
 10
3.075203
 20
-0.233787
 11
3.075203
 21
-0.100161
  0
LINE
  8
L2
  6
CONTINUOUS
 62
3
 10
3.075203
 20
-0.100161
 11
2.983569
 21
-0.100161
  0
LINE
  8
L2
  6
CONTINUOUS
 62
3
 10
3.317228
 20
-0.100161
 11
3.317228
 21
-0.149803
  0
LINE
  8
L2
  6
CONTINUOUS
 62
3
 10
3.317228
 20
-0.149803
 11
3.321800
 21
-0.152916
  0
LINE
  8
L2
  6
CONTINUOUS
 62
3
 10
3.321800
 20
-0.152916
 11
3.324358
 21
-0.157223
  0
LINE
  8
L2
  6
CONTINUOUS
 62
3
 10
3.324358
 20
-0.157223
 11
3.326813
 21
-0.165929
  0
LINE
  8
L2
  6
CONTINUOUS
 62
3
 10
3.326813
 20
-0.165929
 11
3.327627
 21
-0.176170
  0
LINE
  8
L2
  6
CONTINUOUS
 62
3
 10
3.327627
 20
-0.176170
 11
3.327627
 21
-0.312726
  0
LINE
  8
L2
  6
CONTINUOUS
 62
3
 10
3.327627
 20
-0.312726
 11
3.326961
 21
-0.320160
  0
LINE
  8
L2
  6
CONTINUOUS
 62
3
 10
3.326961
 20
-0.320160
 11
3.323516
 21
-0.331429
  0
LINE
  8
L2
  6
CONTINUOUS
 62
3
 10
3.323516
 20
-0.331429
 11
3.320721
 21
-0.335876
  0
LINE
  8
L2
  6
CONTINUOUS
 62
3
 10
3.320721
 20
-0.335876
 11
3.317228
 21
-0.338768
  0
LINE
  8
L2
  6
CONTINUOUS
 62
3
 10
3.317228
 20
-0.338768
 11
3.317228
 21
-0.386131
  0
LINE
  8
L2
  6
CONTINUOUS
 62
3
 10
3.317228
 20
-0.386131
 11
3.416837
 21
-0.386131
  0
LINE
  8
L2
  6
CONTINUOUS
 62
3
 10
3.416837
 20
-0.386131
 11
3.416837
 21
-0.338768
  0
LINE
  8
L2
  6
CONTINUOUS
 62
3
 10
3.416837
 20
-0.338768
 11
3.412021
 21
-0.334312
  0
LINE
  8
L2
  6
CONTINUOUS
 62
3
 10
3.412021
 20
-0.334312
 11
3.409191
 21
-0.328829
  0
LINE
  8
L2
  6
CONTINUOUS
 62
3
 10
3.409191
 20
-0.328829
 11
3.406723
 21
-0.318505
  0
LINE
  8
L2
  6
CONTINUOUS
 62
3
 10
3.406723
 20
-0.318505
 11
3.406113
 21
-0.307518
  0
LINE
  8
L2
  6
CONTINUOUS
 62
3
 10
3.406113
 20
-0.307518
 11
3.406113
 21
-0.100161
  0
LINE
  8
L2
  6
CONTINUOUS
 62
3
 10
3.406113
 20
-0.100161
 11
3.317228
 21
-0.100161
  0
LINE
  8
L2
  6
CONTINUOUS
 62
3
 10
3.545260
 20
-0.176170
 11
3.542976
 21
-0.226138
  0
LINE
  8
L2
  6
CONTINUOUS
 62
3
 10
3.542976
 20
-0.226138
 11
3.548673
 21
-0.229149
  0
LINE
  8
L2
  6
CONTINUOUS
 62
3
 10
3.548673
 20
-0.229149
 11
3.551877
 21
-0.233223
  0
LINE
  8
L2
  6
CONTINUOUS
 62
3
 10
3.551877
 20
-0.233223
 11
3.554967
 21
-0.242252
  0
LINE
  8
L2
  6
CONTINUOUS
 62
3
 10
3.554967
 20
-0.242252
 11
3.555997
 21
-0.254783
  0
LINE
  8
L2
  6
CONTINUOUS
 62
3
 10
3.555997
 20
-0.254783
 11
3.555997
 21
-0.312726
  0
LINE
  8
L2
  6
CONTINUOUS
 62
3
 10
3.555997
 20
-0.312726
 11
3.555349
 21
-0.320160
  0
LINE
  8
L2
  6
CONTINUOUS
 62
3
 10
3.555349
 20
-0.320160
 11
3.551873
 21
-0.330743
  0
LINE
  8
L2
  6
CONTINUOUS
 62
3
 10
3.551873
 20
-0.330743
 11
3.545255
 21
-0.338768
  0
LINE
  8
L2
  6
CONTINUOUS
 62
3
 10
3.545255
 20
-0.338768
 11
3.545255
 21
-0.386131
  0
LINE
  8
L2
  6
CONTINUOUS
 62
3
 10
3.545255
 20
-0.386131
 11
3.645454
 21
-0.386131
  0
LINE
  8
L2
  6
CONTINUOUS
 62
3
 10
3.645454
 20
-0.386131
 11
3.645454
 21
-0.338768
  0
LINE
  8
L2
  6
CONTINUOUS
 62
3
 10
3.645454
 20
-0.338768
 11
3.641327
 21
-0.335721
  0
LINE
  8
L2
  6
CONTINUOUS
 62
3
 10
3.641327
 20
-0.335721
 11
3.636617
 21
-0.326697
  0
LINE
  8
L2
  6
CONTINUOUS
 62
3
 10
3.636617
 20
-0.326697
 11
3.634773
 21
-0.315167
  0
LINE
  8
L2
  6
CONTINUOUS
 62
3
 10
3.634773
 20
-0.315167
 11
3.634773
 21
-0.231183
  0
LINE
  8
L2
  6
CONTINUOUS
 62
3
 10
3.634773
 20
-0.231183
 11
3.641814
 21
-0.229108
  0
LINE
  8
L2
  6
CONTINUOUS
 62
3
 10
3.641814
 20
-0.229108
 11
3.647397
 21
-0.228416
  0
LINE
  8
L2
  6
CONTINUOUS
 62
3
 10
3.647397
 20
-0.228416
 11
3.654459
 21
-0.231003
  0
LINE
  8
L2
  6
CONTINUOUS
 62
3
 10
3.654459
 20
-0.231003
 11
3.658483
 21
-0.235618
  0
LINE
  8
L2
  6
CONTINUOUS
 62
3
 10
3.658483
 20
-0.235618
 11
3.662415
 21
-0.244946
  0
LINE
  8
L2
  6
CONTINUOUS
 62
3
 10
3.662415
 20
-0.244946
 11
3.663745
 21
-0.254783
  0
LINE
  8
L2
  6
CONTINUOUS
 62
3
 10
3.663745
 20
-0.254783
 11
3.663745
 21
-0.328514
  0
LINE
  8
L2
  6
CONTINUOUS
 62
3
 10
3.663745
 20
-0.328514
 11
3.663877
 21
-0.339973
  0
LINE
  8
L2
  6
CONTINUOUS
 62
3
 10
3.663877
 20
-0.339973
 11
3.664666
 21
-0.362460
  0
LINE
  8
L2
  6
CONTINUOUS
 62
3
 10
3.664666
 20
-0.362460
 11
3.666349
 21
-0.386131
  0
LINE
  8
L2
  6
CONTINUOUS
 62
3
 10
3.666349
 20
-0.386131
 11
3.752937
 21
-0.386131
  0
LINE
  8
L2
  6
CONTINUOUS
 62
3
 10
3.752937
 20
-0.386131
 11
3.752937
 21
-0.338768
  0
LINE
  8
L2
  6
CONTINUOUS
 62
3
 10
3.752937
 20
-0.338768
 11
3.748309
 21
-0.334790
  0
LINE
  8
L2
  6
CONTINUOUS
 62
3
 10
3.748309
 20
-0.334790
 11
3.743846
 21
-0.326421
  0
LINE
  8
L2
  6
CONTINUOUS
 62
3
 10
3.743846
 20
-0.326421
 11
3.742358
 21
-0.315167
  0
LINE
  8
L2
  6
CONTINUOUS
 62
3
 10
3.742358
 20
-0.315167
 11
3.742358
 21
-0.231183
  0
LINE
  8
L2
  6
CONTINUOUS
 62
3
 10
3.742358
 20
-0.231183
 11
3.755053
 21
-0.228742
  0
LINE
  8
L2
  6
CONTINUOUS
 62
3
 10
3.755053
 20
-0.228742
 11
3.761785
 21
-0.231140
  0
LINE
  8
L2
  6
CONTINUOUS
 62
3
 10
3.761785
 20
-0.231140
 11
3.765796
 21
-0.235496
  0
LINE
  8
L2
  6
CONTINUOUS
 62
3
 10
3.765796
 20
-0.235496
 11
3.769884
 21
-0.244583
  0
LINE
  8
L2
  6
CONTINUOUS
 62
3
 10
3.769884
 20
-0.244583
 11
3.771329
 21
-0.254783
  0
LINE
  8
L2
  6
CONTINUOUS
 62
3
 10
3.771329
 20
-0.254783
 11
3.771329
 21
-0.328514
  0
LINE
  8
L2
  6
CONTINUOUS
 62
3
 10
3.771329
 20
-0.328514
 11
3.771461
 21
-0.339973
  0
LINE
  8
L2
  6
CONTINUOUS
 62
3
 10
3.771461
 20
-0.339973
 11
3.772251
 21
-0.362460
  0
LINE
  8
L2
  6
CONTINUOUS
 62
3
 10
3.772251
 20
-0.362460
 11
3.773933
 21
-0.386131
  0
LINE
  8
L2
  6
CONTINUOUS
 62
3
 10
3.773933
 20
-0.386131
 11
3.860359
 21
-0.386131
  0
LINE
  8
L2
  6
CONTINUOUS
 62
3
 10
3.860359
 20
-0.386131
 11
3.860359
 21
-0.338768
  0
LINE
  8
L2
  6
CONTINUOUS
 62
3
 10
3.860359
 20
-0.338768
 11
3.855802
 21
-0.335635
  0
LINE
  8
L2
  6
CONTINUOUS
 62
3
 10
3.855802
 20
-0.335635
 11
3.853238
 21
-0.331522
  0
LINE
  8
L2
  6
CONTINUOUS
 62
3
 10
3.853238
 20
-0.331522
 11
3.850766
 21
-0.322522
  0
LINE
  8
L2
  6
CONTINUOUS
 62
3
 10
3.850766
 20
-0.322522
 11
3.849943
 21
-0.310122
  0
LINE
  8
L2
  6
CONTINUOUS
 62
3
 10
3.849943
 20
-0.310122
 11
3.849943
 21
-0.226138
  0
LINE
  8
L2
  6
CONTINUOUS
 62
3
 10
3.849943
 20
-0.226138
 11
3.849002
 21
-0.212557
  0
LINE
  8
L2
  6
CONTINUOUS
 62
3
 10
3.849002
 20
-0.212557
 11
3.846634
 21
-0.202160
  0
LINE
  8
L2
  6
CONTINUOUS
 62
3
 10
3.846634
 20
-0.202160
 11
3.843381
 21
-0.194199
  0
LINE
  8
L2
  6
CONTINUOUS
 62
3
 10
3.843381
 20
-0.194199
 11
3.835034
 21
-0.182822
  0
LINE
  8
L2
  6
CONTINUOUS
 62
3
 10
3.835034
 20
-0.182822
 11
3.826556
 21
-0.176423
  0
LINE
  8
L2
  6
CONTINUOUS
 62
3
 10
3.826556
 20
-0.176423
 11
3.818951
 21
-0.172823
  0
LINE
  8
L2
  6
CONTINUOUS
 62
3
 10
3.818951
 20
-0.172823
 11
3.805539
 21
-0.169352
  0
LINE
  8
L2
  6
CONTINUOUS
 62
3
 10
3.805539
 20
-0.169352
 11
3.789721
 21
-0.168195
  0
LINE
  8
L2
  6
CONTINUOUS
 62
3
 10
3.789721
 20
-0.168195
 11
3.775497
 21
-0.169988
  0
LINE
  8
L2
  6
CONTINUOUS
 62
3
 10
3.775497
 20
-0.169988
 11
3.752698
 21
-0.177898
  0
LINE
  8
L2
  6
CONTINUOUS
 62
3
 10
3.752698
 20
-0.177898
 11
3.731941
 21
-0.189191
  0
LINE
  8
L2
  6
CONTINUOUS
 62
3
 10
3.731941
 20
-0.189191
 11
3.722133
 21
-0.180348
  0
LINE
  8
L2
  6
CONTINUOUS
 62
3
 10
3.722133
 20
-0.180348
 11
3.713457
 21
-0.175176
  0
LINE
  8
L2
  6
CONTINUOUS
 62
3
 10
3.713457
 20
-0.175176
 11
3.699260
 21
-0.169994
  0
LINE
  8
L2
  6
CONTINUOUS
 62
3
 10
3.699260
 20
-0.169994
 11
3.684820
 21
-0.168195
  0
LINE
  8
L2
  6
CONTINUOUS
 62
3
 10
3.684820
 20
-0.168195
 11
3.672224
 21
-0.169629
  0
LINE
  8
L2
  6
CONTINUOUS
 62
3
 10
3.672224
 20
-0.169629
 11
3.651965
 21
-0.176301
  0
LINE
  8
L2
  6
CONTINUOUS
 62
3
 10
3.651965
 20
-0.176301
 11
3.642655
 21
-0.181169
  0
LINE
  8
L2
  6
CONTINUOUS
 62
3
 10
3.642655
 20
-0.181169
 11
3.634773
 21
-0.186749
  0
LINE
  8
L2
  6
CONTINUOUS
 62
3
 10
3.634773
 20
-0.186749
 11
3.634773
 21
-0.176170
  0
LINE
  8
L2
  6
CONTINUOUS
 62
3
 10
3.634773
 20
-0.176170
 11
3.545260
 21
-0.176170
  0
LINE
  8
L2
  6
CONTINUOUS
 62
3
 10
3.989265
 20
-0.176170
 11
3.989265
 21
-0.226138
  0
LINE
  8
L2
  6
CONTINUOUS
 62
3
 10
3.989265
 20
-0.226138
 11
3.993823
 21
-0.228793
  0
LINE
  8
L2
  6
CONTINUOUS
 62
3
 10
3.993823
 20
-0.228793
 11
3.998217
 21
-0.236018
  0
LINE
  8
L2
  6
CONTINUOUS
 62
3
 10
3.998217
 20
-0.236018
 11
3.999682
 21
-0.247134
  0
LINE
  8
L2
  6
CONTINUOUS
 62
3
 10
3.999682
 20
-0.247134
 11
3.999682
 21
-0.310122
  0
LINE
  8
L2
  6
CONTINUOUS
 62
3
 10
3.999682
 20
-0.310122
 11
3.999039
 21
-0.318105
  0
LINE
  8
L2
  6
CONTINUOUS
 62
3
 10
3.999039
 20
-0.318105
 11
3.995637
 21
-0.329168
  0
LINE
  8
L2
  6
CONTINUOUS
 62
3
 10
3.995637
 20
-0.329168
 11
3.992826
 21
-0.333384
  0
LINE
  8
L2
  6
CONTINUOUS
 62
3
 10
3.992826
 20
-0.333384
 11
3.989265
 21
-0.336164
  0
LINE
  8
L2
  6
CONTINUOUS
 62
3
 10
3.989265
 20
-0.336164
 11
3.989265
 21
-0.386131
  0
LINE
  8
L2
  6
CONTINUOUS
 62
3
 10
3.989265
 20
-0.386131
 11
4.091743
 21
-0.386131
  0
LINE
  8
L2
  6
CONTINUOUS
 62
3
 10
4.091743
 20
-0.386131
 11
4.091743
 21
-0.336164
  0
LINE
  8
L2
  6
CONTINUOUS
 62
3
 10
4.091743
 20
-0.336164
 11
4.087070
 21
-0.332135
  0
LINE
  8
L2
  6
CONTINUOUS
 62
3
 10
4.087070
 20
-0.332135
 11
4.082564
 21
-0.323804
  0
LINE
  8
L2
  6
CONTINUOUS
 62
3
 10
4.082564
 20
-0.323804
 11
4.081062
 21
-0.312726
  0
LINE
  8
L2
  6
CONTINUOUS
 62
3
 10
4.081062
 20
-0.312726
 11
4.081062
 21
-0.233787
  0
LINE
  8
L2
  6
CONTINUOUS
 62
3
 10
4.081062
 20
-0.233787
 11
4.086727
 21
-0.231346
  0
LINE
  8
L2
  6
CONTINUOUS
 62
3
 10
4.086727
 20
-0.231346
 11
4.092069
 21
-0.230532
  0
LINE
  8
L2
  6
CONTINUOUS
 62
3
 10
4.092069
 20
-0.230532
 11
4.098171
 21
-0.232908
  0
LINE
  8
L2
  6
CONTINUOUS
 62
3
 10
4.098171
 20
-0.232908
 11
4.102766
 21
-0.237278
  0
LINE
  8
L2
  6
CONTINUOUS
 62
3
 10
4.102766
 20
-0.237278
 11
4.108053
 21
-0.246159
  0
LINE
  8
L2
  6
CONTINUOUS
 62
3
 10
4.108053
 20
-0.246159
 11
4.110034
 21
-0.254783
  0
LINE
  8
L2
  6
CONTINUOUS
 62
3
 10
4.110034
 20
-0.254783
 11
4.110034
 21
-0.320539
  0
LINE
  8
L2
  6
CONTINUOUS
 62
3
 10
4.110034
 20
-0.320539
 11
4.110685
 21
-0.354027
  0
LINE
  8
L2
  6
CONTINUOUS
 62
3
 10
4.110685
 20
-0.354027
 11
4.112638
 21
-0.386131
  0
LINE
  8
L2
  6
CONTINUOUS
 62
3
 10
4.112638
 20
-0.386131
 11
4.201668
 21
-0.386131
  0
LINE
  8
L2
  6
CONTINUOUS
 62
3
 10
4.201668
 20
-0.386131
 11
4.201668
 21
-0.338768
  0
LINE
  8
L2
  6
CONTINUOUS
 62
3
 10
4.201668
 20
-0.338768
 11
4.197711
 21
-0.334315
  0
LINE
  8
L2
  6
CONTINUOUS
 62
3
 10
4.197711
 20
-0.334315
 11
4.193100
 21
-0.323377
  0
LINE
  8
L2
  6
CONTINUOUS
 62
3
 10
4.193100
 20
-0.323377
 11
4.191266
 21
-0.310122
  0
LINE
  8
L2
  6
CONTINUOUS
 62
3
 10
4.191266
 20
-0.310122
 11
4.191266
 21
-0.226138
  0
LINE
  8
L2
  6
CONTINUOUS
 62
3
 10
4.191266
 20
-0.226138
 11
4.190527
 21
-0.219558
  0
LINE
  8
L2
  6
CONTINUOUS
 62
3
 10
4.190527
 20
-0.219558
 11
4.188454
 21
-0.212377
  0
LINE
  8
L2
  6
CONTINUOUS
 62
3
 10
4.188454
 20
-0.212377
 11
4.181075
 21
-0.198324
  0
LINE
  8
L2
  6
CONTINUOUS
 62
3
 10
4.181075
 20
-0.198324
 11
4.172312
 21
-0.188007
  0
LINE
  8
L2
  6
CONTINUOUS
 62
3
 10
4.172312
 20
-0.188007
 11
4.164075
 21
-0.181200
  0
LINE
  8
L2
  6
CONTINUOUS
 62
3
 10
4.164075
 20
-0.181200
 11
4.149611
 21
-0.173667
  0
LINE
  8
L2
  6
CONTINUOUS
 62
3
 10
4.149611
 20
-0.173667
 11
4.141750
 21
-0.171549
  0
LINE
  8
L2
  6
CONTINUOUS
 62
3
 10
4.141750
 20
-0.171549
 11
4.133725
 21
-0.170799
  0
LINE
  8
L2
  6
CONTINUOUS
 62
3
 10
4.133725
 20
-0.170799
 11
4.120263
 21
-0.171625
  0
LINE
  8
L2
  6
CONTINUOUS
 62
3
 10
4.120263
 20
-0.171625
 11
4.098854
 21
-0.175989
  0
LINE
  8
L2
  6
CONTINUOUS
 62
3
 10
4.098854
 20
-0.175989
 11
4.089149
 21
-0.179590
  0
LINE
  8
L2
  6
CONTINUOUS
 62
3
 10
4.089149
 20
-0.179590
 11
4.081062
 21
-0.184145
  0
LINE
  8
L2
  6
CONTINUOUS
 62
3
 10
4.081062
 20
-0.184145
 11
4.081062
 21
-0.176170
  0
LINE
  8
L2
  6
CONTINUOUS
 62
3
 10
4.081062
 20
-0.176170
 11
3.989265
 21
-0.176170
  0
LINE
  8
L2
  6
CONTINUOUS
 62
3
 10
4.327807
 20
-0.312726
 11
4.329705
 21
-0.328202
  0
LINE
  8
L2
  6
CONTINUOUS
 62
3
 10
4.329705
 20
-0.328202
 11
4.334416
 21
-0.341290
  0
LINE
  8
L2
  6
CONTINUOUS
 62
3
 10
4.334416
 20
-0.341290
 11
4.340747
 21
-0.351947
  0
LINE
  8
L2
  6
CONTINUOUS
 62
3
 10
4.340747
 20
-0.351947
 11
4.347846
 21
-0.360420
  0
LINE
  8
L2
  6
CONTINUOUS
 62
3
 10
4.347846
 20
-0.360420
 11
4.363309
 21
-0.372864
  0
LINE
  8
L2
  6
CONTINUOUS
 62
3
 10
4.363309
 20
-0.372864
 11
4.376935
 21
-0.379926
  0
LINE
  8
L2
  6
CONTINUOUS
 62
3
 10
4.376935
 20
-0.379926
 11
4.399361
 21
-0.386616
  0
LINE
  8
L2
  6
CONTINUOUS
 62
3
 10
4.399361
 20
-0.386616
 11
4.422208
 21
-0.388735
  0
LINE
  8
L2
  6
CONTINUOUS
 62
3
 10
4.422208
 20
-0.388735
 11
4.439227
 21
-0.387776
  0
LINE
  8
L2
  6
CONTINUOUS
 62
3
 10
4.439227
 20
-0.387776
 11
4.454713
 21
-0.385158
  0
LINE
  8
L2
  6
CONTINUOUS
 62
3
 10
4.454713
 20
-0.385158
 11
4.467851
 21
-0.381320
  0
LINE
  8
L2
  6
CONTINUOUS
 62
3
 10
4.467851
 20
-0.381320
 11
4.478581
 21
-0.376693
  0
LINE
  8
L2
  6
CONTINUOUS
 62
3
 10
4.478581
 20
-0.376693
 11
4.494789
 21
-0.365717
  0
LINE
  8
L2
  6
CONTINUOUS
 62
3
 10
4.494789
 20
-0.365717
 11
4.504283
 21
-0.355256
  0
LINE
  8
L2
  6
CONTINUOUS
 62
3
 10
4.504283
 20
-0.355256
 11
4.509717
 21
-0.346395
  0
LINE
  8
L2
  6
CONTINUOUS
 62
3
 10
4.509717
 20
-0.346395
 11
4.515004
 21
-0.332100
  0
LINE
  8
L2
  6
CONTINUOUS
 62
3
 10
4.515004
 20
-0.332100
 11
4.516772
 21
-0.317772
  0
LINE
  8
L2
  6
CONTINUOUS
 62
3
 10
4.516772
 20
-0.317772
 11
4.516772
 21
-0.239158
  0
LINE
  8
L2
  6
CONTINUOUS
 62
3
 10
4.516772
 20
-0.239158
 11
4.515087
 21
-0.225835
  0
LINE
  8
L2
  6
CONTINUOUS
 62
3
 10
4.515087
 20
-0.225835
 11
4.510780
 21
-0.214377
  0
LINE
  8
L2
  6
CONTINUOUS
 62
3
 10
4.510780
 20
-0.214377
 11
4.504846
 21
-0.204914
  0
LINE
  8
L2
  6
CONTINUOUS
 62
3
 10
4.504846
 20
-0.204914
 11
4.498057
 21
-0.197295
  0
LINE
  8
L2
  6
CONTINUOUS
 62
3
 10
4.498057
 20
-0.197295
 11
4.482916
 21
-0.185914
  0
LINE
  8
L2
  6
CONTINUOUS
 62
3
 10
4.482916
 20
-0.185914
 11
4.469262
 21
-0.179316
  0
LINE
  8
L2
  6
CONTINUOUS
 62
3
 10
4.469262
 20
-0.179316
 11
4.446266
 21
-0.172904
  0
LINE
  8
L2
  6
CONTINUOUS
 62
3
 10
4.446266
 20
-0.172904
 11
4.422208
 21
-0.170799
  0
LINE
  8
L2
  6
CONTINUOUS
 62
3
 10
4.422208
 20
-0.170799
 11
4.404043
 21
-0.172057
  0
LINE
  8
L2
  6
CONTINUOUS
 62
3
 10
4.404043
 20
-0.172057
 11
4.388325
 21
-0.175253
  0
LINE
  8
L2
  6
CONTINUOUS
 62
3
 10
4.388325
 20
-0.175253
 11
4.375285
 21
-0.179635
  0
LINE
  8
L2
  6
CONTINUOUS
 62
3
 10
4.375285
 20
-0.179635
 11
4.364751
 21
-0.184625
  0
LINE
  8
L2
  6
CONTINUOUS
 62
3
 10
4.364751
 20
-0.184625
 11
4.348954
 21
-0.195686
  0
LINE
  8
L2
  6
CONTINUOUS
 62
3
 10
4.348954
 20
-0.195686
 11
4.339754
 21
-0.205591
  0
LINE
  8
L2
  6
CONTINUOUS
 62
3
 10
4.339754
 20
-0.205591
 11
4.334516
 21
-0.213677
  0
LINE
  8
L2
  6
CONTINUOUS
 62
3
 10
4.334516
 20
-0.213677
 11
4.329467
 21
-0.226404
  0
LINE
  8
L2
  6
CONTINUOUS
 62
3
 10
4.329467
 20
-0.226404
 11
4.327807
 21
-0.239158
  0
LINE
  8
L2
  6
CONTINUOUS
 62
3
 10
4.327807
 20
-0.239158
 11
4.327807
 21
-0.312726
  0
LINE
  8
L2
  6
CONTINUOUS
 62
3
 10
4.437833
 20
-0.317772
 11
4.436338
 21
-0.325325
  0
LINE
  8
L2
  6
CONTINUOUS
 62
3
 10
4.436338
 20
-0.325325
 11
4.433546
 21
-0.330856
  0
LINE
  8
L2
  6
CONTINUOUS
 62
3
 10
4.433546
 20
-0.330856
 11
4.427798
 21
-0.337109
  0
LINE
  8
L2
  6
CONTINUOUS
 62
3
 10
4.427798
 20
-0.337109
 11
4.422208
 21
-0.339419
  0
LINE
  8
L2
  6
CONTINUOUS
 62
3
 10
4.422208
 20
-0.339419
 11
4.417063
 21
-0.337410
  0
LINE
  8
L2
  6
CONTINUOUS
 62
3
 10
4.417063
 20
-0.337410
 11
4.409742
 21
-0.328912
  0
LINE
  8
L2
  6
CONTINUOUS
 62
3
 10
4.409742
 20
-0.328912
 11
4.407333
 21
-0.323396
  0
LINE
  8
L2
  6
CONTINUOUS
 62
3
 10
4.407333
 20
-0.323396
 11
4.406420
 21
-0.317772
  0
LINE
  8
L2
  6
CONTINUOUS
 62
3
 10
4.406420
 20
-0.317772
 11
4.406420
 21
-0.239158
  0
LINE
  8
L2
  6
CONTINUOUS
 62
3
 10
4.406420
 20
-0.239158
 11
4.407995
 21
-0.231621
  0
LINE
  8
L2
  6
CONTINUOUS
 62
3
 10
4.407995
 20
-0.231621
 11
4.414423
 21
-0.222145
  0
LINE
  8
L2
  6
CONTINUOUS
 62
3
 10
4.414423
 20
-0.222145
 11
4.418394
 21
-0.219235
  0
LINE
  8
L2
  6
CONTINUOUS
 62
3
 10
4.418394
 20
-0.219235
 11
4.422208
 21
-0.218162
  0
LINE
  8
L2
  6
CONTINUOUS
 62
3
 10
4.422208
 20
-0.218162
 11
4.427190
 21
-0.219740
  0
LINE
  8
L2
  6
CONTINUOUS
 62
3
 10
4.427190
 20
-0.219740
 11
4.434627
 21
-0.226922
  0
LINE
  8
L2
  6
CONTINUOUS
 62
3
 10
4.434627
 20
-0.226922
 11
4.436980
 21
-0.231695
  0
LINE
  8
L2
  6
CONTINUOUS
 62
3
 10
4.436980
 20
-0.231695
 11
4.437833
 21
-0.236391
  0
LINE
  8
L2
  6
CONTINUOUS
 62
3
 10
4.437833
 20
-0.236391
 11
4.437833
 21
-0.317772
  0
LINE
  8
L2
  6
CONTINUOUS
 62
3
 10
4.645353
 20
-0.176170
 11
4.645353
 21
-0.223533
  0
LINE
  8
L2
  6
CONTINUOUS
 62
3
 10
4.645353
 20
-0.223533
 11
4.649910
 21
-0.226666
  0
LINE
  8
L2
  6
CONTINUOUS
 62
3
 10
4.649910
 20
-0.226666
 11
4.652473
 21
-0.230779
  0
LINE
  8
L2
  6
CONTINUOUS
 62
3
 10
4.652473
 20
-0.230779
 11
4.654945
 21
-0.239780
  0
LINE
  8
L2
  6
CONTINUOUS
 62
3
 10
4.654945
 20
-0.239780
 11
4.655769
 21
-0.252179
  0
LINE
  8
L2
  6
CONTINUOUS
 62
3
 10
4.655769
 20
-0.252179
 11
4.655769
 21
-0.383527
  0
LINE
  8
L2
  6
CONTINUOUS
 62
3
 10
4.655769
 20
-0.383527
 11
4.655126
 21
-0.391604
  0
LINE
  8
L2
  6
CONTINUOUS
 62
3
 10
4.655126
 20
-0.391604
 11
4.651724
 21
-0.402727
  0
LINE
  8
L2
  6
CONTINUOUS
 62
3
 10
4.651724
 20
-0.402727
 11
4.648913
 21
-0.406950
  0
LINE
  8
L2
  6
CONTINUOUS
 62
3
 10
4.648913
 20
-0.406950
 11
4.645353
 21
-0.409731
  0
LINE
  8
L2
  6
CONTINUOUS
 62
3
 10
4.645353
 20
-0.409731
 11
4.645353
 21
-0.462140
  0
LINE
  8
L2
  6
CONTINUOUS
 62
3
 10
4.645353
 20
-0.462140
 11
4.745125
 21
-0.462140
  0
LINE
  8
L2
  6
CONTINUOUS
 62
3
 10
4.745125
 20
-0.462140
 11
4.745125
 21
-0.409731
  0
LINE
  8
L2
  6
CONTINUOUS
 62
3
 10
4.745125
 20
-0.409731
 11
4.740494
 21
-0.405952
  0
LINE
  8
L2
  6
CONTINUOUS
 62
3
 10
4.740494
 20
-0.405952
 11
4.737849
 21
-0.400332
  0
LINE
  8
L2
  6
CONTINUOUS
 62
3
 10
4.737849
 20
-0.400332
 11
4.735260
 21
-0.388938
  0
LINE
  8
L2
  6
CONTINUOUS
 62
3
 10
4.735260
 20
-0.388938
 11
4.734383
 21
-0.375877
  0
LINE
  8
L2
  6
CONTINUOUS
 62
3
 10
4.734383
 20
-0.375877
 11
4.743853
 21
-0.382001
  0
LINE
  8
L2
  6
CONTINUOUS
 62
3
 10
4.743853
 20
-0.382001
 11
4.760920
 21
-0.387906
  0
LINE
  8
L2
  6
CONTINUOUS
 62
3
 10
4.760920
 20
-0.387906
 11
4.781420
 21
-0.389874
  0
LINE
  8
L2
  6
CONTINUOUS
 62
3
 10
4.781420
 20
-0.389874
 11
4.794767
 21
-0.388735
  0
LINE
  8
L2
  6
CONTINUOUS
 62
3
 10
4.794767
 20
-0.388735
 11
4.806213
 21
-0.385265
  0
LINE
  8
L2
  6
CONTINUOUS
 62
3
 10
4.806213
 20
-0.385265
 11
4.815064
 21
-0.380028
  0
LINE
  8
L2
  6
CONTINUOUS
 62
3
 10
4.815064
 20
-0.380028
 11
4.821899
 21
-0.374068
  0
LINE
  8
L2
  6
CONTINUOUS
 62
3
 10
4.821899
 20
-0.374068
 11
4.831772
 21
-0.361329
  0
LINE
  8
L2
  6
CONTINUOUS
 62
3
 10
4.831772
 20
-0.361329
 11
4.837394
 21
-0.350529
  0
LINE
  8
L2
  6
CONTINUOUS
 62
3
 10
4.837394
 20
-0.350529
 11
4.842881
 21
-0.333686
  0
LINE
  8
L2
  6
CONTINUOUS
 62
3
 10
4.842881
 20
-0.333686
 11
4.844734
 21
-0.317772
  0
LINE
  8
L2
  6
CONTINUOUS
 62
3
 10
4.844734
 20
-0.317772
 11
4.844734
 21
-0.223533
  0
LINE
  8
L2
  6
CONTINUOUS
 62
3
 10
4.844734
 20
-0.223533
 11
4.843393
 21
-0.213837
  0
LINE
  8
L2
  6
CONTINUOUS
 62
3
 10
4.843393
 20
-0.213837
 11
4.840214
 21
-0.205535
  0
LINE
  8
L2
  6
CONTINUOUS
 62
3
 10
4.840214
 20
-0.205535
 11
4.830934
 21
-0.192094
  0
LINE
  8
L2
  6
CONTINUOUS
 62
3
 10
4.830934
 20
-0.192094
 11
4.821559
 21
-0.183519
  0
LINE
  8
L2
  6
CONTINUOUS
 62
3
 10
4.821559
 20
-0.183519
 11
4.813556
 21
-0.178266
  0
LINE
  8
L2
  6
CONTINUOUS
 62
3
 10
4.813556
 20
-0.178266
 11
4.800565
 21
-0.172783
  0
LINE
  8
L2
  6
CONTINUOUS
 62
3
 10
4.800565
 20
-0.172783
 11
4.787117
 21
-0.170799
  0
LINE
  8
L2
  6
CONTINUOUS
 62
3
 10
4.787117
 20
-0.170799
 11
4.773682
 21
-0.172284
  0
LINE
  8
L2
  6
CONTINUOUS
 62
3
 10
4.773682
 20
-0.172284
 11
4.751998
 21
-0.178556
  0
LINE
  8
L2
  6
CONTINUOUS
 62
3
 10
4.751998
 20
-0.178556
 11
4.742267
 21
-0.182618
  0
LINE
  8
L2
  6
CONTINUOUS
 62
3
 10
4.742267
 20
-0.182618
 11
4.734383
 21
-0.186749
  0
LINE
  8
L2
  6
CONTINUOUS
 62
3
 10
4.734383
 20
-0.186749
 11
4.734383
 21
-0.176170
  0
LINE
  8
L2
  6
CONTINUOUS
 62
3
 10
4.734383
 20
-0.176170
 11
4.645353
 21
-0.176170
  0
LINE
  8
L2
  6
CONTINUOUS
 62
3
 10
4.734383
 20
-0.233787
 11
4.743172
 21
-0.230491
  0
LINE
  8
L2
  6
CONTINUOUS
 62
3
 10
4.743172
 20
-0.230491
 11
4.750333
 21
-0.229393
  0
LINE
  8
L2
  6
CONTINUOUS
 62
3
 10
4.750333
 20
-0.229393
 11
4.757240
 21
-0.230817
  0
LINE
  8
L2
  6
CONTINUOUS
 62
3
 10
4.757240
 20
-0.230817
 11
4.761126
 21
-0.233754
  0
LINE
  8
L2
  6
CONTINUOUS
 62
3
 10
4.761126
 20
-0.233754
 11
4.764872
 21
-0.241164
  0
LINE
  8
L2
  6
CONTINUOUS
 62
3
 10
4.764872
 20
-0.241164
 11
4.766121
 21
-0.252179
  0
LINE
  8
L2
  6
CONTINUOUS
 62
3
 10
4.766121
 20
-0.252179
 11
4.766121
 21
-0.307518
  0
LINE
  8
L2
  6
CONTINUOUS
 62
3
 10
4.766121
 20
-0.307518
 11
4.765093
 21
-0.318128
  0
LINE
  8
L2
  6
CONTINUOUS
 62
3
 10
4.765093
 20
-0.318128
 11
4.762974
 21
-0.324096
  0
LINE
  8
L2
  6
CONTINUOUS
 62
3
 10
4.762974
 20
-0.324096
 11
4.757629
 21
-0.329851
  0
LINE
  8
L2
  6
CONTINUOUS
 62
3
 10
4.757629
 20
-0.329851
 11
4.749682
 21
-0.331769
  0
LINE
  8
L2
  6
CONTINUOUS
 62
3
 10
4.749682
 20
-0.331769
 11
4.742521
 21
-0.330955
  0
LINE
  8
L2
  6
CONTINUOUS
 62
3
 10
4.742521
 20
-0.330955
 11
4.734383
 21
-0.328514
  0
LINE
  8
L2
  6
CONTINUOUS
 62
3
 10
4.734383
 20
-0.328514
 11
4.734383
 21
-0.233787
  0
LINE
  8
L2
  6
CONTINUOUS
 62
3
 10
4.976245
 20
-0.325747
 11
4.978029
 21
-0.339135
  0
LINE
  8
L2
  6
CONTINUOUS
 62
3
 10
4.978029
 20
-0.339135
 11
4.982202
 21
-0.350933
  0
LINE
  8
L2
  6
CONTINUOUS
 62
3
 10
4.982202
 20
-0.350933
 11
4.987489
 21
-0.360589
  0
LINE
  8
L2
  6
CONTINUOUS
 62
3
 10
4.987489
 20
-0.360589
 11
4.999404
 21
-0.374775
  0
LINE
  8
L2
  6
CONTINUOUS
 62
3
 10
4.999404
 20
-0.374775
 11
5.009590
 21
-0.382580
  0
LINE
  8
L2
  6
CONTINUOUS
 62
3
 10
5.009590
 20
-0.382580
 11
5.017337
 21
-0.386744
  0
LINE
  8
L2
  6
CONTINUOUS
 62
3
 10
5.017337
 20
-0.386744
 11
5.028144
 21
-0.390428
  0
LINE
  8
L2
  6
CONTINUOUS
 62
3
 10
5.028144
 20
-0.390428
 11
5.036629
 21
-0.391502
  0
LINE
  8
L2
  6
CONTINUOUS
 62
3
 10
5.036629
 20
-0.391502
 11
5.050039
 21
-0.389635
  0
LINE
  8
L2
  6
CONTINUOUS
 62
3
 10
5.050039
 20
-0.389635
 11
5.071579
 21
-0.382077
  0
LINE
  8
L2
  6
CONTINUOUS
 62
3
 10
5.071579
 20
-0.382077
 11
5.080383
 21
-0.377467
  0
LINE
  8
L2
  6
CONTINUOUS
 62
3
 10
5.080383
 20
-0.377467
 11
5.086271
 21
-0.373110
  0
LINE
  8
L2
  6
CONTINUOUS
 62
3
 10
5.086271
 20
-0.373110
 11
5.087003
 21
-0.380923
  0
LINE
  8
L2
  6
CONTINUOUS
 62
3
 10
5.087003
 20
-0.380923
 11
5.087247
 21
-0.387433
  0
LINE
  8
L2
  6
CONTINUOUS
 62
3
 10
5.087247
 20
-0.387433
 11
5.086362
 21
-0.394600
  0
LINE
  8
L2
  6
CONTINUOUS
 62
3
 10
5.086362
 20
-0.394600
 11
5.082288
 21
-0.404939
  0
LINE
  8
L2
  6
CONTINUOUS
 62
3
 10
5.082288
 20
-0.404939
 11
5.076017
 21
-0.412498
  0
LINE
  8
L2
  6
CONTINUOUS
 62
3
 10
5.076017
 20
-0.412498
 11
5.076017
 21
-0.462140
  0
LINE
  8
L2
  6
CONTINUOUS
 62
3
 10
5.076017
 20
-0.462140
 11
5.172859
 21
-0.462140
  0
LINE
  8
L2
  6
CONTINUOUS
 62
3
 10
5.172859
 20
-0.462140
 11
5.172859
 21
-0.412498
  0
LINE
  8
L2
  6
CONTINUOUS
 62
3
 10
5.172859
 20
-0.412498
 11
5.168253
 21
-0.409876
  0
LINE
  8
L2
  6
CONTINUOUS
 62
3
 10
5.168253
 20
-0.409876
 11
5.163817
 21
-0.402235
  0
LINE
  8
L2
  6
CONTINUOUS
 62
3
 10
5.163817
 20
-0.402235
 11
5.162605
 21
-0.391502
  0
LINE
  8
L2
  6
CONTINUOUS
 62
3
 10
5.162605
 20
-0.391502
 11
5.162605
 21
-0.176170
  0
LINE
  8
L2
  6
CONTINUOUS
 62
3
 10
5.162605
 20
-0.176170
 11
5.086271
 21
-0.176170
  0
LINE
  8
L2
  6
CONTINUOUS
 62
3
 10
5.086271
 20
-0.176170
 11
5.086271
 21
-0.186749
  0
LINE
  8
L2
  6
CONTINUOUS
 62
3
 10
5.086271
 20
-0.186749
 11
5.082729
 21
-0.183961
  0
LINE
  8
L2
  6
CONTINUOUS
 62
3
 10
5.082729
 20
-0.183961
 11
5.072812
 21
-0.179138
  0
LINE
  8
L2
  6
CONTINUOUS
 62
3
 10
5.072812
 20
-0.179138
 11
5.053675
 21
-0.173234
  0
LINE
  8
L2
  6
CONTINUOUS
 62
3
 10
5.053675
 20
-0.173234
 11
5.044384
 21
-0.171452
  0
LINE
  8
L2
  6
CONTINUOUS
 62
3
 10
5.044384
 20
-0.171452
 11
5.036629
 21
-0.170799
  0
LINE
  8
L2
  6
CONTINUOUS
 62
3
 10
5.036629
 20
-0.170799
 11
5.024735
 21
-0.172222
  0
LINE
  8
L2
  6
CONTINUOUS
 62
3
 10
5.024735
 20
-0.172222
 11
5.014883
 21
-0.175557
  0
LINE
  8
L2
  6
CONTINUOUS
 62
3
 10
5.014883
 20
-0.175557
 11
4.999468
 21
-0.185084
  0
LINE
  8
L2
  6
CONTINUOUS
 62
3
 10
4.999468
 20
-0.185084
 11
4.989936
 21
-0.194440
  0
LINE
  8
L2
  6
CONTINUOUS
 62
3
 10
4.989936
 20
-0.194440
 11
4.984211
 21
-0.202210
  0
LINE
  8
L2
  6
CONTINUOUS
 62
3
 10
4.984211
 20
-0.202210
 11
4.978336
 21
-0.214345
  0
LINE
  8
L2
  6
CONTINUOUS
 62
3
 10
4.978336
 20
-0.214345
 11
4.976245
 21
-0.226138
  0
LINE
  8
L2
  6
CONTINUOUS
 62
3
 10
4.976245
 20
-0.226138
 11
4.976245
 21
-0.325747
  0
LINE
  8
L2
  6
CONTINUOUS
 62
3
 10
5.086271
 20
-0.331118
 11
5.080086
 21
-0.333437
  0
LINE
  8
L2
  6
CONTINUOUS
 62
3
 10
5.080086
 20
-0.333437
 11
5.074552
 21
-0.334210
  0
LINE
  8
L2
  6
CONTINUOUS
 62
3
 10
5.074552
 20
-0.334210
 11
5.067835
 21
-0.332003
  0
LINE
  8
L2
  6
CONTINUOUS
 62
3
 10
5.067835
 20
-0.332003
 11
5.062959
 21
-0.327988
  0
LINE
  8
L2
  6
CONTINUOUS
 62
3
 10
5.062959
 20
-0.327988
 11
5.057184
 21
-0.319591
  0
LINE
  8
L2
  6
CONTINUOUS
 62
3
 10
5.057184
 20
-0.319591
 11
5.054858
 21
-0.310122
  0
LINE
  8
L2
  6
CONTINUOUS
 62
3
 10
5.054858
 20
-0.310122
 11
5.054858
 21
-0.249738
  0
LINE
  8
L2
  6
CONTINUOUS
 62
3
 10
5.054858
 20
-0.249738
 11
5.056374
 21
-0.242388
  0
LINE
  8
L2
  6
CONTINUOUS
 62
3
 10
5.056374
 20
-0.242388
 11
5.062805
 21
-0.233033
  0
LINE
  8
L2
  6
CONTINUOUS
 62
3
 10
5.062805
 20
-0.233033
 11
5.066999
 21
-0.230138
  0
LINE
  8
L2
  6
CONTINUOUS
 62
3
 10
5.066999
 20
-0.230138
 11
5.071297
 21
-0.229067
  0
LINE
  8
L2
  6
CONTINUOUS
 62
3
 10
5.071297
 20
-0.229067
 11
5.077970
 21
-0.230247
  0
LINE
  8
L2
  6
CONTINUOUS
 62
3
 10
5.077970
 20
-0.230247
 11
5.086271
 21
-0.233787
  0
LINE
  8
L2
  6
CONTINUOUS
 62
3
 10
5.086271
 20
-0.233787
 11
5.086271
 21
-0.331118
  0
LINE
  8
L2
  6
CONTINUOUS
 62
3
 10
5.301928
 20
-0.176170
 11
5.301928
 21
-0.223533
  0
LINE
  8
L2
  6
CONTINUOUS
 62
3
 10
5.301928
 20
-0.223533
 11
5.309741
 21
-0.234805
  0
LINE
  8
L2
  6
CONTINUOUS
 62
3
 10
5.309741
 20
-0.234805
 11
5.312345
 21
-0.247134
  0
LINE
  8
L2
  6
CONTINUOUS
 62
3
 10
5.312345
 20
-0.247134
 11
5.312345
 21
-0.312726
  0
LINE
  8
L2
  6
CONTINUOUS
 62
3
 10
5.312345
 20
-0.312726
 11
5.309761
 21
-0.327456
  0
LINE
  8
L2
  6
CONTINUOUS
 62
3
 10
5.309761
 20
-0.327456
 11
5.306508
 21
-0.333875
  0
LINE
  8
L2
  6
CONTINUOUS
 62
3
 10
5.306508
 20
-0.333875
 11
5.301928
 21
-0.338768
  0
LINE
  8
L2
  6
CONTINUOUS
 62
3
 10
5.301928
 20
-0.338768
 11
5.301928
 21
-0.386131
  0
LINE
  8
L2
  6
CONTINUOUS
 62
3
 10
5.301928
 20
-0.386131
 11
5.401700
 21
-0.386131
  0
LINE
  8
L2
  6
CONTINUOUS
 62
3
 10
5.401700
 20
-0.386131
 11
5.401700
 21
-0.338768
  0
LINE
  8
L2
  6
CONTINUOUS
 62
3
 10
5.401700
 20
-0.338768
 11
5.395861
 21
-0.335553
  0
LINE
  8
L2
  6
CONTINUOUS
 62
3
 10
5.395861
 20
-0.335553
 11
5.392577
 21
-0.331700
  0
LINE
  8
L2
  6
CONTINUOUS
 62
3
 10
5.392577
 20
-0.331700
 11
5.389410
 21
-0.323604
  0
LINE
  8
L2
  6
CONTINUOUS
 62
3
 10
5.389410
 20
-0.323604
 11
5.388354
 21
-0.312726
  0
LINE
  8
L2
  6
CONTINUOUS
 62
3
 10
5.388354
 20
-0.312726
 11
5.388354
 21
-0.273175
  0
LINE
  8
L2
  6
CONTINUOUS
 62
3
 10
5.388354
 20
-0.273175
 11
5.389227
 21
-0.268355
  0
LINE
  8
L2
  6
CONTINUOUS
 62
3
 10
5.389227
 20
-0.268355
 11
5.394297
 21
-0.260065
  0
LINE
  8
L2
  6
CONTINUOUS
 62
3
 10
5.394297
 20
-0.260065
 11
5.400243
 21
-0.254498
  0
LINE
  8
L2
  6
CONTINUOUS
 62
3
 10
5.400243
 20
-0.254498
 11
5.410985
 21
-0.248246
  0
LINE
  8
L2
  6
CONTINUOUS
 62
3
 10
5.410985
 20
-0.248246
 11
5.421883
 21
-0.245832
  0
LINE
  8
L2
  6
CONTINUOUS
 62
3
 10
5.421883
 20
-0.245832
 11
5.432950
 21
-0.247134
  0
LINE
  8
L2
  6
CONTINUOUS
 62
3
 10
5.432950
 20
-0.247134
 11
5.432950
 21
-0.170799
  0
LINE
  8
L2
  6
CONTINUOUS
 62
3
 10
5.432950
 20
-0.170799
 11
5.421232
 21
-0.169822
  0
LINE
  8
L2
  6
CONTINUOUS
 62
3
 10
5.421232
 20
-0.169822
 11
5.411906
 21
-0.171453
  0
LINE
  8
L2
  6
CONTINUOUS
 62
3
 10
5.411906
 20
-0.171453
 11
5.398885
 21
-0.178700
  0
LINE
  8
L2
  6
CONTINUOUS
 62
3
 10
5.398885
 20
-0.178700
 11
5.388354
 21
-0.189191
  0
LINE
  8
L2
  6
CONTINUOUS
 62
3
 10
5.388354
 20
-0.189191
 11
5.388354
 21
-0.176170
  0
LINE
  8
L2
  6
CONTINUOUS
 62
3
 10
5.388354
 20
-0.176170
 11
5.301928
 21
-0.176170
  0
LINE
  8
L2
  6
CONTINUOUS
 62
3
 10
5.561531
 20
-0.304751
 11
5.561531
 21
-0.359764
  0
LINE
  8
L2
  6
CONTINUOUS
 62
3
 10
5.561531
 20
-0.359764
 11
5.564347
 21
-0.362467
  0
LINE
  8
L2
  6
CONTINUOUS
 62
3
 10
5.564347
 20
-0.362467
 11
5.573699
 21
-0.368474
  0
LINE
  8
L2
  6
CONTINUOUS
 62
3
 10
5.573699
 20
-0.368474
 11
5.592689
 21
-0.377860
  0
LINE
  8
L2
  6
CONTINUOUS
 62
3
 10
5.592689
 20
-0.377860
 11
5.601754
 21
-0.381452
  0
LINE
  8
L2
  6
CONTINUOUS
 62
3
 10
5.601754
 20
-0.381452
 11
5.608894
 21
-0.383527
  0
LINE
  8
L2
  6
CONTINUOUS
 62
3
 10
5.608894
 20
-0.383527
 11
5.632454
 21
-0.388288
  0
LINE
  8
L2
  6
CONTINUOUS
 62
3
 10
5.632454
 20
-0.388288
 11
5.656583
 21
-0.389874
  0
LINE
  8
L2
  6
CONTINUOUS
 62
3
 10
5.656583
 20
-0.389874
 11
5.669910
 21
-0.388609
  0
LINE
  8
L2
  6
CONTINUOUS
 62
3
 10
5.669910
 20
-0.388609
 11
5.683062
 21
-0.385417
  0
LINE
  8
L2
  6
CONTINUOUS
 62
3
 10
5.683062
 20
-0.385417
 11
5.694959
 21
-0.381073
  0
LINE
  8
L2
  6
CONTINUOUS
 62
3
 10
5.694959
 20
-0.381073
 11
5.714935
 21
-0.370303
  0
LINE
  8
L2
  6
CONTINUOUS
 62
3
 10
5.714935
 20
-0.370303
 11
5.727889
 21
-0.360036
  0
LINE
  8
L2
  6
CONTINUOUS
 62
3
 10
5.727889
 20
-0.360036
 11
5.735815
 21
-0.351457
  0
LINE
  8
L2
  6
CONTINUOUS
 62
3
 10
5.735815
 20
-0.351457
 11
5.744007
 21
-0.337861
  0
LINE
  8
L2
  6
CONTINUOUS
 62
3
 10
5.744007
 20
-0.337861
 11
5.746173
 21
-0.331049
  0
LINE
  8
L2
  6
CONTINUOUS
 62
3
 10
5.746173
 20
-0.331049
 11
5.746915
 21
-0.324445
  0
LINE
  8
L2
  6
CONTINUOUS
 62
3
 10
5.746915
 20
-0.324445
 11
5.745613
 21
-0.310122
  0
LINE
  8
L2
  6
CONTINUOUS
 62
3
 10
5.745613
 20
-0.310122
 11
5.742049
 21
-0.299913
  0
LINE
  8
L2
  6
CONTINUOUS
 62
3
 10
5.742049
 20
-0.299913
 11
5.736419
 21
-0.291140
  0
LINE
  8
L2
  6
CONTINUOUS
 62
3
 10
5.736419
 20
-0.291140
 11
5.722446
 21
-0.277294
  0
LINE
  8
L2
  6
CONTINUOUS
 62
3
 10
5.722446
 20
-0.277294
 11
5.709737
 21
-0.268838
  0
LINE
  8
L2
  6
CONTINUOUS
 62
3
 10
5.709737
 20
-0.268838
 11
5.689230
 21
-0.259816
  0
LINE
  8
L2
  6
CONTINUOUS
 62
3
 10
5.689230
 20
-0.259816
 11
5.669278
 21
-0.254783
  0
LINE
  8
L2
  6
CONTINUOUS
 62
3
 10
5.669278
 20
-0.254783
 11
5.656805
 21
-0.251086
  0
LINE
  8
L2
  6
CONTINUOUS
 62
3
 10
5.656805
 20
-0.251086
 11
5.648248
 21
-0.247191
  0
LINE
  8
L2
  6
CONTINUOUS
 62
3
 10
5.648248
 20
-0.247191
 11
5.638774
 21
-0.239691
  0
LINE
  8
L2
  6
CONTINUOUS
 62
3
 10
5.638774
 20
-0.239691
 11
5.636166
 21
-0.235460
  0
LINE
  8
L2
  6
CONTINUOUS
 62
3
 10
5.636166
 20
-0.235460
 11
5.635262
 21
-0.231183
  0
LINE
  8
L2
  6
CONTINUOUS
 62
3
 10
5.635262
 20
-0.231183
 11
5.636777
 21
-0.226967
  0
LINE
  8
L2
  6
CONTINUOUS
 62
3
 10
5.636777
 20
-0.226967
 11
5.642923
 21
-0.221491
  0
LINE
  8
L2
  6
CONTINUOUS
 62
3
 10
5.642923
 20
-0.221491
 11
5.650235
 21
-0.219139
  0
LINE
  8
L2
  6
CONTINUOUS
 62
3
 10
5.650235
 20
-0.219139
 11
5.655619
 21
-0.220644
  0
LINE
  8
L2
  6
CONTINUOUS
 62
3
 10
5.655619
 20
-0.220644
 11
5.663232
 21
-0.227213
  0
LINE
  8
L2
  6
CONTINUOUS
 62
3
 10
5.663232
 20
-0.227213
 11
5.665729
 21
-0.231656
  0
LINE
  8
L2
  6
CONTINUOUS
 62
3
 10
5.665729
 20
-0.231656
 11
5.666674
 21
-0.236391
  0
LINE
  8
L2
  6
CONTINUOUS
 62
3
 10
5.666674
 20
-0.236391
 11
5.666674
 21
-0.249738
  0
LINE
  8
L2
  6
CONTINUOUS
 62
3
 10
5.666674
 20
-0.249738
 11
5.740242
 21
-0.249738
  0
LINE
  8
L2
  6
CONTINUOUS
 62
3
 10
5.740242
 20
-0.249738
 11
5.740242
 21
-0.199770
  0
LINE
  8
L2
  6
CONTINUOUS
 62
3
 10
5.740242
 20
-0.199770
 11
5.729958
 21
-0.190574
  0
LINE
  8
L2
  6
CONTINUOUS
 62
3
 10
5.729958
 20
-0.190574
 11
5.719854
 21
-0.184532
  0
LINE
  8
L2
  6
CONTINUOUS
 62
3
 10
5.719854
 20
-0.184532
 11
5.700859
 21
-0.176841
  0
LINE
  8
L2
  6
CONTINUOUS
 62
3
 10
5.700859
 20
-0.176841
 11
5.677254
 21
-0.170799
  0
LINE
  8
L2
  6
CONTINUOUS
 62
3
 10
5.677254
 20
-0.170799
 11
5.662931
 21
-0.168846
  0
LINE
  8
L2
  6
CONTINUOUS
 62
3
 10
5.662931
 20
-0.168846
 11
5.647631
 21
-0.168195
  0
LINE
  8
L2
  6
CONTINUOUS
 62
3
 10
5.647631
 20
-0.168195
 11
5.630643
 21
-0.168856
  0
LINE
  8
L2
  6
CONTINUOUS
 62
3
 10
5.630643
 20
-0.168856
 11
5.608594
 21
-0.172327
  0
LINE
  8
L2
  6
CONTINUOUS
 62
3
 10
5.608594
 20
-0.172327
 11
5.590665
 21
-0.178774
  0
LINE
  8
L2
  6
CONTINUOUS
 62
3
 10
5.590665
 20
-0.178774
 11
5.584517
 21
-0.182866
  0
LINE
  8
L2
  6
CONTINUOUS
 62
3
 10
5.584517
 20
-0.182866
 11
5.574052
 21
-0.194057
  0
LINE
  8
L2
  6
CONTINUOUS
 62
3
 10
5.574052
 20
-0.194057
 11
5.567085
 21
-0.204611
  0
LINE
  8
L2
  6
CONTINUOUS
 62
3
 10
5.567085
 20
-0.204611
 11
5.559309
 21
-0.221519
  0
LINE
  8
L2
  6
CONTINUOUS
 62
3
 10
5.559309
 20
-0.221519
 11
5.557106
 21
-0.229543
  0
LINE
  8
L2
  6
CONTINUOUS
 62
3
 10
5.557106
 20
-0.229543
 11
5.556323
 21
-0.236717
  0
LINE
  8
L2
  6
CONTINUOUS
 62
3
 10
5.556323
 20
-0.236717
 11
5.557091
 21
-0.243575
  0
LINE
  8
L2
  6
CONTINUOUS
 62
3
 10
5.557091
 20
-0.243575
 11
5.561693
 21
-0.256924
  0
LINE
  8
L2
  6
CONTINUOUS
 62
3
 10
5.561693
 20
-0.256924
 11
5.567327
 21
-0.267054
  0
LINE
  8
L2
  6
CONTINUOUS
 62
3
 10
5.567327
 20
-0.267054
 11
5.578210
 21
-0.280433
  0
LINE
  8
L2
  6
CONTINUOUS
 62
3
 10
5.578210
 20
-0.280433
 11
5.584335
 21
-0.285542
  0
LINE
  8
L2
  6
CONTINUOUS
 62
3
 10
5.584335
 20
-0.285542
 11
5.590665
 21
-0.289126
  0
LINE
  8
L2
  6
CONTINUOUS
 62
3
 10
5.590665
 20
-0.289126
 11
5.593174
 21
-0.290195
  0
LINE
  8
L2
  6
CONTINUOUS
 62
3
 10
5.593174
 20
-0.290195
 11
5.601577
 21
-0.292657
  0
LINE
  8
L2
  6
CONTINUOUS
 62
3
 10
5.601577
 20
-0.292657
 11
5.622851
 21
-0.298152
  0
LINE
  8
L2
  6
CONTINUOUS
 62
3
 10
5.622851
 20
-0.298152
 11
5.639867
 21
-0.303052
  0
LINE
  8
L2
  6
CONTINUOUS
 62
3
 10
5.639867
 20
-0.303052
 11
5.651230
 21
-0.307072
  0
LINE
  8
L2
  6
CONTINUOUS
 62
3
 10
5.651230
 20
-0.307072
 11
5.658317
 21
-0.310253
  0
LINE
  8
L2
  6
CONTINUOUS
 62
3
 10
5.658317
 20
-0.310253
 11
5.665917
 21
-0.315262
  0
LINE
  8
L2
  6
CONTINUOUS
 62
3
 10
5.665917
 20
-0.315262
 11
5.669278
 21
-0.320539
  0
LINE
  8
L2
  6
CONTINUOUS
 62
3
 10
5.669278
 20
-0.320539
 11
5.669930
 21
-0.324770
  0
LINE
  8
L2
  6
CONTINUOUS
 62
3
 10
5.669930
 20
-0.324770
 11
5.668437
 21
-0.329824
  0
LINE
  8
L2
  6
CONTINUOUS
 62
3
 10
5.668437
 20
-0.329824
 11
5.662340
 21
-0.336321
  0
LINE
  8
L2
  6
CONTINUOUS
 62
3
 10
5.662340
 20
-0.336321
 11
5.654956
 21
-0.339093
  0
LINE
  8
L2
  6
CONTINUOUS
 62
3
 10
5.654956
 20
-0.339093
 11
5.649333
 21
-0.337407
  0
LINE
  8
L2
  6
CONTINUOUS
 62
3
 10
5.649333
 20
-0.337407
 11
5.641428
 21
-0.330200
  0
LINE
  8
L2
  6
CONTINUOUS
 62
3
 10
5.641428
 20
-0.330200
 11
5.638843
 21
-0.325454
  0
LINE
  8
L2
  6
CONTINUOUS
 62
3
 10
5.638843
 20
-0.325454
 11
5.637866
 21
-0.320539
  0
LINE
  8
L2
  6
CONTINUOUS
 62
3
 10
5.637866
 20
-0.320539
 11
5.637866
 21
-0.304751
  0
LINE
  8
L2
  6
CONTINUOUS
 62
3
 10
5.637866
 20
-0.304751
 11
5.561531
 21
-0.304751
  0
LINE
  8
L2
  6
CONTINUOUS
 62
3
 10
5.866219
 20
-0.223533
 11
5.876635
 21
-0.223533
  0
LINE
  8
L2
  6
CONTINUOUS
 62
3
 10
5.876635
 20
-0.223533
 11
5.876635
 21
-0.333722
  0
LINE
  8
L2
  6
CONTINUOUS
 62
3
 10
5.876635
 20
-0.333722
 11
5.877958
 21
-0.343469
  0
LINE
  8
L2
  6
CONTINUOUS
 62
3
 10
5.877958
 20
-0.343469
 11
5.881085
 21
-0.351971
  0
LINE
  8
L2
  6
CONTINUOUS
 62
3
 10
5.881085
 20
-0.351971
 11
5.890158
 21
-0.365980
  0
LINE
  8
L2
  6
CONTINUOUS
 62
3
 10
5.890158
 20
-0.365980
 11
5.899253
 21
-0.375060
  0
LINE
  8
L2
  6
CONTINUOUS
 62
3
 10
5.899253
 20
-0.375060
 11
5.906962
 21
-0.380674
  0
LINE
  8
L2
  6
CONTINUOUS
 62
3
 10
5.906962
 20
-0.380674
 11
5.919350
 21
-0.386581
  0
LINE
  8
L2
  6
CONTINUOUS
 62
3
 10
5.919350
 20
-0.386581
 11
5.931974
 21
-0.388735
  0
LINE
  8
L2
  6
CONTINUOUS
 62
3
 10
5.931974
 20
-0.388735
 11
5.947995
 21
-0.388410
  0
LINE
  8
L2
  6
CONTINUOUS
 62
3
 10
5.947995
 20
-0.388410
 11
5.968328
 21
-0.386701
  0
LINE
  8
L2
  6
CONTINUOUS
 62
3
 10
5.968328
 20
-0.386701
 11
5.984220
 21
-0.383527
  0
LINE
  8
L2
  6
CONTINUOUS
 62
3
 10
5.984220
 20
-0.383527
 11
5.984220
 21
-0.336164
  0
LINE
  8
L2
  6
CONTINUOUS
 62
3
 10
5.984220
 20
-0.336164
 11
5.973997
 21
-0.333770
  0
LINE
  8
L2
  6
CONTINUOUS
 62
3
 10
5.973997
 20
-0.333770
 11
5.967263
 21
-0.329099
  0
LINE
  8
L2
  6
CONTINUOUS
 62
3
 10
5.967263
 20
-0.329099
 11
5.960317
 21
-0.318832
  0
LINE
  8
L2
  6
CONTINUOUS
 62
3
 10
5.960317
 20
-0.318832
 11
5.958015
 21
-0.307518
  0
LINE
  8
L2
  6
CONTINUOUS
 62
3
 10
5.958015
 20
-0.307518
 11
5.958015
 21
-0.223533
  0
LINE
  8
L2
  6
CONTINUOUS
 62
3
 10
5.958015
 20
-0.223533
 11
5.984220
 21
-0.223533
  0
LINE
  8
L2
  6
CONTINUOUS
 62
3
 10
5.984220
 20
-0.223533
 11
5.984220
 21
-0.176170
  0
LINE
  8
L2
  6
CONTINUOUS
 62
3
 10
5.984220
 20
-0.176170
 11
5.958015
 21
-0.176170
  0
LINE
  8
L2
  6
CONTINUOUS
 62
3
 10
5.958015
 20
-0.176170
 11
5.958015
 21
-0.113182
  0
LINE
  8
L2
  6
CONTINUOUS
 62
3
 10
5.958015
 20
-0.113182
 11
5.876635
 21
-0.134178
  0
LINE
  8
L2
  6
CONTINUOUS
 62
3
 10
5.876635
 20
-0.134178
 11
5.876635
 21
-0.176170
  0
LINE
  8
L2
  6
CONTINUOUS
 62
3
 10
5.876635
 20
-0.176170
 11
5.866219
 21
-0.176170
  0
LINE
  8
L2
  6
CONTINUOUS
 62
3
 10
5.866219
 20
-0.176170
 11
5.866219
 21
-0.223533
  0
LINE
  8
L2
  6
CONTINUOUS
 62
3
 10
6.105151
 20
-0.176170
 11
6.105151
 21
-0.220766
  0
LINE
  8
L2
  6
CONTINUOUS
 62
3
 10
6.105151
 20
-0.220766
 11
6.109319
 21
-0.224754
  0
LINE
  8
L2
  6
CONTINUOUS
 62
3
 10
6.109319
 20
-0.224754
 11
6.113859
 21
-0.233749
  0
LINE
  8
L2
  6
CONTINUOUS
 62
3
 10
6.113859
 20
-0.233749
 11
6.115568
 21
-0.244529
  0
LINE
  8
L2
  6
CONTINUOUS
 62
3
 10
6.115568
 20
-0.244529
 11
6.115568
 21
-0.323143
  0
LINE
  8
L2
  6
CONTINUOUS
 62
3
 10
6.115568
 20
-0.323143
 11
6.116608
 21
-0.335107
  0
LINE
  8
L2
  6
CONTINUOUS
 62
3
 10
6.116608
 20
-0.335107
 11
6.119295
 21
-0.345688
  0
LINE
  8
L2
  6
CONTINUOUS
 62
3
 10
6.119295
 20
-0.345688
 11
6.123028
 21
-0.354619
  0
LINE
  8
L2
  6
CONTINUOUS
 62
3
 10
6.123028
 20
-0.354619
 11
6.132524
 21
-0.368623
  0
LINE
  8
L2
  6
CONTINUOUS
 62
3
 10
6.132524
 20
-0.368623
 11
6.141824
 21
-0.377137
  0
LINE
  8
L2
  6
CONTINUOUS
 62
3
 10
6.141824
 20
-0.377137
 11
6.149765
 21
-0.382123
  0
LINE
  8
L2
  6
CONTINUOUS
 62
3
 10
6.149765
 20
-0.382123
 11
6.162685
 21
-0.387062
  0
LINE
  8
L2
  6
CONTINUOUS
 62
3
 10
6.162685
 20
-0.387062
 11
6.175952
 21
-0.388735
  0
LINE
  8
L2
  6
CONTINUOUS
 62
3
 10
6.175952
 20
-0.388735
 11
6.189438
 21
-0.387367
  0
LINE
  8
L2
  6
CONTINUOUS
 62
3
 10
6.189438
 20
-0.387367
 11
6.210320
 21
-0.381948
  0
LINE
  8
L2
  6
CONTINUOUS
 62
3
 10
6.210320
 20
-0.381948
 11
6.218364
 21
-0.378756
  0
LINE
  8
L2
  6
CONTINUOUS
 62
3
 10
6.218364
 20
-0.378756
 11
6.223152
 21
-0.375877
  0
LINE
  8
L2
  6
CONTINUOUS
 62
3
 10
6.223152
 20
-0.375877
 11
6.223152
 21
-0.386131
  0
LINE
  8
L2
  6
CONTINUOUS
 62
3
 10
6.223152
 20
-0.386131
 11
6.315275
 21
-0.386131
  0
LINE
  8
L2
  6
CONTINUOUS
 62
3
 10
6.315275
 20
-0.386131
 11
6.315275
 21
-0.338768
  0
LINE
  8
L2
  6
CONTINUOUS
 62
3
 10
6.315275
 20
-0.338768
 11
6.311362
 21
-0.334798
  0
LINE
  8
L2
  6
CONTINUOUS
 62
3
 10
6.311362
 20
-0.334798
 11
6.306327
 21
-0.324144
  0
LINE
  8
L2
  6
CONTINUOUS
 62
3
 10
6.306327
 20
-0.324144
 11
6.304525
 21
-0.312726
  0
LINE
  8
L2
  6
CONTINUOUS
 62
3
 10
6.304525
 20
-0.312726
 11
6.304525
 21
-0.176170
  0
LINE
  8
L2
  6
CONTINUOUS
 62
3
 10
6.304525
 20
-0.176170
 11
6.212835
 21
-0.176170
  0
LINE
  8
L2
  6
CONTINUOUS
 62
3
 10
6.212835
 20
-0.176170
 11
6.212835
 21
-0.220766
  0
LINE
  8
L2
  6
CONTINUOUS
 62
3
 10
6.212835
 20
-0.220766
 11
6.216795
 21
-0.224505
  0
LINE
  8
L2
  6
CONTINUOUS
 62
3
 10
6.216795
 20
-0.224505
 11
6.221355
 21
-0.232602
  0
LINE
  8
L2
  6
CONTINUOUS
 62
3
 10
6.221355
 20
-0.232602
 11
6.223152
 21
-0.241763
  0
LINE
  8
L2
  6
CONTINUOUS
 62
3
 10
6.223152
 20
-0.241763
 11
6.223152
 21
-0.328514
  0
LINE
  8
L2
  6
CONTINUOUS
 62
3
 10
6.223152
 20
-0.328514
 11
6.216396
 21
-0.331444
  0
LINE
  8
L2
  6
CONTINUOUS
 62
3
 10
6.216396
 20
-0.331444
 11
6.210869
 21
-0.332420
  0
LINE
  8
L2
  6
CONTINUOUS
 62
3
 10
6.210869
 20
-0.332420
 11
6.207819
 21
-0.331479
  0
LINE
  8
L2
  6
CONTINUOUS
 62
3
 10
6.207819
 20
-0.331479
 11
6.203239
 21
-0.325883
  0
LINE
  8
L2
  6
CONTINUOUS
 62
3
 10
6.203239
 20
-0.325883
 11
6.200520
 21
-0.319097
  0
LINE
  8
L2
  6
CONTINUOUS
 62
3
 10
6.200520
 20
-0.319097
 11
6.197758
 21
-0.306174
  0
LINE
  8
L2
  6
CONTINUOUS
 62
3
 10
6.197758
 20
-0.306174
 11
6.196785
 21
-0.291730
  0
LINE
  8
L2
  6
CONTINUOUS
 62
3
 10
6.196785
 20
-0.291730
 11
6.196785
 21
-0.202537
  0
LINE
  8
L2
  6
CONTINUOUS
 62
3
 10
6.196785
 20
-0.202537
 11
6.194409
 21
-0.187706
  0
LINE
  8
L2
  6
CONTINUOUS
 62
3
 10
6.194409
 20
-0.187706
 11
6.191918
 21
-0.180771
  0
LINE
  8
L2
  6
CONTINUOUS
 62
3
 10
6.191918
 20
-0.180771
 11
6.188985
 21
-0.176170
  0
LINE
  8
L2
  6
CONTINUOUS
 62
3
 10
6.188985
 20
-0.176170
 11
6.105151
 21
-0.176170
  0
LINE
  8
L2
  6
CONTINUOUS
 62
3
 10
6.436043
 20
-0.176170
 11
6.436043
 21
-0.223533
  0
LINE
  8
L2
  6
CONTINUOUS
 62
3
 10
6.436043
 20
-0.223533
 11
6.439931
 21
-0.227605
  0
LINE
  8
L2
  6
CONTINUOUS
 62
3
 10
6.439931
 20
-0.227605
 11
6.445244
 21
-0.237770
  0
LINE
  8
L2
  6
CONTINUOUS
 62
3
 10
6.445244
 20
-0.237770
 11
6.449064
 21
-0.249738
  0
LINE
  8
L2
  6
CONTINUOUS
 62
3
 10
6.449064
 20
-0.249738
 11
6.488452
 21
-0.386131
  0
LINE
  8
L2
  6
CONTINUOUS
 62
3
 10
6.488452
 20
-0.386131
 11
6.583178
 21
-0.386131
  0
LINE
  8
L2
  6
CONTINUOUS
 62
3
 10
6.583178
 20
-0.386131
 11
6.625170
 21
-0.244529
  0
LINE
  8
L2
  6
CONTINUOUS
 62
3
 10
6.625170
 20
-0.244529
 11
6.630501
 21
-0.231224
  0
LINE
  8
L2
  6
CONTINUOUS
 62
3
 10
6.630501
 20
-0.231224
 11
6.634143
 21
-0.226265
  0
LINE
  8
L2
  6
CONTINUOUS
 62
3
 10
6.634143
 20
-0.226265
 11
6.638028
 21
-0.223533
  0
LINE
  8
L2
  6
CONTINUOUS
 62
3
 10
6.638028
 20
-0.223533
 11
6.638028
 21
-0.176170
  0
LINE
  8
L2
  6
CONTINUOUS
 62
3
 10
6.638028
 20
-0.176170
 11
6.548836
 21
-0.176170
  0
LINE
  8
L2
  6
CONTINUOUS
 62
3
 10
6.548836
 20
-0.176170
 11
6.548836
 21
-0.223533
  0
LINE
  8
L2
  6
CONTINUOUS
 62
3
 10
6.548836
 20
-0.223533
 11
6.555305
 21
-0.227969
  0
LINE
  8
L2
  6
CONTINUOUS
 62
3
 10
6.555305
 20
-0.227969
 11
6.557462
 21
-0.234438
  0
LINE
  8
L2
  6
CONTINUOUS
 62
3
 10
6.557462
 20
-0.234438
 11
6.556612
 21
-0.239809
  0
LINE
  8
L2
  6
CONTINUOUS
 62
3
 10
6.556612
 20
-0.239809
 11
6.554062
 21
-0.249738
  0
LINE
  8
L2
  6
CONTINUOUS
 62
3
 10
6.554062
 20
-0.249738
 11
6.541265
 21
-0.302147
  0
LINE
  8
L2
  6
CONTINUOUS
 62
3
 10
6.541265
 20
-0.302147
 11
6.533211
 21
-0.270734
  0
LINE
  8
L2
  6
CONTINUOUS
 62
3
 10
6.533211
 20
-0.270734
 11
6.530291
 21
-0.257683
  0
LINE
  8
L2
  6
CONTINUOUS
 62
3
 10
6.530291
 20
-0.257683
 11
6.528649
 21
-0.249777
  0
LINE
  8
L2
  6
CONTINUOUS
 62
3
 10
6.528649
 20
-0.249777
 11
6.527065
 21
-0.240943
  0
LINE
  8
L2
  6
CONTINUOUS
 62
3
 10
6.527065
 20
-0.240943
 11
6.526538
 21
-0.235740
  0
LINE
  8
L2
  6
CONTINUOUS
 62
3
 10
6.526538
 20
-0.235740
 11
6.528206
 21
-0.228294
  0
LINE
  8
L2
  6
CONTINUOUS
 62
3
 10
6.528206
 20
-0.228294
 11
6.533211
 21
-0.223533
  0
LINE
  8
L2
  6
CONTINUOUS
 62
3
 10
6.533211
 20
-0.223533
 11
6.533211
 21
-0.176170
  0
LINE
  8
L2
  6
CONTINUOUS
 62
3
 10
6.533211
 20
-0.176170
 11
6.436043
 21
-0.176170
  0
LINE
  8
L2
  6
CONTINUOUS
 62
3
 10
6.753588
 20
-0.176170
 11
6.753588
 21
-0.223533
  0
LINE
  8
L2
  6
CONTINUOUS
 62
3
 10
6.753588
 20
-0.223533
 11
6.756518
 21
-0.225670
  0
LINE
  8
L2
  6
CONTINUOUS
 62
3
 10
6.756518
 20
-0.225670
 11
6.761771
 21
-0.232535
  0
LINE
  8
L2
  6
CONTINUOUS
 62
3
 10
6.761771
 20
-0.232535
 11
6.765599
 21
-0.239803
  0
LINE
  8
L2
  6
CONTINUOUS
 62
3
 10
6.765599
 20
-0.239803
 11
6.770727
 21
-0.253127
  0
LINE
  8
L2
  6
CONTINUOUS
 62
3
 10
6.770727
 20
-0.253127
 11
6.774574
 21
-0.268130
  0
LINE
  8
L2
  6
CONTINUOUS
 62
3
 10
6.774574
 20
-0.268130
 11
6.805969
 21
-0.386131
  0
LINE
  8
L2
  6
CONTINUOUS
 62
3
 10
6.805969
 20
-0.386131
 11
6.882263
 21
-0.386131
  0
LINE
  8
L2
  6
CONTINUOUS
 62
3
 10
6.882263
 20
-0.386131
 11
6.905851
 21
-0.307518
  0
LINE
  8
L2
  6
CONTINUOUS
 62
3
 10
6.905851
 20
-0.307518
 11
6.924232
 21
-0.386131
  0
LINE
  8
L2
  6
CONTINUOUS
 62
3
 10
6.924232
 20
-0.386131
 11
7.002803
 21
-0.386131
  0
LINE
  8
L2
  6
CONTINUOUS
 62
3
 10
7.002803
 20
-0.386131
 11
7.026553
 21
-0.299542
  0
LINE
  8
L2
  6
CONTINUOUS
 62
3
 10
7.026553
 20
-0.299542
 11
7.031083
 21
-0.283077
  0
LINE
  8
L2
  6
CONTINUOUS
 62
3
 10
7.031083
 20
-0.283077
 11
7.034770
 21
-0.270385
  0
LINE
  8
L2
  6
CONTINUOUS
 62
3
 10
7.034770
 20
-0.270385
 11
7.040699
 21
-0.252074
  0
LINE
  8
L2
  6
CONTINUOUS
 62
3
 10
7.040699
 20
-0.252074
 11
7.044769
 21
-0.241593
  0
LINE
  8
L2
  6
CONTINUOUS
 62
3
 10
7.044769
 20
-0.241593
 11
7.047627
 21
-0.235530
  0
LINE
  8
L2
  6
CONTINUOUS
 62
3
 10
7.047627
 20
-0.235530
 11
7.051604
 21
-0.229236
  0
LINE
  8
L2
  6
CONTINUOUS
 62
3
 10
7.051604
 20
-0.229236
 11
7.055183
 21
-0.226138
  0
LINE
  8
L2
  6
CONTINUOUS
 62
3
 10
7.055183
 20
-0.226138
 11
7.055183
 21
-0.176170
  0
LINE
  8
L2
  6
CONTINUOUS
 62
3
 10
7.055183
 20
-0.176170
 11
6.968803
 21
-0.176170
  0
LINE
  8
L2
  6
CONTINUOUS
 62
3
 10
6.968803
 20
-0.176170
 11
6.968803
 21
-0.223533
  0
LINE
  8
L2
  6
CONTINUOUS
 62
3
 10
6.968803
 20
-0.223533
 11
6.975391
 21
-0.227480
  0
LINE
  8
L2
  6
CONTINUOUS
 62
3
 10
6.975391
 20
-0.227480
 11
6.977587
 21
-0.234438
  0
LINE
  8
L2
  6
CONTINUOUS
 62
3
 10
6.977587
 20
-0.234438
 11
6.976652
 21
-0.241478
  0
LINE
  8
L2
  6
CONTINUOUS
 62
3
 10
6.976652
 20
-0.241478
 11
6.973846
 21
-0.252179
  0
LINE
  8
L2
  6
CONTINUOUS
 62
3
 10
6.973846
 20
-0.252179
 11
6.966202
 21
-0.281151
  0
LINE
  8
L2
  6
CONTINUOUS
 62
3
 10
6.966202
 20
-0.281151
 11
6.937246
 21
-0.176170
  0
LINE
  8
L2
  6
CONTINUOUS
 62
3
 10
6.937246
 20
-0.176170
 11
6.884865
 21
-0.176170
  0
LINE
  8
L2
  6
CONTINUOUS
 62
3
 10
6.884865
 20
-0.176170
 11
6.855909
 21
-0.281151
  0
LINE
  8
L2
  6
CONTINUOUS
 62
3
 10
6.855909
 20
-0.281151
 11
6.850540
 21
-0.254783
  0
LINE
  8
L2
  6
CONTINUOUS
 62
3
 10
6.850540
 20
-0.254783
 11
6.848833
 21
-0.245262
  0
LINE
  8
L2
  6
CONTINUOUS
 62
3
 10
6.848833
 20
-0.245262
 11
6.848264
 21
-0.238182
  0
LINE
  8
L2
  6
CONTINUOUS
 62
3
 10
6.848264
 20
-0.238182
 11
6.849026
 21
-0.234237
  0
LINE
  8
L2
  6
CONTINUOUS
 62
3
 10
6.849026
 20
-0.234237
 11
6.852575
 21
-0.227851
  0
LINE
  8
L2
  6
CONTINUOUS
 62
3
 10
6.852575
 20
-0.227851
 11
6.855909
 21
-0.223533
  0
LINE
  8
L2
  6
CONTINUOUS
 62
3
 10
6.855909
 20
-0.223533
 11
6.855909
 21
-0.176170
  0
LINE
  8
L2
  6
CONTINUOUS
 62
3
 10
6.855909
 20
-0.176170
 11
6.753588
 21
-0.176170
  0
LINE
  8
L2
  6
CONTINUOUS
 62
3
 10
7.170906
 20
-0.176170
 11
7.170906
 21
-0.226138
  0
LINE
  8
L2
  6
CONTINUOUS
 62
3
 10
7.170906
 20
-0.226138
 11
7.179319
 21
-0.229515
  0
LINE
  8
L2
  6
CONTINUOUS
 62
3
 10
7.179319
 20
-0.229515
 11
7.185668
 21
-0.233703
  0
LINE
  8
L2
  6
CONTINUOUS
 62
3
 10
7.185668
 20
-0.233703
 11
7.195257
 21
-0.242647
  0
LINE
  8
L2
  6
CONTINUOUS
 62
3
 10
7.195257
 20
-0.242647
 11
7.204923
 21
-0.254783
  0
LINE
  8
L2
  6
CONTINUOUS
 62
3
 10
7.204923
 20
-0.254783
 11
7.223315
 21
-0.278384
  0
LINE
  8
L2
  6
CONTINUOUS
 62
3
 10
7.223315
 20
-0.278384
 11
7.199715
 21
-0.310122
  0
LINE
  8
L2
  6
CONTINUOUS
 62
3
 10
7.199715
 20
-0.310122
 11
7.190315
 21
-0.321075
  0
LINE
  8
L2
  6
CONTINUOUS
 62
3
 10
7.190315
 20
-0.321075
 11
7.184137
 21
-0.327819
  0
LINE
  8
L2
  6
CONTINUOUS
 62
3
 10
7.184137
 20
-0.327819
 11
7.176454
 21
-0.335185
  0
LINE
  8
L2
  6
CONTINUOUS
 62
3
 10
7.176454
 20
-0.335185
 11
7.170906
 21
-0.338768
  0
LINE
  8
L2
  6
CONTINUOUS
 62
3
 10
7.170906
 20
-0.338768
 11
7.170906
 21
-0.386131
  0
LINE
  8
L2
  6
CONTINUOUS
 62
3
 10
7.170906
 20
-0.386131
 11
7.246915
 21
-0.386131
  0
LINE
  8
L2
  6
CONTINUOUS
 62
3
 10
7.246915
 20
-0.386131
 11
7.246915
 21
-0.373110
  0
LINE
  8
L2
  6
CONTINUOUS
 62
3
 10
7.246915
 20
-0.373110
 11
7.247856
 21
-0.361330
  0
LINE
  8
L2
  6
CONTINUOUS
 62
3
 10
7.247856
 20
-0.361330
 11
7.252462
 21
-0.344748
  0
LINE
  8
L2
  6
CONTINUOUS
 62
3
 10
7.252462
 20
-0.344748
 11
7.260262
 21
-0.331118
  0
LINE
  8
L2
  6
CONTINUOUS
 62
3
 10
7.260262
 20
-0.331118
 11
7.266642
 21
-0.339378
  0
LINE
  8
L2
  6
CONTINUOUS
 62
3
 10
7.266642
 20
-0.339378
 11
7.273500
 21
-0.354839
  0
LINE
  8
L2
  6
CONTINUOUS
 62
3
 10
7.273500
 20
-0.354839
 11
7.276049
 21
-0.370506
  0
LINE
  8
L2
  6
CONTINUOUS
 62
3
 10
7.276049
 20
-0.370506
 11
7.276049
 21
-0.386131
  0
LINE
  8
L2
  6
CONTINUOUS
 62
3
 10
7.276049
 20
-0.386131
 11
7.367683
 21
-0.386131
  0
LINE
  8
L2
  6
CONTINUOUS
 62
3
 10
7.367683
 20
-0.386131
 11
7.367683
 21
-0.338768
  0
LINE
  8
L2
  6
CONTINUOUS
 62
3
 10
7.367683
 20
-0.338768
 11
7.363533
 21
-0.336380
  0
LINE
  8
L2
  6
CONTINUOUS
 62
3
 10
7.363533
 20
-0.336380
 11
7.355762
 21
-0.328921
  0
LINE
  8
L2
  6
CONTINUOUS
 62
3
 10
7.355762
 20
-0.328921
 11
7.346687
 21
-0.317772
  0
LINE
  8
L2
  6
CONTINUOUS
 62
3
 10
7.346687
 20
-0.317772
 11
7.318041
 21
-0.278384
  0
LINE
  8
L2
  6
CONTINUOUS
 62
3
 10
7.318041
 20
-0.278384
 11
7.344246
 21
-0.247134
  0
LINE
  8
L2
  6
CONTINUOUS
 62
3
 10
7.344246
 20
-0.247134
 11
7.348595
 21
-0.241592
  0
LINE
  8
L2
  6
CONTINUOUS
 62
3
 10
7.348595
 20
-0.241592
 11
7.358465
 21
-0.231387
  0
LINE
  8
L2
  6
CONTINUOUS
 62
3
 10
7.358465
 20
-0.231387
 11
7.363484
 21
-0.226841
  0
LINE
  8
L2
  6
CONTINUOUS
 62
3
 10
7.363484
 20
-0.226841
 11
7.367683
 21
-0.223533
  0
LINE
  8
L2
  6
CONTINUOUS
 62
3
 10
7.367683
 20
-0.223533
 11
7.367683
 21
-0.176170
  0
LINE
  8
L2
  6
CONTINUOUS
 62
3
 10
7.367683
 20
-0.176170
 11
7.286303
 21
-0.176170
  0
LINE
  8
L2
  6
CONTINUOUS
 62
3
 10
7.286303
 20
-0.176170
 11
7.286303
 21
-0.191795
  0
LINE
  8
L2
  6
CONTINUOUS
 62
3
 10
7.286303
 20
-0.191795
 11
7.285482
 21
-0.200365
  0
LINE
  8
L2
  6
CONTINUOUS
 62
3
 10
7.285482
 20
-0.200365
 11
7.281193
 21
-0.214127
  0
LINE
  8
L2
  6
CONTINUOUS
 62
3
 10
7.281193
 20
-0.214127
 11
7.273282
 21
-0.226138
  0
LINE
  8
L2
  6
CONTINUOUS
 62
3
 10
7.273282
 20
-0.226138
 11
7.268608
 21
-0.218345
  0
LINE
  8
L2
  6
CONTINUOUS
 62
3
 10
7.268608
 20
-0.218345
 11
7.264162
 21
-0.204864
  0
LINE
  8
L2
  6
CONTINUOUS
 62
3
 10
7.264162
 20
-0.204864
 11
7.262703
 21
-0.191795
  0
LINE
  8
L2
  6
CONTINUOUS
 62
3
 10
7.262703
 20
-0.191795
 11
7.262703
 21
-0.176170
  0
LINE
  8
L2
  6
CONTINUOUS
 62
3
 10
7.262703
 20
-0.176170
 11
7.170906
 21
-0.176170
  0
LINE
  8
L2
  6
CONTINUOUS
 62
3
 10
7.483243
 20
-0.176170
 11
7.483243
 21
-0.223533
  0
LINE
  8
L2
  6
CONTINUOUS
 62
3
 10
7.483243
 20
-0.223533
 11
7.486375
 21
-0.226120
  0
LINE
  8
L2
  6
CONTINUOUS
 62
3
 10
7.486375
 20
-0.226120
 11
7.492502
 21
-0.234626
  0
LINE
  8
L2
  6
CONTINUOUS
 62
3
 10
7.492502
 20
-0.234626
 11
7.497100
 21
-0.243704
  0
LINE
  8
L2
  6
CONTINUOUS
 62
3
 10
7.497100
 20
-0.243704
 11
7.503629
 21
-0.260411
  0
LINE
  8
L2
  6
CONTINUOUS
 62
3
 10
7.503629
 20
-0.260411
 11
7.509610
 21
-0.278384
  0
LINE
  8
L2
  6
CONTINUOUS
 62
3
 10
7.509610
 20
-0.278384
 11
7.548999
 21
-0.388735
  0
LINE
  8
L2
  6
CONTINUOUS
 62
3
 10
7.548999
 20
-0.388735
 11
7.544940
 21
-0.397921
  0
LINE
  8
L2
  6
CONTINUOUS
 62
3
 10
7.544940
 20
-0.397921
 11
7.540200
 21
-0.403088
  0
LINE
  8
L2
  6
CONTINUOUS
 62
3
 10
7.540200
 20
-0.403088
 11
7.530365
 21
-0.408070
  0
LINE
  8
L2
  6
CONTINUOUS
 62
3
 10
7.530365
 20
-0.408070
 11
7.517260
 21
-0.409731
  0
LINE
  8
L2
  6
CONTINUOUS
 62
3
 10
7.517260
 20
-0.409731
 11
7.517260
 21
-0.457095
  0
LINE
  8
L2
  6
CONTINUOUS
 62
3
 10
7.517260
 20
-0.457095
 11
7.524996
 21
-0.459681
  0
LINE
  8
L2
  6
CONTINUOUS
 62
3
 10
7.524996
 20
-0.459681
 11
7.540978
 21
-0.463003
  0
LINE
  8
L2
  6
CONTINUOUS
 62
3
 10
7.540978
 20
-0.463003
 11
7.548847
 21
-0.464036
  0
LINE
  8
L2
  6
CONTINUOUS
 62
3
 10
7.548847
 20
-0.464036
 11
7.555346
 21
-0.464419
  0
LINE
  8
L2
  6
CONTINUOUS
 62
3
 10
7.555346
 20
-0.464419
 11
7.571297
 21
-0.463198
  0
LINE
  8
L2
  6
CONTINUOUS
 62
3
 10
7.571297
 20
-0.463198
 11
7.585620
 21
-0.459536
  0
LINE
  8
L2
  6
CONTINUOUS
 62
3
 10
7.585620
 20
-0.459536
 11
7.592182
 21
-0.456244
  0
LINE
  8
L2
  6
CONTINUOUS
 62
3
 10
7.592182
 20
-0.456244
 11
7.603716
 21
-0.446789
  0
LINE
  8
L2
  6
CONTINUOUS
 62
3
 10
7.603716
 20
-0.446789
 11
7.611816
 21
-0.436792
  0
LINE
  8
L2
  6
CONTINUOUS
 62
3
 10
7.611816
 20
-0.436792
 11
7.622299
 21
-0.417980
  0
LINE
  8
L2
  6
CONTINUOUS
 62
3
 10
7.622299
 20
-0.417980
 11
7.630379
 21
-0.396385
  0
LINE
  8
L2
  6
CONTINUOUS
 62
3
 10
7.630379
 20
-0.396385
 11
7.672371
 21
-0.265526
  0
LINE
  8
L2
  6
CONTINUOUS
 62
3
 10
7.672371
 20
-0.265526
 11
7.675849
 21
-0.253982
  0
LINE
  8
L2
  6
CONTINUOUS
 62
3
 10
7.675849
 20
-0.253982
 11
7.682840
 21
-0.235234
  0
LINE
  8
L2
  6
CONTINUOUS
 62
3
 10
7.682840
 20
-0.235234
 11
7.686767
 21
-0.227960
  0
LINE
  8
L2
  6
CONTINUOUS
 62
3
 10
7.686767
 20
-0.227960
 11
7.690600
 21
-0.223533
  0
LINE
  8
L2
  6
CONTINUOUS
 62
3
 10
7.690600
 20
-0.223533
 11
7.690600
 21
-0.176170
  0
LINE
  8
L2
  6
CONTINUOUS
 62
3
 10
7.690600
 20
-0.176170
 11
7.601245
 21
-0.176170
  0
LINE
  8
L2
  6
CONTINUOUS
 62
3
 10
7.601245
 20
-0.176170
 11
7.601245
 21
-0.223533
  0
LINE
  8
L2
  6
CONTINUOUS
 62
3
 10
7.601245
 20
-0.223533
 11
7.604947
 21
-0.224642
  0
LINE
  8
L2
  6
CONTINUOUS
 62
3
 10
7.604947
 20
-0.224642
 11
7.608518
 21
-0.228022
  0
LINE
  8
L2
  6
CONTINUOUS
 62
3
 10
7.608518
 20
-0.228022
 11
7.609708
 21
-0.233462
  0
LINE
  8
L2
  6
CONTINUOUS
 62
3
 10
7.609708
 20
-0.233462
 11
7.609061
 21
-0.238266
  0
LINE
  8
L2
  6
CONTINUOUS
 62
3
 10
7.609061
 20
-0.238266
 11
7.606325
 21
-0.250390
  0
LINE
  8
L2
  6
CONTINUOUS
 62
3
 10
7.606325
 20
-0.250390
 11
7.604858
 21
-0.256389
  0
LINE
  8
L2
  6
CONTINUOUS
 62
3
 10
7.604858
 20
-0.256389
 11
7.603984
 21
-0.260154
  0
LINE
  8
L2
  6
CONTINUOUS
 62
3
 10
7.603984
 20
-0.260154
 11
7.595970
 21
-0.294171
  0
LINE
  8
L2
  6
CONTINUOUS
 62
3
 10
7.595970
 20
-0.294171
 11
7.585490
 21
-0.260154
  0
LINE
  8
L2
  6
CONTINUOUS
 62
3
 10
7.585490
 20
-0.260154
 11
7.584163
 21
-0.254549
  0
LINE
  8
L2
  6
CONTINUOUS
 62
3
 10
7.584163
 20
-0.254549
 11
7.581158
 21
-0.241946
  0
LINE
  8
L2
  6
CONTINUOUS
 62
3
 10
7.581158
 20
-0.241946
 11
7.580130
 21
-0.236796
  0
LINE
  8
L2
  6
CONTINUOUS
 62
3
 10
7.580130
 20
-0.236796
 11
7.579760
 21
-0.233462
  0
LINE
  8
L2
  6
CONTINUOUS
 62
3
 10
7.579760
 20
-0.233462
 11
7.580289
 21
-0.229606
  0
LINE
  8
L2
  6
CONTINUOUS
 62
3
 10
7.580289
 20
-0.229606
 11
7.583066
 21
-0.225540
  0
LINE
  8
L2
  6
CONTINUOUS
 62
3
 10
7.583066
 20
-0.225540
 11
7.588224
 21
-0.223533
  0
LINE
  8
L2
  6
CONTINUOUS
 62
3
 10
7.588224
 20
-0.223533
 11
7.588224
 21
-0.176170
  0
LINE
  8
L2
  6
CONTINUOUS
 62
3
 10
7.588224
 20
-0.176170
 11
7.483243
 21
-0.176170
  0
LINE
  8
L2
  6
CONTINUOUS
 62
3
 10
7.803393
 20
-0.176170
 11
7.803393
 21
-0.254783
  0
LINE
  8
L2
  6
CONTINUOUS
 62
3
 10
7.803393
 20
-0.254783
 11
7.863665
 21
-0.254783
  0
LINE
  8
L2
  6
CONTINUOUS
 62
3
 10
7.863665
 20
-0.254783
 11
7.863665
 21
-0.241763
  0
LINE
  8
L2
  6
CONTINUOUS
 62
3
 10
7.863665
 20
-0.241763
 11
7.864660
 21
-0.235440
  0
LINE
  8
L2
  6
CONTINUOUS
 62
3
 10
7.864660
 20
-0.235440
 11
7.869193
 21
-0.229037
  0
LINE
  8
L2
  6
CONTINUOUS
 62
3
 10
7.869193
 20
-0.229037
 11
7.876045
 21
-0.226789
  0
LINE
  8
L2
  6
CONTINUOUS
 62
3
 10
7.876045
 20
-0.226789
 11
7.882398
 21
-0.226789
  0
LINE
  8
L2
  6
CONTINUOUS
 62
3
 10
7.882398
 20
-0.226789
 11
7.888101
 21
-0.226626
  0
LINE
  8
L2
  6
CONTINUOUS
 62
3
 10
7.888101
 20
-0.226626
 11
7.892499
 21
-0.226138
  0
LINE
  8
L2
  6
CONTINUOUS
 62
3
 10
7.892499
 20
-0.226138
 11
7.803393
 21
-0.336164
  0
LINE
  8
L2
  6
CONTINUOUS
 62
3
 10
7.803393
 20
-0.336164
 11
7.803393
 21
-0.386131
  0
LINE
  8
L2
  6
CONTINUOUS
 62
3
 10
7.803393
 20
-0.386131
 11
7.995125
 21
-0.386131
  0
LINE
  8
L2
  6
CONTINUOUS
 62
3
 10
7.995125
 20
-0.386131
 11
7.995125
 21
-0.304751
  0
LINE
  8
L2
  6
CONTINUOUS
 62
3
 10
7.995125
 20
-0.304751
 11
7.934527
 21
-0.304751
  0
LINE
  8
L2
  6
CONTINUOUS
 62
3
 10
7.934527
 20
-0.304751
 11
7.934527
 21
-0.317772
  0
LINE
  8
L2
  6
CONTINUOUS
 62
3
 10
7.934527
 20
-0.317772
 11
7.933305
 21
-0.325622
  0
LINE
  8
L2
  6
CONTINUOUS
 62
3
 10
7.933305
 20
-0.325622
 11
7.930996
 21
-0.330316
  0
LINE
  8
L2
  6
CONTINUOUS
 62
3
 10
7.930996
 20
-0.330316
 11
7.925849
 21
-0.335114
  0
LINE
  8
L2
  6
CONTINUOUS
 62
3
 10
7.925849
 20
-0.335114
 11
7.919378
 21
-0.336815
  0
LINE
  8
L2
  6
CONTINUOUS
 62
3
 10
7.919378
 20
-0.336815
 11
7.916511
 21
-0.336713
  0
LINE
  8
L2
  6
CONTINUOUS
 62
3
 10
7.916511
 20
-0.336713
 11
7.909300
 21
-0.336370
  0
LINE
  8
L2
  6
CONTINUOUS
 62
3
 10
7.909300
 20
-0.336370
 11
7.903086
 21
-0.336164
  0
LINE
  8
L2
  6
CONTINUOUS
 62
3
 10
7.903086
 20
-0.336164
 11
7.995125
 21
-0.223533
  0
LINE
  8
L2
  6
CONTINUOUS
 62
3
 10
7.995125
 20
-0.223533
 11
7.995125
 21
-0.176170
  0
LINE
  8
L2
  6
CONTINUOUS
 62
3
 10
7.995125
 20
-0.176170
 11
7.803393
 21
-0.176170
  0
LINE
  8
L2
  6
CONTINUOUS
 62
3
 10
0.026863
 20
-0.500161
 11
0.026863
 21
-0.552407
  0
LINE
  8
L2
  6
CONTINUOUS
 62
3
 10
0.026863
 20
-0.552407
 11
0.031375
 21
-0.555184
  0
LINE
  8
L2
  6
CONTINUOUS
 62
3
 10
0.031375
 20
-0.555184
 11
0.035786
 21
-0.563470
  0
LINE
  8
L2
  6
CONTINUOUS
 62
3
 10
0.035786
 20
-0.563470
 11
0.037280
 21
-0.573403
  0
LINE
  8
L2
  6
CONTINUOUS
 62
3
 10
0.037280
 20
-0.573403
 11
0.037280
 21
-0.712726
  0
LINE
  8
L2
  6
CONTINUOUS
 62
3
 10
0.037280
 20
-0.712726
 11
0.034696
 21
-0.724872
  0
LINE
  8
L2
  6
CONTINUOUS
 62
3
 10
0.034696
 20
-0.724872
 11
0.031443
 21
-0.730098
  0
LINE
  8
L2
  6
CONTINUOUS
 62
3
 10
0.031443
 20
-0.730098
 11
0.026863
 21
-0.733722
  0
LINE
  8
L2
  6
CONTINUOUS
 62
3
 10
0.026863
 20
-0.733722
 11
0.026863
 21
-0.786131
  0
LINE
  8
L2
  6
CONTINUOUS
 62
3
 10
0.026863
 20
-0.786131
 11
0.137215
 21
-0.786131
  0
LINE
  8
L2
  6
CONTINUOUS
 62
3
 10
0.137215
 20
-0.786131
 11
0.137215
 21
-0.733722
  0
LINE
  8
L2
  6
CONTINUOUS
 62
3
 10
0.137215
 20
-0.733722
 11
0.132515
 21
-0.730457
  0
LINE
  8
L2
  6
CONTINUOUS
 62
3
 10
0.132515
 20
-0.730457
 11
0.127983
 21
-0.723079
  0
LINE
  8
L2
  6
CONTINUOUS
 62
3
 10
0.127983
 20
-0.723079
 11
0.126472
 21
-0.712726
  0
LINE
  8
L2
  6
CONTINUOUS
 62
3
 10
0.126472
 20
-0.712726
 11
0.126472
 21
-0.500161
  0
LINE
  8
L2
  6
CONTINUOUS
 62
3
 10
0.126472
 20
-0.500161
 11
0.026863
 21
-0.500161
  0
LINE
  8
L2
  6
CONTINUOUS
 62
3
 10
0.370776
 20
-0.602537
 11
0.370776
 21
-0.584145
  0
LINE
  8
L2
  6
CONTINUOUS
 62
3
 10
0.370776
 20
-0.584145
 11
0.372088
 21
-0.572610
  0
LINE
  8
L2
  6
CONTINUOUS
 62
3
 10
0.372088
 20
-0.572610
 11
0.374795
 21
-0.566121
  0
LINE
  8
L2
  6
CONTINUOUS
 62
3
 10
0.374795
 20
-0.566121
 11
0.381622
 21
-0.559864
  0
LINE
  8
L2
  6
CONTINUOUS
 62
3
 10
0.381622
 20
-0.559864
 11
0.391772
 21
-0.557778
  0
LINE
  8
L2
  6
CONTINUOUS
 62
3
 10
0.391772
 20
-0.557778
 11
0.398404
 21
-0.560036
  0
LINE
  8
L2
  6
CONTINUOUS
 62
3
 10
0.398404
 20
-0.560036
 11
0.403035
 21
-0.564063
  0
LINE
  8
L2
  6
CONTINUOUS
 62
3
 10
0.403035
 20
-0.564063
 11
0.408380
 21
-0.572188
  0
LINE
  8
L2
  6
CONTINUOUS
 62
3
 10
0.408380
 20
-0.572188
 11
0.410489
 21
-0.580727
  0
LINE
  8
L2
  6
CONTINUOUS
 62
3
 10
0.410489
 20
-0.580727
 11
0.409147
 21
-0.589883
  0
LINE
  8
L2
  6
CONTINUOUS
 62
3
 10
0.409147
 20
-0.589883
 11
0.405118
 21
-0.597166
  0
LINE
  8
L2
  6
CONTINUOUS
 62
3
 10
0.405118
 20
-0.597166
 11
0.401087
 21
-0.600620
  0
LINE
  8
L2
  6
CONTINUOUS
 62
3
 10
0.401087
 20
-0.600620
 11
0.394875
 21
-0.604654
  0
LINE
  8
L2
  6
CONTINUOUS
 62
3
 10
0.394875
 20
-0.604654
 11
0.387666
 21
-0.608820
  0
LINE
  8
L2
  6
CONTINUOUS
 62
3
 10
0.387666
 20
-0.608820
 11
0.371898
 21
-0.617198
  0
LINE
  8
L2
  6
CONTINUOUS
 62
3
 10
0.371898
 20
-0.617198
 11
0.344717
 21
-0.630859
  0
LINE
  8
L2
  6
CONTINUOUS
 62
3
 10
0.344717
 20
-0.630859
 11
0.332407
 21
-0.637063
  0
LINE
  8
L2
  6
CONTINUOUS
 62
3
 10
0.332407
 20
-0.637063
 11
0.323575
 21
-0.641763
  0
LINE
  8
L2
  6
CONTINUOUS
 62
3
 10
0.323575
 20
-0.641763
 11
0.314941
 21
-0.648136
  0
LINE
  8
L2
  6
CONTINUOUS
 62
3
 10
0.314941
 20
-0.648136
 11
0.301503
 21
-0.662661
  0
LINE
  8
L2
  6
CONTINUOUS
 62
3
 10
0.301503
 20
-0.662661
 11
0.293234
 21
-0.675301
  0
LINE
  8
L2
  6
CONTINUOUS
 62
3
 10
0.293234
 20
-0.675301
 11
0.284568
 21
-0.694939
  0
LINE
  8
L2
  6
CONTINUOUS
 62
3
 10
0.284568
 20
-0.694939
 11
0.282232
 21
-0.704252
  0
LINE
  8
L2
  6
CONTINUOUS
 62
3
 10
0.282232
 20
-0.704252
 11
0.281420
 21
-0.712726
  0
LINE
  8
L2
  6
CONTINUOUS
 62
3
 10
0.281420
 20
-0.712726
 11
0.281420
 21
-0.786131
  0
LINE
  8
L2
  6
CONTINUOUS
 62
3
 10
0.281420
 20
-0.786131
 11
0.494148
 21
-0.786131
  0
LINE
  8
L2
  6
CONTINUOUS
 62
3
 10
0.494148
 20
-0.786131
 11
0.494148
 21
-0.696776
  0
LINE
  8
L2
  6
CONTINUOUS
 62
3
 10
0.494148
 20
-0.696776
 11
0.410164
 21
-0.696776
  0
LINE
  8
L2
  6
CONTINUOUS
 62
3
 10
0.410164
 20
-0.696776
 11
0.408893
 21
-0.703741
  0
LINE
  8
L2
  6
CONTINUOUS
 62
3
 10
0.408893
 20
-0.703741
 11
0.403723
 21
-0.714604
  0
LINE
  8
L2
  6
CONTINUOUS
 62
3
 10
0.403723
 20
-0.714604
 11
0.397949
 21
-0.720930
  0
LINE
  8
L2
  6
CONTINUOUS
 62
3
 10
0.397949
 20
-0.720930
 11
0.387464
 21
-0.726801
  0
LINE
  8
L2
  6
CONTINUOUS
 62
3
 10
0.387464
 20
-0.726801
 11
0.376472
 21
-0.728514
  0
LINE
  8
L2
  6
CONTINUOUS
 62
3
 10
0.376472
 20
-0.728514
 11
0.368172
 21
-0.728514
  0
LINE
  8
L2
  6
CONTINUOUS
 62
3
 10
0.368172
 20
-0.728514
 11
0.369484
 21
-0.717863
  0
LINE
  8
L2
  6
CONTINUOUS
 62
3
 10
0.369484
 20
-0.717863
 11
0.372190
 21
-0.711063
  0
LINE
  8
L2
  6
CONTINUOUS
 62
3
 10
0.372190
 20
-0.711063
 11
0.379018
 21
-0.702774
  0
LINE
  8
L2
  6
CONTINUOUS
 62
3
 10
0.379018
 20
-0.702774
 11
0.389168
 21
-0.696776
  0
LINE
  8
L2
  6
CONTINUOUS
 62
3
 10
0.389168
 20
-0.696776
 11
0.396448
 21
-0.693414
  0
LINE
  8
L2
  6
CONTINUOUS
 62
3
 10
0.396448
 20
-0.693414
 11
0.404726
 21
-0.689543
  0
LINE
  8
L2
  6
CONTINUOUS
 62
3
 10
0.404726
 20
-0.689543
 11
0.439274
 21
-0.672843
  0
LINE
  8
L2
  6
CONTINUOUS
 62
3
 10
0.439274
 20
-0.672843
 11
0.454113
 21
-0.665222
  0
LINE
  8
L2
  6
CONTINUOUS
 62
3
 10
0.454113
 20
-0.665222
 11
0.459477
 21
-0.662266
  0
LINE
  8
L2
  6
CONTINUOUS
 62
3
 10
0.459477
 20
-0.662266
 11
0.462898
 21
-0.660154
  0
LINE
  8
L2
  6
CONTINUOUS
 62
3
 10
0.462898
 20
-0.660154
 11
0.469948
 21
-0.654187
  0
LINE
  8
L2
  6
CONTINUOUS
 62
3
 10
0.469948
 20
-0.654187
 11
0.481646
 21
-0.639331
  0
LINE
  8
L2
  6
CONTINUOUS
 62
3
 10
0.481646
 20
-0.639331
 11
0.489272
 21
-0.625857
  0
LINE
  8
L2
  6
CONTINUOUS
 62
3
 10
0.489272
 20
-0.625857
 11
0.497648
 21
-0.604594
  0
LINE
  8
L2
  6
CONTINUOUS
 62
3
 10
0.497648
 20
-0.604594
 11
0.499992
 21
-0.594519
  0
LINE
  8
L2
  6
CONTINUOUS
 62
3
 10
0.499992
 20
-0.594519
 11
0.500821
 21
-0.585447
  0
LINE
  8
L2
  6
CONTINUOUS
 62
3
 10
0.500821
 20
-0.585447
 11
0.499424
 21
-0.573855
  0
LINE
  8
L2
  6
CONTINUOUS
 62
3
 10
0.499424
 20
-0.573855
 11
0.495926
 21
-0.561925
  0
LINE
  8
L2
  6
CONTINUOUS
 62
3
 10
0.495926
 20
-0.561925
 11
0.491172
 21
-0.550950
  0
LINE
  8
L2
  6
CONTINUOUS
 62
3
 10
0.491172
 20
-0.550950
 11
0.479366
 21
-0.532278
  0
LINE
  8
L2
  6
CONTINUOUS
 62
3
 10
0.479366
 20
-0.532278
 11
0.468109
 21
-0.519968
  0
LINE
  8
L2
  6
CONTINUOUS
 62
3
 10
0.468109
 20
-0.519968
 11
0.458769
 21
-0.512267
  0
LINE
  8
L2
  6
CONTINUOUS
 62
3
 10
0.458769
 20
-0.512267
 11
0.444336
 21
-0.503903
  0
LINE
  8
L2
  6
CONTINUOUS
 62
3
 10
0.444336
 20
-0.503903
 11
0.437443
 21
-0.501401
  0
LINE
  8
L2
  6
CONTINUOUS
 62
3
 10
0.437443
 20
-0.501401
 11
0.431160
 21
-0.500161
  0
LINE
  8
L2
  6
CONTINUOUS
 62
3
 10
0.431160
 20
-0.500161
 11
0.394539
 21
-0.498208
  0
LINE
  8
L2
  6
CONTINUOUS
 62
3
 10
0.394539
 20
-0.498208
 11
0.382185
 21
-0.498784
  0
LINE
  8
L2
  6
CONTINUOUS
 62
3
 10
0.382185
 20
-0.498784
 11
0.369304
 21
-0.500253
  0
LINE
  8
L2
  6
CONTINUOUS
 62
3
 10
0.369304
 20
-0.500253
 11
0.344371
 21
-0.504923
  0
LINE
  8
L2
  6
CONTINUOUS
 62
3
 10
0.344371
 20
-0.504923
 11
0.325563
 21
-0.509960
  0
LINE
  8
L2
  6
CONTINUOUS
 62
3
 10
0.325563
 20
-0.509960
 11
0.312409
 21
-0.514389
  0
LINE
  8
L2
  6
CONTINUOUS
 62
3
 10
0.312409
 20
-0.514389
 11
0.295654
 21
-0.521621
  0
LINE
  8
L2
  6
CONTINUOUS
 62
3
 10
0.295654
 20
-0.521621
 11
0.289142
 21
-0.525279
  0
LINE
  8
L2
  6
CONTINUOUS
 62
3
 10
0.289142
 20
-0.525279
 11
0.284187
 21
-0.528807
  0
LINE
  8
L2
  6
CONTINUOUS
 62
3
 10
0.284187
 20
-0.528807
 11
0.284187
 21
-0.602537
  0
LINE
  8
L2
  6
CONTINUOUS
 62
3
 10
0.284187
 20
-0.602537
 11
0.370776
 21
-0.602537
  0
LINE
  8
L2
  6
CONTINUOUS
 62
3
 10
0.633308
 20
-0.526203
 11
0.633308
 21
-0.594399
  0
LINE
  8
L2
  6
CONTINUOUS
 62
3
 10
0.633308
 20
-0.594399
 11
0.717293
 21
-0.594399
  0
LINE
  8
L2
  6
CONTINUOUS
 62
3
 10
0.717293
 20
-0.594399
 11
0.717293
 21
-0.576170
  0
LINE
  8
L2
  6
CONTINUOUS
 62
3
 10
0.717293
 20
-0.576170
 11
0.719062
 21
-0.569385
  0
LINE
  8
L2
  6
CONTINUOUS
 62
3
 10
0.719062
 20
-0.569385
 11
0.726270
 21
-0.560390
  0
LINE
  8
L2
  6
CONTINUOUS
 62
3
 10
0.726270
 20
-0.560390
 11
0.730705
 21
-0.557540
  0
LINE
  8
L2
  6
CONTINUOUS
 62
3
 10
0.730705
 20
-0.557540
 11
0.734945
 21
-0.556476
  0
LINE
  8
L2
  6
CONTINUOUS
 62
3
 10
0.734945
 20
-0.556476
 11
0.740556
 21
-0.558198
  0
LINE
  8
L2
  6
CONTINUOUS
 62
3
 10
0.740556
 20
-0.558198
 11
0.749215
 21
-0.565691
  0
LINE
  8
L2
  6
CONTINUOUS
 62
3
 10
0.749215
 20
-0.565691
 11
0.752504
 21
-0.570744
  0
LINE
  8
L2
  6
CONTINUOUS
 62
3
 10
0.752504
 20
-0.570744
 11
0.754392
 21
-0.576112
  0
LINE
  8
L2
  6
CONTINUOUS
 62
3
 10
0.754392
 20
-0.576112
 11
0.754882
 21
-0.580613
  0
LINE
  8
L2
  6
CONTINUOUS
 62
3
 10
0.754882
 20
-0.580613
 11
0.755046
 21
-0.583736
  0
LINE
  8
L2
  6
CONTINUOUS
 62
3
 10
0.755046
 20
-0.583736
 11
0.754275
 21
-0.588360
  0
LINE
  8
L2
  6
CONTINUOUS
 62
3
 10
0.754275
 20
-0.588360
 11
0.749558
 21
-0.596325
  0
LINE
  8
L2
  6
CONTINUOUS
 62
3
 10
0.749558
 20
-0.596325
 11
0.743630
 21
-0.601680
  0
LINE
  8
L2
  6
CONTINUOUS
 62
3
 10
0.743630
 20
-0.601680
 11
0.731737
 21
-0.607699
  0
LINE
  8
L2
  6
CONTINUOUS
 62
3
 10
0.731737
 20
-0.607699
 11
0.717293
 21
-0.610024
  0
LINE
  8
L2
  6
CONTINUOUS
 62
3
 10
0.717293
 20
-0.610024
 11
0.691251
 21
-0.610024
  0
LINE
  8
L2
  6
CONTINUOUS
 62
3
 10
0.691251
 20
-0.610024
 11
0.691251
 21
-0.665526
  0
LINE
  8
L2
  6
CONTINUOUS
 62
3
 10
0.691251
 20
-0.665526
 11
0.722580
 21
-0.665526
  0
LINE
  8
L2
  6
CONTINUOUS
 62
3
 10
0.722580
 20
-0.665526
 11
0.729011
 21
-0.666392
  0
LINE
  8
L2
  6
CONTINUOUS
 62
3
 10
0.729011
 20
-0.666392
 11
0.739580
 21
-0.671431
  0
LINE
  8
L2
  6
CONTINUOUS
 62
3
 10
0.739580
 20
-0.671431
 11
0.746413
 21
-0.677353
  0
LINE
  8
L2
  6
CONTINUOUS
 62
3
 10
0.746413
 20
-0.677353
 11
0.753871
 21
-0.688088
  0
LINE
  8
L2
  6
CONTINUOUS
 62
3
 10
0.753871
 20
-0.688088
 11
0.755948
 21
-0.693683
  0
LINE
  8
L2
  6
CONTINUOUS
 62
3
 10
0.755948
 20
-0.693683
 11
0.756681
 21
-0.699054
  0
LINE
  8
L2
  6
CONTINUOUS
 62
3
 10
0.756681
 20
-0.699054
 11
0.755488
 21
-0.706429
  0
LINE
  8
L2
  6
CONTINUOUS
 62
3
 10
0.755488
 20
-0.706429
 11
0.750401
 21
-0.718217
  0
LINE
  8
L2
  6
CONTINUOUS
 62
3
 10
0.750401
 20
-0.718217
 11
0.747059
 21
-0.722874
  0
LINE
  8
L2
  6
CONTINUOUS
 62
3
 10
0.747059
 20
-0.722874
 11
0.743607
 21
-0.725747
  0
LINE
  8
L2
  6
CONTINUOUS
 62
3
 10
0.743607
 20
-0.725747
 11
0.734617
 21
-0.727863
  0
LINE
  8
L2
  6
CONTINUOUS
 62
3
 10
0.734617
 20
-0.727863
 11
0.728670
 21
-0.725854
  0
LINE
  8
L2
  6
CONTINUOUS
 62
3
 10
0.728670
 20
-0.725854
 11
0.724381
 21
-0.722142
  0
LINE
  8
L2
  6
CONTINUOUS
 62
3
 10
0.724381
 20
-0.722142
 11
0.719323
 21
-0.714173
  0
LINE
  8
L2
  6
CONTINUOUS
 62
3
 10
0.719323
 20
-0.714173
 11
0.717293
 21
-0.704751
  0
LINE
  8
L2
  6
CONTINUOUS
 62
3
 10
0.717293
 20
-0.704751
 11
0.717293
 21
-0.681151
  0
LINE
  8
L2
  6
CONTINUOUS
 62
3
 10
0.717293
 20
-0.681151
 11
0.633308
 21
-0.681151
  0
LINE
  8
L2
  6
CONTINUOUS
 62
3
 10
0.633308
 20
-0.681151
 11
0.633308
 21
-0.759764
  0
LINE
  8
L2
  6
CONTINUOUS
 62
3
 10
0.633308
 20
-0.759764
 11
0.641852
 21
-0.765053
  0
LINE
  8
L2
  6
CONTINUOUS
 62
3
 10
0.641852
 20
-0.765053
 11
0.651878
 21
-0.769812
  0
LINE
  8
L2
  6
CONTINUOUS
 62
3
 10
0.651878
 20
-0.769812
 11
0.673313
 21
-0.777884
  0
LINE
  8
L2
  6
CONTINUOUS
 62
3
 10
0.673313
 20
-0.777884
 11
0.708685
 21
-0.787566
  0
LINE
  8
L2
  6
CONTINUOUS
 62
3
 10
0.708685
 20
-0.787566
 11
0.724935
 21
-0.790452
  0
LINE
  8
L2
  6
CONTINUOUS
 62
3
 10
0.724935
 20
-0.790452
 11
0.738452
 21
-0.791502
  0
LINE
  8
L2
  6
CONTINUOUS
 62
3
 10
0.738452
 20
-0.791502
 11
0.760367
 21
-0.789169
  0
LINE
  8
L2
  6
CONTINUOUS
 62
3
 10
0.760367
 20
-0.789169
 11
0.779535
 21
-0.783714
  0
LINE
  8
L2
  6
CONTINUOUS
 62
3
 10
0.779535
 20
-0.783714
 11
0.795118
 21
-0.776773
  0
LINE
  8
L2
  6
CONTINUOUS
 62
3
 10
0.795118
 20
-0.776773
 11
0.807310
 21
-0.769348
  0
LINE
  8
L2
  6
CONTINUOUS
 62
3
 10
0.807310
 20
-0.769348
 11
0.816650
 21
-0.762034
  0
LINE
  8
L2
  6
CONTINUOUS
 62
3
 10
0.816650
 20
-0.762034
 11
0.829747
 21
-0.747992
  0
LINE
  8
L2
  6
CONTINUOUS
 62
3
 10
0.829747
 20
-0.747992
 11
0.836841
 21
-0.736987
  0
LINE
  8
L2
  6
CONTINUOUS
 62
3
 10
0.836841
 20
-0.736987
 11
0.843450
 21
-0.720993
  0
LINE
  8
L2
  6
CONTINUOUS
 62
3
 10
0.843450
 20
-0.720993
 11
0.846036
 21
-0.707467
  0
LINE
  8
L2
  6
CONTINUOUS
 62
3
 10
0.846036
 20
-0.707467
 11
0.845618
 21
-0.698952
  0
LINE
  8
L2
  6
CONTINUOUS
 62
3
 10
0.845618
 20
-0.698952
 11
0.842120
 21
-0.680945
  0
LINE
  8
L2
  6
CONTINUOUS
 62
3
 10
0.842120
 20
-0.680945
 11
0.836516
 21
-0.666596
  0
LINE
  8
L2
  6
CONTINUOUS
 62
3
 10
0.836516
 20
-0.666596
 11
0.830531
 21
-0.656252
  0
LINE
  8
L2
  6
CONTINUOUS
 62
3
 10
0.830531
 20
-0.656252
 11
0.819185
 21
-0.642768
  0
LINE
  8
L2
  6
CONTINUOUS
 62
3
 10
0.819185
 20
-0.642768
 11
0.812898
 21
-0.637524
  0
LINE
  8
L2
  6
CONTINUOUS
 62
3
 10
0.812898
 20
-0.637524
 11
0.806648
 21
-0.633693
  0
LINE
  8
L2
  6
CONTINUOUS
 62
3
 10
0.806648
 20
-0.633693
 11
0.814343
 21
-0.630181
  0
LINE
  8
L2
  6
CONTINUOUS
 62
3
 10
0.814343
 20
-0.630181
 11
0.820784
 21
-0.625590
  0
LINE
  8
L2
  6
CONTINUOUS
 62
3
 10
0.820784
 20
-0.625590
 11
0.830631
 21
-0.614659
  0
LINE
  8
L2
  6
CONTINUOUS
 62
3
 10
0.830631
 20
-0.614659
 11
0.836351
 21
-0.604581
  0
LINE
  8
L2
  6
CONTINUOUS
 62
3
 10
0.836351
 20
-0.604581
 11
0.841765
 21
-0.587737
  0
LINE
  8
L2
  6
CONTINUOUS
 62
3
 10
0.841765
 20
-0.587737
 11
0.843432
 21
-0.570748
  0
LINE
  8
L2
  6
CONTINUOUS
 62
3
 10
0.843432
 20
-0.570748
 11
0.842442
 21
-0.563122
  0
LINE
  8
L2
  6
CONTINUOUS
 62
3
 10
0.842442
 20
-0.563122
 11
0.837046
 21
-0.548845
  0
LINE
  8
L2
  6
CONTINUOUS
 62
3
 10
0.837046
 20
-0.548845
 11
0.829003
 21
-0.536915
  0
LINE
  8
L2
  6
CONTINUOUS
 62
3
 10
0.829003
 20
-0.536915
 11
0.819849
 21
-0.527289
  0
LINE
  8
L2
  6
CONTINUOUS
 62
3
 10
0.819849
 20
-0.527289
 11
0.800269
 21
-0.512998
  0
LINE
  8
L2
  6
CONTINUOUS
 62
3
 10
0.800269
 20
-0.512998
 11
0.783741
 21
-0.504854
  0
LINE
  8
L2
  6
CONTINUOUS
 62
3
 10
0.783741
 20
-0.504854
 11
0.770994
 21
-0.500329
  0
LINE
  8
L2
  6
CONTINUOUS
 62
3
 10
0.770994
 20
-0.500329
 11
0.752425
 21
-0.496110
  0
LINE
  8
L2
  6
CONTINUOUS
 62
3
 10
0.752425
 20
-0.496110
 11
0.736010
 21
-0.494790
  0
LINE
  8
L2
  6
CONTINUOUS
 62
3
 10
0.736010
 20
-0.494790
 11
0.725073
 21
-0.495537
  0
LINE
  8
L2
  6
CONTINUOUS
 62
3
 10
0.725073
 20
-0.495537
 11
0.713140
 21
-0.497355
  0
LINE
  8
L2
  6
CONTINUOUS
 62
3
 10
0.713140
 20
-0.497355
 11
0.689440
 21
-0.502781
  0
LINE
  8
L2
  6
CONTINUOUS
 62
3
 10
0.689440
 20
-0.502781
 11
0.671399
 21
-0.508270
  0
LINE
  8
L2
  6
CONTINUOUS
 62
3
 10
0.671399
 20
-0.508270
 11
0.658844
 21
-0.512858
  0
LINE
  8
L2
  6
CONTINUOUS
 62
3
 10
0.658844
 20
-0.512858
 11
0.643198
 21
-0.519891
  0
LINE
  8
L2
  6
CONTINUOUS
 62
3
 10
0.643198
 20
-0.519891
 11
0.637401
 21
-0.523207
  0
LINE
  8
L2
  6
CONTINUOUS
 62
3
 10
0.637401
 20
-0.523207
 11
0.633308
 21
-0.526203
  0
LINE
  8
L2
  6
CONTINUOUS
 62
3
 10
0.964200
 20
-0.649738
 11
0.964200
 21
-0.717772
  0
LINE
  8
L2
  6
CONTINUOUS
 62
3
 10
0.964200
 20
-0.717772
 11
1.076993
 21
-0.717772
  0
LINE
  8
L2
  6
CONTINUOUS
 62
3
 10
1.076993
 20
-0.717772
 11
1.075625
 21
-0.723135
  0
LINE
  8
L2
  6
CONTINUOUS
 62
3
 10
1.075625
 20
-0.723135
 11
1.069634
 21
-0.732110
  0
LINE
  8
L2
  6
CONTINUOUS
 62
3
 10
1.069634
 20
-0.732110
 11
1.061206
 21
-0.738768
  0
LINE
  8
L2
  6
CONTINUOUS
 62
3
 10
1.061206
 20
-0.738768
 11
1.061206
 21
-0.786131
  0
LINE
  8
L2
  6
CONTINUOUS
 62
3
 10
1.061206
 20
-0.786131
 11
1.176928
 21
-0.786131
  0
LINE
  8
L2
  6
CONTINUOUS
 62
3
 10
1.176928
 20
-0.786131
 11
1.176928
 21
-0.736164
  0
LINE
  8
L2
  6
CONTINUOUS
 62
3
 10
1.176928
 20
-0.736164
 11
1.172228
 21
-0.732451
  0
LINE
  8
L2
  6
CONTINUOUS
 62
3
 10
1.172228
 20
-0.732451
 11
1.167697
 21
-0.725775
  0
LINE
  8
L2
  6
CONTINUOUS
 62
3
 10
1.167697
 20
-0.725775
 11
1.166186
 21
-0.717772
  0
LINE
  8
L2
  6
CONTINUOUS
 62
3
 10
1.166186
 20
-0.717772
 11
1.184578
 21
-0.717772
  0
LINE
  8
L2
  6
CONTINUOUS
 62
3
 10
1.184578
 20
-0.717772
 11
1.184578
 21
-0.657388
  0
LINE
  8
L2
  6
CONTINUOUS
 62
3
 10
1.184578
 20
-0.657388
 11
1.166186
 21
-0.657388
  0
LINE
  8
L2
  6
CONTINUOUS
 62
3
 10
1.166186
 20
-0.657388
 11
1.166186
 21
-0.500161
  0
LINE
  8
L2
  6
CONTINUOUS
 62
3
 10
1.166186
 20
-0.500161
 11
1.063972
 21
-0.500161
  0
LINE
  8
L2
  6
CONTINUOUS
 62
3
 10
1.063972
 20
-0.500161
 11
0.964200
 21
-0.649738
  0
LINE
  8
L2
  6
CONTINUOUS
 62
3
 10
1.076993
 20
-0.657388
 11
1.037605
 21
-0.657388
  0
LINE
  8
L2
  6
CONTINUOUS
 62
3
 10
1.037605
 20
-0.657388
 11
1.076993
 21
-0.599770
  0
LINE
  8
L2
  6
CONTINUOUS
 62
3
 10
1.076993
 20
-0.599770
 11
1.076993
 21
-0.657388
  0
LINE
  8
L2
  6
CONTINUOUS
 62
3
 10
1.310880
 20
-0.657388
 11
1.397469
 21
-0.657388
  0
LINE
  8
L2
  6
CONTINUOUS
 62
3
 10
1.397469
 20
-0.657388
 11
1.398776
 21
-0.653624
  0
LINE
  8
L2
  6
CONTINUOUS
 62
3
 10
1.398776
 20
-0.653624
 11
1.404160
 21
-0.648645
  0
LINE
  8
L2
  6
CONTINUOUS
 62
3
 10
1.404160
 20
-0.648645
 11
1.410815
 21
-0.646483
  0
LINE
  8
L2
  6
CONTINUOUS
 62
3
 10
1.410815
 20
-0.646483
 11
1.416590
 21
-0.648199
  0
LINE
  8
L2
  6
CONTINUOUS
 62
3
 10
1.416590
 20
-0.648199
 11
1.425010
 21
-0.655566
  0
LINE
  8
L2
  6
CONTINUOUS
 62
3
 10
1.425010
 20
-0.655566
 11
1.427814
 21
-0.660444
  0
LINE
  8
L2
  6
CONTINUOUS
 62
3
 10
1.427814
 20
-0.660444
 11
1.428881
 21
-0.665526
  0
LINE
  8
L2
  6
CONTINUOUS
 62
3
 10
1.428881
 20
-0.665526
 11
1.428881
 21
-0.702147
  0
LINE
  8
L2
  6
CONTINUOUS
 62
3
 10
1.428881
 20
-0.702147
 11
1.428881
 21
-0.709471
  0
LINE
  8
L2
  6
CONTINUOUS
 62
3
 10
1.428881
 20
-0.709471
 11
1.427813
 21
-0.715605
  0
LINE
  8
L2
  6
CONTINUOUS
 62
3
 10
1.427813
 20
-0.715605
 11
1.422492
 21
-0.723948
  0
LINE
  8
L2
  6
CONTINUOUS
 62
3
 10
1.422492
 20
-0.723948
 11
1.418325
 21
-0.726896
  0
LINE
  8
L2
  6
CONTINUOUS
 62
3
 10
1.418325
 20
-0.726896
 11
1.413256
 21
-0.728514
  0
LINE
  8
L2
  6
CONTINUOUS
 62
3
 10
1.413256
 20
-0.728514
 11
1.406326
 21
-0.726225
  0
LINE
  8
L2
  6
CONTINUOUS
 62
3
 10
1.406326
 20
-0.726225
 11
1.402441
 21
-0.721995
  0
LINE
  8
L2
  6
CONTINUOUS
 62
3
 10
1.402441
 20
-0.721995
 11
1.398708
 21
-0.712906
  0
LINE
  8
L2
  6
CONTINUOUS
 62
3
 10
1.398708
 20
-0.712906
 11
1.397469
 21
-0.702147
  0
LINE
  8
L2
  6
CONTINUOUS
 62
3
 10
1.397469
 20
-0.702147
 11
1.397469
 21
-0.675779
  0
LINE
  8
L2
  6
CONTINUOUS
 62
3
 10
1.397469
 20
-0.675779
 11
1.310880
 21
-0.675779
  0
LINE
  8
L2
  6
CONTINUOUS
 62
3
 10
1.310880
 20
-0.675779
 11
1.310880
 21
-0.757160
  0
LINE
  8
L2
  6
CONTINUOUS
 62
3
 10
1.310880
 20
-0.757160
 11
1.319824
 21
-0.763075
  0
LINE
  8
L2
  6
CONTINUOUS
 62
3
 10
1.319824
 20
-0.763075
 11
1.329989
 21
-0.768308
  0
LINE
  8
L2
  6
CONTINUOUS
 62
3
 10
1.329989
 20
-0.768308
 11
1.351336
 21
-0.777048
  0
LINE
  8
L2
  6
CONTINUOUS
 62
3
 10
1.351336
 20
-0.777048
 11
1.386242
 21
-0.787361
  0
LINE
  8
L2
  6
CONTINUOUS
 62
3
 10
1.386242
 20
-0.787361
 11
1.402328
 21
-0.790401
  0
LINE
  8
L2
  6
CONTINUOUS
 62
3
 10
1.402328
 20
-0.790401
 11
1.415860
 21
-0.791502
  0
LINE
  8
L2
  6
CONTINUOUS
 62
3
 10
1.415860
 20
-0.791502
 11
1.437065
 21
-0.789044
  0
LINE
  8
L2
  6
CONTINUOUS
 62
3
 10
1.437065
 20
-0.789044
 11
1.455114
 21
-0.783157
  0
LINE
  8
L2
  6
CONTINUOUS
 62
3
 10
1.455114
 20
-0.783157
 11
1.469851
 21
-0.775510
  0
LINE
  8
L2
  6
CONTINUOUS
 62
3
 10
1.469851
 20
-0.775510
 11
1.481575
 21
-0.767190
  0
LINE
  8
L2
  6
CONTINUOUS
 62
3
 10
1.481575
 20
-0.767190
 11
1.490746
 21
-0.758871
  0
LINE
  8
L2
  6
CONTINUOUS
 62
3
 10
1.490746
 20
-0.758871
 11
1.503995
 21
-0.742570
  0
LINE
  8
L2
  6
CONTINUOUS
 62
3
 10
1.503995
 20
-0.742570
 11
1.511404
 21
-0.729450
  0
LINE
  8
L2
  6
CONTINUOUS
 62
3
 10
1.511404
 20
-0.729450
 11
1.518340
 21
-0.709570
  0
LINE
  8
L2
  6
CONTINUOUS
 62
3
 10
1.518340
 20
-0.709570
 11
1.520515
 21
-0.691160
  0
LINE
  8
L2
  6
CONTINUOUS
 62
3
 10
1.520515
 20
-0.691160
 11
1.520373
 21
-0.684736
  0
LINE
  8
L2
  6
CONTINUOUS
 62
3
 10
1.520373
 20
-0.684736
 11
1.520079
 21
-0.678211
  0
LINE
  8
L2
  6
CONTINUOUS
 62
3
 10
1.520079
 20
-0.678211
 11
1.519338
 21
-0.665678
  0
LINE
  8
L2
  6
CONTINUOUS
 62
3
 10
1.519338
 20
-0.665678
 11
1.518237
 21
-0.649852
  0
LINE
  8
L2
  6
CONTINUOUS
 62
3
 10
1.518237
 20
-0.649852
 11
1.515365
 21
-0.638609
  0
LINE
  8
L2
  6
CONTINUOUS
 62
3
 10
1.515365
 20
-0.638609
 11
1.509690
 21
-0.628192
  0
LINE
  8
L2
  6
CONTINUOUS
 62
3
 10
1.509690
 20
-0.628192
 11
1.502702
 21
-0.619375
  0
LINE
  8
L2
  6
CONTINUOUS
 62
3
 10
1.502702
 20
-0.619375
 11
1.486972
 21
-0.605890
  0
LINE
  8
L2
  6
CONTINUOUS
 62
3
 10
1.486972
 20
-0.605890
 11
1.473280
 21
-0.598074
  0
LINE
  8
L2
  6
CONTINUOUS
 62
3
 10
1.473280
 20
-0.598074
 11
1.452247
 21
-0.590611
  0
LINE
  8
L2
  6
CONTINUOUS
 62
3
 10
1.452247
 20
-0.590611
 11
1.442754
 21
-0.588803
  0
LINE
  8
L2
  6
CONTINUOUS
 62
3
 10
1.442754
 20
-0.588803
 11
1.434903
 21
-0.588214
  0
LINE
  8
L2
  6
CONTINUOUS
 62
3
 10
1.434903
 20
-0.588214
 11
1.414884
 21
-0.589801
  0
LINE
  8
L2
  6
CONTINUOUS
 62
3
 10
1.414884
 20
-0.589801
 11
1.397469
 21
-0.594562
  0
LINE
  8
L2
  6
CONTINUOUS
 62
3
 10
1.397469
 20
-0.594562
 11
1.397469
 21
-0.557778
  0
LINE
  8
L2
  6
CONTINUOUS
 62
3
 10
1.397469
 20
-0.557778
 11
1.410977
 21
-0.558907
  0
LINE
  8
L2
  6
CONTINUOUS
 62
3
 10
1.410977
 20
-0.558907
 11
1.419045
 21
-0.561359
  0
LINE
  8
L2
  6
CONTINUOUS
 62
3
 10
1.419045
 20
-0.561359
 11
1.423553
 21
-0.564111
  0
LINE
  8
L2
  6
CONTINUOUS
 62
3
 10
1.423553
 20
-0.564111
 11
1.427668
 21
-0.569551
  0
LINE
  8
L2
  6
CONTINUOUS
 62
3
 10
1.427668
 20
-0.569551
 11
1.428881
 21
-0.576170
  0
LINE
  8
L2
  6
CONTINUOUS
 62
3
 10
1.428881
 20
-0.576170
 11
1.512866
 21
-0.576170
  0
LINE
  8
L2
  6
CONTINUOUS
 62
3
 10
1.512866
 20
-0.576170
 11
1.512866
 21
-0.500161
  0
LINE
  8
L2
  6
CONTINUOUS
 62
3
 10
1.512866
 20
-0.500161
 11
1.310880
 21
-0.500161
  0
LINE
  8
L2
  6
CONTINUOUS
 62
3
 10
1.310880
 20
-0.500161
 11
1.310880
 21
-0.657388
  0
LINE
  8
L2
  6
CONTINUOUS
 62
3
 10
1.644376
 20
-0.696776
 11
1.644051
 21
-0.705076
  0
LINE
  8
L2
  6
CONTINUOUS
 62
3
 10
1.644051
 20
-0.705076
 11
1.646257
 21
-0.720332
  0
LINE
  8
L2
  6
CONTINUOUS
 62
3
 10
1.646257
 20
-0.720332
 11
1.651578
 21
-0.733663
  0
LINE
  8
L2
  6
CONTINUOUS
 62
3
 10
1.651578
 20
-0.733663
 11
1.658582
 21
-0.744975
  0
LINE
  8
L2
  6
CONTINUOUS
 62
3
 10
1.658582
 20
-0.744975
 11
1.666341
 21
-0.754376
  0
LINE
  8
L2
  6
CONTINUOUS
 62
3
 10
1.666341
 20
-0.754376
 11
1.683164
 21
-0.769139
  0
LINE
  8
L2
  6
CONTINUOUS
 62
3
 10
1.683164
 20
-0.769139
 11
1.698124
 21
-0.778299
  0
LINE
  8
L2
  6
CONTINUOUS
 62
3
 10
1.698124
 20
-0.778299
 11
1.710455
 21
-0.783812
  0
LINE
  8
L2
  6
CONTINUOUS
 62
3
 10
1.710455
 20
-0.783812
 11
1.730432
 21
-0.789481
  0
LINE
  8
L2
  6
CONTINUOUS
 62
3
 10
1.730432
 20
-0.789481
 11
1.751798
 21
-0.791502
  0
LINE
  8
L2
  6
CONTINUOUS
 62
3
 10
1.751798
 20
-0.791502
 11
1.774216
 21
-0.789229
  0
LINE
  8
L2
  6
CONTINUOUS
 62
3
 10
1.774216
 20
-0.789229
 11
1.792838
 21
-0.783719
  0
LINE
  8
L2
  6
CONTINUOUS
 62
3
 10
1.792838
 20
-0.783719
 11
1.807767
 21
-0.776468
  0
LINE
  8
L2
  6
CONTINUOUS
 62
3
 10
1.807767
 20
-0.776468
 11
1.819469
 21
-0.768477
  0
LINE
  8
L2
  6
CONTINUOUS
 62
3
 10
1.819469
 20
-0.768477
 11
1.828506
 21
-0.760385
  0
LINE
  8
L2
  6
CONTINUOUS
 62
3
 10
1.828506
 20
-0.760385
 11
1.841350
 21
-0.744222
  0
LINE
  8
L2
  6
CONTINUOUS
 62
3
 10
1.841350
 20
-0.744222
 11
1.848389
 21
-0.730879
  0
LINE
  8
L2
  6
CONTINUOUS
 62
3
 10
1.848389
 20
-0.730879
 11
1.854824
 21
-0.709909
  0
LINE
  8
L2
  6
CONTINUOUS
 62
3
 10
1.854824
 20
-0.709909
 11
1.856778
 21
-0.689210
  0
LINE
  8
L2
  6
CONTINUOUS
 62
3
 10
1.856778
 20
-0.689210
 11
1.855772
 21
-0.675663
  0
LINE
  8
L2
  6
CONTINUOUS
 62
3
 10
1.855772
 20
-0.675663
 11
1.853180
 21
-0.663262
  0
LINE
  8
L2
  6
CONTINUOUS
 62
3
 10
1.853180
 20
-0.663262
 11
1.844795
 21
-0.642059
  0
LINE
  8
L2
  6
CONTINUOUS
 62
3
 10
1.844795
 20
-0.642059
 11
1.835567
 21
-0.627867
  0
LINE
  8
L2
  6
CONTINUOUS
 62
3
 10
1.835567
 20
-0.627867
 11
1.827297
 21
-0.618795
  0
LINE
  8
L2
  6
CONTINUOUS
 62
3
 10
1.827297
 20
-0.618795
 11
1.813433
 21
-0.608444
  0
LINE
  8
L2
  6
CONTINUOUS
 62
3
 10
1.813433
 20
-0.608444
 11
1.798999
 21
-0.602692
  0
LINE
  8
L2
  6
CONTINUOUS
 62
3
 10
1.798999
 20
-0.602692
 11
1.787890
 21
-0.600623
  0
LINE
  8
L2
  6
CONTINUOUS
 62
3
 10
1.787890
 20
-0.600623
 11
1.776049
 21
-0.599933
  0
LINE
  8
L2
  6
CONTINUOUS
 62
3
 10
1.776049
 20
-0.599933
 11
1.765198
 21
-0.600828
  0
LINE
  8
L2
  6
CONTINUOUS
 62
3
 10
1.765198
 20
-0.600828
 11
1.747027
 21
-0.604765
  0
LINE
  8
L2
  6
CONTINUOUS
 62
3
 10
1.747027
 20
-0.604765
 11
1.739169
 21
-0.607454
  0
LINE
  8
L2
  6
CONTINUOUS
 62
3
 10
1.739169
 20
-0.607454
 11
1.733406
 21
-0.610350
  0
LINE
  8
L2
  6
CONTINUOUS
 62
3
 10
1.733406
 20
-0.610350
 11
1.733894
 21
-0.601862
  0
LINE
  8
L2
  6
CONTINUOUS
 62
3
 10
1.733894
 20
-0.601862
 11
1.734057
 21
-0.589191
  0
LINE
  8
L2
  6
CONTINUOUS
 62
3
 10
1.734057
 20
-0.589191
 11
1.735074
 21
-0.577691
  0
LINE
  8
L2
  6
CONTINUOUS
 62
3
 10
1.735074
 20
-0.577691
 11
1.737126
 21
-0.569925
  0
LINE
  8
L2
  6
CONTINUOUS
 62
3
 10
1.737126
 20
-0.569925
 11
1.742150
 21
-0.561170
  0
LINE
  8
L2
  6
CONTINUOUS
 62
3
 10
1.742150
 20
-0.561170
 11
1.745491
 21
-0.558670
  0
LINE
  8
L2
  6
CONTINUOUS
 62
3
 10
1.745491
 20
-0.558670
 11
1.749357
 21
-0.557778
  0
LINE
  8
L2
  6
CONTINUOUS
 62
3
 10
1.749357
 20
-0.557778
 11
1.755669
 21
-0.559393
  0
LINE
  8
L2
  6
CONTINUOUS
 62
3
 10
1.755669
 20
-0.559393
 11
1.759563
 21
-0.562367
  0
LINE
  8
L2
  6
CONTINUOUS
 62
3
 10
1.759563
 20
-0.562367
 11
1.763655
 21
-0.568722
  0
LINE
  8
L2
  6
CONTINUOUS
 62
3
 10
1.763655
 20
-0.568722
 11
1.765144
 21
-0.576170
  0
LINE
  8
L2
  6
CONTINUOUS
 62
3
 10
1.765144
 20
-0.576170
 11
1.765144
 21
-0.589191
  0
LINE
  8
L2
  6
CONTINUOUS
 62
3
 10
1.765144
 20
-0.589191
 11
1.851733
 21
-0.589191
  0
LINE
  8
L2
  6
CONTINUOUS
 62
3
 10
1.851733
 20
-0.589191
 11
1.851733
 21
-0.526203
  0
LINE
  8
L2
  6
CONTINUOUS
 62
3
 10
1.851733
 20
-0.526203
 11
1.844576
 21
-0.521262
  0
LINE
  8
L2
  6
CONTINUOUS
 62
3
 10
1.844576
 20
-0.521262
 11
1.835248
 21
-0.516467
  0
LINE
  8
L2
  6
CONTINUOUS
 62
3
 10
1.835248
 20
-0.516467
 11
1.814236
 21
-0.508065
  0
LINE
  8
L2
  6
CONTINUOUS
 62
3
 10
1.814236
 20
-0.508065
 11
1.778884
 21
-0.498182
  0
LINE
  8
L2
  6
CONTINUOUS
 62
3
 10
1.778884
 20
-0.498182
 11
1.763044
 21
-0.495417
  0
LINE
  8
L2
  6
CONTINUOUS
 62
3
 10
1.763044
 20
-0.495417
 11
1.750659
 21
-0.494464
  0
LINE
  8
L2
  6
CONTINUOUS
 62
3
 10
1.750659
 20
-0.494464
 11
1.745247
 21
-0.494546
  0
LINE
  8
L2
  6
CONTINUOUS
 62
3
 10
1.745247
 20
-0.494546
 11
1.741381
 21
-0.494790
  0
LINE
  8
L2
  6
CONTINUOUS
 62
3
 10
1.741381
 20
-0.494790
 11
1.721247
 21
-0.498048
  0
LINE
  8
L2
  6
CONTINUOUS
 62
3
 10
1.721247
 20
-0.498048
 11
1.704249
 21
-0.503921
  0
LINE
  8
L2
  6
CONTINUOUS
 62
3
 10
1.704249
 20
-0.503921
 11
1.690475
 21
-0.511008
  0
LINE
  8
L2
  6
CONTINUOUS
 62
3
 10
1.690475
 20
-0.511008
 11
1.679594
 21
-0.518437
  0
LINE
  8
L2
  6
CONTINUOUS
 62
3
 10
1.679594
 20
-0.518437
 11
1.663797
 21
-0.533476
  0
LINE
  8
L2
  6
CONTINUOUS
 62
3
 10
1.663797
 20
-0.533476
 11
1.654989
 21
-0.545789
  0
LINE
  8
L2
  6
CONTINUOUS
 62
3
 10
1.654989
 20
-0.545789
 11
1.650168
 21
-0.555208
  0
LINE
  8
L2
  6
CONTINUOUS
 62
3
 10
1.650168
 20
-0.555208
 11
1.645738
 21
-0.568998
  0
LINE
  8
L2
  6
CONTINUOUS
 62
3
 10
1.645738
 20
-0.568998
 11
1.644376
 21
-0.581541
  0
LINE
  8
L2
  6
CONTINUOUS
 62
3
 10
1.644376
 20
-0.581541
 11
1.644376
 21
-0.696776
  0
LINE
  8
L2
  6
CONTINUOUS
 62
3
 10
1.767749
 20
-0.707518
 11
1.766040
 21
-0.715175
  0
LINE
  8
L2
  6
CONTINUOUS
 62
3
 10
1.766040
 20
-0.715175
 11
1.759070
 21
-0.724797
  0
LINE
  8
L2
  6
CONTINUOUS
 62
3
 10
1.759070
 20
-0.724797
 11
1.754774
 21
-0.727750
  0
LINE
  8
L2
  6
CONTINUOUS
 62
3
 10
1.754774
 20
-0.727750
 11
1.750659
 21
-0.728839
  0
LINE
  8
L2
  6
CONTINUOUS
 62
3
 10
1.750659
 20
-0.728839
 11
1.745010
 21
-0.726950
  0
LINE
  8
L2
  6
CONTINUOUS
 62
3
 10
1.745010
 20
-0.726950
 11
1.740735
 21
-0.723479
  0
LINE
  8
L2
  6
CONTINUOUS
 62
3
 10
1.740735
 20
-0.723479
 11
1.735539
 21
-0.716098
  0
LINE
  8
L2
  6
CONTINUOUS
 62
3
 10
1.735539
 20
-0.716098
 11
1.733406
 21
-0.707518
  0
LINE
  8
L2
  6
CONTINUOUS
 62
3
 10
1.733406
 20
-0.707518
 11
1.733406
 21
-0.678384
  0
LINE
  8
L2
  6
CONTINUOUS
 62
3
 10
1.733406
 20
-0.678384
 11
1.735118
 21
-0.671281
  0
LINE
  8
L2
  6
CONTINUOUS
 62
3
 10
1.735118
 20
-0.671281
 11
1.742124
 21
-0.662500
  0
LINE
  8
L2
  6
CONTINUOUS
 62
3
 10
1.742124
 20
-0.662500
 11
1.746468
 21
-0.659832
  0
LINE
  8
L2
  6
CONTINUOUS
 62
3
 10
1.746468
 20
-0.659832
 11
1.750659
 21
-0.658852
  0
LINE
  8
L2
  6
CONTINUOUS
 62
3
 10
1.750659
 20
-0.658852
 11
1.756213
 21
-0.660554
  0
LINE
  8
L2
  6
CONTINUOUS
 62
3
 10
1.756213
 20
-0.660554
 11
1.764144
 21
-0.667984
  0
LINE
  8
L2
  6
CONTINUOUS
 62
3
 10
1.764144
 20
-0.667984
 11
1.766757
 21
-0.673015
  0
LINE
  8
L2
  6
CONTINUOUS
 62
3
 10
1.766757
 20
-0.673015
 11
1.767749
 21
-0.678384
  0
LINE
  8
L2
  6
CONTINUOUS
 62
3
 10
1.767749
 20
-0.678384
 11
1.767749
 21
-0.707518
  0
LINE
  8
L2
  6
CONTINUOUS
 62
3
 10
1.982918
 20
-0.500161
 11
1.982918
 21
-0.615395
  0
LINE
  8
L2
  6
CONTINUOUS
 62
3
 10
1.982918
 20
-0.615395
 11
2.058927
 21
-0.615395
  0
LINE
  8
L2
  6
CONTINUOUS
 62
3
 10
2.058927
 20
-0.615395
 11
2.058927
 21
-0.581541
  0
LINE
  8
L2
  6
CONTINUOUS
 62
3
 10
2.058927
 20
-0.581541
 11
2.059774
 21
-0.576034
  0
LINE
  8
L2
  6
CONTINUOUS
 62
3
 10
2.059774
 20
-0.576034
 11
2.064739
 21
-0.568108
  0
LINE
  8
L2
  6
CONTINUOUS
 62
3
 10
2.064739
 20
-0.568108
 11
2.070632
 21
-0.563615
  0
LINE
  8
L2
  6
CONTINUOUS
 62
3
 10
2.070632
 20
-0.563615
 11
2.081494
 21
-0.559247
  0
LINE
  8
L2
  6
CONTINUOUS
 62
3
 10
2.081494
 20
-0.559247
 11
2.092944
 21
-0.557778
  0
LINE
  8
L2
  6
CONTINUOUS
 62
3
 10
2.092944
 20
-0.557778
 11
2.006355
 21
-0.786131
  0
LINE
  8
L2
  6
CONTINUOUS
 62
3
 10
2.006355
 20
-0.786131
 11
2.103686
 21
-0.786131
  0
LINE
  8
L2
  6
CONTINUOUS
 62
3
 10
2.103686
 20
-0.786131
 11
2.190275
 21
-0.555174
  0
LINE
  8
L2
  6
CONTINUOUS
 62
3
 10
2.190275
 20
-0.555174
 11
2.190275
 21
-0.500161
  0
LINE
  8
L2
  6
CONTINUOUS
 62
3
 10
2.190275
 20
-0.500161
 11
1.982918
 21
-0.500161
  0
LINE
  8
L2
  6
CONTINUOUS
 62
3
 10
2.358243
 20
-0.636391
 11
2.350818
 21
-0.639784
  0
LINE
  8
L2
  6
CONTINUOUS
 62
3
 10
2.350818
 20
-0.639784
 11
2.344465
 21
-0.644367
  0
LINE
  8
L2
  6
CONTINUOUS
 62
3
 10
2.344465
 20
-0.644367
 11
2.334122
 21
-0.655407
  0
LINE
  8
L2
  6
CONTINUOUS
 62
3
 10
2.334122
 20
-0.655407
 11
2.327405
 21
-0.665686
  0
LINE
  8
L2
  6
CONTINUOUS
 62
3
 10
2.327405
 20
-0.665686
 11
2.319785
 21
-0.683271
  0
LINE
  8
L2
  6
CONTINUOUS
 62
3
 10
2.319785
 20
-0.683271
 11
2.316088
 21
-0.702147
  0
LINE
  8
L2
  6
CONTINUOUS
 62
3
 10
2.316088
 20
-0.702147
 11
2.316795
 21
-0.710434
  0
LINE
  8
L2
  6
CONTINUOUS
 62
3
 10
2.316795
 20
-0.710434
 11
2.321744
 21
-0.726340
  0
LINE
  8
L2
  6
CONTINUOUS
 62
3
 10
2.321744
 20
-0.726340
 11
2.329592
 21
-0.739983
  0
LINE
  8
L2
  6
CONTINUOUS
 62
3
 10
2.329592
 20
-0.739983
 11
2.338792
 21
-0.751227
  0
LINE
  8
L2
  6
CONTINUOUS
 62
3
 10
2.338792
 20
-0.751227
 11
2.348347
 21
-0.760262
  0
LINE
  8
L2
  6
CONTINUOUS
 62
3
 10
2.348347
 20
-0.760262
 11
2.367627
 21
-0.773725
  0
LINE
  8
L2
  6
CONTINUOUS
 62
3
 10
2.367627
 20
-0.773725
 11
2.383417
 21
-0.781506
  0
LINE
  8
L2
  6
CONTINUOUS
 62
3
 10
2.383417
 20
-0.781506
 11
2.407418
 21
-0.789041
  0
LINE
  8
L2
  6
CONTINUOUS
 62
3
 10
2.407418
 20
-0.789041
 11
2.418785
 21
-0.790896
  0
LINE
  8
L2
  6
CONTINUOUS
 62
3
 10
2.418785
 20
-0.790896
 11
2.429207
 21
-0.791502
  0
LINE
  8
L2
  6
CONTINUOUS
 62
3
 10
2.429207
 20
-0.791502
 11
2.448208
 21
-0.790081
  0
LINE
  8
L2
  6
CONTINUOUS
 62
3
 10
2.448208
 20
-0.790081
 11
2.466261
 21
-0.786363
  0
LINE
  8
L2
  6
CONTINUOUS
 62
3
 10
2.466261
 20
-0.786363
 11
2.481918
 21
-0.781093
  0
LINE
  8
L2
  6
CONTINUOUS
 62
3
 10
2.481918
 20
-0.781093
 11
2.494875
 21
-0.774902
  0
LINE
  8
L2
  6
CONTINUOUS
 62
3
 10
2.494875
 20
-0.774902
 11
2.505313
 21
-0.768293
  0
LINE
  8
L2
  6
CONTINUOUS
 62
3
 10
2.505313
 20
-0.768293
 11
2.520937
 21
-0.754248
  0
LINE
  8
L2
  6
CONTINUOUS
 62
3
 10
2.520937
 20
-0.754248
 11
2.530062
 21
-0.741980
  0
LINE
  8
L2
  6
CONTINUOUS
 62
3
 10
2.530062
 20
-0.741980
 11
2.535299
 21
-0.732101
  0
LINE
  8
L2
  6
CONTINUOUS
 62
3
 10
2.535299
 20
-0.732101
 11
2.540428
 21
-0.716840
  0
LINE
  8
L2
  6
CONTINUOUS
 62
3
 10
2.540428
 20
-0.716840
 11
2.542163
 21
-0.702147
  0
LINE
  8
L2
  6
CONTINUOUS
 62
3
 10
2.542163
 20
-0.702147
 11
2.541480
 21
-0.694476
  0
LINE
  8
L2
  6
CONTINUOUS
 62
3
 10
2.541480
 20
-0.694476
 11
2.536820
 21
-0.678048
  0
LINE
  8
L2
  6
CONTINUOUS
 62
3
 10
2.536820
 20
-0.678048
 11
2.530500
 21
-0.664930
  0
LINE
  8
L2
  6
CONTINUOUS
 62
3
 10
2.530500
 20
-0.664930
 11
2.524415
 21
-0.655593
  0
LINE
  8
L2
  6
CONTINUOUS
 62
3
 10
2.524415
 20
-0.655593
 11
2.513829
 21
-0.643798
  0
LINE
  8
L2
  6
CONTINUOUS
 62
3
 10
2.513829
 20
-0.643798
 11
2.508253
 21
-0.639425
  0
LINE
  8
L2
  6
CONTINUOUS
 62
3
 10
2.508253
 20
-0.639425
 11
2.502775
 21
-0.636391
  0
LINE
  8
L2
  6
CONTINUOUS
 62
3
 10
2.502775
 20
-0.636391
 11
2.517799
 21
-0.625466
  0
LINE
  8
L2
  6
CONTINUOUS
 62
3
 10
2.517799
 20
-0.625466
 11
2.526251
 21
-0.615643
  0
LINE
  8
L2
  6
CONTINUOUS
 62
3
 10
2.526251
 20
-0.615643
 11
2.531005
 21
-0.607360
  0
LINE
  8
L2
  6
CONTINUOUS
 62
3
 10
2.531005
 20
-0.607360
 11
2.535589
 21
-0.593462
  0
LINE
  8
L2
  6
CONTINUOUS
 62
3
 10
2.535589
 20
-0.593462
 11
2.537117
 21
-0.577798
  0
LINE
  8
L2
  6
CONTINUOUS
 62
3
 10
2.537117
 20
-0.577798
 11
2.536791
 21
-0.570799
  0
LINE
  8
L2
  6
CONTINUOUS
 62
3
 10
2.536791
 20
-0.570799
 11
2.533991
 21
-0.557989
  0
LINE
  8
L2
  6
CONTINUOUS
 62
3
 10
2.533991
 20
-0.557989
 11
2.528087
 21
-0.545772
  0
LINE
  8
L2
  6
CONTINUOUS
 62
3
 10
2.528087
 20
-0.545772
 11
2.520439
 21
-0.535184
  0
LINE
  8
L2
  6
CONTINUOUS
 62
3
 10
2.520439
 20
-0.535184
 11
2.511985
 21
-0.526440
  0
LINE
  8
L2
  6
CONTINUOUS
 62
3
 10
2.511985
 20
-0.526440
 11
2.493757
 21
-0.513115
  0
LINE
  8
L2
  6
CONTINUOUS
 62
3
 10
2.493757
 20
-0.513115
 11
2.477889
 21
-0.505252
  0
LINE
  8
L2
  6
CONTINUOUS
 62
3
 10
2.477889
 20
-0.505252
 11
2.452566
 21
-0.497449
  0
LINE
  8
L2
  6
CONTINUOUS
 62
3
 10
2.452566
 20
-0.497449
 11
2.440311
 21
-0.495459
  0
LINE
  8
L2
  6
CONTINUOUS
 62
3
 10
2.440311
 20
-0.495459
 11
2.429207
 21
-0.494790
  0
LINE
  8
L2
  6
CONTINUOUS
 62
3
 10
2.429207
 20
-0.494790
 11
2.410669
 21
-0.496283
  0
LINE
  8
L2
  6
CONTINUOUS
 62
3
 10
2.410669
 20
-0.496283
 11
2.393883
 21
-0.499999
  0
LINE
  8
L2
  6
CONTINUOUS
 62
3
 10
2.393883
 20
-0.499999
 11
2.379486
 21
-0.504999
  0
LINE
  8
L2
  6
CONTINUOUS
 62
3
 10
2.379486
 20
-0.504999
 11
2.367539
 21
-0.510606
  0
LINE
  8
L2
  6
CONTINUOUS
 62
3
 10
2.367539
 20
-0.510606
 11
2.349007
 21
-0.522794
  0
LINE
  8
L2
  6
CONTINUOUS
 62
3
 10
2.349007
 20
-0.522794
 11
2.337749
 21
-0.533479
  0
LINE
  8
L2
  6
CONTINUOUS
 62
3
 10
2.337749
 20
-0.533479
 11
2.331083
 21
-0.542060
  0
LINE
  8
L2
  6
CONTINUOUS
 62
3
 10
2.331083
 20
-0.542060
 11
2.324251
 21
-0.555300
  0
LINE
  8
L2
  6
CONTINUOUS
 62
3
 10
2.324251
 20
-0.555300
 11
2.321459
 21
-0.568195
  0
LINE
  8
L2
  6
CONTINUOUS
 62
3
 10
2.321459
 20
-0.568195
 11
2.321215
 21
-0.571979
  0
LINE
  8
L2
  6
CONTINUOUS
 62
3
 10
2.321215
 20
-0.571979
 11
2.321134
 21
-0.577472
  0
LINE
  8
L2
  6
CONTINUOUS
 62
3
 10
2.321134
 20
-0.577472
 11
2.321831
 21
-0.584682
  0
LINE
  8
L2
  6
CONTINUOUS
 62
3
 10
2.321831
 20
-0.584682
 11
2.326422
 21
-0.599718
  0
LINE
  8
L2
  6
CONTINUOUS
 62
3
 10
2.326422
 20
-0.599718
 11
2.332473
 21
-0.611445
  0
LINE
  8
L2
  6
CONTINUOUS
 62
3
 10
2.332473
 20
-0.611445
 11
2.344658
 21
-0.626863
  0
LINE
  8
L2
  6
CONTINUOUS
 62
3
 10
2.344658
 20
-0.626863
 11
2.351481
 21
-0.632580
  0
LINE
  8
L2
  6
CONTINUOUS
 62
3
 10
2.351481
 20
-0.632580
 11
2.358243
 21
-0.636391
  0
LINE
  8
L2
  6
CONTINUOUS
 62
3
 10
2.447436
 20
-0.581541
 11
2.445984
 21
-0.593771
  0
LINE
  8
L2
  6
CONTINUOUS
 62
3
 10
2.445984
 20
-0.593771
 11
2.443228
 21
-0.601484
  0
LINE
  8
L2
  6
CONTINUOUS
 62
3
 10
2.443228
 20
-0.601484
 11
2.437049
 21
-0.609736
  0
LINE
  8
L2
  6
CONTINUOUS
 62
3
 10
2.437049
 20
-0.609736
 11
2.433280
 21
-0.611999
  0
LINE
  8
L2
  6
CONTINUOUS
 62
3
 10
2.433280
 20
-0.611999
 11
2.429207
 21
-0.612791
  0
LINE
  8
L2
  6
CONTINUOUS
 62
3
 10
2.429207
 20
-0.612791
 11
2.421160
 21
-0.611001
  0
LINE
  8
L2
  6
CONTINUOUS
 62
3
 10
2.421160
 20
-0.611001
 11
2.416634
 21
-0.607308
  0
LINE
  8
L2
  6
CONTINUOUS
 62
3
 10
2.416634
 20
-0.607308
 11
2.414088
 21
-0.603217
  0
LINE
  8
L2
  6
CONTINUOUS
 62
3
 10
2.414088
 20
-0.603217
 11
2.411633
 21
-0.594956
  0
LINE
  8
L2
  6
CONTINUOUS
 62
3
 10
2.411633
 20
-0.594956
 11
2.410815
 21
-0.584145
  0
LINE
  8
L2
  6
CONTINUOUS
 62
3
 10
2.410815
 20
-0.584145
 11
2.412201
 21
-0.574944
  0
LINE
  8
L2
  6
CONTINUOUS
 62
3
 10
2.412201
 20
-0.574944
 11
2.414878
 21
-0.568419
  0
LINE
  8
L2
  6
CONTINUOUS
 62
3
 10
2.414878
 20
-0.568419
 11
2.421049
 21
-0.560808
  0
LINE
  8
L2
  6
CONTINUOUS
 62
3
 10
2.421049
 20
-0.560808
 11
2.424922
 21
-0.558582
  0
LINE
  8
L2
  6
CONTINUOUS
 62
3
 10
2.424922
 20
-0.558582
 11
2.429207
 21
-0.557778
  0
LINE
  8
L2
  6
CONTINUOUS
 62
3
 10
2.429207
 20
-0.557778
 11
2.437136
 21
-0.559889
  0
LINE
  8
L2
  6
CONTINUOUS
 62
3
 10
2.437136
 20
-0.559889
 11
2.441623
 21
-0.563763
  0
LINE
  8
L2
  6
CONTINUOUS
 62
3
 10
2.441623
 20
-0.563763
 11
2.445976
 21
-0.571993
  0
LINE
  8
L2
  6
CONTINUOUS
 62
3
 10
2.445976
 20
-0.571993
 11
2.447436
 21
-0.581541
  0
LINE
  8
L2
  6
CONTINUOUS
 62
3
 10
2.447436
 20
-0.694171
 11
2.446098
 21
-0.707017
  0
LINE
  8
L2
  6
CONTINUOUS
 62
3
 10
2.446098
 20
-0.707017
 11
2.443491
 21
-0.716161
  0
LINE
  8
L2
  6
CONTINUOUS
 62
3
 10
2.443491
 20
-0.716161
 11
2.440747
 21
-0.722114
  0
LINE
  8
L2
  6
CONTINUOUS
 62
3
 10
2.440747
 20
-0.722114
 11
2.435530
 21
-0.728645
  0
LINE
  8
L2
  6
CONTINUOUS
 62
3
 10
2.435530
 20
-0.728645
 11
2.429207
 21
-0.731118
  0
LINE
  8
L2
  6
CONTINUOUS
 62
3
 10
2.429207
 20
-0.731118
 11
2.424912
 21
-0.730238
  0
LINE
  8
L2
  6
CONTINUOUS
 62
3
 10
2.424912
 20
-0.730238
 11
2.418760
 21
-0.725036
  0
LINE
  8
L2
  6
CONTINUOUS
 62
3
 10
2.418760
 20
-0.725036
 11
2.415290
 21
-0.718781
  0
LINE
  8
L2
  6
CONTINUOUS
 62
3
 10
2.415290
 20
-0.718781
 11
2.411936
 21
-0.707022
  0
LINE
  8
L2
  6
CONTINUOUS
 62
3
 10
2.411936
 20
-0.707022
 11
2.410815
 21
-0.694171
  0
LINE
  8
L2
  6
CONTINUOUS
 62
3
 10
2.410815
 20
-0.694171
 11
2.411722
 21
-0.684714
  0
LINE
  8
L2
  6
CONTINUOUS
 62
3
 10
2.411722
 20
-0.684714
 11
2.413979
 21
-0.676938
  0
LINE
  8
L2
  6
CONTINUOUS
 62
3
 10
2.413979
 20
-0.676938
 11
2.420242
 21
-0.666998
  0
LINE
  8
L2
  6
CONTINUOUS
 62
3
 10
2.420242
 20
-0.666998
 11
2.424489
 21
-0.663906
  0
LINE
  8
L2
  6
CONTINUOUS
 62
3
 10
2.424489
 20
-0.663906
 11
2.429207
 21
-0.662759
  0
LINE
  8
L2
  6
CONTINUOUS
 62
3
 10
2.429207
 20
-0.662759
 11
2.437182
 21
-0.664722
  0
LINE
  8
L2
  6
CONTINUOUS
 62
3
 10
2.437182
 20
-0.664722
 11
2.441668
 21
-0.668771
  0
LINE
  8
L2
  6
CONTINUOUS
 62
3
 10
2.441668
 20
-0.668771
 11
2.444192
 21
-0.673258
  0
LINE
  8
L2
  6
CONTINUOUS
 62
3
 10
2.444192
 20
-0.673258
 11
2.446625
 21
-0.682317
  0
LINE
  8
L2
  6
CONTINUOUS
 62
3
 10
2.446625
 20
-0.682317
 11
2.447436
 21
-0.694171
  0
LINE
  8
L2
  6
CONTINUOUS
 62
3
 10
2.670743
 20
-0.699542
 11
2.670743
 21
-0.762531
  0
LINE
  8
L2
  6
CONTINUOUS
 62
3
 10
2.670743
 20
-0.762531
 11
2.678271
 21
-0.767323
  0
LINE
  8
L2
  6
CONTINUOUS
 62
3
 10
2.678271
 20
-0.767323
 11
2.687414
 21
-0.771803
  0
LINE
  8
L2
  6
CONTINUOUS
 62
3
 10
2.687414
 20
-0.771803
 11
2.707759
 21
-0.779445
  0
LINE
  8
L2
  6
CONTINUOUS
 62
3
 10
2.707759
 20
-0.779445
 11
2.743393
 21
-0.788236
  0
LINE
  8
L2
  6
CONTINUOUS
 62
3
 10
2.743393
 20
-0.788236
 11
2.760698
 21
-0.790667
  0
LINE
  8
L2
  6
CONTINUOUS
 62
3
 10
2.760698
 20
-0.790667
 11
2.775724
 21
-0.791502
  0
LINE
  8
L2
  6
CONTINUOUS
 62
3
 10
2.775724
 20
-0.791502
 11
2.793347
 21
-0.789664
  0
LINE
  8
L2
  6
CONTINUOUS
 62
3
 10
2.793347
 20
-0.789664
 11
2.808943
 21
-0.785251
  0
LINE
  8
L2
  6
CONTINUOUS
 62
3
 10
2.808943
 20
-0.785251
 11
2.822293
 21
-0.779473
  0
LINE
  8
L2
  6
CONTINUOUS
 62
3
 10
2.822293
 20
-0.779473
 11
2.843894
 21
-0.765632
  0
LINE
  8
L2
  6
CONTINUOUS
 62
3
 10
2.843894
 20
-0.765632
 11
2.857672
 21
-0.752645
  0
LINE
  8
L2
  6
CONTINUOUS
 62
3
 10
2.857672
 20
-0.752645
 11
2.866108
 21
-0.741720
  0
LINE
  8
L2
  6
CONTINUOUS
 62
3
 10
2.866108
 20
-0.741720
 11
2.874914
 21
-0.723856
  0
LINE
  8
L2
  6
CONTINUOUS
 62
3
 10
2.874914
 20
-0.723856
 11
2.877280
 21
-0.714421
  0
LINE
  8
L2
  6
CONTINUOUS
 62
3
 10
2.877280
 20
-0.714421
 11
2.878100
 21
-0.704751
  0
LINE
  8
L2
  6
CONTINUOUS
 62
3
 10
2.878100
 20
-0.704751
 11
2.878100
 21
-0.586749
  0
LINE
  8
L2
  6
CONTINUOUS
 62
3
 10
2.878100
 20
-0.586749
 11
2.875757
 21
-0.567622
  0
LINE
  8
L2
  6
CONTINUOUS
 62
3
 10
2.875757
 20
-0.567622
 11
2.870021
 21
-0.551366
  0
LINE
  8
L2
  6
CONTINUOUS
 62
3
 10
2.870021
 20
-0.551366
 11
2.862412
 21
-0.538093
  0
LINE
  8
L2
  6
CONTINUOUS
 62
3
 10
2.862412
 20
-0.538093
 11
2.853978
 21
-0.527524
  0
LINE
  8
L2
  6
CONTINUOUS
 62
3
 10
2.853978
 20
-0.527524
 11
2.845410
 21
-0.519247
  0
LINE
  8
L2
  6
CONTINUOUS
 62
3
 10
2.845410
 20
-0.519247
 11
2.828260
 21
-0.507258
  0
LINE
  8
L2
  6
CONTINUOUS
 62
3
 10
2.828260
 20
-0.507258
 11
2.814116
 21
-0.500528
  0
LINE
  8
L2
  6
CONTINUOUS
 62
3
 10
2.814116
 20
-0.500528
 11
2.792041
 21
-0.494191
  0
LINE
  8
L2
  6
CONTINUOUS
 62
3
 10
2.792041
 20
-0.494191
 11
2.770678
 21
-0.492186
  0
LINE
  8
L2
  6
CONTINUOUS
 62
3
 10
2.770678
 20
-0.492186
 11
2.750746
 21
-0.494132
  0
LINE
  8
L2
  6
CONTINUOUS
 62
3
 10
2.750746
 20
-0.494132
 11
2.733944
 21
-0.498750
  0
LINE
  8
L2
  6
CONTINUOUS
 62
3
 10
2.733944
 20
-0.498750
 11
2.720046
 21
-0.504722
  0
LINE
  8
L2
  6
CONTINUOUS
 62
3
 10
2.720046
 20
-0.504722
 11
2.708713
 21
-0.511224
  0
LINE
  8
L2
  6
CONTINUOUS
 62
3
 10
2.708713
 20
-0.511224
 11
2.691277
 21
-0.524961
  0
LINE
  8
L2
  6
CONTINUOUS
 62
3
 10
2.691277
 20
-0.524961
 11
2.680669
 21
-0.536788
  0
LINE
  8
L2
  6
CONTINUOUS
 62
3
 10
2.680669
 20
-0.536788
 11
2.674365
 21
-0.546267
  0
LINE
  8
L2
  6
CONTINUOUS
 62
3
 10
2.674365
 20
-0.546267
 11
2.667957
 21
-0.561090
  0
LINE
  8
L2
  6
CONTINUOUS
 62
3
 10
2.667957
 20
-0.561090
 11
2.665698
 21
-0.576170
  0
LINE
  8
L2
  6
CONTINUOUS
 62
3
 10
2.665698
 20
-0.576170
 11
2.665698
 21
-0.610187
  0
LINE
  8
L2
  6
CONTINUOUS
 62
3
 10
2.665698
 20
-0.610187
 11
2.667103
 21
-0.622037
  0
LINE
  8
L2
  6
CONTINUOUS
 62
3
 10
2.667103
 20
-0.622037
 11
2.670565
 21
-0.633166
  0
LINE
  8
L2
  6
CONTINUOUS
 62
3
 10
2.670565
 20
-0.633166
 11
2.675182
 21
-0.642966
  0
LINE
  8
L2
  6
CONTINUOUS
 62
3
 10
2.675182
 20
-0.642966
 11
2.686343
 21
-0.659111
  0
LINE
  8
L2
  6
CONTINUOUS
 62
3
 10
2.686343
 20
-0.659111
 11
2.696722
 21
-0.669528
  0
LINE
  8
L2
  6
CONTINUOUS
 62
3
 10
2.696722
 20
-0.669528
 11
2.705236
 21
-0.675990
  0
LINE
  8
L2
  6
CONTINUOUS
 62
3
 10
2.705236
 20
-0.675990
 11
2.718452
 21
-0.683049
  0
LINE
  8
L2
  6
CONTINUOUS
 62
3
 10
2.718452
 20
-0.683049
 11
2.731127
 21
-0.686522
  0
LINE
  8
L2
  6
CONTINUOUS
 62
3
 10
2.731127
 20
-0.686522
 11
2.738574
 21
-0.687010
  0
LINE
  8
L2
  6
CONTINUOUS
 62
3
 10
2.738574
 20
-0.687010
 11
2.743985
 21
-0.687173
  0
LINE
  8
L2
  6
CONTINUOUS
 62
3
 10
2.743985
 20
-0.687173
 11
2.768847
 21
-0.684975
  0
LINE
  8
L2
  6
CONTINUOUS
 62
3
 10
2.768847
 20
-0.684975
 11
2.791674
 21
-0.678384
  0
LINE
  8
L2
  6
CONTINUOUS
 62
3
 10
2.791674
 20
-0.678384
 11
2.791384
 21
-0.690133
  0
LINE
  8
L2
  6
CONTINUOUS
 62
3
 10
2.791384
 20
-0.690133
 11
2.789482
 21
-0.706925
  0
LINE
  8
L2
  6
CONTINUOUS
 62
3
 10
2.789482
 20
-0.706925
 11
2.786890
 21
-0.716370
  0
LINE
  8
L2
  6
CONTINUOUS
 62
3
 10
2.786890
 20
-0.716370
 11
2.784290
 21
-0.721683
  0
LINE
  8
L2
  6
CONTINUOUS
 62
3
 10
2.784290
 20
-0.721683
 11
2.779337
 21
-0.726806
  0
LINE
  8
L2
  6
CONTINUOUS
 62
3
 10
2.779337
 20
-0.726806
 11
2.773120
 21
-0.728514
  0
LINE
  8
L2
  6
CONTINUOUS
 62
3
 10
2.773120
 20
-0.728514
 11
2.764962
 21
-0.726047
  0
LINE
  8
L2
  6
CONTINUOUS
 62
3
 10
2.764962
 20
-0.726047
 11
2.759953
 21
-0.721540
  0
LINE
  8
L2
  6
CONTINUOUS
 62
3
 10
2.759953
 20
-0.721540
 11
2.754832
 21
-0.711779
  0
LINE
  8
L2
  6
CONTINUOUS
 62
3
 10
2.754832
 20
-0.711779
 11
2.752124
 21
-0.699542
  0
LINE
  8
L2
  6
CONTINUOUS
 62
3
 10
2.752124
 20
-0.699542
 11
2.670743
 21
-0.699542
  0
LINE
  8
L2
  6
CONTINUOUS
 62
3
 10
2.789070
 20
-0.610187
 11
2.787361
 21
-0.617827
  0
LINE
  8
L2
  6
CONTINUOUS
 62
3
 10
2.787361
 20
-0.617827
 11
2.780392
 21
-0.627646
  0
LINE
  8
L2
  6
CONTINUOUS
 62
3
 10
2.780392
 20
-0.627646
 11
2.776096
 21
-0.630701
  0
LINE
  8
L2
  6
CONTINUOUS
 62
3
 10
2.776096
 20
-0.630701
 11
2.771980
 21
-0.631834
  0
LINE
  8
L2
  6
CONTINUOUS
 62
3
 10
2.771980
 20
-0.631834
 11
2.766332
 21
-0.629871
  0
LINE
  8
L2
  6
CONTINUOUS
 62
3
 10
2.766332
 20
-0.629871
 11
2.762057
 21
-0.626289
  0
LINE
  8
L2
  6
CONTINUOUS
 62
3
 10
2.762057
 20
-0.626289
 11
2.756860
 21
-0.618759
  0
LINE
  8
L2
  6
CONTINUOUS
 62
3
 10
2.756860
 20
-0.618759
 11
2.754728
 21
-0.610187
  0
LINE
  8
L2
  6
CONTINUOUS
 62
3
 10
2.754728
 20
-0.610187
 11
2.754728
 21
-0.578774
  0
LINE
  8
L2
  6
CONTINUOUS
 62
3
 10
2.754728
 20
-0.578774
 11
2.756439
 21
-0.570997
  0
LINE
  8
L2
  6
CONTINUOUS
 62
3
 10
2.756439
 20
-0.570997
 11
2.763446
 21
-0.561230
  0
LINE
  8
L2
  6
CONTINUOUS
 62
3
 10
2.763446
 20
-0.561230
 11
2.767789
 21
-0.558232
  0
LINE
  8
L2
  6
CONTINUOUS
 62
3
 10
2.767789
 20
-0.558232
 11
2.771980
 21
-0.557127
  0
LINE
  8
L2
  6
CONTINUOUS
 62
3
 10
2.771980
 20
-0.557127
 11
2.777534
 21
-0.559045
  0
LINE
  8
L2
  6
CONTINUOUS
 62
3
 10
2.777534
 20
-0.559045
 11
2.781770
 21
-0.562567
  0
LINE
  8
L2
  6
CONTINUOUS
 62
3
 10
2.781770
 20
-0.562567
 11
2.786941
 21
-0.570060
  0
LINE
  8
L2
  6
CONTINUOUS
 62
3
 10
2.786941
 20
-0.570060
 11
2.789070
 21
-0.578774
  0
LINE
  8
L2
  6
CONTINUOUS
 62
3
 10
2.789070
 20
-0.578774
 11
2.789070
 21
-0.610187
  0
LINE
  8
L2
  6
CONTINUOUS
 62
3
 10
3.001635
 20
-0.699542
 11
3.003837
 21
-0.715451
  0
LINE
  8
L2
  6
CONTINUOUS
 62
3
 10
3.003837
 20
-0.715451
 11
3.009338
 21
-0.729956
  0
LINE
  8
L2
  6
CONTINUOUS
 62
3
 10
3.009338
 20
-0.729956
 11
3.016766
 21
-0.742428
  0
LINE
  8
L2
  6
CONTINUOUS
 62
3
 10
3.016766
 20
-0.742428
 11
3.025117
 21
-0.752781
  0
LINE
  8
L2
  6
CONTINUOUS
 62
3
 10
3.025117
 20
-0.752781
 11
3.043329
 21
-0.768791
  0
LINE
  8
L2
  6
CONTINUOUS
 62
3
 10
3.043329
 20
-0.768791
 11
3.059348
 21
-0.778429
  0
LINE
  8
L2
  6
CONTINUOUS
 62
3
 10
3.059348
 20
-0.778429
 11
3.072241
 21
-0.784052
  0
LINE
  8
L2
  6
CONTINUOUS
 62
3
 10
3.072241
 20
-0.784052
 11
3.092183
 21
-0.789616
  0
LINE
  8
L2
  6
CONTINUOUS
 62
3
 10
3.092183
 20
-0.789616
 11
3.111661
 21
-0.791502
  0
LINE
  8
L2
  6
CONTINUOUS
 62
3
 10
3.111661
 20
-0.791502
 11
3.129163
 21
-0.789826
  0
LINE
  8
L2
  6
CONTINUOUS
 62
3
 10
3.129163
 20
-0.789826
 11
3.144907
 21
-0.785731
  0
LINE
  8
L2
  6
CONTINUOUS
 62
3
 10
3.144907
 20
-0.785731
 11
3.158532
 21
-0.780270
  0
LINE
  8
L2
  6
CONTINUOUS
 62
3
 10
3.158532
 20
-0.780270
 11
3.170016
 21
-0.774142
  0
LINE
  8
L2
  6
CONTINUOUS
 62
3
 10
3.170016
 20
-0.774142
 11
3.188313
 21
-0.760613
  0
LINE
  8
L2
  6
CONTINUOUS
 62
3
 10
3.188313
 20
-0.760613
 11
3.199820
 21
-0.748320
  0
LINE
  8
L2
  6
CONTINUOUS
 62
3
 10
3.199820
 20
-0.748320
 11
3.206805
 21
-0.738003
  0
LINE
  8
L2
  6
CONTINUOUS
 62
3
 10
3.206805
 20
-0.738003
 11
3.214042
 21
-0.720930
  0
LINE
  8
L2
  6
CONTINUOUS
 62
3
 10
3.214042
 20
-0.720930
 11
3.216642
 21
-0.702147
  0
LINE
  8
L2
  6
CONTINUOUS
 62
3
 10
3.216642
 20
-0.702147
 11
3.216642
 21
-0.581541
  0
LINE
  8
L2
  6
CONTINUOUS
 62
3
 10
3.216642
 20
-0.581541
 11
3.215001
 21
-0.561209
  0
LINE
  8
L2
  6
CONTINUOUS
 62
3
 10
3.215001
 20
-0.561209
 11
3.210875
 21
-0.545642
  0
LINE
  8
L2
  6
CONTINUOUS
 62
3
 10
3.210875
 20
-0.545642
 11
3.205204
 21
-0.533723
  0
LINE
  8
L2
  6
CONTINUOUS
 62
3
 10
3.205204
 20
-0.533723
 11
3.198664
 21
-0.524598
  0
LINE
  8
L2
  6
CONTINUOUS
 62
3
 10
3.198664
 20
-0.524598
 11
3.191734
 21
-0.517612
  0
LINE
  8
L2
  6
CONTINUOUS
 62
3
 10
3.191734
 20
-0.517612
 11
3.176894
 21
-0.507627
  0
LINE
  8
L2
  6
CONTINUOUS
 62
3
 10
3.176894
 20
-0.507627
 11
3.163499
 21
-0.502011
  0
LINE
  8
L2
  6
CONTINUOUS
 62
3
 10
3.163499
 20
-0.502011
 11
3.152178
 21
-0.498852
  0
LINE
  8
L2
  6
CONTINUOUS
 62
3
 10
3.152178
 20
-0.498852
 11
3.133148
 21
-0.495805
  0
LINE
  8
L2
  6
CONTINUOUS
 62
3
 10
3.133148
 20
-0.495805
 11
3.111661
 21
-0.494790
  0
LINE
  8
L2
  6
CONTINUOUS
 62
3
 10
3.111661
 20
-0.494790
 11
3.095945
 21
-0.495917
  0
LINE
  8
L2
  6
CONTINUOUS
 62
3
 10
3.095945
 20
-0.495917
 11
3.080033
 21
-0.499067
  0
LINE
  8
L2
  6
CONTINUOUS
 62
3
 10
3.080033
 20
-0.499067
 11
3.065513
 21
-0.503771
  0
LINE
  8
L2
  6
CONTINUOUS
 62
3
 10
3.065513
 20
-0.503771
 11
3.052969
 21
-0.509509
  0
LINE
  8
L2
  6
CONTINUOUS
 62
3
 10
3.052969
 20
-0.509509
 11
3.042482
 21
-0.515805
  0
LINE
  8
L2
  6
CONTINUOUS
 62
3
 10
3.042482
 20
-0.515805
 11
3.026039
 21
-0.529601
  0
LINE
  8
L2
  6
CONTINUOUS
 62
3
 10
3.026039
 20
-0.529601
 11
3.015928
 21
-0.541998
  0
LINE
  8
L2
  6
CONTINUOUS
 62
3
 10
3.015928
 20
-0.541998
 11
3.009903
 21
-0.552180
  0
LINE
  8
L2
  6
CONTINUOUS
 62
3
 10
3.009903
 20
-0.552180
 11
3.003785
 21
-0.568240
  0
LINE
  8
L2
  6
CONTINUOUS
 62
3
 10
3.003785
 20
-0.568240
 11
3.001635
 21
-0.584145
  0
LINE
  8
L2
  6
CONTINUOUS
 62
3
 10
3.001635
 20
-0.584145
 11
3.001635
 21
-0.699542
  0
LINE
  8
L2
  6
CONTINUOUS
 62
3
 10
3.127612
 20
-0.699542
 11
3.126294
 21
-0.710386
  0
LINE
  8
L2
  6
CONTINUOUS
 62
3
 10
3.126294
 20
-0.710386
 11
3.123706
 21
-0.717545
  0
LINE
  8
L2
  6
CONTINUOUS
 62
3
 10
3.123706
 20
-0.717545
 11
3.117590
 21
-0.725482
  0
LINE
  8
L2
  6
CONTINUOUS
 62
3
 10
3.117590
 20
-0.725482
 11
3.113657
 21
-0.727720
  0
LINE
  8
L2
  6
CONTINUOUS
 62
3
 10
3.113657
 20
-0.727720
 11
3.109220
 21
-0.728514
  0
LINE
  8
L2
  6
CONTINUOUS
 62
3
 10
3.109220
 20
-0.728514
 11
3.101720
 21
-0.726248
  0
LINE
  8
L2
  6
CONTINUOUS
 62
3
 10
3.101720
 20
-0.726248
 11
3.097144
 21
-0.722048
  0
LINE
  8
L2
  6
CONTINUOUS
 62
3
 10
3.097144
 20
-0.722048
 11
3.092383
 21
-0.712977
  0
LINE
  8
L2
  6
CONTINUOUS
 62
3
 10
3.092383
 20
-0.712977
 11
3.090665
 21
-0.702147
  0
LINE
  8
L2
  6
CONTINUOUS
 62
3
 10
3.090665
 20
-0.702147
 11
3.090665
 21
-0.581541
  0
LINE
  8
L2
  6
CONTINUOUS
 62
3
 10
3.090665
 20
-0.581541
 11
3.091871
 21
-0.573022
  0
LINE
  8
L2
  6
CONTINUOUS
 62
3
 10
3.091871
 20
-0.573022
 11
3.094322
 21
-0.567144
  0
LINE
  8
L2
  6
CONTINUOUS
 62
3
 10
3.094322
 20
-0.567144
 11
3.100392
 21
-0.560417
  0
LINE
  8
L2
  6
CONTINUOUS
 62
3
 10
3.100392
 20
-0.560417
 11
3.104470
 21
-0.558475
  0
LINE
  8
L2
  6
CONTINUOUS
 62
3
 10
3.104470
 20
-0.558475
 11
3.109220
 21
-0.557778
  0
LINE
  8
L2
  6
CONTINUOUS
 62
3
 10
3.109220
 20
-0.557778
 11
3.115527
 21
-0.559866
  0
LINE
  8
L2
  6
CONTINUOUS
 62
3
 10
3.115527
 20
-0.559866
 11
3.120080
 21
-0.563711
  0
LINE
  8
L2
  6
CONTINUOUS
 62
3
 10
3.120080
 20
-0.563711
 11
3.125454
 21
-0.571922
  0
LINE
  8
L2
  6
CONTINUOUS
 62
3
 10
3.125454
 20
-0.571922
 11
3.127612
 21
-0.581541
  0
LINE
  8
L2
  6
CONTINUOUS
 62
3
 10
3.127612
 20
-0.581541
 11
3.127612
 21
-0.699542
  0
ENDSEC
  0
EOF
