  0
SECTION
  2
HEADER
  9
$ACADVER
  1
AC1015
  9
$ACADMAINTVER
 70
     6
  9
$DWGCODEPAGE
  3
ANSI_1252
  9
$INSBASE
 10
0.0
 20
0.0
 30
0.0
  9
$EXTMIN
 10
-9.89682
 20
-11.1699
 30
0.0
  9
$EXTMAX
 10
8.56329
 20
16.88161
 30
0.0
  9
$LIMMIN
 10
0.0
 20
0.0
  9
$LIMMAX
 10
12.0
 20
9.0
  9
$ORTHOMODE
 70
     0
  9
$REGENMODE
 70
     1
  9
$FILLMODE
 70
     1
  9
$QTEXTMODE
 70
     0
  9
$MIRRTEXT
 70
     1
  9
$LTSCALE
 40
1.0
  9
$ATTMODE
 70
     1
  9
$TEXTSIZE
 40
0.2
  9
$TRACEWID
 40
0.05
  9
$TEXTSTYLE
  7
Standard
  9
$CLAYER
  8
0
  9
$CELTYPE
  6
ByLayer
  9
$CECOLOR
 62
   256
  9
$CELTSCALE
 40
1.0
  9
$DISPSILH
 70
     0
  9
$DIMSCALE
 40
1.0
  9
$DIMASZ
 40
0.18
  9
$DIMEXO
 40
0.0625
  9
$DIMDLI
 40
0.38
  9
$DIMRND
 40
0.0
  9
$DIMDLE
 40
0.0
  9
$DIMEXE
 40
0.18
  9
$DIMTP
 40
0.0
  9
$DIMTM
 40
0.0
  9
$DIMTXT
 40
0.18
  9
$DIMCEN
 40
0.09
  9
$DIMTSZ
 40
0.0
  9
$DIMTOL
 70
     0
  9
$DIMLIM
 70
     0
  9
$DIMTIH
 70
     1
  9
$DIMTOH
 70
     1
  9
$DIMSE1
 70
     0
  9
$DIMSE2
 70
     0
  9
$DIMTAD
 70
     0
  9
$DIMZIN
 70
     0
  9
$DIMBLK
  1

  9
$DIMASO
 70
     1
  9
$DIMSHO
 70
     1
  9
$DIMPOST
  1

  9
$DIMAPOST
  1

  9
$DIMALT
 70
     0
  9
$DIMALTD
 70
     2
  9
$DIMALTF
 40
25.4
  9
$DIMLFAC
 40
1.0
  9
$DIMTOFL
 70
     0
  9
$DIMTVP
 40
0.0
  9
$DIMTIX
 70
     0
  9
$DIMSOXD
 70
     0
  9
$DIMSAH
 70
     0
  9
$DIMBLK1
  1

  9
$DIMBLK2
  1

  9
$DIMSTYLE
  2
Standard
  9
$DIMCLRD
 70
     0
  9
$DIMCLRE
 70
     0
  9
$DIMCLRT
 70
     0
  9
$DIMTFAC
 40
1.0
  9
$DIMGAP
 40
0.09
  9
$DIMJUST
 70
     0
  9
$DIMSD1
 70
     0
  9
$DIMSD2
 70
     0
  9
$DIMTOLJ
 70
     1
  9
$DIMTZIN
 70
     0
  9
$DIMALTZ
 70
     0
  9
$DIMALTTZ
 70
     0
  9
$DIMUPT
 70
     0
  9
$DIMDEC
 70
     4
  9
$DIMTDEC
 70
     4
  9
$DIMALTU
 70
     2
  9
$DIMALTTD
 70
     2
  9
$DIMTXSTY
  7
Standard
  9
$DIMAUNIT
 70
     0
  9
$DIMADEC
 70
     0
  9
$DIMALTRND
 40
0.0
  9
$DIMAZIN
 70
     0
  9
$DIMDSEP
 70
    46
  9
$DIMATFIT
 70
     3
  9
$DIMFRAC
 70
     0
  9
$DIMLDRBLK
  1

  9
$DIMLUNIT
 70
     2
  9
$DIMLWD
 70
    -2
  9
$DIMLWE
 70
    -2
  9
$DIMTMOVE
 70
     0
  9
$LUNITS
 70
     2
  9
$LUPREC
 70
     4
  9
$SKETCHINC
 40
0.1
  9
$FILLETRAD
 40
0.5
  9
$AUNITS
 70
     0
  9
$AUPREC
 70
     0
  9
$MENU
  1
.
  9
$ELEVATION
 40
0.0
  9
$PELEVATION
 40
0.0
  9
$THICKNESS
 40
0.0
  9
$LIMCHECK
 70
     0
  9
$CHAMFERA
 40
0.5
  9
$CHAMFERB
 40
0.5
  9
$CHAMFERC
 40
1.0
  9
$CHAMFERD
 40
0.0
  9
$SKPOLY
 70
     0
  9
$TDCREATE
 40
2458031.532897049
  9
$TDUCREATE
 40
2458031.303730382
  9
$TDUPDATE
 40
2458031.532897407
  9
$TDUUPDATE
 40
2458031.303730741
  9
$TDINDWG
 40
0.0000000116
  9
$TDUSRTIMER
 40
0.0000000116
  9
$USRTIMER
 70
     1
  9
$ANGBASE
 50
0.0
  9
$ANGDIR
 70
     0
  9
$PDMODE
 70
     0
  9
$PDSIZE
 40
0.0
  9
$PLINEWID
 40
0.0
  9
$SPLFRAME
 70
     0
  9
$SPLINETYPE
 70
     6
  9
$SPLINESEGS
 70
     8
  9
$HANDSEED
  5
10A
  9
$SURFTAB1
 70
     6
  9
$SURFTAB2
 70
     6
  9
$SURFTYPE
 70
     6
  9
$SURFU
 70
     6
  9
$SURFV
 70
     6
  9
$UCSBASE
  2

  9
$UCSNAME
  2

  9
$UCSORG
 10
0.0
 20
0.0
 30
0.0
  9
$UCSXDIR
 10
1.0
 20
0.0
 30
0.0
  9
$UCSYDIR
 10
0.0
 20
1.0
 30
0.0
  9
$UCSORTHOREF
  2

  9
$UCSORTHOVIEW
 70
     0
  9
$UCSORGTOP
 10
0.0
 20
0.0
 30
0.0
  9
$UCSORGBOTTOM
 10
0.0
 20
0.0
 30
0.0
  9
$UCSORGLEFT
 10
0.0
 20
0.0
 30
0.0
  9
$UCSORGRIGHT
 10
0.0
 20
0.0
 30
0.0
  9
$UCSORGFRONT
 10
0.0
 20
0.0
 30
0.0
  9
$UCSORGBACK
 10
0.0
 20
0.0
 30
0.0
  9
$PUCSBASE
  2

  9
$PUCSNAME
  2

  9
$PUCSORG
 10
0.0
 20
0.0
 30
0.0
  9
$PUCSXDIR
 10
1.0
 20
0.0
 30
0.0
  9
$PUCSYDIR
 10
0.0
 20
1.0
 30
0.0
  9
$PUCSORTHOREF
  2

  9
$PUCSORTHOVIEW
 70
     0
  9
$PUCSORGTOP
 10
0.0
 20
0.0
 30
0.0
  9
$PUCSORGBOTTOM
 10
0.0
 20
0.0
 30
0.0
  9
$PUCSORGLEFT
 10
0.0
 20
0.0
 30
0.0
  9
$PUCSORGRIGHT
 10
0.0
 20
0.0
 30
0.0
  9
$PUCSORGFRONT
 10
0.0
 20
0.0
 30
0.0
  9
$PUCSORGBACK
 10
0.0
 20
0.0
 30
0.0
  9
$USERI1
 70
     0
  9
$USERI2
 70
     0
  9
$USERI3
 70
     0
  9
$USERI4
 70
     0
  9
$USERI5
 70
     0
  9
$USERR1
 40
0.0
  9
$USERR2
 40
0.0
  9
$USERR3
 40
0.0
  9
$USERR4
 40
0.0
  9
$USERR5
 40
0.0
  9
$WORLDVIEW
 70
     1
  9
$SHADEDGE
 70
     3
  9
$SHADEDIF
 70
    70
  9
$TILEMODE
 70
     1
  9
$MAXACTVP
 70
    64
  9
$PINSBASE
 10
0.0
 20
0.0
 30
0.0
  9
$PLIMCHECK
 70
     0
  9
$PEXTMIN
 10
1.000000000000000E+20
 20
1.000000000000000E+20
 30
1.000000000000000E+20
  9
$PEXTMAX
 10
-1.000000000000000E+20
 20
-1.000000000000000E+20
 30
-1.000000000000000E+20
  9
$PLIMMIN
 10
0.0
 20
0.0
  9
$PLIMMAX
 10
12.0
 20
9.0
  9
$UNITMODE
 70
     0
  9
$VISRETAIN
 70
     1
  9
$PLINEGEN
 70
     0
  9
$PSLTSCALE
 70
     1
  9
$TREEDEPTH
 70
  3020
  9
$CMLSTYLE
  2
Standard
  9
$CMLJUST
 70
     0
  9
$CMLSCALE
 40
1.0
  9
$PROXYGRAPHICS
 70
     1
  9
$MEASUREMENT
 70
     0
  9
$CELWEIGHT
370
    -1
  9
$ENDCAPS
280
     0
  9
$JOINSTYLE
280
     0
  9
$LWDISPLAY
290
     0
  9
$INSUNITS
 70
     5
  9
$HYPERLINKBASE
  1

  9
$STYLESHEET
  1

  9
$XEDIT
290
     1
  9
$CEPSNTYPE
380
     0
  9
$PSTYLEMODE
290
     1
  9
$FINGERPRINTGUID
  2
{3AA8C226-ED28-48C3-8956-B8BE6ED6832D}
  9
$VERSIONGUID
  2
{FAEB1C32-E019-11D5-929B-00C0DF256EC4}
  9
$EXTNAMES
290
     1
  9
$PSVPSCALE
 40
0.0
  9
$OLESTARTUP
290
     0
  0
ENDSEC
  0
SECTION
  2
CLASSES
  0
CLASS
  1
ACDBDICTIONARYWDFLT
  2
AcDbDictionaryWithDefault
  3
ObjectDBX Classes
 90
        0
280
     0
281
     0
  0
CLASS
  1
VISUALSTYLE
  2
AcDbVisualStyle
  3
ObjectDBX Classes
 90
     4095
280
     0
281
     0
  0
CLASS
  1
MATERIAL
  2
AcDbMaterial
  3
ObjectDBX Classes
 90
     1153
280
     0
281
     0
  0
CLASS
  1
DICTIONARYVAR
  2
AcDbDictionaryVar
  3
ObjectDBX Classes
 90
        0
280
     0
281
     0
  0
CLASS
  1
ACDBPLACEHOLDER
  2
AcDbPlaceHolder
  3
ObjectDBX Classes
 90
        0
280
     0
281
     0
  0
CLASS
  1
LAYOUT
  2
AcDbLayout
  3
ObjectDBX Classes
 90
        0
280
     0
281
     0
  0
ENDSEC
  0
SECTION
  2
TABLES
  0
TABLE
  2
VPORT
  5
8
330
0
100
AcDbSymbolTable
 70
     1
  0
VPORT
  5
29
330
8
100
AcDbSymbolTableRecord
100
AcDbViewportTableRecord
  2
*Active
 70
     0
 10
0.0
 20
0.0
 11
1.0
 21
1.0
 12
10.42990654205607
 22
4.5
 13
0.0
 23
0.0
 14
0.5
 24
0.5
 15
0.5
 25
0.5
 16
0.0
 26
0.0
 36
1.0
 17
0.0
 27
0.0
 37
0.0
 40
9.0
 41
1.972972972850329
 42
50.0
 43
0.0
 44
0.0
 50
0.0
 51
0.0
 71
     0
 72
   100
 73
     1
 74
     3
 75
     0
 76
     0
 77
     0
 78
     0
281
     0
 65
     1
110
0.0
120
0.0
130
0.0
111
1.0
121
0.0
131
0.0
112
0.0
122
1.0
132
0.0
 79
     0
146
0.0
  0
ENDTAB
  0
TABLE
  2
LTYPE
  5
5
330
0
100
AcDbSymbolTable
 70
     1
  0
LTYPE
  5
14
330
5
100
AcDbSymbolTableRecord
100
AcDbLinetypeTableRecord
  2
ByBlock
 70
     0
  3

 72
    65
 73
     0
 40
0.0
  0
LTYPE
  5
15
330
5
100
AcDbSymbolTableRecord
100
AcDbLinetypeTableRecord
  2
ByLayer
 70
     0
  3

 72
    65
 73
     0
 40
0.0
  0
LTYPE
  5
16
330
5
100
AcDbSymbolTableRecord
100
AcDbLinetypeTableRecord
  2
Continuous
 70
     0
  3
Solid line
 72
    65
 73
     0
 40
0.0
  0
ENDTAB
  0
TABLE
  2
LAYER
  5
2
330
0
100
AcDbSymbolTable
 70
     2
  0
LAYER
  5
10
330
2
100
AcDbSymbolTableRecord
100
AcDbLayerTableRecord
  2
0
 70
     0
 62
     7
  6
Continuous
370
    -3
390
F
  0
LAYER
  5
40
330
2
100
AcDbSymbolTableRecord
100
AcDbLayerTableRecord
  2
Layer 1
 70
     0
 62
     7
  6
Continuous
370
    -3
390
F
  0
ENDTAB
  0
TABLE
  2
STYLE
  5
3
330
0
100
AcDbSymbolTable
 70
     1
  0
STYLE
  5
11
330
3
100
AcDbSymbolTableRecord
100
AcDbTextStyleTableRecord
  2
Standard
 70
     0
 40
0.0
 41
1.0
 50
0.0
 71
     0
 42
0.2
  3
txt
  4

  0
ENDTAB
  0
TABLE
  2
VIEW
  5
6
330
0
100
AcDbSymbolTable
 70
     0
  0
ENDTAB
  0
TABLE
  2
UCS
  5
7
330
0
100
AcDbSymbolTable
 70
     0
  0
ENDTAB
  0
TABLE
  2
APPID
  5
9
330
0
100
AcDbSymbolTable
 70
     2
  0
APPID
  5
12
330
9
100
AcDbSymbolTableRecord
100
AcDbRegAppTableRecord
  2
ACAD
 70
     0
  0
APPID
  5
3F
330
9
100
AcDbSymbolTableRecord
100
AcDbRegAppTableRecord
  2
ODA
 70
     0
  0
ENDTAB
  0
TABLE
  2
DIMSTYLE
  5
A
330
0
100
AcDbSymbolTable
 70
     1
100
AcDbDimStyleTable
  0
DIMSTYLE
105
27
330
A
100
AcDbSymbolTableRecord
100
AcDbDimStyleTableRecord
  2
Standard
 70
     0
178
     0
340
11
  0
ENDTAB
  0
TABLE
  2
BLOCK_RECORD
  5
1
330
0
100
AcDbSymbolTable
 70
     1
  0
BLOCK_RECORD
  5
1F
330
1
100
AcDbSymbolTableRecord
100
AcDbBlockTableRecord
  2
*Model_Space
340
22
  0
BLOCK_RECORD
  5
1B
330
1
100
AcDbSymbolTableRecord
100
AcDbBlockTableRecord
  2
*Paper_Space
340
1E
  0
BLOCK_RECORD
  5
23
330
1
100
AcDbSymbolTableRecord
100
AcDbBlockTableRecord
  2
*Paper_Space0
340
26
  0
ENDTAB
  0
ENDSEC
  0
SECTION
  2
BLOCKS
  0
BLOCK
  5
20
330
1F
100
AcDbEntity
  8
0
100
AcDbBlockBegin
  2
*Model_Space
 70
     0
 10
0.0
 20
0.0
 30
0.0
  3
*Model_Space
  1

  0
ENDBLK
  5
21
330
1F
100
AcDbEntity
  8
0
100
AcDbBlockEnd
  0
BLOCK
  5
1C
330
1B
100
AcDbEntity
 67
     1
  8
0
100
AcDbBlockBegin
  2
*Paper_Space
 70
     0
 10
0.0
 20
0.0
 30
0.0
  3
*Paper_Space
  1

  0
ENDBLK
  5
1D
330
1B
100
AcDbEntity
 67
     1
  8
0
100
AcDbBlockEnd
  0
BLOCK
  5
24
330
23
100
AcDbEntity
  8
0
100
AcDbBlockBegin
  2
*Paper_Space0
 70
     0
 10
0.0
 20
0.0
 30
0.0
  3
*Paper_Space0
  1

  0
ENDBLK
  5
25
330
23
100
AcDbEntity
  8
0
100
AcDbBlockEnd
  0
ENDSEC
  0
SECTION
  2
ENTITIES
  0
SPLINE
  5
41
330
1F
100
AcDbEntity
  8
Layer 1
 62
   177
100
AcDbSpline
210
0.0
220
0.0
230
1.0
 70
    11
 71
     3
 72
    20
 73
    16
 74
     0
 42
0.0000000001
 43
0.0000000001
 12
1.0
 22
0.0
 32
0.0
 13
1.0
 23
0.0
 33
0.0
 40
0.0
 40
0.0
 40
0.0
 40
0.0
 40
0.2
 40
0.2
 40
0.2
 40
0.2
 40
0.4
 40
0.4
 40
0.4
 40
0.4
 40
0.6
 40
0.6
 40
0.6
 40
0.6
 40
1.0
 40
1.0
 40
1.0
 40
1.0
 10
-9.89682
 20
16.8778
 30
0.0
 10
-7.23354
 20
16.8778
 30
0.0
 10
-4.57035
 20
16.8778
 30
0.0
 10
-1.90712
 20
16.8778
 30
0.0
 10
-1.90712
 20
16.8778
 30
0.0
 10
-1.90712
 20
7.52984
 30
0.0
 10
-1.90712
 20
-1.81813
 30
0.0
 10
-1.90712
 20
-11.16609
 30
0.0
 10
-1.90712
 20
-11.16609
 30
0.0
 10
-4.57035
 20
-11.16609
 30
0.0
 10
-7.23354
 20
-11.16609
 30
0.0
 10
-9.89682
 20
-11.16609
 30
0.0
 10
-9.89682
 20
-11.16609
 30
0.0
 10
-9.89682
 20
-1.81813
 30
0.0
 10
-9.89682
 20
7.52984
 30
0.0
 10
-9.89682
 20
16.8778
 30
0.0
  0
SPLINE
  5
42
330
1F
100
AcDbEntity
  8
Layer 1
 62
     7
100
AcDbSpline
210
0.0
220
0.0
230
1.0
 70
    11
 71
     3
 72
    28
 73
    24
 74
     0
 42
0.0000000001
 43
0.0000000001
 12
1.0
 22
0.0
 32
0.0
 13
1.0
 23
0.0
 33
0.0
 40
0.0
 40
0.0
 40
0.0
 40
0.0
 40
0.1428571428571428
 40
0.1428571428571428
 40
0.1428571428571428
 40
0.1428571428571428
 40
0.2857142857142857
 40
0.2857142857142857
 40
0.2857142857142857
 40
0.2857142857142857
 40
0.4285714285714285
 40
0.4285714285714285
 40
0.4285714285714285
 40
0.4285714285714285
 40
0.5714285714285714
 40
0.5714285714285714
 40
0.5714285714285714
 40
0.5714285714285714
 40
0.7142857142857143
 40
0.7142857142857143
 40
0.7142857142857143
 40
0.7142857142857143
 40
1.0
 40
1.0
 40
1.0
 40
1.0
 10
-9.48937
 20
16.47036
 30
0.0
 10
-9.38615
 20
16.47036
 30
0.0
 10
-9.28295
 20
16.47036
 30
0.0
 10
-9.17975
 20
16.47036
 30
0.0
 10
-9.17975
 20
16.47036
 30
0.0
 10
-9.18175
 20
16.46832
 30
0.0
 10
-9.18375
 20
16.46633
 30
0.0
 10
-9.18578
 20
16.4643
 30
0.0
 10
-9.18578
 20
16.4643
 30
0.0
 10
-8.9504
 20
16.22887
 30
0.0
 10
-8.715
 20
15.99349
 30
0.0
 10
-8.47958
 20
15.7581
 30
0.0
 10
-8.47958
 20
15.7581
 30
0.0
 10
-8.63969
 20
15.59801
 30
0.0
 10
-8.79972
 20
15.43792
 30
0.0
 10
-8.95984
 20
15.27788
 30
0.0
 10
-8.95984
 20
15.27788
 30
0.0
 10
-9.1363
 20
15.45439
 30
0.0
 10
-9.31283
 20
15.63092
 30
0.0
 10
-9.48937
 20
15.80744
 30
0.0
 10
-9.48937
 20
15.80744
 30
0.0
 10
-9.48937
 20
16.02838
 30
0.0
 10
-9.48937
 20
16.24937
 30
0.0
 10
-9.48937
 20
16.47036
 30
0.0
  0
SPLINE
  5
43
330
1F
100
AcDbEntity
  8
Layer 1
 62
     7
100
AcDbSpline
210
0.0
220
0.0
230
1.0
 70
    11
 71
     3
 72
    40
 73
    36
 74
     0
 42
0.0000000001
 43
0.0000000001
 12
1.0
 22
0.0
 32
0.0
 13
1.0
 23
0.0
 33
0.0
 40
0.0
 40
0.0
 40
0.0
 40
0.0
 40
0.1
 40
0.1
 40
0.1
 40
0.1
 40
0.2
 40
0.2
 40
0.2
 40
0.2
 40
0.3
 40
0.3
 40
0.3
 40
0.3
 40
0.4
 40
0.4
 40
0.4
 40
0.4
 40
0.5
 40
0.5
 40
0.5
 40
0.5
 40
0.6
 40
0.6
 40
0.6
 40
0.6
 40
0.7
 40
0.7
 40
0.7
 40
0.7
 40
0.8
 40
0.8
 40
0.8
 40
0.8
 40
1.0
 40
1.0
 40
1.0
 40
1.0
 10
-8.72777
 20
16.47036
 30
0.0
 10
-8.33162
 20
16.47036
 30
0.0
 10
-7.93544
 20
16.47036
 30
0.0
 10
-7.5393
 20
16.47036
 30
0.0
 10
-7.5393
 20
16.47036
 30
0.0
 10
-7.06888
 20
15.99986
 30
0.0
 10
-6.59839
 20
15.52938
 30
0.0
 10
-6.12795
 20
15.05894
 30
0.0
 10
-6.12795
 20
15.05894
 30
0.0
 10
-6.32806
 20
14.85885
 30
0.0
 10
-6.52814
 20
14.65875
 30
0.0
 10
-6.72826
 20
14.4587
 30
0.0
 10
-6.72826
 20
14.4587
 30
0.0
 10
-7.00125
 20
14.73174
 30
0.0
 10
-7.27436
 20
15.0048
 30
0.0
 10
-7.54739
 20
15.27788
 30
0.0
 10
-7.54739
 20
15.27788
 30
0.0
 10
-7.78283
 20
15.04247
 30
0.0
 10
-8.01819
 20
14.80705
 30
0.0
 10
-8.25361
 20
14.57167
 30
0.0
 10
-8.25361
 20
14.57167
 30
0.0
 10
-8.41364
 20
14.73174
 30
0.0
 10
-8.57377
 20
14.89183
 30
0.0
 10
-8.73383
 20
15.05186
 30
0.0
 10
-8.73383
 20
15.05186
 30
0.0
 10
-8.49843
 20
15.28732
 30
0.0
 10
-8.26301
 20
15.52272
 30
0.0
 10
-8.02761
 20
15.7581
 30
0.0
 10
-8.02761
 20
15.7581
 30
0.0
 10
-8.26301
 20
15.99349
 30
0.0
 10
-8.49843
 20
16.22887
 30
0.0
 10
-8.73383
 20
16.4643
 30
0.0
 10
-8.73383
 20
16.4643
 30
0.0
 10
-8.73184
 20
16.46633
 30
0.0
 10
-8.72976
 20
16.46832
 30
0.0
 10
-8.72777
 20
16.47036
 30
0.0
  0
SPLINE
  5
44
330
1F
100
AcDbEntity
  8
Layer 1
 62
     7
100
AcDbSpline
210
0.0
220
0.0
230
1.0
 70
    11
 71
     3
 72
    16
 73
    12
 74
     0
 42
0.0000000001
 43
0.0000000001
 12
1.0
 22
0.0
 32
0.0
 13
1.0
 23
0.0
 33
0.0
 40
0.0
 40
0.0
 40
0.0
 40
0.0
 40
0.25
 40
0.25
 40
0.25
 40
0.25
 40
0.5
 40
0.5
 40
0.5
 40
0.5
 40
1.0
 40
1.0
 40
1.0
 40
1.0
 10
-7.08738
 20
16.47036
 30
0.0
 10
-6.84323
 20
16.47036
 30
0.0
 10
-6.59907
 20
16.47036
 30
0.0
 10
-6.35497
 20
16.47036
 30
0.0
 10
-6.35497
 20
16.47036
 30
0.0
 10
-6.47701
 20
16.34825
 30
0.0
 10
-6.59907
 20
16.22615
 30
0.0
 10
-6.72115
 20
16.10414
 30
0.0
 10
-6.72115
 20
16.10414
 30
0.0
 10
-6.84323
 20
16.22615
 30
0.0
 10
-6.96531
 20
16.34825
 30
0.0
 10
-7.08738
 20
16.47036
 30
0.0
  0
SPLINE
  5
45
330
1F
100
AcDbEntity
  8
Layer 1
 62
     7
100
AcDbSpline
210
0.0
220
0.0
230
1.0
 70
    11
 71
     3
 72
    20
 73
    16
 74
     0
 42
0.0000000001
 43
0.0000000001
 12
1.0
 22
0.0
 32
0.0
 13
1.0
 23
0.0
 33
0.0
 40
0.0
 40
0.0
 40
0.0
 40
0.0
 40
0.2
 40
0.2
 40
0.2
 40
0.2
 40
0.4
 40
0.4
 40
0.4
 40
0.4
 40
0.6
 40
0.6
 40
0.6
 40
0.6
 40
1.0
 40
1.0
 40
1.0
 40
1.0
 10
-5.90289
 20
16.47036
 30
0.0
 10
-5.50749
 20
16.47036
 30
0.0
 10
-5.11203
 20
16.47036
 30
0.0
 10
-4.71659
 20
16.47036
 30
0.0
 10
-4.71659
 20
16.47036
 30
0.0
 10
-5.11172
 20
16.07518
 30
0.0
 10
-5.50685
 20
15.68006
 30
0.0
 10
-5.90195
 20
15.28492
 30
0.0
 10
-5.90195
 20
15.28492
 30
0.0
 10
-6.0997
 20
15.48264
 30
0.0
 10
-6.29745
 20
15.68041
 30
0.0
 10
-6.49518
 20
15.87814
 30
0.0
 10
-6.49518
 20
15.87814
 30
0.0
 10
-6.29776
 20
16.07554
 30
0.0
 10
-6.10038
 20
16.27295
 30
0.0
 10
-5.90289
 20
16.47036
 30
0.0
  0
SPLINE
  5
46
330
1F
100
AcDbEntity
  8
Layer 1
 62
     7
100
AcDbSpline
210
0.0
220
0.0
230
1.0
 70
    11
 71
     3
 72
    44
 73
    40
 74
     0
 42
0.0000000001
 43
0.0000000001
 12
1.0
 22
0.0
 32
0.0
 13
1.0
 23
0.0
 33
0.0
 40
0.0
 40
0.0
 40
0.0
 40
0.0
 40
0.0909090909090909
 40
0.0909090909090909
 40
0.0909090909090909
 40
0.0909090909090909
 40
0.1818181818181818
 40
0.1818181818181818
 40
0.1818181818181818
 40
0.1818181818181818
 40
0.2727272727272727
 40
0.2727272727272727
 40
0.2727272727272727
 40
0.2727272727272727
 40
0.3636363636363636
 40
0.3636363636363636
 40
0.3636363636363636
 40
0.3636363636363636
 40
0.4545454545454545
 40
0.4545454545454545
 40
0.4545454545454545
 40
0.4545454545454545
 40
0.5454545454545454
 40
0.5454545454545454
 40
0.5454545454545454
 40
0.5454545454545454
 40
0.6363636363636364
 40
0.6363636363636364
 40
0.6363636363636364
 40
0.6363636363636364
 40
0.7272727272727273
 40
0.7272727272727273
 40
0.7272727272727273
 40
0.7272727272727273
 40
0.8181818181818182
 40
0.8181818181818182
 40
0.8181818181818182
 40
0.8181818181818182
 40
1.0
 40
1.0
 40
1.0
 40
1.0
 10
-4.26461
 20
16.47036
 30
0.0
 10
-3.86915
 20
16.47036
 30
0.0
 10
-3.47365
 20
16.47036
 30
0.0
 10
-3.0782
 20
16.47036
 30
0.0
 10
-3.0782
 20
16.47036
 30
0.0
 10
-3.0802
 20
16.46832
 30
0.0
 10
-3.08222
 20
16.46633
 30
0.0
 10
-3.08421
 20
16.4643
 30
0.0
 10
-3.08421
 20
16.4643
 30
0.0
 10
-2.84886
 20
16.22887
 30
0.0
 10
-2.61342
 20
15.99349
 30
0.0
 10
-2.37802
 20
15.7581
 30
0.0
 10
-2.37802
 20
15.7581
 30
0.0
 10
-2.53812
 20
15.59801
 30
0.0
 10
-2.69817
 20
15.43792
 30
0.0
 10
-2.85824
 20
15.27788
 30
0.0
 10
-2.85824
 20
15.27788
 30
0.0
 10
-3.09367
 20
15.51325
 30
0.0
 10
-3.32906
 20
15.74865
 30
0.0
 10
-3.56443
 20
15.98405
 30
0.0
 10
-3.56443
 20
15.98405
 30
0.0
 10
-3.63979
 20
15.90875
 30
0.0
 10
-3.71509
 20
15.83344
 30
0.0
 10
-3.79044
 20
15.7581
 30
0.0
 10
-3.79044
 20
15.7581
 30
0.0
 10
-3.79044
 20
15.7581
 30
0.0
 10
-3.79044
 20
15.7581
 30
0.0
 10
-3.79044
 20
15.7581
 30
0.0
 10
-3.79044
 20
15.7581
 30
0.0
 10
-3.9458
 20
15.6027
 30
0.0
 10
-4.10114
 20
15.44737
 30
0.0
 10
-4.25652
 20
15.29199
 30
0.0
 10
-4.25652
 20
15.29199
 30
0.0
 10
-4.45424
 20
15.48974
 30
0.0
 10
-4.65197
 20
15.68749
 30
0.0
 10
-4.8497
 20
15.88522
 30
0.0
 10
-4.8497
 20
15.88522
 30
0.0
 10
-4.65469
 20
16.08024
 30
0.0
 10
-4.45964
 20
16.27528
 30
0.0
 10
-4.26461
 20
16.47036
 30
0.0
  0
SPLINE
  5
47
330
1F
100
AcDbEntity
  8
Layer 1
 62
     7
100
AcDbSpline
210
0.0
220
0.0
230
1.0
 70
    11
 71
     3
 72
    20
 73
    16
 74
     0
 42
0.0000000001
 43
0.0000000001
 12
1.0
 22
0.0
 32
0.0
 13
1.0
 23
0.0
 33
0.0
 40
0.0
 40
0.0
 40
0.0
 40
0.0
 40
0.2
 40
0.2
 40
0.2
 40
0.2
 40
0.4
 40
0.4
 40
0.4
 40
0.4
 40
0.6
 40
0.6
 40
0.6
 40
0.6
 40
1.0
 40
1.0
 40
1.0
 40
1.0
 10
-2.62624
 20
16.47036
 30
0.0
 10
-2.52235
 20
16.47036
 30
0.0
 10
-2.41849
 20
16.47036
 30
0.0
 10
-2.31458
 20
16.47036
 30
0.0
 10
-2.31458
 20
16.47036
 30
0.0
 10
-2.31458
 20
16.36243
 30
0.0
 10
-2.31458
 20
16.25451
 30
0.0
 10
-2.31458
 20
16.14658
 30
0.0
 10
-2.31458
 20
16.14658
 30
0.0
 10
-2.42045
 20
16.25249
 30
0.0
 10
-2.52637
 20
16.35836
 30
0.0
 10
-2.63228
 20
16.4643
 30
0.0
 10
-2.63228
 20
16.4643
 30
0.0
 10
-2.63023
 20
16.46633
 30
0.0
 10
-2.62827
 20
16.46832
 30
0.0
 10
-2.62624
 20
16.47036
 30
0.0
  0
SPLINE
  5
48
330
1F
100
AcDbEntity
  8
Layer 1
 62
     7
100
AcDbSpline
210
0.0
220
0.0
230
1.0
 70
    11
 71
     3
 72
    16
 73
    12
 74
     0
 42
0.0000000001
 43
0.0000000001
 12
1.0
 22
0.0
 32
0.0
 13
1.0
 23
0.0
 33
0.0
 40
0.0
 40
0.0
 40
0.0
 40
0.0
 40
0.25
 40
0.25
 40
0.25
 40
0.25
 40
0.5
 40
0.5
 40
0.5
 40
0.5
 40
1.0
 40
1.0
 40
1.0
 40
1.0
 10
-2.31458
 20
15.36959
 30
0.0
 10
-2.31458
 20
15.15778
 30
0.0
 10
-2.31458
 20
14.94601
 30
0.0
 10
-2.31458
 20
14.73418
 30
0.0
 10
-2.31458
 20
14.73418
 30
0.0
 10
-2.42045
 20
14.84005
 30
0.0
 10
-2.52637
 20
14.94601
 30
0.0
 10
-2.63228
 20
15.05186
 30
0.0
 10
-2.63228
 20
15.05186
 30
0.0
 10
-2.52637
 20
15.15778
 30
0.0
 10
-2.42045
 20
15.26367
 30
0.0
 10
-2.31458
 20
15.36959
 30
0.0
  0
SPLINE
  5
49
330
1F
100
AcDbEntity
  8
Layer 1
 62
     7
100
AcDbSpline
210
0.0
220
0.0
230
1.0
 70
    11
 71
     3
 72
    32
 73
    28
 74
     0
 42
0.0000000001
 43
0.0000000001
 12
1.0
 22
0.0
 32
0.0
 13
1.0
 23
0.0
 33
0.0
 40
0.0
 40
0.0
 40
0.0
 40
0.0
 40
0.125
 40
0.125
 40
0.125
 40
0.125
 40
0.25
 40
0.25
 40
0.25
 40
0.25
 40
0.375
 40
0.375
 40
0.375
 40
0.375
 40
0.5
 40
0.5
 40
0.5
 40
0.5
 40
0.625
 40
0.625
 40
0.625
 40
0.625
 40
0.75
 40
0.75
 40
0.75
 40
0.75
 40
1.0
 40
1.0
 40
1.0
 40
1.0
 10
-2.31458
 20
14.28225
 30
0.0
 10
-2.31458
 20
13.77841
 30
0.0
 10
-2.31458
 20
13.27457
 30
0.0
 10
-2.31458
 20
12.77076
 30
0.0
 10
-2.31458
 20
12.77076
 30
0.0
 10
-2.49343
 20
12.5919
 30
0.0
 10
-2.6723
 20
12.41305
 30
0.0
 10
-2.85113
 20
12.23413
 30
0.0
 10
-2.85113
 20
12.23413
 30
0.0
 10
-3.04895
 20
12.4319
 30
0.0
 10
-3.24668
 20
12.62966
 30
0.0
 10
-3.44437
 20
12.82736
 30
0.0
 10
-3.44437
 20
12.82736
 30
0.0
 10
-3.16901
 20
13.10276
 30
0.0
 10
-2.89356
 20
13.37822
 30
0.0
 10
-2.61816
 20
13.65362
 30
0.0
 10
-2.61816
 20
13.65362
 30
0.0
 10
-2.85354
 20
13.88903
 30
0.0
 10
-3.08898
 20
14.12445
 30
0.0
 10
-3.32434
 20
14.35981
 30
0.0
 10
-3.32434
 20
14.35981
 30
0.0
 10
-3.16901
 20
14.51521
 30
0.0
 10
-3.01361
 20
14.67054
 30
0.0
 10
-2.85824
 20
14.82593
 30
0.0
 10
-2.85824
 20
14.82593
 30
0.0
 10
-2.67706
 20
14.64469
 30
0.0
 10
-2.49586
 20
14.46348
 30
0.0
 10
-2.31458
 20
14.28225
 30
0.0
  0
SPLINE
  5
4A
330
1F
100
AcDbEntity
  8
Layer 1
 62
     7
100
AcDbSpline
210
0.0
220
0.0
230
1.0
 70
    11
 71
     3
 72
    16
 73
    12
 74
     0
 42
0.0000000001
 43
0.0000000001
 12
1.0
 22
0.0
 32
0.0
 13
1.0
 23
0.0
 33
0.0
 40
0.0
 40
0.0
 40
0.0
 40
0.0
 40
0.25
 40
0.25
 40
0.25
 40
0.25
 40
0.5
 40
0.5
 40
0.5
 40
0.5
 40
1.0
 40
1.0
 40
1.0
 40
1.0
 10
-2.31458
 20
12.31881
 30
0.0
 10
-2.31458
 20
12.11174
 30
0.0
 10
-2.31458
 20
11.90464
 30
0.0
 10
-2.31458
 20
11.69757
 30
0.0
 10
-2.31458
 20
11.69757
 30
0.0
 10
-2.4181
 20
11.8011
 30
0.0
 10
-2.52163
 20
11.90464
 30
0.0
 10
-2.62525
 20
12.00818
 30
0.0
 10
-2.62525
 20
12.00818
 30
0.0
 10
-2.52163
 20
12.11174
 30
0.0
 10
-2.4181
 20
12.21521
 30
0.0
 10
-2.31458
 20
12.31881
 30
0.0
  0
SPLINE
  5
4B
330
1F
100
AcDbEntity
  8
Layer 1
 62
     7
100
AcDbSpline
210
0.0
220
0.0
230
1.0
 70
    11
 71
     3
 72
    48
 73
    44
 74
     0
 42
0.0000000001
 43
0.0000000001
 12
1.0
 22
0.0
 32
0.0
 13
1.0
 23
0.0
 33
0.0
 40
0.0
 40
0.0
 40
0.0
 40
0.0
 40
0.0833333333333333
 40
0.0833333333333333
 40
0.0833333333333333
 40
0.0833333333333333
 40
0.1666666666666667
 40
0.1666666666666667
 40
0.1666666666666667
 40
0.1666666666666667
 40
0.25
 40
0.25
 40
0.25
 40
0.25
 40
0.3333333333333333
 40
0.3333333333333333
 40
0.3333333333333333
 40
0.3333333333333333
 40
0.4166666666666667
 40
0.4166666666666667
 40
0.4166666666666667
 40
0.4166666666666667
 40
0.5
 40
0.5
 40
0.5
 40
0.5
 40
0.5833333333333334
 40
0.5833333333333334
 40
0.5833333333333334
 40
0.5833333333333334
 40
0.6666666666666666
 40
0.6666666666666666
 40
0.6666666666666666
 40
0.6666666666666666
 40
0.75
 40
0.75
 40
0.75
 40
0.75
 40
0.8333333333333334
 40
0.8333333333333334
 40
0.8333333333333334
 40
0.8333333333333334
 40
1.0
 40
1.0
 40
1.0
 40
1.0
 10
-2.31458
 20
11.24559
 30
0.0
 10
-2.31458
 20
11.20787
 30
0.0
 10
-2.31458
 20
11.17013
 30
0.0
 10
-2.31458
 20
11.1324
 30
0.0
 10
-2.31458
 20
11.1324
 30
0.0
 10
-2.57112
 20
10.87585
 30
0.0
 10
-2.82767
 20
10.61931
 30
0.0
 10
-3.08421
 20
10.36268
 30
0.0
 10
-3.08421
 20
10.36268
 30
0.0
 10
-2.84886
 20
10.12735
 30
0.0
 10
-2.61342
 20
9.89193
 30
0.0
 10
-2.37802
 20
9.65651
 30
0.0
 10
-2.37802
 20
9.65651
 30
0.0
 10
-2.53812
 20
9.49649
 30
0.0
 10
-2.69817
 20
9.33637
 30
0.0
 10
-2.85824
 20
9.17634
 30
0.0
 10
-2.85824
 20
9.17634
 30
0.0
 10
-3.09367
 20
9.4117
 30
0.0
 10
-3.32906
 20
9.64712
 30
0.0
 10
-3.56443
 20
9.88254
 30
0.0
 10
-3.56443
 20
9.88254
 30
0.0
 10
-3.63979
 20
9.8072
 30
0.0
 10
-3.71509
 20
9.73188
 30
0.0
 10
-3.79044
 20
9.65651
 30
0.0
 10
-3.79044
 20
9.65651
 30
0.0
 10
-3.79044
 20
9.65651
 30
0.0
 10
-3.79044
 20
9.65651
 30
0.0
 10
-3.79044
 20
9.65651
 30
0.0
 10
-3.79044
 20
9.65651
 30
0.0
 10
-3.9458
 20
9.50119
 30
0.0
 10
-4.10114
 20
9.34581
 30
0.0
 10
-4.25652
 20
9.19045
 30
0.0
 10
-4.25652
 20
9.19045
 30
0.0
 10
-4.45424
 20
9.38815
 30
0.0
 10
-4.65197
 20
9.58591
 30
0.0
 10
-4.8497
 20
9.78367
 30
0.0
 10
-4.8497
 20
9.78367
 30
0.0
 10
-4.18354
 20
10.44984
 30
0.0
 10
-3.51739
 20
11.11601
 30
0.0
 10
-2.85113
 20
11.78221
 30
0.0
 10
-2.85113
 20
11.78221
 30
0.0
 10
-2.6723
 20
11.60337
 30
0.0
 10
-2.49343
 20
11.42443
 30
0.0
 10
-2.31458
 20
11.24559
 30
0.0
  0
SPLINE
  5
4C
330
1F
100
AcDbEntity
  8
Layer 1
 62
     7
100
AcDbSpline
210
0.0
220
0.0
230
1.0
 70
    11
 71
     3
 72
    16
 73
    12
 74
     0
 42
0.0000000001
 43
0.0000000001
 12
1.0
 22
0.0
 32
0.0
 13
1.0
 23
0.0
 33
0.0
 40
0.0
 40
0.0
 40
0.0
 40
0.0
 40
0.25
 40
0.25
 40
0.25
 40
0.25
 40
0.5
 40
0.5
 40
0.5
 40
0.5
 40
1.0
 40
1.0
 40
1.0
 40
1.0
 10
-2.31458
 20
10.68041
 30
0.0
 10
-2.31458
 20
10.46862
 30
0.0
 10
-2.31458
 20
10.25684
 30
0.0
 10
-2.31458
 20
10.04505
 30
0.0
 10
-2.31458
 20
10.04505
 30
0.0
 10
-2.42045
 20
10.15093
 30
0.0
 10
-2.52637
 20
10.25684
 30
0.0
 10
-2.63228
 20
10.36268
 30
0.0
 10
-2.63228
 20
10.36268
 30
0.0
 10
-2.52637
 20
10.46862
 30
0.0
 10
-2.42045
 20
10.57449
 30
0.0
 10
-2.31458
 20
10.68041
 30
0.0
  0
SPLINE
  5
4D
330
1F
100
AcDbEntity
  8
Layer 1
 62
     7
100
AcDbSpline
210
0.0
220
0.0
230
1.0
 70
    11
 71
     3
 72
    16
 73
    12
 74
     0
 42
0.0000000001
 43
0.0000000001
 12
1.0
 22
0.0
 32
0.0
 13
1.0
 23
0.0
 33
0.0
 40
0.0
 40
0.0
 40
0.0
 40
0.0
 40
0.25
 40
0.25
 40
0.25
 40
0.25
 40
0.5
 40
0.5
 40
0.5
 40
0.5
 40
1.0
 40
1.0
 40
1.0
 40
1.0
 10
-2.31458
 20
9.26807
 30
0.0
 10
-2.31458
 20
9.05626
 30
0.0
 10
-2.31458
 20
8.84447
 30
0.0
 10
-2.31458
 20
8.63265
 30
0.0
 10
-2.31458
 20
8.63265
 30
0.0
 10
-2.42045
 20
8.73854
 30
0.0
 10
-2.52637
 20
8.84447
 30
0.0
 10
-2.63228
 20
8.95035
 30
0.0
 10
-2.63228
 20
8.95035
 30
0.0
 10
-2.52637
 20
9.05626
 30
0.0
 10
-2.42045
 20
9.16213
 30
0.0
 10
-2.31458
 20
9.26807
 30
0.0
  0
SPLINE
  5
4E
330
1F
100
AcDbEntity
  8
Layer 1
 62
     7
100
AcDbSpline
210
0.0
220
0.0
230
1.0
 70
    11
 71
     3
 72
    36
 73
    32
 74
     0
 42
0.0000000001
 43
0.0000000001
 12
1.0
 22
0.0
 32
0.0
 13
1.0
 23
0.0
 33
0.0
 40
0.0
 40
0.0
 40
0.0
 40
0.0
 40
0.1111111111111111
 40
0.1111111111111111
 40
0.1111111111111111
 40
0.1111111111111111
 40
0.2222222222222222
 40
0.2222222222222222
 40
0.2222222222222222
 40
0.2222222222222222
 40
0.3333333333333333
 40
0.3333333333333333
 40
0.3333333333333333
 40
0.3333333333333333
 40
0.4444444444444444
 40
0.4444444444444444
 40
0.4444444444444444
 40
0.4444444444444444
 40
0.5555555555555556
 40
0.5555555555555556
 40
0.5555555555555556
 40
0.5555555555555556
 40
0.6666666666666666
 40
0.6666666666666666
 40
0.6666666666666666
 40
0.6666666666666666
 40
0.7777777777777778
 40
0.7777777777777778
 40
0.7777777777777778
 40
0.7777777777777778
 40
1.0
 40
1.0
 40
1.0
 40
1.0
 10
-2.31458
 20
8.18069
 30
0.0
 10
-2.31458
 20
7.67689
 30
0.0
 10
-2.31458
 20
7.17303
 30
0.0
 10
-2.31458
 20
6.66922
 30
0.0
 10
-2.31458
 20
6.66922
 30
0.0
 10
-2.49343
 20
6.49039
 30
0.0
 10
-2.6723
 20
6.31153
 30
0.0
 10
-2.85113
 20
6.13262
 30
0.0
 10
-2.85113
 20
6.13262
 30
0.0
 10
-2.94186
 20
6.22329
 30
0.0
 10
-3.03245
 20
6.31388
 30
0.0
 10
-3.12305
 20
6.40451
 30
0.0
 10
-3.12305
 20
6.40451
 30
0.0
 10
-3.23017
 20
6.51162
 30
0.0
 10
-3.33727
 20
6.61873
 30
0.0
 10
-3.44437
 20
6.72587
 30
0.0
 10
-3.44437
 20
6.72587
 30
0.0
 10
-3.16901
 20
7.00125
 30
0.0
 10
-2.89356
 20
7.27666
 30
0.0
 10
-2.61816
 20
7.55207
 30
0.0
 10
-2.61816
 20
7.55207
 30
0.0
 10
-2.85354
 20
7.78743
 30
0.0
 10
-3.08898
 20
8.0229
 30
0.0
 10
-3.32434
 20
8.25829
 30
0.0
 10
-3.32434
 20
8.25829
 30
0.0
 10
-3.16901
 20
8.4136
 30
0.0
 10
-3.01361
 20
8.56898
 30
0.0
 10
-2.85824
 20
8.72436
 30
0.0
 10
-2.85824
 20
8.72436
 30
0.0
 10
-2.67706
 20
8.54314
 30
0.0
 10
-2.49586
 20
8.36192
 30
0.0
 10
-2.31458
 20
8.18069
 30
0.0
  0
SPLINE
  5
4F
330
1F
100
AcDbEntity
  8
Layer 1
 62
     7
100
AcDbSpline
210
0.0
220
0.0
230
1.0
 70
    11
 71
     3
 72
    16
 73
    12
 74
     0
 42
0.0000000001
 43
0.0000000001
 12
1.0
 22
0.0
 32
0.0
 13
1.0
 23
0.0
 33
0.0
 40
0.0
 40
0.0
 40
0.0
 40
0.0
 40
0.25
 40
0.25
 40
0.25
 40
0.25
 40
0.5
 40
0.5
 40
0.5
 40
0.5
 40
1.0
 40
1.0
 40
1.0
 40
1.0
 10
-2.31458
 20
6.21726
 30
0.0
 10
-2.31458
 20
6.01018
 30
0.0
 10
-2.31458
 20
5.80312
 30
0.0
 10
-2.31458
 20
5.59602
 30
0.0
 10
-2.31458
 20
5.59602
 30
0.0
 10
-2.4181
 20
5.69957
 30
0.0
 10
-2.52163
 20
5.8031
 30
0.0
 10
-2.62525
 20
5.90664
 30
0.0
 10
-2.62525
 20
5.90664
 30
0.0
 10
-2.52163
 20
6.01018
 30
0.0
 10
-2.4181
 20
6.11374
 30
0.0
 10
-2.31458
 20
6.21726
 30
0.0
  0
SPLINE
  5
50
330
1F
100
AcDbEntity
  8
Layer 1
 62
     7
100
AcDbSpline
210
0.0
220
0.0
230
1.0
 70
    11
 71
     3
 72
    52
 73
    48
 74
     0
 42
0.0000000001
 43
0.0000000001
 12
1.0
 22
0.0
 32
0.0
 13
1.0
 23
0.0
 33
0.0
 40
0.0
 40
0.0
 40
0.0
 40
0.0
 40
0.0769230769230769
 40
0.0769230769230769
 40
0.0769230769230769
 40
0.0769230769230769
 40
0.1538461538461539
 40
0.1538461538461539
 40
0.1538461538461539
 40
0.1538461538461539
 40
0.2307692307692308
 40
0.2307692307692308
 40
0.2307692307692308
 40
0.2307692307692308
 40
0.3076923076923077
 40
0.3076923076923077
 40
0.3076923076923077
 40
0.3076923076923077
 40
0.3846153846153846
 40
0.3846153846153846
 40
0.3846153846153846
 40
0.3846153846153846
 40
0.4615384615384616
 40
0.4615384615384616
 40
0.4615384615384616
 40
0.4615384615384616
 40
0.5384615384615384
 40
0.5384615384615384
 40
0.5384615384615384
 40
0.5384615384615384
 40
0.6153846153846154
 40
0.6153846153846154
 40
0.6153846153846154
 40
0.6153846153846154
 40
0.6923076923076923
 40
0.6923076923076923
 40
0.6923076923076923
 40
0.6923076923076923
 40
0.7692307692307693
 40
0.7692307692307693
 40
0.7692307692307693
 40
0.7692307692307693
 40
0.8461538461538461
 40
0.8461538461538461
 40
0.8461538461538461
 40
0.8461538461538461
 40
1.0
 40
1.0
 40
1.0
 40
1.0
 10
-2.31458
 20
5.14403
 30
0.0
 10
-2.31458
 20
5.1063
 30
0.0
 10
-2.31458
 20
5.06855
 30
0.0
 10
-2.31458
 20
5.03083
 30
0.0
 10
-2.31458
 20
5.03083
 30
0.0
 10
-2.57112
 20
4.7743
 30
0.0
 10
-2.82767
 20
4.51774
 30
0.0
 10
-3.08421
 20
4.26118
 30
0.0
 10
-3.08421
 20
4.26118
 30
0.0
 10
-2.84886
 20
4.02579
 30
0.0
 10
-2.61342
 20
3.7904
 30
0.0
 10
-2.37802
 20
3.555
 30
0.0
 10
-2.37802
 20
3.555
 30
0.0
 10
-2.53812
 20
3.39491
 30
0.0
 10
-2.69817
 20
3.23484
 30
0.0
 10
-2.85824
 20
3.07478
 30
0.0
 10
-2.85824
 20
3.07478
 30
0.0
 10
-3.09367
 20
3.31017
 30
0.0
 10
-3.32906
 20
3.54559
 30
0.0
 10
-3.56443
 20
3.78096
 30
0.0
 10
-3.56443
 20
3.78096
 30
0.0
 10
-3.63979
 20
3.70563
 30
0.0
 10
-3.71509
 20
3.63031
 30
0.0
 10
-3.79044
 20
3.555
 30
0.0
 10
-3.79044
 20
3.555
 30
0.0
 10
-3.79044
 20
3.555
 30
0.0
 10
-3.79044
 20
3.555
 30
0.0
 10
-3.79044
 20
3.555
 30
0.0
 10
-3.79044
 20
3.555
 30
0.0
 10
-3.9458
 20
3.39961
 30
0.0
 10
-4.10114
 20
3.24422
 30
0.0
 10
-4.25652
 20
3.08892
 30
0.0
 10
-4.25652
 20
3.08892
 30
0.0
 10
-4.45424
 20
3.28665
 30
0.0
 10
-4.65197
 20
3.48437
 30
0.0
 10
-4.8497
 20
3.68214
 30
0.0
 10
-4.8497
 20
3.68214
 30
0.0
 10
-4.18354
 20
4.34828
 30
0.0
 10
-3.51739
 20
5.0145
 30
0.0
 10
-2.85113
 20
5.68065
 30
0.0
 10
-2.85113
 20
5.68065
 30
0.0
 10
-2.7605
 20
5.59001
 30
0.0
 10
-2.6699
 20
5.4994
 30
0.0
 10
-2.57933
 20
5.4088
 30
0.0
 10
-2.57933
 20
5.4088
 30
0.0
 10
-2.49109
 20
5.3205
 30
0.0
 10
-2.40284
 20
5.23231
 30
0.0
 10
-2.31458
 20
5.14403
 30
0.0
  0
SPLINE
  5
51
330
1F
100
AcDbEntity
  8
Layer 1
 62
     7
100
AcDbSpline
210
0.0
220
0.0
230
1.0
 70
    11
 71
     3
 72
    16
 73
    12
 74
     0
 42
0.0000000001
 43
0.0000000001
 12
1.0
 22
0.0
 32
0.0
 13
1.0
 23
0.0
 33
0.0
 40
0.0
 40
0.0
 40
0.0
 40
0.0
 40
0.25
 40
0.25
 40
0.25
 40
0.25
 40
0.5
 40
0.5
 40
0.5
 40
0.5
 40
1.0
 40
1.0
 40
1.0
 40
1.0
 10
-2.31458
 20
4.5789
 30
0.0
 10
-2.31458
 20
4.36712
 30
0.0
 10
-2.31458
 20
4.1553
 30
0.0
 10
-2.31458
 20
3.94353
 30
0.0
 10
-2.31458
 20
3.94353
 30
0.0
 10
-2.42045
 20
4.04938
 30
0.0
 10
-2.52637
 20
4.1553
 30
0.0
 10
-2.63228
 20
4.26118
 30
0.0
 10
-2.63228
 20
4.26118
 30
0.0
 10
-2.52637
 20
4.36712
 30
0.0
 10
-2.42045
 20
4.47296
 30
0.0
 10
-2.31458
 20
4.5789
 30
0.0
  0
SPLINE
  5
52
330
1F
100
AcDbEntity
  8
Layer 1
 62
     7
100
AcDbSpline
210
0.0
220
0.0
230
1.0
 70
    11
 71
     3
 72
    16
 73
    12
 74
     0
 42
0.0000000001
 43
0.0000000001
 12
1.0
 22
0.0
 32
0.0
 13
1.0
 23
0.0
 33
0.0
 40
0.0
 40
0.0
 40
0.0
 40
0.0
 40
0.25
 40
0.25
 40
0.25
 40
0.25
 40
0.5
 40
0.5
 40
0.5
 40
0.5
 40
1.0
 40
1.0
 40
1.0
 40
1.0
 10
-2.31458
 20
3.16651
 30
0.0
 10
-2.31458
 20
2.9547
 30
0.0
 10
-2.31458
 20
2.74289
 30
0.0
 10
-2.31458
 20
2.53109
 30
0.0
 10
-2.31458
 20
2.53109
 30
0.0
 10
-2.42045
 20
2.63702
 30
0.0
 10
-2.52637
 20
2.74289
 30
0.0
 10
-2.63228
 20
2.84878
 30
0.0
 10
-2.63228
 20
2.84878
 30
0.0
 10
-2.52637
 20
2.9547
 30
0.0
 10
-2.42045
 20
3.06062
 30
0.0
 10
-2.31458
 20
3.16651
 30
0.0
  0
SPLINE
  5
53
330
1F
100
AcDbEntity
  8
Layer 1
 62
     7
100
AcDbSpline
210
0.0
220
0.0
230
1.0
 70
    11
 71
     3
 72
    36
 73
    32
 74
     0
 42
0.0000000001
 43
0.0000000001
 12
1.0
 22
0.0
 32
0.0
 13
1.0
 23
0.0
 33
0.0
 40
0.0
 40
0.0
 40
0.0
 40
0.0
 40
0.1111111111111111
 40
0.1111111111111111
 40
0.1111111111111111
 40
0.1111111111111111
 40
0.2222222222222222
 40
0.2222222222222222
 40
0.2222222222222222
 40
0.2222222222222222
 40
0.3333333333333333
 40
0.3333333333333333
 40
0.3333333333333333
 40
0.3333333333333333
 40
0.4444444444444444
 40
0.4444444444444444
 40
0.4444444444444444
 40
0.4444444444444444
 40
0.5555555555555556
 40
0.5555555555555556
 40
0.5555555555555556
 40
0.5555555555555556
 40
0.6666666666666666
 40
0.6666666666666666
 40
0.6666666666666666
 40
0.6666666666666666
 40
0.7777777777777778
 40
0.7777777777777778
 40
0.7777777777777778
 40
0.7777777777777778
 40
1.0
 40
1.0
 40
1.0
 40
1.0
 10
-2.31458
 20
2.07916
 30
0.0
 10
-2.31458
 20
1.57533
 30
0.0
 10
-2.31458
 20
1.0715
 30
0.0
 10
-2.31458
 20
0.56768
 30
0.0
 10
-2.31458
 20
0.56768
 30
0.0
 10
-2.49343
 20
0.38884
 30
0.0
 10
-2.6723
 20
0.20992
 30
0.0
 10
-2.85113
 20
0.03106
 30
0.0
 10
-2.85113
 20
0.03106
 30
0.0
 10
-2.93243
 20
0.11225
 30
0.0
 10
-3.01361
 20
0.19352
 30
0.0
 10
-3.0948
 20
0.2747
 30
0.0
 10
-3.0948
 20
0.2747
 30
0.0
 10
-3.21136
 20
0.39123
 30
0.0
 10
-3.32789
 20
0.50779
 30
0.0
 10
-3.44437
 20
0.62426
 30
0.0
 10
-3.44437
 20
0.62426
 30
0.0
 10
-3.16901
 20
0.89968
 30
0.0
 10
-2.89356
 20
1.17513
 30
0.0
 10
-2.61816
 20
1.45053
 30
0.0
 10
-2.61816
 20
1.45053
 30
0.0
 10
-2.85354
 20
1.68594
 30
0.0
 10
-3.08898
 20
1.92131
 30
0.0
 10
-3.32434
 20
2.15671
 30
0.0
 10
-3.32434
 20
2.15671
 30
0.0
 10
-3.16901
 20
2.3121
 30
0.0
 10
-3.01361
 20
2.46749
 30
0.0
 10
-2.85824
 20
2.62279
 30
0.0
 10
-2.85824
 20
2.62279
 30
0.0
 10
-2.67706
 20
2.44162
 30
0.0
 10
-2.49586
 20
2.26037
 30
0.0
 10
-2.31458
 20
2.07916
 30
0.0
  0
SPLINE
  5
54
330
1F
100
AcDbEntity
  8
Layer 1
 62
     7
100
AcDbSpline
210
0.0
220
0.0
230
1.0
 70
    11
 71
     3
 72
    16
 73
    12
 74
     0
 42
0.0000000001
 43
0.0000000001
 12
1.0
 22
0.0
 32
0.0
 13
1.0
 23
0.0
 33
0.0
 40
0.0
 40
0.0
 40
0.0
 40
0.0
 40
0.25
 40
0.25
 40
0.25
 40
0.25
 40
0.5
 40
0.5
 40
0.5
 40
0.5
 40
1.0
 40
1.0
 40
1.0
 40
1.0
 10
-2.31458
 20
0.1157
 30
0.0
 10
-2.31458
 20
-0.09139
 30
0.0
 10
-2.31458
 20
-0.29847
 30
0.0
 10
-2.31458
 20
-0.50555
 30
0.0
 10
-2.31458
 20
-0.50555
 30
0.0
 10
-2.4181
 20
-0.40201
 30
0.0
 10
-2.52163
 20
-0.29847
 30
0.0
 10
-2.62525
 20
-0.19493
 30
0.0
 10
-2.62525
 20
-0.19493
 30
0.0
 10
-2.52163
 20
-0.09139
 30
0.0
 10
-2.4181
 20
0.01217
 30
0.0
 10
-2.31458
 20
0.1157
 30
0.0
  0
SPLINE
  5
55
330
1F
100
AcDbEntity
  8
Layer 1
 62
     7
100
AcDbSpline
210
0.0
220
0.0
230
1.0
 70
    11
 71
     3
 72
    52
 73
    48
 74
     0
 42
0.0000000001
 43
0.0000000001
 12
1.0
 22
0.0
 32
0.0
 13
1.0
 23
0.0
 33
0.0
 40
0.0
 40
0.0
 40
0.0
 40
0.0
 40
0.0769230769230769
 40
0.0769230769230769
 40
0.0769230769230769
 40
0.0769230769230769
 40
0.1538461538461539
 40
0.1538461538461539
 40
0.1538461538461539
 40
0.1538461538461539
 40
0.2307692307692308
 40
0.2307692307692308
 40
0.2307692307692308
 40
0.2307692307692308
 40
0.3076923076923077
 40
0.3076923076923077
 40
0.3076923076923077
 40
0.3076923076923077
 40
0.3846153846153846
 40
0.3846153846153846
 40
0.3846153846153846
 40
0.3846153846153846
 40
0.4615384615384616
 40
0.4615384615384616
 40
0.4615384615384616
 40
0.4615384615384616
 40
0.5384615384615384
 40
0.5384615384615384
 40
0.5384615384615384
 40
0.5384615384615384
 40
0.6153846153846154
 40
0.6153846153846154
 40
0.6153846153846154
 40
0.6153846153846154
 40
0.6923076923076923
 40
0.6923076923076923
 40
0.6923076923076923
 40
0.6923076923076923
 40
0.7692307692307693
 40
0.7692307692307693
 40
0.7692307692307693
 40
0.7692307692307693
 40
0.8461538461538461
 40
0.8461538461538461
 40
0.8461538461538461
 40
0.8461538461538461
 40
1.0
 40
1.0
 40
1.0
 40
1.0
 10
-2.31458
 20
-0.95751
 30
0.0
 10
-2.31458
 20
-0.99525
 30
0.0
 10
-2.31458
 20
-1.03298
 30
0.0
 10
-2.31458
 20
-1.07068
 30
0.0
 10
-2.31458
 20
-1.07068
 30
0.0
 10
-2.57112
 20
-1.32727
 30
0.0
 10
-2.82767
 20
-1.58381
 30
0.0
 10
-3.08421
 20
-1.84035
 30
0.0
 10
-3.08421
 20
-1.84035
 30
0.0
 10
-2.84886
 20
-2.07573
 30
0.0
 10
-2.61342
 20
-2.3112
 30
0.0
 10
-2.37802
 20
-2.54659
 30
0.0
 10
-2.37802
 20
-2.54659
 30
0.0
 10
-2.53812
 20
-2.70663
 30
0.0
 10
-2.69817
 20
-2.86673
 30
0.0
 10
-2.85824
 20
-3.02678
 30
0.0
 10
-2.85824
 20
-3.02678
 30
0.0
 10
-3.09367
 20
-2.79137
 30
0.0
 10
-3.32906
 20
-2.55598
 30
0.0
 10
-3.56443
 20
-2.32058
 30
0.0
 10
-3.56443
 20
-2.32058
 30
0.0
 10
-3.63979
 20
-2.3959
 30
0.0
 10
-3.71509
 20
-2.47122
 30
0.0
 10
-3.79044
 20
-2.54659
 30
0.0
 10
-3.79044
 20
-2.54659
 30
0.0
 10
-3.79044
 20
-2.54659
 30
0.0
 10
-3.79044
 20
-2.54659
 30
0.0
 10
-3.79044
 20
-2.54659
 30
0.0
 10
-3.79044
 20
-2.54659
 30
0.0
 10
-3.9458
 20
-2.7019
 30
0.0
 10
-4.10114
 20
-2.85727
 30
0.0
 10
-4.25652
 20
-3.01263
 30
0.0
 10
-4.25652
 20
-3.01263
 30
0.0
 10
-4.45424
 20
-2.81495
 30
0.0
 10
-4.65197
 20
-2.61713
 30
0.0
 10
-4.8497
 20
-2.4194
 30
0.0
 10
-4.8497
 20
-2.4194
 30
0.0
 10
-4.18354
 20
-1.75322
 30
0.0
 10
-3.51739
 20
-1.08708
 30
0.0
 10
-2.85113
 20
-0.42091
 30
0.0
 10
-2.85113
 20
-0.42091
 30
0.0
 10
-2.75116
 20
-0.52094
 30
0.0
 10
-2.65111
 20
-0.62093
 30
0.0
 10
-2.55106
 20
-0.72101
 30
0.0
 10
-2.55106
 20
-0.72101
 30
0.0
 10
-2.4722
 20
-0.79988
 30
0.0
 10
-2.39338
 20
-0.87869
 30
0.0
 10
-2.31458
 20
-0.95751
 30
0.0
  0
SPLINE
  5
56
330
1F
100
AcDbEntity
  8
Layer 1
 62
     7
100
AcDbSpline
210
0.0
220
0.0
230
1.0
 70
    11
 71
     3
 72
    16
 73
    12
 74
     0
 42
0.0000000001
 43
0.0000000001
 12
1.0
 22
0.0
 32
0.0
 13
1.0
 23
0.0
 33
0.0
 40
0.0
 40
0.0
 40
0.0
 40
0.0
 40
0.25
 40
0.25
 40
0.25
 40
0.25
 40
0.5
 40
0.5
 40
0.5
 40
0.5
 40
1.0
 40
1.0
 40
1.0
 40
1.0
 10
-2.31458
 20
-1.52267
 30
0.0
 10
-2.31458
 20
-1.73448
 30
0.0
 10
-2.31458
 20
-1.94625
 30
0.0
 10
-2.31458
 20
-2.15806
 30
0.0
 10
-2.31458
 20
-2.15806
 30
0.0
 10
-2.42045
 20
-2.05217
 30
0.0
 10
-2.52637
 20
-1.94625
 30
0.0
 10
-2.63228
 20
-1.84035
 30
0.0
 10
-2.63228
 20
-1.84035
 30
0.0
 10
-2.52637
 20
-1.73449
 30
0.0
 10
-2.42045
 20
-1.62859
 30
0.0
 10
-2.31458
 20
-1.52267
 30
0.0
  0
SPLINE
  5
57
330
1F
100
AcDbEntity
  8
Layer 1
 62
     7
100
AcDbSpline
210
0.0
220
0.0
230
1.0
 70
    11
 71
     3
 72
    16
 73
    12
 74
     0
 42
0.0000000001
 43
0.0000000001
 12
1.0
 22
0.0
 32
0.0
 13
1.0
 23
0.0
 33
0.0
 40
0.0
 40
0.0
 40
0.0
 40
0.0
 40
0.25
 40
0.25
 40
0.25
 40
0.25
 40
0.5
 40
0.5
 40
0.5
 40
0.5
 40
1.0
 40
1.0
 40
1.0
 40
1.0
 10
-2.31458
 20
-2.93507
 30
0.0
 10
-2.31458
 20
-3.14684
 30
0.0
 10
-2.31458
 20
-3.35864
 30
0.0
 10
-2.31458
 20
-3.57042
 30
0.0
 10
-2.31458
 20
-3.57042
 30
0.0
 10
-2.42045
 20
-3.46456
 30
0.0
 10
-2.52637
 20
-3.35864
 30
0.0
 10
-2.63228
 20
-3.25279
 30
0.0
 10
-2.63228
 20
-3.25279
 30
0.0
 10
-2.52637
 20
-3.14684
 30
0.0
 10
-2.42045
 20
-3.04096
 30
0.0
 10
-2.31458
 20
-2.93507
 30
0.0
  0
SPLINE
  5
58
330
1F
100
AcDbEntity
  8
Layer 1
 62
     7
100
AcDbSpline
210
0.0
220
0.0
230
1.0
 70
    11
 71
     3
 72
    36
 73
    32
 74
     0
 42
0.0000000001
 43
0.0000000001
 12
1.0
 22
0.0
 32
0.0
 13
1.0
 23
0.0
 33
0.0
 40
0.0
 40
0.0
 40
0.0
 40
0.0
 40
0.1111111111111111
 40
0.1111111111111111
 40
0.1111111111111111
 40
0.1111111111111111
 40
0.2222222222222222
 40
0.2222222222222222
 40
0.2222222222222222
 40
0.2222222222222222
 40
0.3333333333333333
 40
0.3333333333333333
 40
0.3333333333333333
 40
0.3333333333333333
 40
0.4444444444444444
 40
0.4444444444444444
 40
0.4444444444444444
 40
0.4444444444444444
 40
0.5555555555555556
 40
0.5555555555555556
 40
0.5555555555555556
 40
0.5555555555555556
 40
0.6666666666666666
 40
0.6666666666666666
 40
0.6666666666666666
 40
0.6666666666666666
 40
0.7777777777777778
 40
0.7777777777777778
 40
0.7777777777777778
 40
0.7777777777777778
 40
1.0
 40
1.0
 40
1.0
 40
1.0
 10
-2.31458
 20
-4.02238
 30
0.0
 10
-2.31458
 20
-4.52623
 30
0.0
 10
-2.31458
 20
-5.03006
 30
0.0
 10
-2.31458
 20
-5.53389
 30
0.0
 10
-2.31458
 20
-5.53389
 30
0.0
 10
-2.49343
 20
-5.71272
 30
0.0
 10
-2.6723
 20
-5.89161
 30
0.0
 10
-2.85113
 20
-6.07049
 30
0.0
 10
-2.85113
 20
-6.07049
 30
0.0
 10
-2.92298
 20
-5.99869
 30
0.0
 10
-2.99481
 20
-5.9269
 30
0.0
 10
-3.06661
 20
-5.85506
 30
0.0
 10
-3.06661
 20
-5.85506
 30
0.0
 10
-3.19254
 20
-5.72916
 30
0.0
 10
-3.31846
 20
-5.60324
 30
0.0
 10
-3.44437
 20
-5.47728
 30
0.0
 10
-3.44437
 20
-5.47728
 30
0.0
 10
-3.16901
 20
-5.20184
 30
0.0
 10
-2.89356
 20
-4.92644
 30
0.0
 10
-2.61816
 20
-4.65098
 30
0.0
 10
-2.61816
 20
-4.65098
 30
0.0
 10
-2.85354
 20
-4.41563
 30
0.0
 10
-3.08898
 20
-4.18023
 30
0.0
 10
-3.32434
 20
-3.94481
 30
0.0
 10
-3.32434
 20
-3.94481
 30
0.0
 10
-3.16901
 20
-3.78949
 30
0.0
 10
-3.01361
 20
-3.63411
 30
0.0
 10
-2.85824
 20
-3.47874
 30
0.0
 10
-2.85824
 20
-3.47874
 30
0.0
 10
-2.67706
 20
-3.65995
 30
0.0
 10
-2.49586
 20
-3.84121
 30
0.0
 10
-2.31458
 20
-4.02238
 30
0.0
  0
SPLINE
  5
59
330
1F
100
AcDbEntity
  8
Layer 1
 62
     7
100
AcDbSpline
210
0.0
220
0.0
230
1.0
 70
    11
 71
     3
 72
    16
 73
    12
 74
     0
 42
0.0000000001
 43
0.0000000001
 12
1.0
 22
0.0
 32
0.0
 13
1.0
 23
0.0
 33
0.0
 40
0.0
 40
0.0
 40
0.0
 40
0.0
 40
0.25
 40
0.25
 40
0.25
 40
0.25
 40
0.5
 40
0.5
 40
0.5
 40
0.5
 40
1.0
 40
1.0
 40
1.0
 40
1.0
 10
-2.31458
 20
-5.98587
 30
0.0
 10
-2.31458
 20
-6.1929
 30
0.0
 10
-2.31458
 20
-6.40003
 30
0.0
 10
-2.31458
 20
-6.60711
 30
0.0
 10
-2.31458
 20
-6.60711
 30
0.0
 10
-2.4181
 20
-6.50351
 30
0.0
 10
-2.52163
 20
-6.40003
 30
0.0
 10
-2.62525
 20
-6.29648
 30
0.0
 10
-2.62525
 20
-6.29648
 30
0.0
 10
-2.52163
 20
-6.1929
 30
0.0
 10
-2.4181
 20
-6.0894
 30
0.0
 10
-2.31458
 20
-5.98587
 30
0.0
  0
SPLINE
  5
5A
330
1F
100
AcDbEntity
  8
Layer 1
 62
     7
100
AcDbSpline
210
0.0
220
0.0
230
1.0
 70
    11
 71
     3
 72
    52
 73
    48
 74
     0
 42
0.0000000001
 43
0.0000000001
 12
1.0
 22
0.0
 32
0.0
 13
1.0
 23
0.0
 33
0.0
 40
0.0
 40
0.0
 40
0.0
 40
0.0
 40
0.0769230769230769
 40
0.0769230769230769
 40
0.0769230769230769
 40
0.0769230769230769
 40
0.1538461538461539
 40
0.1538461538461539
 40
0.1538461538461539
 40
0.1538461538461539
 40
0.2307692307692308
 40
0.2307692307692308
 40
0.2307692307692308
 40
0.2307692307692308
 40
0.3076923076923077
 40
0.3076923076923077
 40
0.3076923076923077
 40
0.3076923076923077
 40
0.3846153846153846
 40
0.3846153846153846
 40
0.3846153846153846
 40
0.3846153846153846
 40
0.4615384615384616
 40
0.4615384615384616
 40
0.4615384615384616
 40
0.4615384615384616
 40
0.5384615384615384
 40
0.5384615384615384
 40
0.5384615384615384
 40
0.5384615384615384
 40
0.6153846153846154
 40
0.6153846153846154
 40
0.6153846153846154
 40
0.6153846153846154
 40
0.6923076923076923
 40
0.6923076923076923
 40
0.6923076923076923
 40
0.6923076923076923
 40
0.7692307692307693
 40
0.7692307692307693
 40
0.7692307692307693
 40
0.7692307692307693
 40
0.8461538461538461
 40
0.8461538461538461
 40
0.8461538461538461
 40
0.8461538461538461
 40
1.0
 40
1.0
 40
1.0
 40
1.0
 10
-2.31458
 20
-7.05906
 30
0.0
 10
-2.31458
 20
-7.09679
 30
0.0
 10
-2.31458
 20
-7.13453
 30
0.0
 10
-2.31458
 20
-7.17217
 30
0.0
 10
-2.31458
 20
-7.17217
 30
0.0
 10
-2.57112
 20
-7.42881
 30
0.0
 10
-2.82767
 20
-7.68538
 30
0.0
 10
-3.08421
 20
-7.94191
 30
0.0
 10
-3.08421
 20
-7.94191
 30
0.0
 10
-2.84886
 20
-8.17727
 30
0.0
 10
-2.61342
 20
-8.4127
 30
0.0
 10
-2.37802
 20
-8.6481
 30
0.0
 10
-2.37802
 20
-8.6481
 30
0.0
 10
-2.53812
 20
-8.80817
 30
0.0
 10
-2.69817
 20
-8.96824
 30
0.0
 10
-2.85824
 20
-9.1283
 30
0.0
 10
-2.85824
 20
-9.1283
 30
0.0
 10
-3.09367
 20
-8.89292
 30
0.0
 10
-3.32906
 20
-8.65756
 30
0.0
 10
-3.56443
 20
-8.42215
 30
0.0
 10
-3.56443
 20
-8.42215
 30
0.0
 10
-3.63979
 20
-8.49743
 30
0.0
 10
-3.71509
 20
-8.57278
 30
0.0
 10
-3.79044
 20
-8.6481
 30
0.0
 10
-3.79044
 20
-8.6481
 30
0.0
 10
-3.79044
 20
-8.6481
 30
0.0
 10
-3.79044
 20
-8.6481
 30
0.0
 10
-3.79044
 20
-8.6481
 30
0.0
 10
-3.79044
 20
-8.6481
 30
0.0
 10
-3.9458
 20
-8.80351
 30
0.0
 10
-4.10114
 20
-8.95884
 30
0.0
 10
-4.25652
 20
-9.11423
 30
0.0
 10
-4.25652
 20
-9.11423
 30
0.0
 10
-4.45424
 20
-8.91644
 30
0.0
 10
-4.65197
 20
-8.7187
 30
0.0
 10
-4.8497
 20
-8.52101
 30
0.0
 10
-4.8497
 20
-8.52101
 30
0.0
 10
-4.18354
 20
-7.85481
 30
0.0
 10
-3.51739
 20
-7.18861
 30
0.0
 10
-2.85113
 20
-6.52243
 30
0.0
 10
-2.85113
 20
-6.52243
 30
0.0
 10
-2.74176
 20
-6.63189
 30
0.0
 10
-2.63228
 20
-6.74137
 30
0.0
 10
-2.52283
 20
-6.85076
 30
0.0
 10
-2.52283
 20
-6.85076
 30
0.0
 10
-2.45339
 20
-6.92023
 30
0.0
 10
-2.38399
 20
-6.98964
 30
0.0
 10
-2.31458
 20
-7.05906
 30
0.0
  0
SPLINE
  5
5B
330
1F
100
AcDbEntity
  8
Layer 1
 62
     7
100
AcDbSpline
210
0.0
220
0.0
230
1.0
 70
    11
 71
     3
 72
    16
 73
    12
 74
     0
 42
0.0000000001
 43
0.0000000001
 12
1.0
 22
0.0
 32
0.0
 13
1.0
 23
0.0
 33
0.0
 40
0.0
 40
0.0
 40
0.0
 40
0.0
 40
0.25
 40
0.25
 40
0.25
 40
0.25
 40
0.5
 40
0.5
 40
0.5
 40
0.5
 40
1.0
 40
1.0
 40
1.0
 40
1.0
 10
-2.31458
 20
-7.62421
 30
0.0
 10
-2.31458
 20
-7.83599
 30
0.0
 10
-2.31458
 20
-8.04779
 30
0.0
 10
-2.31458
 20
-8.25962
 30
0.0
 10
-2.31458
 20
-8.25962
 30
0.0
 10
-2.42045
 20
-8.15373
 30
0.0
 10
-2.52637
 20
-8.04779
 30
0.0
 10
-2.63228
 20
-7.94191
 30
0.0
 10
-2.63228
 20
-7.94191
 30
0.0
 10
-2.52637
 20
-7.83599
 30
0.0
 10
-2.42045
 20
-7.7301
 30
0.0
 10
-2.31458
 20
-7.62421
 30
0.0
  0
SPLINE
  5
5C
330
1F
100
AcDbEntity
  8
Layer 1
 62
     7
100
AcDbSpline
210
0.0
220
0.0
230
1.0
 70
    11
 71
     3
 72
    16
 73
    12
 74
     0
 42
0.0000000001
 43
0.0000000001
 12
1.0
 22
0.0
 32
0.0
 13
1.0
 23
0.0
 33
0.0
 40
0.0
 40
0.0
 40
0.0
 40
0.0
 40
0.25
 40
0.25
 40
0.25
 40
0.25
 40
0.5
 40
0.5
 40
0.5
 40
0.5
 40
1.0
 40
1.0
 40
1.0
 40
1.0
 10
-2.31458
 20
-9.03661
 30
0.0
 10
-2.31458
 20
-9.24838
 30
0.0
 10
-2.31458
 20
-9.46022
 30
0.0
 10
-2.31458
 20
-9.67196
 30
0.0
 10
-2.31458
 20
-9.67196
 30
0.0
 10
-2.42045
 20
-9.56605
 30
0.0
 10
-2.52637
 20
-9.46022
 30
0.0
 10
-2.63228
 20
-9.35429
 30
0.0
 10
-2.63228
 20
-9.35429
 30
0.0
 10
-2.52637
 20
-9.24838
 30
0.0
 10
-2.42045
 20
-9.1425
 30
0.0
 10
-2.31458
 20
-9.03661
 30
0.0
  0
SPLINE
  5
5D
330
1F
100
AcDbEntity
  8
Layer 1
 62
     7
100
AcDbSpline
210
0.0
220
0.0
230
1.0
 70
    11
 71
     3
 72
    28
 73
    24
 74
     0
 42
0.0000000001
 43
0.0000000001
 12
1.0
 22
0.0
 32
0.0
 13
1.0
 23
0.0
 33
0.0
 40
0.0
 40
0.0
 40
0.0
 40
0.0
 40
0.1428571428571428
 40
0.1428571428571428
 40
0.1428571428571428
 40
0.1428571428571428
 40
0.2857142857142857
 40
0.2857142857142857
 40
0.2857142857142857
 40
0.2857142857142857
 40
0.4285714285714285
 40
0.4285714285714285
 40
0.4285714285714285
 40
0.4285714285714285
 40
0.5714285714285714
 40
0.5714285714285714
 40
0.5714285714285714
 40
0.5714285714285714
 40
0.7142857142857143
 40
0.7142857142857143
 40
0.7142857142857143
 40
0.7142857142857143
 40
1.0
 40
1.0
 40
1.0
 40
1.0
 10
-2.31458
 20
-10.12392
 30
0.0
 10
-2.31458
 20
-10.33551
 30
0.0
 10
-2.31458
 20
-10.54707
 30
0.0
 10
-2.31458
 20
-10.75863
 30
0.0
 10
-2.31458
 20
-10.75863
 30
0.0
 10
-2.41777
 20
-10.75863
 30
0.0
 10
-2.52099
 20
-10.75863
 30
0.0
 10
-2.62417
 20
-10.75863
 30
0.0
 10
-2.62417
 20
-10.75863
 30
0.0
 10
-2.62217
 20
-10.75661
 30
0.0
 10
-2.62017
 20
-10.75457
 30
0.0
 10
-2.61816
 20
-10.7526
 30
0.0
 10
-2.61816
 20
-10.7526
 30
0.0
 10
-2.85354
 20
-10.51717
 30
0.0
 10
-3.08898
 20
-10.28179
 30
0.0
 10
-3.32434
 20
-10.0464
 30
0.0
 10
-3.32434
 20
-10.0464
 30
0.0
 10
-3.16901
 20
-9.891
 30
0.0
 10
-3.01361
 20
-9.73564
 30
0.0
 10
-2.85824
 20
-9.58028
 30
0.0
 10
-2.85824
 20
-9.58028
 30
0.0
 10
-2.67706
 20
-9.76151
 30
0.0
 10
-2.49586
 20
-9.94275
 30
0.0
 10
-2.31458
 20
-10.12392
 30
0.0
  0
SPLINE
  5
5E
330
1F
100
AcDbEntity
  8
Layer 1
 62
     7
100
AcDbSpline
210
0.0
220
0.0
230
1.0
 70
    11
 71
     3
 72
    40
 73
    36
 74
     0
 42
0.0000000001
 43
0.0000000001
 12
1.0
 22
0.0
 32
0.0
 13
1.0
 23
0.0
 33
0.0
 40
0.0
 40
0.0
 40
0.0
 40
0.0
 40
0.1
 40
0.1
 40
0.1
 40
0.1
 40
0.2
 40
0.2
 40
0.2
 40
0.2
 40
0.3
 40
0.3
 40
0.3
 40
0.3
 40
0.4
 40
0.4
 40
0.4
 40
0.4
 40
0.5
 40
0.5
 40
0.5
 40
0.5
 40
0.6
 40
0.6
 40
0.6
 40
0.6
 40
0.7
 40
0.7
 40
0.7
 40
0.7
 40
0.8
 40
0.8
 40
0.8
 40
0.8
 40
1.0
 40
1.0
 40
1.0
 40
1.0
 10
-3.07615
 20
-10.75863
 30
0.0
 10
-3.47231
 20
-10.75863
 30
0.0
 10
-3.86844
 20
-10.75863
 30
0.0
 10
-4.26461
 20
-10.75863
 30
0.0
 10
-4.26461
 20
-10.75863
 30
0.0
 10
-4.73507
 20
-10.28814
 30
0.0
 10
-5.20556
 20
-9.81768
 30
0.0
 10
-5.67597
 20
-9.34724
 30
0.0
 10
-5.67597
 20
-9.34724
 30
0.0
 10
-5.47589
 20
-9.14715
 30
0.0
 10
-5.27576
 20
-8.94705
 30
0.0
 10
-5.07573
 20
-8.74697
 30
0.0
 10
-5.07573
 20
-8.74697
 30
0.0
 10
-4.80265
 20
-9.02002
 30
0.0
 10
-4.52956
 20
-9.2931
 30
0.0
 10
-4.25652
 20
-9.56614
 30
0.0
 10
-4.25652
 20
-9.56614
 30
0.0
 10
-4.02583
 20
-9.33551
 30
0.0
 10
-3.79518
 20
-9.10478
 30
0.0
 10
-3.56443
 20
-8.8741
 30
0.0
 10
-3.56443
 20
-8.8741
 30
0.0
 10
-3.4044
 20
-9.03416
 30
0.0
 10
-3.24429
 20
-9.19421
 30
0.0
 10
-3.08421
 20
-9.35429
 30
0.0
 10
-3.08421
 20
-9.35429
 30
0.0
 10
-3.31493
 20
-9.58498
 30
0.0
 10
-3.54558
 20
-9.81574
 30
0.0
 10
-3.7763
 20
-10.0464
 30
0.0
 10
-3.7763
 20
-10.0464
 30
0.0
 10
-3.54091
 20
-10.28179
 30
0.0
 10
-3.30553
 20
-10.51717
 30
0.0
 10
-3.07013
 20
-10.7526
 30
0.0
 10
-3.07013
 20
-10.7526
 30
0.0
 10
-3.07213
 20
-10.75457
 30
0.0
 10
-3.07414
 20
-10.75661
 30
0.0
 10
-3.07615
 20
-10.75863
 30
0.0
  0
SPLINE
  5
5F
330
1F
100
AcDbEntity
  8
Layer 1
 62
     7
100
AcDbSpline
210
0.0
220
0.0
230
1.0
 70
    11
 71
     3
 72
    16
 73
    12
 74
     0
 42
0.0000000001
 43
0.0000000001
 12
1.0
 22
0.0
 32
0.0
 13
1.0
 23
0.0
 33
0.0
 40
0.0
 40
0.0
 40
0.0
 40
0.0
 40
0.25
 40
0.25
 40
0.25
 40
0.25
 40
0.5
 40
0.5
 40
0.5
 40
0.5
 40
1.0
 40
1.0
 40
1.0
 40
1.0
 10
-4.71659
 20
-10.75863
 30
0.0
 10
-4.9607
 20
-10.75863
 30
0.0
 10
-5.20485
 20
-10.75863
 30
0.0
 10
-5.44901
 20
-10.75863
 30
0.0
 10
-5.44901
 20
-10.75863
 30
0.0
 10
-5.32692
 20
-10.63652
 30
0.0
 10
-5.20485
 20
-10.51445
 30
0.0
 10
-5.08277
 20
-10.39244
 30
0.0
 10
-5.08277
 20
-10.39244
 30
0.0
 10
-4.9607
 20
-10.51445
 30
0.0
 10
-4.83865
 20
-10.63652
 30
0.0
 10
-4.71659
 20
-10.75863
 30
0.0
  0
SPLINE
  5
60
330
1F
100
AcDbEntity
  8
Layer 1
 62
     7
100
AcDbSpline
210
0.0
220
0.0
230
1.0
 70
    11
 71
     3
 72
    24
 73
    20
 74
     0
 42
0.0000000001
 43
0.0000000001
 12
1.0
 22
0.0
 32
0.0
 13
1.0
 23
0.0
 33
0.0
 40
0.0
 40
0.0
 40
0.0
 40
0.0
 40
0.1666666666666667
 40
0.1666666666666667
 40
0.1666666666666667
 40
0.1666666666666667
 40
0.3333333333333333
 40
0.3333333333333333
 40
0.3333333333333333
 40
0.3333333333333333
 40
0.5
 40
0.5
 40
0.5
 40
0.5
 40
0.6666666666666666
 40
0.6666666666666666
 40
0.6666666666666666
 40
0.6666666666666666
 40
1.0
 40
1.0
 40
1.0
 40
1.0
 10
-5.90096
 20
-10.75863
 30
0.0
 10
-6.29643
 20
-10.75863
 30
0.0
 10
-6.69189
 20
-10.75863
 30
0.0
 10
-7.08738
 20
-10.75863
 30
0.0
 10
-7.08738
 20
-10.75863
 30
0.0
 10
-6.69224
 20
-10.36347
 30
0.0
 10
-6.29708
 20
-9.96836
 30
0.0
 10
-5.90195
 20
-9.57322
 30
0.0
 10
-5.90195
 20
-9.57322
 30
0.0
 10
-5.79249
 20
-9.68262
 30
0.0
 10
-5.68304
 20
-9.79213
 30
0.0
 10
-5.57357
 20
-9.90164
 30
0.0
 10
-5.57357
 20
-9.90164
 30
0.0
 10
-5.48533
 20
-9.98987
 30
0.0
 10
-5.39704
 20
-10.07815
 30
0.0
 10
-5.30877
 20
-10.16644
 30
0.0
 10
-5.30877
 20
-10.16644
 30
0.0
 10
-5.50613
 20
-10.36383
 30
0.0
 10
-5.70351
 20
-10.56124
 30
0.0
 10
-5.90096
 20
-10.75863
 30
0.0
  0
SPLINE
  5
61
330
1F
100
AcDbEntity
  8
Layer 1
 62
     7
100
AcDbSpline
210
0.0
220
0.0
230
1.0
 70
    11
 71
     3
 72
    36
 73
    32
 74
     0
 42
0.0000000001
 43
0.0000000001
 12
1.0
 22
0.0
 32
0.0
 13
1.0
 23
0.0
 33
0.0
 40
0.0
 40
0.0
 40
0.0
 40
0.0
 40
0.1111111111111111
 40
0.1111111111111111
 40
0.1111111111111111
 40
0.1111111111111111
 40
0.2222222222222222
 40
0.2222222222222222
 40
0.2222222222222222
 40
0.2222222222222222
 40
0.3333333333333333
 40
0.3333333333333333
 40
0.3333333333333333
 40
0.3333333333333333
 40
0.4444444444444444
 40
0.4444444444444444
 40
0.4444444444444444
 40
0.4444444444444444
 40
0.5555555555555556
 40
0.5555555555555556
 40
0.5555555555555556
 40
0.5555555555555556
 40
0.6666666666666666
 40
0.6666666666666666
 40
0.6666666666666666
 40
0.6666666666666666
 40
0.7777777777777778
 40
0.7777777777777778
 40
0.7777777777777778
 40
0.7777777777777778
 40
1.0
 40
1.0
 40
1.0
 40
1.0
 10
-7.5393
 20
-10.75863
 30
0.0
 10
-7.93479
 20
-10.75863
 30
0.0
 10
-8.33025
 20
-10.75863
 30
0.0
 10
-8.72574
 20
-10.75863
 30
0.0
 10
-8.72574
 20
-10.75863
 30
0.0
 10
-8.72375
 20
-10.75661
 30
0.0
 10
-8.72173
 20
-10.75457
 30
0.0
 10
-8.71972
 20
-10.7526
 30
0.0
 10
-8.71972
 20
-10.7526
 30
0.0
 10
-8.9551
 20
-10.51717
 30
0.0
 10
-9.1905
 20
-10.28179
 30
0.0
 10
-9.42586
 20
-10.0464
 30
0.0
 10
-9.42586
 20
-10.0464
 30
0.0
 10
-9.27055
 20
-9.891
 30
0.0
 10
-9.11518
 20
-9.73564
 30
0.0
 10
-8.95984
 20
-9.58028
 30
0.0
 10
-8.95984
 20
-9.58028
 30
0.0
 10
-8.72439
 20
-9.81574
 30
0.0
 10
-8.48897
 20
-10.05109
 30
0.0
 10
-8.25361
 20
-10.28644
 30
0.0
 10
-8.25361
 20
-10.28644
 30
0.0
 10
-8.01819
 20
-10.05109
 30
0.0
 10
-7.78283
 20
-9.81574
 30
0.0
 10
-7.54739
 20
-9.58028
 30
0.0
 10
-7.54739
 20
-9.58028
 30
0.0
 10
-7.34966
 20
-9.77799
 30
0.0
 10
-7.15193
 20
-9.97579
 30
0.0
 10
-6.95421
 20
-10.17352
 30
0.0
 10
-6.95421
 20
-10.17352
 30
0.0
 10
-7.14925
 20
-10.36854
 30
0.0
 10
-7.34427
 20
-10.56358
 30
0.0
 10
-7.5393
 20
-10.75863
 30
0.0
  0
SPLINE
  5
62
330
1F
100
AcDbEntity
  8
Layer 1
 62
     7
100
AcDbSpline
210
0.0
220
0.0
230
1.0
 70
    11
 71
     3
 72
    20
 73
    16
 74
     0
 42
0.0000000001
 43
0.0000000001
 12
1.0
 22
0.0
 32
0.0
 13
1.0
 23
0.0
 33
0.0
 40
0.0
 40
0.0
 40
0.0
 40
0.0
 40
0.2
 40
0.2
 40
0.2
 40
0.2
 40
0.4
 40
0.4
 40
0.4
 40
0.4
 40
0.6
 40
0.6
 40
0.6
 40
0.6
 40
1.0
 40
1.0
 40
1.0
 40
1.0
 10
-9.17768
 20
-10.75863
 30
0.0
 10
-9.28157
 20
-10.75863
 30
0.0
 10
-9.38545
 20
-10.75863
 30
0.0
 10
-9.48937
 20
-10.75863
 30
0.0
 10
-9.48937
 20
-10.75863
 30
0.0
 10
-9.48937
 20
-10.65073
 30
0.0
 10
-9.48937
 20
-10.5428
 30
0.0
 10
-9.48937
 20
-10.43488
 30
0.0
 10
-9.48937
 20
-10.43488
 30
0.0
 10
-9.38344
 20
-10.54079
 30
0.0
 10
-9.27756
 20
-10.64666
 30
0.0
 10
-9.17168
 20
-10.7526
 30
0.0
 10
-9.17168
 20
-10.7526
 30
0.0
 10
-9.17371
 20
-10.75457
 30
0.0
 10
-9.1757
 20
-10.75661
 30
0.0
 10
-9.17768
 20
-10.75863
 30
0.0
  0
SPLINE
  5
63
330
1F
100
AcDbEntity
  8
Layer 1
 62
     7
100
AcDbSpline
210
0.0
220
0.0
230
1.0
 70
    11
 71
     3
 72
    16
 73
    12
 74
     0
 42
0.0000000001
 43
0.0000000001
 12
1.0
 22
0.0
 32
0.0
 13
1.0
 23
0.0
 33
0.0
 40
0.0
 40
0.0
 40
0.0
 40
0.0
 40
0.25
 40
0.25
 40
0.25
 40
0.25
 40
0.5
 40
0.5
 40
0.5
 40
0.5
 40
1.0
 40
1.0
 40
1.0
 40
1.0
 10
-9.48937
 20
-9.65787
 30
0.0
 10
-9.48937
 20
-9.45553
 30
0.0
 10
-9.48937
 20
-9.25312
 30
0.0
 10
-9.48937
 20
-9.05074
 30
0.0
 10
-9.48937
 20
-9.05074
 30
0.0
 10
-9.38817
 20
-9.15195
 30
0.0
 10
-9.28695
 20
-9.25312
 30
0.0
 10
-9.18577
 20
-9.35429
 30
0.0
 10
-9.18577
 20
-9.35429
 30
0.0
 10
-9.28695
 20
-9.45553
 30
0.0
 10
-9.38817
 20
-9.55668
 30
0.0
 10
-9.48937
 20
-9.65787
 30
0.0
  0
SPLINE
  5
64
330
1F
100
AcDbEntity
  8
Layer 1
 62
     7
100
AcDbSpline
210
0.0
220
0.0
230
1.0
 70
    11
 71
     3
 72
    36
 73
    32
 74
     0
 42
0.0000000001
 43
0.0000000001
 12
1.0
 22
0.0
 32
0.0
 13
1.0
 23
0.0
 33
0.0
 40
0.0
 40
0.0
 40
0.0
 40
0.0
 40
0.1111111111111111
 40
0.1111111111111111
 40
0.1111111111111111
 40
0.1111111111111111
 40
0.2222222222222222
 40
0.2222222222222222
 40
0.2222222222222222
 40
0.2222222222222222
 40
0.3333333333333333
 40
0.3333333333333333
 40
0.3333333333333333
 40
0.3333333333333333
 40
0.4444444444444444
 40
0.4444444444444444
 40
0.4444444444444444
 40
0.4444444444444444
 40
0.5555555555555556
 40
0.5555555555555556
 40
0.5555555555555556
 40
0.5555555555555556
 40
0.6666666666666666
 40
0.6666666666666666
 40
0.6666666666666666
 40
0.6666666666666666
 40
0.7777777777777778
 40
0.7777777777777778
 40
0.7777777777777778
 40
0.7777777777777778
 40
1.0
 40
1.0
 40
1.0
 40
1.0
 10
-9.48937
 20
-8.5988
 30
0.0
 10
-9.48937
 20
-8.08555
 30
0.0
 10
-9.48937
 20
-7.57228
 30
0.0
 10
-9.48937
 20
-7.05906
 30
0.0
 10
-9.48937
 20
-7.05906
 30
0.0
 10
-9.31046
 20
-6.8802
 30
0.0
 10
-9.13154
 20
-6.70135
 30
0.0
 10
-8.95277
 20
-6.52243
 30
0.0
 10
-8.95277
 20
-6.52243
 30
0.0
 10
-8.85268
 20
-6.62248
 30
0.0
 10
-8.75265
 20
-6.72253
 30
0.0
 10
-8.65263
 20
-6.82258
 30
0.0
 10
-8.65263
 20
-6.82258
 30
0.0
 10
-8.55495
 20
-6.92027
 30
0.0
 10
-8.45723
 20
-7.01793
 30
0.0
 10
-8.35953
 20
-7.11564
 30
0.0
 10
-8.35953
 20
-7.11564
 30
0.0
 10
-8.63495
 20
-7.39106
 30
0.0
 10
-8.91037
 20
-7.66652
 30
0.0
 10
-9.18578
 20
-7.94191
 30
0.0
 10
-9.18578
 20
-7.94191
 30
0.0
 10
-8.9504
 20
-8.17727
 30
0.0
 10
-8.715
 20
-8.4127
 30
0.0
 10
-8.47958
 20
-8.6481
 30
0.0
 10
-8.47958
 20
-8.6481
 30
0.0
 10
-8.63969
 20
-8.80817
 30
0.0
 10
-8.79972
 20
-8.96824
 30
0.0
 10
-8.95984
 20
-9.1283
 30
0.0
 10
-8.95984
 20
-9.1283
 30
0.0
 10
-9.1363
 20
-8.95178
 30
0.0
 10
-9.31283
 20
-8.77527
 30
0.0
 10
-9.48937
 20
-8.5988
 30
0.0
  0
SPLINE
  5
65
330
1F
100
AcDbEntity
  8
Layer 1
 62
     7
100
AcDbSpline
210
0.0
220
0.0
230
1.0
 70
    11
 71
     3
 72
    16
 73
    12
 74
     0
 42
0.0000000001
 43
0.0000000001
 12
1.0
 22
0.0
 32
0.0
 13
1.0
 23
0.0
 33
0.0
 40
0.0
 40
0.0
 40
0.0
 40
0.0
 40
0.25
 40
0.25
 40
0.25
 40
0.25
 40
0.5
 40
0.5
 40
0.5
 40
0.5
 40
1.0
 40
1.0
 40
1.0
 40
1.0
 10
-9.48937
 20
-6.60711
 30
0.0
 10
-9.48937
 20
-6.40003
 30
0.0
 10
-9.48937
 20
-6.1929
 30
0.0
 10
-9.48937
 20
-5.98587
 30
0.0
 10
-9.48937
 20
-5.98587
 30
0.0
 10
-9.38581
 20
-6.0894
 30
0.0
 10
-9.28227
 20
-6.1929
 30
0.0
 10
-9.17874
 20
-6.29648
 30
0.0
 10
-9.17874
 20
-6.29648
 30
0.0
 10
-9.28227
 20
-6.40003
 30
0.0
 10
-9.38581
 20
-6.50351
 30
0.0
 10
-9.48937
 20
-6.60711
 30
0.0
  0
SPLINE
  5
66
330
1F
100
AcDbEntity
  8
Layer 1
 62
     7
100
AcDbSpline
210
0.0
220
0.0
230
1.0
 70
    11
 71
     3
 72
    44
 73
    40
 74
     0
 42
0.0000000001
 43
0.0000000001
 12
1.0
 22
0.0
 32
0.0
 13
1.0
 23
0.0
 33
0.0
 40
0.0
 40
0.0
 40
0.0
 40
0.0
 40
0.0909090909090909
 40
0.0909090909090909
 40
0.0909090909090909
 40
0.0909090909090909
 40
0.1818181818181818
 40
0.1818181818181818
 40
0.1818181818181818
 40
0.1818181818181818
 40
0.2727272727272727
 40
0.2727272727272727
 40
0.2727272727272727
 40
0.2727272727272727
 40
0.3636363636363636
 40
0.3636363636363636
 40
0.3636363636363636
 40
0.3636363636363636
 40
0.4545454545454545
 40
0.4545454545454545
 40
0.4545454545454545
 40
0.4545454545454545
 40
0.5454545454545454
 40
0.5454545454545454
 40
0.5454545454545454
 40
0.5454545454545454
 40
0.6363636363636364
 40
0.6363636363636364
 40
0.6363636363636364
 40
0.6363636363636364
 40
0.7272727272727273
 40
0.7272727272727273
 40
0.7272727272727273
 40
0.7272727272727273
 40
0.8181818181818182
 40
0.8181818181818182
 40
0.8181818181818182
 40
0.8181818181818182
 40
1.0
 40
1.0
 40
1.0
 40
1.0
 10
-9.48937
 20
-5.53389
 30
0.0
 10
-9.48937
 20
-5.49616
 30
0.0
 10
-9.48937
 20
-5.45843
 30
0.0
 10
-9.48937
 20
-5.4207
 30
0.0
 10
-9.48937
 20
-5.4207
 30
0.0
 10
-9.23281
 20
-5.16415
 30
0.0
 10
-8.97621
 20
-4.90756
 30
0.0
 10
-8.71972
 20
-4.65098
 30
0.0
 10
-8.71972
 20
-4.65098
 30
0.0
 10
-8.9551
 20
-4.41563
 30
0.0
 10
-9.1905
 20
-4.18023
 30
0.0
 10
-9.42586
 20
-3.94481
 30
0.0
 10
-9.42586
 20
-3.94481
 30
0.0
 10
-9.27055
 20
-3.78949
 30
0.0
 10
-9.11518
 20
-3.63411
 30
0.0
 10
-8.95984
 20
-3.47874
 30
0.0
 10
-8.95984
 20
-3.47874
 30
0.0
 10
-8.72439
 20
-3.71415
 30
0.0
 10
-8.48897
 20
-3.94953
 30
0.0
 10
-8.25361
 20
-4.18495
 30
0.0
 10
-8.25361
 20
-4.18495
 30
0.0
 10
-8.01819
 20
-3.94953
 30
0.0
 10
-7.78283
 20
-3.71415
 30
0.0
 10
-7.54739
 20
-3.47874
 30
0.0
 10
-7.54739
 20
-3.47874
 30
0.0
 10
-7.34966
 20
-3.67644
 30
0.0
 10
-7.15193
 20
-3.87421
 30
0.0
 10
-6.95421
 20
-4.07196
 30
0.0
 10
-6.95421
 20
-4.07196
 30
0.0
 10
-7.62038
 20
-4.73814
 30
0.0
 10
-8.28656
 20
-5.40425
 30
0.0
 10
-8.95277
 20
-6.07049
 30
0.0
 10
-8.95277
 20
-6.07049
 30
0.0
 10
-9.03396
 20
-5.98927
 30
0.0
 10
-9.11518
 20
-5.90807
 30
0.0
 10
-9.19635
 20
-5.82684
 30
0.0
 10
-9.19635
 20
-5.82684
 30
0.0
 10
-9.29403
 20
-5.7292
 30
0.0
 10
-9.39168
 20
-5.63156
 30
0.0
 10
-9.48937
 20
-5.53389
 30
0.0
  0
SPLINE
  5
67
330
1F
100
AcDbEntity
  8
Layer 1
 62
     7
100
AcDbSpline
210
0.0
220
0.0
230
1.0
 70
    11
 71
     3
 72
    16
 73
    12
 74
     0
 42
0.0000000001
 43
0.0000000001
 12
1.0
 22
0.0
 32
0.0
 13
1.0
 23
0.0
 33
0.0
 40
0.0
 40
0.0
 40
0.0
 40
0.0
 40
0.25
 40
0.25
 40
0.25
 40
0.25
 40
0.5
 40
0.5
 40
0.5
 40
0.5
 40
1.0
 40
1.0
 40
1.0
 40
1.0
 10
-9.48937
 20
-4.96871
 30
0.0
 10
-9.48937
 20
-4.75691
 30
0.0
 10
-9.48937
 20
-4.54514
 30
0.0
 10
-9.48937
 20
-4.33335
 30
0.0
 10
-9.48937
 20
-4.33335
 30
0.0
 10
-9.38344
 20
-4.43923
 30
0.0
 10
-9.27756
 20
-4.54514
 30
0.0
 10
-9.17168
 20
-4.65098
 30
0.0
 10
-9.17168
 20
-4.65098
 30
0.0
 10
-9.27756
 20
-4.75691
 30
0.0
 10
-9.38344
 20
-4.86279
 30
0.0
 10
-9.48937
 20
-4.96871
 30
0.0
  0
SPLINE
  5
68
330
1F
100
AcDbEntity
  8
Layer 1
 62
     7
100
AcDbSpline
210
0.0
220
0.0
230
1.0
 70
    11
 71
     3
 72
    16
 73
    12
 74
     0
 42
0.0000000001
 43
0.0000000001
 12
1.0
 22
0.0
 32
0.0
 13
1.0
 23
0.0
 33
0.0
 40
0.0
 40
0.0
 40
0.0
 40
0.0
 40
0.25
 40
0.25
 40
0.25
 40
0.25
 40
0.5
 40
0.5
 40
0.5
 40
0.5
 40
1.0
 40
1.0
 40
1.0
 40
1.0
 10
-9.48937
 20
-3.55637
 30
0.0
 10
-9.48937
 20
-3.35394
 30
0.0
 10
-9.48937
 20
-3.15154
 30
0.0
 10
-9.48937
 20
-2.94922
 30
0.0
 10
-9.48937
 20
-2.94922
 30
0.0
 10
-9.38817
 20
-3.05038
 30
0.0
 10
-9.28695
 20
-3.15154
 30
0.0
 10
-9.18577
 20
-3.25279
 30
0.0
 10
-9.18577
 20
-3.25279
 30
0.0
 10
-9.28695
 20
-3.35394
 30
0.0
 10
-9.38817
 20
-3.45514
 30
0.0
 10
-9.48937
 20
-3.55637
 30
0.0
  0
SPLINE
  5
69
330
1F
100
AcDbEntity
  8
Layer 1
 62
     7
100
AcDbSpline
210
0.0
220
0.0
230
1.0
 70
    11
 71
     3
 72
    36
 73
    32
 74
     0
 42
0.0000000001
 43
0.0000000001
 12
1.0
 22
0.0
 32
0.0
 13
1.0
 23
0.0
 33
0.0
 40
0.0
 40
0.0
 40
0.0
 40
0.0
 40
0.1111111111111111
 40
0.1111111111111111
 40
0.1111111111111111
 40
0.1111111111111111
 40
0.2222222222222222
 40
0.2222222222222222
 40
0.2222222222222222
 40
0.2222222222222222
 40
0.3333333333333333
 40
0.3333333333333333
 40
0.3333333333333333
 40
0.3333333333333333
 40
0.4444444444444444
 40
0.4444444444444444
 40
0.4444444444444444
 40
0.4444444444444444
 40
0.5555555555555556
 40
0.5555555555555556
 40
0.5555555555555556
 40
0.5555555555555556
 40
0.6666666666666666
 40
0.6666666666666666
 40
0.6666666666666666
 40
0.6666666666666666
 40
0.7777777777777778
 40
0.7777777777777778
 40
0.7777777777777778
 40
0.7777777777777778
 40
1.0
 40
1.0
 40
1.0
 40
1.0
 10
-9.48937
 20
-2.49724
 30
0.0
 10
-9.48937
 20
-1.98397
 30
0.0
 10
-9.48937
 20
-1.47075
 30
0.0
 10
-9.48937
 20
-0.95751
 30
0.0
 10
-9.48937
 20
-0.95751
 30
0.0
 10
-9.31046
 20
-0.77864
 30
0.0
 10
-9.13154
 20
-0.59979
 30
0.0
 10
-8.95277
 20
-0.42091
 30
0.0
 10
-8.95277
 20
-0.42091
 30
0.0
 10
-8.86207
 20
-0.51157
 30
0.0
 10
-8.77149
 20
-0.60217
 30
0.0
 10
-8.68086
 20
-0.6928
 30
0.0
 10
-8.68086
 20
-0.6928
 30
0.0
 10
-8.57377
 20
-0.79991
 30
0.0
 10
-8.46666
 20
-0.90702
 30
0.0
 10
-8.35953
 20
-1.01416
 30
0.0
 10
-8.35953
 20
-1.01416
 30
0.0
 10
-8.63495
 20
-1.28951
 30
0.0
 10
-8.91037
 20
-1.56495
 30
0.0
 10
-9.18578
 20
-1.84035
 30
0.0
 10
-9.18578
 20
-1.84035
 30
0.0
 10
-8.9504
 20
-2.07573
 30
0.0
 10
-8.715
 20
-2.3112
 30
0.0
 10
-8.47958
 20
-2.54659
 30
0.0
 10
-8.47958
 20
-2.54659
 30
0.0
 10
-8.63969
 20
-2.70663
 30
0.0
 10
-8.79972
 20
-2.86673
 30
0.0
 10
-8.95984
 20
-3.02678
 30
0.0
 10
-8.95984
 20
-3.02678
 30
0.0
 10
-9.1363
 20
-2.85024
 30
0.0
 10
-9.31283
 20
-2.67371
 30
0.0
 10
-9.48937
 20
-2.49724
 30
0.0
  0
SPLINE
  5
6A
330
1F
100
AcDbEntity
  8
Layer 1
 62
     7
100
AcDbSpline
210
0.0
220
0.0
230
1.0
 70
    11
 71
     3
 72
    16
 73
    12
 74
     0
 42
0.0000000001
 43
0.0000000001
 12
1.0
 22
0.0
 32
0.0
 13
1.0
 23
0.0
 33
0.0
 40
0.0
 40
0.0
 40
0.0
 40
0.0
 40
0.25
 40
0.25
 40
0.25
 40
0.25
 40
0.5
 40
0.5
 40
0.5
 40
0.5
 40
1.0
 40
1.0
 40
1.0
 40
1.0
 10
-9.48937
 20
-0.50555
 30
0.0
 10
-9.48937
 20
-0.29847
 30
0.0
 10
-9.48937
 20
-0.09139
 30
0.0
 10
-9.48937
 20
0.1157
 30
0.0
 10
-9.48937
 20
0.1157
 30
0.0
 10
-9.38581
 20
0.01217
 30
0.0
 10
-9.28227
 20
-0.09139
 30
0.0
 10
-9.17874
 20
-0.19493
 30
0.0
 10
-9.17874
 20
-0.19493
 30
0.0
 10
-9.28227
 20
-0.29847
 30
0.0
 10
-9.38581
 20
-0.40201
 30
0.0
 10
-9.48937
 20
-0.50555
 30
0.0
  0
SPLINE
  5
6B
330
1F
100
AcDbEntity
  8
Layer 1
 62
     7
100
AcDbSpline
210
0.0
220
0.0
230
1.0
 70
    11
 71
     3
 72
    44
 73
    40
 74
     0
 42
0.0000000001
 43
0.0000000001
 12
1.0
 22
0.0
 32
0.0
 13
1.0
 23
0.0
 33
0.0
 40
0.0
 40
0.0
 40
0.0
 40
0.0
 40
0.0909090909090909
 40
0.0909090909090909
 40
0.0909090909090909
 40
0.0909090909090909
 40
0.1818181818181818
 40
0.1818181818181818
 40
0.1818181818181818
 40
0.1818181818181818
 40
0.2727272727272727
 40
0.2727272727272727
 40
0.2727272727272727
 40
0.2727272727272727
 40
0.3636363636363636
 40
0.3636363636363636
 40
0.3636363636363636
 40
0.3636363636363636
 40
0.4545454545454545
 40
0.4545454545454545
 40
0.4545454545454545
 40
0.4545454545454545
 40
0.5454545454545454
 40
0.5454545454545454
 40
0.5454545454545454
 40
0.5454545454545454
 40
0.6363636363636364
 40
0.6363636363636364
 40
0.6363636363636364
 40
0.6363636363636364
 40
0.7272727272727273
 40
0.7272727272727273
 40
0.7272727272727273
 40
0.7272727272727273
 40
0.8181818181818182
 40
0.8181818181818182
 40
0.8181818181818182
 40
0.8181818181818182
 40
1.0
 40
1.0
 40
1.0
 40
1.0
 10
-9.48937
 20
0.56768
 30
0.0
 10
-9.48937
 20
0.60543
 30
0.0
 10
-9.48937
 20
0.64316
 30
0.0
 10
-9.48937
 20
0.68088
 30
0.0
 10
-9.48937
 20
0.68088
 30
0.0
 10
-9.23281
 20
0.93741
 30
0.0
 10
-8.97621
 20
1.19397
 30
0.0
 10
-8.71972
 20
1.45053
 30
0.0
 10
-8.71972
 20
1.45053
 30
0.0
 10
-8.9551
 20
1.68594
 30
0.0
 10
-9.1905
 20
1.92131
 30
0.0
 10
-9.42586
 20
2.15671
 30
0.0
 10
-9.42586
 20
2.15671
 30
0.0
 10
-9.27055
 20
2.3121
 30
0.0
 10
-9.11518
 20
2.46749
 30
0.0
 10
-8.95984
 20
2.62279
 30
0.0
 10
-8.95984
 20
2.62279
 30
0.0
 10
-8.72439
 20
2.3874
 30
0.0
 10
-8.48897
 20
2.15201
 30
0.0
 10
-8.25361
 20
1.91661
 30
0.0
 10
-8.25361
 20
1.91661
 30
0.0
 10
-8.01819
 20
2.15201
 30
0.0
 10
-7.78283
 20
2.3874
 30
0.0
 10
-7.54739
 20
2.62279
 30
0.0
 10
-7.54739
 20
2.62279
 30
0.0
 10
-7.34966
 20
2.42512
 30
0.0
 10
-7.15193
 20
2.22734
 30
0.0
 10
-6.95421
 20
2.02959
 30
0.0
 10
-6.95421
 20
2.02959
 30
0.0
 10
-7.62038
 20
1.36343
 30
0.0
 10
-8.28656
 20
0.69721
 30
0.0
 10
-8.95277
 20
0.03106
 30
0.0
 10
-8.95277
 20
0.03106
 30
0.0
 10
-9.04337
 20
0.1217
 30
0.0
 10
-9.13396
 20
0.21231
 30
0.0
 10
-9.22462
 20
0.30301
 30
0.0
 10
-9.22462
 20
0.30301
 30
0.0
 10
-9.31285
 20
0.39121
 30
0.0
 10
-9.40108
 20
0.47941
 30
0.0
 10
-9.48937
 20
0.56768
 30
0.0
  0
SPLINE
  5
6C
330
1F
100
AcDbEntity
  8
Layer 1
 62
     7
100
AcDbSpline
210
0.0
220
0.0
230
1.0
 70
    11
 71
     3
 72
    16
 73
    12
 74
     0
 42
0.0000000001
 43
0.0000000001
 12
1.0
 22
0.0
 32
0.0
 13
1.0
 23
0.0
 33
0.0
 40
0.0
 40
0.0
 40
0.0
 40
0.0
 40
0.25
 40
0.25
 40
0.25
 40
0.25
 40
0.5
 40
0.5
 40
0.5
 40
0.5
 40
1.0
 40
1.0
 40
1.0
 40
1.0
 10
-9.48937
 20
1.13282
 30
0.0
 10
-9.48937
 20
1.34464
 30
0.0
 10
-9.48937
 20
1.55642
 30
0.0
 10
-9.48937
 20
1.76818
 30
0.0
 10
-9.48937
 20
1.76818
 30
0.0
 10
-9.38344
 20
1.66233
 30
0.0
 10
-9.27756
 20
1.55642
 30
0.0
 10
-9.17168
 20
1.45053
 30
0.0
 10
-9.17168
 20
1.45053
 30
0.0
 10
-9.27756
 20
1.34464
 30
0.0
 10
-9.38344
 20
1.23875
 30
0.0
 10
-9.48937
 20
1.13282
 30
0.0
  0
SPLINE
  5
6D
330
1F
100
AcDbEntity
  8
Layer 1
 62
     7
100
AcDbSpline
210
0.0
220
0.0
230
1.0
 70
    11
 71
     3
 72
    16
 73
    12
 74
     0
 42
0.0000000001
 43
0.0000000001
 12
1.0
 22
0.0
 32
0.0
 13
1.0
 23
0.0
 33
0.0
 40
0.0
 40
0.0
 40
0.0
 40
0.0
 40
0.25
 40
0.25
 40
0.25
 40
0.25
 40
0.5
 40
0.5
 40
0.5
 40
0.5
 40
1.0
 40
1.0
 40
1.0
 40
1.0
 10
-9.48937
 20
2.5452
 30
0.0
 10
-9.48937
 20
2.74758
 30
0.0
 10
-9.48937
 20
2.94999
 30
0.0
 10
-9.48937
 20
3.15236
 30
0.0
 10
-9.48937
 20
3.15236
 30
0.0
 10
-9.38817
 20
3.05119
 30
0.0
 10
-9.28695
 20
2.94999
 30
0.0
 10
-9.18577
 20
2.84878
 30
0.0
 10
-9.18577
 20
2.84878
 30
0.0
 10
-9.28695
 20
2.74758
 30
0.0
 10
-9.38817
 20
2.6464
 30
0.0
 10
-9.48937
 20
2.5452
 30
0.0
  0
SPLINE
  5
6E
330
1F
100
AcDbEntity
  8
Layer 1
 62
     7
100
AcDbSpline
210
0.0
220
0.0
230
1.0
 70
    11
 71
     3
 72
    36
 73
    32
 74
     0
 42
0.0000000001
 43
0.0000000001
 12
1.0
 22
0.0
 32
0.0
 13
1.0
 23
0.0
 33
0.0
 40
0.0
 40
0.0
 40
0.0
 40
0.0
 40
0.1111111111111111
 40
0.1111111111111111
 40
0.1111111111111111
 40
0.1111111111111111
 40
0.2222222222222222
 40
0.2222222222222222
 40
0.2222222222222222
 40
0.2222222222222222
 40
0.3333333333333333
 40
0.3333333333333333
 40
0.3333333333333333
 40
0.3333333333333333
 40
0.4444444444444444
 40
0.4444444444444444
 40
0.4444444444444444
 40
0.4444444444444444
 40
0.5555555555555556
 40
0.5555555555555556
 40
0.5555555555555556
 40
0.5555555555555556
 40
0.6666666666666666
 40
0.6666666666666666
 40
0.6666666666666666
 40
0.6666666666666666
 40
0.7777777777777778
 40
0.7777777777777778
 40
0.7777777777777778
 40
0.7777777777777778
 40
1.0
 40
1.0
 40
1.0
 40
1.0
 10
-9.48937
 20
3.60436
 30
0.0
 10
-9.48937
 20
4.11757
 30
0.0
 10
-9.48937
 20
4.6308
 30
0.0
 10
-9.48937
 20
5.14403
 30
0.0
 10
-9.48937
 20
5.14403
 30
0.0
 10
-9.31046
 20
5.3229
 30
0.0
 10
-9.13154
 20
5.50179
 30
0.0
 10
-8.95277
 20
5.68065
 30
0.0
 10
-8.95277
 20
5.68065
 30
0.0
 10
-8.87155
 20
5.59946
 30
0.0
 10
-8.79032
 20
5.51823
 30
0.0
 10
-8.70908
 20
5.43701
 30
0.0
 10
-8.70908
 20
5.43701
 30
0.0
 10
-8.59259
 20
5.3205
 30
0.0
 10
-8.47603
 20
5.20396
 30
0.0
 10
-8.35953
 20
5.08745
 30
0.0
 10
-8.35953
 20
5.08745
 30
0.0
 10
-8.63495
 20
4.81203
 30
0.0
 10
-8.91037
 20
4.53658
 30
0.0
 10
-9.18578
 20
4.26118
 30
0.0
 10
-9.18578
 20
4.26118
 30
0.0
 10
-8.9504
 20
4.02579
 30
0.0
 10
-8.715
 20
3.7904
 30
0.0
 10
-8.47958
 20
3.555
 30
0.0
 10
-8.47958
 20
3.555
 30
0.0
 10
-8.63969
 20
3.39491
 30
0.0
 10
-8.79972
 20
3.23484
 30
0.0
 10
-8.95984
 20
3.07478
 30
0.0
 10
-8.95984
 20
3.07478
 30
0.0
 10
-9.1363
 20
3.2513
 30
0.0
 10
-9.31283
 20
3.42784
 30
0.0
 10
-9.48937
 20
3.60436
 30
0.0
  0
SPLINE
  5
6F
330
1F
100
AcDbEntity
  8
Layer 1
 62
     7
100
AcDbSpline
210
0.0
220
0.0
230
1.0
 70
    11
 71
     3
 72
    16
 73
    12
 74
     0
 42
0.0000000001
 43
0.0000000001
 12
1.0
 22
0.0
 32
0.0
 13
1.0
 23
0.0
 33
0.0
 40
0.0
 40
0.0
 40
0.0
 40
0.0
 40
0.25
 40
0.25
 40
0.25
 40
0.25
 40
0.5
 40
0.5
 40
0.5
 40
0.5
 40
1.0
 40
1.0
 40
1.0
 40
1.0
 10
-9.48937
 20
5.59602
 30
0.0
 10
-9.48937
 20
5.80312
 30
0.0
 10
-9.48937
 20
6.01018
 30
0.0
 10
-9.48937
 20
6.21726
 30
0.0
 10
-9.48937
 20
6.21726
 30
0.0
 10
-9.38581
 20
6.11374
 30
0.0
 10
-9.28227
 20
6.01018
 30
0.0
 10
-9.17874
 20
5.90664
 30
0.0
 10
-9.17874
 20
5.90664
 30
0.0
 10
-9.28227
 20
5.80312
 30
0.0
 10
-9.38581
 20
5.69957
 30
0.0
 10
-9.48937
 20
5.59602
 30
0.0
  0
SPLINE
  5
70
330
1F
100
AcDbEntity
  8
Layer 1
 62
     7
100
AcDbSpline
210
0.0
220
0.0
230
1.0
 70
    11
 71
     3
 72
    44
 73
    40
 74
     0
 42
0.0000000001
 43
0.0000000001
 12
1.0
 22
0.0
 32
0.0
 13
1.0
 23
0.0
 33
0.0
 40
0.0
 40
0.0
 40
0.0
 40
0.0
 40
0.0909090909090909
 40
0.0909090909090909
 40
0.0909090909090909
 40
0.0909090909090909
 40
0.1818181818181818
 40
0.1818181818181818
 40
0.1818181818181818
 40
0.1818181818181818
 40
0.2727272727272727
 40
0.2727272727272727
 40
0.2727272727272727
 40
0.2727272727272727
 40
0.3636363636363636
 40
0.3636363636363636
 40
0.3636363636363636
 40
0.3636363636363636
 40
0.4545454545454545
 40
0.4545454545454545
 40
0.4545454545454545
 40
0.4545454545454545
 40
0.5454545454545454
 40
0.5454545454545454
 40
0.5454545454545454
 40
0.5454545454545454
 40
0.6363636363636364
 40
0.6363636363636364
 40
0.6363636363636364
 40
0.6363636363636364
 40
0.7272727272727273
 40
0.7272727272727273
 40
0.7272727272727273
 40
0.7272727272727273
 40
0.8181818181818182
 40
0.8181818181818182
 40
0.8181818181818182
 40
0.8181818181818182
 40
1.0
 40
1.0
 40
1.0
 40
1.0
 10
-9.48937
 20
6.66922
 30
0.0
 10
-9.48937
 20
6.70696
 30
0.0
 10
-9.48937
 20
6.74469
 30
0.0
 10
-9.48937
 20
6.78244
 30
0.0
 10
-9.48937
 20
6.78244
 30
0.0
 10
-9.23281
 20
7.03898
 30
0.0
 10
-8.97621
 20
7.29554
 30
0.0
 10
-8.71972
 20
7.55207
 30
0.0
 10
-8.71972
 20
7.55207
 30
0.0
 10
-8.9551
 20
7.78743
 30
0.0
 10
-9.1905
 20
8.0229
 30
0.0
 10
-9.42586
 20
8.25829
 30
0.0
 10
-9.42586
 20
8.25829
 30
0.0
 10
-9.27055
 20
8.4136
 30
0.0
 10
-9.11518
 20
8.56898
 30
0.0
 10
-8.95984
 20
8.72436
 30
0.0
 10
-8.95984
 20
8.72436
 30
0.0
 10
-8.72439
 20
8.48895
 30
0.0
 10
-8.48897
 20
8.25354
 30
0.0
 10
-8.25361
 20
8.01817
 30
0.0
 10
-8.25361
 20
8.01817
 30
0.0
 10
-8.01819
 20
8.25354
 30
0.0
 10
-7.78283
 20
8.48895
 30
0.0
 10
-7.54739
 20
8.72436
 30
0.0
 10
-7.54739
 20
8.72436
 30
0.0
 10
-7.34966
 20
8.52666
 30
0.0
 10
-7.15193
 20
8.32884
 30
0.0
 10
-6.95421
 20
8.13117
 30
0.0
 10
-6.95421
 20
8.13117
 30
0.0
 10
-7.62038
 20
7.46493
 30
0.0
 10
-8.28656
 20
6.79879
 30
0.0
 10
-8.95277
 20
6.13262
 30
0.0
 10
-8.95277
 20
6.13262
 30
0.0
 10
-9.05277
 20
6.23265
 30
0.0
 10
-9.15285
 20
6.33269
 30
0.0
 10
-9.25291
 20
6.43276
 30
0.0
 10
-9.25291
 20
6.43276
 30
0.0
 10
-9.33171
 20
6.51159
 30
0.0
 10
-9.41053
 20
6.59041
 30
0.0
 10
-9.48937
 20
6.66922
 30
0.0
  0
SPLINE
  5
71
330
1F
100
AcDbEntity
  8
Layer 1
 62
     7
100
AcDbSpline
210
0.0
220
0.0
230
1.0
 70
    11
 71
     3
 72
    16
 73
    12
 74
     0
 42
0.0000000001
 43
0.0000000001
 12
1.0
 22
0.0
 32
0.0
 13
1.0
 23
0.0
 33
0.0
 40
0.0
 40
0.0
 40
0.0
 40
0.0
 40
0.25
 40
0.25
 40
0.25
 40
0.25
 40
0.5
 40
0.5
 40
0.5
 40
0.5
 40
1.0
 40
1.0
 40
1.0
 40
1.0
 10
-9.48937
 20
7.2344
 30
0.0
 10
-9.48937
 20
7.4462
 30
0.0
 10
-9.48937
 20
7.658
 30
0.0
 10
-9.48937
 20
7.86976
 30
0.0
 10
-9.48937
 20
7.86976
 30
0.0
 10
-9.38344
 20
7.76387
 30
0.0
 10
-9.27756
 20
7.658
 30
0.0
 10
-9.17168
 20
7.55207
 30
0.0
 10
-9.17168
 20
7.55207
 30
0.0
 10
-9.27756
 20
7.4462
 30
0.0
 10
-9.38344
 20
7.3403
 30
0.0
 10
-9.48937
 20
7.2344
 30
0.0
  0
SPLINE
  5
72
330
1F
100
AcDbEntity
  8
Layer 1
 62
     7
100
AcDbSpline
210
0.0
220
0.0
230
1.0
 70
    11
 71
     3
 72
    16
 73
    12
 74
     0
 42
0.0000000001
 43
0.0000000001
 12
1.0
 22
0.0
 32
0.0
 13
1.0
 23
0.0
 33
0.0
 40
0.0
 40
0.0
 40
0.0
 40
0.0
 40
0.25
 40
0.25
 40
0.25
 40
0.25
 40
0.5
 40
0.5
 40
0.5
 40
0.5
 40
1.0
 40
1.0
 40
1.0
 40
1.0
 10
-9.48937
 20
8.64679
 30
0.0
 10
-9.48937
 20
8.84917
 30
0.0
 10
-9.48937
 20
9.05153
 30
0.0
 10
-9.48937
 20
9.25391
 30
0.0
 10
-9.48937
 20
9.25391
 30
0.0
 10
-9.38817
 20
9.15275
 30
0.0
 10
-9.28695
 20
9.05153
 30
0.0
 10
-9.18577
 20
8.95035
 30
0.0
 10
-9.18577
 20
8.95035
 30
0.0
 10
-9.28695
 20
8.84917
 30
0.0
 10
-9.38817
 20
8.74797
 30
0.0
 10
-9.48937
 20
8.64679
 30
0.0
  0
SPLINE
  5
73
330
1F
100
AcDbEntity
  8
Layer 1
 62
     7
100
AcDbSpline
210
0.0
220
0.0
230
1.0
 70
    11
 71
     3
 72
    32
 73
    28
 74
     0
 42
0.0000000001
 43
0.0000000001
 12
1.0
 22
0.0
 32
0.0
 13
1.0
 23
0.0
 33
0.0
 40
0.0
 40
0.0
 40
0.0
 40
0.0
 40
0.125
 40
0.125
 40
0.125
 40
0.125
 40
0.25
 40
0.25
 40
0.25
 40
0.25
 40
0.375
 40
0.375
 40
0.375
 40
0.375
 40
0.5
 40
0.5
 40
0.5
 40
0.5
 40
0.625
 40
0.625
 40
0.625
 40
0.625
 40
0.75
 40
0.75
 40
0.75
 40
0.75
 40
1.0
 40
1.0
 40
1.0
 40
1.0
 10
-9.48937
 20
9.70586
 30
0.0
 10
-9.48937
 20
10.21909
 30
0.0
 10
-9.48937
 20
10.73237
 30
0.0
 10
-9.48937
 20
11.24559
 30
0.0
 10
-9.48937
 20
11.24559
 30
0.0
 10
-9.31046
 20
11.42443
 30
0.0
 10
-9.13154
 20
11.60337
 30
0.0
 10
-8.95277
 20
11.78221
 30
0.0
 10
-8.95277
 20
11.78221
 30
0.0
 10
-8.75497
 20
11.58446
 30
0.0
 10
-8.55724
 20
11.38672
 30
0.0
 10
-8.35953
 20
11.18898
 30
0.0
 10
-8.35953
 20
11.18898
 30
0.0
 10
-8.63495
 20
10.91354
 30
0.0
 10
-8.91037
 20
10.63814
 30
0.0
 10
-9.18578
 20
10.36268
 30
0.0
 10
-9.18578
 20
10.36268
 30
0.0
 10
-8.9504
 20
10.12735
 30
0.0
 10
-8.715
 20
9.89193
 30
0.0
 10
-8.47958
 20
9.65651
 30
0.0
 10
-8.47958
 20
9.65651
 30
0.0
 10
-8.63969
 20
9.49649
 30
0.0
 10
-8.79972
 20
9.33637
 30
0.0
 10
-8.95984
 20
9.17634
 30
0.0
 10
-8.95984
 20
9.17634
 30
0.0
 10
-9.1363
 20
9.35282
 30
0.0
 10
-9.31283
 20
9.52936
 30
0.0
 10
-9.48937
 20
9.70586
 30
0.0
  0
SPLINE
  5
74
330
1F
100
AcDbEntity
  8
Layer 1
 62
     7
100
AcDbSpline
210
0.0
220
0.0
230
1.0
 70
    11
 71
     3
 72
    16
 73
    12
 74
     0
 42
0.0000000001
 43
0.0000000001
 12
1.0
 22
0.0
 32
0.0
 13
1.0
 23
0.0
 33
0.0
 40
0.0
 40
0.0
 40
0.0
 40
0.0
 40
0.25
 40
0.25
 40
0.25
 40
0.25
 40
0.5
 40
0.5
 40
0.5
 40
0.5
 40
1.0
 40
1.0
 40
1.0
 40
1.0
 10
-9.48937
 20
11.69757
 30
0.0
 10
-9.48937
 20
11.90464
 30
0.0
 10
-9.48937
 20
12.11174
 30
0.0
 10
-9.48937
 20
12.31881
 30
0.0
 10
-9.48937
 20
12.31881
 30
0.0
 10
-9.38581
 20
12.21521
 30
0.0
 10
-9.28227
 20
12.11174
 30
0.0
 10
-9.17874
 20
12.00818
 30
0.0
 10
-9.17874
 20
12.00818
 30
0.0
 10
-9.28227
 20
11.90464
 30
0.0
 10
-9.38581
 20
11.8011
 30
0.0
 10
-9.48937
 20
11.69757
 30
0.0
  0
SPLINE
  5
75
330
1F
100
AcDbEntity
  8
Layer 1
 62
     7
100
AcDbSpline
210
0.0
220
0.0
230
1.0
 70
    11
 71
     3
 72
    40
 73
    36
 74
     0
 42
0.0000000001
 43
0.0000000001
 12
1.0
 22
0.0
 32
0.0
 13
1.0
 23
0.0
 33
0.0
 40
0.0
 40
0.0
 40
0.0
 40
0.0
 40
0.1
 40
0.1
 40
0.1
 40
0.1
 40
0.2
 40
0.2
 40
0.2
 40
0.2
 40
0.3
 40
0.3
 40
0.3
 40
0.3
 40
0.4
 40
0.4
 40
0.4
 40
0.4
 40
0.5
 40
0.5
 40
0.5
 40
0.5
 40
0.6
 40
0.6
 40
0.6
 40
0.6
 40
0.7
 40
0.7
 40
0.7
 40
0.7
 40
0.8
 40
0.8
 40
0.8
 40
0.8
 40
1.0
 40
1.0
 40
1.0
 40
1.0
 10
-9.48937
 20
12.77076
 30
0.0
 10
-9.48937
 20
12.80853
 30
0.0
 10
-9.48937
 20
12.84623
 30
0.0
 10
-9.48937
 20
12.88387
 30
0.0
 10
-9.48937
 20
12.88387
 30
0.0
 10
-9.23281
 20
13.14051
 30
0.0
 10
-8.97621
 20
13.39708
 30
0.0
 10
-8.71972
 20
13.65362
 30
0.0
 10
-8.71972
 20
13.65362
 30
0.0
 10
-8.9551
 20
13.88903
 30
0.0
 10
-9.1905
 20
14.12445
 30
0.0
 10
-9.42586
 20
14.35981
 30
0.0
 10
-9.42586
 20
14.35981
 30
0.0
 10
-9.27055
 20
14.51521
 30
0.0
 10
-9.11518
 20
14.67054
 30
0.0
 10
-8.95984
 20
14.82593
 30
0.0
 10
-8.95984
 20
14.82593
 30
0.0
 10
-8.72439
 20
14.5905
 30
0.0
 10
-8.48897
 20
14.35511
 30
0.0
 10
-8.25361
 20
14.11965
 30
0.0
 10
-8.25361
 20
14.11965
 30
0.0
 10
-8.01819
 20
14.35511
 30
0.0
 10
-7.78283
 20
14.5905
 30
0.0
 10
-7.54739
 20
14.82593
 30
0.0
 10
-7.54739
 20
14.82593
 30
0.0
 10
-7.34966
 20
14.62816
 30
0.0
 10
-7.15193
 20
14.43043
 30
0.0
 10
-6.95421
 20
14.23271
 30
0.0
 10
-6.95421
 20
14.23271
 30
0.0
 10
-7.62038
 20
13.56651
 30
0.0
 10
-8.28656
 20
12.90031
 30
0.0
 10
-8.95277
 20
12.23413
 30
0.0
 10
-8.95277
 20
12.23413
 30
0.0
 10
-9.13154
 20
12.41305
 30
0.0
 10
-9.31046
 20
12.5919
 30
0.0
 10
-9.48937
 20
12.77076
 30
0.0
  0
SPLINE
  5
76
330
1F
100
AcDbEntity
  8
Layer 1
 62
     7
100
AcDbSpline
210
0.0
220
0.0
230
1.0
 70
    11
 71
     3
 72
    16
 73
    12
 74
     0
 42
0.0000000001
 43
0.0000000001
 12
1.0
 22
0.0
 32
0.0
 13
1.0
 23
0.0
 33
0.0
 40
0.0
 40
0.0
 40
0.0
 40
0.0
 40
0.25
 40
0.25
 40
0.25
 40
0.25
 40
0.5
 40
0.5
 40
0.5
 40
0.5
 40
1.0
 40
1.0
 40
1.0
 40
1.0
 10
-9.48937
 20
13.33595
 30
0.0
 10
-9.48937
 20
13.54772
 30
0.0
 10
-9.48937
 20
13.75949
 30
0.0
 10
-9.48937
 20
13.97132
 30
0.0
 10
-9.48937
 20
13.97132
 30
0.0
 10
-9.38344
 20
13.86543
 30
0.0
 10
-9.27756
 20
13.75949
 30
0.0
 10
-9.17168
 20
13.65362
 30
0.0
 10
-9.17168
 20
13.65362
 30
0.0
 10
-9.27756
 20
13.54772
 30
0.0
 10
-9.38344
 20
13.4418
 30
0.0
 10
-9.48937
 20
13.33595
 30
0.0
  0
SPLINE
  5
77
330
1F
100
AcDbEntity
  8
Layer 1
 62
     7
100
AcDbSpline
210
0.0
220
0.0
230
1.0
 70
    11
 71
     3
 72
    16
 73
    12
 74
     0
 42
0.0000000001
 43
0.0000000001
 12
1.0
 22
0.0
 32
0.0
 13
1.0
 23
0.0
 33
0.0
 40
0.0
 40
0.0
 40
0.0
 40
0.0
 40
0.25
 40
0.25
 40
0.25
 40
0.25
 40
0.5
 40
0.5
 40
0.5
 40
0.5
 40
1.0
 40
1.0
 40
1.0
 40
1.0
 10
-9.48937
 20
14.74831
 30
0.0
 10
-9.48937
 20
14.95069
 30
0.0
 10
-9.48937
 20
15.15306
 30
0.0
 10
-9.48937
 20
15.35541
 30
0.0
 10
-9.48937
 20
15.35541
 30
0.0
 10
-9.38817
 20
15.25427
 30
0.0
 10
-9.28695
 20
15.15306
 30
0.0
 10
-9.18577
 20
15.05186
 30
0.0
 10
-9.18577
 20
15.05186
 30
0.0
 10
-9.28695
 20
14.95069
 30
0.0
 10
-9.38817
 20
14.84951
 30
0.0
 10
-9.48937
 20
14.74831
 30
0.0
  0
SPLINE
  5
78
330
1F
100
AcDbEntity
  8
Layer 1
 62
     7
100
AcDbSpline
210
0.0
220
0.0
230
1.0
 70
    11
 71
     3
 72
    36
 73
    32
 74
     0
 42
0.0000000001
 43
0.0000000001
 12
1.0
 22
0.0
 32
0.0
 13
1.0
 23
0.0
 33
0.0
 40
0.0
 40
0.0
 40
0.0
 40
0.0
 40
0.1111111111111111
 40
0.1111111111111111
 40
0.1111111111111111
 40
0.1111111111111111
 40
0.2222222222222222
 40
0.2222222222222222
 40
0.2222222222222222
 40
0.2222222222222222
 40
0.3333333333333333
 40
0.3333333333333333
 40
0.3333333333333333
 40
0.3333333333333333
 40
0.4444444444444444
 40
0.4444444444444444
 40
0.4444444444444444
 40
0.4444444444444444
 40
0.5555555555555556
 40
0.5555555555555556
 40
0.5555555555555556
 40
0.5555555555555556
 40
0.6666666666666666
 40
0.6666666666666666
 40
0.6666666666666666
 40
0.6666666666666666
 40
0.7777777777777778
 40
0.7777777777777778
 40
0.7777777777777778
 40
0.7777777777777778
 40
1.0
 40
1.0
 40
1.0
 40
1.0
 10
-5.07573
 20
15.65922
 30
0.0
 10
-5.27576
 20
15.45913
 30
0.0
 10
-5.47589
 20
15.25905
 30
0.0
 10
-5.67597
 20
15.05894
 30
0.0
 10
-5.67597
 20
15.05894
 30
0.0
 10
-5.00743
 20
14.39044
 30
0.0
 10
-4.33891
 20
13.72188
 30
0.0
 10
-3.67038
 20
13.05333
 30
0.0
 10
-3.67038
 20
13.05333
 30
0.0
 10
-3.47026
 20
13.25344
 30
0.0
 10
-3.27018
 20
13.45356
 30
0.0
 10
-3.07013
 20
13.65362
 30
0.0
 10
-3.07013
 20
13.65362
 30
0.0
 10
-3.30553
 20
13.88903
 30
0.0
 10
-3.54091
 20
14.12445
 30
0.0
 10
-3.7763
 20
14.35981
 30
0.0
 10
-3.7763
 20
14.35981
 30
0.0
 10
-3.54558
 20
14.5905
 30
0.0
 10
-3.31493
 20
14.82123
 30
0.0
 10
-3.08421
 20
15.05186
 30
0.0
 10
-3.08421
 20
15.05186
 30
0.0
 10
-3.24429
 20
15.21198
 30
0.0
 10
-3.4044
 20
15.37205
 30
0.0
 10
-3.56443
 20
15.53212
 30
0.0
 10
-3.56443
 20
15.53212
 30
0.0
 10
-3.79518
 20
15.30144
 30
0.0
 10
-4.02583
 20
15.07072
 30
0.0
 10
-4.25652
 20
14.84
 30
0.0
 10
-4.25652
 20
14.84
 30
0.0
 10
-4.52956
 20
15.1131
 30
0.0
 10
-4.80265
 20
15.38614
 30
0.0
 10
-5.07573
 20
15.65922
 30
0.0
  0
SPLINE
  5
79
330
1F
100
AcDbEntity
  8
Layer 1
 62
     7
100
AcDbSpline
210
0.0
220
0.0
230
1.0
 70
    11
 71
     3
 72
    36
 73
    32
 74
     0
 42
0.0000000001
 43
0.0000000001
 12
1.0
 22
0.0
 32
0.0
 13
1.0
 23
0.0
 33
0.0
 40
0.0
 40
0.0
 40
0.0
 40
0.0
 40
0.1111111111111111
 40
0.1111111111111111
 40
0.1111111111111111
 40
0.1111111111111111
 40
0.2222222222222222
 40
0.2222222222222222
 40
0.2222222222222222
 40
0.2222222222222222
 40
0.3333333333333333
 40
0.3333333333333333
 40
0.3333333333333333
 40
0.3333333333333333
 40
0.4444444444444444
 40
0.4444444444444444
 40
0.4444444444444444
 40
0.4444444444444444
 40
0.5555555555555556
 40
0.5555555555555556
 40
0.5555555555555556
 40
0.5555555555555556
 40
0.6666666666666666
 40
0.6666666666666666
 40
0.6666666666666666
 40
0.6666666666666666
 40
0.7777777777777778
 40
0.7777777777777778
 40
0.7777777777777778
 40
0.7777777777777778
 40
1.0
 40
1.0
 40
1.0
 40
1.0
 10
-8.72673
 20
12.00818
 30
0.0
 10
-8.52667
 20
12.20825
 30
0.0
 10
-8.32656
 20
12.40836
 30
0.0
 10
-8.12644
 20
12.60844
 30
0.0
 10
-8.12644
 20
12.60844
 30
0.0
 10
-7.85343
 20
12.33542
 30
0.0
 10
-7.58035
 20
12.0623
 30
0.0
 10
-7.30729
 20
11.78926
 30
0.0
 10
-7.30729
 20
11.78926
 30
0.0
 10
-7.07665
 20
12.01991
 30
0.0
 10
-6.8459
 20
12.25066
 30
0.0
 10
-6.61523
 20
12.48132
 30
0.0
 10
-6.61523
 20
12.48132
 30
0.0
 10
-6.45516
 20
12.32127
 30
0.0
 10
-6.29508
 20
12.1612
 30
0.0
 10
-6.13502
 20
12.00113
 30
0.0
 10
-6.13502
 20
12.00113
 30
0.0
 10
-6.3657
 20
11.77041
 30
0.0
 10
-6.5964
 20
11.53971
 30
0.0
 10
-6.82709
 20
11.30905
 30
0.0
 10
-6.82709
 20
11.30905
 30
0.0
 10
-6.59169
 20
11.07365
 30
0.0
 10
-6.35628
 20
10.83823
 30
0.0
 10
-6.12087
 20
10.60284
 30
0.0
 10
-6.12087
 20
10.60284
 30
0.0
 10
-6.32098
 20
10.40274
 30
0.0
 10
-6.52108
 20
10.20265
 30
0.0
 10
-6.72115
 20
10.00254
 30
0.0
 10
-6.72115
 20
10.00254
 30
0.0
 10
-7.38971
 20
10.67112
 30
0.0
 10
-8.05822
 20
11.3396
 30
0.0
 10
-8.72673
 20
12.00818
 30
0.0
  0
SPLINE
  5
7A
330
1F
100
AcDbEntity
  8
Layer 1
 62
     7
100
AcDbSpline
210
0.0
220
0.0
230
1.0
 70
    11
 71
     3
 72
    36
 73
    32
 74
     0
 42
0.0000000001
 43
0.0000000001
 12
1.0
 22
0.0
 32
0.0
 13
1.0
 23
0.0
 33
0.0
 40
0.0
 40
0.0
 40
0.0
 40
0.0
 40
0.1111111111111111
 40
0.1111111111111111
 40
0.1111111111111111
 40
0.1111111111111111
 40
0.2222222222222222
 40
0.2222222222222222
 40
0.2222222222222222
 40
0.2222222222222222
 40
0.3333333333333333
 40
0.3333333333333333
 40
0.3333333333333333
 40
0.3333333333333333
 40
0.4444444444444444
 40
0.4444444444444444
 40
0.4444444444444444
 40
0.4444444444444444
 40
0.5555555555555556
 40
0.5555555555555556
 40
0.5555555555555556
 40
0.5555555555555556
 40
0.6666666666666666
 40
0.6666666666666666
 40
0.6666666666666666
 40
0.6666666666666666
 40
0.7777777777777778
 40
0.7777777777777778
 40
0.7777777777777778
 40
0.7777777777777778
 40
1.0
 40
1.0
 40
1.0
 40
1.0
 10
-6.49518
 20
9.77663
 30
0.0
 10
-6.21976
 20
10.05201
 30
0.0
 10
-5.94436
 20
10.32745
 30
0.0
 10
-5.66893
 20
10.60284
 30
0.0
 10
-5.66893
 20
10.60284
 30
0.0
 10
-5.90432
 20
10.83823
 30
0.0
 10
-6.13971
 20
11.07365
 30
0.0
 10
-6.37512
 20
11.30905
 30
0.0
 10
-6.37512
 20
11.30905
 30
0.0
 10
-6.21976
 20
11.4644
 30
0.0
 10
-6.0644
 20
11.61978
 30
0.0
 10
-5.90903
 20
11.77514
 30
0.0
 10
-5.90903
 20
11.77514
 30
0.0
 10
-5.67363
 20
11.53971
 30
0.0
 10
-5.43823
 20
11.30435
 30
0.0
 10
-5.20282
 20
11.06892
 30
0.0
 10
-5.20282
 20
11.06892
 30
0.0
 10
-4.96748
 20
11.30435
 30
0.0
 10
-4.73206
 20
11.53971
 30
0.0
 10
-4.49662
 20
11.77514
 30
0.0
 10
-4.49662
 20
11.77514
 30
0.0
 10
-4.2989
 20
11.57738
 30
0.0
 10
-4.10118
 20
11.37965
 30
0.0
 10
-3.90344
 20
11.18191
 30
0.0
 10
-3.90344
 20
11.18191
 30
0.0
 10
-4.56959
 20
10.51577
 30
0.0
 10
-5.23579
 20
9.84955
 30
0.0
 10
-5.90195
 20
9.1834
 30
0.0
 10
-5.90195
 20
9.1834
 30
0.0
 10
-6.0997
 20
9.38114
 30
0.0
 10
-6.29745
 20
9.57881
 30
0.0
 10
-6.49518
 20
9.77663
 30
0.0
  0
SPLINE
  5
7B
330
1F
100
AcDbEntity
  8
Layer 1
 62
     7
100
AcDbSpline
210
0.0
220
0.0
230
1.0
 70
    11
 71
     3
 72
    36
 73
    32
 74
     0
 42
0.0000000001
 43
0.0000000001
 12
1.0
 22
0.0
 32
0.0
 13
1.0
 23
0.0
 33
0.0
 40
0.0
 40
0.0
 40
0.0
 40
0.0
 40
0.1111111111111111
 40
0.1111111111111111
 40
0.1111111111111111
 40
0.1111111111111111
 40
0.2222222222222222
 40
0.2222222222222222
 40
0.2222222222222222
 40
0.2222222222222222
 40
0.3333333333333333
 40
0.3333333333333333
 40
0.3333333333333333
 40
0.3333333333333333
 40
0.4444444444444444
 40
0.4444444444444444
 40
0.4444444444444444
 40
0.4444444444444444
 40
0.5555555555555556
 40
0.5555555555555556
 40
0.5555555555555556
 40
0.5555555555555556
 40
0.6666666666666666
 40
0.6666666666666666
 40
0.6666666666666666
 40
0.6666666666666666
 40
0.7777777777777778
 40
0.7777777777777778
 40
0.7777777777777778
 40
0.7777777777777778
 40
1.0
 40
1.0
 40
1.0
 40
1.0
 10
-5.67597
 20
8.95741
 30
0.0
 10
-5.47589
 20
9.15753
 30
0.0
 10
-5.27576
 20
9.35758
 30
0.0
 10
-5.07573
 20
9.55766
 30
0.0
 10
-5.07573
 20
9.55766
 30
0.0
 10
-4.80265
 20
9.28458
 30
0.0
 10
-4.52956
 20
9.01157
 30
0.0
 10
-4.25652
 20
8.73848
 30
0.0
 10
-4.25652
 20
8.73848
 30
0.0
 10
-4.02583
 20
8.96918
 30
0.0
 10
-3.79518
 20
9.19986
 30
0.0
 10
-3.56443
 20
9.43053
 30
0.0
 10
-3.56443
 20
9.43053
 30
0.0
 10
-3.4044
 20
9.27046
 30
0.0
 10
-3.24429
 20
9.11041
 30
0.0
 10
-3.08421
 20
8.95035
 30
0.0
 10
-3.08421
 20
8.95035
 30
0.0
 10
-3.31493
 20
8.71966
 30
0.0
 10
-3.54558
 20
8.48895
 30
0.0
 10
-3.7763
 20
8.25829
 30
0.0
 10
-3.7763
 20
8.25829
 30
0.0
 10
-3.54091
 20
8.0229
 30
0.0
 10
-3.30553
 20
7.78743
 30
0.0
 10
-3.07013
 20
7.55207
 30
0.0
 10
-3.07013
 20
7.55207
 30
0.0
 10
-3.27018
 20
7.35198
 30
0.0
 10
-3.47026
 20
7.15193
 30
0.0
 10
-3.67038
 20
6.9518
 30
0.0
 10
-3.67038
 20
6.9518
 30
0.0
 10
-4.33891
 20
7.62032
 30
0.0
 10
-5.00743
 20
8.28887
 30
0.0
 10
-5.67597
 20
8.95741
 30
0.0
  0
SPLINE
  5
7C
330
1F
100
AcDbEntity
  8
Layer 1
 62
     7
100
AcDbSpline
210
0.0
220
0.0
230
1.0
 70
    11
 71
     3
 72
    48
 73
    44
 74
     0
 42
0.0000000001
 43
0.0000000001
 12
1.0
 22
0.0
 32
0.0
 13
1.0
 23
0.0
 33
0.0
 40
0.0
 40
0.0
 40
0.0
 40
0.0
 40
0.0833333333333333
 40
0.0833333333333333
 40
0.0833333333333333
 40
0.0833333333333333
 40
0.1666666666666667
 40
0.1666666666666667
 40
0.1666666666666667
 40
0.1666666666666667
 40
0.25
 40
0.25
 40
0.25
 40
0.25
 40
0.3333333333333333
 40
0.3333333333333333
 40
0.3333333333333333
 40
0.3333333333333333
 40
0.4166666666666667
 40
0.4166666666666667
 40
0.4166666666666667
 40
0.4166666666666667
 40
0.5
 40
0.5
 40
0.5
 40
0.5
 40
0.5833333333333334
 40
0.5833333333333334
 40
0.5833333333333334
 40
0.5833333333333334
 40
0.6666666666666666
 40
0.6666666666666666
 40
0.6666666666666666
 40
0.6666666666666666
 40
0.75
 40
0.75
 40
0.75
 40
0.75
 40
0.8333333333333334
 40
0.8333333333333334
 40
0.8333333333333334
 40
0.8333333333333334
 40
1.0
 40
1.0
 40
1.0
 40
1.0
 10
-5.90195
 20
14.83296
 30
0.0
 10
-6.56817
 20
14.16678
 30
0.0
 10
-7.23431
 20
13.50061
 30
0.0
 10
-7.90051
 20
12.83443
 30
0.0
 10
-7.90051
 20
12.83443
 30
0.0
 10
-7.70275
 20
12.63671
 30
0.0
 10
-7.50503
 20
12.43899
 30
0.0
 10
-7.30729
 20
12.24123
 30
0.0
 10
-7.30729
 20
12.24123
 30
0.0
 10
-7.15193
 20
12.39658
 30
0.0
 10
-6.99659
 20
12.55192
 30
0.0
 10
-6.84121
 20
12.7073
 30
0.0
 10
-6.84121
 20
12.7073
 30
0.0
 10
-6.84121
 20
12.7073
 30
0.0
 10
-6.84121
 20
12.7073
 30
0.0
 10
-6.84121
 20
12.7073
 30
0.0
 10
-6.84121
 20
12.7073
 30
0.0
 10
-6.7659
 20
12.78265
 30
0.0
 10
-6.69058
 20
12.85794
 30
0.0
 10
-6.61523
 20
12.9333
 30
0.0
 10
-6.61523
 20
12.9333
 30
0.0
 10
-6.37983
 20
12.69787
 30
0.0
 10
-6.1444
 20
12.46252
 30
0.0
 10
-5.90903
 20
12.22708
 30
0.0
 10
-5.90903
 20
12.22708
 30
0.0
 10
-5.74896
 20
12.38721
 30
0.0
 10
-5.58892
 20
12.54725
 30
0.0
 10
-5.42882
 20
12.7073
 30
0.0
 10
-5.42882
 20
12.7073
 30
0.0
 10
-5.66418
 20
12.94272
 30
0.0
 10
-5.8996
 20
13.1781
 30
0.0
 10
-6.13502
 20
13.41348
 30
0.0
 10
-6.13502
 20
13.41348
 30
0.0
 10
-5.85959
 20
13.68895
 30
0.0
 10
-5.58418
 20
13.96434
 30
0.0
 10
-5.30877
 20
14.23979
 30
0.0
 10
-5.30877
 20
14.23979
 30
0.0
 10
-5.43469
 20
14.3657
 30
0.0
 10
-5.56062
 20
14.49164
 30
0.0
 10
-5.68664
 20
14.61758
 30
0.0
 10
-5.68664
 20
14.61758
 30
0.0
 10
-5.7584
 20
14.6894
 30
0.0
 10
-5.83015
 20
14.76116
 30
0.0
 10
-5.90195
 20
14.83296
 30
0.0
  0
SPLINE
  5
7D
330
1F
100
AcDbEntity
  8
Layer 1
 62
     7
100
AcDbSpline
210
0.0
220
0.0
230
1.0
 70
    11
 71
     3
 72
    36
 73
    32
 74
     0
 42
0.0000000001
 43
0.0000000001
 12
1.0
 22
0.0
 32
0.0
 13
1.0
 23
0.0
 33
0.0
 40
0.0
 40
0.0
 40
0.0
 40
0.0
 40
0.1111111111111111
 40
0.1111111111111111
 40
0.1111111111111111
 40
0.1111111111111111
 40
0.2222222222222222
 40
0.2222222222222222
 40
0.2222222222222222
 40
0.2222222222222222
 40
0.3333333333333333
 40
0.3333333333333333
 40
0.3333333333333333
 40
0.3333333333333333
 40
0.4444444444444444
 40
0.4444444444444444
 40
0.4444444444444444
 40
0.4444444444444444
 40
0.5555555555555556
 40
0.5555555555555556
 40
0.5555555555555556
 40
0.5555555555555556
 40
0.6666666666666666
 40
0.6666666666666666
 40
0.6666666666666666
 40
0.6666666666666666
 40
0.7777777777777778
 40
0.7777777777777778
 40
0.7777777777777778
 40
0.7777777777777778
 40
1.0
 40
1.0
 40
1.0
 40
1.0
 10
-5.08277
 20
14.0138
 30
0.0
 10
-5.28286
 20
13.81372
 30
0.0
 10
-5.48296
 20
13.61361
 30
0.0
 10
-5.68304
 20
13.41348
 30
0.0
 10
-5.68304
 20
13.41348
 30
0.0
 10
-5.44764
 20
13.1781
 30
0.0
 10
-5.21229
 20
12.94272
 30
0.0
 10
-4.97686
 20
12.7073
 30
0.0
 10
-4.97686
 20
12.7073
 30
0.0
 10
-5.21229
 20
12.47189
 30
0.0
 10
-5.44764
 20
12.23651
 30
0.0
 10
-5.68304
 20
12.00113
 30
0.0
 10
-5.68304
 20
12.00113
 30
0.0
 10
-5.52297
 20
11.84102
 30
0.0
 10
-5.36289
 20
11.68101
 30
0.0
 10
-5.20282
 20
11.52088
 30
0.0
 10
-5.20282
 20
11.52088
 30
0.0
 10
-4.96748
 20
11.7563
 30
0.0
 10
-4.73206
 20
11.99168
 30
0.0
 10
-4.49662
 20
12.22708
 30
0.0
 10
-4.49662
 20
12.22708
 30
0.0
 10
-4.22358
 20
11.95403
 30
0.0
 10
-3.95051
 20
11.68101
 30
0.0
 10
-3.67747
 20
11.40791
 30
0.0
 10
-3.67747
 20
11.40791
 30
0.0
 10
-3.47736
 20
11.60798
 30
0.0
 10
-3.27725
 20
11.80809
 30
0.0
 10
-3.07716
 20
12.00818
 30
0.0
 10
-3.07716
 20
12.00818
 30
0.0
 10
-3.7457
 20
12.67672
 30
0.0
 10
-4.41423
 20
13.34526
 30
0.0
 10
-5.08277
 20
14.0138
 30
0.0
  0
SPLINE
  5
7E
330
1F
100
AcDbEntity
  8
Layer 1
 62
     7
100
AcDbSpline
210
0.0
220
0.0
230
1.0
 70
    11
 71
     3
 72
    36
 73
    32
 74
     0
 42
0.0000000001
 43
0.0000000001
 12
1.0
 22
0.0
 32
0.0
 13
1.0
 23
0.0
 33
0.0
 40
0.0
 40
0.0
 40
0.0
 40
0.0
 40
0.1111111111111111
 40
0.1111111111111111
 40
0.1111111111111111
 40
0.1111111111111111
 40
0.2222222222222222
 40
0.2222222222222222
 40
0.2222222222222222
 40
0.2222222222222222
 40
0.3333333333333333
 40
0.3333333333333333
 40
0.3333333333333333
 40
0.3333333333333333
 40
0.4444444444444444
 40
0.4444444444444444
 40
0.4444444444444444
 40
0.4444444444444444
 40
0.5555555555555556
 40
0.5555555555555556
 40
0.5555555555555556
 40
0.5555555555555556
 40
0.6666666666666666
 40
0.6666666666666666
 40
0.6666666666666666
 40
0.6666666666666666
 40
0.7777777777777778
 40
0.7777777777777778
 40
0.7777777777777778
 40
0.7777777777777778
 40
1.0
 40
1.0
 40
1.0
 40
1.0
 10
-5.07573
 20
3.45617
 30
0.0
 10
-5.27576
 20
3.25606
 30
0.0
 10
-5.47589
 20
3.05598
 30
0.0
 10
-5.67597
 20
2.85586
 30
0.0
 10
-5.67597
 20
2.85586
 30
0.0
 10
-5.00743
 20
2.18736
 30
0.0
 10
-4.33891
 20
1.51881
 30
0.0
 10
-3.67038
 20
0.85029
 30
0.0
 10
-3.67038
 20
0.85029
 30
0.0
 10
-3.47026
 20
1.05039
 30
0.0
 10
-3.27018
 20
1.25044
 30
0.0
 10
-3.07013
 20
1.45053
 30
0.0
 10
-3.07013
 20
1.45053
 30
0.0
 10
-3.30553
 20
1.68594
 30
0.0
 10
-3.54091
 20
1.92131
 30
0.0
 10
-3.7763
 20
2.15671
 30
0.0
 10
-3.7763
 20
2.15671
 30
0.0
 10
-3.54558
 20
2.3874
 30
0.0
 10
-3.31493
 20
2.6181
 30
0.0
 10
-3.08421
 20
2.84878
 30
0.0
 10
-3.08421
 20
2.84878
 30
0.0
 10
-3.24429
 20
3.00885
 30
0.0
 10
-3.4044
 20
3.16895
 30
0.0
 10
-3.56443
 20
3.32898
 30
0.0
 10
-3.56443
 20
3.32898
 30
0.0
 10
-3.79518
 20
3.09832
 30
0.0
 10
-4.02583
 20
2.86762
 30
0.0
 10
-4.25652
 20
2.63694
 30
0.0
 10
-4.25652
 20
2.63694
 30
0.0
 10
-4.52956
 20
2.91003
 30
0.0
 10
-4.80265
 20
3.18308
 30
0.0
 10
-5.07573
 20
3.45617
 30
0.0
  0
SPLINE
  5
7F
330
1F
100
AcDbEntity
  8
Layer 1
 62
     7
100
AcDbSpline
210
0.0
220
0.0
230
1.0
 70
    11
 71
     3
 72
    48
 73
    44
 74
     0
 42
0.0000000001
 43
0.0000000001
 12
1.0
 22
0.0
 32
0.0
 13
1.0
 23
0.0
 33
0.0
 40
0.0
 40
0.0
 40
0.0
 40
0.0
 40
0.0833333333333333
 40
0.0833333333333333
 40
0.0833333333333333
 40
0.0833333333333333
 40
0.1666666666666667
 40
0.1666666666666667
 40
0.1666666666666667
 40
0.1666666666666667
 40
0.25
 40
0.25
 40
0.25
 40
0.25
 40
0.3333333333333333
 40
0.3333333333333333
 40
0.3333333333333333
 40
0.3333333333333333
 40
0.4166666666666667
 40
0.4166666666666667
 40
0.4166666666666667
 40
0.4166666666666667
 40
0.5
 40
0.5
 40
0.5
 40
0.5
 40
0.5833333333333334
 40
0.5833333333333334
 40
0.5833333333333334
 40
0.5833333333333334
 40
0.6666666666666666
 40
0.6666666666666666
 40
0.6666666666666666
 40
0.6666666666666666
 40
0.75
 40
0.75
 40
0.75
 40
0.75
 40
0.8333333333333334
 40
0.8333333333333334
 40
0.8333333333333334
 40
0.8333333333333334
 40
1.0
 40
1.0
 40
1.0
 40
1.0
 10
-5.90195
 20
8.73146
 30
0.0
 10
-6.56817
 20
8.06522
 30
0.0
 10
-7.23431
 20
7.39908
 30
0.0
 10
-7.90051
 20
6.73285
 30
0.0
 10
-7.90051
 20
6.73285
 30
0.0
 10
-7.70275
 20
6.53515
 30
0.0
 10
-7.50503
 20
6.33741
 30
0.0
 10
-7.30729
 20
6.13969
 30
0.0
 10
-7.30729
 20
6.13969
 30
0.0
 10
-7.15193
 20
6.29504
 30
0.0
 10
-6.99659
 20
6.45038
 30
0.0
 10
-6.84121
 20
6.60578
 30
0.0
 10
-6.84121
 20
6.60578
 30
0.0
 10
-6.84121
 20
6.60578
 30
0.0
 10
-6.84121
 20
6.60578
 30
0.0
 10
-6.84121
 20
6.60578
 30
0.0
 10
-6.84121
 20
6.60578
 30
0.0
 10
-6.7659
 20
6.68107
 30
0.0
 10
-6.69058
 20
6.75645
 30
0.0
 10
-6.61523
 20
6.83175
 30
0.0
 10
-6.61523
 20
6.83175
 30
0.0
 10
-6.37983
 20
6.59638
 30
0.0
 10
-6.1444
 20
6.36097
 30
0.0
 10
-5.90903
 20
6.12556
 30
0.0
 10
-5.90903
 20
6.12556
 30
0.0
 10
-5.74896
 20
6.28563
 30
0.0
 10
-5.58892
 20
6.4457
 30
0.0
 10
-5.42882
 20
6.60578
 30
0.0
 10
-5.42882
 20
6.60578
 30
0.0
 10
-5.66418
 20
6.84117
 30
0.0
 10
-5.8996
 20
7.07657
 30
0.0
 10
-6.13502
 20
7.31196
 30
0.0
 10
-6.13502
 20
7.31196
 30
0.0
 10
-5.85959
 20
7.58738
 30
0.0
 10
-5.58418
 20
7.86281
 30
0.0
 10
-5.30877
 20
8.13823
 30
0.0
 10
-5.30877
 20
8.13823
 30
0.0
 10
-5.42529
 20
8.25472
 30
0.0
 10
-5.54178
 20
8.37132
 30
0.0
 10
-5.65835
 20
8.4878
 30
0.0
 10
-5.65835
 20
8.4878
 30
0.0
 10
-5.73956
 20
8.56898
 30
0.0
 10
-5.82075
 20
8.65022
 30
0.0
 10
-5.90195
 20
8.73146
 30
0.0
  0
SPLINE
  5
80
330
1F
100
AcDbEntity
  8
Layer 1
 62
     7
100
AcDbSpline
210
0.0
220
0.0
230
1.0
 70
    11
 71
     3
 72
    36
 73
    32
 74
     0
 42
0.0000000001
 43
0.0000000001
 12
1.0
 22
0.0
 32
0.0
 13
1.0
 23
0.0
 33
0.0
 40
0.0
 40
0.0
 40
0.0
 40
0.0
 40
0.1111111111111111
 40
0.1111111111111111
 40
0.1111111111111111
 40
0.1111111111111111
 40
0.2222222222222222
 40
0.2222222222222222
 40
0.2222222222222222
 40
0.2222222222222222
 40
0.3333333333333333
 40
0.3333333333333333
 40
0.3333333333333333
 40
0.3333333333333333
 40
0.4444444444444444
 40
0.4444444444444444
 40
0.4444444444444444
 40
0.4444444444444444
 40
0.5555555555555556
 40
0.5555555555555556
 40
0.5555555555555556
 40
0.5555555555555556
 40
0.6666666666666666
 40
0.6666666666666666
 40
0.6666666666666666
 40
0.6666666666666666
 40
0.7777777777777778
 40
0.7777777777777778
 40
0.7777777777777778
 40
0.7777777777777778
 40
1.0
 40
1.0
 40
1.0
 40
1.0
 10
-8.12644
 20
6.50691
 30
0.0
 10
-8.32656
 20
6.30678
 30
0.0
 10
-8.52667
 20
6.1068
 30
0.0
 10
-8.72673
 20
5.90664
 30
0.0
 10
-8.72673
 20
5.90664
 30
0.0
 10
-8.05822
 20
5.2381
 30
0.0
 10
-7.38971
 20
4.56957
 30
0.0
 10
-6.72115
 20
3.90103
 30
0.0
 10
-6.72115
 20
3.90103
 30
0.0
 10
-6.52108
 20
4.10112
 30
0.0
 10
-6.32098
 20
4.30121
 30
0.0
 10
-6.12087
 20
4.50132
 30
0.0
 10
-6.12087
 20
4.50132
 30
0.0
 10
-6.35628
 20
4.73667
 30
0.0
 10
-6.59169
 20
4.97206
 30
0.0
 10
-6.82709
 20
5.20749
 30
0.0
 10
-6.82709
 20
5.20749
 30
0.0
 10
-6.5964
 20
5.4382
 30
0.0
 10
-6.3657
 20
5.66892
 30
0.0
 10
-6.13502
 20
5.89959
 30
0.0
 10
-6.13502
 20
5.89959
 30
0.0
 10
-6.29508
 20
6.05964
 30
0.0
 10
-6.45516
 20
6.21973
 30
0.0
 10
-6.61523
 20
6.37979
 30
0.0
 10
-6.61523
 20
6.37979
 30
0.0
 10
-6.8459
 20
6.14908
 30
0.0
 10
-7.07665
 20
5.9184
 30
0.0
 10
-7.30729
 20
5.68771
 30
0.0
 10
-7.30729
 20
5.68771
 30
0.0
 10
-7.58035
 20
5.9608
 30
0.0
 10
-7.85343
 20
6.23386
 30
0.0
 10
-8.12644
 20
6.50691
 30
0.0
  0
SPLINE
  5
81
330
1F
100
AcDbEntity
  8
Layer 1
 62
     7
100
AcDbSpline
210
0.0
220
0.0
230
1.0
 70
    11
 71
     3
 72
    36
 73
    32
 74
     0
 42
0.0000000001
 43
0.0000000001
 12
1.0
 22
0.0
 32
0.0
 13
1.0
 23
0.0
 33
0.0
 40
0.0
 40
0.0
 40
0.0
 40
0.0
 40
0.1111111111111111
 40
0.1111111111111111
 40
0.1111111111111111
 40
0.1111111111111111
 40
0.2222222222222222
 40
0.2222222222222222
 40
0.2222222222222222
 40
0.2222222222222222
 40
0.3333333333333333
 40
0.3333333333333333
 40
0.3333333333333333
 40
0.3333333333333333
 40
0.4444444444444444
 40
0.4444444444444444
 40
0.4444444444444444
 40
0.4444444444444444
 40
0.5555555555555556
 40
0.5555555555555556
 40
0.5555555555555556
 40
0.5555555555555556
 40
0.6666666666666666
 40
0.6666666666666666
 40
0.6666666666666666
 40
0.6666666666666666
 40
0.7777777777777778
 40
0.7777777777777778
 40
0.7777777777777778
 40
0.7777777777777778
 40
1.0
 40
1.0
 40
1.0
 40
1.0
 10
-5.08277
 20
7.91221
 30
0.0
 10
-5.28286
 20
7.71214
 30
0.0
 10
-5.48296
 20
7.51207
 30
0.0
 10
-5.68304
 20
7.31196
 30
0.0
 10
-5.68304
 20
7.31196
 30
0.0
 10
-5.44764
 20
7.07657
 30
0.0
 10
-5.21229
 20
6.84117
 30
0.0
 10
-4.97686
 20
6.60578
 30
0.0
 10
-4.97686
 20
6.60578
 30
0.0
 10
-5.21229
 20
6.37039
 30
0.0
 10
-5.44764
 20
6.13494
 30
0.0
 10
-5.68304
 20
5.89959
 30
0.0
 10
-5.68304
 20
5.89959
 30
0.0
 10
-5.52297
 20
5.73952
 30
0.0
 10
-5.36289
 20
5.57942
 30
0.0
 10
-5.20282
 20
5.41939
 30
0.0
 10
-5.20282
 20
5.41939
 30
0.0
 10
-4.96748
 20
5.65477
 30
0.0
 10
-4.73206
 20
5.8902
 30
0.0
 10
-4.49662
 20
6.12556
 30
0.0
 10
-4.49662
 20
6.12556
 30
0.0
 10
-4.22358
 20
5.85249
 30
0.0
 10
-3.95051
 20
5.57942
 30
0.0
 10
-3.67747
 20
5.30636
 30
0.0
 10
-3.67747
 20
5.30636
 30
0.0
 10
-3.47736
 20
5.50645
 30
0.0
 10
-3.27725
 20
5.70658
 30
0.0
 10
-3.07716
 20
5.90664
 30
0.0
 10
-3.07716
 20
5.90664
 30
0.0
 10
-3.7457
 20
6.57519
 30
0.0
 10
-4.41423
 20
7.24371
 30
0.0
 10
-5.08277
 20
7.91221
 30
0.0
  0
SPLINE
  5
82
330
1F
100
AcDbEntity
  8
Layer 1
 62
     7
100
AcDbSpline
210
0.0
220
0.0
230
1.0
 70
    11
 71
     3
 72
    40
 73
    36
 74
     0
 42
0.0000000001
 43
0.0000000001
 12
1.0
 22
0.0
 32
0.0
 13
1.0
 23
0.0
 33
0.0
 40
0.0
 40
0.0
 40
0.0
 40
0.0
 40
0.1
 40
0.1
 40
0.1
 40
0.1
 40
0.2
 40
0.2
 40
0.2
 40
0.2
 40
0.3
 40
0.3
 40
0.3
 40
0.3
 40
0.4
 40
0.4
 40
0.4
 40
0.4
 40
0.5
 40
0.5
 40
0.5
 40
0.5
 40
0.6
 40
0.6
 40
0.6
 40
0.6
 40
0.7
 40
0.7
 40
0.7
 40
0.7
 40
0.8
 40
0.8
 40
0.8
 40
0.8
 40
1.0
 40
1.0
 40
1.0
 40
1.0
 10
-3.90344
 20
5.08036
 30
0.0
 10
-4.10118
 20
5.27813
 30
0.0
 10
-4.2989
 20
5.47587
 30
0.0
 10
-4.49662
 20
5.67358
 30
0.0
 10
-4.49662
 20
5.67358
 30
0.0
 10
-4.73206
 20
5.43822
 30
0.0
 10
-4.96748
 20
5.20282
 30
0.0
 10
-5.20282
 20
4.96743
 30
0.0
 10
-5.20282
 20
4.96743
 30
0.0
 10
-5.43823
 20
5.20282
 30
0.0
 10
-5.67363
 20
5.43822
 30
0.0
 10
-5.90903
 20
5.67358
 30
0.0
 10
-5.90903
 20
5.67358
 30
0.0
 10
-6.0644
 20
5.5182
 30
0.0
 10
-6.21976
 20
5.36287
 30
0.0
 10
-6.37512
 20
5.20749
 30
0.0
 10
-6.37512
 20
5.20749
 30
0.0
 10
-6.13971
 20
4.97206
 30
0.0
 10
-5.90432
 20
4.73667
 30
0.0
 10
-5.66893
 20
4.50132
 30
0.0
 10
-5.66893
 20
4.50132
 30
0.0
 10
-5.94436
 20
4.22587
 30
0.0
 10
-6.21976
 20
3.95048
 30
0.0
 10
-6.49518
 20
3.67505
 30
0.0
 10
-6.49518
 20
3.67505
 30
0.0
 10
-6.38809
 20
3.56796
 30
0.0
 10
-6.28096
 20
3.46084
 30
0.0
 10
-6.17384
 20
3.35374
 30
0.0
 10
-6.17384
 20
3.35374
 30
0.0
 10
-6.08326
 20
3.2631
 30
0.0
 10
-5.99257
 20
3.17244
 30
0.0
 10
-5.90195
 20
3.08184
 30
0.0
 10
-5.90195
 20
3.08184
 30
0.0
 10
-5.23579
 20
3.74805
 30
0.0
 10
-4.56959
 20
4.41422
 30
0.0
 10
-3.90344
 20
5.08036
 30
0.0
  0
SPLINE
  5
83
330
1F
100
AcDbEntity
  8
Layer 1
 62
     7
100
AcDbSpline
210
0.0
220
0.0
230
1.0
 70
    11
 71
     3
 72
    36
 73
    32
 74
     0
 42
0.0000000001
 43
0.0000000001
 12
1.0
 22
0.0
 32
0.0
 13
1.0
 23
0.0
 33
0.0
 40
0.0
 40
0.0
 40
0.0
 40
0.0
 40
0.1111111111111111
 40
0.1111111111111111
 40
0.1111111111111111
 40
0.1111111111111111
 40
0.2222222222222222
 40
0.2222222222222222
 40
0.2222222222222222
 40
0.2222222222222222
 40
0.3333333333333333
 40
0.3333333333333333
 40
0.3333333333333333
 40
0.3333333333333333
 40
0.4444444444444444
 40
0.4444444444444444
 40
0.4444444444444444
 40
0.4444444444444444
 40
0.5555555555555556
 40
0.5555555555555556
 40
0.5555555555555556
 40
0.5555555555555556
 40
0.6666666666666666
 40
0.6666666666666666
 40
0.6666666666666666
 40
0.6666666666666666
 40
0.7777777777777778
 40
0.7777777777777778
 40
0.7777777777777778
 40
0.7777777777777778
 40
1.0
 40
1.0
 40
1.0
 40
1.0
 10
-8.13358
 20
10.96301
 30
0.0
 10
-8.33366
 20
10.76288
 30
0.0
 10
-8.53373
 20
10.56281
 30
0.0
 10
-8.73383
 20
10.36268
 30
0.0
 10
-8.73383
 20
10.36268
 30
0.0
 10
-8.49843
 20
10.12735
 30
0.0
 10
-8.26301
 20
9.89193
 30
0.0
 10
-8.02761
 20
9.65651
 30
0.0
 10
-8.02761
 20
9.65651
 30
0.0
 10
-8.26301
 20
9.42116
 30
0.0
 10
-8.49843
 20
9.18573
 30
0.0
 10
-8.73383
 20
8.95035
 30
0.0
 10
-8.73383
 20
8.95035
 30
0.0
 10
-8.57377
 20
8.79028
 30
0.0
 10
-8.41364
 20
8.63021
 30
0.0
 10
-8.25361
 20
8.47012
 30
0.0
 10
-8.25361
 20
8.47012
 30
0.0
 10
-8.01819
 20
8.70549
 30
0.0
 10
-7.78283
 20
8.94092
 30
0.0
 10
-7.54739
 20
9.17634
 30
0.0
 10
-7.54739
 20
9.17634
 30
0.0
 10
-7.27436
 20
8.90323
 30
0.0
 10
-7.00125
 20
8.63021
 30
0.0
 10
-6.72826
 20
8.35715
 30
0.0
 10
-6.72826
 20
8.35715
 30
0.0
 10
-6.52814
 20
8.55723
 30
0.0
 10
-6.32806
 20
8.75734
 30
0.0
 10
-6.12795
 20
8.95741
 30
0.0
 10
-6.12795
 20
8.95741
 30
0.0
 10
-6.79646
 20
9.62593
 30
0.0
 10
-7.46501
 20
10.29448
 30
0.0
 10
-8.13358
 20
10.96301
 30
0.0
  0
SPLINE
  5
84
330
1F
100
AcDbEntity
  8
Layer 1
 62
     7
100
AcDbSpline
210
0.0
220
0.0
230
1.0
 70
    11
 71
     3
 72
    36
 73
    32
 74
     0
 42
0.0000000001
 43
0.0000000001
 12
1.0
 22
0.0
 32
0.0
 13
1.0
 23
0.0
 33
0.0
 40
0.0
 40
0.0
 40
0.0
 40
0.0
 40
0.1111111111111111
 40
0.1111111111111111
 40
0.1111111111111111
 40
0.1111111111111111
 40
0.2222222222222222
 40
0.2222222222222222
 40
0.2222222222222222
 40
0.2222222222222222
 40
0.3333333333333333
 40
0.3333333333333333
 40
0.3333333333333333
 40
0.3333333333333333
 40
0.4444444444444444
 40
0.4444444444444444
 40
0.4444444444444444
 40
0.4444444444444444
 40
0.5555555555555556
 40
0.5555555555555556
 40
0.5555555555555556
 40
0.5555555555555556
 40
0.6666666666666666
 40
0.6666666666666666
 40
0.6666666666666666
 40
0.6666666666666666
 40
0.7777777777777778
 40
0.7777777777777778
 40
0.7777777777777778
 40
0.7777777777777778
 40
1.0
 40
1.0
 40
1.0
 40
1.0
 10
-8.72673
 20
-0.19493
 30
0.0
 10
-8.52667
 20
0.00516
 30
0.0
 10
-8.32656
 20
0.20527
 30
0.0
 10
-8.12644
 20
0.40537
 30
0.0
 10
-8.12644
 20
0.40537
 30
0.0
 10
-7.85343
 20
0.1323
 30
0.0
 10
-7.58035
 20
-0.14076
 30
0.0
 10
-7.30729
 20
-0.41385
 30
0.0
 10
-7.30729
 20
-0.41385
 30
0.0
 10
-7.07665
 20
-0.18314
 30
0.0
 10
-6.8459
 20
0.04753
 30
0.0
 10
-6.61523
 20
0.27825
 30
0.0
 10
-6.61523
 20
0.27825
 30
0.0
 10
-6.45516
 20
0.11816
 30
0.0
 10
-6.29508
 20
-0.04192
 30
0.0
 10
-6.13502
 20
-0.20196
 30
0.0
 10
-6.13502
 20
-0.20196
 30
0.0
 10
-6.3657
 20
-0.43269
 30
0.0
 10
-6.5964
 20
-0.66333
 30
0.0
 10
-6.82709
 20
-0.89407
 30
0.0
 10
-6.82709
 20
-0.89407
 30
0.0
 10
-6.59169
 20
-1.12946
 30
0.0
 10
-6.35628
 20
-1.36485
 30
0.0
 10
-6.12087
 20
-1.60022
 30
0.0
 10
-6.12087
 20
-1.60022
 30
0.0
 10
-6.32098
 20
-1.80036
 30
0.0
 10
-6.52108
 20
-2.00035
 30
0.0
 10
-6.72115
 20
-2.2005
 30
0.0
 10
-6.72115
 20
-2.2005
 30
0.0
 10
-7.38971
 20
-1.53199
 30
0.0
 10
-8.05822
 20
-0.86346
 30
0.0
 10
-8.72673
 20
-0.19493
 30
0.0
  0
SPLINE
  5
85
330
1F
100
AcDbEntity
  8
Layer 1
 62
     7
100
AcDbSpline
210
0.0
220
0.0
230
1.0
 70
    11
 71
     3
 72
    40
 73
    36
 74
     0
 42
0.0000000001
 43
0.0000000001
 12
1.0
 22
0.0
 32
0.0
 13
1.0
 23
0.0
 33
0.0
 40
0.0
 40
0.0
 40
0.0
 40
0.0
 40
0.1
 40
0.1
 40
0.1
 40
0.1
 40
0.2
 40
0.2
 40
0.2
 40
0.2
 40
0.3
 40
0.3
 40
0.3
 40
0.3
 40
0.4
 40
0.4
 40
0.4
 40
0.4
 40
0.5
 40
0.5
 40
0.5
 40
0.5
 40
0.6
 40
0.6
 40
0.6
 40
0.6
 40
0.7
 40
0.7
 40
0.7
 40
0.7
 40
0.8
 40
0.8
 40
0.8
 40
0.8
 40
1.0
 40
1.0
 40
1.0
 40
1.0
 10
-6.49518
 20
-2.4265
 30
0.0
 10
-6.21976
 20
-2.1511
 30
0.0
 10
-5.94436
 20
-1.87568
 30
0.0
 10
-5.66893
 20
-1.60022
 30
0.0
 10
-5.66893
 20
-1.60022
 30
0.0
 10
-5.90432
 20
-1.36485
 30
0.0
 10
-6.13971
 20
-1.12946
 30
0.0
 10
-6.37512
 20
-0.89407
 30
0.0
 10
-6.37512
 20
-0.89407
 30
0.0
 10
-6.21976
 20
-0.73867
 30
0.0
 10
-6.0644
 20
-0.58333
 30
0.0
 10
-5.90903
 20
-0.42798
 30
0.0
 10
-5.90903
 20
-0.42798
 30
0.0
 10
-5.67363
 20
-0.66333
 30
0.0
 10
-5.43823
 20
-0.89874
 30
0.0
 10
-5.20282
 20
-1.13418
 30
0.0
 10
-5.20282
 20
-1.13418
 30
0.0
 10
-4.96748
 20
-0.89874
 30
0.0
 10
-4.73206
 20
-0.66333
 30
0.0
 10
-4.49662
 20
-0.42798
 30
0.0
 10
-4.49662
 20
-0.42798
 30
0.0
 10
-4.2989
 20
-0.6257
 30
0.0
 10
-4.10118
 20
-0.82342
 30
0.0
 10
-3.90344
 20
-1.02114
 30
0.0
 10
-3.90344
 20
-1.02114
 30
0.0
 10
-4.56959
 20
-1.68736
 30
0.0
 10
-5.23579
 20
-2.35351
 30
0.0
 10
-5.90195
 20
-3.01971
 30
0.0
 10
-5.90195
 20
-3.01971
 30
0.0
 10
-5.98317
 20
-2.93852
 30
0.0
 10
-6.06441
 20
-2.85727
 30
0.0
 10
-6.14565
 20
-2.7761
 30
0.0
 10
-6.14565
 20
-2.7761
 30
0.0
 10
-6.26211
 20
-2.65955
 30
0.0
 10
-6.37862
 20
-2.54302
 30
0.0
 10
-6.49518
 20
-2.4265
 30
0.0
  0
SPLINE
  5
86
330
1F
100
AcDbEntity
  8
Layer 1
 62
     7
100
AcDbSpline
210
0.0
220
0.0
230
1.0
 70
    11
 71
     3
 72
    36
 73
    32
 74
     0
 42
0.0000000001
 43
0.0000000001
 12
1.0
 22
0.0
 32
0.0
 13
1.0
 23
0.0
 33
0.0
 40
0.0
 40
0.0
 40
0.0
 40
0.0
 40
0.1111111111111111
 40
0.1111111111111111
 40
0.1111111111111111
 40
0.1111111111111111
 40
0.2222222222222222
 40
0.2222222222222222
 40
0.2222222222222222
 40
0.2222222222222222
 40
0.3333333333333333
 40
0.3333333333333333
 40
0.3333333333333333
 40
0.3333333333333333
 40
0.4444444444444444
 40
0.4444444444444444
 40
0.4444444444444444
 40
0.4444444444444444
 40
0.5555555555555556
 40
0.5555555555555556
 40
0.5555555555555556
 40
0.5555555555555556
 40
0.6666666666666666
 40
0.6666666666666666
 40
0.6666666666666666
 40
0.6666666666666666
 40
0.7777777777777778
 40
0.7777777777777778
 40
0.7777777777777778
 40
0.7777777777777778
 40
1.0
 40
1.0
 40
1.0
 40
1.0
 10
-5.67597
 20
-3.24566
 30
0.0
 10
-5.47589
 20
-3.04564
 30
0.0
 10
-5.27576
 20
-2.84553
 30
0.0
 10
-5.07573
 20
-2.64541
 30
0.0
 10
-5.07573
 20
-2.64541
 30
0.0
 10
-4.80265
 20
-2.91851
 30
0.0
 10
-4.52956
 20
-3.19153
 30
0.0
 10
-4.25652
 20
-3.46464
 30
0.0
 10
-4.25652
 20
-3.46464
 30
0.0
 10
-4.02583
 20
-3.23393
 30
0.0
 10
-3.79518
 20
-3.00326
 30
0.0
 10
-3.56443
 20
-2.7725
 30
0.0
 10
-3.56443
 20
-2.7725
 30
0.0
 10
-3.4044
 20
-2.93264
 30
0.0
 10
-3.24429
 20
-3.09268
 30
0.0
 10
-3.08421
 20
-3.25279
 30
0.0
 10
-3.08421
 20
-3.25279
 30
0.0
 10
-3.31493
 20
-3.48345
 30
0.0
 10
-3.54558
 20
-3.71415
 30
0.0
 10
-3.7763
 20
-3.94481
 30
0.0
 10
-3.7763
 20
-3.94481
 30
0.0
 10
-3.54091
 20
-4.18023
 30
0.0
 10
-3.30553
 20
-4.41563
 30
0.0
 10
-3.07013
 20
-4.65098
 30
0.0
 10
-3.07013
 20
-4.65098
 30
0.0
 10
-3.27018
 20
-4.85109
 30
0.0
 10
-3.47026
 20
-5.05118
 30
0.0
 10
-3.67038
 20
-5.2513
 30
0.0
 10
-3.67038
 20
-5.2513
 30
0.0
 10
-4.33891
 20
-4.58278
 30
0.0
 10
-5.00743
 20
-3.91423
 30
0.0
 10
-5.67597
 20
-3.24566
 30
0.0
  0
SPLINE
  5
87
330
1F
100
AcDbEntity
  8
Layer 1
 62
     7
100
AcDbSpline
210
0.0
220
0.0
230
1.0
 70
    11
 71
     3
 72
    48
 73
    44
 74
     0
 42
0.0000000001
 43
0.0000000001
 12
1.0
 22
0.0
 32
0.0
 13
1.0
 23
0.0
 33
0.0
 40
0.0
 40
0.0
 40
0.0
 40
0.0
 40
0.0833333333333333
 40
0.0833333333333333
 40
0.0833333333333333
 40
0.0833333333333333
 40
0.1666666666666667
 40
0.1666666666666667
 40
0.1666666666666667
 40
0.1666666666666667
 40
0.25
 40
0.25
 40
0.25
 40
0.25
 40
0.3333333333333333
 40
0.3333333333333333
 40
0.3333333333333333
 40
0.3333333333333333
 40
0.4166666666666667
 40
0.4166666666666667
 40
0.4166666666666667
 40
0.4166666666666667
 40
0.5
 40
0.5
 40
0.5
 40
0.5
 40
0.5833333333333334
 40
0.5833333333333334
 40
0.5833333333333334
 40
0.5833333333333334
 40
0.6666666666666666
 40
0.6666666666666666
 40
0.6666666666666666
 40
0.6666666666666666
 40
0.75
 40
0.75
 40
0.75
 40
0.75
 40
0.8333333333333334
 40
0.8333333333333334
 40
0.8333333333333334
 40
0.8333333333333334
 40
1.0
 40
1.0
 40
1.0
 40
1.0
 10
-5.90195
 20
2.62987
 30
0.0
 10
-6.56817
 20
1.96372
 30
0.0
 10
-7.23431
 20
1.2975
 30
0.0
 10
-7.90051
 20
0.63135
 30
0.0
 10
-7.90051
 20
0.63135
 30
0.0
 10
-7.70275
 20
0.43358
 30
0.0
 10
-7.50503
 20
0.23584
 30
0.0
 10
-7.30729
 20
0.03813
 30
0.0
 10
-7.30729
 20
0.03813
 30
0.0
 10
-7.15193
 20
0.19351
 30
0.0
 10
-6.99659
 20
0.34889
 30
0.0
 10
-6.84121
 20
0.50422
 30
0.0
 10
-6.84121
 20
0.50422
 30
0.0
 10
-6.84121
 20
0.50422
 30
0.0
 10
-6.84121
 20
0.50422
 30
0.0
 10
-6.84121
 20
0.50422
 30
0.0
 10
-6.84121
 20
0.50422
 30
0.0
 10
-6.7659
 20
0.57957
 30
0.0
 10
-6.69058
 20
0.65489
 30
0.0
 10
-6.61523
 20
0.73017
 30
0.0
 10
-6.61523
 20
0.73017
 30
0.0
 10
-6.37983
 20
0.49481
 30
0.0
 10
-6.1444
 20
0.25942
 30
0.0
 10
-5.90903
 20
0.024
 30
0.0
 10
-5.90903
 20
0.024
 30
0.0
 10
-5.74896
 20
0.18408
 30
0.0
 10
-5.58892
 20
0.34413
 30
0.0
 10
-5.42882
 20
0.50422
 30
0.0
 10
-5.42882
 20
0.50422
 30
0.0
 10
-5.66418
 20
0.73966
 30
0.0
 10
-5.8996
 20
0.97504
 30
0.0
 10
-6.13502
 20
1.21039
 30
0.0
 10
-6.13502
 20
1.21039
 30
0.0
 10
-5.85959
 20
1.48584
 30
0.0
 10
-5.58418
 20
1.76124
 30
0.0
 10
-5.30877
 20
2.03668
 30
0.0
 10
-5.30877
 20
2.03668
 30
0.0
 10
-5.41586
 20
2.14377
 30
0.0
 10
-5.52298
 20
2.25089
 30
0.0
 10
-5.63008
 20
2.35799
 30
0.0
 10
-5.63008
 20
2.35799
 30
0.0
 10
-5.72072
 20
2.44866
 30
0.0
 10
-5.81136
 20
2.53927
 30
0.0
 10
-5.90195
 20
2.62987
 30
0.0
  0
SPLINE
  5
88
330
1F
100
AcDbEntity
  8
Layer 1
 62
     7
100
AcDbSpline
210
0.0
220
0.0
230
1.0
 70
    11
 71
     3
 72
    36
 73
    32
 74
     0
 42
0.0000000001
 43
0.0000000001
 12
1.0
 22
0.0
 32
0.0
 13
1.0
 23
0.0
 33
0.0
 40
0.0
 40
0.0
 40
0.0
 40
0.0
 40
0.1111111111111111
 40
0.1111111111111111
 40
0.1111111111111111
 40
0.1111111111111111
 40
0.2222222222222222
 40
0.2222222222222222
 40
0.2222222222222222
 40
0.2222222222222222
 40
0.3333333333333333
 40
0.3333333333333333
 40
0.3333333333333333
 40
0.3333333333333333
 40
0.4444444444444444
 40
0.4444444444444444
 40
0.4444444444444444
 40
0.4444444444444444
 40
0.5555555555555556
 40
0.5555555555555556
 40
0.5555555555555556
 40
0.5555555555555556
 40
0.6666666666666666
 40
0.6666666666666666
 40
0.6666666666666666
 40
0.6666666666666666
 40
0.7777777777777778
 40
0.7777777777777778
 40
0.7777777777777778
 40
0.7777777777777778
 40
1.0
 40
1.0
 40
1.0
 40
1.0
 10
-5.08277
 20
1.81068
 30
0.0
 10
-5.28286
 20
1.61059
 30
0.0
 10
-5.48296
 20
1.41052
 30
0.0
 10
-5.68304
 20
1.21039
 30
0.0
 10
-5.68304
 20
1.21039
 30
0.0
 10
-5.44764
 20
0.97504
 30
0.0
 10
-5.21229
 20
0.73966
 30
0.0
 10
-4.97686
 20
0.50422
 30
0.0
 10
-4.97686
 20
0.50422
 30
0.0
 10
-5.21229
 20
0.26882
 30
0.0
 10
-5.44764
 20
0.0334
 30
0.0
 10
-5.68304
 20
-0.20196
 30
0.0
 10
-5.68304
 20
-0.20196
 30
0.0
 10
-5.52297
 20
-0.36205
 30
0.0
 10
-5.36289
 20
-0.52213
 30
0.0
 10
-5.20282
 20
-0.68218
 30
0.0
 10
-5.20282
 20
-0.68218
 30
0.0
 10
-4.96748
 20
-0.44678
 30
0.0
 10
-4.73206
 20
-0.21141
 30
0.0
 10
-4.49662
 20
0.024
 30
0.0
 10
-4.49662
 20
0.024
 30
0.0
 10
-4.22358
 20
-0.24909
 30
0.0
 10
-3.95051
 20
-0.52213
 30
0.0
 10
-3.67747
 20
-0.7952
 30
0.0
 10
-3.67747
 20
-0.7952
 30
0.0
 10
-3.47736
 20
-0.59507
 30
0.0
 10
-3.27725
 20
-0.39502
 30
0.0
 10
-3.07716
 20
-0.19493
 30
0.0
 10
-3.07716
 20
-0.19493
 30
0.0
 10
-3.7457
 20
0.47361
 30
0.0
 10
-4.41423
 20
1.14214
 30
0.0
 10
-5.08277
 20
1.81068
 30
0.0
  0
SPLINE
  5
89
330
1F
100
AcDbEntity
  8
Layer 1
 62
     7
100
AcDbSpline
210
0.0
220
0.0
230
1.0
 70
    11
 71
     3
 72
    36
 73
    32
 74
     0
 42
0.0000000001
 43
0.0000000001
 12
1.0
 22
0.0
 32
0.0
 13
1.0
 23
0.0
 33
0.0
 40
0.0
 40
0.0
 40
0.0
 40
0.0
 40
0.1111111111111111
 40
0.1111111111111111
 40
0.1111111111111111
 40
0.1111111111111111
 40
0.2222222222222222
 40
0.2222222222222222
 40
0.2222222222222222
 40
0.2222222222222222
 40
0.3333333333333333
 40
0.3333333333333333
 40
0.3333333333333333
 40
0.3333333333333333
 40
0.4444444444444444
 40
0.4444444444444444
 40
0.4444444444444444
 40
0.4444444444444444
 40
0.5555555555555556
 40
0.5555555555555556
 40
0.5555555555555556
 40
0.5555555555555556
 40
0.6666666666666666
 40
0.6666666666666666
 40
0.6666666666666666
 40
0.6666666666666666
 40
0.7777777777777778
 40
0.7777777777777778
 40
0.7777777777777778
 40
0.7777777777777778
 40
1.0
 40
1.0
 40
1.0
 40
1.0
 10
-8.13358
 20
4.86149
 30
0.0
 10
-8.33366
 20
4.66135
 30
0.0
 10
-8.53373
 20
4.46127
 30
0.0
 10
-8.73383
 20
4.26118
 30
0.0
 10
-8.73383
 20
4.26118
 30
0.0
 10
-8.49843
 20
4.02579
 30
0.0
 10
-8.26301
 20
3.7904
 30
0.0
 10
-8.02761
 20
3.555
 30
0.0
 10
-8.02761
 20
3.555
 30
0.0
 10
-8.26301
 20
3.31962
 30
0.0
 10
-8.49843
 20
3.08418
 30
0.0
 10
-8.73383
 20
2.84878
 30
0.0
 10
-8.73383
 20
2.84878
 30
0.0
 10
-8.57377
 20
2.68873
 30
0.0
 10
-8.41364
 20
2.52863
 30
0.0
 10
-8.25361
 20
2.36856
 30
0.0
 10
-8.25361
 20
2.36856
 30
0.0
 10
-8.01819
 20
2.604
 30
0.0
 10
-7.78283
 20
2.83943
 30
0.0
 10
-7.54739
 20
3.07478
 30
0.0
 10
-7.54739
 20
3.07478
 30
0.0
 10
-7.27436
 20
2.80168
 30
0.0
 10
-7.00125
 20
2.52863
 30
0.0
 10
-6.72826
 20
2.25554
 30
0.0
 10
-6.72826
 20
2.25554
 30
0.0
 10
-6.52814
 20
2.45566
 30
0.0
 10
-6.32806
 20
2.65576
 30
0.0
 10
-6.12795
 20
2.85586
 30
0.0
 10
-6.12795
 20
2.85586
 30
0.0
 10
-6.79646
 20
3.52439
 30
0.0
 10
-7.46501
 20
4.19292
 30
0.0
 10
-8.13358
 20
4.86149
 30
0.0
  0
SPLINE
  5
8A
330
1F
100
AcDbEntity
  8
Layer 1
 62
     7
100
AcDbSpline
210
0.0
220
0.0
230
1.0
 70
    11
 71
     3
 72
    48
 73
    44
 74
     0
 42
0.0000000001
 43
0.0000000001
 12
1.0
 22
0.0
 32
0.0
 13
1.0
 23
0.0
 33
0.0
 40
0.0
 40
0.0
 40
0.0
 40
0.0
 40
0.0833333333333333
 40
0.0833333333333333
 40
0.0833333333333333
 40
0.0833333333333333
 40
0.1666666666666667
 40
0.1666666666666667
 40
0.1666666666666667
 40
0.1666666666666667
 40
0.25
 40
0.25
 40
0.25
 40
0.25
 40
0.3333333333333333
 40
0.3333333333333333
 40
0.3333333333333333
 40
0.3333333333333333
 40
0.4166666666666667
 40
0.4166666666666667
 40
0.4166666666666667
 40
0.4166666666666667
 40
0.5
 40
0.5
 40
0.5
 40
0.5
 40
0.5833333333333334
 40
0.5833333333333334
 40
0.5833333333333334
 40
0.5833333333333334
 40
0.6666666666666666
 40
0.6666666666666666
 40
0.6666666666666666
 40
0.6666666666666666
 40
0.75
 40
0.75
 40
0.75
 40
0.75
 40
0.8333333333333334
 40
0.8333333333333334
 40
0.8333333333333334
 40
0.8333333333333334
 40
1.0
 40
1.0
 40
1.0
 40
1.0
 10
-5.90195
 20
-3.47167
 30
0.0
 10
-6.56817
 20
-4.13782
 30
0.0
 10
-7.23431
 20
-4.80407
 30
0.0
 10
-7.90051
 20
-5.47021
 30
0.0
 10
-7.90051
 20
-5.47021
 30
0.0
 10
-7.70275
 20
-5.66794
 30
0.0
 10
-7.50503
 20
-5.86568
 30
0.0
 10
-7.30729
 20
-6.06344
 30
0.0
 10
-7.30729
 20
-6.06344
 30
0.0
 10
-7.15193
 20
-5.90808
 30
0.0
 10
-6.99659
 20
-5.7527
 30
0.0
 10
-6.84121
 20
-5.59732
 30
0.0
 10
-6.84121
 20
-5.59732
 30
0.0
 10
-6.84121
 20
-5.59732
 30
0.0
 10
-6.84121
 20
-5.59732
 30
0.0
 10
-6.84121
 20
-5.59732
 30
0.0
 10
-6.84121
 20
-5.59732
 30
0.0
 10
-6.7659
 20
-5.52202
 30
0.0
 10
-6.69058
 20
-5.44668
 30
0.0
 10
-6.61523
 20
-5.37134
 30
0.0
 10
-6.61523
 20
-5.37134
 30
0.0
 10
-6.37983
 20
-5.60675
 30
0.0
 10
-6.1444
 20
-5.84215
 30
0.0
 10
-5.90903
 20
-6.07756
 30
0.0
 10
-5.90903
 20
-6.07756
 30
0.0
 10
-5.74896
 20
-5.91744
 30
0.0
 10
-5.58892
 20
-5.7574
 30
0.0
 10
-5.42882
 20
-5.59732
 30
0.0
 10
-5.42882
 20
-5.59732
 30
0.0
 10
-5.66418
 20
-5.36195
 30
0.0
 10
-5.8996
 20
-5.12653
 30
0.0
 10
-6.13502
 20
-4.89114
 30
0.0
 10
-6.13502
 20
-4.89114
 30
0.0
 10
-5.85959
 20
-4.61575
 30
0.0
 10
-5.58418
 20
-4.34031
 30
0.0
 10
-5.30877
 20
-4.06493
 30
0.0
 10
-5.30877
 20
-4.06493
 30
0.0
 10
-5.40644
 20
-3.96719
 30
0.0
 10
-5.50415
 20
-3.86952
 30
0.0
 10
-5.60183
 20
-3.77182
 30
0.0
 10
-5.60183
 20
-3.77182
 30
0.0
 10
-5.7019
 20
-3.67175
 30
0.0
 10
-5.80192
 20
-3.57171
 30
0.0
 10
-5.90195
 20
-3.47167
 30
0.0
  0
SPLINE
  5
8B
330
1F
100
AcDbEntity
  8
Layer 1
 62
     7
100
AcDbSpline
210
0.0
220
0.0
230
1.0
 70
    11
 71
     3
 72
    36
 73
    32
 74
     0
 42
0.0000000001
 43
0.0000000001
 12
1.0
 22
0.0
 32
0.0
 13
1.0
 23
0.0
 33
0.0
 40
0.0
 40
0.0
 40
0.0
 40
0.0
 40
0.1111111111111111
 40
0.1111111111111111
 40
0.1111111111111111
 40
0.1111111111111111
 40
0.2222222222222222
 40
0.2222222222222222
 40
0.2222222222222222
 40
0.2222222222222222
 40
0.3333333333333333
 40
0.3333333333333333
 40
0.3333333333333333
 40
0.3333333333333333
 40
0.4444444444444444
 40
0.4444444444444444
 40
0.4444444444444444
 40
0.4444444444444444
 40
0.5555555555555556
 40
0.5555555555555556
 40
0.5555555555555556
 40
0.5555555555555556
 40
0.6666666666666666
 40
0.6666666666666666
 40
0.6666666666666666
 40
0.6666666666666666
 40
0.7777777777777778
 40
0.7777777777777778
 40
0.7777777777777778
 40
0.7777777777777778
 40
1.0
 40
1.0
 40
1.0
 40
1.0
 10
-8.12644
 20
-5.69617
 30
0.0
 10
-8.32656
 20
-5.89628
 30
0.0
 10
-8.52667
 20
-6.09638
 30
0.0
 10
-8.72673
 20
-6.29648
 30
0.0
 10
-8.72673
 20
-6.29648
 30
0.0
 10
-8.05822
 20
-6.96502
 30
0.0
 10
-7.38971
 20
-7.63355
 30
0.0
 10
-6.72115
 20
-8.30209
 30
0.0
 10
-6.72115
 20
-8.30209
 30
0.0
 10
-6.52108
 20
-8.10199
 30
0.0
 10
-6.32098
 20
-7.90189
 30
0.0
 10
-6.12087
 20
-7.70178
 30
0.0
 10
-6.12087
 20
-7.70178
 30
0.0
 10
-6.35628
 20
-7.4664
 30
0.0
 10
-6.59169
 20
-7.23102
 30
0.0
 10
-6.82709
 20
-6.9956
 30
0.0
 10
-6.82709
 20
-6.9956
 30
0.0
 10
-6.5964
 20
-6.76491
 30
0.0
 10
-6.3657
 20
-6.53422
 30
0.0
 10
-6.13502
 20
-6.30352
 30
0.0
 10
-6.13502
 20
-6.30352
 30
0.0
 10
-6.29508
 20
-6.14345
 30
0.0
 10
-6.45516
 20
-5.98337
 30
0.0
 10
-6.61523
 20
-5.82329
 30
0.0
 10
-6.61523
 20
-5.82329
 30
0.0
 10
-6.8459
 20
-6.05402
 30
0.0
 10
-7.07665
 20
-6.28469
 30
0.0
 10
-7.30729
 20
-6.51538
 30
0.0
 10
-7.30729
 20
-6.51538
 30
0.0
 10
-7.58035
 20
-6.24232
 30
0.0
 10
-7.85343
 20
-5.96931
 30
0.0
 10
-8.12644
 20
-5.69617
 30
0.0
  0
SPLINE
  5
8C
330
1F
100
AcDbEntity
  8
Layer 1
 62
     7
100
AcDbSpline
210
0.0
220
0.0
230
1.0
 70
    11
 71
     3
 72
    36
 73
    32
 74
     0
 42
0.0000000001
 43
0.0000000001
 12
1.0
 22
0.0
 32
0.0
 13
1.0
 23
0.0
 33
0.0
 40
0.0
 40
0.0
 40
0.0
 40
0.0
 40
0.1111111111111111
 40
0.1111111111111111
 40
0.1111111111111111
 40
0.1111111111111111
 40
0.2222222222222222
 40
0.2222222222222222
 40
0.2222222222222222
 40
0.2222222222222222
 40
0.3333333333333333
 40
0.3333333333333333
 40
0.3333333333333333
 40
0.3333333333333333
 40
0.4444444444444444
 40
0.4444444444444444
 40
0.4444444444444444
 40
0.4444444444444444
 40
0.5555555555555556
 40
0.5555555555555556
 40
0.5555555555555556
 40
0.5555555555555556
 40
0.6666666666666666
 40
0.6666666666666666
 40
0.6666666666666666
 40
0.6666666666666666
 40
0.7777777777777778
 40
0.7777777777777778
 40
0.7777777777777778
 40
0.7777777777777778
 40
1.0
 40
1.0
 40
1.0
 40
1.0
 10
-5.08277
 20
-4.29084
 30
0.0
 10
-5.28286
 20
-4.49094
 30
0.0
 10
-5.48296
 20
-4.69104
 30
0.0
 10
-5.68304
 20
-4.89114
 30
0.0
 10
-5.68304
 20
-4.89114
 30
0.0
 10
-5.44764
 20
-5.12653
 30
0.0
 10
-5.21229
 20
-5.36195
 30
0.0
 10
-4.97686
 20
-5.59732
 30
0.0
 10
-4.97686
 20
-5.59732
 30
0.0
 10
-5.21229
 20
-5.83275
 30
0.0
 10
-5.44764
 20
-6.0681
 30
0.0
 10
-5.68304
 20
-6.30352
 30
0.0
 10
-5.68304
 20
-6.30352
 30
0.0
 10
-5.52297
 20
-6.4636
 30
0.0
 10
-5.36289
 20
-6.62365
 30
0.0
 10
-5.20282
 20
-6.78375
 30
0.0
 10
-5.20282
 20
-6.78375
 30
0.0
 10
-4.96748
 20
-6.54833
 30
0.0
 10
-4.73206
 20
-6.31297
 30
0.0
 10
-4.49662
 20
-6.07756
 30
0.0
 10
-4.49662
 20
-6.07756
 30
0.0
 10
-4.22358
 20
-6.3506
 30
0.0
 10
-3.95051
 20
-6.62365
 30
0.0
 10
-3.67747
 20
-6.89674
 30
0.0
 10
-3.67747
 20
-6.89674
 30
0.0
 10
-3.47736
 20
-6.69665
 30
0.0
 10
-3.27725
 20
-6.49655
 30
0.0
 10
-3.07716
 20
-6.29648
 30
0.0
 10
-3.07716
 20
-6.29648
 30
0.0
 10
-3.7457
 20
-5.6279
 30
0.0
 10
-4.41423
 20
-4.95942
 30
0.0
 10
-5.08277
 20
-4.29084
 30
0.0
  0
SPLINE
  5
8D
330
1F
100
AcDbEntity
  8
Layer 1
 62
     7
100
AcDbSpline
210
0.0
220
0.0
230
1.0
 70
    11
 71
     3
 72
    40
 73
    36
 74
     0
 42
0.0000000001
 43
0.0000000001
 12
1.0
 22
0.0
 32
0.0
 13
1.0
 23
0.0
 33
0.0
 40
0.0
 40
0.0
 40
0.0
 40
0.0
 40
0.1
 40
0.1
 40
0.1
 40
0.1
 40
0.2
 40
0.2
 40
0.2
 40
0.2
 40
0.3
 40
0.3
 40
0.3
 40
0.3
 40
0.4
 40
0.4
 40
0.4
 40
0.4
 40
0.5
 40
0.5
 40
0.5
 40
0.5
 40
0.6
 40
0.6
 40
0.6
 40
0.6
 40
0.7
 40
0.7
 40
0.7
 40
0.7
 40
0.8
 40
0.8
 40
0.8
 40
0.8
 40
1.0
 40
1.0
 40
1.0
 40
1.0
 10
-3.90344
 20
-7.12272
 30
0.0
 10
-4.10118
 20
-6.92501
 30
0.0
 10
-4.2989
 20
-6.72729
 30
0.0
 10
-4.49662
 20
-6.52953
 30
0.0
 10
-4.49662
 20
-6.52953
 30
0.0
 10
-4.73206
 20
-6.76491
 30
0.0
 10
-4.96748
 20
-7.00028
 30
0.0
 10
-5.20282
 20
-7.23573
 30
0.0
 10
-5.20282
 20
-7.23573
 30
0.0
 10
-5.43823
 20
-7.00028
 30
0.0
 10
-5.67363
 20
-6.76491
 30
0.0
 10
-5.90903
 20
-6.52953
 30
0.0
 10
-5.90903
 20
-6.52953
 30
0.0
 10
-6.0644
 20
-6.68488
 30
0.0
 10
-6.21976
 20
-6.84022
 30
0.0
 10
-6.37512
 20
-6.9956
 30
0.0
 10
-6.37512
 20
-6.9956
 30
0.0
 10
-6.13971
 20
-7.23102
 30
0.0
 10
-5.90432
 20
-7.4664
 30
0.0
 10
-5.66893
 20
-7.70178
 30
0.0
 10
-5.66893
 20
-7.70178
 30
0.0
 10
-5.94436
 20
-7.97725
 30
0.0
 10
-6.21976
 20
-8.25264
 30
0.0
 10
-6.49518
 20
-8.52806
 30
0.0
 10
-6.49518
 20
-8.52806
 30
0.0
 10
-6.36924
 20
-8.654
 30
0.0
 10
-6.24329
 20
-8.77994
 30
0.0
 10
-6.11735
 20
-8.90587
 30
0.0
 10
-6.11735
 20
-8.90587
 30
0.0
 10
-6.04554
 20
-8.97767
 30
0.0
 10
-5.97377
 20
-9.04946
 30
0.0
 10
-5.90195
 20
-9.12126
 30
0.0
 10
-5.90195
 20
-9.12126
 30
0.0
 10
-5.23579
 20
-8.45507
 30
0.0
 10
-4.56959
 20
-7.78891
 30
0.0
 10
-3.90344
 20
-7.12272
 30
0.0
  0
SPLINE
  5
8E
330
1F
100
AcDbEntity
  8
Layer 1
 62
     7
100
AcDbSpline
210
0.0
220
0.0
230
1.0
 70
    11
 71
     3
 72
    36
 73
    32
 74
     0
 42
0.0000000001
 43
0.0000000001
 12
1.0
 22
0.0
 32
0.0
 13
1.0
 23
0.0
 33
0.0
 40
0.0
 40
0.0
 40
0.0
 40
0.0
 40
0.1111111111111111
 40
0.1111111111111111
 40
0.1111111111111111
 40
0.1111111111111111
 40
0.2222222222222222
 40
0.2222222222222222
 40
0.2222222222222222
 40
0.2222222222222222
 40
0.3333333333333333
 40
0.3333333333333333
 40
0.3333333333333333
 40
0.3333333333333333
 40
0.4444444444444444
 40
0.4444444444444444
 40
0.4444444444444444
 40
0.4444444444444444
 40
0.5555555555555556
 40
0.5555555555555556
 40
0.5555555555555556
 40
0.5555555555555556
 40
0.6666666666666666
 40
0.6666666666666666
 40
0.6666666666666666
 40
0.6666666666666666
 40
0.7777777777777778
 40
0.7777777777777778
 40
0.7777777777777778
 40
0.7777777777777778
 40
1.0
 40
1.0
 40
1.0
 40
1.0
 10
-8.13358
 20
-1.24009
 30
0.0
 10
-8.33366
 20
-1.4402
 30
0.0
 10
-8.53373
 20
-1.64027
 30
0.0
 10
-8.73383
 20
-1.84035
 30
0.0
 10
-8.73383
 20
-1.84035
 30
0.0
 10
-8.49843
 20
-2.07573
 30
0.0
 10
-8.26301
 20
-2.3112
 30
0.0
 10
-8.02761
 20
-2.54659
 30
0.0
 10
-8.02761
 20
-2.54659
 30
0.0
 10
-8.26301
 20
-2.78196
 30
0.0
 10
-8.49843
 20
-3.01736
 30
0.0
 10
-8.73383
 20
-3.25279
 30
0.0
 10
-8.73383
 20
-3.25279
 30
0.0
 10
-8.57377
 20
-3.41283
 30
0.0
 10
-8.41364
 20
-3.57288
 30
0.0
 10
-8.25361
 20
-3.73296
 30
0.0
 10
-8.25361
 20
-3.73296
 30
0.0
 10
-8.01819
 20
-3.49759
 30
0.0
 10
-7.78283
 20
-3.26218
 30
0.0
 10
-7.54739
 20
-3.02678
 30
0.0
 10
-7.54739
 20
-3.02678
 30
0.0
 10
-7.27436
 20
-3.29984
 30
0.0
 10
-7.00125
 20
-3.57288
 30
0.0
 10
-6.72826
 20
-3.84593
 30
0.0
 10
-6.72826
 20
-3.84593
 30
0.0
 10
-6.52814
 20
-3.64584
 30
0.0
 10
-6.32806
 20
-3.44579
 30
0.0
 10
-6.12795
 20
-3.24566
 30
0.0
 10
-6.12795
 20
-3.24566
 30
0.0
 10
-6.79646
 20
-2.57717
 30
0.0
 10
-7.46501
 20
-1.90862
 30
0.0
 10
-8.13358
 20
-1.24009
 30
0.0
  0
SPLINE
  5
8F
330
1F
100
AcDbEntity
  8
Layer 1
 62
     7
100
AcDbSpline
210
0.0
220
0.0
230
1.0
 70
    11
 71
     3
 72
    36
 73
    32
 74
     0
 42
0.0000000001
 43
0.0000000001
 12
1.0
 22
0.0
 32
0.0
 13
1.0
 23
0.0
 33
0.0
 40
0.0
 40
0.0
 40
0.0
 40
0.0
 40
0.1111111111111111
 40
0.1111111111111111
 40
0.1111111111111111
 40
0.1111111111111111
 40
0.2222222222222222
 40
0.2222222222222222
 40
0.2222222222222222
 40
0.2222222222222222
 40
0.3333333333333333
 40
0.3333333333333333
 40
0.3333333333333333
 40
0.3333333333333333
 40
0.4444444444444444
 40
0.4444444444444444
 40
0.4444444444444444
 40
0.4444444444444444
 40
0.5555555555555556
 40
0.5555555555555556
 40
0.5555555555555556
 40
0.5555555555555556
 40
0.6666666666666666
 40
0.6666666666666666
 40
0.6666666666666666
 40
0.6666666666666666
 40
0.7777777777777778
 40
0.7777777777777778
 40
0.7777777777777778
 40
0.7777777777777778
 40
1.0
 40
1.0
 40
1.0
 40
1.0
 10
-8.13358
 20
-7.34163
 30
0.0
 10
-8.33366
 20
-7.54173
 30
0.0
 10
-8.53373
 20
-7.74186
 30
0.0
 10
-8.73383
 20
-7.94191
 30
0.0
 10
-8.73383
 20
-7.94191
 30
0.0
 10
-8.49843
 20
-8.17727
 30
0.0
 10
-8.26301
 20
-8.4127
 30
0.0
 10
-8.02761
 20
-8.6481
 30
0.0
 10
-8.02761
 20
-8.6481
 30
0.0
 10
-8.26301
 20
-8.88348
 30
0.0
 10
-8.49843
 20
-9.11889
 30
0.0
 10
-8.73383
 20
-9.35429
 30
0.0
 10
-8.73383
 20
-9.35429
 30
0.0
 10
-8.57377
 20
-9.51437
 30
0.0
 10
-8.41364
 20
-9.67444
 30
0.0
 10
-8.25361
 20
-9.83449
 30
0.0
 10
-8.25361
 20
-9.83449
 30
0.0
 10
-8.01819
 20
-9.59912
 30
0.0
 10
-7.78283
 20
-9.36372
 30
0.0
 10
-7.54739
 20
-9.1283
 30
0.0
 10
-7.54739
 20
-9.1283
 30
0.0
 10
-7.27436
 20
-9.4014
 30
0.0
 10
-7.00125
 20
-9.67444
 30
0.0
 10
-6.72826
 20
-9.94751
 30
0.0
 10
-6.72826
 20
-9.94751
 30
0.0
 10
-6.52814
 20
-9.74743
 30
0.0
 10
-6.32806
 20
-9.54732
 30
0.0
 10
-6.12795
 20
-9.34724
 30
0.0
 10
-6.12795
 20
-9.34724
 30
0.0
 10
-6.79646
 20
-8.67872
 30
0.0
 10
-7.46501
 20
-8.01018
 30
0.0
 10
-8.13358
 20
-7.34163
 30
0.0
  0
SPLINE
  5
90
330
1F
100
AcDbEntity
  8
Layer 1
 62
   242
370
     9
100
AcDbSpline
210
0.0
220
0.0
230
1.0
 70
    11
 71
     3
 72
    20
 73
    16
 74
     0
 42
0.0000000001
 43
0.0000000001
 12
1.0
 22
0.0
 32
0.0
 13
1.0
 23
0.0
 33
0.0
 40
0.0
 40
0.0
 40
0.0
 40
0.0
 40
0.2
 40
0.2
 40
0.2
 40
0.2
 40
0.4
 40
0.4
 40
0.4
 40
0.4
 40
0.6
 40
0.6
 40
0.6
 40
0.6
 40
1.0
 40
1.0
 40
1.0
 40
1.0
 10
0.56978
 20
16.8778
 30
0.0
 10
3.23306
 20
16.8778
 30
0.0
 10
5.89625
 20
16.8778
 30
0.0
 10
8.55948
 20
16.8778
 30
0.0
 10
8.55948
 20
16.8778
 30
0.0
 10
8.55948
 20
7.52984
 30
0.0
 10
8.55948
 20
-1.81813
 30
0.0
 10
8.55948
 20
-11.16609
 30
0.0
 10
8.55948
 20
-11.16609
 30
0.0
 10
5.89625
 20
-11.16609
 30
0.0
 10
3.23306
 20
-11.16609
 30
0.0
 10
0.56978
 20
-11.16609
 30
0.0
 10
0.56978
 20
-11.16609
 30
0.0
 10
0.56978
 20
-1.81813
 30
0.0
 10
0.56978
 20
7.52984
 30
0.0
 10
0.56978
 20
16.8778
 30
0.0
  0
SPLINE
  5
91
330
1F
100
AcDbEntity
  8
Layer 1
 62
   242
370
     9
100
AcDbSpline
210
0.0
220
0.0
230
1.0
 70
    11
 71
     3
 72
    28
 73
    24
 74
     0
 42
0.0000000001
 43
0.0000000001
 12
1.0
 22
0.0
 32
0.0
 13
1.0
 23
0.0
 33
0.0
 40
0.0
 40
0.0
 40
0.0
 40
0.0
 40
0.1428571428571428
 40
0.1428571428571428
 40
0.1428571428571428
 40
0.1428571428571428
 40
0.2857142857142857
 40
0.2857142857142857
 40
0.2857142857142857
 40
0.2857142857142857
 40
0.4285714285714285
 40
0.4285714285714285
 40
0.4285714285714285
 40
0.4285714285714285
 40
0.5714285714285714
 40
0.5714285714285714
 40
0.5714285714285714
 40
0.5714285714285714
 40
0.7142857142857143
 40
0.7142857142857143
 40
0.7142857142857143
 40
0.7142857142857143
 40
1.0
 40
1.0
 40
1.0
 40
1.0
 10
0.97723
 20
16.47036
 30
0.0
 10
1.08045
 20
16.47036
 30
0.0
 10
1.18365
 20
16.47036
 30
0.0
 10
1.28685
 20
16.47036
 30
0.0
 10
1.28685
 20
16.47036
 30
0.0
 10
1.28485
 20
16.46832
 30
0.0
 10
1.28285
 20
16.46633
 30
0.0
 10
1.28082
 20
16.4643
 30
0.0
 10
1.28082
 20
16.4643
 30
0.0
 10
1.5162
 20
16.22887
 30
0.0
 10
1.7516
 20
15.99349
 30
0.0
 10
1.98702
 20
15.7581
 30
0.0
 10
1.98702
 20
15.7581
 30
0.0
 10
1.82691
 20
15.59801
 30
0.0
 10
1.66688
 20
15.43792
 30
0.0
 10
1.50676
 20
15.27788
 30
0.0
 10
1.50676
 20
15.27788
 30
0.0
 10
1.3303
 20
15.45439
 30
0.0
 10
1.15377
 20
15.63092
 30
0.0
 10
0.97723
 20
15.80744
 30
0.0
 10
0.97723
 20
15.80744
 30
0.0
 10
0.97723
 20
16.02838
 30
0.0
 10
0.97723
 20
16.24937
 30
0.0
 10
0.97723
 20
16.47036
 30
0.0
  0
SPLINE
  5
92
330
1F
100
AcDbEntity
  8
Layer 1
 62
   242
370
     9
100
AcDbSpline
210
0.0
220
0.0
230
1.0
 70
    11
 71
     3
 72
    40
 73
    36
 74
     0
 42
0.0000000001
 43
0.0000000001
 12
1.0
 22
0.0
 32
0.0
 13
1.0
 23
0.0
 33
0.0
 40
0.0
 40
0.0
 40
0.0
 40
0.0
 40
0.1
 40
0.1
 40
0.1
 40
0.1
 40
0.2
 40
0.2
 40
0.2
 40
0.2
 40
0.3
 40
0.3
 40
0.3
 40
0.3
 40
0.4
 40
0.4
 40
0.4
 40
0.4
 40
0.5
 40
0.5
 40
0.5
 40
0.5
 40
0.6
 40
0.6
 40
0.6
 40
0.6
 40
0.7
 40
0.7
 40
0.7
 40
0.7
 40
0.8
 40
0.8
 40
0.8
 40
0.8
 40
1.0
 40
1.0
 40
1.0
 40
1.0
 10
1.73883
 20
16.47036
 30
0.0
 10
2.13498
 20
16.47036
 30
0.0
 10
2.53116
 20
16.47036
 30
0.0
 10
2.9273
 20
16.47036
 30
0.0
 10
2.9273
 20
16.47036
 30
0.0
 10
3.39772
 20
15.99986
 30
0.0
 10
3.86821
 20
15.52938
 30
0.0
 10
4.33865
 20
15.05894
 30
0.0
 10
4.33865
 20
15.05894
 30
0.0
 10
4.13854
 20
14.85885
 30
0.0
 10
3.93846
 20
14.65875
 30
0.0
 10
3.73834
 20
14.4587
 30
0.0
 10
3.73834
 20
14.4587
 30
0.0
 10
3.46535
 20
14.73174
 30
0.0
 10
3.19224
 20
15.0048
 30
0.0
 10
2.91921
 20
15.27788
 30
0.0
 10
2.91921
 20
15.27788
 30
0.0
 10
2.68377
 20
15.04247
 30
0.0
 10
2.44841
 20
14.80705
 30
0.0
 10
2.21299
 20
14.57167
 30
0.0
 10
2.21299
 20
14.57167
 30
0.0
 10
2.05296
 20
14.73174
 30
0.0
 10
1.89283
 20
14.89183
 30
0.0
 10
1.73277
 20
15.05186
 30
0.0
 10
1.73277
 20
15.05186
 30
0.0
 10
1.96817
 20
15.28732
 30
0.0
 10
2.20359
 20
15.52272
 30
0.0
 10
2.43899
 20
15.7581
 30
0.0
 10
2.43899
 20
15.7581
 30
0.0
 10
2.20359
 20
15.99349
 30
0.0
 10
1.96817
 20
16.22887
 30
0.0
 10
1.73277
 20
16.4643
 30
0.0
 10
1.73277
 20
16.4643
 30
0.0
 10
1.73476
 20
16.46633
 30
0.0
 10
1.73684
 20
16.46832
 30
0.0
 10
1.73883
 20
16.47036
 30
0.0
  0
SPLINE
  5
93
330
1F
100
AcDbEntity
  8
Layer 1
 62
   242
370
     9
100
AcDbSpline
210
0.0
220
0.0
230
1.0
 70
    11
 71
     3
 72
    16
 73
    12
 74
     0
 42
0.0000000001
 43
0.0000000001
 12
1.0
 22
0.0
 32
0.0
 13
1.0
 23
0.0
 33
0.0
 40
0.0
 40
0.0
 40
0.0
 40
0.0
 40
0.25
 40
0.25
 40
0.25
 40
0.25
 40
0.5
 40
0.5
 40
0.5
 40
0.5
 40
1.0
 40
1.0
 40
1.0
 40
1.0
 10
3.37922
 20
16.47036
 30
0.0
 10
3.62337
 20
16.47036
 30
0.0
 10
3.86753
 20
16.47036
 30
0.0
 10
4.11163
 20
16.47036
 30
0.0
 10
4.11163
 20
16.47036
 30
0.0
 10
3.98959
 20
16.34825
 30
0.0
 10
3.86753
 20
16.22615
 30
0.0
 10
3.74545
 20
16.10414
 30
0.0
 10
3.74545
 20
16.10414
 30
0.0
 10
3.62337
 20
16.22615
 30
0.0
 10
3.50129
 20
16.34825
 30
0.0
 10
3.37922
 20
16.47036
 30
0.0
  0
SPLINE
  5
94
330
1F
100
AcDbEntity
  8
Layer 1
 62
   242
370
     9
100
AcDbSpline
210
0.0
220
0.0
230
1.0
 70
    11
 71
     3
 72
    20
 73
    16
 74
     0
 42
0.0000000001
 43
0.0000000001
 12
1.0
 22
0.0
 32
0.0
 13
1.0
 23
0.0
 33
0.0
 40
0.0
 40
0.0
 40
0.0
 40
0.0
 40
0.2
 40
0.2
 40
0.2
 40
0.2
 40
0.4
 40
0.4
 40
0.4
 40
0.4
 40
0.6
 40
0.6
 40
0.6
 40
0.6
 40
1.0
 40
1.0
 40
1.0
 40
1.0
 10
4.56371
 20
16.47036
 30
0.0
 10
4.95911
 20
16.47036
 30
0.0
 10
5.35457
 20
16.47036
 30
0.0
 10
5.75001
 20
16.47036
 30
0.0
 10
5.75001
 20
16.47036
 30
0.0
 10
5.35488
 20
16.07518
 30
0.0
 10
4.95975
 20
15.68006
 30
0.0
 10
4.56465
 20
15.28492
 30
0.0
 10
4.56465
 20
15.28492
 30
0.0
 10
4.3669
 20
15.48264
 30
0.0
 10
4.16915
 20
15.68041
 30
0.0
 10
3.97142
 20
15.87814
 30
0.0
 10
3.97142
 20
15.87814
 30
0.0
 10
4.16884
 20
16.07554
 30
0.0
 10
4.36622
 20
16.27295
 30
0.0
 10
4.56371
 20
16.47036
 30
0.0
  0
SPLINE
  5
95
330
1F
100
AcDbEntity
  8
Layer 1
 62
   242
370
     9
100
AcDbSpline
210
0.0
220
0.0
230
1.0
 70
    11
 71
     3
 72
    44
 73
    40
 74
     0
 42
0.0000000001
 43
0.0000000001
 12
1.0
 22
0.0
 32
0.0
 13
1.0
 23
0.0
 33
0.0
 40
0.0
 40
0.0
 40
0.0
 40
0.0
 40
0.0909090909090909
 40
0.0909090909090909
 40
0.0909090909090909
 40
0.0909090909090909
 40
0.1818181818181818
 40
0.1818181818181818
 40
0.1818181818181818
 40
0.1818181818181818
 40
0.2727272727272727
 40
0.2727272727272727
 40
0.2727272727272727
 40
0.2727272727272727
 40
0.3636363636363636
 40
0.3636363636363636
 40
0.3636363636363636
 40
0.3636363636363636
 40
0.4545454545454545
 40
0.4545454545454545
 40
0.4545454545454545
 40
0.4545454545454545
 40
0.5454545454545454
 40
0.5454545454545454
 40
0.5454545454545454
 40
0.5454545454545454
 40
0.6363636363636364
 40
0.6363636363636364
 40
0.6363636363636364
 40
0.6363636363636364
 40
0.7272727272727273
 40
0.7272727272727273
 40
0.7272727272727273
 40
0.7272727272727273
 40
0.8181818181818182
 40
0.8181818181818182
 40
0.8181818181818182
 40
0.8181818181818182
 40
1.0
 40
1.0
 40
1.0
 40
1.0
 10
6.20199
 20
16.47036
 30
0.0
 10
6.59745
 20
16.47036
 30
0.0
 10
6.99295
 20
16.47036
 30
0.0
 10
7.3884
 20
16.47036
 30
0.0
 10
7.3884
 20
16.47036
 30
0.0
 10
7.3864
 20
16.46832
 30
0.0
 10
7.38438
 20
16.46633
 30
0.0
 10
7.38239
 20
16.4643
 30
0.0
 10
7.38239
 20
16.4643
 30
0.0
 10
7.61774
 20
16.22887
 30
0.0
 10
7.85318
 20
15.99349
 30
0.0
 10
8.08858
 20
15.7581
 30
0.0
 10
8.08858
 20
15.7581
 30
0.0
 10
7.92848
 20
15.59801
 30
0.0
 10
7.76843
 20
15.43792
 30
0.0
 10
7.60836
 20
15.27788
 30
0.0
 10
7.60836
 20
15.27788
 30
0.0
 10
7.37293
 20
15.51325
 30
0.0
 10
7.13754
 20
15.74865
 30
0.0
 10
6.90217
 20
15.98405
 30
0.0
 10
6.90217
 20
15.98405
 30
0.0
 10
6.82681
 20
15.90875
 30
0.0
 10
6.75151
 20
15.83344
 30
0.0
 10
6.67616
 20
15.7581
 30
0.0
 10
6.67616
 20
15.7581
 30
0.0
 10
6.67616
 20
15.7581
 30
0.0
 10
6.67616
 20
15.7581
 30
0.0
 10
6.67616
 20
15.7581
 30
0.0
 10
6.67616
 20
15.7581
 30
0.0
 10
6.5208
 20
15.6027
 30
0.0
 10
6.36546
 20
15.44737
 30
0.0
 10
6.21008
 20
15.29199
 30
0.0
 10
6.21008
 20
15.29199
 30
0.0
 10
6.01236
 20
15.48974
 30
0.0
 10
5.81463
 20
15.68749
 30
0.0
 10
5.6169
 20
15.88522
 30
0.0
 10
5.6169
 20
15.88522
 30
0.0
 10
5.81191
 20
16.08024
 30
0.0
 10
6.00696
 20
16.27528
 30
0.0
 10
6.20199
 20
16.47036
 30
0.0
  0
SPLINE
  5
96
330
1F
100
AcDbEntity
  8
Layer 1
 62
   242
370
     9
100
AcDbSpline
210
0.0
220
0.0
230
1.0
 70
    11
 71
     3
 72
    20
 73
    16
 74
     0
 42
0.0000000001
 43
0.0000000001
 12
1.0
 22
0.0
 32
0.0
 13
1.0
 23
0.0
 33
0.0
 40
0.0
 40
0.0
 40
0.0
 40
0.0
 40
0.2
 40
0.2
 40
0.2
 40
0.2
 40
0.4
 40
0.4
 40
0.4
 40
0.4
 40
0.6
 40
0.6
 40
0.6
 40
0.6
 40
1.0
 40
1.0
 40
1.0
 40
1.0
 10
7.84036
 20
16.47036
 30
0.0
 10
7.94425
 20
16.47036
 30
0.0
 10
8.04811
 20
16.47036
 30
0.0
 10
8.15202
 20
16.47036
 30
0.0
 10
8.15202
 20
16.47036
 30
0.0
 10
8.15202
 20
16.36243
 30
0.0
 10
8.15202
 20
16.25451
 30
0.0
 10
8.15202
 20
16.14658
 30
0.0
 10
8.15202
 20
16.14658
 30
0.0
 10
8.04615
 20
16.25249
 30
0.0
 10
7.94023
 20
16.35836
 30
0.0
 10
7.83432
 20
16.4643
 30
0.0
 10
7.83432
 20
16.4643
 30
0.0
 10
7.83637
 20
16.46633
 30
0.0
 10
7.83833
 20
16.46832
 30
0.0
 10
7.84036
 20
16.47036
 30
0.0
  0
SPLINE
  5
97
330
1F
100
AcDbEntity
  8
Layer 1
 62
   242
370
     9
100
AcDbSpline
210
0.0
220
0.0
230
1.0
 70
    11
 71
     3
 72
    16
 73
    12
 74
     0
 42
0.0000000001
 43
0.0000000001
 12
1.0
 22
0.0
 32
0.0
 13
1.0
 23
0.0
 33
0.0
 40
0.0
 40
0.0
 40
0.0
 40
0.0
 40
0.25
 40
0.25
 40
0.25
 40
0.25
 40
0.5
 40
0.5
 40
0.5
 40
0.5
 40
1.0
 40
1.0
 40
1.0
 40
1.0
 10
8.15202
 20
15.36959
 30
0.0
 10
8.15202
 20
15.15778
 30
0.0
 10
8.15202
 20
14.94601
 30
0.0
 10
8.15202
 20
14.73418
 30
0.0
 10
8.15202
 20
14.73418
 30
0.0
 10
8.04615
 20
14.84005
 30
0.0
 10
7.94023
 20
14.94601
 30
0.0
 10
7.83432
 20
15.05186
 30
0.0
 10
7.83432
 20
15.05186
 30
0.0
 10
7.94023
 20
15.15778
 30
0.0
 10
8.04615
 20
15.26367
 30
0.0
 10
8.15202
 20
15.36959
 30
0.0
  0
SPLINE
  5
98
330
1F
100
AcDbEntity
  8
Layer 1
 62
   242
370
     9
100
AcDbSpline
210
0.0
220
0.0
230
1.0
 70
    11
 71
     3
 72
    32
 73
    28
 74
     0
 42
0.0000000001
 43
0.0000000001
 12
1.0
 22
0.0
 32
0.0
 13
1.0
 23
0.0
 33
0.0
 40
0.0
 40
0.0
 40
0.0
 40
0.0
 40
0.125
 40
0.125
 40
0.125
 40
0.125
 40
0.25
 40
0.25
 40
0.25
 40
0.25
 40
0.375
 40
0.375
 40
0.375
 40
0.375
 40
0.5
 40
0.5
 40
0.5
 40
0.5
 40
0.625
 40
0.625
 40
0.625
 40
0.625
 40
0.75
 40
0.75
 40
0.75
 40
0.75
 40
1.0
 40
1.0
 40
1.0
 40
1.0
 10
8.15202
 20
14.28225
 30
0.0
 10
8.15202
 20
13.77841
 30
0.0
 10
8.15202
 20
13.27457
 30
0.0
 10
8.15202
 20
12.77076
 30
0.0
 10
8.15202
 20
12.77076
 30
0.0
 10
7.97317
 20
12.5919
 30
0.0
 10
7.7943
 20
12.41305
 30
0.0
 10
7.61547
 20
12.23413
 30
0.0
 10
7.61547
 20
12.23413
 30
0.0
 10
7.41765
 20
12.4319
 30
0.0
 10
7.21992
 20
12.62966
 30
0.0
 10
7.02223
 20
12.82736
 30
0.0
 10
7.02223
 20
12.82736
 30
0.0
 10
7.29759
 20
13.10276
 30
0.0
 10
7.57304
 20
13.37822
 30
0.0
 10
7.84844
 20
13.65362
 30
0.0
 10
7.84844
 20
13.65362
 30
0.0
 10
7.61306
 20
13.88903
 30
0.0
 10
7.37762
 20
14.12445
 30
0.0
 10
7.14226
 20
14.35981
 30
0.0
 10
7.14226
 20
14.35981
 30
0.0
 10
7.29759
 20
14.51521
 30
0.0
 10
7.45299
 20
14.67054
 30
0.0
 10
7.60836
 20
14.82593
 30
0.0
 10
7.60836
 20
14.82593
 30
0.0
 10
7.78954
 20
14.64469
 30
0.0
 10
7.97074
 20
14.46348
 30
0.0
 10
8.15202
 20
14.28225
 30
0.0
  0
SPLINE
  5
99
330
1F
100
AcDbEntity
  8
Layer 1
 62
   242
370
     9
100
AcDbSpline
210
0.0
220
0.0
230
1.0
 70
    11
 71
     3
 72
    16
 73
    12
 74
     0
 42
0.0000000001
 43
0.0000000001
 12
1.0
 22
0.0
 32
0.0
 13
1.0
 23
0.0
 33
0.0
 40
0.0
 40
0.0
 40
0.0
 40
0.0
 40
0.25
 40
0.25
 40
0.25
 40
0.25
 40
0.5
 40
0.5
 40
0.5
 40
0.5
 40
1.0
 40
1.0
 40
1.0
 40
1.0
 10
8.15202
 20
12.31881
 30
0.0
 10
8.15202
 20
12.11174
 30
0.0
 10
8.15202
 20
11.90464
 30
0.0
 10
8.15202
 20
11.69757
 30
0.0
 10
8.15202
 20
11.69757
 30
0.0
 10
8.0485
 20
11.8011
 30
0.0
 10
7.94497
 20
11.90464
 30
0.0
 10
7.84135
 20
12.00818
 30
0.0
 10
7.84135
 20
12.00818
 30
0.0
 10
7.94497
 20
12.11174
 30
0.0
 10
8.0485
 20
12.21521
 30
0.0
 10
8.15202
 20
12.31881
 30
0.0
  0
SPLINE
  5
9A
330
1F
100
AcDbEntity
  8
Layer 1
 62
   242
370
     9
100
AcDbSpline
210
0.0
220
0.0
230
1.0
 70
    11
 71
     3
 72
    48
 73
    44
 74
     0
 42
0.0000000001
 43
0.0000000001
 12
1.0
 22
0.0
 32
0.0
 13
1.0
 23
0.0
 33
0.0
 40
0.0
 40
0.0
 40
0.0
 40
0.0
 40
0.0833333333333333
 40
0.0833333333333333
 40
0.0833333333333333
 40
0.0833333333333333
 40
0.1666666666666667
 40
0.1666666666666667
 40
0.1666666666666667
 40
0.1666666666666667
 40
0.25
 40
0.25
 40
0.25
 40
0.25
 40
0.3333333333333333
 40
0.3333333333333333
 40
0.3333333333333333
 40
0.3333333333333333
 40
0.4166666666666667
 40
0.4166666666666667
 40
0.4166666666666667
 40
0.4166666666666667
 40
0.5
 40
0.5
 40
0.5
 40
0.5
 40
0.5833333333333334
 40
0.5833333333333334
 40
0.5833333333333334
 40
0.5833333333333334
 40
0.6666666666666666
 40
0.6666666666666666
 40
0.6666666666666666
 40
0.6666666666666666
 40
0.75
 40
0.75
 40
0.75
 40
0.75
 40
0.8333333333333334
 40
0.8333333333333334
 40
0.8333333333333334
 40
0.8333333333333334
 40
1.0
 40
1.0
 40
1.0
 40
1.0
 10
8.15202
 20
11.24559
 30
0.0
 10
8.15202
 20
11.20787
 30
0.0
 10
8.15202
 20
11.17013
 30
0.0
 10
8.15202
 20
11.1324
 30
0.0
 10
8.15202
 20
11.1324
 30
0.0
 10
7.89548
 20
10.87585
 30
0.0
 10
7.63893
 20
10.61931
 30
0.0
 10
7.38239
 20
10.36268
 30
0.0
 10
7.38239
 20
10.36268
 30
0.0
 10
7.61774
 20
10.12735
 30
0.0
 10
7.85318
 20
9.89193
 30
0.0
 10
8.08858
 20
9.65651
 30
0.0
 10
8.08858
 20
9.65651
 30
0.0
 10
7.92848
 20
9.49649
 30
0.0
 10
7.76843
 20
9.33637
 30
0.0
 10
7.60836
 20
9.17634
 30
0.0
 10
7.60836
 20
9.17634
 30
0.0
 10
7.37293
 20
9.4117
 30
0.0
 10
7.13754
 20
9.64712
 30
0.0
 10
6.90217
 20
9.88254
 30
0.0
 10
6.90217
 20
9.88254
 30
0.0
 10
6.82681
 20
9.8072
 30
0.0
 10
6.75151
 20
9.73188
 30
0.0
 10
6.67616
 20
9.65651
 30
0.0
 10
6.67616
 20
9.65651
 30
0.0
 10
6.67616
 20
9.65651
 30
0.0
 10
6.67616
 20
9.65651
 30
0.0
 10
6.67616
 20
9.65651
 30
0.0
 10
6.67616
 20
9.65651
 30
0.0
 10
6.5208
 20
9.50119
 30
0.0
 10
6.36546
 20
9.34581
 30
0.0
 10
6.21008
 20
9.19045
 30
0.0
 10
6.21008
 20
9.19045
 30
0.0
 10
6.01236
 20
9.38815
 30
0.0
 10
5.81463
 20
9.58591
 30
0.0
 10
5.6169
 20
9.78367
 30
0.0
 10
5.6169
 20
9.78367
 30
0.0
 10
6.28306
 20
10.44984
 30
0.0
 10
6.94921
 20
11.11601
 30
0.0
 10
7.61547
 20
11.78221
 30
0.0
 10
7.61547
 20
11.78221
 30
0.0
 10
7.7943
 20
11.60337
 30
0.0
 10
7.97317
 20
11.42443
 30
0.0
 10
8.15202
 20
11.24559
 30
0.0
  0
SPLINE
  5
9B
330
1F
100
AcDbEntity
  8
Layer 1
 62
   242
370
     9
100
AcDbSpline
210
0.0
220
0.0
230
1.0
 70
    11
 71
     3
 72
    16
 73
    12
 74
     0
 42
0.0000000001
 43
0.0000000001
 12
1.0
 22
0.0
 32
0.0
 13
1.0
 23
0.0
 33
0.0
 40
0.0
 40
0.0
 40
0.0
 40
0.0
 40
0.25
 40
0.25
 40
0.25
 40
0.25
 40
0.5
 40
0.5
 40
0.5
 40
0.5
 40
1.0
 40
1.0
 40
1.0
 40
1.0
 10
8.15202
 20
10.68041
 30
0.0
 10
8.15202
 20
10.46862
 30
0.0
 10
8.15202
 20
10.25684
 30
0.0
 10
8.15202
 20
10.04505
 30
0.0
 10
8.15202
 20
10.04505
 30
0.0
 10
8.04615
 20
10.15093
 30
0.0
 10
7.94023
 20
10.25684
 30
0.0
 10
7.83432
 20
10.36268
 30
0.0
 10
7.83432
 20
10.36268
 30
0.0
 10
7.94023
 20
10.46862
 30
0.0
 10
8.04615
 20
10.57449
 30
0.0
 10
8.15202
 20
10.68041
 30
0.0
  0
SPLINE
  5
9C
330
1F
100
AcDbEntity
  8
Layer 1
 62
   242
370
     9
100
AcDbSpline
210
0.0
220
0.0
230
1.0
 70
    11
 71
     3
 72
    16
 73
    12
 74
     0
 42
0.0000000001
 43
0.0000000001
 12
1.0
 22
0.0
 32
0.0
 13
1.0
 23
0.0
 33
0.0
 40
0.0
 40
0.0
 40
0.0
 40
0.0
 40
0.25
 40
0.25
 40
0.25
 40
0.25
 40
0.5
 40
0.5
 40
0.5
 40
0.5
 40
1.0
 40
1.0
 40
1.0
 40
1.0
 10
8.15202
 20
9.26807
 30
0.0
 10
8.15202
 20
9.05626
 30
0.0
 10
8.15202
 20
8.84447
 30
0.0
 10
8.15202
 20
8.63265
 30
0.0
 10
8.15202
 20
8.63265
 30
0.0
 10
8.04615
 20
8.73854
 30
0.0
 10
7.94023
 20
8.84447
 30
0.0
 10
7.83432
 20
8.95035
 30
0.0
 10
7.83432
 20
8.95035
 30
0.0
 10
7.94023
 20
9.05626
 30
0.0
 10
8.04615
 20
9.16213
 30
0.0
 10
8.15202
 20
9.26807
 30
0.0
  0
SPLINE
  5
9D
330
1F
100
AcDbEntity
  8
Layer 1
 62
   242
370
     9
100
AcDbSpline
210
0.0
220
0.0
230
1.0
 70
    11
 71
     3
 72
    36
 73
    32
 74
     0
 42
0.0000000001
 43
0.0000000001
 12
1.0
 22
0.0
 32
0.0
 13
1.0
 23
0.0
 33
0.0
 40
0.0
 40
0.0
 40
0.0
 40
0.0
 40
0.1111111111111111
 40
0.1111111111111111
 40
0.1111111111111111
 40
0.1111111111111111
 40
0.2222222222222222
 40
0.2222222222222222
 40
0.2222222222222222
 40
0.2222222222222222
 40
0.3333333333333333
 40
0.3333333333333333
 40
0.3333333333333333
 40
0.3333333333333333
 40
0.4444444444444444
 40
0.4444444444444444
 40
0.4444444444444444
 40
0.4444444444444444
 40
0.5555555555555556
 40
0.5555555555555556
 40
0.5555555555555556
 40
0.5555555555555556
 40
0.6666666666666666
 40
0.6666666666666666
 40
0.6666666666666666
 40
0.6666666666666666
 40
0.7777777777777778
 40
0.7777777777777778
 40
0.7777777777777778
 40
0.7777777777777778
 40
1.0
 40
1.0
 40
1.0
 40
1.0
 10
8.15202
 20
8.18069
 30
0.0
 10
8.15202
 20
7.67689
 30
0.0
 10
8.15202
 20
7.17303
 30
0.0
 10
8.15202
 20
6.66922
 30
0.0
 10
8.15202
 20
6.66922
 30
0.0
 10
7.97317
 20
6.49039
 30
0.0
 10
7.7943
 20
6.31153
 30
0.0
 10
7.61547
 20
6.13262
 30
0.0
 10
7.61547
 20
6.13262
 30
0.0
 10
7.52474
 20
6.22329
 30
0.0
 10
7.43415
 20
6.31388
 30
0.0
 10
7.34355
 20
6.40451
 30
0.0
 10
7.34355
 20
6.40451
 30
0.0
 10
7.23643
 20
6.51162
 30
0.0
 10
7.12933
 20
6.61873
 30
0.0
 10
7.02223
 20
6.72587
 30
0.0
 10
7.02223
 20
6.72587
 30
0.0
 10
7.29759
 20
7.00125
 30
0.0
 10
7.57304
 20
7.27666
 30
0.0
 10
7.84844
 20
7.55207
 30
0.0
 10
7.84844
 20
7.55207
 30
0.0
 10
7.61306
 20
7.78743
 30
0.0
 10
7.37762
 20
8.0229
 30
0.0
 10
7.14226
 20
8.25829
 30
0.0
 10
7.14226
 20
8.25829
 30
0.0
 10
7.29759
 20
8.4136
 30
0.0
 10
7.45299
 20
8.56898
 30
0.0
 10
7.60836
 20
8.72436
 30
0.0
 10
7.60836
 20
8.72436
 30
0.0
 10
7.78954
 20
8.54314
 30
0.0
 10
7.97074
 20
8.36192
 30
0.0
 10
8.15202
 20
8.18069
 30
0.0
  0
SPLINE
  5
9E
330
1F
100
AcDbEntity
  8
Layer 1
 62
   242
370
     9
100
AcDbSpline
210
0.0
220
0.0
230
1.0
 70
    11
 71
     3
 72
    16
 73
    12
 74
     0
 42
0.0000000001
 43
0.0000000001
 12
1.0
 22
0.0
 32
0.0
 13
1.0
 23
0.0
 33
0.0
 40
0.0
 40
0.0
 40
0.0
 40
0.0
 40
0.25
 40
0.25
 40
0.25
 40
0.25
 40
0.5
 40
0.5
 40
0.5
 40
0.5
 40
1.0
 40
1.0
 40
1.0
 40
1.0
 10
8.15202
 20
6.21726
 30
0.0
 10
8.15202
 20
6.01018
 30
0.0
 10
8.15202
 20
5.80312
 30
0.0
 10
8.15202
 20
5.59602
 30
0.0
 10
8.15202
 20
5.59602
 30
0.0
 10
8.0485
 20
5.69957
 30
0.0
 10
7.94497
 20
5.8031
 30
0.0
 10
7.84135
 20
5.90664
 30
0.0
 10
7.84135
 20
5.90664
 30
0.0
 10
7.94497
 20
6.01018
 30
0.0
 10
8.0485
 20
6.11374
 30
0.0
 10
8.15202
 20
6.21726
 30
0.0
  0
SPLINE
  5
9F
330
1F
100
AcDbEntity
  8
Layer 1
 62
   242
370
     9
100
AcDbSpline
210
0.0
220
0.0
230
1.0
 70
    11
 71
     3
 72
    52
 73
    48
 74
     0
 42
0.0000000001
 43
0.0000000001
 12
1.0
 22
0.0
 32
0.0
 13
1.0
 23
0.0
 33
0.0
 40
0.0
 40
0.0
 40
0.0
 40
0.0
 40
0.0769230769230769
 40
0.0769230769230769
 40
0.0769230769230769
 40
0.0769230769230769
 40
0.1538461538461539
 40
0.1538461538461539
 40
0.1538461538461539
 40
0.1538461538461539
 40
0.2307692307692308
 40
0.2307692307692308
 40
0.2307692307692308
 40
0.2307692307692308
 40
0.3076923076923077
 40
0.3076923076923077
 40
0.3076923076923077
 40
0.3076923076923077
 40
0.3846153846153846
 40
0.3846153846153846
 40
0.3846153846153846
 40
0.3846153846153846
 40
0.4615384615384616
 40
0.4615384615384616
 40
0.4615384615384616
 40
0.4615384615384616
 40
0.5384615384615384
 40
0.5384615384615384
 40
0.5384615384615384
 40
0.5384615384615384
 40
0.6153846153846154
 40
0.6153846153846154
 40
0.6153846153846154
 40
0.6153846153846154
 40
0.6923076923076923
 40
0.6923076923076923
 40
0.6923076923076923
 40
0.6923076923076923
 40
0.7692307692307693
 40
0.7692307692307693
 40
0.7692307692307693
 40
0.7692307692307693
 40
0.8461538461538461
 40
0.8461538461538461
 40
0.8461538461538461
 40
0.8461538461538461
 40
1.0
 40
1.0
 40
1.0
 40
1.0
 10
8.15202
 20
5.14403
 30
0.0
 10
8.15202
 20
5.1063
 30
0.0
 10
8.15202
 20
5.06855
 30
0.0
 10
8.15202
 20
5.03083
 30
0.0
 10
8.15202
 20
5.03083
 30
0.0
 10
7.89548
 20
4.7743
 30
0.0
 10
7.63893
 20
4.51774
 30
0.0
 10
7.38239
 20
4.26118
 30
0.0
 10
7.38239
 20
4.26118
 30
0.0
 10
7.61774
 20
4.02579
 30
0.0
 10
7.85318
 20
3.7904
 30
0.0
 10
8.08858
 20
3.555
 30
0.0
 10
8.08858
 20
3.555
 30
0.0
 10
7.92848
 20
3.39491
 30
0.0
 10
7.76843
 20
3.23484
 30
0.0
 10
7.60836
 20
3.07478
 30
0.0
 10
7.60836
 20
3.07478
 30
0.0
 10
7.37293
 20
3.31017
 30
0.0
 10
7.13754
 20
3.54559
 30
0.0
 10
6.90217
 20
3.78096
 30
0.0
 10
6.90217
 20
3.78096
 30
0.0
 10
6.82681
 20
3.70563
 30
0.0
 10
6.75151
 20
3.63031
 30
0.0
 10
6.67616
 20
3.555
 30
0.0
 10
6.67616
 20
3.555
 30
0.0
 10
6.67616
 20
3.555
 30
0.0
 10
6.67616
 20
3.555
 30
0.0
 10
6.67616
 20
3.555
 30
0.0
 10
6.67616
 20
3.555
 30
0.0
 10
6.5208
 20
3.39961
 30
0.0
 10
6.36546
 20
3.24422
 30
0.0
 10
6.21008
 20
3.08892
 30
0.0
 10
6.21008
 20
3.08892
 30
0.0
 10
6.01236
 20
3.28665
 30
0.0
 10
5.81463
 20
3.48437
 30
0.0
 10
5.6169
 20
3.68214
 30
0.0
 10
5.6169
 20
3.68214
 30
0.0
 10
6.28306
 20
4.34828
 30
0.0
 10
6.94921
 20
5.0145
 30
0.0
 10
7.61547
 20
5.68065
 30
0.0
 10
7.61547
 20
5.68065
 30
0.0
 10
7.7061
 20
5.59001
 30
0.0
 10
7.7967
 20
5.4994
 30
0.0
 10
7.88727
 20
5.4088
 30
0.0
 10
7.88727
 20
5.4088
 30
0.0
 10
7.97551
 20
5.3205
 30
0.0
 10
8.06376
 20
5.23231
 30
0.0
 10
8.15202
 20
5.14403
 30
0.0
  0
SPLINE
  5
A0
330
1F
100
AcDbEntity
  8
Layer 1
 62
   242
370
     9
100
AcDbSpline
210
0.0
220
0.0
230
1.0
 70
    11
 71
     3
 72
    16
 73
    12
 74
     0
 42
0.0000000001
 43
0.0000000001
 12
1.0
 22
0.0
 32
0.0
 13
1.0
 23
0.0
 33
0.0
 40
0.0
 40
0.0
 40
0.0
 40
0.0
 40
0.25
 40
0.25
 40
0.25
 40
0.25
 40
0.5
 40
0.5
 40
0.5
 40
0.5
 40
1.0
 40
1.0
 40
1.0
 40
1.0
 10
8.15202
 20
4.5789
 30
0.0
 10
8.15202
 20
4.36712
 30
0.0
 10
8.15202
 20
4.1553
 30
0.0
 10
8.15202
 20
3.94353
 30
0.0
 10
8.15202
 20
3.94353
 30
0.0
 10
8.04615
 20
4.04938
 30
0.0
 10
7.94023
 20
4.1553
 30
0.0
 10
7.83432
 20
4.26118
 30
0.0
 10
7.83432
 20
4.26118
 30
0.0
 10
7.94023
 20
4.36712
 30
0.0
 10
8.04615
 20
4.47296
 30
0.0
 10
8.15202
 20
4.5789
 30
0.0
  0
SPLINE
  5
A1
330
1F
100
AcDbEntity
  8
Layer 1
 62
   242
370
     9
100
AcDbSpline
210
0.0
220
0.0
230
1.0
 70
    11
 71
     3
 72
    16
 73
    12
 74
     0
 42
0.0000000001
 43
0.0000000001
 12
1.0
 22
0.0
 32
0.0
 13
1.0
 23
0.0
 33
0.0
 40
0.0
 40
0.0
 40
0.0
 40
0.0
 40
0.25
 40
0.25
 40
0.25
 40
0.25
 40
0.5
 40
0.5
 40
0.5
 40
0.5
 40
1.0
 40
1.0
 40
1.0
 40
1.0
 10
8.15202
 20
3.16651
 30
0.0
 10
8.15202
 20
2.9547
 30
0.0
 10
8.15202
 20
2.74289
 30
0.0
 10
8.15202
 20
2.53109
 30
0.0
 10
8.15202
 20
2.53109
 30
0.0
 10
8.04615
 20
2.63702
 30
0.0
 10
7.94023
 20
2.74289
 30
0.0
 10
7.83432
 20
2.84878
 30
0.0
 10
7.83432
 20
2.84878
 30
0.0
 10
7.94023
 20
2.9547
 30
0.0
 10
8.04615
 20
3.06062
 30
0.0
 10
8.15202
 20
3.16651
 30
0.0
  0
SPLINE
  5
A2
330
1F
100
AcDbEntity
  8
Layer 1
 62
   242
370
     9
100
AcDbSpline
210
0.0
220
0.0
230
1.0
 70
    11
 71
     3
 72
    36
 73
    32
 74
     0
 42
0.0000000001
 43
0.0000000001
 12
1.0
 22
0.0
 32
0.0
 13
1.0
 23
0.0
 33
0.0
 40
0.0
 40
0.0
 40
0.0
 40
0.0
 40
0.1111111111111111
 40
0.1111111111111111
 40
0.1111111111111111
 40
0.1111111111111111
 40
0.2222222222222222
 40
0.2222222222222222
 40
0.2222222222222222
 40
0.2222222222222222
 40
0.3333333333333333
 40
0.3333333333333333
 40
0.3333333333333333
 40
0.3333333333333333
 40
0.4444444444444444
 40
0.4444444444444444
 40
0.4444444444444444
 40
0.4444444444444444
 40
0.5555555555555556
 40
0.5555555555555556
 40
0.5555555555555556
 40
0.5555555555555556
 40
0.6666666666666666
 40
0.6666666666666666
 40
0.6666666666666666
 40
0.6666666666666666
 40
0.7777777777777778
 40
0.7777777777777778
 40
0.7777777777777778
 40
0.7777777777777778
 40
1.0
 40
1.0
 40
1.0
 40
1.0
 10
8.15202
 20
2.07916
 30
0.0
 10
8.15202
 20
1.57533
 30
0.0
 10
8.15202
 20
1.0715
 30
0.0
 10
8.15202
 20
0.56768
 30
0.0
 10
8.15202
 20
0.56768
 30
0.0
 10
7.97317
 20
0.38884
 30
0.0
 10
7.7943
 20
0.20992
 30
0.0
 10
7.61547
 20
0.03106
 30
0.0
 10
7.61547
 20
0.03106
 30
0.0
 10
7.53417
 20
0.11225
 30
0.0
 10
7.45299
 20
0.19352
 30
0.0
 10
7.3718
 20
0.2747
 30
0.0
 10
7.3718
 20
0.2747
 30
0.0
 10
7.25524
 20
0.39123
 30
0.0
 10
7.13871
 20
0.50779
 30
0.0
 10
7.02223
 20
0.62426
 30
0.0
 10
7.02223
 20
0.62426
 30
0.0
 10
7.29759
 20
0.89968
 30
0.0
 10
7.57304
 20
1.17513
 30
0.0
 10
7.84844
 20
1.45053
 30
0.0
 10
7.84844
 20
1.45053
 30
0.0
 10
7.61306
 20
1.68594
 30
0.0
 10
7.37762
 20
1.92131
 30
0.0
 10
7.14226
 20
2.15671
 30
0.0
 10
7.14226
 20
2.15671
 30
0.0
 10
7.29759
 20
2.3121
 30
0.0
 10
7.45299
 20
2.46749
 30
0.0
 10
7.60836
 20
2.62279
 30
0.0
 10
7.60836
 20
2.62279
 30
0.0
 10
7.78954
 20
2.44162
 30
0.0
 10
7.97074
 20
2.26037
 30
0.0
 10
8.15202
 20
2.07916
 30
0.0
  0
SPLINE
  5
A3
330
1F
100
AcDbEntity
  8
Layer 1
 62
   242
370
     9
100
AcDbSpline
210
0.0
220
0.0
230
1.0
 70
    11
 71
     3
 72
    16
 73
    12
 74
     0
 42
0.0000000001
 43
0.0000000001
 12
1.0
 22
0.0
 32
0.0
 13
1.0
 23
0.0
 33
0.0
 40
0.0
 40
0.0
 40
0.0
 40
0.0
 40
0.25
 40
0.25
 40
0.25
 40
0.25
 40
0.5
 40
0.5
 40
0.5
 40
0.5
 40
1.0
 40
1.0
 40
1.0
 40
1.0
 10
8.15202
 20
0.1157
 30
0.0
 10
8.15202
 20
-0.09139
 30
0.0
 10
8.15202
 20
-0.29847
 30
0.0
 10
8.15202
 20
-0.50555
 30
0.0
 10
8.15202
 20
-0.50555
 30
0.0
 10
8.0485
 20
-0.40201
 30
0.0
 10
7.94497
 20
-0.29847
 30
0.0
 10
7.84135
 20
-0.19493
 30
0.0
 10
7.84135
 20
-0.19493
 30
0.0
 10
7.94497
 20
-0.09139
 30
0.0
 10
8.0485
 20
0.01217
 30
0.0
 10
8.15202
 20
0.1157
 30
0.0
  0
SPLINE
  5
A4
330
1F
100
AcDbEntity
  8
Layer 1
 62
   242
370
     9
100
AcDbSpline
210
0.0
220
0.0
230
1.0
 70
    11
 71
     3
 72
    52
 73
    48
 74
     0
 42
0.0000000001
 43
0.0000000001
 12
1.0
 22
0.0
 32
0.0
 13
1.0
 23
0.0
 33
0.0
 40
0.0
 40
0.0
 40
0.0
 40
0.0
 40
0.0769230769230769
 40
0.0769230769230769
 40
0.0769230769230769
 40
0.0769230769230769
 40
0.1538461538461539
 40
0.1538461538461539
 40
0.1538461538461539
 40
0.1538461538461539
 40
0.2307692307692308
 40
0.2307692307692308
 40
0.2307692307692308
 40
0.2307692307692308
 40
0.3076923076923077
 40
0.3076923076923077
 40
0.3076923076923077
 40
0.3076923076923077
 40
0.3846153846153846
 40
0.3846153846153846
 40
0.3846153846153846
 40
0.3846153846153846
 40
0.4615384615384616
 40
0.4615384615384616
 40
0.4615384615384616
 40
0.4615384615384616
 40
0.5384615384615384
 40
0.5384615384615384
 40
0.5384615384615384
 40
0.5384615384615384
 40
0.6153846153846154
 40
0.6153846153846154
 40
0.6153846153846154
 40
0.6153846153846154
 40
0.6923076923076923
 40
0.6923076923076923
 40
0.6923076923076923
 40
0.6923076923076923
 40
0.7692307692307693
 40
0.7692307692307693
 40
0.7692307692307693
 40
0.7692307692307693
 40
0.8461538461538461
 40
0.8461538461538461
 40
0.8461538461538461
 40
0.8461538461538461
 40
1.0
 40
1.0
 40
1.0
 40
1.0
 10
8.15202
 20
-0.95751
 30
0.0
 10
8.15202
 20
-0.99525
 30
0.0
 10
8.15202
 20
-1.03298
 30
0.0
 10
8.15202
 20
-1.07068
 30
0.0
 10
8.15202
 20
-1.07068
 30
0.0
 10
7.89548
 20
-1.32727
 30
0.0
 10
7.63893
 20
-1.58381
 30
0.0
 10
7.38239
 20
-1.84035
 30
0.0
 10
7.38239
 20
-1.84035
 30
0.0
 10
7.61774
 20
-2.07573
 30
0.0
 10
7.85318
 20
-2.3112
 30
0.0
 10
8.08858
 20
-2.54659
 30
0.0
 10
8.08858
 20
-2.54659
 30
0.0
 10
7.92848
 20
-2.70663
 30
0.0
 10
7.76843
 20
-2.86673
 30
0.0
 10
7.60836
 20
-3.02678
 30
0.0
 10
7.60836
 20
-3.02678
 30
0.0
 10
7.37293
 20
-2.79137
 30
0.0
 10
7.13754
 20
-2.55598
 30
0.0
 10
6.90217
 20
-2.32058
 30
0.0
 10
6.90217
 20
-2.32058
 30
0.0
 10
6.82681
 20
-2.3959
 30
0.0
 10
6.75151
 20
-2.47122
 30
0.0
 10
6.67616
 20
-2.54659
 30
0.0
 10
6.67616
 20
-2.54659
 30
0.0
 10
6.67616
 20
-2.54659
 30
0.0
 10
6.67616
 20
-2.54659
 30
0.0
 10
6.67616
 20
-2.54659
 30
0.0
 10
6.67616
 20
-2.54659
 30
0.0
 10
6.5208
 20
-2.7019
 30
0.0
 10
6.36546
 20
-2.85727
 30
0.0
 10
6.21008
 20
-3.01263
 30
0.0
 10
6.21008
 20
-3.01263
 30
0.0
 10
6.01236
 20
-2.81495
 30
0.0
 10
5.81463
 20
-2.61713
 30
0.0
 10
5.6169
 20
-2.4194
 30
0.0
 10
5.6169
 20
-2.4194
 30
0.0
 10
6.28306
 20
-1.75322
 30
0.0
 10
6.94921
 20
-1.08708
 30
0.0
 10
7.61547
 20
-0.42091
 30
0.0
 10
7.61547
 20
-0.42091
 30
0.0
 10
7.71544
 20
-0.52094
 30
0.0
 10
7.81549
 20
-0.62093
 30
0.0
 10
7.91554
 20
-0.72101
 30
0.0
 10
7.91554
 20
-0.72101
 30
0.0
 10
7.9944
 20
-0.79988
 30
0.0
 10
8.07322
 20
-0.87869
 30
0.0
 10
8.15202
 20
-0.95751
 30
0.0
  0
SPLINE
  5
A5
330
1F
100
AcDbEntity
  8
Layer 1
 62
   242
370
     9
100
AcDbSpline
210
0.0
220
0.0
230
1.0
 70
    11
 71
     3
 72
    16
 73
    12
 74
     0
 42
0.0000000001
 43
0.0000000001
 12
1.0
 22
0.0
 32
0.0
 13
1.0
 23
0.0
 33
0.0
 40
0.0
 40
0.0
 40
0.0
 40
0.0
 40
0.25
 40
0.25
 40
0.25
 40
0.25
 40
0.5
 40
0.5
 40
0.5
 40
0.5
 40
1.0
 40
1.0
 40
1.0
 40
1.0
 10
8.15202
 20
-1.52267
 30
0.0
 10
8.15202
 20
-1.73448
 30
0.0
 10
8.15202
 20
-1.94625
 30
0.0
 10
8.15202
 20
-2.15806
 30
0.0
 10
8.15202
 20
-2.15806
 30
0.0
 10
8.04615
 20
-2.05217
 30
0.0
 10
7.94023
 20
-1.94625
 30
0.0
 10
7.83432
 20
-1.84035
 30
0.0
 10
7.83432
 20
-1.84035
 30
0.0
 10
7.94023
 20
-1.73449
 30
0.0
 10
8.04615
 20
-1.62859
 30
0.0
 10
8.15202
 20
-1.52267
 30
0.0
  0
SPLINE
  5
A6
330
1F
100
AcDbEntity
  8
Layer 1
 62
   242
370
     9
100
AcDbSpline
210
0.0
220
0.0
230
1.0
 70
    11
 71
     3
 72
    16
 73
    12
 74
     0
 42
0.0000000001
 43
0.0000000001
 12
1.0
 22
0.0
 32
0.0
 13
1.0
 23
0.0
 33
0.0
 40
0.0
 40
0.0
 40
0.0
 40
0.0
 40
0.25
 40
0.25
 40
0.25
 40
0.25
 40
0.5
 40
0.5
 40
0.5
 40
0.5
 40
1.0
 40
1.0
 40
1.0
 40
1.0
 10
8.15202
 20
-2.93507
 30
0.0
 10
8.15202
 20
-3.14684
 30
0.0
 10
8.15202
 20
-3.35864
 30
0.0
 10
8.15202
 20
-3.57042
 30
0.0
 10
8.15202
 20
-3.57042
 30
0.0
 10
8.04615
 20
-3.46456
 30
0.0
 10
7.94023
 20
-3.35864
 30
0.0
 10
7.83432
 20
-3.25279
 30
0.0
 10
7.83432
 20
-3.25279
 30
0.0
 10
7.94023
 20
-3.14684
 30
0.0
 10
8.04615
 20
-3.04096
 30
0.0
 10
8.15202
 20
-2.93507
 30
0.0
  0
SPLINE
  5
A7
330
1F
100
AcDbEntity
  8
Layer 1
 62
   242
370
     9
100
AcDbSpline
210
0.0
220
0.0
230
1.0
 70
    11
 71
     3
 72
    36
 73
    32
 74
     0
 42
0.0000000001
 43
0.0000000001
 12
1.0
 22
0.0
 32
0.0
 13
1.0
 23
0.0
 33
0.0
 40
0.0
 40
0.0
 40
0.0
 40
0.0
 40
0.1111111111111111
 40
0.1111111111111111
 40
0.1111111111111111
 40
0.1111111111111111
 40
0.2222222222222222
 40
0.2222222222222222
 40
0.2222222222222222
 40
0.2222222222222222
 40
0.3333333333333333
 40
0.3333333333333333
 40
0.3333333333333333
 40
0.3333333333333333
 40
0.4444444444444444
 40
0.4444444444444444
 40
0.4444444444444444
 40
0.4444444444444444
 40
0.5555555555555556
 40
0.5555555555555556
 40
0.5555555555555556
 40
0.5555555555555556
 40
0.6666666666666666
 40
0.6666666666666666
 40
0.6666666666666666
 40
0.6666666666666666
 40
0.7777777777777778
 40
0.7777777777777778
 40
0.7777777777777778
 40
0.7777777777777778
 40
1.0
 40
1.0
 40
1.0
 40
1.0
 10
8.15202
 20
-4.02238
 30
0.0
 10
8.15202
 20
-4.52623
 30
0.0
 10
8.15202
 20
-5.03006
 30
0.0
 10
8.15202
 20
-5.53389
 30
0.0
 10
8.15202
 20
-5.53389
 30
0.0
 10
7.97317
 20
-5.71272
 30
0.0
 10
7.7943
 20
-5.89161
 30
0.0
 10
7.61547
 20
-6.07049
 30
0.0
 10
7.61547
 20
-6.07049
 30
0.0
 10
7.54362
 20
-5.99869
 30
0.0
 10
7.47179
 20
-5.9269
 30
0.0
 10
7.39999
 20
-5.85506
 30
0.0
 10
7.39999
 20
-5.85506
 30
0.0
 10
7.27406
 20
-5.72916
 30
0.0
 10
7.14814
 20
-5.60324
 30
0.0
 10
7.02223
 20
-5.47728
 30
0.0
 10
7.02223
 20
-5.47728
 30
0.0
 10
7.29759
 20
-5.20184
 30
0.0
 10
7.57304
 20
-4.92644
 30
0.0
 10
7.84844
 20
-4.65098
 30
0.0
 10
7.84844
 20
-4.65098
 30
0.0
 10
7.61306
 20
-4.41563
 30
0.0
 10
7.37762
 20
-4.18023
 30
0.0
 10
7.14226
 20
-3.94481
 30
0.0
 10
7.14226
 20
-3.94481
 30
0.0
 10
7.29759
 20
-3.78949
 30
0.0
 10
7.45299
 20
-3.63411
 30
0.0
 10
7.60836
 20
-3.47874
 30
0.0
 10
7.60836
 20
-3.47874
 30
0.0
 10
7.78954
 20
-3.65995
 30
0.0
 10
7.97074
 20
-3.84121
 30
0.0
 10
8.15202
 20
-4.02238
 30
0.0
  0
SPLINE
  5
A8
330
1F
100
AcDbEntity
  8
Layer 1
 62
   242
370
     9
100
AcDbSpline
210
0.0
220
0.0
230
1.0
 70
    11
 71
     3
 72
    16
 73
    12
 74
     0
 42
0.0000000001
 43
0.0000000001
 12
1.0
 22
0.0
 32
0.0
 13
1.0
 23
0.0
 33
0.0
 40
0.0
 40
0.0
 40
0.0
 40
0.0
 40
0.25
 40
0.25
 40
0.25
 40
0.25
 40
0.5
 40
0.5
 40
0.5
 40
0.5
 40
1.0
 40
1.0
 40
1.0
 40
1.0
 10
8.15202
 20
-5.98587
 30
0.0
 10
8.15202
 20
-6.1929
 30
0.0
 10
8.15202
 20
-6.40003
 30
0.0
 10
8.15202
 20
-6.60711
 30
0.0
 10
8.15202
 20
-6.60711
 30
0.0
 10
8.0485
 20
-6.50351
 30
0.0
 10
7.94497
 20
-6.40003
 30
0.0
 10
7.84135
 20
-6.29648
 30
0.0
 10
7.84135
 20
-6.29648
 30
0.0
 10
7.94497
 20
-6.1929
 30
0.0
 10
8.0485
 20
-6.0894
 30
0.0
 10
8.15202
 20
-5.98587
 30
0.0
  0
SPLINE
  5
A9
330
1F
100
AcDbEntity
  8
Layer 1
 62
   242
370
     9
100
AcDbSpline
210
0.0
220
0.0
230
1.0
 70
    11
 71
     3
 72
    52
 73
    48
 74
     0
 42
0.0000000001
 43
0.0000000001
 12
1.0
 22
0.0
 32
0.0
 13
1.0
 23
0.0
 33
0.0
 40
0.0
 40
0.0
 40
0.0
 40
0.0
 40
0.0769230769230769
 40
0.0769230769230769
 40
0.0769230769230769
 40
0.0769230769230769
 40
0.1538461538461539
 40
0.1538461538461539
 40
0.1538461538461539
 40
0.1538461538461539
 40
0.2307692307692308
 40
0.2307692307692308
 40
0.2307692307692308
 40
0.2307692307692308
 40
0.3076923076923077
 40
0.3076923076923077
 40
0.3076923076923077
 40
0.3076923076923077
 40
0.3846153846153846
 40
0.3846153846153846
 40
0.3846153846153846
 40
0.3846153846153846
 40
0.4615384615384616
 40
0.4615384615384616
 40
0.4615384615384616
 40
0.4615384615384616
 40
0.5384615384615384
 40
0.5384615384615384
 40
0.5384615384615384
 40
0.5384615384615384
 40
0.6153846153846154
 40
0.6153846153846154
 40
0.6153846153846154
 40
0.6153846153846154
 40
0.6923076923076923
 40
0.6923076923076923
 40
0.6923076923076923
 40
0.6923076923076923
 40
0.7692307692307693
 40
0.7692307692307693
 40
0.7692307692307693
 40
0.7692307692307693
 40
0.8461538461538461
 40
0.8461538461538461
 40
0.8461538461538461
 40
0.8461538461538461
 40
1.0
 40
1.0
 40
1.0
 40
1.0
 10
8.15202
 20
-7.05906
 30
0.0
 10
8.15202
 20
-7.09679
 30
0.0
 10
8.15202
 20
-7.13453
 30
0.0
 10
8.15202
 20
-7.17217
 30
0.0
 10
8.15202
 20
-7.17217
 30
0.0
 10
7.89548
 20
-7.42881
 30
0.0
 10
7.63893
 20
-7.68538
 30
0.0
 10
7.38239
 20
-7.94191
 30
0.0
 10
7.38239
 20
-7.94191
 30
0.0
 10
7.61774
 20
-8.17727
 30
0.0
 10
7.85318
 20
-8.4127
 30
0.0
 10
8.08858
 20
-8.6481
 30
0.0
 10
8.08858
 20
-8.6481
 30
0.0
 10
7.92848
 20
-8.80817
 30
0.0
 10
7.76843
 20
-8.96824
 30
0.0
 10
7.60836
 20
-9.1283
 30
0.0
 10
7.60836
 20
-9.1283
 30
0.0
 10
7.37293
 20
-8.89292
 30
0.0
 10
7.13754
 20
-8.65756
 30
0.0
 10
6.90217
 20
-8.42215
 30
0.0
 10
6.90217
 20
-8.42215
 30
0.0
 10
6.82681
 20
-8.49743
 30
0.0
 10
6.75151
 20
-8.57278
 30
0.0
 10
6.67616
 20
-8.6481
 30
0.0
 10
6.67616
 20
-8.6481
 30
0.0
 10
6.67616
 20
-8.6481
 30
0.0
 10
6.67616
 20
-8.6481
 30
0.0
 10
6.67616
 20
-8.6481
 30
0.0
 10
6.67616
 20
-8.6481
 30
0.0
 10
6.5208
 20
-8.80351
 30
0.0
 10
6.36546
 20
-8.95884
 30
0.0
 10
6.21008
 20
-9.11423
 30
0.0
 10
6.21008
 20
-9.11423
 30
0.0
 10
6.01236
 20
-8.91644
 30
0.0
 10
5.81463
 20
-8.7187
 30
0.0
 10
5.6169
 20
-8.52101
 30
0.0
 10
5.6169
 20
-8.52101
 30
0.0
 10
6.28306
 20
-7.85481
 30
0.0
 10
6.94921
 20
-7.18861
 30
0.0
 10
7.61547
 20
-6.52243
 30
0.0
 10
7.61547
 20
-6.52243
 30
0.0
 10
7.72484
 20
-6.63189
 30
0.0
 10
7.83432
 20
-6.74137
 30
0.0
 10
7.94377
 20
-6.85076
 30
0.0
 10
7.94377
 20
-6.85076
 30
0.0
 10
8.01321
 20
-6.92023
 30
0.0
 10
8.08261
 20
-6.98964
 30
0.0
 10
8.15202
 20
-7.05906
 30
0.0
  0
SPLINE
  5
AA
330
1F
100
AcDbEntity
  8
Layer 1
 62
   242
370
     9
100
AcDbSpline
210
0.0
220
0.0
230
1.0
 70
    11
 71
     3
 72
    16
 73
    12
 74
     0
 42
0.0000000001
 43
0.0000000001
 12
1.0
 22
0.0
 32
0.0
 13
1.0
 23
0.0
 33
0.0
 40
0.0
 40
0.0
 40
0.0
 40
0.0
 40
0.25
 40
0.25
 40
0.25
 40
0.25
 40
0.5
 40
0.5
 40
0.5
 40
0.5
 40
1.0
 40
1.0
 40
1.0
 40
1.0
 10
8.15202
 20
-7.62421
 30
0.0
 10
8.15202
 20
-7.83599
 30
0.0
 10
8.15202
 20
-8.04779
 30
0.0
 10
8.15202
 20
-8.25962
 30
0.0
 10
8.15202
 20
-8.25962
 30
0.0
 10
8.04615
 20
-8.15373
 30
0.0
 10
7.94023
 20
-8.04779
 30
0.0
 10
7.83432
 20
-7.94191
 30
0.0
 10
7.83432
 20
-7.94191
 30
0.0
 10
7.94023
 20
-7.83599
 30
0.0
 10
8.04615
 20
-7.7301
 30
0.0
 10
8.15202
 20
-7.62421
 30
0.0
  0
SPLINE
  5
AB
330
1F
100
AcDbEntity
  8
Layer 1
 62
   242
370
     9
100
AcDbSpline
210
0.0
220
0.0
230
1.0
 70
    11
 71
     3
 72
    16
 73
    12
 74
     0
 42
0.0000000001
 43
0.0000000001
 12
1.0
 22
0.0
 32
0.0
 13
1.0
 23
0.0
 33
0.0
 40
0.0
 40
0.0
 40
0.0
 40
0.0
 40
0.25
 40
0.25
 40
0.25
 40
0.25
 40
0.5
 40
0.5
 40
0.5
 40
0.5
 40
1.0
 40
1.0
 40
1.0
 40
1.0
 10
8.15202
 20
-9.03661
 30
0.0
 10
8.15202
 20
-9.24838
 30
0.0
 10
8.15202
 20
-9.46022
 30
0.0
 10
8.15202
 20
-9.67196
 30
0.0
 10
8.15202
 20
-9.67196
 30
0.0
 10
8.04615
 20
-9.56605
 30
0.0
 10
7.94023
 20
-9.46022
 30
0.0
 10
7.83432
 20
-9.35429
 30
0.0
 10
7.83432
 20
-9.35429
 30
0.0
 10
7.94023
 20
-9.24838
 30
0.0
 10
8.04615
 20
-9.1425
 30
0.0
 10
8.15202
 20
-9.03661
 30
0.0
  0
SPLINE
  5
AC
330
1F
100
AcDbEntity
  8
Layer 1
 62
   242
370
     9
100
AcDbSpline
210
0.0
220
0.0
230
1.0
 70
    11
 71
     3
 72
    28
 73
    24
 74
     0
 42
0.0000000001
 43
0.0000000001
 12
1.0
 22
0.0
 32
0.0
 13
1.0
 23
0.0
 33
0.0
 40
0.0
 40
0.0
 40
0.0
 40
0.0
 40
0.1428571428571428
 40
0.1428571428571428
 40
0.1428571428571428
 40
0.1428571428571428
 40
0.2857142857142857
 40
0.2857142857142857
 40
0.2857142857142857
 40
0.2857142857142857
 40
0.4285714285714285
 40
0.4285714285714285
 40
0.4285714285714285
 40
0.4285714285714285
 40
0.5714285714285714
 40
0.5714285714285714
 40
0.5714285714285714
 40
0.5714285714285714
 40
0.7142857142857143
 40
0.7142857142857143
 40
0.7142857142857143
 40
0.7142857142857143
 40
1.0
 40
1.0
 40
1.0
 40
1.0
 10
8.15202
 20
-10.12392
 30
0.0
 10
8.15202
 20
-10.33551
 30
0.0
 10
8.15202
 20
-10.54707
 30
0.0
 10
8.15202
 20
-10.75863
 30
0.0
 10
8.15202
 20
-10.75863
 30
0.0
 10
8.04883
 20
-10.75863
 30
0.0
 10
7.94561
 20
-10.75863
 30
0.0
 10
7.84243
 20
-10.75863
 30
0.0
 10
7.84243
 20
-10.75863
 30
0.0
 10
7.84443
 20
-10.75661
 30
0.0
 10
7.84643
 20
-10.75457
 30
0.0
 10
7.84844
 20
-10.7526
 30
0.0
 10
7.84844
 20
-10.7526
 30
0.0
 10
7.61306
 20
-10.51717
 30
0.0
 10
7.37762
 20
-10.28179
 30
0.0
 10
7.14226
 20
-10.0464
 30
0.0
 10
7.14226
 20
-10.0464
 30
0.0
 10
7.29759
 20
-9.891
 30
0.0
 10
7.45299
 20
-9.73564
 30
0.0
 10
7.60836
 20
-9.58028
 30
0.0
 10
7.60836
 20
-9.58028
 30
0.0
 10
7.78954
 20
-9.76151
 30
0.0
 10
7.97074
 20
-9.94275
 30
0.0
 10
8.15202
 20
-10.12392
 30
0.0
  0
SPLINE
  5
AD
330
1F
100
AcDbEntity
  8
Layer 1
 62
   242
370
     9
100
AcDbSpline
210
0.0
220
0.0
230
1.0
 70
    11
 71
     3
 72
    40
 73
    36
 74
     0
 42
0.0000000001
 43
0.0000000001
 12
1.0
 22
0.0
 32
0.0
 13
1.0
 23
0.0
 33
0.0
 40
0.0
 40
0.0
 40
0.0
 40
0.0
 40
0.1
 40
0.1
 40
0.1
 40
0.1
 40
0.2
 40
0.2
 40
0.2
 40
0.2
 40
0.3
 40
0.3
 40
0.3
 40
0.3
 40
0.4
 40
0.4
 40
0.4
 40
0.4
 40
0.5
 40
0.5
 40
0.5
 40
0.5
 40
0.6
 40
0.6
 40
0.6
 40
0.6
 40
0.7
 40
0.7
 40
0.7
 40
0.7
 40
0.8
 40
0.8
 40
0.8
 40
0.8
 40
1.0
 40
1.0
 40
1.0
 40
1.0
 10
7.39045
 20
-10.75863
 30
0.0
 10
6.99429
 20
-10.75863
 30
0.0
 10
6.59816
 20
-10.75863
 30
0.0
 10
6.20199
 20
-10.75863
 30
0.0
 10
6.20199
 20
-10.75863
 30
0.0
 10
5.73153
 20
-10.28814
 30
0.0
 10
5.26104
 20
-9.81768
 30
0.0
 10
4.79063
 20
-9.34724
 30
0.0
 10
4.79063
 20
-9.34724
 30
0.0
 10
4.99071
 20
-9.14715
 30
0.0
 10
5.19084
 20
-8.94705
 30
0.0
 10
5.39087
 20
-8.74697
 30
0.0
 10
5.39087
 20
-8.74697
 30
0.0
 10
5.66395
 20
-9.02002
 30
0.0
 10
5.93704
 20
-9.2931
 30
0.0
 10
6.21008
 20
-9.56614
 30
0.0
 10
6.21008
 20
-9.56614
 30
0.0
 10
6.44077
 20
-9.33551
 30
0.0
 10
6.67142
 20
-9.10478
 30
0.0
 10
6.90217
 20
-8.8741
 30
0.0
 10
6.90217
 20
-8.8741
 30
0.0
 10
7.0622
 20
-9.03416
 30
0.0
 10
7.22231
 20
-9.19421
 30
0.0
 10
7.38239
 20
-9.35429
 30
0.0
 10
7.38239
 20
-9.35429
 30
0.0
 10
7.15167
 20
-9.58498
 30
0.0
 10
6.92102
 20
-9.81574
 30
0.0
 10
6.6903
 20
-10.0464
 30
0.0
 10
6.6903
 20
-10.0464
 30
0.0
 10
6.92569
 20
-10.28179
 30
0.0
 10
7.16107
 20
-10.51717
 30
0.0
 10
7.39647
 20
-10.7526
 30
0.0
 10
7.39647
 20
-10.7526
 30
0.0
 10
7.39447
 20
-10.75457
 30
0.0
 10
7.39246
 20
-10.75661
 30
0.0
 10
7.39045
 20
-10.75863
 30
0.0
  0
SPLINE
  5
AE
330
1F
100
AcDbEntity
  8
Layer 1
 62
   242
370
     9
100
AcDbSpline
210
0.0
220
0.0
230
1.0
 70
    11
 71
     3
 72
    16
 73
    12
 74
     0
 42
0.0000000001
 43
0.0000000001
 12
1.0
 22
0.0
 32
0.0
 13
1.0
 23
0.0
 33
0.0
 40
0.0
 40
0.0
 40
0.0
 40
0.0
 40
0.25
 40
0.25
 40
0.25
 40
0.25
 40
0.5
 40
0.5
 40
0.5
 40
0.5
 40
1.0
 40
1.0
 40
1.0
 40
1.0
 10
5.75001
 20
-10.75863
 30
0.0
 10
5.5059
 20
-10.75863
 30
0.0
 10
5.26175
 20
-10.75863
 30
0.0
 10
5.01759
 20
-10.75863
 30
0.0
 10
5.01759
 20
-10.75863
 30
0.0
 10
5.13968
 20
-10.63652
 30
0.0
 10
5.26175
 20
-10.51445
 30
0.0
 10
5.38383
 20
-10.39244
 30
0.0
 10
5.38383
 20
-10.39244
 30
0.0
 10
5.5059
 20
-10.51445
 30
0.0
 10
5.62795
 20
-10.63652
 30
0.0
 10
5.75001
 20
-10.75863
 30
0.0
  0
SPLINE
  5
AF
330
1F
100
AcDbEntity
  8
Layer 1
 62
   242
370
     9
100
AcDbSpline
210
0.0
220
0.0
230
1.0
 70
    11
 71
     3
 72
    24
 73
    20
 74
     0
 42
0.0000000001
 43
0.0000000001
 12
1.0
 22
0.0
 32
0.0
 13
1.0
 23
0.0
 33
0.0
 40
0.0
 40
0.0
 40
0.0
 40
0.0
 40
0.1666666666666667
 40
0.1666666666666667
 40
0.1666666666666667
 40
0.1666666666666667
 40
0.3333333333333333
 40
0.3333333333333333
 40
0.3333333333333333
 40
0.3333333333333333
 40
0.5
 40
0.5
 40
0.5
 40
0.5
 40
0.6666666666666666
 40
0.6666666666666666
 40
0.6666666666666666
 40
0.6666666666666666
 40
1.0
 40
1.0
 40
1.0
 40
1.0
 10
4.56564
 20
-10.75863
 30
0.0
 10
4.17017
 20
-10.75863
 30
0.0
 10
3.77471
 20
-10.75863
 30
0.0
 10
3.37922
 20
-10.75863
 30
0.0
 10
3.37922
 20
-10.75863
 30
0.0
 10
3.77436
 20
-10.36347
 30
0.0
 10
4.16952
 20
-9.96836
 30
0.0
 10
4.56465
 20
-9.57322
 30
0.0
 10
4.56465
 20
-9.57322
 30
0.0
 10
4.67411
 20
-9.68262
 30
0.0
 10
4.78356
 20
-9.79213
 30
0.0
 10
4.89303
 20
-9.90164
 30
0.0
 10
4.89303
 20
-9.90164
 30
0.0
 10
4.98127
 20
-9.98987
 30
0.0
 10
5.06956
 20
-10.07815
 30
0.0
 10
5.15783
 20
-10.16644
 30
0.0
 10
5.15783
 20
-10.16644
 30
0.0
 10
4.96047
 20
-10.36383
 30
0.0
 10
4.76309
 20
-10.56124
 30
0.0
 10
4.56564
 20
-10.75863
 30
0.0
  0
SPLINE
  5
B0
330
1F
100
AcDbEntity
  8
Layer 1
 62
   242
370
     9
100
AcDbSpline
210
0.0
220
0.0
230
1.0
 70
    11
 71
     3
 72
    36
 73
    32
 74
     0
 42
0.0000000001
 43
0.0000000001
 12
1.0
 22
0.0
 32
0.0
 13
1.0
 23
0.0
 33
0.0
 40
0.0
 40
0.0
 40
0.0
 40
0.0
 40
0.1111111111111111
 40
0.1111111111111111
 40
0.1111111111111111
 40
0.1111111111111111
 40
0.2222222222222222
 40
0.2222222222222222
 40
0.2222222222222222
 40
0.2222222222222222
 40
0.3333333333333333
 40
0.3333333333333333
 40
0.3333333333333333
 40
0.3333333333333333
 40
0.4444444444444444
 40
0.4444444444444444
 40
0.4444444444444444
 40
0.4444444444444444
 40
0.5555555555555556
 40
0.5555555555555556
 40
0.5555555555555556
 40
0.5555555555555556
 40
0.6666666666666666
 40
0.6666666666666666
 40
0.6666666666666666
 40
0.6666666666666666
 40
0.7777777777777778
 40
0.7777777777777778
 40
0.7777777777777778
 40
0.7777777777777778
 40
1.0
 40
1.0
 40
1.0
 40
1.0
 10
2.9273
 20
-10.75863
 30
0.0
 10
2.53181
 20
-10.75863
 30
0.0
 10
2.13635
 20
-10.75863
 30
0.0
 10
1.74086
 20
-10.75863
 30
0.0
 10
1.74086
 20
-10.75863
 30
0.0
 10
1.74285
 20
-10.75661
 30
0.0
 10
1.74487
 20
-10.75457
 30
0.0
 10
1.74688
 20
-10.7526
 30
0.0
 10
1.74688
 20
-10.7526
 30
0.0
 10
1.5115
 20
-10.51717
 30
0.0
 10
1.2761
 20
-10.28179
 30
0.0
 10
1.04074
 20
-10.0464
 30
0.0
 10
1.04074
 20
-10.0464
 30
0.0
 10
1.19605
 20
-9.891
 30
0.0
 10
1.35142
 20
-9.73564
 30
0.0
 10
1.50676
 20
-9.58028
 30
0.0
 10
1.50676
 20
-9.58028
 30
0.0
 10
1.74221
 20
-9.81574
 30
0.0
 10
1.97763
 20
-10.05109
 30
0.0
 10
2.21299
 20
-10.28644
 30
0.0
 10
2.21299
 20
-10.28644
 30
0.0
 10
2.44841
 20
-10.05109
 30
0.0
 10
2.68377
 20
-9.81574
 30
0.0
 10
2.91921
 20
-9.58028
 30
0.0
 10
2.91921
 20
-9.58028
 30
0.0
 10
3.11694
 20
-9.77799
 30
0.0
 10
3.31467
 20
-9.97579
 30
0.0
 10
3.51239
 20
-10.17352
 30
0.0
 10
3.51239
 20
-10.17352
 30
0.0
 10
3.31735
 20
-10.36854
 30
0.0
 10
3.12233
 20
-10.56358
 30
0.0
 10
2.9273
 20
-10.75863
 30
0.0
  0
SPLINE
  5
B1
330
1F
100
AcDbEntity
  8
Layer 1
 62
   242
370
     9
100
AcDbSpline
210
0.0
220
0.0
230
1.0
 70
    11
 71
     3
 72
    20
 73
    16
 74
     0
 42
0.0000000001
 43
0.0000000001
 12
1.0
 22
0.0
 32
0.0
 13
1.0
 23
0.0
 33
0.0
 40
0.0
 40
0.0
 40
0.0
 40
0.0
 40
0.2
 40
0.2
 40
0.2
 40
0.2
 40
0.4
 40
0.4
 40
0.4
 40
0.4
 40
0.6
 40
0.6
 40
0.6
 40
0.6
 40
1.0
 40
1.0
 40
1.0
 40
1.0
 10
1.28892
 20
-10.75863
 30
0.0
 10
1.18503
 20
-10.75863
 30
0.0
 10
1.08115
 20
-10.75863
 30
0.0
 10
0.97723
 20
-10.75863
 30
0.0
 10
0.97723
 20
-10.75863
 30
0.0
 10
0.97723
 20
-10.65073
 30
0.0
 10
0.97723
 20
-10.5428
 30
0.0
 10
0.97723
 20
-10.43488
 30
0.0
 10
0.97723
 20
-10.43488
 30
0.0
 10
1.08316
 20
-10.54079
 30
0.0
 10
1.18904
 20
-10.64666
 30
0.0
 10
1.29492
 20
-10.7526
 30
0.0
 10
1.29492
 20
-10.7526
 30
0.0
 10
1.29289
 20
-10.75457
 30
0.0
 10
1.2909
 20
-10.75661
 30
0.0
 10
1.28892
 20
-10.75863
 30
0.0
  0
SPLINE
  5
B2
330
1F
100
AcDbEntity
  8
Layer 1
 62
   242
370
     9
100
AcDbSpline
210
0.0
220
0.0
230
1.0
 70
    11
 71
     3
 72
    16
 73
    12
 74
     0
 42
0.0000000001
 43
0.0000000001
 12
1.0
 22
0.0
 32
0.0
 13
1.0
 23
0.0
 33
0.0
 40
0.0
 40
0.0
 40
0.0
 40
0.0
 40
0.25
 40
0.25
 40
0.25
 40
0.25
 40
0.5
 40
0.5
 40
0.5
 40
0.5
 40
1.0
 40
1.0
 40
1.0
 40
1.0
 10
0.97723
 20
-9.65787
 30
0.0
 10
0.97723
 20
-9.45553
 30
0.0
 10
0.97723
 20
-9.25312
 30
0.0
 10
0.97723
 20
-9.05074
 30
0.0
 10
0.97723
 20
-9.05074
 30
0.0
 10
1.07843
 20
-9.15195
 30
0.0
 10
1.17965
 20
-9.25312
 30
0.0
 10
1.28083
 20
-9.35429
 30
0.0
 10
1.28083
 20
-9.35429
 30
0.0
 10
1.17965
 20
-9.45553
 30
0.0
 10
1.07843
 20
-9.55668
 30
0.0
 10
0.97723
 20
-9.65787
 30
0.0
  0
SPLINE
  5
B3
330
1F
100
AcDbEntity
  8
Layer 1
 62
   242
370
     9
100
AcDbSpline
210
0.0
220
0.0
230
1.0
 70
    11
 71
     3
 72
    36
 73
    32
 74
     0
 42
0.0000000001
 43
0.0000000001
 12
1.0
 22
0.0
 32
0.0
 13
1.0
 23
0.0
 33
0.0
 40
0.0
 40
0.0
 40
0.0
 40
0.0
 40
0.1111111111111111
 40
0.1111111111111111
 40
0.1111111111111111
 40
0.1111111111111111
 40
0.2222222222222222
 40
0.2222222222222222
 40
0.2222222222222222
 40
0.2222222222222222
 40
0.3333333333333333
 40
0.3333333333333333
 40
0.3333333333333333
 40
0.3333333333333333
 40
0.4444444444444444
 40
0.4444444444444444
 40
0.4444444444444444
 40
0.4444444444444444
 40
0.5555555555555556
 40
0.5555555555555556
 40
0.5555555555555556
 40
0.5555555555555556
 40
0.6666666666666666
 40
0.6666666666666666
 40
0.6666666666666666
 40
0.6666666666666666
 40
0.7777777777777778
 40
0.7777777777777778
 40
0.7777777777777778
 40
0.7777777777777778
 40
1.0
 40
1.0
 40
1.0
 40
1.0
 10
0.97723
 20
-8.5988
 30
0.0
 10
0.97723
 20
-8.08555
 30
0.0
 10
0.97723
 20
-7.57228
 30
0.0
 10
0.97723
 20
-7.05906
 30
0.0
 10
0.97723
 20
-7.05906
 30
0.0
 10
1.15614
 20
-6.8802
 30
0.0
 10
1.33506
 20
-6.70135
 30
0.0
 10
1.51383
 20
-6.52243
 30
0.0
 10
1.51383
 20
-6.52243
 30
0.0
 10
1.61392
 20
-6.62248
 30
0.0
 10
1.71395
 20
-6.72253
 30
0.0
 10
1.81397
 20
-6.82258
 30
0.0
 10
1.81397
 20
-6.82258
 30
0.0
 10
1.91165
 20
-6.92027
 30
0.0
 10
2.00937
 20
-7.01793
 30
0.0
 10
2.10707
 20
-7.11564
 30
0.0
 10
2.10707
 20
-7.11564
 30
0.0
 10
1.83165
 20
-7.39106
 30
0.0
 10
1.55623
 20
-7.66652
 30
0.0
 10
1.28082
 20
-7.94191
 30
0.0
 10
1.28082
 20
-7.94191
 30
0.0
 10
1.5162
 20
-8.17727
 30
0.0
 10
1.7516
 20
-8.4127
 30
0.0
 10
1.98702
 20
-8.6481
 30
0.0
 10
1.98702
 20
-8.6481
 30
0.0
 10
1.82691
 20
-8.80817
 30
0.0
 10
1.66688
 20
-8.96824
 30
0.0
 10
1.50676
 20
-9.1283
 30
0.0
 10
1.50676
 20
-9.1283
 30
0.0
 10
1.3303
 20
-8.95178
 30
0.0
 10
1.15377
 20
-8.77527
 30
0.0
 10
0.97723
 20
-8.5988
 30
0.0
  0
SPLINE
  5
B4
330
1F
100
AcDbEntity
  8
Layer 1
 62
   242
370
     9
100
AcDbSpline
210
0.0
220
0.0
230
1.0
 70
    11
 71
     3
 72
    16
 73
    12
 74
     0
 42
0.0000000001
 43
0.0000000001
 12
1.0
 22
0.0
 32
0.0
 13
1.0
 23
0.0
 33
0.0
 40
0.0
 40
0.0
 40
0.0
 40
0.0
 40
0.25
 40
0.25
 40
0.25
 40
0.25
 40
0.5
 40
0.5
 40
0.5
 40
0.5
 40
1.0
 40
1.0
 40
1.0
 40
1.0
 10
0.97723
 20
-6.60711
 30
0.0
 10
0.97723
 20
-6.40003
 30
0.0
 10
0.97723
 20
-6.1929
 30
0.0
 10
0.97723
 20
-5.98587
 30
0.0
 10
0.97723
 20
-5.98587
 30
0.0
 10
1.08079
 20
-6.0894
 30
0.0
 10
1.18433
 20
-6.1929
 30
0.0
 10
1.28786
 20
-6.29648
 30
0.0
 10
1.28786
 20
-6.29648
 30
0.0
 10
1.18433
 20
-6.40003
 30
0.0
 10
1.08079
 20
-6.50351
 30
0.0
 10
0.97723
 20
-6.60711
 30
0.0
  0
SPLINE
  5
B5
330
1F
100
AcDbEntity
  8
Layer 1
 62
   242
370
     9
100
AcDbSpline
210
0.0
220
0.0
230
1.0
 70
    11
 71
     3
 72
    44
 73
    40
 74
     0
 42
0.0000000001
 43
0.0000000001
 12
1.0
 22
0.0
 32
0.0
 13
1.0
 23
0.0
 33
0.0
 40
0.0
 40
0.0
 40
0.0
 40
0.0
 40
0.0909090909090909
 40
0.0909090909090909
 40
0.0909090909090909
 40
0.0909090909090909
 40
0.1818181818181818
 40
0.1818181818181818
 40
0.1818181818181818
 40
0.1818181818181818
 40
0.2727272727272727
 40
0.2727272727272727
 40
0.2727272727272727
 40
0.2727272727272727
 40
0.3636363636363636
 40
0.3636363636363636
 40
0.3636363636363636
 40
0.3636363636363636
 40
0.4545454545454545
 40
0.4545454545454545
 40
0.4545454545454545
 40
0.4545454545454545
 40
0.5454545454545454
 40
0.5454545454545454
 40
0.5454545454545454
 40
0.5454545454545454
 40
0.6363636363636364
 40
0.6363636363636364
 40
0.6363636363636364
 40
0.6363636363636364
 40
0.7272727272727273
 40
0.7272727272727273
 40
0.7272727272727273
 40
0.7272727272727273
 40
0.8181818181818182
 40
0.8181818181818182
 40
0.8181818181818182
 40
0.8181818181818182
 40
1.0
 40
1.0
 40
1.0
 40
1.0
 10
0.97723
 20
-5.53389
 30
0.0
 10
0.97723
 20
-5.49616
 30
0.0
 10
0.97723
 20
-5.45843
 30
0.0
 10
0.97723
 20
-5.4207
 30
0.0
 10
0.97723
 20
-5.4207
 30
0.0
 10
1.23379
 20
-5.16415
 30
0.0
 10
1.49039
 20
-4.90756
 30
0.0
 10
1.74688
 20
-4.65098
 30
0.0
 10
1.74688
 20
-4.65098
 30
0.0
 10
1.5115
 20
-4.41563
 30
0.0
 10
1.2761
 20
-4.18023
 30
0.0
 10
1.04074
 20
-3.94481
 30
0.0
 10
1.04074
 20
-3.94481
 30
0.0
 10
1.19605
 20
-3.78949
 30
0.0
 10
1.35142
 20
-3.63411
 30
0.0
 10
1.50676
 20
-3.47874
 30
0.0
 10
1.50676
 20
-3.47874
 30
0.0
 10
1.74221
 20
-3.71415
 30
0.0
 10
1.97763
 20
-3.94953
 30
0.0
 10
2.21299
 20
-4.18495
 30
0.0
 10
2.21299
 20
-4.18495
 30
0.0
 10
2.44841
 20
-3.94953
 30
0.0
 10
2.68377
 20
-3.71415
 30
0.0
 10
2.91921
 20
-3.47874
 30
0.0
 10
2.91921
 20
-3.47874
 30
0.0
 10
3.11694
 20
-3.67644
 30
0.0
 10
3.31467
 20
-3.87421
 30
0.0
 10
3.51239
 20
-4.07196
 30
0.0
 10
3.51239
 20
-4.07196
 30
0.0
 10
2.84622
 20
-4.73814
 30
0.0
 10
2.18004
 20
-5.40425
 30
0.0
 10
1.51383
 20
-6.07049
 30
0.0
 10
1.51383
 20
-6.07049
 30
0.0
 10
1.43264
 20
-5.98927
 30
0.0
 10
1.35142
 20
-5.90807
 30
0.0
 10
1.27025
 20
-5.82684
 30
0.0
 10
1.27025
 20
-5.82684
 30
0.0
 10
1.17257
 20
-5.7292
 30
0.0
 10
1.07492
 20
-5.63156
 30
0.0
 10
0.97723
 20
-5.53389
 30
0.0
  0
SPLINE
  5
B6
330
1F
100
AcDbEntity
  8
Layer 1
 62
   242
370
     9
100
AcDbSpline
210
0.0
220
0.0
230
1.0
 70
    11
 71
     3
 72
    16
 73
    12
 74
     0
 42
0.0000000001
 43
0.0000000001
 12
1.0
 22
0.0
 32
0.0
 13
1.0
 23
0.0
 33
0.0
 40
0.0
 40
0.0
 40
0.0
 40
0.0
 40
0.25
 40
0.25
 40
0.25
 40
0.25
 40
0.5
 40
0.5
 40
0.5
 40
0.5
 40
1.0
 40
1.0
 40
1.0
 40
1.0
 10
0.97723
 20
-4.96871
 30
0.0
 10
0.97723
 20
-4.75691
 30
0.0
 10
0.97723
 20
-4.54514
 30
0.0
 10
0.97723
 20
-4.33335
 30
0.0
 10
0.97723
 20
-4.33335
 30
0.0
 10
1.08316
 20
-4.43923
 30
0.0
 10
1.18904
 20
-4.54514
 30
0.0
 10
1.29492
 20
-4.65098
 30
0.0
 10
1.29492
 20
-4.65098
 30
0.0
 10
1.18904
 20
-4.75691
 30
0.0
 10
1.08316
 20
-4.86279
 30
0.0
 10
0.97723
 20
-4.96871
 30
0.0
  0
SPLINE
  5
B7
330
1F
100
AcDbEntity
  8
Layer 1
 62
   242
370
     9
100
AcDbSpline
210
0.0
220
0.0
230
1.0
 70
    11
 71
     3
 72
    16
 73
    12
 74
     0
 42
0.0000000001
 43
0.0000000001
 12
1.0
 22
0.0
 32
0.0
 13
1.0
 23
0.0
 33
0.0
 40
0.0
 40
0.0
 40
0.0
 40
0.0
 40
0.25
 40
0.25
 40
0.25
 40
0.25
 40
0.5
 40
0.5
 40
0.5
 40
0.5
 40
1.0
 40
1.0
 40
1.0
 40
1.0
 10
0.97723
 20
-3.55637
 30
0.0
 10
0.97723
 20
-3.35394
 30
0.0
 10
0.97723
 20
-3.15154
 30
0.0
 10
0.97723
 20
-2.94922
 30
0.0
 10
0.97723
 20
-2.94922
 30
0.0
 10
1.07843
 20
-3.05038
 30
0.0
 10
1.17965
 20
-3.15154
 30
0.0
 10
1.28083
 20
-3.25279
 30
0.0
 10
1.28083
 20
-3.25279
 30
0.0
 10
1.17965
 20
-3.35394
 30
0.0
 10
1.07843
 20
-3.45514
 30
0.0
 10
0.97723
 20
-3.55637
 30
0.0
  0
SPLINE
  5
B8
330
1F
100
AcDbEntity
  8
Layer 1
 62
   242
370
     9
100
AcDbSpline
210
0.0
220
0.0
230
1.0
 70
    11
 71
     3
 72
    36
 73
    32
 74
     0
 42
0.0000000001
 43
0.0000000001
 12
1.0
 22
0.0
 32
0.0
 13
1.0
 23
0.0
 33
0.0
 40
0.0
 40
0.0
 40
0.0
 40
0.0
 40
0.1111111111111111
 40
0.1111111111111111
 40
0.1111111111111111
 40
0.1111111111111111
 40
0.2222222222222222
 40
0.2222222222222222
 40
0.2222222222222222
 40
0.2222222222222222
 40
0.3333333333333333
 40
0.3333333333333333
 40
0.3333333333333333
 40
0.3333333333333333
 40
0.4444444444444444
 40
0.4444444444444444
 40
0.4444444444444444
 40
0.4444444444444444
 40
0.5555555555555556
 40
0.5555555555555556
 40
0.5555555555555556
 40
0.5555555555555556
 40
0.6666666666666666
 40
0.6666666666666666
 40
0.6666666666666666
 40
0.6666666666666666
 40
0.7777777777777778
 40
0.7777777777777778
 40
0.7777777777777778
 40
0.7777777777777778
 40
1.0
 40
1.0
 40
1.0
 40
1.0
 10
0.97723
 20
-2.49724
 30
0.0
 10
0.97723
 20
-1.98397
 30
0.0
 10
0.97723
 20
-1.47075
 30
0.0
 10
0.97723
 20
-0.95751
 30
0.0
 10
0.97723
 20
-0.95751
 30
0.0
 10
1.15614
 20
-0.77864
 30
0.0
 10
1.33506
 20
-0.59979
 30
0.0
 10
1.51383
 20
-0.42091
 30
0.0
 10
1.51383
 20
-0.42091
 30
0.0
 10
1.60453
 20
-0.51157
 30
0.0
 10
1.69511
 20
-0.60217
 30
0.0
 10
1.78574
 20
-0.6928
 30
0.0
 10
1.78574
 20
-0.6928
 30
0.0
 10
1.89283
 20
-0.79991
 30
0.0
 10
1.99994
 20
-0.90702
 30
0.0
 10
2.10707
 20
-1.01416
 30
0.0
 10
2.10707
 20
-1.01416
 30
0.0
 10
1.83165
 20
-1.28951
 30
0.0
 10
1.55623
 20
-1.56495
 30
0.0
 10
1.28082
 20
-1.84035
 30
0.0
 10
1.28082
 20
-1.84035
 30
0.0
 10
1.5162
 20
-2.07573
 30
0.0
 10
1.7516
 20
-2.3112
 30
0.0
 10
1.98702
 20
-2.54659
 30
0.0
 10
1.98702
 20
-2.54659
 30
0.0
 10
1.82691
 20
-2.70663
 30
0.0
 10
1.66688
 20
-2.86673
 30
0.0
 10
1.50676
 20
-3.02678
 30
0.0
 10
1.50676
 20
-3.02678
 30
0.0
 10
1.3303
 20
-2.85024
 30
0.0
 10
1.15377
 20
-2.67371
 30
0.0
 10
0.97723
 20
-2.49724
 30
0.0
  0
SPLINE
  5
B9
330
1F
100
AcDbEntity
  8
Layer 1
 62
   242
370
     9
100
AcDbSpline
210
0.0
220
0.0
230
1.0
 70
    11
 71
     3
 72
    16
 73
    12
 74
     0
 42
0.0000000001
 43
0.0000000001
 12
1.0
 22
0.0
 32
0.0
 13
1.0
 23
0.0
 33
0.0
 40
0.0
 40
0.0
 40
0.0
 40
0.0
 40
0.25
 40
0.25
 40
0.25
 40
0.25
 40
0.5
 40
0.5
 40
0.5
 40
0.5
 40
1.0
 40
1.0
 40
1.0
 40
1.0
 10
0.97723
 20
-0.50555
 30
0.0
 10
0.97723
 20
-0.29847
 30
0.0
 10
0.97723
 20
-0.09139
 30
0.0
 10
0.97723
 20
0.1157
 30
0.0
 10
0.97723
 20
0.1157
 30
0.0
 10
1.08079
 20
0.01217
 30
0.0
 10
1.18433
 20
-0.09139
 30
0.0
 10
1.28786
 20
-0.19493
 30
0.0
 10
1.28786
 20
-0.19493
 30
0.0
 10
1.18433
 20
-0.29847
 30
0.0
 10
1.08079
 20
-0.40201
 30
0.0
 10
0.97723
 20
-0.50555
 30
0.0
  0
SPLINE
  5
BA
330
1F
100
AcDbEntity
  8
Layer 1
 62
   242
370
     9
100
AcDbSpline
210
0.0
220
0.0
230
1.0
 70
    11
 71
     3
 72
    44
 73
    40
 74
     0
 42
0.0000000001
 43
0.0000000001
 12
1.0
 22
0.0
 32
0.0
 13
1.0
 23
0.0
 33
0.0
 40
0.0
 40
0.0
 40
0.0
 40
0.0
 40
0.0909090909090909
 40
0.0909090909090909
 40
0.0909090909090909
 40
0.0909090909090909
 40
0.1818181818181818
 40
0.1818181818181818
 40
0.1818181818181818
 40
0.1818181818181818
 40
0.2727272727272727
 40
0.2727272727272727
 40
0.2727272727272727
 40
0.2727272727272727
 40
0.3636363636363636
 40
0.3636363636363636
 40
0.3636363636363636
 40
0.3636363636363636
 40
0.4545454545454545
 40
0.4545454545454545
 40
0.4545454545454545
 40
0.4545454545454545
 40
0.5454545454545454
 40
0.5454545454545454
 40
0.5454545454545454
 40
0.5454545454545454
 40
0.6363636363636364
 40
0.6363636363636364
 40
0.6363636363636364
 40
0.6363636363636364
 40
0.7272727272727273
 40
0.7272727272727273
 40
0.7272727272727273
 40
0.7272727272727273
 40
0.8181818181818182
 40
0.8181818181818182
 40
0.8181818181818182
 40
0.8181818181818182
 40
1.0
 40
1.0
 40
1.0
 40
1.0
 10
0.97723
 20
0.56768
 30
0.0
 10
0.97723
 20
0.60543
 30
0.0
 10
0.97723
 20
0.64316
 30
0.0
 10
0.97723
 20
0.68088
 30
0.0
 10
0.97723
 20
0.68088
 30
0.0
 10
1.23379
 20
0.93741
 30
0.0
 10
1.49039
 20
1.19397
 30
0.0
 10
1.74688
 20
1.45053
 30
0.0
 10
1.74688
 20
1.45053
 30
0.0
 10
1.5115
 20
1.68594
 30
0.0
 10
1.2761
 20
1.92131
 30
0.0
 10
1.04074
 20
2.15671
 30
0.0
 10
1.04074
 20
2.15671
 30
0.0
 10
1.19605
 20
2.3121
 30
0.0
 10
1.35142
 20
2.46749
 30
0.0
 10
1.50676
 20
2.62279
 30
0.0
 10
1.50676
 20
2.62279
 30
0.0
 10
1.74221
 20
2.3874
 30
0.0
 10
1.97763
 20
2.15201
 30
0.0
 10
2.21299
 20
1.91661
 30
0.0
 10
2.21299
 20
1.91661
 30
0.0
 10
2.44841
 20
2.15201
 30
0.0
 10
2.68377
 20
2.3874
 30
0.0
 10
2.91921
 20
2.62279
 30
0.0
 10
2.91921
 20
2.62279
 30
0.0
 10
3.11694
 20
2.42512
 30
0.0
 10
3.31467
 20
2.22734
 30
0.0
 10
3.51239
 20
2.02959
 30
0.0
 10
3.51239
 20
2.02959
 30
0.0
 10
2.84622
 20
1.36343
 30
0.0
 10
2.18004
 20
0.69721
 30
0.0
 10
1.51383
 20
0.03106
 30
0.0
 10
1.51383
 20
0.03106
 30
0.0
 10
1.42323
 20
0.1217
 30
0.0
 10
1.33264
 20
0.21231
 30
0.0
 10
1.24198
 20
0.30301
 30
0.0
 10
1.24198
 20
0.30301
 30
0.0
 10
1.15375
 20
0.39121
 30
0.0
 10
1.06552
 20
0.47941
 30
0.0
 10
0.97723
 20
0.56768
 30
0.0
  0
SPLINE
  5
BB
330
1F
100
AcDbEntity
  8
Layer 1
 62
   242
370
     9
100
AcDbSpline
210
0.0
220
0.0
230
1.0
 70
    11
 71
     3
 72
    16
 73
    12
 74
     0
 42
0.0000000001
 43
0.0000000001
 12
1.0
 22
0.0
 32
0.0
 13
1.0
 23
0.0
 33
0.0
 40
0.0
 40
0.0
 40
0.0
 40
0.0
 40
0.25
 40
0.25
 40
0.25
 40
0.25
 40
0.5
 40
0.5
 40
0.5
 40
0.5
 40
1.0
 40
1.0
 40
1.0
 40
1.0
 10
0.97723
 20
1.13282
 30
0.0
 10
0.97723
 20
1.34464
 30
0.0
 10
0.97723
 20
1.55642
 30
0.0
 10
0.97723
 20
1.76818
 30
0.0
 10
0.97723
 20
1.76818
 30
0.0
 10
1.08316
 20
1.66233
 30
0.0
 10
1.18904
 20
1.55642
 30
0.0
 10
1.29492
 20
1.45053
 30
0.0
 10
1.29492
 20
1.45053
 30
0.0
 10
1.18904
 20
1.34464
 30
0.0
 10
1.08316
 20
1.23875
 30
0.0
 10
0.97723
 20
1.13282
 30
0.0
  0
SPLINE
  5
BC
330
1F
100
AcDbEntity
  8
Layer 1
 62
   242
370
     9
100
AcDbSpline
210
0.0
220
0.0
230
1.0
 70
    11
 71
     3
 72
    16
 73
    12
 74
     0
 42
0.0000000001
 43
0.0000000001
 12
1.0
 22
0.0
 32
0.0
 13
1.0
 23
0.0
 33
0.0
 40
0.0
 40
0.0
 40
0.0
 40
0.0
 40
0.25
 40
0.25
 40
0.25
 40
0.25
 40
0.5
 40
0.5
 40
0.5
 40
0.5
 40
1.0
 40
1.0
 40
1.0
 40
1.0
 10
0.97723
 20
2.5452
 30
0.0
 10
0.97723
 20
2.74758
 30
0.0
 10
0.97723
 20
2.94999
 30
0.0
 10
0.97723
 20
3.15236
 30
0.0
 10
0.97723
 20
3.15236
 30
0.0
 10
1.07843
 20
3.05119
 30
0.0
 10
1.17965
 20
2.94999
 30
0.0
 10
1.28083
 20
2.84878
 30
0.0
 10
1.28083
 20
2.84878
 30
0.0
 10
1.17965
 20
2.74758
 30
0.0
 10
1.07843
 20
2.6464
 30
0.0
 10
0.97723
 20
2.5452
 30
0.0
  0
SPLINE
  5
BD
330
1F
100
AcDbEntity
  8
Layer 1
 62
   242
370
     9
100
AcDbSpline
210
0.0
220
0.0
230
1.0
 70
    11
 71
     3
 72
    36
 73
    32
 74
     0
 42
0.0000000001
 43
0.0000000001
 12
1.0
 22
0.0
 32
0.0
 13
1.0
 23
0.0
 33
0.0
 40
0.0
 40
0.0
 40
0.0
 40
0.0
 40
0.1111111111111111
 40
0.1111111111111111
 40
0.1111111111111111
 40
0.1111111111111111
 40
0.2222222222222222
 40
0.2222222222222222
 40
0.2222222222222222
 40
0.2222222222222222
 40
0.3333333333333333
 40
0.3333333333333333
 40
0.3333333333333333
 40
0.3333333333333333
 40
0.4444444444444444
 40
0.4444444444444444
 40
0.4444444444444444
 40
0.4444444444444444
 40
0.5555555555555556
 40
0.5555555555555556
 40
0.5555555555555556
 40
0.5555555555555556
 40
0.6666666666666666
 40
0.6666666666666666
 40
0.6666666666666666
 40
0.6666666666666666
 40
0.7777777777777778
 40
0.7777777777777778
 40
0.7777777777777778
 40
0.7777777777777778
 40
1.0
 40
1.0
 40
1.0
 40
1.0
 10
0.97723
 20
3.60436
 30
0.0
 10
0.97723
 20
4.11757
 30
0.0
 10
0.97723
 20
4.6308
 30
0.0
 10
0.97723
 20
5.14403
 30
0.0
 10
0.97723
 20
5.14403
 30
0.0
 10
1.15614
 20
5.3229
 30
0.0
 10
1.33506
 20
5.50179
 30
0.0
 10
1.51383
 20
5.68065
 30
0.0
 10
1.51383
 20
5.68065
 30
0.0
 10
1.59505
 20
5.59946
 30
0.0
 10
1.67628
 20
5.51823
 30
0.0
 10
1.75752
 20
5.43701
 30
0.0
 10
1.75752
 20
5.43701
 30
0.0
 10
1.87401
 20
5.3205
 30
0.0
 10
1.99057
 20
5.20396
 30
0.0
 10
2.10707
 20
5.08745
 30
0.0
 10
2.10707
 20
5.08745
 30
0.0
 10
1.83165
 20
4.81203
 30
0.0
 10
1.55623
 20
4.53658
 30
0.0
 10
1.28082
 20
4.26118
 30
0.0
 10
1.28082
 20
4.26118
 30
0.0
 10
1.5162
 20
4.02579
 30
0.0
 10
1.7516
 20
3.7904
 30
0.0
 10
1.98702
 20
3.555
 30
0.0
 10
1.98702
 20
3.555
 30
0.0
 10
1.82691
 20
3.39491
 30
0.0
 10
1.66688
 20
3.23484
 30
0.0
 10
1.50676
 20
3.07478
 30
0.0
 10
1.50676
 20
3.07478
 30
0.0
 10
1.3303
 20
3.2513
 30
0.0
 10
1.15377
 20
3.42784
 30
0.0
 10
0.97723
 20
3.60436
 30
0.0
  0
SPLINE
  5
BE
330
1F
100
AcDbEntity
  8
Layer 1
 62
   242
370
     9
100
AcDbSpline
210
0.0
220
0.0
230
1.0
 70
    11
 71
     3
 72
    16
 73
    12
 74
     0
 42
0.0000000001
 43
0.0000000001
 12
1.0
 22
0.0
 32
0.0
 13
1.0
 23
0.0
 33
0.0
 40
0.0
 40
0.0
 40
0.0
 40
0.0
 40
0.25
 40
0.25
 40
0.25
 40
0.25
 40
0.5
 40
0.5
 40
0.5
 40
0.5
 40
1.0
 40
1.0
 40
1.0
 40
1.0
 10
0.97723
 20
5.59602
 30
0.0
 10
0.97723
 20
5.80312
 30
0.0
 10
0.97723
 20
6.01018
 30
0.0
 10
0.97723
 20
6.21726
 30
0.0
 10
0.97723
 20
6.21726
 30
0.0
 10
1.08079
 20
6.11374
 30
0.0
 10
1.18433
 20
6.01018
 30
0.0
 10
1.28786
 20
5.90664
 30
0.0
 10
1.28786
 20
5.90664
 30
0.0
 10
1.18433
 20
5.80312
 30
0.0
 10
1.08079
 20
5.69957
 30
0.0
 10
0.97723
 20
5.59602
 30
0.0
  0
SPLINE
  5
BF
330
1F
100
AcDbEntity
  8
Layer 1
 62
   242
370
     9
100
AcDbSpline
210
0.0
220
0.0
230
1.0
 70
    11
 71
     3
 72
    44
 73
    40
 74
     0
 42
0.0000000001
 43
0.0000000001
 12
1.0
 22
0.0
 32
0.0
 13
1.0
 23
0.0
 33
0.0
 40
0.0
 40
0.0
 40
0.0
 40
0.0
 40
0.0909090909090909
 40
0.0909090909090909
 40
0.0909090909090909
 40
0.0909090909090909
 40
0.1818181818181818
 40
0.1818181818181818
 40
0.1818181818181818
 40
0.1818181818181818
 40
0.2727272727272727
 40
0.2727272727272727
 40
0.2727272727272727
 40
0.2727272727272727
 40
0.3636363636363636
 40
0.3636363636363636
 40
0.3636363636363636
 40
0.3636363636363636
 40
0.4545454545454545
 40
0.4545454545454545
 40
0.4545454545454545
 40
0.4545454545454545
 40
0.5454545454545454
 40
0.5454545454545454
 40
0.5454545454545454
 40
0.5454545454545454
 40
0.6363636363636364
 40
0.6363636363636364
 40
0.6363636363636364
 40
0.6363636363636364
 40
0.7272727272727273
 40
0.7272727272727273
 40
0.7272727272727273
 40
0.7272727272727273
 40
0.8181818181818182
 40
0.8181818181818182
 40
0.8181818181818182
 40
0.8181818181818182
 40
1.0
 40
1.0
 40
1.0
 40
1.0
 10
0.97723
 20
6.66922
 30
0.0
 10
0.97723
 20
6.70696
 30
0.0
 10
0.97723
 20
6.74469
 30
0.0
 10
0.97723
 20
6.78244
 30
0.0
 10
0.97723
 20
6.78244
 30
0.0
 10
1.23379
 20
7.03898
 30
0.0
 10
1.49039
 20
7.29554
 30
0.0
 10
1.74688
 20
7.55207
 30
0.0
 10
1.74688
 20
7.55207
 30
0.0
 10
1.5115
 20
7.78743
 30
0.0
 10
1.2761
 20
8.0229
 30
0.0
 10
1.04074
 20
8.25829
 30
0.0
 10
1.04074
 20
8.25829
 30
0.0
 10
1.19605
 20
8.4136
 30
0.0
 10
1.35142
 20
8.56898
 30
0.0
 10
1.50676
 20
8.72436
 30
0.0
 10
1.50676
 20
8.72436
 30
0.0
 10
1.74221
 20
8.48895
 30
0.0
 10
1.97763
 20
8.25354
 30
0.0
 10
2.21299
 20
8.01817
 30
0.0
 10
2.21299
 20
8.01817
 30
0.0
 10
2.44841
 20
8.25354
 30
0.0
 10
2.68377
 20
8.48895
 30
0.0
 10
2.91921
 20
8.72436
 30
0.0
 10
2.91921
 20
8.72436
 30
0.0
 10
3.11694
 20
8.52666
 30
0.0
 10
3.31467
 20
8.32884
 30
0.0
 10
3.51239
 20
8.13117
 30
0.0
 10
3.51239
 20
8.13117
 30
0.0
 10
2.84622
 20
7.46493
 30
0.0
 10
2.18004
 20
6.79879
 30
0.0
 10
1.51383
 20
6.13262
 30
0.0
 10
1.51383
 20
6.13262
 30
0.0
 10
1.41383
 20
6.23265
 30
0.0
 10
1.31375
 20
6.33269
 30
0.0
 10
1.21369
 20
6.43276
 30
0.0
 10
1.21369
 20
6.43276
 30
0.0
 10
1.13489
 20
6.51159
 30
0.0
 10
1.05607
 20
6.59041
 30
0.0
 10
0.97723
 20
6.66922
 30
0.0
  0
SPLINE
  5
C0
330
1F
100
AcDbEntity
  8
Layer 1
 62
   242
370
     9
100
AcDbSpline
210
0.0
220
0.0
230
1.0
 70
    11
 71
     3
 72
    16
 73
    12
 74
     0
 42
0.0000000001
 43
0.0000000001
 12
1.0
 22
0.0
 32
0.0
 13
1.0
 23
0.0
 33
0.0
 40
0.0
 40
0.0
 40
0.0
 40
0.0
 40
0.25
 40
0.25
 40
0.25
 40
0.25
 40
0.5
 40
0.5
 40
0.5
 40
0.5
 40
1.0
 40
1.0
 40
1.0
 40
1.0
 10
0.97723
 20
7.2344
 30
0.0
 10
0.97723
 20
7.4462
 30
0.0
 10
0.97723
 20
7.658
 30
0.0
 10
0.97723
 20
7.86976
 30
0.0
 10
0.97723
 20
7.86976
 30
0.0
 10
1.08316
 20
7.76387
 30
0.0
 10
1.18904
 20
7.658
 30
0.0
 10
1.29492
 20
7.55207
 30
0.0
 10
1.29492
 20
7.55207
 30
0.0
 10
1.18904
 20
7.4462
 30
0.0
 10
1.08316
 20
7.3403
 30
0.0
 10
0.97723
 20
7.2344
 30
0.0
  0
SPLINE
  5
C1
330
1F
100
AcDbEntity
  8
Layer 1
 62
   242
370
     9
100
AcDbSpline
210
0.0
220
0.0
230
1.0
 70
    11
 71
     3
 72
    16
 73
    12
 74
     0
 42
0.0000000001
 43
0.0000000001
 12
1.0
 22
0.0
 32
0.0
 13
1.0
 23
0.0
 33
0.0
 40
0.0
 40
0.0
 40
0.0
 40
0.0
 40
0.25
 40
0.25
 40
0.25
 40
0.25
 40
0.5
 40
0.5
 40
0.5
 40
0.5
 40
1.0
 40
1.0
 40
1.0
 40
1.0
 10
0.97723
 20
8.64679
 30
0.0
 10
0.97723
 20
8.84917
 30
0.0
 10
0.97723
 20
9.05153
 30
0.0
 10
0.97723
 20
9.25391
 30
0.0
 10
0.97723
 20
9.25391
 30
0.0
 10
1.07843
 20
9.15275
 30
0.0
 10
1.17965
 20
9.05153
 30
0.0
 10
1.28083
 20
8.95035
 30
0.0
 10
1.28083
 20
8.95035
 30
0.0
 10
1.17965
 20
8.84917
 30
0.0
 10
1.07843
 20
8.74797
 30
0.0
 10
0.97723
 20
8.64679
 30
0.0
  0
SPLINE
  5
C2
330
1F
100
AcDbEntity
  8
Layer 1
 62
   242
370
     9
100
AcDbSpline
210
0.0
220
0.0
230
1.0
 70
    11
 71
     3
 72
    32
 73
    28
 74
     0
 42
0.0000000001
 43
0.0000000001
 12
1.0
 22
0.0
 32
0.0
 13
1.0
 23
0.0
 33
0.0
 40
0.0
 40
0.0
 40
0.0
 40
0.0
 40
0.125
 40
0.125
 40
0.125
 40
0.125
 40
0.25
 40
0.25
 40
0.25
 40
0.25
 40
0.375
 40
0.375
 40
0.375
 40
0.375
 40
0.5
 40
0.5
 40
0.5
 40
0.5
 40
0.625
 40
0.625
 40
0.625
 40
0.625
 40
0.75
 40
0.75
 40
0.75
 40
0.75
 40
1.0
 40
1.0
 40
1.0
 40
1.0
 10
0.97723
 20
9.70586
 30
0.0
 10
0.97723
 20
10.21909
 30
0.0
 10
0.97723
 20
10.73237
 30
0.0
 10
0.97723
 20
11.24559
 30
0.0
 10
0.97723
 20
11.24559
 30
0.0
 10
1.15614
 20
11.42443
 30
0.0
 10
1.33506
 20
11.60337
 30
0.0
 10
1.51383
 20
11.78221
 30
0.0
 10
1.51383
 20
11.78221
 30
0.0
 10
1.71163
 20
11.58446
 30
0.0
 10
1.90936
 20
11.38672
 30
0.0
 10
2.10707
 20
11.18898
 30
0.0
 10
2.10707
 20
11.18898
 30
0.0
 10
1.83165
 20
10.91354
 30
0.0
 10
1.55623
 20
10.63814
 30
0.0
 10
1.28082
 20
10.36268
 30
0.0
 10
1.28082
 20
10.36268
 30
0.0
 10
1.5162
 20
10.12735
 30
0.0
 10
1.7516
 20
9.89193
 30
0.0
 10
1.98702
 20
9.65651
 30
0.0
 10
1.98702
 20
9.65651
 30
0.0
 10
1.82691
 20
9.49649
 30
0.0
 10
1.66688
 20
9.33637
 30
0.0
 10
1.50676
 20
9.17634
 30
0.0
 10
1.50676
 20
9.17634
 30
0.0
 10
1.3303
 20
9.35282
 30
0.0
 10
1.15377
 20
9.52936
 30
0.0
 10
0.97723
 20
9.70586
 30
0.0
  0
SPLINE
  5
C3
330
1F
100
AcDbEntity
  8
Layer 1
 62
   242
370
     9
100
AcDbSpline
210
0.0
220
0.0
230
1.0
 70
    11
 71
     3
 72
    16
 73
    12
 74
     0
 42
0.0000000001
 43
0.0000000001
 12
1.0
 22
0.0
 32
0.0
 13
1.0
 23
0.0
 33
0.0
 40
0.0
 40
0.0
 40
0.0
 40
0.0
 40
0.25
 40
0.25
 40
0.25
 40
0.25
 40
0.5
 40
0.5
 40
0.5
 40
0.5
 40
1.0
 40
1.0
 40
1.0
 40
1.0
 10
0.97723
 20
11.69757
 30
0.0
 10
0.97723
 20
11.90464
 30
0.0
 10
0.97723
 20
12.11174
 30
0.0
 10
0.97723
 20
12.31881
 30
0.0
 10
0.97723
 20
12.31881
 30
0.0
 10
1.08079
 20
12.21521
 30
0.0
 10
1.18433
 20
12.11174
 30
0.0
 10
1.28786
 20
12.00818
 30
0.0
 10
1.28786
 20
12.00818
 30
0.0
 10
1.18433
 20
11.90464
 30
0.0
 10
1.08079
 20
11.8011
 30
0.0
 10
0.97723
 20
11.69757
 30
0.0
  0
SPLINE
  5
C4
330
1F
100
AcDbEntity
  8
Layer 1
 62
   242
370
     9
100
AcDbSpline
210
0.0
220
0.0
230
1.0
 70
    11
 71
     3
 72
    40
 73
    36
 74
     0
 42
0.0000000001
 43
0.0000000001
 12
1.0
 22
0.0
 32
0.0
 13
1.0
 23
0.0
 33
0.0
 40
0.0
 40
0.0
 40
0.0
 40
0.0
 40
0.1
 40
0.1
 40
0.1
 40
0.1
 40
0.2
 40
0.2
 40
0.2
 40
0.2
 40
0.3
 40
0.3
 40
0.3
 40
0.3
 40
0.4
 40
0.4
 40
0.4
 40
0.4
 40
0.5
 40
0.5
 40
0.5
 40
0.5
 40
0.6
 40
0.6
 40
0.6
 40
0.6
 40
0.7
 40
0.7
 40
0.7
 40
0.7
 40
0.8
 40
0.8
 40
0.8
 40
0.8
 40
1.0
 40
1.0
 40
1.0
 40
1.0
 10
0.97723
 20
12.77076
 30
0.0
 10
0.97723
 20
12.80853
 30
0.0
 10
0.97723
 20
12.84623
 30
0.0
 10
0.97723
 20
12.88387
 30
0.0
 10
0.97723
 20
12.88387
 30
0.0
 10
1.23379
 20
13.14051
 30
0.0
 10
1.49039
 20
13.39708
 30
0.0
 10
1.74688
 20
13.65362
 30
0.0
 10
1.74688
 20
13.65362
 30
0.0
 10
1.5115
 20
13.88903
 30
0.0
 10
1.2761
 20
14.12445
 30
0.0
 10
1.04074
 20
14.35981
 30
0.0
 10
1.04074
 20
14.35981
 30
0.0
 10
1.19605
 20
14.51521
 30
0.0
 10
1.35142
 20
14.67054
 30
0.0
 10
1.50676
 20
14.82593
 30
0.0
 10
1.50676
 20
14.82593
 30
0.0
 10
1.74221
 20
14.5905
 30
0.0
 10
1.97763
 20
14.35511
 30
0.0
 10
2.21299
 20
14.11965
 30
0.0
 10
2.21299
 20
14.11965
 30
0.0
 10
2.44841
 20
14.35511
 30
0.0
 10
2.68377
 20
14.5905
 30
0.0
 10
2.91921
 20
14.82593
 30
0.0
 10
2.91921
 20
14.82593
 30
0.0
 10
3.11694
 20
14.62816
 30
0.0
 10
3.31467
 20
14.43043
 30
0.0
 10
3.51239
 20
14.23271
 30
0.0
 10
3.51239
 20
14.23271
 30
0.0
 10
2.84622
 20
13.56651
 30
0.0
 10
2.18004
 20
12.90031
 30
0.0
 10
1.51383
 20
12.23413
 30
0.0
 10
1.51383
 20
12.23413
 30
0.0
 10
1.33506
 20
12.41305
 30
0.0
 10
1.15614
 20
12.5919
 30
0.0
 10
0.97723
 20
12.77076
 30
0.0
  0
SPLINE
  5
C5
330
1F
100
AcDbEntity
  8
Layer 1
 62
   242
370
     9
100
AcDbSpline
210
0.0
220
0.0
230
1.0
 70
    11
 71
     3
 72
    16
 73
    12
 74
     0
 42
0.0000000001
 43
0.0000000001
 12
1.0
 22
0.0
 32
0.0
 13
1.0
 23
0.0
 33
0.0
 40
0.0
 40
0.0
 40
0.0
 40
0.0
 40
0.25
 40
0.25
 40
0.25
 40
0.25
 40
0.5
 40
0.5
 40
0.5
 40
0.5
 40
1.0
 40
1.0
 40
1.0
 40
1.0
 10
0.97723
 20
13.33595
 30
0.0
 10
0.97723
 20
13.54772
 30
0.0
 10
0.97723
 20
13.75949
 30
0.0
 10
0.97723
 20
13.97132
 30
0.0
 10
0.97723
 20
13.97132
 30
0.0
 10
1.08316
 20
13.86543
 30
0.0
 10
1.18904
 20
13.75949
 30
0.0
 10
1.29492
 20
13.65362
 30
0.0
 10
1.29492
 20
13.65362
 30
0.0
 10
1.18904
 20
13.54772
 30
0.0
 10
1.08316
 20
13.4418
 30
0.0
 10
0.97723
 20
13.33595
 30
0.0
  0
SPLINE
  5
C6
330
1F
100
AcDbEntity
  8
Layer 1
 62
   242
370
     9
100
AcDbSpline
210
0.0
220
0.0
230
1.0
 70
    11
 71
     3
 72
    16
 73
    12
 74
     0
 42
0.0000000001
 43
0.0000000001
 12
1.0
 22
0.0
 32
0.0
 13
1.0
 23
0.0
 33
0.0
 40
0.0
 40
0.0
 40
0.0
 40
0.0
 40
0.25
 40
0.25
 40
0.25
 40
0.25
 40
0.5
 40
0.5
 40
0.5
 40
0.5
 40
1.0
 40
1.0
 40
1.0
 40
1.0
 10
0.97723
 20
14.74831
 30
0.0
 10
0.97723
 20
14.95069
 30
0.0
 10
0.97723
 20
15.15306
 30
0.0
 10
0.97723
 20
15.35541
 30
0.0
 10
0.97723
 20
15.35541
 30
0.0
 10
1.07843
 20
15.25427
 30
0.0
 10
1.17965
 20
15.15306
 30
0.0
 10
1.28083
 20
15.05186
 30
0.0
 10
1.28083
 20
15.05186
 30
0.0
 10
1.17965
 20
14.95069
 30
0.0
 10
1.07843
 20
14.84951
 30
0.0
 10
0.97723
 20
14.74831
 30
0.0
  0
SPLINE
  5
C7
330
1F
100
AcDbEntity
  8
Layer 1
 62
   242
370
     9
100
AcDbSpline
210
0.0
220
0.0
230
1.0
 70
    11
 71
     3
 72
    36
 73
    32
 74
     0
 42
0.0000000001
 43
0.0000000001
 12
1.0
 22
0.0
 32
0.0
 13
1.0
 23
0.0
 33
0.0
 40
0.0
 40
0.0
 40
0.0
 40
0.0
 40
0.1111111111111111
 40
0.1111111111111111
 40
0.1111111111111111
 40
0.1111111111111111
 40
0.2222222222222222
 40
0.2222222222222222
 40
0.2222222222222222
 40
0.2222222222222222
 40
0.3333333333333333
 40
0.3333333333333333
 40
0.3333333333333333
 40
0.3333333333333333
 40
0.4444444444444444
 40
0.4444444444444444
 40
0.4444444444444444
 40
0.4444444444444444
 40
0.5555555555555556
 40
0.5555555555555556
 40
0.5555555555555556
 40
0.5555555555555556
 40
0.6666666666666666
 40
0.6666666666666666
 40
0.6666666666666666
 40
0.6666666666666666
 40
0.7777777777777778
 40
0.7777777777777778
 40
0.7777777777777778
 40
0.7777777777777778
 40
1.0
 40
1.0
 40
1.0
 40
1.0
 10
5.39087
 20
15.65922
 30
0.0
 10
5.19084
 20
15.45913
 30
0.0
 10
4.99071
 20
15.25905
 30
0.0
 10
4.79063
 20
15.05894
 30
0.0
 10
4.79063
 20
15.05894
 30
0.0
 10
5.45917
 20
14.39044
 30
0.0
 10
6.12769
 20
13.72188
 30
0.0
 10
6.79622
 20
13.05333
 30
0.0
 10
6.79622
 20
13.05333
 30
0.0
 10
6.99634
 20
13.25344
 30
0.0
 10
7.19642
 20
13.45356
 30
0.0
 10
7.39647
 20
13.65362
 30
0.0
 10
7.39647
 20
13.65362
 30
0.0
 10
7.16107
 20
13.88903
 30
0.0
 10
6.92569
 20
14.12445
 30
0.0
 10
6.6903
 20
14.35981
 30
0.0
 10
6.6903
 20
14.35981
 30
0.0
 10
6.92102
 20
14.5905
 30
0.0
 10
7.15167
 20
14.82123
 30
0.0
 10
7.38239
 20
15.05186
 30
0.0
 10
7.38239
 20
15.05186
 30
0.0
 10
7.22231
 20
15.21198
 30
0.0
 10
7.0622
 20
15.37205
 30
0.0
 10
6.90217
 20
15.53212
 30
0.0
 10
6.90217
 20
15.53212
 30
0.0
 10
6.67142
 20
15.30144
 30
0.0
 10
6.44077
 20
15.07072
 30
0.0
 10
6.21008
 20
14.84
 30
0.0
 10
6.21008
 20
14.84
 30
0.0
 10
5.93704
 20
15.1131
 30
0.0
 10
5.66395
 20
15.38614
 30
0.0
 10
5.39087
 20
15.65922
 30
0.0
  0
SPLINE
  5
C8
330
1F
100
AcDbEntity
  8
Layer 1
 62
   242
370
     9
100
AcDbSpline
210
0.0
220
0.0
230
1.0
 70
    11
 71
     3
 72
    36
 73
    32
 74
     0
 42
0.0000000001
 43
0.0000000001
 12
1.0
 22
0.0
 32
0.0
 13
1.0
 23
0.0
 33
0.0
 40
0.0
 40
0.0
 40
0.0
 40
0.0
 40
0.1111111111111111
 40
0.1111111111111111
 40
0.1111111111111111
 40
0.1111111111111111
 40
0.2222222222222222
 40
0.2222222222222222
 40
0.2222222222222222
 40
0.2222222222222222
 40
0.3333333333333333
 40
0.3333333333333333
 40
0.3333333333333333
 40
0.3333333333333333
 40
0.4444444444444444
 40
0.4444444444444444
 40
0.4444444444444444
 40
0.4444444444444444
 40
0.5555555555555556
 40
0.5555555555555556
 40
0.5555555555555556
 40
0.5555555555555556
 40
0.6666666666666666
 40
0.6666666666666666
 40
0.6666666666666666
 40
0.6666666666666666
 40
0.7777777777777778
 40
0.7777777777777778
 40
0.7777777777777778
 40
0.7777777777777778
 40
1.0
 40
1.0
 40
1.0
 40
1.0
 10
1.73987
 20
12.00818
 30
0.0
 10
1.93993
 20
12.20825
 30
0.0
 10
2.14004
 20
12.40836
 30
0.0
 10
2.34016
 20
12.60844
 30
0.0
 10
2.34016
 20
12.60844
 30
0.0
 10
2.61317
 20
12.33542
 30
0.0
 10
2.88625
 20
12.0623
 30
0.0
 10
3.15931
 20
11.78926
 30
0.0
 10
3.15931
 20
11.78926
 30
0.0
 10
3.38995
 20
12.01991
 30
0.0
 10
3.6207
 20
12.25066
 30
0.0
 10
3.85137
 20
12.48132
 30
0.0
 10
3.85137
 20
12.48132
 30
0.0
 10
4.01144
 20
12.32127
 30
0.0
 10
4.17152
 20
12.1612
 30
0.0
 10
4.33158
 20
12.00113
 30
0.0
 10
4.33158
 20
12.00113
 30
0.0
 10
4.1009
 20
11.77041
 30
0.0
 10
3.8702
 20
11.53971
 30
0.0
 10
3.63951
 20
11.30905
 30
0.0
 10
3.63951
 20
11.30905
 30
0.0
 10
3.87491
 20
11.07365
 30
0.0
 10
4.11032
 20
10.83823
 30
0.0
 10
4.34573
 20
10.60284
 30
0.0
 10
4.34573
 20
10.60284
 30
0.0
 10
4.14562
 20
10.40274
 30
0.0
 10
3.94552
 20
10.20265
 30
0.0
 10
3.74545
 20
10.00254
 30
0.0
 10
3.74545
 20
10.00254
 30
0.0
 10
3.07689
 20
10.67112
 30
0.0
 10
2.40838
 20
11.3396
 30
0.0
 10
1.73987
 20
12.00818
 30
0.0
  0
SPLINE
  5
C9
330
1F
100
AcDbEntity
  8
Layer 1
 62
   242
370
     9
100
AcDbSpline
210
0.0
220
0.0
230
1.0
 70
    11
 71
     3
 72
    36
 73
    32
 74
     0
 42
0.0000000001
 43
0.0000000001
 12
1.0
 22
0.0
 32
0.0
 13
1.0
 23
0.0
 33
0.0
 40
0.0
 40
0.0
 40
0.0
 40
0.0
 40
0.1111111111111111
 40
0.1111111111111111
 40
0.1111111111111111
 40
0.1111111111111111
 40
0.2222222222222222
 40
0.2222222222222222
 40
0.2222222222222222
 40
0.2222222222222222
 40
0.3333333333333333
 40
0.3333333333333333
 40
0.3333333333333333
 40
0.3333333333333333
 40
0.4444444444444444
 40
0.4444444444444444
 40
0.4444444444444444
 40
0.4444444444444444
 40
0.5555555555555556
 40
0.5555555555555556
 40
0.5555555555555556
 40
0.5555555555555556
 40
0.6666666666666666
 40
0.6666666666666666
 40
0.6666666666666666
 40
0.6666666666666666
 40
0.7777777777777778
 40
0.7777777777777778
 40
0.7777777777777778
 40
0.7777777777777778
 40
1.0
 40
1.0
 40
1.0
 40
1.0
 10
3.97142
 20
9.77663
 30
0.0
 10
4.24684
 20
10.05201
 30
0.0
 10
4.52224
 20
10.32745
 30
0.0
 10
4.79767
 20
10.60284
 30
0.0
 10
4.79767
 20
10.60284
 30
0.0
 10
4.56228
 20
10.83823
 30
0.0
 10
4.32689
 20
11.07365
 30
0.0
 10
4.09148
 20
11.30905
 30
0.0
 10
4.09148
 20
11.30905
 30
0.0
 10
4.24684
 20
11.4644
 30
0.0
 10
4.4022
 20
11.61978
 30
0.0
 10
4.55757
 20
11.77514
 30
0.0
 10
4.55757
 20
11.77514
 30
0.0
 10
4.79297
 20
11.53971
 30
0.0
 10
5.02837
 20
11.30435
 30
0.0
 10
5.26378
 20
11.06892
 30
0.0
 10
5.26378
 20
11.06892
 30
0.0
 10
5.49912
 20
11.30435
 30
0.0
 10
5.73454
 20
11.53971
 30
0.0
 10
5.96998
 20
11.77514
 30
0.0
 10
5.96998
 20
11.77514
 30
0.0
 10
6.1677
 20
11.57738
 30
0.0
 10
6.36542
 20
11.37965
 30
0.0
 10
6.56316
 20
11.18191
 30
0.0
 10
6.56316
 20
11.18191
 30
0.0
 10
5.89701
 20
10.51577
 30
0.0
 10
5.23081
 20
9.84955
 30
0.0
 10
4.56465
 20
9.1834
 30
0.0
 10
4.56465
 20
9.1834
 30
0.0
 10
4.3669
 20
9.38114
 30
0.0
 10
4.16915
 20
9.57881
 30
0.0
 10
3.97142
 20
9.77663
 30
0.0
  0
SPLINE
  5
CA
330
1F
100
AcDbEntity
  8
Layer 1
 62
   242
370
     9
100
AcDbSpline
210
0.0
220
0.0
230
1.0
 70
    11
 71
     3
 72
    36
 73
    32
 74
     0
 42
0.0000000001
 43
0.0000000001
 12
1.0
 22
0.0
 32
0.0
 13
1.0
 23
0.0
 33
0.0
 40
0.0
 40
0.0
 40
0.0
 40
0.0
 40
0.1111111111111111
 40
0.1111111111111111
 40
0.1111111111111111
 40
0.1111111111111111
 40
0.2222222222222222
 40
0.2222222222222222
 40
0.2222222222222222
 40
0.2222222222222222
 40
0.3333333333333333
 40
0.3333333333333333
 40
0.3333333333333333
 40
0.3333333333333333
 40
0.4444444444444444
 40
0.4444444444444444
 40
0.4444444444444444
 40
0.4444444444444444
 40
0.5555555555555556
 40
0.5555555555555556
 40
0.5555555555555556
 40
0.5555555555555556
 40
0.6666666666666666
 40
0.6666666666666666
 40
0.6666666666666666
 40
0.6666666666666666
 40
0.7777777777777778
 40
0.7777777777777778
 40
0.7777777777777778
 40
0.7777777777777778
 40
1.0
 40
1.0
 40
1.0
 40
1.0
 10
4.79063
 20
8.95741
 30
0.0
 10
4.99071
 20
9.15753
 30
0.0
 10
5.19084
 20
9.35758
 30
0.0
 10
5.39087
 20
9.55766
 30
0.0
 10
5.39087
 20
9.55766
 30
0.0
 10
5.66395
 20
9.28458
 30
0.0
 10
5.93704
 20
9.01157
 30
0.0
 10
6.21008
 20
8.73848
 30
0.0
 10
6.21008
 20
8.73848
 30
0.0
 10
6.44077
 20
8.96918
 30
0.0
 10
6.67142
 20
9.19986
 30
0.0
 10
6.90217
 20
9.43053
 30
0.0
 10
6.90217
 20
9.43053
 30
0.0
 10
7.0622
 20
9.27046
 30
0.0
 10
7.22231
 20
9.11041
 30
0.0
 10
7.38239
 20
8.95035
 30
0.0
 10
7.38239
 20
8.95035
 30
0.0
 10
7.15167
 20
8.71966
 30
0.0
 10
6.92102
 20
8.48895
 30
0.0
 10
6.6903
 20
8.25829
 30
0.0
 10
6.6903
 20
8.25829
 30
0.0
 10
6.92569
 20
8.0229
 30
0.0
 10
7.16107
 20
7.78743
 30
0.0
 10
7.39647
 20
7.55207
 30
0.0
 10
7.39647
 20
7.55207
 30
0.0
 10
7.19642
 20
7.35198
 30
0.0
 10
6.99634
 20
7.15193
 30
0.0
 10
6.79622
 20
6.9518
 30
0.0
 10
6.79622
 20
6.9518
 30
0.0
 10
6.12769
 20
7.62032
 30
0.0
 10
5.45917
 20
8.28887
 30
0.0
 10
4.79063
 20
8.95741
 30
0.0
  0
SPLINE
  5
CB
330
1F
100
AcDbEntity
  8
Layer 1
 62
   242
370
     9
100
AcDbSpline
210
0.0
220
0.0
230
1.0
 70
    11
 71
     3
 72
    48
 73
    44
 74
     0
 42
0.0000000001
 43
0.0000000001
 12
1.0
 22
0.0
 32
0.0
 13
1.0
 23
0.0
 33
0.0
 40
0.0
 40
0.0
 40
0.0
 40
0.0
 40
0.0833333333333333
 40
0.0833333333333333
 40
0.0833333333333333
 40
0.0833333333333333
 40
0.1666666666666667
 40
0.1666666666666667
 40
0.1666666666666667
 40
0.1666666666666667
 40
0.25
 40
0.25
 40
0.25
 40
0.25
 40
0.3333333333333333
 40
0.3333333333333333
 40
0.3333333333333333
 40
0.3333333333333333
 40
0.4166666666666667
 40
0.4166666666666667
 40
0.4166666666666667
 40
0.4166666666666667
 40
0.5
 40
0.5
 40
0.5
 40
0.5
 40
0.5833333333333334
 40
0.5833333333333334
 40
0.5833333333333334
 40
0.5833333333333334
 40
0.6666666666666666
 40
0.6666666666666666
 40
0.6666666666666666
 40
0.6666666666666666
 40
0.75
 40
0.75
 40
0.75
 40
0.75
 40
0.8333333333333334
 40
0.8333333333333334
 40
0.8333333333333334
 40
0.8333333333333334
 40
1.0
 40
1.0
 40
1.0
 40
1.0
 10
4.56465
 20
14.83296
 30
0.0
 10
3.89843
 20
14.16678
 30
0.0
 10
3.23229
 20
13.50061
 30
0.0
 10
2.56609
 20
12.83443
 30
0.0
 10
2.56609
 20
12.83443
 30
0.0
 10
2.76385
 20
12.63671
 30
0.0
 10
2.96157
 20
12.43899
 30
0.0
 10
3.15931
 20
12.24123
 30
0.0
 10
3.15931
 20
12.24123
 30
0.0
 10
3.31467
 20
12.39658
 30
0.0
 10
3.47001
 20
12.55192
 30
0.0
 10
3.62539
 20
12.7073
 30
0.0
 10
3.62539
 20
12.7073
 30
0.0
 10
3.62539
 20
12.7073
 30
0.0
 10
3.62539
 20
12.7073
 30
0.0
 10
3.62539
 20
12.7073
 30
0.0
 10
3.62539
 20
12.7073
 30
0.0
 10
3.7007
 20
12.78265
 30
0.0
 10
3.77602
 20
12.85794
 30
0.0
 10
3.85137
 20
12.9333
 30
0.0
 10
3.85137
 20
12.9333
 30
0.0
 10
4.08677
 20
12.69787
 30
0.0
 10
4.3222
 20
12.46252
 30
0.0
 10
4.55757
 20
12.22708
 30
0.0
 10
4.55757
 20
12.22708
 30
0.0
 10
4.71764
 20
12.38721
 30
0.0
 10
4.87768
 20
12.54725
 30
0.0
 10
5.03778
 20
12.7073
 30
0.0
 10
5.03778
 20
12.7073
 30
0.0
 10
4.80242
 20
12.94272
 30
0.0
 10
4.567
 20
13.1781
 30
0.0
 10
4.33158
 20
13.41348
 30
0.0
 10
4.33158
 20
13.41348
 30
0.0
 10
4.60701
 20
13.68895
 30
0.0
 10
4.88242
 20
13.96434
 30
0.0
 10
5.15783
 20
14.23979
 30
0.0
 10
5.15783
 20
14.23979
 30
0.0
 10
5.03191
 20
14.3657
 30
0.0
 10
4.90598
 20
14.49164
 30
0.0
 10
4.77996
 20
14.61758
 30
0.0
 10
4.77996
 20
14.61758
 30
0.0
 10
4.7082
 20
14.6894
 30
0.0
 10
4.63645
 20
14.76116
 30
0.0
 10
4.56465
 20
14.83296
 30
0.0
  0
SPLINE
  5
CC
330
1F
100
AcDbEntity
  8
Layer 1
 62
   242
370
     9
100
AcDbSpline
210
0.0
220
0.0
230
1.0
 70
    11
 71
     3
 72
    36
 73
    32
 74
     0
 42
0.0000000001
 43
0.0000000001
 12
1.0
 22
0.0
 32
0.0
 13
1.0
 23
0.0
 33
0.0
 40
0.0
 40
0.0
 40
0.0
 40
0.0
 40
0.1111111111111111
 40
0.1111111111111111
 40
0.1111111111111111
 40
0.1111111111111111
 40
0.2222222222222222
 40
0.2222222222222222
 40
0.2222222222222222
 40
0.2222222222222222
 40
0.3333333333333333
 40
0.3333333333333333
 40
0.3333333333333333
 40
0.3333333333333333
 40
0.4444444444444444
 40
0.4444444444444444
 40
0.4444444444444444
 40
0.4444444444444444
 40
0.5555555555555556
 40
0.5555555555555556
 40
0.5555555555555556
 40
0.5555555555555556
 40
0.6666666666666666
 40
0.6666666666666666
 40
0.6666666666666666
 40
0.6666666666666666
 40
0.7777777777777778
 40
0.7777777777777778
 40
0.7777777777777778
 40
0.7777777777777778
 40
1.0
 40
1.0
 40
1.0
 40
1.0
 10
5.38383
 20
14.0138
 30
0.0
 10
5.18374
 20
13.81372
 30
0.0
 10
4.98364
 20
13.61361
 30
0.0
 10
4.78356
 20
13.41348
 30
0.0
 10
4.78356
 20
13.41348
 30
0.0
 10
5.01896
 20
13.1781
 30
0.0
 10
5.25431
 20
12.94272
 30
0.0
 10
5.48974
 20
12.7073
 30
0.0
 10
5.48974
 20
12.7073
 30
0.0
 10
5.25431
 20
12.47189
 30
0.0
 10
5.01896
 20
12.23651
 30
0.0
 10
4.78356
 20
12.00113
 30
0.0
 10
4.78356
 20
12.00113
 30
0.0
 10
4.94363
 20
11.84102
 30
0.0
 10
5.10371
 20
11.68101
 30
0.0
 10
5.26378
 20
11.52088
 30
0.0
 10
5.26378
 20
11.52088
 30
0.0
 10
5.49912
 20
11.7563
 30
0.0
 10
5.73454
 20
11.99168
 30
0.0
 10
5.96998
 20
12.22708
 30
0.0
 10
5.96998
 20
12.22708
 30
0.0
 10
6.24302
 20
11.95403
 30
0.0
 10
6.51609
 20
11.68101
 30
0.0
 10
6.78913
 20
11.40791
 30
0.0
 10
6.78913
 20
11.40791
 30
0.0
 10
6.98924
 20
11.60798
 30
0.0
 10
7.18935
 20
11.80809
 30
0.0
 10
7.38944
 20
12.00818
 30
0.0
 10
7.38944
 20
12.00818
 30
0.0
 10
6.7209
 20
12.67672
 30
0.0
 10
6.05237
 20
13.34526
 30
0.0
 10
5.38383
 20
14.0138
 30
0.0
  0
SPLINE
  5
CD
330
1F
100
AcDbEntity
  8
Layer 1
 62
   242
370
     9
100
AcDbSpline
210
0.0
220
0.0
230
1.0
 70
    11
 71
     3
 72
    36
 73
    32
 74
     0
 42
0.0000000001
 43
0.0000000001
 12
1.0
 22
0.0
 32
0.0
 13
1.0
 23
0.0
 33
0.0
 40
0.0
 40
0.0
 40
0.0
 40
0.0
 40
0.1111111111111111
 40
0.1111111111111111
 40
0.1111111111111111
 40
0.1111111111111111
 40
0.2222222222222222
 40
0.2222222222222222
 40
0.2222222222222222
 40
0.2222222222222222
 40
0.3333333333333333
 40
0.3333333333333333
 40
0.3333333333333333
 40
0.3333333333333333
 40
0.4444444444444444
 40
0.4444444444444444
 40
0.4444444444444444
 40
0.4444444444444444
 40
0.5555555555555556
 40
0.5555555555555556
 40
0.5555555555555556
 40
0.5555555555555556
 40
0.6666666666666666
 40
0.6666666666666666
 40
0.6666666666666666
 40
0.6666666666666666
 40
0.7777777777777778
 40
0.7777777777777778
 40
0.7777777777777778
 40
0.7777777777777778
 40
1.0
 40
1.0
 40
1.0
 40
1.0
 10
5.39087
 20
3.45617
 30
0.0
 10
5.19084
 20
3.25606
 30
0.0
 10
4.99071
 20
3.05598
 30
0.0
 10
4.79063
 20
2.85586
 30
0.0
 10
4.79063
 20
2.85586
 30
0.0
 10
5.45917
 20
2.18736
 30
0.0
 10
6.12769
 20
1.51881
 30
0.0
 10
6.79622
 20
0.85029
 30
0.0
 10
6.79622
 20
0.85029
 30
0.0
 10
6.99634
 20
1.05039
 30
0.0
 10
7.19642
 20
1.25044
 30
0.0
 10
7.39647
 20
1.45053
 30
0.0
 10
7.39647
 20
1.45053
 30
0.0
 10
7.16107
 20
1.68594
 30
0.0
 10
6.92569
 20
1.92131
 30
0.0
 10
6.6903
 20
2.15671
 30
0.0
 10
6.6903
 20
2.15671
 30
0.0
 10
6.92102
 20
2.3874
 30
0.0
 10
7.15167
 20
2.6181
 30
0.0
 10
7.38239
 20
2.84878
 30
0.0
 10
7.38239
 20
2.84878
 30
0.0
 10
7.22231
 20
3.00885
 30
0.0
 10
7.0622
 20
3.16895
 30
0.0
 10
6.90217
 20
3.32898
 30
0.0
 10
6.90217
 20
3.32898
 30
0.0
 10
6.67142
 20
3.09832
 30
0.0
 10
6.44077
 20
2.86762
 30
0.0
 10
6.21008
 20
2.63694
 30
0.0
 10
6.21008
 20
2.63694
 30
0.0
 10
5.93704
 20
2.91003
 30
0.0
 10
5.66395
 20
3.18308
 30
0.0
 10
5.39087
 20
3.45617
 30
0.0
  0
SPLINE
  5
CE
330
1F
100
AcDbEntity
  8
Layer 1
 62
   242
370
     9
100
AcDbSpline
210
0.0
220
0.0
230
1.0
 70
    11
 71
     3
 72
    48
 73
    44
 74
     0
 42
0.0000000001
 43
0.0000000001
 12
1.0
 22
0.0
 32
0.0
 13
1.0
 23
0.0
 33
0.0
 40
0.0
 40
0.0
 40
0.0
 40
0.0
 40
0.0833333333333333
 40
0.0833333333333333
 40
0.0833333333333333
 40
0.0833333333333333
 40
0.1666666666666667
 40
0.1666666666666667
 40
0.1666666666666667
 40
0.1666666666666667
 40
0.25
 40
0.25
 40
0.25
 40
0.25
 40
0.3333333333333333
 40
0.3333333333333333
 40
0.3333333333333333
 40
0.3333333333333333
 40
0.4166666666666667
 40
0.4166666666666667
 40
0.4166666666666667
 40
0.4166666666666667
 40
0.5
 40
0.5
 40
0.5
 40
0.5
 40
0.5833333333333334
 40
0.5833333333333334
 40
0.5833333333333334
 40
0.5833333333333334
 40
0.6666666666666666
 40
0.6666666666666666
 40
0.6666666666666666
 40
0.6666666666666666
 40
0.75
 40
0.75
 40
0.75
 40
0.75
 40
0.8333333333333334
 40
0.8333333333333334
 40
0.8333333333333334
 40
0.8333333333333334
 40
1.0
 40
1.0
 40
1.0
 40
1.0
 10
4.56465
 20
8.73146
 30
0.0
 10
3.89843
 20
8.06522
 30
0.0
 10
3.23229
 20
7.39908
 30
0.0
 10
2.56609
 20
6.73285
 30
0.0
 10
2.56609
 20
6.73285
 30
0.0
 10
2.76385
 20
6.53515
 30
0.0
 10
2.96157
 20
6.33741
 30
0.0
 10
3.15931
 20
6.13969
 30
0.0
 10
3.15931
 20
6.13969
 30
0.0
 10
3.31467
 20
6.29504
 30
0.0
 10
3.47001
 20
6.45038
 30
0.0
 10
3.62539
 20
6.60578
 30
0.0
 10
3.62539
 20
6.60578
 30
0.0
 10
3.62539
 20
6.60578
 30
0.0
 10
3.62539
 20
6.60578
 30
0.0
 10
3.62539
 20
6.60578
 30
0.0
 10
3.62539
 20
6.60578
 30
0.0
 10
3.7007
 20
6.68107
 30
0.0
 10
3.77602
 20
6.75645
 30
0.0
 10
3.85137
 20
6.83175
 30
0.0
 10
3.85137
 20
6.83175
 30
0.0
 10
4.08677
 20
6.59638
 30
0.0
 10
4.3222
 20
6.36097
 30
0.0
 10
4.55757
 20
6.12556
 30
0.0
 10
4.55757
 20
6.12556
 30
0.0
 10
4.71764
 20
6.28563
 30
0.0
 10
4.87768
 20
6.4457
 30
0.0
 10
5.03778
 20
6.60578
 30
0.0
 10
5.03778
 20
6.60578
 30
0.0
 10
4.80242
 20
6.84117
 30
0.0
 10
4.567
 20
7.07657
 30
0.0
 10
4.33158
 20
7.31196
 30
0.0
 10
4.33158
 20
7.31196
 30
0.0
 10
4.60701
 20
7.58738
 30
0.0
 10
4.88242
 20
7.86281
 30
0.0
 10
5.15783
 20
8.13823
 30
0.0
 10
5.15783
 20
8.13823
 30
0.0
 10
5.04131
 20
8.25472
 30
0.0
 10
4.92482
 20
8.37132
 30
0.0
 10
4.80825
 20
8.4878
 30
0.0
 10
4.80825
 20
8.4878
 30
0.0
 10
4.72704
 20
8.56898
 30
0.0
 10
4.64585
 20
8.65022
 30
0.0
 10
4.56465
 20
8.73146
 30
0.0
  0
SPLINE
  5
CF
330
1F
100
AcDbEntity
  8
Layer 1
 62
   242
370
     9
100
AcDbSpline
210
0.0
220
0.0
230
1.0
 70
    11
 71
     3
 72
    36
 73
    32
 74
     0
 42
0.0000000001
 43
0.0000000001
 12
1.0
 22
0.0
 32
0.0
 13
1.0
 23
0.0
 33
0.0
 40
0.0
 40
0.0
 40
0.0
 40
0.0
 40
0.1111111111111111
 40
0.1111111111111111
 40
0.1111111111111111
 40
0.1111111111111111
 40
0.2222222222222222
 40
0.2222222222222222
 40
0.2222222222222222
 40
0.2222222222222222
 40
0.3333333333333333
 40
0.3333333333333333
 40
0.3333333333333333
 40
0.3333333333333333
 40
0.4444444444444444
 40
0.4444444444444444
 40
0.4444444444444444
 40
0.4444444444444444
 40
0.5555555555555556
 40
0.5555555555555556
 40
0.5555555555555556
 40
0.5555555555555556
 40
0.6666666666666666
 40
0.6666666666666666
 40
0.6666666666666666
 40
0.6666666666666666
 40
0.7777777777777778
 40
0.7777777777777778
 40
0.7777777777777778
 40
0.7777777777777778
 40
1.0
 40
1.0
 40
1.0
 40
1.0
 10
2.34016
 20
6.50691
 30
0.0
 10
2.14004
 20
6.30678
 30
0.0
 10
1.93993
 20
6.1068
 30
0.0
 10
1.73987
 20
5.90664
 30
0.0
 10
1.73987
 20
5.90664
 30
0.0
 10
2.40838
 20
5.2381
 30
0.0
 10
3.07689
 20
4.56957
 30
0.0
 10
3.74545
 20
3.90103
 30
0.0
 10
3.74545
 20
3.90103
 30
0.0
 10
3.94552
 20
4.10112
 30
0.0
 10
4.14562
 20
4.30121
 30
0.0
 10
4.34573
 20
4.50132
 30
0.0
 10
4.34573
 20
4.50132
 30
0.0
 10
4.11032
 20
4.73667
 30
0.0
 10
3.87491
 20
4.97206
 30
0.0
 10
3.63951
 20
5.20749
 30
0.0
 10
3.63951
 20
5.20749
 30
0.0
 10
3.8702
 20
5.4382
 30
0.0
 10
4.1009
 20
5.66892
 30
0.0
 10
4.33158
 20
5.89959
 30
0.0
 10
4.33158
 20
5.89959
 30
0.0
 10
4.17152
 20
6.05964
 30
0.0
 10
4.01144
 20
6.21973
 30
0.0
 10
3.85137
 20
6.37979
 30
0.0
 10
3.85137
 20
6.37979
 30
0.0
 10
3.6207
 20
6.14908
 30
0.0
 10
3.38995
 20
5.9184
 30
0.0
 10
3.15931
 20
5.68771
 30
0.0
 10
3.15931
 20
5.68771
 30
0.0
 10
2.88625
 20
5.9608
 30
0.0
 10
2.61317
 20
6.23386
 30
0.0
 10
2.34016
 20
6.50691
 30
0.0
  0
SPLINE
  5
D0
330
1F
100
AcDbEntity
  8
Layer 1
 62
   242
370
     9
100
AcDbSpline
210
0.0
220
0.0
230
1.0
 70
    11
 71
     3
 72
    36
 73
    32
 74
     0
 42
0.0000000001
 43
0.0000000001
 12
1.0
 22
0.0
 32
0.0
 13
1.0
 23
0.0
 33
0.0
 40
0.0
 40
0.0
 40
0.0
 40
0.0
 40
0.1111111111111111
 40
0.1111111111111111
 40
0.1111111111111111
 40
0.1111111111111111
 40
0.2222222222222222
 40
0.2222222222222222
 40
0.2222222222222222
 40
0.2222222222222222
 40
0.3333333333333333
 40
0.3333333333333333
 40
0.3333333333333333
 40
0.3333333333333333
 40
0.4444444444444444
 40
0.4444444444444444
 40
0.4444444444444444
 40
0.4444444444444444
 40
0.5555555555555556
 40
0.5555555555555556
 40
0.5555555555555556
 40
0.5555555555555556
 40
0.6666666666666666
 40
0.6666666666666666
 40
0.6666666666666666
 40
0.6666666666666666
 40
0.7777777777777778
 40
0.7777777777777778
 40
0.7777777777777778
 40
0.7777777777777778
 40
1.0
 40
1.0
 40
1.0
 40
1.0
 10
5.38383
 20
7.91221
 30
0.0
 10
5.18374
 20
7.71214
 30
0.0
 10
4.98364
 20
7.51207
 30
0.0
 10
4.78356
 20
7.31196
 30
0.0
 10
4.78356
 20
7.31196
 30
0.0
 10
5.01896
 20
7.07657
 30
0.0
 10
5.25431
 20
6.84117
 30
0.0
 10
5.48974
 20
6.60578
 30
0.0
 10
5.48974
 20
6.60578
 30
0.0
 10
5.25431
 20
6.37039
 30
0.0
 10
5.01896
 20
6.13494
 30
0.0
 10
4.78356
 20
5.89959
 30
0.0
 10
4.78356
 20
5.89959
 30
0.0
 10
4.94363
 20
5.73952
 30
0.0
 10
5.10371
 20
5.57942
 30
0.0
 10
5.26378
 20
5.41939
 30
0.0
 10
5.26378
 20
5.41939
 30
0.0
 10
5.49912
 20
5.65477
 30
0.0
 10
5.73454
 20
5.8902
 30
0.0
 10
5.96998
 20
6.12556
 30
0.0
 10
5.96998
 20
6.12556
 30
0.0
 10
6.24302
 20
5.85249
 30
0.0
 10
6.51609
 20
5.57942
 30
0.0
 10
6.78913
 20
5.30636
 30
0.0
 10
6.78913
 20
5.30636
 30
0.0
 10
6.98924
 20
5.50645
 30
0.0
 10
7.18935
 20
5.70658
 30
0.0
 10
7.38944
 20
5.90664
 30
0.0
 10
7.38944
 20
5.90664
 30
0.0
 10
6.7209
 20
6.57519
 30
0.0
 10
6.05237
 20
7.24371
 30
0.0
 10
5.38383
 20
7.91221
 30
0.0
  0
SPLINE
  5
D1
330
1F
100
AcDbEntity
  8
Layer 1
 62
   242
370
     9
100
AcDbSpline
210
0.0
220
0.0
230
1.0
 70
    11
 71
     3
 72
    40
 73
    36
 74
     0
 42
0.0000000001
 43
0.0000000001
 12
1.0
 22
0.0
 32
0.0
 13
1.0
 23
0.0
 33
0.0
 40
0.0
 40
0.0
 40
0.0
 40
0.0
 40
0.1
 40
0.1
 40
0.1
 40
0.1
 40
0.2
 40
0.2
 40
0.2
 40
0.2
 40
0.3
 40
0.3
 40
0.3
 40
0.3
 40
0.4
 40
0.4
 40
0.4
 40
0.4
 40
0.5
 40
0.5
 40
0.5
 40
0.5
 40
0.6
 40
0.6
 40
0.6
 40
0.6
 40
0.7
 40
0.7
 40
0.7
 40
0.7
 40
0.8
 40
0.8
 40
0.8
 40
0.8
 40
1.0
 40
1.0
 40
1.0
 40
1.0
 10
6.56316
 20
5.08036
 30
0.0
 10
6.36542
 20
5.27813
 30
0.0
 10
6.1677
 20
5.47587
 30
0.0
 10
5.96998
 20
5.67358
 30
0.0
 10
5.96998
 20
5.67358
 30
0.0
 10
5.73454
 20
5.43822
 30
0.0
 10
5.49912
 20
5.20282
 30
0.0
 10
5.26378
 20
4.96743
 30
0.0
 10
5.26378
 20
4.96743
 30
0.0
 10
5.02837
 20
5.20282
 30
0.0
 10
4.79297
 20
5.43822
 30
0.0
 10
4.55757
 20
5.67358
 30
0.0
 10
4.55757
 20
5.67358
 30
0.0
 10
4.4022
 20
5.5182
 30
0.0
 10
4.24684
 20
5.36287
 30
0.0
 10
4.09148
 20
5.20749
 30
0.0
 10
4.09148
 20
5.20749
 30
0.0
 10
4.32689
 20
4.97206
 30
0.0
 10
4.56228
 20
4.73667
 30
0.0
 10
4.79767
 20
4.50132
 30
0.0
 10
4.79767
 20
4.50132
 30
0.0
 10
4.52224
 20
4.22587
 30
0.0
 10
4.24684
 20
3.95048
 30
0.0
 10
3.97142
 20
3.67505
 30
0.0
 10
3.97142
 20
3.67505
 30
0.0
 10
4.07851
 20
3.56796
 30
0.0
 10
4.18564
 20
3.46084
 30
0.0
 10
4.29276
 20
3.35374
 30
0.0
 10
4.29276
 20
3.35374
 30
0.0
 10
4.38334
 20
3.2631
 30
0.0
 10
4.47403
 20
3.17244
 30
0.0
 10
4.56465
 20
3.08184
 30
0.0
 10
4.56465
 20
3.08184
 30
0.0
 10
5.23081
 20
3.74805
 30
0.0
 10
5.89701
 20
4.41422
 30
0.0
 10
6.56316
 20
5.08036
 30
0.0
  0
SPLINE
  5
D2
330
1F
100
AcDbEntity
  8
Layer 1
 62
   242
370
     9
100
AcDbSpline
210
0.0
220
0.0
230
1.0
 70
    11
 71
     3
 72
    36
 73
    32
 74
     0
 42
0.0000000001
 43
0.0000000001
 12
1.0
 22
0.0
 32
0.0
 13
1.0
 23
0.0
 33
0.0
 40
0.0
 40
0.0
 40
0.0
 40
0.0
 40
0.1111111111111111
 40
0.1111111111111111
 40
0.1111111111111111
 40
0.1111111111111111
 40
0.2222222222222222
 40
0.2222222222222222
 40
0.2222222222222222
 40
0.2222222222222222
 40
0.3333333333333333
 40
0.3333333333333333
 40
0.3333333333333333
 40
0.3333333333333333
 40
0.4444444444444444
 40
0.4444444444444444
 40
0.4444444444444444
 40
0.4444444444444444
 40
0.5555555555555556
 40
0.5555555555555556
 40
0.5555555555555556
 40
0.5555555555555556
 40
0.6666666666666666
 40
0.6666666666666666
 40
0.6666666666666666
 40
0.6666666666666666
 40
0.7777777777777778
 40
0.7777777777777778
 40
0.7777777777777778
 40
0.7777777777777778
 40
1.0
 40
1.0
 40
1.0
 40
1.0
 10
2.33302
 20
10.96301
 30
0.0
 10
2.13294
 20
10.76288
 30
0.0
 10
1.93287
 20
10.56281
 30
0.0
 10
1.73277
 20
10.36268
 30
0.0
 10
1.73277
 20
10.36268
 30
0.0
 10
1.96817
 20
10.12735
 30
0.0
 10
2.20359
 20
9.89193
 30
0.0
 10
2.43899
 20
9.65651
 30
0.0
 10
2.43899
 20
9.65651
 30
0.0
 10
2.20359
 20
9.42116
 30
0.0
 10
1.96817
 20
9.18573
 30
0.0
 10
1.73277
 20
8.95035
 30
0.0
 10
1.73277
 20
8.95035
 30
0.0
 10
1.89283
 20
8.79028
 30
0.0
 10
2.05296
 20
8.63021
 30
0.0
 10
2.21299
 20
8.47012
 30
0.0
 10
2.21299
 20
8.47012
 30
0.0
 10
2.44841
 20
8.70549
 30
0.0
 10
2.68377
 20
8.94092
 30
0.0
 10
2.91921
 20
9.17634
 30
0.0
 10
2.91921
 20
9.17634
 30
0.0
 10
3.19224
 20
8.90323
 30
0.0
 10
3.46535
 20
8.63021
 30
0.0
 10
3.73834
 20
8.35715
 30
0.0
 10
3.73834
 20
8.35715
 30
0.0
 10
3.93846
 20
8.55723
 30
0.0
 10
4.13854
 20
8.75734
 30
0.0
 10
4.33865
 20
8.95741
 30
0.0
 10
4.33865
 20
8.95741
 30
0.0
 10
3.67014
 20
9.62593
 30
0.0
 10
3.00159
 20
10.29448
 30
0.0
 10
2.33302
 20
10.96301
 30
0.0
  0
SPLINE
  5
D3
330
1F
100
AcDbEntity
  8
Layer 1
 62
   242
370
     9
100
AcDbSpline
210
0.0
220
0.0
230
1.0
 70
    11
 71
     3
 72
    36
 73
    32
 74
     0
 42
0.0000000001
 43
0.0000000001
 12
1.0
 22
0.0
 32
0.0
 13
1.0
 23
0.0
 33
0.0
 40
0.0
 40
0.0
 40
0.0
 40
0.0
 40
0.1111111111111111
 40
0.1111111111111111
 40
0.1111111111111111
 40
0.1111111111111111
 40
0.2222222222222222
 40
0.2222222222222222
 40
0.2222222222222222
 40
0.2222222222222222
 40
0.3333333333333333
 40
0.3333333333333333
 40
0.3333333333333333
 40
0.3333333333333333
 40
0.4444444444444444
 40
0.4444444444444444
 40
0.4444444444444444
 40
0.4444444444444444
 40
0.5555555555555556
 40
0.5555555555555556
 40
0.5555555555555556
 40
0.5555555555555556
 40
0.6666666666666666
 40
0.6666666666666666
 40
0.6666666666666666
 40
0.6666666666666666
 40
0.7777777777777778
 40
0.7777777777777778
 40
0.7777777777777778
 40
0.7777777777777778
 40
1.0
 40
1.0
 40
1.0
 40
1.0
 10
1.73987
 20
-0.19493
 30
0.0
 10
1.93993
 20
0.00516
 30
0.0
 10
2.14004
 20
0.20527
 30
0.0
 10
2.34016
 20
0.40537
 30
0.0
 10
2.34016
 20
0.40537
 30
0.0
 10
2.61317
 20
0.1323
 30
0.0
 10
2.88625
 20
-0.14076
 30
0.0
 10
3.15931
 20
-0.41385
 30
0.0
 10
3.15931
 20
-0.41385
 30
0.0
 10
3.38995
 20
-0.18314
 30
0.0
 10
3.6207
 20
0.04753
 30
0.0
 10
3.85137
 20
0.27825
 30
0.0
 10
3.85137
 20
0.27825
 30
0.0
 10
4.01144
 20
0.11816
 30
0.0
 10
4.17152
 20
-0.04192
 30
0.0
 10
4.33158
 20
-0.20196
 30
0.0
 10
4.33158
 20
-0.20196
 30
0.0
 10
4.1009
 20
-0.43269
 30
0.0
 10
3.8702
 20
-0.66333
 30
0.0
 10
3.63951
 20
-0.89407
 30
0.0
 10
3.63951
 20
-0.89407
 30
0.0
 10
3.87491
 20
-1.12946
 30
0.0
 10
4.11032
 20
-1.36485
 30
0.0
 10
4.34573
 20
-1.60022
 30
0.0
 10
4.34573
 20
-1.60022
 30
0.0
 10
4.14562
 20
-1.80036
 30
0.0
 10
3.94552
 20
-2.00035
 30
0.0
 10
3.74545
 20
-2.2005
 30
0.0
 10
3.74545
 20
-2.2005
 30
0.0
 10
3.07689
 20
-1.53199
 30
0.0
 10
2.40838
 20
-0.86346
 30
0.0
 10
1.73987
 20
-0.19493
 30
0.0
  0
SPLINE
  5
D4
330
1F
100
AcDbEntity
  8
Layer 1
 62
   242
370
     9
100
AcDbSpline
210
0.0
220
0.0
230
1.0
 70
    11
 71
     3
 72
    40
 73
    36
 74
     0
 42
0.0000000001
 43
0.0000000001
 12
1.0
 22
0.0
 32
0.0
 13
1.0
 23
0.0
 33
0.0
 40
0.0
 40
0.0
 40
0.0
 40
0.0
 40
0.1
 40
0.1
 40
0.1
 40
0.1
 40
0.2
 40
0.2
 40
0.2
 40
0.2
 40
0.3
 40
0.3
 40
0.3
 40
0.3
 40
0.4
 40
0.4
 40
0.4
 40
0.4
 40
0.5
 40
0.5
 40
0.5
 40
0.5
 40
0.6
 40
0.6
 40
0.6
 40
0.6
 40
0.7
 40
0.7
 40
0.7
 40
0.7
 40
0.8
 40
0.8
 40
0.8
 40
0.8
 40
1.0
 40
1.0
 40
1.0
 40
1.0
 10
3.97142
 20
-2.4265
 30
0.0
 10
4.24684
 20
-2.1511
 30
0.0
 10
4.52224
 20
-1.87568
 30
0.0
 10
4.79767
 20
-1.60022
 30
0.0
 10
4.79767
 20
-1.60022
 30
0.0
 10
4.56228
 20
-1.36485
 30
0.0
 10
4.32689
 20
-1.12946
 30
0.0
 10
4.09148
 20
-0.89407
 30
0.0
 10
4.09148
 20
-0.89407
 30
0.0
 10
4.24684
 20
-0.73867
 30
0.0
 10
4.4022
 20
-0.58333
 30
0.0
 10
4.55757
 20
-0.42798
 30
0.0
 10
4.55757
 20
-0.42798
 30
0.0
 10
4.79297
 20
-0.66333
 30
0.0
 10
5.02837
 20
-0.89874
 30
0.0
 10
5.26378
 20
-1.13418
 30
0.0
 10
5.26378
 20
-1.13418
 30
0.0
 10
5.49912
 20
-0.89874
 30
0.0
 10
5.73454
 20
-0.66333
 30
0.0
 10
5.96998
 20
-0.42798
 30
0.0
 10
5.96998
 20
-0.42798
 30
0.0
 10
6.1677
 20
-0.6257
 30
0.0
 10
6.36542
 20
-0.82342
 30
0.0
 10
6.56316
 20
-1.02114
 30
0.0
 10
6.56316
 20
-1.02114
 30
0.0
 10
5.89701
 20
-1.68736
 30
0.0
 10
5.23081
 20
-2.35351
 30
0.0
 10
4.56465
 20
-3.01971
 30
0.0
 10
4.56465
 20
-3.01971
 30
0.0
 10
4.48343
 20
-2.93852
 30
0.0
 10
4.40219
 20
-2.85727
 30
0.0
 10
4.32095
 20
-2.7761
 30
0.0
 10
4.32095
 20
-2.7761
 30
0.0
 10
4.20449
 20
-2.65955
 30
0.0
 10
4.08798
 20
-2.54302
 30
0.0
 10
3.97142
 20
-2.4265
 30
0.0
  0
SPLINE
  5
D5
330
1F
100
AcDbEntity
  8
Layer 1
 62
   242
370
     9
100
AcDbSpline
210
0.0
220
0.0
230
1.0
 70
    11
 71
     3
 72
    36
 73
    32
 74
     0
 42
0.0000000001
 43
0.0000000001
 12
1.0
 22
0.0
 32
0.0
 13
1.0
 23
0.0
 33
0.0
 40
0.0
 40
0.0
 40
0.0
 40
0.0
 40
0.1111111111111111
 40
0.1111111111111111
 40
0.1111111111111111
 40
0.1111111111111111
 40
0.2222222222222222
 40
0.2222222222222222
 40
0.2222222222222222
 40
0.2222222222222222
 40
0.3333333333333333
 40
0.3333333333333333
 40
0.3333333333333333
 40
0.3333333333333333
 40
0.4444444444444444
 40
0.4444444444444444
 40
0.4444444444444444
 40
0.4444444444444444
 40
0.5555555555555556
 40
0.5555555555555556
 40
0.5555555555555556
 40
0.5555555555555556
 40
0.6666666666666666
 40
0.6666666666666666
 40
0.6666666666666666
 40
0.6666666666666666
 40
0.7777777777777778
 40
0.7777777777777778
 40
0.7777777777777778
 40
0.7777777777777778
 40
1.0
 40
1.0
 40
1.0
 40
1.0
 10
4.79063
 20
-3.24566
 30
0.0
 10
4.99071
 20
-3.04564
 30
0.0
 10
5.19084
 20
-2.84553
 30
0.0
 10
5.39087
 20
-2.64541
 30
0.0
 10
5.39087
 20
-2.64541
 30
0.0
 10
5.66395
 20
-2.91851
 30
0.0
 10
5.93704
 20
-3.19153
 30
0.0
 10
6.21008
 20
-3.46464
 30
0.0
 10
6.21008
 20
-3.46464
 30
0.0
 10
6.44077
 20
-3.23393
 30
0.0
 10
6.67142
 20
-3.00326
 30
0.0
 10
6.90217
 20
-2.7725
 30
0.0
 10
6.90217
 20
-2.7725
 30
0.0
 10
7.0622
 20
-2.93264
 30
0.0
 10
7.22231
 20
-3.09268
 30
0.0
 10
7.38239
 20
-3.25279
 30
0.0
 10
7.38239
 20
-3.25279
 30
0.0
 10
7.15167
 20
-3.48345
 30
0.0
 10
6.92102
 20
-3.71415
 30
0.0
 10
6.6903
 20
-3.94481
 30
0.0
 10
6.6903
 20
-3.94481
 30
0.0
 10
6.92569
 20
-4.18023
 30
0.0
 10
7.16107
 20
-4.41563
 30
0.0
 10
7.39647
 20
-4.65098
 30
0.0
 10
7.39647
 20
-4.65098
 30
0.0
 10
7.19642
 20
-4.85109
 30
0.0
 10
6.99634
 20
-5.05118
 30
0.0
 10
6.79622
 20
-5.2513
 30
0.0
 10
6.79622
 20
-5.2513
 30
0.0
 10
6.12769
 20
-4.58278
 30
0.0
 10
5.45917
 20
-3.91423
 30
0.0
 10
4.79063
 20
-3.24566
 30
0.0
  0
SPLINE
  5
D6
330
1F
100
AcDbEntity
  8
Layer 1
 62
   242
370
     9
100
AcDbSpline
210
0.0
220
0.0
230
1.0
 70
    11
 71
     3
 72
    48
 73
    44
 74
     0
 42
0.0000000001
 43
0.0000000001
 12
1.0
 22
0.0
 32
0.0
 13
1.0
 23
0.0
 33
0.0
 40
0.0
 40
0.0
 40
0.0
 40
0.0
 40
0.0833333333333333
 40
0.0833333333333333
 40
0.0833333333333333
 40
0.0833333333333333
 40
0.1666666666666667
 40
0.1666666666666667
 40
0.1666666666666667
 40
0.1666666666666667
 40
0.25
 40
0.25
 40
0.25
 40
0.25
 40
0.3333333333333333
 40
0.3333333333333333
 40
0.3333333333333333
 40
0.3333333333333333
 40
0.4166666666666667
 40
0.4166666666666667
 40
0.4166666666666667
 40
0.4166666666666667
 40
0.5
 40
0.5
 40
0.5
 40
0.5
 40
0.5833333333333334
 40
0.5833333333333334
 40
0.5833333333333334
 40
0.5833333333333334
 40
0.6666666666666666
 40
0.6666666666666666
 40
0.6666666666666666
 40
0.6666666666666666
 40
0.75
 40
0.75
 40
0.75
 40
0.75
 40
0.8333333333333334
 40
0.8333333333333334
 40
0.8333333333333334
 40
0.8333333333333334
 40
1.0
 40
1.0
 40
1.0
 40
1.0
 10
4.56465
 20
2.62987
 30
0.0
 10
3.89843
 20
1.96372
 30
0.0
 10
3.23229
 20
1.2975
 30
0.0
 10
2.56609
 20
0.63135
 30
0.0
 10
2.56609
 20
0.63135
 30
0.0
 10
2.76385
 20
0.43358
 30
0.0
 10
2.96157
 20
0.23584
 30
0.0
 10
3.15931
 20
0.03813
 30
0.0
 10
3.15931
 20
0.03813
 30
0.0
 10
3.31467
 20
0.19351
 30
0.0
 10
3.47001
 20
0.34889
 30
0.0
 10
3.62539
 20
0.50422
 30
0.0
 10
3.62539
 20
0.50422
 30
0.0
 10
3.62539
 20
0.50422
 30
0.0
 10
3.62539
 20
0.50422
 30
0.0
 10
3.62539
 20
0.50422
 30
0.0
 10
3.62539
 20
0.50422
 30
0.0
 10
3.7007
 20
0.57957
 30
0.0
 10
3.77602
 20
0.65489
 30
0.0
 10
3.85137
 20
0.73017
 30
0.0
 10
3.85137
 20
0.73017
 30
0.0
 10
4.08677
 20
0.49481
 30
0.0
 10
4.3222
 20
0.25942
 30
0.0
 10
4.55757
 20
0.024
 30
0.0
 10
4.55757
 20
0.024
 30
0.0
 10
4.71764
 20
0.18408
 30
0.0
 10
4.87768
 20
0.34413
 30
0.0
 10
5.03778
 20
0.50422
 30
0.0
 10
5.03778
 20
0.50422
 30
0.0
 10
4.80242
 20
0.73966
 30
0.0
 10
4.567
 20
0.97504
 30
0.0
 10
4.33158
 20
1.21039
 30
0.0
 10
4.33158
 20
1.21039
 30
0.0
 10
4.60701
 20
1.48584
 30
0.0
 10
4.88242
 20
1.76124
 30
0.0
 10
5.15783
 20
2.03668
 30
0.0
 10
5.15783
 20
2.03668
 30
0.0
 10
5.05074
 20
2.14377
 30
0.0
 10
4.94362
 20
2.25089
 30
0.0
 10
4.83652
 20
2.35799
 30
0.0
 10
4.83652
 20
2.35799
 30
0.0
 10
4.74588
 20
2.44866
 30
0.0
 10
4.65524
 20
2.53927
 30
0.0
 10
4.56465
 20
2.62987
 30
0.0
  0
SPLINE
  5
D7
330
1F
100
AcDbEntity
  8
Layer 1
 62
   242
370
     9
100
AcDbSpline
210
0.0
220
0.0
230
1.0
 70
    11
 71
     3
 72
    36
 73
    32
 74
     0
 42
0.0000000001
 43
0.0000000001
 12
1.0
 22
0.0
 32
0.0
 13
1.0
 23
0.0
 33
0.0
 40
0.0
 40
0.0
 40
0.0
 40
0.0
 40
0.1111111111111111
 40
0.1111111111111111
 40
0.1111111111111111
 40
0.1111111111111111
 40
0.2222222222222222
 40
0.2222222222222222
 40
0.2222222222222222
 40
0.2222222222222222
 40
0.3333333333333333
 40
0.3333333333333333
 40
0.3333333333333333
 40
0.3333333333333333
 40
0.4444444444444444
 40
0.4444444444444444
 40
0.4444444444444444
 40
0.4444444444444444
 40
0.5555555555555556
 40
0.5555555555555556
 40
0.5555555555555556
 40
0.5555555555555556
 40
0.6666666666666666
 40
0.6666666666666666
 40
0.6666666666666666
 40
0.6666666666666666
 40
0.7777777777777778
 40
0.7777777777777778
 40
0.7777777777777778
 40
0.7777777777777778
 40
1.0
 40
1.0
 40
1.0
 40
1.0
 10
5.38383
 20
1.81068
 30
0.0
 10
5.18374
 20
1.61059
 30
0.0
 10
4.98364
 20
1.41052
 30
0.0
 10
4.78356
 20
1.21039
 30
0.0
 10
4.78356
 20
1.21039
 30
0.0
 10
5.01896
 20
0.97504
 30
0.0
 10
5.25431
 20
0.73966
 30
0.0
 10
5.48974
 20
0.50422
 30
0.0
 10
5.48974
 20
0.50422
 30
0.0
 10
5.25431
 20
0.26882
 30
0.0
 10
5.01896
 20
0.0334
 30
0.0
 10
4.78356
 20
-0.20196
 30
0.0
 10
4.78356
 20
-0.20196
 30
0.0
 10
4.94363
 20
-0.36205
 30
0.0
 10
5.10371
 20
-0.52213
 30
0.0
 10
5.26378
 20
-0.68218
 30
0.0
 10
5.26378
 20
-0.68218
 30
0.0
 10
5.49912
 20
-0.44678
 30
0.0
 10
5.73454
 20
-0.21141
 30
0.0
 10
5.96998
 20
0.024
 30
0.0
 10
5.96998
 20
0.024
 30
0.0
 10
6.24302
 20
-0.24909
 30
0.0
 10
6.51609
 20
-0.52213
 30
0.0
 10
6.78913
 20
-0.7952
 30
0.0
 10
6.78913
 20
-0.7952
 30
0.0
 10
6.98924
 20
-0.59507
 30
0.0
 10
7.18935
 20
-0.39502
 30
0.0
 10
7.38944
 20
-0.19493
 30
0.0
 10
7.38944
 20
-0.19493
 30
0.0
 10
6.7209
 20
0.47361
 30
0.0
 10
6.05237
 20
1.14214
 30
0.0
 10
5.38383
 20
1.81068
 30
0.0
  0
SPLINE
  5
D8
330
1F
100
AcDbEntity
  8
Layer 1
 62
   242
370
     9
100
AcDbSpline
210
0.0
220
0.0
230
1.0
 70
    11
 71
     3
 72
    36
 73
    32
 74
     0
 42
0.0000000001
 43
0.0000000001
 12
1.0
 22
0.0
 32
0.0
 13
1.0
 23
0.0
 33
0.0
 40
0.0
 40
0.0
 40
0.0
 40
0.0
 40
0.1111111111111111
 40
0.1111111111111111
 40
0.1111111111111111
 40
0.1111111111111111
 40
0.2222222222222222
 40
0.2222222222222222
 40
0.2222222222222222
 40
0.2222222222222222
 40
0.3333333333333333
 40
0.3333333333333333
 40
0.3333333333333333
 40
0.3333333333333333
 40
0.4444444444444444
 40
0.4444444444444444
 40
0.4444444444444444
 40
0.4444444444444444
 40
0.5555555555555556
 40
0.5555555555555556
 40
0.5555555555555556
 40
0.5555555555555556
 40
0.6666666666666666
 40
0.6666666666666666
 40
0.6666666666666666
 40
0.6666666666666666
 40
0.7777777777777778
 40
0.7777777777777778
 40
0.7777777777777778
 40
0.7777777777777778
 40
1.0
 40
1.0
 40
1.0
 40
1.0
 10
2.33302
 20
4.86149
 30
0.0
 10
2.13294
 20
4.66135
 30
0.0
 10
1.93287
 20
4.46127
 30
0.0
 10
1.73277
 20
4.26118
 30
0.0
 10
1.73277
 20
4.26118
 30
0.0
 10
1.96817
 20
4.02579
 30
0.0
 10
2.20359
 20
3.7904
 30
0.0
 10
2.43899
 20
3.555
 30
0.0
 10
2.43899
 20
3.555
 30
0.0
 10
2.20359
 20
3.31962
 30
0.0
 10
1.96817
 20
3.08418
 30
0.0
 10
1.73277
 20
2.84878
 30
0.0
 10
1.73277
 20
2.84878
 30
0.0
 10
1.89283
 20
2.68873
 30
0.0
 10
2.05296
 20
2.52863
 30
0.0
 10
2.21299
 20
2.36856
 30
0.0
 10
2.21299
 20
2.36856
 30
0.0
 10
2.44841
 20
2.604
 30
0.0
 10
2.68377
 20
2.83943
 30
0.0
 10
2.91921
 20
3.07478
 30
0.0
 10
2.91921
 20
3.07478
 30
0.0
 10
3.19224
 20
2.80168
 30
0.0
 10
3.46535
 20
2.52863
 30
0.0
 10
3.73834
 20
2.25554
 30
0.0
 10
3.73834
 20
2.25554
 30
0.0
 10
3.93846
 20
2.45566
 30
0.0
 10
4.13854
 20
2.65576
 30
0.0
 10
4.33865
 20
2.85586
 30
0.0
 10
4.33865
 20
2.85586
 30
0.0
 10
3.67014
 20
3.52439
 30
0.0
 10
3.00159
 20
4.19292
 30
0.0
 10
2.33302
 20
4.86149
 30
0.0
  0
SPLINE
  5
D9
330
1F
100
AcDbEntity
  8
Layer 1
 62
   242
370
     9
100
AcDbSpline
210
0.0
220
0.0
230
1.0
 70
    11
 71
     3
 72
    48
 73
    44
 74
     0
 42
0.0000000001
 43
0.0000000001
 12
1.0
 22
0.0
 32
0.0
 13
1.0
 23
0.0
 33
0.0
 40
0.0
 40
0.0
 40
0.0
 40
0.0
 40
0.0833333333333333
 40
0.0833333333333333
 40
0.0833333333333333
 40
0.0833333333333333
 40
0.1666666666666667
 40
0.1666666666666667
 40
0.1666666666666667
 40
0.1666666666666667
 40
0.25
 40
0.25
 40
0.25
 40
0.25
 40
0.3333333333333333
 40
0.3333333333333333
 40
0.3333333333333333
 40
0.3333333333333333
 40
0.4166666666666667
 40
0.4166666666666667
 40
0.4166666666666667
 40
0.4166666666666667
 40
0.5
 40
0.5
 40
0.5
 40
0.5
 40
0.5833333333333334
 40
0.5833333333333334
 40
0.5833333333333334
 40
0.5833333333333334
 40
0.6666666666666666
 40
0.6666666666666666
 40
0.6666666666666666
 40
0.6666666666666666
 40
0.75
 40
0.75
 40
0.75
 40
0.75
 40
0.8333333333333334
 40
0.8333333333333334
 40
0.8333333333333334
 40
0.8333333333333334
 40
1.0
 40
1.0
 40
1.0
 40
1.0
 10
4.56465
 20
-3.47167
 30
0.0
 10
3.89843
 20
-4.13782
 30
0.0
 10
3.23229
 20
-4.80407
 30
0.0
 10
2.56609
 20
-5.47021
 30
0.0
 10
2.56609
 20
-5.47021
 30
0.0
 10
2.76385
 20
-5.66794
 30
0.0
 10
2.96157
 20
-5.86568
 30
0.0
 10
3.15931
 20
-6.06344
 30
0.0
 10
3.15931
 20
-6.06344
 30
0.0
 10
3.31467
 20
-5.90808
 30
0.0
 10
3.47001
 20
-5.7527
 30
0.0
 10
3.62539
 20
-5.59732
 30
0.0
 10
3.62539
 20
-5.59732
 30
0.0
 10
3.62539
 20
-5.59732
 30
0.0
 10
3.62539
 20
-5.59732
 30
0.0
 10
3.62539
 20
-5.59732
 30
0.0
 10
3.62539
 20
-5.59732
 30
0.0
 10
3.7007
 20
-5.52202
 30
0.0
 10
3.77602
 20
-5.44668
 30
0.0
 10
3.85137
 20
-5.37134
 30
0.0
 10
3.85137
 20
-5.37134
 30
0.0
 10
4.08677
 20
-5.60675
 30
0.0
 10
4.3222
 20
-5.84215
 30
0.0
 10
4.55757
 20
-6.07756
 30
0.0
 10
4.55757
 20
-6.07756
 30
0.0
 10
4.71764
 20
-5.91744
 30
0.0
 10
4.87768
 20
-5.7574
 30
0.0
 10
5.03778
 20
-5.59732
 30
0.0
 10
5.03778
 20
-5.59732
 30
0.0
 10
4.80242
 20
-5.36195
 30
0.0
 10
4.567
 20
-5.12653
 30
0.0
 10
4.33158
 20
-4.89114
 30
0.0
 10
4.33158
 20
-4.89114
 30
0.0
 10
4.60701
 20
-4.61575
 30
0.0
 10
4.88242
 20
-4.34031
 30
0.0
 10
5.15783
 20
-4.06493
 30
0.0
 10
5.15783
 20
-4.06493
 30
0.0
 10
5.06016
 20
-3.96719
 30
0.0
 10
4.96245
 20
-3.86952
 30
0.0
 10
4.86477
 20
-3.77182
 30
0.0
 10
4.86477
 20
-3.77182
 30
0.0
 10
4.7647
 20
-3.67175
 30
0.0
 10
4.66468
 20
-3.57171
 30
0.0
 10
4.56465
 20
-3.47167
 30
0.0
  0
SPLINE
  5
DA
330
1F
100
AcDbEntity
  8
Layer 1
 62
   242
370
     9
100
AcDbSpline
210
0.0
220
0.0
230
1.0
 70
    11
 71
     3
 72
    36
 73
    32
 74
     0
 42
0.0000000001
 43
0.0000000001
 12
1.0
 22
0.0
 32
0.0
 13
1.0
 23
0.0
 33
0.0
 40
0.0
 40
0.0
 40
0.0
 40
0.0
 40
0.1111111111111111
 40
0.1111111111111111
 40
0.1111111111111111
 40
0.1111111111111111
 40
0.2222222222222222
 40
0.2222222222222222
 40
0.2222222222222222
 40
0.2222222222222222
 40
0.3333333333333333
 40
0.3333333333333333
 40
0.3333333333333333
 40
0.3333333333333333
 40
0.4444444444444444
 40
0.4444444444444444
 40
0.4444444444444444
 40
0.4444444444444444
 40
0.5555555555555556
 40
0.5555555555555556
 40
0.5555555555555556
 40
0.5555555555555556
 40
0.6666666666666666
 40
0.6666666666666666
 40
0.6666666666666666
 40
0.6666666666666666
 40
0.7777777777777778
 40
0.7777777777777778
 40
0.7777777777777778
 40
0.7777777777777778
 40
1.0
 40
1.0
 40
1.0
 40
1.0
 10
2.34016
 20
-5.69617
 30
0.0
 10
2.14004
 20
-5.89628
 30
0.0
 10
1.93993
 20
-6.09638
 30
0.0
 10
1.73987
 20
-6.29648
 30
0.0
 10
1.73987
 20
-6.29648
 30
0.0
 10
2.40838
 20
-6.96502
 30
0.0
 10
3.07689
 20
-7.63355
 30
0.0
 10
3.74545
 20
-8.30209
 30
0.0
 10
3.74545
 20
-8.30209
 30
0.0
 10
3.94552
 20
-8.10199
 30
0.0
 10
4.14562
 20
-7.90189
 30
0.0
 10
4.34573
 20
-7.70178
 30
0.0
 10
4.34573
 20
-7.70178
 30
0.0
 10
4.11032
 20
-7.4664
 30
0.0
 10
3.87491
 20
-7.23102
 30
0.0
 10
3.63951
 20
-6.9956
 30
0.0
 10
3.63951
 20
-6.9956
 30
0.0
 10
3.8702
 20
-6.76491
 30
0.0
 10
4.1009
 20
-6.53422
 30
0.0
 10
4.33158
 20
-6.30352
 30
0.0
 10
4.33158
 20
-6.30352
 30
0.0
 10
4.17152
 20
-6.14345
 30
0.0
 10
4.01144
 20
-5.98337
 30
0.0
 10
3.85137
 20
-5.82329
 30
0.0
 10
3.85137
 20
-5.82329
 30
0.0
 10
3.6207
 20
-6.05402
 30
0.0
 10
3.38995
 20
-6.28469
 30
0.0
 10
3.15931
 20
-6.51538
 30
0.0
 10
3.15931
 20
-6.51538
 30
0.0
 10
2.88625
 20
-6.24232
 30
0.0
 10
2.61317
 20
-5.96931
 30
0.0
 10
2.34016
 20
-5.69617
 30
0.0
  0
SPLINE
  5
DB
330
1F
100
AcDbEntity
  8
Layer 1
 62
   242
370
     9
100
AcDbSpline
210
0.0
220
0.0
230
1.0
 70
    11
 71
     3
 72
    36
 73
    32
 74
     0
 42
0.0000000001
 43
0.0000000001
 12
1.0
 22
0.0
 32
0.0
 13
1.0
 23
0.0
 33
0.0
 40
0.0
 40
0.0
 40
0.0
 40
0.0
 40
0.1111111111111111
 40
0.1111111111111111
 40
0.1111111111111111
 40
0.1111111111111111
 40
0.2222222222222222
 40
0.2222222222222222
 40
0.2222222222222222
 40
0.2222222222222222
 40
0.3333333333333333
 40
0.3333333333333333
 40
0.3333333333333333
 40
0.3333333333333333
 40
0.4444444444444444
 40
0.4444444444444444
 40
0.4444444444444444
 40
0.4444444444444444
 40
0.5555555555555556
 40
0.5555555555555556
 40
0.5555555555555556
 40
0.5555555555555556
 40
0.6666666666666666
 40
0.6666666666666666
 40
0.6666666666666666
 40
0.6666666666666666
 40
0.7777777777777778
 40
0.7777777777777778
 40
0.7777777777777778
 40
0.7777777777777778
 40
1.0
 40
1.0
 40
1.0
 40
1.0
 10
5.38383
 20
-4.29084
 30
0.0
 10
5.18374
 20
-4.49094
 30
0.0
 10
4.98364
 20
-4.69104
 30
0.0
 10
4.78356
 20
-4.89114
 30
0.0
 10
4.78356
 20
-4.89114
 30
0.0
 10
5.01896
 20
-5.12653
 30
0.0
 10
5.25431
 20
-5.36195
 30
0.0
 10
5.48974
 20
-5.59732
 30
0.0
 10
5.48974
 20
-5.59732
 30
0.0
 10
5.25431
 20
-5.83275
 30
0.0
 10
5.01896
 20
-6.0681
 30
0.0
 10
4.78356
 20
-6.30352
 30
0.0
 10
4.78356
 20
-6.30352
 30
0.0
 10
4.94363
 20
-6.4636
 30
0.0
 10
5.10371
 20
-6.62365
 30
0.0
 10
5.26378
 20
-6.78375
 30
0.0
 10
5.26378
 20
-6.78375
 30
0.0
 10
5.49912
 20
-6.54833
 30
0.0
 10
5.73454
 20
-6.31297
 30
0.0
 10
5.96998
 20
-6.07756
 30
0.0
 10
5.96998
 20
-6.07756
 30
0.0
 10
6.24302
 20
-6.3506
 30
0.0
 10
6.51609
 20
-6.62365
 30
0.0
 10
6.78913
 20
-6.89674
 30
0.0
 10
6.78913
 20
-6.89674
 30
0.0
 10
6.98924
 20
-6.69665
 30
0.0
 10
7.18935
 20
-6.49655
 30
0.0
 10
7.38944
 20
-6.29648
 30
0.0
 10
7.38944
 20
-6.29648
 30
0.0
 10
6.7209
 20
-5.6279
 30
0.0
 10
6.05237
 20
-4.95942
 30
0.0
 10
5.38383
 20
-4.29084
 30
0.0
  0
SPLINE
  5
DC
330
1F
100
AcDbEntity
  8
Layer 1
 62
   242
370
     9
100
AcDbSpline
210
0.0
220
0.0
230
1.0
 70
    11
 71
     3
 72
    40
 73
    36
 74
     0
 42
0.0000000001
 43
0.0000000001
 12
1.0
 22
0.0
 32
0.0
 13
1.0
 23
0.0
 33
0.0
 40
0.0
 40
0.0
 40
0.0
 40
0.0
 40
0.1
 40
0.1
 40
0.1
 40
0.1
 40
0.2
 40
0.2
 40
0.2
 40
0.2
 40
0.3
 40
0.3
 40
0.3
 40
0.3
 40
0.4
 40
0.4
 40
0.4
 40
0.4
 40
0.5
 40
0.5
 40
0.5
 40
0.5
 40
0.6
 40
0.6
 40
0.6
 40
0.6
 40
0.7
 40
0.7
 40
0.7
 40
0.7
 40
0.8
 40
0.8
 40
0.8
 40
0.8
 40
1.0
 40
1.0
 40
1.0
 40
1.0
 10
6.56316
 20
-7.12272
 30
0.0
 10
6.36542
 20
-6.92501
 30
0.0
 10
6.1677
 20
-6.72729
 30
0.0
 10
5.96998
 20
-6.52953
 30
0.0
 10
5.96998
 20
-6.52953
 30
0.0
 10
5.73454
 20
-6.76491
 30
0.0
 10
5.49912
 20
-7.00028
 30
0.0
 10
5.26378
 20
-7.23573
 30
0.0
 10
5.26378
 20
-7.23573
 30
0.0
 10
5.02837
 20
-7.00028
 30
0.0
 10
4.79297
 20
-6.76491
 30
0.0
 10
4.55757
 20
-6.52953
 30
0.0
 10
4.55757
 20
-6.52953
 30
0.0
 10
4.4022
 20
-6.68488
 30
0.0
 10
4.24684
 20
-6.84022
 30
0.0
 10
4.09148
 20
-6.9956
 30
0.0
 10
4.09148
 20
-6.9956
 30
0.0
 10
4.32689
 20
-7.23102
 30
0.0
 10
4.56228
 20
-7.4664
 30
0.0
 10
4.79767
 20
-7.70178
 30
0.0
 10
4.79767
 20
-7.70178
 30
0.0
 10
4.52224
 20
-7.97725
 30
0.0
 10
4.24684
 20
-8.25264
 30
0.0
 10
3.97142
 20
-8.52806
 30
0.0
 10
3.97142
 20
-8.52806
 30
0.0
 10
4.09736
 20
-8.654
 30
0.0
 10
4.22331
 20
-8.77994
 30
0.0
 10
4.34925
 20
-8.90587
 30
0.0
 10
4.34925
 20
-8.90587
 30
0.0
 10
4.42106
 20
-8.97767
 30
0.0
 10
4.49283
 20
-9.04946
 30
0.0
 10
4.56465
 20
-9.12126
 30
0.0
 10
4.56465
 20
-9.12126
 30
0.0
 10
5.23081
 20
-8.45507
 30
0.0
 10
5.89701
 20
-7.78891
 30
0.0
 10
6.56316
 20
-7.12272
 30
0.0
  0
SPLINE
  5
DD
330
1F
100
AcDbEntity
  8
Layer 1
 62
   242
370
     9
100
AcDbSpline
210
0.0
220
0.0
230
1.0
 70
    11
 71
     3
 72
    36
 73
    32
 74
     0
 42
0.0000000001
 43
0.0000000001
 12
1.0
 22
0.0
 32
0.0
 13
1.0
 23
0.0
 33
0.0
 40
0.0
 40
0.0
 40
0.0
 40
0.0
 40
0.1111111111111111
 40
0.1111111111111111
 40
0.1111111111111111
 40
0.1111111111111111
 40
0.2222222222222222
 40
0.2222222222222222
 40
0.2222222222222222
 40
0.2222222222222222
 40
0.3333333333333333
 40
0.3333333333333333
 40
0.3333333333333333
 40
0.3333333333333333
 40
0.4444444444444444
 40
0.4444444444444444
 40
0.4444444444444444
 40
0.4444444444444444
 40
0.5555555555555556
 40
0.5555555555555556
 40
0.5555555555555556
 40
0.5555555555555556
 40
0.6666666666666666
 40
0.6666666666666666
 40
0.6666666666666666
 40
0.6666666666666666
 40
0.7777777777777778
 40
0.7777777777777778
 40
0.7777777777777778
 40
0.7777777777777778
 40
1.0
 40
1.0
 40
1.0
 40
1.0
 10
2.33302
 20
-1.24009
 30
0.0
 10
2.13294
 20
-1.4402
 30
0.0
 10
1.93287
 20
-1.64027
 30
0.0
 10
1.73277
 20
-1.84035
 30
0.0
 10
1.73277
 20
-1.84035
 30
0.0
 10
1.96817
 20
-2.07573
 30
0.0
 10
2.20359
 20
-2.3112
 30
0.0
 10
2.43899
 20
-2.54659
 30
0.0
 10
2.43899
 20
-2.54659
 30
0.0
 10
2.20359
 20
-2.78196
 30
0.0
 10
1.96817
 20
-3.01736
 30
0.0
 10
1.73277
 20
-3.25279
 30
0.0
 10
1.73277
 20
-3.25279
 30
0.0
 10
1.89283
 20
-3.41283
 30
0.0
 10
2.05296
 20
-3.57288
 30
0.0
 10
2.21299
 20
-3.73296
 30
0.0
 10
2.21299
 20
-3.73296
 30
0.0
 10
2.44841
 20
-3.49759
 30
0.0
 10
2.68377
 20
-3.26218
 30
0.0
 10
2.91921
 20
-3.02678
 30
0.0
 10
2.91921
 20
-3.02678
 30
0.0
 10
3.19224
 20
-3.29984
 30
0.0
 10
3.46535
 20
-3.57288
 30
0.0
 10
3.73834
 20
-3.84593
 30
0.0
 10
3.73834
 20
-3.84593
 30
0.0
 10
3.93846
 20
-3.64584
 30
0.0
 10
4.13854
 20
-3.44579
 30
0.0
 10
4.33865
 20
-3.24566
 30
0.0
 10
4.33865
 20
-3.24566
 30
0.0
 10
3.67014
 20
-2.57717
 30
0.0
 10
3.00159
 20
-1.90862
 30
0.0
 10
2.33302
 20
-1.24009
 30
0.0
  0
SPLINE
  5
DE
330
1F
100
AcDbEntity
  8
Layer 1
 62
   242
370
     9
100
AcDbSpline
210
0.0
220
0.0
230
1.0
 70
    11
 71
     3
 72
    36
 73
    32
 74
     0
 42
0.0000000001
 43
0.0000000001
 12
1.0
 22
0.0
 32
0.0
 13
1.0
 23
0.0
 33
0.0
 40
0.0
 40
0.0
 40
0.0
 40
0.0
 40
0.1111111111111111
 40
0.1111111111111111
 40
0.1111111111111111
 40
0.1111111111111111
 40
0.2222222222222222
 40
0.2222222222222222
 40
0.2222222222222222
 40
0.2222222222222222
 40
0.3333333333333333
 40
0.3333333333333333
 40
0.3333333333333333
 40
0.3333333333333333
 40
0.4444444444444444
 40
0.4444444444444444
 40
0.4444444444444444
 40
0.4444444444444444
 40
0.5555555555555556
 40
0.5555555555555556
 40
0.5555555555555556
 40
0.5555555555555556
 40
0.6666666666666666
 40
0.6666666666666666
 40
0.6666666666666666
 40
0.6666666666666666
 40
0.7777777777777778
 40
0.7777777777777778
 40
0.7777777777777778
 40
0.7777777777777778
 40
1.0
 40
1.0
 40
1.0
 40
1.0
 10
2.33302
 20
-7.34163
 30
0.0
 10
2.13294
 20
-7.54173
 30
0.0
 10
1.93287
 20
-7.74186
 30
0.0
 10
1.73277
 20
-7.94191
 30
0.0
 10
1.73277
 20
-7.94191
 30
0.0
 10
1.96817
 20
-8.17727
 30
0.0
 10
2.20359
 20
-8.4127
 30
0.0
 10
2.43899
 20
-8.6481
 30
0.0
 10
2.43899
 20
-8.6481
 30
0.0
 10
2.20359
 20
-8.88348
 30
0.0
 10
1.96817
 20
-9.11889
 30
0.0
 10
1.73277
 20
-9.35429
 30
0.0
 10
1.73277
 20
-9.35429
 30
0.0
 10
1.89283
 20
-9.51437
 30
0.0
 10
2.05296
 20
-9.67444
 30
0.0
 10
2.21299
 20
-9.83449
 30
0.0
 10
2.21299
 20
-9.83449
 30
0.0
 10
2.44841
 20
-9.59912
 30
0.0
 10
2.68377
 20
-9.36372
 30
0.0
 10
2.91921
 20
-9.1283
 30
0.0
 10
2.91921
 20
-9.1283
 30
0.0
 10
3.19224
 20
-9.4014
 30
0.0
 10
3.46535
 20
-9.67444
 30
0.0
 10
3.73834
 20
-9.94751
 30
0.0
 10
3.73834
 20
-9.94751
 30
0.0
 10
3.93846
 20
-9.74743
 30
0.0
 10
4.13854
 20
-9.54732
 30
0.0
 10
4.33865
 20
-9.34724
 30
0.0
 10
4.33865
 20
-9.34724
 30
0.0
 10
3.67014
 20
-8.67872
 30
0.0
 10
3.00159
 20
-8.01018
 30
0.0
 10
2.33302
 20
-7.34163
 30
0.0
  0
ENDSEC
  0
SECTION
  2
OBJECTS
  0
DICTIONARY
  5
C
330
0
100
AcDbDictionary
281
     1
  3
ACAD_GROUP
350
D
  3
ACAD_LAYOUT
350
1A
  3
ACAD_MATERIAL
350
3B
  3
ACAD_MLEADERSTYLE
350
E1
  3
ACAD_MLINESTYLE
350
17
  3
ACAD_PLOTSETTINGS
350
19
  3
ACAD_PLOTSTYLENAME
350
E
  3
ACAD_VISUALSTYLE
350
2A
  3
AcDbVariableDictionary
350
DF
  0
DICTIONARY
  5
D
102
{ACAD_REACTORS
330
C
102
}
330
C
100
AcDbDictionary
281
     1
  0
DICTIONARY
  5
1A
102
{ACAD_REACTORS
330
C
102
}
330
C
100
AcDbDictionary
281
     1
  3
Layout1
350
1E
  3
Layout2
350
26
  3
Model
350
22
  0
DICTIONARY
  5
3B
102
{ACAD_REACTORS
330
C
102
}
330
C
100
AcDbDictionary
281
     1
  3
ByBlock
350
3D
  3
ByLayer
350
3C
  3
Global
350
3E
  0
DICTIONARY
  5
E1
102
{ACAD_REACTORS
330
C
102
}
330
C
100
AcDbDictionary
281
     1
  0
DICTIONARY
  5
17
102
{ACAD_REACTORS
330
C
102
}
330
C
100
AcDbDictionary
281
     1
  3
Standard
350
18
  0
DICTIONARY
  5
19
102
{ACAD_REACTORS
330
C
102
}
330
C
100
AcDbDictionary
281
     1
  0
ACDBDICTIONARYWDFLT
  5
E
102
{ACAD_REACTORS
330
C
102
}
330
C
100
AcDbDictionary
281
     1
  3
Normal
350
F
100
AcDbDictionaryWithDefault
340
F
  0
DICTIONARY
  5
2A
102
{ACAD_REACTORS
330
C
102
}
330
C
100
AcDbDictionary
281
     1
  3
2dWireframe
350
2F
  3
3D Hidden
350
31
  3
3dWireframe
350
30
  3
Basic
350
32
  3
Brighten
350
36
  3
ColorChange
350
3A
  3
Conceptual
350
34
  3
Dim
350
35
  3
Facepattern
350
39
  3
Flat
350
2B
  3
FlatWithEdges
350
2C
  3
Gouraud
350
2D
  3
GouraudWithEdges
350
2E
  3
Linepattern
350
38
  3
Realistic
350
33
  3
Thicken
350
37
  0
DICTIONARY
  5
DF
102
{ACAD_REACTORS
330
C
102
}
330
C
100
AcDbDictionary
281
     1
  3
DIMASSOC
350
E2
  3
HIDETEXT
350
E3
  0
LAYOUT
  5
1E
102
{ACAD_REACTORS
330
1A
102
}
330
1A
100
AcDbPlotSettings
  1

  2
none_device
  4

  6

 40
0.0
 41
0.0
 42
0.0
 43
0.0
 44
0.0
 45
0.0
 46
0.0
 47
0.0
 48
0.0
 49
0.0
140
0.0
141
0.0
142
1.0
143
1.0
 70
   688
 72
     0
 73
     0
 74
     5
  7

 75
    16
147
1.0
148
0.0
149
0.0
100
AcDbLayout
  1
Layout1
 70
     1
 71
     1
 10
0.0
 20
0.0
 11
12.0
 21
9.0
 12
0.0
 22
0.0
 32
0.0
 14
1.000000000000000E+20
 24
1.000000000000000E+20
 34
1.000000000000000E+20
 15
-1.000000000000000E+20
 25
-1.000000000000000E+20
 35
-1.000000000000000E+20
146
0.0
 13
0.0
 23
0.0
 33
0.0
 16
1.0
 26
0.0
 36
0.0
 17
0.0
 27
1.0
 37
0.0
 76
     0
330
1B
  0
LAYOUT
  5
26
102
{ACAD_REACTORS
330
1A
102
}
330
1A
100
AcDbPlotSettings
  1

  2
none_device
  4

  6

 40
0.0
 41
0.0
 42
0.0
 43
0.0
 44
0.0
 45
0.0
 46
0.0
 47
0.0
 48
0.0
 49
0.0
140
0.0
141
0.0
142
1.0
143
1.0
 70
   688
 72
     0
 73
     0
 74
     5
  7

 75
    16
147
1.0
148
0.0
149
0.0
100
AcDbLayout
  1
Layout2
 70
     1
 71
     2
 10
0.0
 20
0.0
 11
0.0
 21
0.0
 12
0.0
 22
0.0
 32
0.0
 14
0.0
 24
0.0
 34
0.0
 15
0.0
 25
0.0
 35
0.0
146
0.0
 13
0.0
 23
0.0
 33
0.0
 16
1.0
 26
0.0
 36
0.0
 17
0.0
 27
1.0
 37
0.0
 76
     0
330
23
  0
LAYOUT
  5
22
102
{ACAD_REACTORS
330
1A
102
}
330
1A
100
AcDbPlotSettings
  1

  2
none_device
  4

  6

 40
0.0
 41
0.0
 42
0.0
 43
0.0
 44
0.0
 45
0.0
 46
0.0
 47
0.0
 48
0.0
 49
0.0
140
0.0
141
0.0
142
1.0
143
1.0
 70
  1712
 72
     0
 73
     0
 74
     0
  7

 75
     0
147
1.0
148
0.0
149
0.0
100
AcDbLayout
  1
Model
 70
     1
 71
     0
 10
0.0
 20
0.0
 11
12.0
 21
9.0
 12
0.0
 22
0.0
 32
0.0
 14
-9.89682
 24
-11.1699
 34
0.0
 15
8.56329
 25
16.88161
 35
0.0
146
0.0
 13
0.0
 23
0.0
 33
0.0
 16
1.0
 26
0.0
 36
0.0
 17
0.0
 27
1.0
 37
0.0
 76
     0
330
1F
331
29
  0
MATERIAL
  5
3D
102
{ACAD_REACTORS
330
3B
102
}
102
{ACAD_XDICTIONARY
360
106
102
}
330
3B
100
AcDbMaterial
  1
ByBlock
  0
MATERIAL
  5
3C
102
{ACAD_REACTORS
330
3B
102
}
102
{ACAD_XDICTIONARY
360
104
102
}
330
3B
100
AcDbMaterial
  1
ByLayer
  0
MATERIAL
  5
3E
102
{ACAD_REACTORS
330
3B
102
}
102
{ACAD_XDICTIONARY
360
108
102
}
330
3B
100
AcDbMaterial
  1
Global
  0
MLINESTYLE
  5
18
102
{ACAD_REACTORS
330
17
102
}
330
17
100
AcDbMlineStyle
  2
Standard
 70
     0
  3

 62
   256
 51
90.0
 52
90.0
 71
     2
 49
0.5
 62
   256
  6
BYLAYER
 49
-0.5
 62
   256
  6
BYLAYER
  0
ACDBPLACEHOLDER
  5
F
102
{ACAD_REACTORS
330
E
102
}
330
E
  0
VISUALSTYLE
  5
2F
102
{ACAD_REACTORS
330
2A
102
}
102
{ACAD_XDICTIONARY
360
EC
102
}
330
2A
100
AcDbVisualStyle
  2
2dWireframe
 70
     4
 71
     0
 72
     2
 73
     0
 90
        0
 40
-0.6
 41
-30.0
 62
     5
 63
     7
 74
     1
 91
        4
 64
     7
 65
   257
 75
     1
175
     1
 42
1.0
 92
        0
 66
   257
 43
1.0
 76
     1
 77
     6
 78
     2
 67
     7
 79
     5
170
     0
171
     0
290
     0
174
     0
 93
        1
 44
0.0
173
     0
291
     0
 45
0.0
1001
ACAD
1000
AcDbSavedByObjectVersion
1070
     0
  0
VISUALSTYLE
  5
31
102
{ACAD_REACTORS
330
2A
102
}
102
{ACAD_XDICTIONARY
360
F0
102
}
330
2A
100
AcDbVisualStyle
  2
3D Hidden
 70
     6
 71
     1
 72
     2
 73
     2
 90
        0
 40
-0.6
 41
-30.0
 62
     5
 63
     7
 74
     2
 91
        2
 64
     7
 65
   257
 75
     2
175
     1
 42
40.0
 92
        0
 66
   257
 43
1.0
 76
     1
 77
     6
 78
     2
 67
     7
 79
     3
170
     0
171
     0
290
     0
174
     0
 93
        1
 44
0.0
173
     0
291
     0
 45
0.0
1001
ACAD
1000
AcDbSavedByObjectVersion
1070
     0
  0
VISUALSTYLE
  5
30
102
{ACAD_REACTORS
330
2A
102
}
102
{ACAD_XDICTIONARY
360
EE
102
}
330
2A
100
AcDbVisualStyle
  2
3dWireframe
 70
     5
 71
     0
 72
     2
 73
     0
 90
        0
 40
-0.6
 41
-30.0
 62
     5
 63
     7
 74
     1
 91
        4
 64
     7
 65
   257
 75
     1
175
     1
 42
1.0
 92
        0
 66
   257
 43
1.0
 76
     1
 77
     6
 78
     2
 67
     7
 79
     5
170
     0
171
     0
290
     0
174
     0
 93
        1
 44
0.0
173
     0
291
     0
 45
0.0
1001
ACAD
1000
AcDbSavedByObjectVersion
1070
     0
  0
VISUALSTYLE
  5
32
102
{ACAD_REACTORS
330
2A
102
}
102
{ACAD_XDICTIONARY
360
F2
102
}
330
2A
100
AcDbVisualStyle
  2
Basic
 70
     7
 71
     1
 72
     0
 73
     1
 90
        0
 40
-0.6
 41
-30.0
 62
     5
 63
     7
 74
     0
 91
        4
 64
     7
 65
   257
 75
     1
175
     1
 42
1.0
 92
        8
 66
     7
 43
1.0
 76
     1
 77
     6
 78
     2
 67
     7
 79
     5
170
     0
171
     0
290
     0
174
     0
 93
        1
 44
0.0
173
     0
291
     1
 45
0.0
1001
ACAD
1000
AcDbSavedByObjectVersion
1070
     0
  0
VISUALSTYLE
  5
36
102
{ACAD_REACTORS
330
2A
102
}
102
{ACAD_XDICTIONARY
360
FA
102
}
330
2A
100
AcDbVisualStyle
  2
Brighten
 70
    12
 71
     2
 72
     2
 73
     0
 90
        0
 40
-0.6
 41
-30.0
 62
     5
 63
     7
 74
     1
 91
        4
 64
     7
 65
   257
 75
     1
175
     1
 42
1.0
 92
        8
 66
     7
 43
1.0
 76
     1
 77
     6
 78
     2
 67
     7
 79
     5
170
     0
171
     0
290
     0
174
     0
 93
        1
 44
50.0
173
     0
291
     1
 45
0.0
1001
ACAD
1000
AcDbSavedByObjectVersion
1070
     0
  0
VISUALSTYLE
  5
3A
102
{ACAD_REACTORS
330
2A
102
}
102
{ACAD_XDICTIONARY
360
102
102
}
330
2A
100
AcDbVisualStyle
  2
ColorChange
 70
    16
 71
     2
 72
     2
 73
     3
 90
        0
 40
-0.6
 41
-30.0
 62
     5
 63
     8
 74
     1
 91
        4
 64
     7
 65
   257
 75
     1
175
     1
 42
1.0
 92
        8
 66
     8
 43
1.0
 76
     1
 77
     6
 78
     2
 67
     7
 79
     5
170
     0
171
     0
290
     0
174
     0
 93
        1
 44
0.0
173
     0
291
     1
 45
0.0
1001
ACAD
1000
AcDbSavedByObjectVersion
1070
     0
  0
VISUALSTYLE
  5
34
102
{ACAD_REACTORS
330
2A
102
}
102
{ACAD_XDICTIONARY
360
F6
102
}
330
2A
100
AcDbVisualStyle
  2
Conceptual
 70
     9
 71
     3
 72
     2
 73
     0
 90
        0
 40
-0.6
 41
-30.0
 62
     5
 63
     7
 74
     2
 91
        2
 64
     7
 65
   257
 75
     1
175
     1
 42
40.0
 92
        8
 66
     7
 43
1.0
 76
     1
 77
     6
 78
     2
 67
     7
 79
     3
170
     0
171
     0
290
     0
174
     0
 93
        1
 44
0.0
173
     0
291
     0
 45
0.0
1001
ACAD
1000
AcDbSavedByObjectVersion
1070
     0
  0
VISUALSTYLE
  5
35
102
{ACAD_REACTORS
330
2A
102
}
102
{ACAD_XDICTIONARY
360
F8
102
}
330
2A
100
AcDbVisualStyle
  2
Dim
 70
    11
 71
     2
 72
     2
 73
     0
 90
        0
 40
-0.6
 41
-30.0
 62
     5
 63
     7
 74
     1
 91
        4
 64
     7
 65
   257
 75
     1
175
     1
 42
1.0
 92
        8
 66
     7
 43
1.0
 76
     1
 77
     6
 78
     2
 67
     7
 79
     5
170
     0
171
     0
290
     0
174
     0
 93
        1
 44
-50.0
173
     0
291
     1
 45
0.0
1001
ACAD
1000
AcDbSavedByObjectVersion
1070
     0
  0
VISUALSTYLE
  5
39
102
{ACAD_REACTORS
330
2A
102
}
102
{ACAD_XDICTIONARY
360
100
102
}
330
2A
100
AcDbVisualStyle
  2
Facepattern
 70
    15
 71
     2
 72
     2
 73
     0
 90
        0
 40
-0.6
 41
-30.0
 62
     5
 63
     7
 74
     1
 91
        4
 64
     7
 65
   257
 75
     1
175
     1
 42
1.0
 92
        8
 66
     7
 43
1.0
 76
     1
 77
     6
 78
     2
 67
     7
 79
     5
170
     0
171
     0
290
     0
174
     0
 93
        1
 44
0.0
173
     0
291
     1
 45
0.0
1001
ACAD
1000
AcDbSavedByObjectVersion
1070
     0
  0
VISUALSTYLE
  5
2B
102
{ACAD_REACTORS
330
2A
102
}
102
{ACAD_XDICTIONARY
360
E4
102
}
330
2A
100
AcDbVisualStyle
  2
Flat
 70
     0
 71
     2
 72
     1
 73
     1
 90
        2
 40
-0.6
 41
30.0
 62
     5
 63
     7
 74
     0
 91
        4
 64
     7
 65
   257
 75
     1
175
     1
 42
1.0
 92
        8
 66
     7
 43
1.0
 76
     1
 77
     6
 78
     2
 67
     7
 79
     5
170
     0
171
     0
290
     0
174
     0
 93
       13
 44
0.0
173
     0
291
     1
 45
0.0
1001
ACAD
1000
AcDbSavedByObjectVersion
1070
     0
  0
VISUALSTYLE
  5
2C
102
{ACAD_REACTORS
330
2A
102
}
102
{ACAD_XDICTIONARY
360
E6
102
}
330
2A
100
AcDbVisualStyle
  2
FlatWithEdges
 70
     1
 71
     2
 72
     1
 73
     1
 90
        2
 40
-0.6
 41
30.0
 62
     5
 63
     7
 74
     1
 91
        4
 64
     7
 65
   257
 75
     1
175
     1
 42
1.0
 92
        0
 66
   257
 43
1.0
 76
     1
 77
     6
 78
     2
 67
     7
 79
     5
170
     0
171
     0
290
     0
174
     0
 93
       13
 44
0.0
173
     0
291
     1
 45
0.0
1001
ACAD
1000
AcDbSavedByObjectVersion
1070
     0
  0
VISUALSTYLE
  5
2D
102
{ACAD_REACTORS
330
2A
102
}
102
{ACAD_XDICTIONARY
360
E8
102
}
330
2A
100
AcDbVisualStyle
  2
Gouraud
 70
     2
 71
     2
 72
     2
 73
     1
 90
        2
 40
-0.6
 41
30.0
 62
     5
 63
     7
 74
     0
 91
        4
 64
     7
 65
   257
 75
     1
175
     1
 42
1.0
 92
        0
 66
     7
 43
1.0
 76
     1
 77
     6
 78
     2
 67
     7
 79
     5
170
     0
171
     0
290
     0
174
     0
 93
       13
 44
0.0
173
     0
291
     1
 45
0.0
1001
ACAD
1000
AcDbSavedByObjectVersion
1070
     0
  0
VISUALSTYLE
  5
2E
102
{ACAD_REACTORS
330
2A
102
}
102
{ACAD_XDICTIONARY
360
EA
102
}
330
2A
100
AcDbVisualStyle
  2
GouraudWithEdges
 70
     3
 71
     2
 72
     2
 73
     1
 90
        2
 40
-0.6
 41
30.0
 62
     5
 63
     7
 74
     1
 91
        4
 64
     7
 65
   257
 75
     1
175
     1
 42
1.0
 92
        0
 66
   257
 43
1.0
 76
     1
 77
     6
 78
     2
 67
     7
 79
     5
170
     0
171
     0
290
     0
174
     0
 93
       13
 44
0.0
173
     0
291
     1
 45
0.0
1001
ACAD
1000
AcDbSavedByObjectVersion
1070
     0
  0
VISUALSTYLE
  5
38
102
{ACAD_REACTORS
330
2A
102
}
102
{ACAD_XDICTIONARY
360
FE
102
}
330
2A
100
AcDbVisualStyle
  2
Linepattern
 70
    14
 71
     2
 72
     2
 73
     0
 90
        0
 40
-0.6
 41
-30.0
 62
     5
 63
     7
 74
     1
 91
        4
 64
     7
 65
   257
 75
     7
175
     7
 42
1.0
 92
        8
 66
     7
 43
1.0
 76
     1
 77
     6
 78
     2
 67
     7
 79
     5
170
     0
171
     0
290
     0
174
     0
 93
        1
 44
0.0
173
     0
291
     1
 45
0.0
1001
ACAD
1000
AcDbSavedByObjectVersion
1070
     0
  0
VISUALSTYLE
  5
33
102
{ACAD_REACTORS
330
2A
102
}
102
{ACAD_XDICTIONARY
360
F4
102
}
330
2A
100
AcDbVisualStyle
  2
Realistic
 70
     8
 71
     2
 72
     2
 73
     0
 90
        0
 40
-0.6
 41
-30.0
 62
     5
 63
     7
 74
     1
 91
        0
 64
     7
 65
   257
 75
     1
175
     1
 42
1.0
 92
        8
 66
     8
 43
1.0
 76
     1
 77
     6
 78
     2
 67
     7
 79
     5
170
     0
171
     0
290
     0
174
     0
 93
       13
 44
0.0
173
     0
291
     0
 45
0.0
1001
ACAD
1000
AcDbSavedByObjectVersion
1070
     0
  0
VISUALSTYLE
  5
37
102
{ACAD_REACTORS
330
2A
102
}
102
{ACAD_XDICTIONARY
360
FC
102
}
330
2A
100
AcDbVisualStyle
  2
Thicken
 70
    13
 71
     2
 72
     2
 73
     0
 90
        0
 40
-0.6
 41
-30.0
 62
     5
 63
     7
 74
     1
 91
        4
 64
     7
 65
   257
 75
     1
175
     1
 42
1.0
 92
       12
 66
     7
 43
1.0
 76
     1
 77
     6
 78
     2
 67
     7
 79
     5
170
     0
171
     0
290
     0
174
     0
 93
        1
 44
0.0
173
     0
291
     1
 45
0.0
1001
ACAD
1000
AcDbSavedByObjectVersion
1070
     0
  0
DICTIONARYVAR
  5
E2
102
{ACAD_REACTORS
330
DF
102
}
330
DF
100
DictionaryVariables
280
     0
  1
2
  0
DICTIONARYVAR
  5
E3
102
{ACAD_REACTORS
330
DF
102
}
330
DF
100
DictionaryVariables
280
     0
  1
1
  0
DICTIONARY
  5
106
330
3D
100
AcDbDictionary
280
     1
281
     1
  3
ACAD_XREC_ROUNDTRIP
360
107
  0
DICTIONARY
  5
104
330
3C
100
AcDbDictionary
280
     1
281
     1
  3
ACAD_XREC_ROUNDTRIP
360
105
  0
DICTIONARY
  5
108
330
3E
100
AcDbDictionary
280
     1
281
     1
  3
ACAD_XREC_ROUNDTRIP
360
109
  0
DICTIONARY
  5
EC
330
2F
100
AcDbDictionary
280
     1
281
     1
  3
ACAD_XREC_ROUNDTRIP
360
ED
  0
DICTIONARY
  5
F0
330
31
100
AcDbDictionary
280
     1
281
     1
  3
ACAD_XREC_ROUNDTRIP
360
F1
  0
DICTIONARY
  5
EE
330
30
100
AcDbDictionary
280
     1
281
     1
  3
ACAD_XREC_ROUNDTRIP
360
EF
  0
DICTIONARY
  5
F2
330
32
100
AcDbDictionary
280
     1
281
     1
  3
ACAD_XREC_ROUNDTRIP
360
F3
  0
DICTIONARY
  5
FA
330
36
100
AcDbDictionary
280
     1
281
     1
  3
ACAD_XREC_ROUNDTRIP
360
FB
  0
DICTIONARY
  5
102
330
3A
100
AcDbDictionary
280
     1
281
     1
  3
ACAD_XREC_ROUNDTRIP
360
103
  0
DICTIONARY
  5
F6
330
34
100
AcDbDictionary
280
     1
281
     1
  3
ACAD_XREC_ROUNDTRIP
360
F7
  0
DICTIONARY
  5
F8
330
35
100
AcDbDictionary
280
     1
281
     1
  3
ACAD_XREC_ROUNDTRIP
360
F9
  0
DICTIONARY
  5
100
330
39
100
AcDbDictionary
280
     1
281
     1
  3
ACAD_XREC_ROUNDTRIP
360
101
  0
DICTIONARY
  5
E4
330
2B
100
AcDbDictionary
280
     1
281
     1
  3
ACAD_XREC_ROUNDTRIP
360
E5
  0
DICTIONARY
  5
E6
330
2C
100
AcDbDictionary
280
     1
281
     1
  3
ACAD_XREC_ROUNDTRIP
360
E7
  0
DICTIONARY
  5
E8
330
2D
100
AcDbDictionary
280
     1
281
     1
  3
ACAD_XREC_ROUNDTRIP
360
E9
  0
DICTIONARY
  5
EA
330
2E
100
AcDbDictionary
280
     1
281
     1
  3
ACAD_XREC_ROUNDTRIP
360
EB
  0
DICTIONARY
  5
FE
330
38
100
AcDbDictionary
280
     1
281
     1
  3
ACAD_XREC_ROUNDTRIP
360
FF
  0
DICTIONARY
  5
F4
330
33
100
AcDbDictionary
280
     1
281
     1
  3
ACAD_XREC_ROUNDTRIP
360
F5
  0
DICTIONARY
  5
FC
330
37
100
AcDbDictionary
280
     1
281
     1
  3
ACAD_XREC_ROUNDTRIP
360
FD
  0
XRECORD
  5
107
102
{ACAD_REACTORS
330
106
102
}
330
106
100
AcDbXrecord
280
     1
102
MATERIAL
148
0.0
149
0.0
149
0.0
 93
        0
 94
      127
282
     0
 72
     1
 77
     1
171
     1
175
     1
179
     1
273
     0
  0
XRECORD
  5
105
102
{ACAD_REACTORS
330
104
102
}
330
104
100
AcDbXrecord
280
     1
102
MATERIAL
148
0.0
149
0.0
149
0.0
 93
        0
 94
      127
282
     0
 72
     1
 77
     1
171
     1
175
     1
179
     1
273
     0
  0
XRECORD
  5
109
102
{ACAD_REACTORS
330
108
102
}
330
108
100
AcDbXrecord
280
     1
102
MATERIAL
148
0.0
149
0.0
149
0.0
 93
        0
 94
      127
282
     0
 72
     1
 77
     1
171
     1
175
     1
179
     1
273
     0
  0
XRECORD
  5
ED
102
{ACAD_REACTORS
330
EC
102
}
330
EC
100
AcDbXrecord
280
     1
102
RTVSPropertyOp0
 70
     1
102
RTVSPropertyOp1
 70
     1
102
RTVSPropertyOp2
 70
     1
102
RTVSPropertyOp3
 70
     1
102
RTVSPropertyOp4
 70
     1
102
RTVSPropertyOp5
 70
     1
102
RTVSPropertyOp6
 70
     1
102
RTVSPropertyOp7
 70
     1
102
RTVSPropertyOp8
 70
     1
102
RTVSPropertyOp9
 70
     1
102
RTVSPropertyOp10
 70
     1
102
RTVSPropertyOp11
 70
     1
102
RTVSPropertyOp12
 70
     1
102
RTVSPropertyOp13
 70
     1
102
RTVSPropertyOp14
 70
     1
102
RTVSPropertyOp15
 70
     1
102
RTVSPropertyOp16
 70
     1
102
RTVSPropertyOp17
 70
     1
102
RTVSPropertyOp18
 70
     1
102
RTVSPropertyOp19
 70
     1
102
RTVSPropertyOp20
 70
     1
102
RTVSPropertyOp21
 70
     1
102
RTVSPropertyOp22
 70
     1
102
RTVSPropertyOp23
 70
     1
102
RTVSPropertyOp24
 70
     1
102
RTVSPropertyOp25
 70
     1
102
RTVSPropertyOp26
 70
     1
102
RTVSPropertyOp27
 70
     1
102
RTVSPropertyOp28
 70
     1
102
RTVSPropertyOp29
 70
     1
102
RTVSPropertyOp30
 70
     1
102
RTVSPropertyOp31
 70
     1
102
RTVSPropertyOp32
 70
     1
  0
XRECORD
  5
F1
102
{ACAD_REACTORS
330
F0
102
}
330
F0
100
AcDbXrecord
280
     1
102
RTVSPropertyOp0
 70
     1
102
RTVSPropertyOp1
 70
     1
102
RTVSPropertyOp2
 70
     1
102
RTVSPropertyOp3
 70
     1
102
RTVSPropertyOp4
 70
     1
102
RTVSPropertyOp5
 70
     1
102
RTVSPropertyOp6
 70
     1
102
RTVSPropertyOp7
 70
     1
102
RTVSPropertyOp8
 70
     1
102
RTVSPropertyOp9
 70
     1
102
RTVSPropertyOp10
 70
     1
102
RTVSPropertyOp11
 70
     1
102
RTVSPropertyOp12
 70
     1
102
RTVSPropertyOp13
 70
     1
102
RTVSPropertyOp14
 70
     1
102
RTVSPropertyOp15
 70
     1
102
RTVSPropertyOp16
 70
     1
102
RTVSPropertyOp17
 70
     1
102
RTVSPropertyOp18
 70
     1
102
RTVSPropertyOp19
 70
     1
102
RTVSPropertyOp20
 70
     1
102
RTVSPropertyOp21
 70
     1
102
RTVSPropertyOp22
 70
     1
102
RTVSPropertyOp23
 70
     1
102
RTVSPropertyOp24
 70
     1
102
RTVSPropertyOp25
 70
     1
102
RTVSPropertyOp26
 70
     1
102
RTVSPropertyOp27
 70
     1
102
RTVSPropertyOp28
 70
     1
102
RTVSPropertyOp29
 70
     1
102
RTVSPropertyOp30
 70
     1
102
RTVSPropertyOp31
 70
     1
102
RTVSPropertyOp32
 70
     1
  0
XRECORD
  5
EF
102
{ACAD_REACTORS
330
EE
102
}
330
EE
100
AcDbXrecord
280
     1
102
RTVSPropertyOp0
 70
     1
102
RTVSPropertyOp1
 70
     1
102
RTVSPropertyOp2
 70
     1
102
RTVSPropertyOp3
 70
     1
102
RTVSPropertyOp4
 70
     1
102
RTVSPropertyOp5
 70
     1
102
RTVSPropertyOp6
 70
     1
102
RTVSPropertyOp7
 70
     1
102
RTVSPropertyOp8
 70
     1
102
RTVSPropertyOp9
 70
     1
102
RTVSPropertyOp10
 70
     1
102
RTVSPropertyOp11
 70
     1
102
RTVSPropertyOp12
 70
     1
102
RTVSPropertyOp13
 70
     1
102
RTVSPropertyOp14
 70
     1
102
RTVSPropertyOp15
 70
     1
102
RTVSPropertyOp16
 70
     1
102
RTVSPropertyOp17
 70
     1
102
RTVSPropertyOp18
 70
     1
102
RTVSPropertyOp19
 70
     1
102
RTVSPropertyOp20
 70
     1
102
RTVSPropertyOp21
 70
     1
102
RTVSPropertyOp22
 70
     1
102
RTVSPropertyOp23
 70
     1
102
RTVSPropertyOp24
 70
     1
102
RTVSPropertyOp25
 70
     1
102
RTVSPropertyOp26
 70
     1
102
RTVSPropertyOp27
 70
     1
102
RTVSPropertyOp28
 70
     1
102
RTVSPropertyOp29
 70
     1
102
RTVSPropertyOp30
 70
     1
102
RTVSPropertyOp31
 70
     1
102
RTVSPropertyOp32
 70
     1
  0
XRECORD
  5
F3
102
{ACAD_REACTORS
330
F2
102
}
330
F2
100
AcDbXrecord
280
     1
102
RTVSPropertyOp0
 70
     1
102
RTVSPropertyOp1
 70
     1
102
RTVSPropertyOp2
 70
     1
102
RTVSPropertyOp3
 70
     1
102
RTVSPropertyOp4
 70
     1
102
RTVSPropertyOp5
 70
     1
102
RTVSPropertyOp6
 70
     1
102
RTVSPropertyOp7
 70
     1
102
RTVSPropertyOp8
 70
     1
102
RTVSPropertyOp9
 70
     1
102
RTVSPropertyOp10
 70
     1
102
RTVSPropertyOp11
 70
     1
102
RTVSPropertyOp12
 70
     1
102
RTVSPropertyOp13
 70
     1
102
RTVSPropertyOp14
 70
     1
102
RTVSPropertyOp15
 70
     1
102
RTVSPropertyOp16
 70
     1
102
RTVSPropertyOp17
 70
     1
102
RTVSPropertyOp18
 70
     1
102
RTVSPropertyOp19
 70
     1
102
RTVSPropertyOp20
 70
     1
102
RTVSPropertyOp21
 70
     1
102
RTVSPropertyOp22
 70
     1
102
RTVSPropertyOp23
 70
     1
102
RTVSPropertyOp24
 70
     1
102
RTVSPropertyOp25
 70
     1
102
RTVSPropertyOp26
 70
     1
102
RTVSPropertyOp27
 70
     1
102
RTVSPropertyOp28
 70
     1
102
RTVSPropertyOp29
 70
     1
102
RTVSPropertyOp30
 70
     1
102
RTVSPropertyOp31
 70
     1
102
RTVSPropertyOp32
 70
     1
  0
XRECORD
  5
FB
102
{ACAD_REACTORS
330
FA
102
}
330
FA
100
AcDbXrecord
280
     1
102
RTVSPropertyOp0
 70
     1
102
RTVSPropertyOp1
 70
     1
102
RTVSPropertyOp2
 70
     1
102
RTVSPropertyOp3
 70
     1
102
RTVSPropertyOp4
 70
     1
102
RTVSPropertyOp5
 70
     1
102
RTVSPropertyOp6
 70
     1
102
RTVSPropertyOp7
 70
     1
102
RTVSPropertyOp8
 70
     1
102
RTVSPropertyOp9
 70
     1
102
RTVSPropertyOp10
 70
     1
102
RTVSPropertyOp11
 70
     1
102
RTVSPropertyOp12
 70
     1
102
RTVSPropertyOp13
 70
     1
102
RTVSPropertyOp14
 70
     1
102
RTVSPropertyOp15
 70
     1
102
RTVSPropertyOp16
 70
     1
102
RTVSPropertyOp17
 70
     1
102
RTVSPropertyOp18
 70
     1
102
RTVSPropertyOp19
 70
     1
102
RTVSPropertyOp20
 70
     1
102
RTVSPropertyOp21
 70
     1
102
RTVSPropertyOp22
 70
     1
102
RTVSPropertyOp23
 70
     1
102
RTVSPropertyOp24
 70
     1
102
RTVSPropertyOp25
 70
     1
102
RTVSPropertyOp26
 70
     1
102
RTVSPropertyOp27
 70
     1
102
RTVSPropertyOp28
 70
     1
102
RTVSPropertyOp29
 70
     1
102
RTVSPropertyOp30
 70
     1
102
RTVSPropertyOp31
 70
     1
102
RTVSPropertyOp32
 70
     1
  0
XRECORD
  5
103
102
{ACAD_REACTORS
330
102
102
}
330
102
100
AcDbXrecord
280
     1
102
RTVSPropertyOp0
 70
     1
102
RTVSPropertyOp1
 70
     1
102
RTVSPropertyOp2
 70
     1
102
RTVSPropertyOp3
 70
     1
102
RTVSPropertyOp4
 70
     1
102
RTVSPropertyOp5
 70
     1
102
RTVSPropertyOp6
 70
     1
102
RTVSPropertyOp7
 70
     1
102
RTVSPropertyOp8
 70
     1
102
RTVSPropertyOp9
 70
     1
102
RTVSPropertyOp10
 70
     1
102
RTVSPropertyOp11
 70
     1
102
RTVSPropertyOp12
 70
     1
102
RTVSPropertyOp13
 70
     1
102
RTVSPropertyOp14
 70
     1
102
RTVSPropertyOp15
 70
     1
102
RTVSPropertyOp16
 70
     1
102
RTVSPropertyOp17
 70
     1
102
RTVSPropertyOp18
 70
     1
102
RTVSPropertyOp19
 70
     1
102
RTVSPropertyOp20
 70
     1
102
RTVSPropertyOp21
 70
     1
102
RTVSPropertyOp22
 70
     1
102
RTVSPropertyOp23
 70
     1
102
RTVSPropertyOp24
 70
     1
102
RTVSPropertyOp25
 70
     1
102
RTVSPropertyOp26
 70
     1
102
RTVSPropertyOp27
 70
     1
102
RTVSPropertyOp28
 70
     1
102
RTVSPropertyOp29
 70
     1
102
RTVSPropertyOp30
 70
     1
102
RTVSPropertyOp31
 70
     1
102
RTVSPropertyOp32
 70
     1
  0
XRECORD
  5
F7
102
{ACAD_REACTORS
330
F6
102
}
330
F6
100
AcDbXrecord
280
     1
102
RTVSPropertyOp0
 70
     1
102
RTVSPropertyOp1
 70
     1
102
RTVSPropertyOp2
 70
     1
102
RTVSPropertyOp3
 70
     1
102
RTVSPropertyOp4
 70
     1
102
RTVSPropertyOp5
 70
     1
102
RTVSPropertyOp6
 70
     1
102
RTVSPropertyOp7
 70
     1
102
RTVSPropertyOp8
 70
     1
102
RTVSPropertyOp9
 70
     1
102
RTVSPropertyOp10
 70
     1
102
RTVSPropertyOp11
 70
     1
102
RTVSPropertyOp12
 70
     1
102
RTVSPropertyOp13
 70
     1
102
RTVSPropertyOp14
 70
     1
102
RTVSPropertyOp15
 70
     1
102
RTVSPropertyOp16
 70
     1
102
RTVSPropertyOp17
 70
     1
102
RTVSPropertyOp18
 70
     1
102
RTVSPropertyOp19
 70
     1
102
RTVSPropertyOp20
 70
     1
102
RTVSPropertyOp21
 70
     1
102
RTVSPropertyOp22
 70
     1
102
RTVSPropertyOp23
 70
     1
102
RTVSPropertyOp24
 70
     1
102
RTVSPropertyOp25
 70
     1
102
RTVSPropertyOp26
 70
     1
102
RTVSPropertyOp27
 70
     1
102
RTVSPropertyOp28
 70
     1
102
RTVSPropertyOp29
 70
     1
102
RTVSPropertyOp30
 70
     1
102
RTVSPropertyOp31
 70
     1
102
RTVSPropertyOp32
 70
     1
  0
XRECORD
  5
F9
102
{ACAD_REACTORS
330
F8
102
}
330
F8
100
AcDbXrecord
280
     1
102
RTVSPropertyOp0
 70
     1
102
RTVSPropertyOp1
 70
     1
102
RTVSPropertyOp2
 70
     1
102
RTVSPropertyOp3
 70
     1
102
RTVSPropertyOp4
 70
     1
102
RTVSPropertyOp5
 70
     1
102
RTVSPropertyOp6
 70
     1
102
RTVSPropertyOp7
 70
     1
102
RTVSPropertyOp8
 70
     1
102
RTVSPropertyOp9
 70
     1
102
RTVSPropertyOp10
 70
     1
102
RTVSPropertyOp11
 70
     1
102
RTVSPropertyOp12
 70
     1
102
RTVSPropertyOp13
 70
     1
102
RTVSPropertyOp14
 70
     1
102
RTVSPropertyOp15
 70
     1
102
RTVSPropertyOp16
 70
     1
102
RTVSPropertyOp17
 70
     1
102
RTVSPropertyOp18
 70
     1
102
RTVSPropertyOp19
 70
     1
102
RTVSPropertyOp20
 70
     1
102
RTVSPropertyOp21
 70
     1
102
RTVSPropertyOp22
 70
     1
102
RTVSPropertyOp23
 70
     1
102
RTVSPropertyOp24
 70
     1
102
RTVSPropertyOp25
 70
     1
102
RTVSPropertyOp26
 70
     1
102
RTVSPropertyOp27
 70
     1
102
RTVSPropertyOp28
 70
     1
102
RTVSPropertyOp29
 70
     1
102
RTVSPropertyOp30
 70
     1
102
RTVSPropertyOp31
 70
     1
102
RTVSPropertyOp32
 70
     1
  0
XRECORD
  5
101
102
{ACAD_REACTORS
330
100
102
}
330
100
100
AcDbXrecord
280
     1
102
RTVSPropertyOp0
 70
     1
102
RTVSPropertyOp1
 70
     1
102
RTVSPropertyOp2
 70
     1
102
RTVSPropertyOp3
 70
     1
102
RTVSPropertyOp4
 70
     1
102
RTVSPropertyOp5
 70
     1
102
RTVSPropertyOp6
 70
     1
102
RTVSPropertyOp7
 70
     1
102
RTVSPropertyOp8
 70
     1
102
RTVSPropertyOp9
 70
     1
102
RTVSPropertyOp10
 70
     1
102
RTVSPropertyOp11
 70
     1
102
RTVSPropertyOp12
 70
     1
102
RTVSPropertyOp13
 70
     1
102
RTVSPropertyOp14
 70
     1
102
RTVSPropertyOp15
 70
     1
102
RTVSPropertyOp16
 70
     1
102
RTVSPropertyOp17
 70
     1
102
RTVSPropertyOp18
 70
     1
102
RTVSPropertyOp19
 70
     1
102
RTVSPropertyOp20
 70
     1
102
RTVSPropertyOp21
 70
     1
102
RTVSPropertyOp22
 70
     1
102
RTVSPropertyOp23
 70
     1
102
RTVSPropertyOp24
 70
     1
102
RTVSPropertyOp25
 70
     1
102
RTVSPropertyOp26
 70
     1
102
RTVSPropertyOp27
 70
     1
102
RTVSPropertyOp28
 70
     1
102
RTVSPropertyOp29
 70
     1
102
RTVSPropertyOp30
 70
     1
102
RTVSPropertyOp31
 70
     1
102
RTVSPropertyOp32
 70
     1
  0
XRECORD
  5
E5
102
{ACAD_REACTORS
330
E4
102
}
330
E4
100
AcDbXrecord
280
     1
102
RTVSPropertyOp0
 70
     1
102
RTVSPropertyOp1
 70
     1
102
RTVSPropertyOp2
 70
     1
102
RTVSPropertyOp3
 70
     1
102
RTVSPropertyOp4
 70
     1
102
RTVSPropertyOp5
 70
     1
102
RTVSPropertyOp6
 70
     1
102
RTVSPropertyOp7
 70
     1
102
RTVSPropertyOp8
 70
     1
102
RTVSPropertyOp9
 70
     1
102
RTVSPropertyOp10
 70
     1
102
RTVSPropertyOp11
 70
     1
102
RTVSPropertyOp12
 70
     1
102
RTVSPropertyOp13
 70
     1
102
RTVSPropertyOp14
 70
     1
102
RTVSPropertyOp15
 70
     1
102
RTVSPropertyOp16
 70
     1
102
RTVSPropertyOp17
 70
     1
102
RTVSPropertyOp18
 70
     1
102
RTVSPropertyOp19
 70
     1
102
RTVSPropertyOp20
 70
     1
102
RTVSPropertyOp21
 70
     1
102
RTVSPropertyOp22
 70
     1
102
RTVSPropertyOp23
 70
     1
102
RTVSPropertyOp24
 70
     1
102
RTVSPropertyOp25
 70
     1
102
RTVSPropertyOp26
 70
     1
102
RTVSPropertyOp27
 70
     1
102
RTVSPropertyOp28
 70
     1
102
RTVSPropertyOp29
 70
     1
102
RTVSPropertyOp30
 70
     1
102
RTVSPropertyOp31
 70
     1
102
RTVSPropertyOp32
 70
     1
  0
XRECORD
  5
E7
102
{ACAD_REACTORS
330
E6
102
}
330
E6
100
AcDbXrecord
280
     1
102
RTVSPropertyOp0
 70
     1
102
RTVSPropertyOp1
 70
     1
102
RTVSPropertyOp2
 70
     1
102
RTVSPropertyOp3
 70
     1
102
RTVSPropertyOp4
 70
     1
102
RTVSPropertyOp5
 70
     1
102
RTVSPropertyOp6
 70
     1
102
RTVSPropertyOp7
 70
     1
102
RTVSPropertyOp8
 70
     1
102
RTVSPropertyOp9
 70
     1
102
RTVSPropertyOp10
 70
     1
102
RTVSPropertyOp11
 70
     1
102
RTVSPropertyOp12
 70
     1
102
RTVSPropertyOp13
 70
     1
102
RTVSPropertyOp14
 70
     1
102
RTVSPropertyOp15
 70
     1
102
RTVSPropertyOp16
 70
     1
102
RTVSPropertyOp17
 70
     1
102
RTVSPropertyOp18
 70
     1
102
RTVSPropertyOp19
 70
     1
102
RTVSPropertyOp20
 70
     1
102
RTVSPropertyOp21
 70
     1
102
RTVSPropertyOp22
 70
     1
102
RTVSPropertyOp23
 70
     1
102
RTVSPropertyOp24
 70
     1
102
RTVSPropertyOp25
 70
     1
102
RTVSPropertyOp26
 70
     1
102
RTVSPropertyOp27
 70
     1
102
RTVSPropertyOp28
 70
     1
102
RTVSPropertyOp29
 70
     1
102
RTVSPropertyOp30
 70
     1
102
RTVSPropertyOp31
 70
     1
102
RTVSPropertyOp32
 70
     1
  0
XRECORD
  5
E9
102
{ACAD_REACTORS
330
E8
102
}
330
E8
100
AcDbXrecord
280
     1
102
RTVSPropertyOp0
 70
     1
102
RTVSPropertyOp1
 70
     1
102
RTVSPropertyOp2
 70
     1
102
RTVSPropertyOp3
 70
     1
102
RTVSPropertyOp4
 70
     1
102
RTVSPropertyOp5
 70
     1
102
RTVSPropertyOp6
 70
     1
102
RTVSPropertyOp7
 70
     1
102
RTVSPropertyOp8
 70
     1
102
RTVSPropertyOp9
 70
     1
102
RTVSPropertyOp10
 70
     1
102
RTVSPropertyOp11
 70
     1
102
RTVSPropertyOp12
 70
     1
102
RTVSPropertyOp13
 70
     1
102
RTVSPropertyOp14
 70
     1
102
RTVSPropertyOp15
 70
     1
102
RTVSPropertyOp16
 70
     1
102
RTVSPropertyOp17
 70
     1
102
RTVSPropertyOp18
 70
     1
102
RTVSPropertyOp19
 70
     1
102
RTVSPropertyOp20
 70
     1
102
RTVSPropertyOp21
 70
     1
102
RTVSPropertyOp22
 70
     1
102
RTVSPropertyOp23
 70
     1
102
RTVSPropertyOp24
 70
     1
102
RTVSPropertyOp25
 70
     1
102
RTVSPropertyOp26
 70
     1
102
RTVSPropertyOp27
 70
     1
102
RTVSPropertyOp28
 70
     1
102
RTVSPropertyOp29
 70
     1
102
RTVSPropertyOp30
 70
     1
102
RTVSPropertyOp31
 70
     1
102
RTVSPropertyOp32
 70
     1
  0
XRECORD
  5
EB
102
{ACAD_REACTORS
330
EA
102
}
330
EA
100
AcDbXrecord
280
     1
102
RTVSPropertyOp0
 70
     1
102
RTVSPropertyOp1
 70
     1
102
RTVSPropertyOp2
 70
     1
102
RTVSPropertyOp3
 70
     1
102
RTVSPropertyOp4
 70
     1
102
RTVSPropertyOp5
 70
     1
102
RTVSPropertyOp6
 70
     1
102
RTVSPropertyOp7
 70
     1
102
RTVSPropertyOp8
 70
     1
102
RTVSPropertyOp9
 70
     1
102
RTVSPropertyOp10
 70
     1
102
RTVSPropertyOp11
 70
     1
102
RTVSPropertyOp12
 70
     1
102
RTVSPropertyOp13
 70
     1
102
RTVSPropertyOp14
 70
     1
102
RTVSPropertyOp15
 70
     1
102
RTVSPropertyOp16
 70
     1
102
RTVSPropertyOp17
 70
     1
102
RTVSPropertyOp18
 70
     1
102
RTVSPropertyOp19
 70
     1
102
RTVSPropertyOp20
 70
     1
102
RTVSPropertyOp21
 70
     1
102
RTVSPropertyOp22
 70
     1
102
RTVSPropertyOp23
 70
     1
102
RTVSPropertyOp24
 70
     1
102
RTVSPropertyOp25
 70
     1
102
RTVSPropertyOp26
 70
     1
102
RTVSPropertyOp27
 70
     1
102
RTVSPropertyOp28
 70
     1
102
RTVSPropertyOp29
 70
     1
102
RTVSPropertyOp30
 70
     1
102
RTVSPropertyOp31
 70
     1
102
RTVSPropertyOp32
 70
     1
  0
XRECORD
  5
FF
102
{ACAD_REACTORS
330
FE
102
}
330
FE
100
AcDbXrecord
280
     1
102
RTVSPropertyOp0
 70
     1
102
RTVSPropertyOp1
 70
     1
102
RTVSPropertyOp2
 70
     1
102
RTVSPropertyOp3
 70
     1
102
RTVSPropertyOp4
 70
     1
102
RTVSPropertyOp5
 70
     1
102
RTVSPropertyOp6
 70
     1
102
RTVSPropertyOp7
 70
     1
102
RTVSPropertyOp8
 70
     1
102
RTVSPropertyOp9
 70
     1
102
RTVSPropertyOp10
 70
     1
102
RTVSPropertyOp11
 70
     1
102
RTVSPropertyOp12
 70
     1
102
RTVSPropertyOp13
 70
     1
102
RTVSPropertyOp14
 70
     1
102
RTVSPropertyOp15
 70
     1
102
RTVSPropertyOp16
 70
     1
102
RTVSPropertyOp17
 70
     1
102
RTVSPropertyOp18
 70
     1
102
RTVSPropertyOp19
 70
     1
102
RTVSPropertyOp20
 70
     1
102
RTVSPropertyOp21
 70
     1
102
RTVSPropertyOp22
 70
     1
102
RTVSPropertyOp23
 70
     1
102
RTVSPropertyOp24
 70
     1
102
RTVSPropertyOp25
 70
     1
102
RTVSPropertyOp26
 70
     1
102
RTVSPropertyOp27
 70
     1
102
RTVSPropertyOp28
 70
     1
102
RTVSPropertyOp29
 70
     1
102
RTVSPropertyOp30
 70
     1
102
RTVSPropertyOp31
 70
     1
102
RTVSPropertyOp32
 70
     1
  0
XRECORD
  5
F5
102
{ACAD_REACTORS
330
F4
102
}
330
F4
100
AcDbXrecord
280
     1
102
RTVSPropertyOp0
 70
     1
102
RTVSPropertyOp1
 70
     1
102
RTVSPropertyOp2
 70
     1
102
RTVSPropertyOp3
 70
     1
102
RTVSPropertyOp4
 70
     1
102
RTVSPropertyOp5
 70
     1
102
RTVSPropertyOp6
 70
     1
102
RTVSPropertyOp7
 70
     1
102
RTVSPropertyOp8
 70
     1
102
RTVSPropertyOp9
 70
     1
102
RTVSPropertyOp10
 70
     1
102
RTVSPropertyOp11
 70
     1
102
RTVSPropertyOp12
 70
     1
102
RTVSPropertyOp13
 70
     1
102
RTVSPropertyOp14
 70
     1
102
RTVSPropertyOp15
 70
     1
102
RTVSPropertyOp16
 70
     1
102
RTVSPropertyOp17
 70
     1
102
RTVSPropertyOp18
 70
     1
102
RTVSPropertyOp19
 70
     1
102
RTVSPropertyOp20
 70
     1
102
RTVSPropertyOp21
 70
     1
102
RTVSPropertyOp22
 70
     1
102
RTVSPropertyOp23
 70
     1
102
RTVSPropertyOp24
 70
     1
102
RTVSPropertyOp25
 70
     1
102
RTVSPropertyOp26
 70
     1
102
RTVSPropertyOp27
 70
     1
102
RTVSPropertyOp28
 70
     1
102
RTVSPropertyOp29
 70
     1
102
RTVSPropertyOp30
 70
     1
102
RTVSPropertyOp31
 70
     1
102
RTVSPropertyOp32
 70
     1
  0
XRECORD
  5
FD
102
{ACAD_REACTORS
330
FC
102
}
330
FC
100
AcDbXrecord
280
     1
102
RTVSPropertyOp0
 70
     1
102
RTVSPropertyOp1
 70
     1
102
RTVSPropertyOp2
 70
     1
102
RTVSPropertyOp3
 70
     1
102
RTVSPropertyOp4
 70
     1
102
RTVSPropertyOp5
 70
     1
102
RTVSPropertyOp6
 70
     1
102
RTVSPropertyOp7
 70
     1
102
RTVSPropertyOp8
 70
     1
102
RTVSPropertyOp9
 70
     1
102
RTVSPropertyOp10
 70
     1
102
RTVSPropertyOp11
 70
     1
102
RTVSPropertyOp12
 70
     1
102
RTVSPropertyOp13
 70
     1
102
RTVSPropertyOp14
 70
     1
102
RTVSPropertyOp15
 70
     1
102
RTVSPropertyOp16
 70
     1
102
RTVSPropertyOp17
 70
     1
102
RTVSPropertyOp18
 70
     1
102
RTVSPropertyOp19
 70
     1
102
RTVSPropertyOp20
 70
     1
102
RTVSPropertyOp21
 70
     1
102
RTVSPropertyOp22
 70
     1
102
RTVSPropertyOp23
 70
     1
102
RTVSPropertyOp24
 70
     1
102
RTVSPropertyOp25
 70
     1
102
RTVSPropertyOp26
 70
     1
102
RTVSPropertyOp27
 70
     1
102
RTVSPropertyOp28
 70
     1
102
RTVSPropertyOp29
 70
     1
102
RTVSPropertyOp30
 70
     1
102
RTVSPropertyOp31
 70
     1
102
RTVSPropertyOp32
 70
     1
  0
ENDSEC
  0
EOF
