  0
SECTION
  2
HEADER
  9
$ACADVER
  1
AC1021
  9
$ACADMAINTVER
 70
    25
  9
$DWGCODEPAGE
  3
ANSI_1254
  9
$INSBASE
 10
0.0
 20
0.0
 30
0.0
  9
$EXTMIN
 10
-1282.0024
 20
-399.8733
 30
0.0
  9
$EXTMAX
 10
-602.1444
 20
403.5504
 30
0.0
  9
$LIMMIN
 10
0.0
 20
0.0
  9
$LIMMAX
 10
12.0
 20
9.0
  9
$ORTHOMODE
 70
     0
  9
$REGENMODE
 70
     1
  9
$FILLMODE
 70
     1
  9
$QTEXTMODE
 70
     0
  9
$MIRRTEXT
 70
     1
  9
$LTSCALE
 40
1.0
  9
$ATTMODE
 70
     1
  9
$TEXTSIZE
 40
0.2
  9
$TRACEWID
 40
0.05
  9
$TEXTSTYLE
  7
Standard
  9
$CLAYER
  8
0
  9
$CELTYPE
  6
ByLayer
  9
$CECOLOR
 62
   256
  9
$CELTSCALE
 40
1.0
  9
$DISPSILH
 70
     0
  9
$DIMSCALE
 40
1.0
  9
$DIMASZ
 40
0.18
  9
$DIMEXO
 40
0.0625
  9
$DIMDLI
 40
0.38
  9
$DIMRND
 40
0.0
  9
$DIMDLE
 40
0.0
  9
$DIMEXE
 40
0.18
  9
$DIMTP
 40
0.0
  9
$DIMTM
 40
0.0
  9
$DIMTXT
 40
0.18
  9
$DIMCEN
 40
0.09
  9
$DIMTSZ
 40
0.0
  9
$DIMTOL
 70
     0
  9
$DIMLIM
 70
     0
  9
$DIMTIH
 70
     1
  9
$DIMTOH
 70
     1
  9
$DIMSE1
 70
     0
  9
$DIMSE2
 70
     0
  9
$DIMTAD
 70
     0
  9
$DIMZIN
 70
     0
  9
$DIMBLK
  1

  9
$DIMASO
 70
     1
  9
$DIMSHO
 70
     1
  9
$DIMPOST
  1

  9
$DIMAPOST
  1

  9
$DIMALT
 70
     0
  9
$DIMALTD
 70
     2
  9
$DIMALTF
 40
25.4
  9
$DIMLFAC
 40
1.0
  9
$DIMTOFL
 70
     0
  9
$DIMTVP
 40
0.0
  9
$DIMTIX
 70
     0
  9
$DIMSOXD
 70
     0
  9
$DIMSAH
 70
     0
  9
$DIMBLK1
  1

  9
$DIMBLK2
  1

  9
$DIMSTYLE
  2
Standard
  9
$DIMCLRD
 70
     0
  9
$DIMCLRE
 70
     0
  9
$DIMCLRT
 70
     0
  9
$DIMTFAC
 40
1.0
  9
$DIMGAP
 40
0.09
  9
$DIMJUST
 70
     0
  9
$DIMSD1
 70
     0
  9
$DIMSD2
 70
     0
  9
$DIMTOLJ
 70
     1
  9
$DIMTZIN
 70
     0
  9
$DIMALTZ
 70
     0
  9
$DIMALTTZ
 70
     0
  9
$DIMUPT
 70
     0
  9
$DIMDEC
 70
     4
  9
$DIMTDEC
 70
     4
  9
$DIMALTU
 70
     2
  9
$DIMALTTD
 70
     2
  9
$DIMTXSTY
  7
Standard
  9
$DIMAUNIT
 70
     0
  9
$DIMADEC
 70
     0
  9
$DIMALTRND
 40
0.0
  9
$DIMAZIN
 70
     0
  9
$DIMDSEP
 70
    46
  9
$DIMATFIT
 70
     3
  9
$DIMFRAC
 70
     0
  9
$DIMLDRBLK
  1

  9
$DIMLUNIT
 70
     2
  9
$DIMLWD
 70
    -2
  9
$DIMLWE
 70
    -2
  9
$DIMTMOVE
 70
     0
  9
$DIMFXL
 40
1.0
  9
$DIMFXLON
 70
     0
  9
$DIMJOGANG
 40
0.7853981633974483
  9
$DIMTFILL
 70
     0
  9
$DIMTFILLCLR
 70
     0
  9
$DIMARCSYM
 70
     0
  9
$DIMLTYPE
  6

  9
$DIMLTEX1
  6

  9
$DIMLTEX2
  6

  9
$LUNITS
 70
     2
  9
$LUPREC
 70
     4
  9
$SKETCHINC
 40
0.1
  9
$FILLETRAD
 40
0.5
  9
$AUNITS
 70
     0
  9
$AUPREC
 70
     0
  9
$MENU
  1
.
  9
$ELEVATION
 40
0.0
  9
$PELEVATION
 40
0.0
  9
$THICKNESS
 40
0.0
  9
$LIMCHECK
 70
     0
  9
$CHAMFERA
 40
0.0
  9
$CHAMFERB
 40
0.0
  9
$CHAMFERC
 40
0.0
  9
$CHAMFERD
 40
0.0
  9
$SKPOLY
 70
     0
  9
$TDCREATE
 40
2458200.447627975
  9
$TDUCREATE
 40
2458200.322627975
  9
$TDUPDATE
 40
2458200.447627997
  9
$TDUUPDATE
 40
2458200.322627997
  9
$TDINDWG
 40
0.0000000116
  9
$TDUSRTIMER
 40
0.0000000116
  9
$USRTIMER
 70
     1
  9
$ANGBASE
 50
0.0
  9
$ANGDIR
 70
     0
  9
$PDMODE
 70
     0
  9
$PDSIZE
 40
0.0
  9
$PLINEWID
 40
0.0
  9
$SPLFRAME
 70
     0
  9
$SPLINETYPE
 70
     6
  9
$SPLINESEGS
 70
     8
  9
$HANDSEED
  5
C7
  9
$SURFTAB1
 70
     6
  9
$SURFTAB2
 70
     6
  9
$SURFTYPE
 70
     6
  9
$SURFU
 70
     6
  9
$SURFV
 70
     6
  9
$UCSBASE
  2

  9
$UCSNAME
  2

  9
$UCSORG
 10
0.0
 20
0.0
 30
0.0
  9
$UCSXDIR
 10
1.0
 20
0.0
 30
0.0
  9
$UCSYDIR
 10
0.0
 20
1.0
 30
0.0
  9
$UCSORTHOREF
  2

  9
$UCSORTHOVIEW
 70
     0
  9
$UCSORGTOP
 10
0.0
 20
0.0
 30
0.0
  9
$UCSORGBOTTOM
 10
0.0
 20
0.0
 30
0.0
  9
$UCSORGLEFT
 10
0.0
 20
0.0
 30
0.0
  9
$UCSORGRIGHT
 10
0.0
 20
0.0
 30
0.0
  9
$UCSORGFRONT
 10
0.0
 20
0.0
 30
0.0
  9
$UCSORGBACK
 10
0.0
 20
0.0
 30
0.0
  9
$PUCSBASE
  2

  9
$PUCSNAME
  2

  9
$PUCSORG
 10
0.0
 20
0.0
 30
0.0
  9
$PUCSXDIR
 10
1.0
 20
0.0
 30
0.0
  9
$PUCSYDIR
 10
0.0
 20
1.0
 30
0.0
  9
$PUCSORTHOREF
  2

  9
$PUCSORTHOVIEW
 70
     0
  9
$PUCSORGTOP
 10
0.0
 20
0.0
 30
0.0
  9
$PUCSORGBOTTOM
 10
0.0
 20
0.0
 30
0.0
  9
$PUCSORGLEFT
 10
0.0
 20
0.0
 30
0.0
  9
$PUCSORGRIGHT
 10
0.0
 20
0.0
 30
0.0
  9
$PUCSORGFRONT
 10
0.0
 20
0.0
 30
0.0
  9
$PUCSORGBACK
 10
0.0
 20
0.0
 30
0.0
  9
$USERI1
 70
     0
  9
$USERI2
 70
     0
  9
$USERI3
 70
     0
  9
$USERI4
 70
     0
  9
$USERI5
 70
     0
  9
$USERR1
 40
0.0
  9
$USERR2
 40
0.0
  9
$USERR3
 40
0.0
  9
$USERR4
 40
0.0
  9
$USERR5
 40
0.0
  9
$WORLDVIEW
 70
     1
  9
$SHADEDGE
 70
     3
  9
$SHADEDIF
 70
    70
  9
$TILEMODE
 70
     1
  9
$MAXACTVP
 70
    64
  9
$PINSBASE
 10
0.0
 20
0.0
 30
0.0
  9
$PLIMCHECK
 70
     0
  9
$PEXTMIN
 10
1.000000000000000E+20
 20
1.000000000000000E+20
 30
1.000000000000000E+20
  9
$PEXTMAX
 10
-1.000000000000000E+20
 20
-1.000000000000000E+20
 30
-1.000000000000000E+20
  9
$PLIMMIN
 10
0.0
 20
0.0
  9
$PLIMMAX
 10
12.0
 20
9.0
  9
$UNITMODE
 70
     0
  9
$VISRETAIN
 70
     1
  9
$PLINEGEN
 70
     0
  9
$PSLTSCALE
 70
     1
  9
$TREEDEPTH
 70
  3020
  9
$CMLSTYLE
  2
Standard
  9
$CMLJUST
 70
     0
  9
$CMLSCALE
 40
1.0
  9
$PROXYGRAPHICS
 70
     1
  9
$MEASUREMENT
 70
     0
  9
$CELWEIGHT
370
    -1
  9
$ENDCAPS
280
     0
  9
$JOINSTYLE
280
     0
  9
$LWDISPLAY
290
     0
  9
$INSUNITS
 70
     4
  9
$HYPERLINKBASE
  1

  9
$STYLESHEET
  1

  9
$XEDIT
290
     1
  9
$CEPSNTYPE
380
     0
  9
$PSTYLEMODE
290
     1
  9
$FINGERPRINTGUID
  2
{212FBFCA-354A-4699-AE88-EFF997713C1A}
  9
$VERSIONGUID
  2
{FAEB1C32-E019-11D5-929B-00C0DF256EC4}
  9
$EXTNAMES
290
     1
  9
$PSVPSCALE
 40
0.0
  9
$OLESTARTUP
290
     0
  9
$SORTENTS
280
   127
  9
$INDEXCTL
280
     0
  9
$HIDETEXT
280
     1
  9
$XCLIPFRAME
290
     0
  9
$HALOGAP
280
     0
  9
$OBSCOLOR
 70
   257
  9
$OBSLTYPE
280
     0
  9
$INTERSECTIONDISPLAY
280
     0
  9
$INTERSECTIONCOLOR
 70
   257
  9
$DIMASSOC
280
     2
  9
$PROJECTNAME
  1

  9
$CAMERADISPLAY
290
     0
  9
$LENSLENGTH
 40
50.0
  9
$CAMERAHEIGHT
 40
0.0
  9
$STEPSPERSEC
 40
2.0
  9
$STEPSIZE
 40
6.0
  9
$3DDWFPREC
 40
2.0
  9
$PSOLWIDTH
 40
0.25
  9
$PSOLHEIGHT
 40
4.0
  9
$LOFTANG1
 40
1.570796326794897
  9
$LOFTANG2
 40
1.570796326794897
  9
$LOFTMAG1
 40
0.0
  9
$LOFTMAG2
 40
0.0
  9
$LOFTPARAM
 70
     7
  9
$LOFTNORMALS
280
     1
  9
$LATITUDE
 40
37.795
  9
$LONGITUDE
 40
-122.394
  9
$NORTHDIRECTION
 40
0.0
  9
$TIMEZONE
 70
 -8000
  9
$LIGHTGLYPHDISPLAY
280
     1
  9
$TILEMODELIGHTSYNCH
280
     1
  9
$CMATERIAL
347
44
  9
$SOLIDHIST
280
     0
  9
$SHOWHIST
280
     1
  9
$DWFFRAME
280
     2
  9
$DGNFRAME
280
     2
  9
$REALWORLDSCALE
290
     1
  9
$INTERFERECOLOR
 62
   256
  9
$CSHADOW
280
     0
  9
$SHADOWPLANELOCATION
 40
0.0
  0
ENDSEC
  0
SECTION
  2
CLASSES
  0
CLASS
  1
ACDBDICTIONARYWDFLT
  2
AcDbDictionaryWithDefault
  3
ObjectDBX Classes
 90
        0
 91
        4
280
     0
281
     0
  0
CLASS
  1
VISUALSTYLE
  2
AcDbVisualStyle
  3
ObjectDBX Classes
 90
     4095
 91
        4
280
     0
281
     0
  0
CLASS
  1
MATERIAL
  2
AcDbMaterial
  3
ObjectDBX Classes
 90
     1153
 91
        4
280
     0
281
     0
  0
CLASS
  1
SCALE
  2
AcDbScale
  3
ObjectDBX Classes
 90
     1153
 91
        4
280
     0
281
     0
  0
CLASS
  1
TABLESTYLE
  2
AcDbTableStyle
  3
ObjectDBX Classes
 90
     4095
 91
        4
280
     0
281
     0
  0
CLASS
  1
MLEADERSTYLE
  2
AcDbMLeaderStyle
  3
ACDB_MLEADERSTYLE_CLASS
 90
     4095
 91
        4
280
     0
281
     0
  0
CLASS
  1
SUN
  2
AcDbSun
  3
SCENEOE
 90
     1153
 91
        4
280
     0
281
     0
  0
CLASS
  1
DICTIONARYVAR
  2
AcDbDictionaryVar
  3
ObjectDBX Classes
 90
        0
 91
        4
280
     0
281
     0
  0
CLASS
  1
CELLSTYLEMAP
  2
AcDbCellStyleMap
  3
ObjectDBX Classes
 90
     1152
 91
        4
280
     0
281
     0
  0
ENDSEC
  0
SECTION
  2
TABLES
  0
TABLE
  2
VPORT
  5
8
330
0
100
AcDbSymbolTable
 70
     1
  0
VPORT
  5
29
330
8
100
AcDbSymbolTableRecord
100
AcDbViewportTableRecord
  2
*Active
 70
     0
 10
0.0
 20
0.0
 11
1.0
 21
1.0
 12
10.42990654205607
 22
4.5
 13
0.0
 23
0.0
 14
0.5
 24
0.5
 15
0.5
 25
0.5
 16
0.0
 26
0.0
 36
1.0
 17
0.0
 27
0.0
 37
0.0
 40
9.0
 41
1.972972972850329
 42
50.0
 43
0.0
 44
0.0
 50
0.0
 51
0.0
 71
     0
 72
   100
 73
     1
 74
     3
 75
     0
 76
     0
 77
     0
 78
     0
281
     0
 65
     1
110
0.0
120
0.0
130
0.0
111
1.0
121
0.0
131
0.0
112
0.0
122
1.0
132
0.0
 79
     0
146
0.0
348
2F
 60
     3
 61
     5
292
     1
282
     1
141
0.0
142
0.0
 63
   250
361
6D
  0
ENDTAB
  0
TABLE
  2
LTYPE
  5
5
330
0
100
AcDbSymbolTable
 70
     1
  0
LTYPE
  5
14
330
5
100
AcDbSymbolTableRecord
100
AcDbLinetypeTableRecord
  2
ByBlock
 70
     0
  3

 72
    65
 73
     0
 40
0.0
  0
LTYPE
  5
15
330
5
100
AcDbSymbolTableRecord
100
AcDbLinetypeTableRecord
  2
ByLayer
 70
     0
  3

 72
    65
 73
     0
 40
0.0
  0
LTYPE
  5
16
330
5
100
AcDbSymbolTableRecord
100
AcDbLinetypeTableRecord
  2
Continuous
 70
     0
  3
Solid line
 72
    65
 73
     0
 40
0.0
  0
ENDTAB
  0
TABLE
  2
LAYER
  5
2
330
0
100
AcDbSymbolTable
 70
     2
  0
LAYER
  5
10
330
2
100
AcDbSymbolTableRecord
100
AcDbLayerTableRecord
  2
0
 70
     0
 62
     7
  6
Continuous
370
    -3
390
F
347
46
  0
LAYER
  5
6F
330
2
100
AcDbSymbolTableRecord
100
AcDbLayerTableRecord
  2
Katman 1
 70
     0
 62
     7
  6
Continuous
370
    -3
390
F
347
46
  0
ENDTAB
  0
TABLE
  2
STYLE
  5
3
330
0
100
AcDbSymbolTable
 70
     1
  0
STYLE
  5
11
330
3
100
AcDbSymbolTableRecord
100
AcDbTextStyleTableRecord
  2
Standard
 70
     0
 40
0.0
 41
1.0
 50
0.0
 71
     0
 42
0.2
  3
txt
  4

  0
ENDTAB
  0
TABLE
  2
VIEW
  5
6
330
0
100
AcDbSymbolTable
 70
     0
  0
ENDTAB
  0
TABLE
  2
UCS
  5
7
330
0
100
AcDbSymbolTable
 70
     0
  0
ENDTAB
  0
TABLE
  2
APPID
  5
9
330
0
100
AcDbSymbolTable
 70
     3
  0
APPID
  5
12
330
9
100
AcDbSymbolTableRecord
100
AcDbRegAppTableRecord
  2
ACAD
 70
     0
  0
APPID
  5
6E
330
9
100
AcDbSymbolTableRecord
100
AcDbRegAppTableRecord
  2
ODA
 70
     0
  0
APPID
  5
BF
330
9
100
AcDbSymbolTableRecord
100
AcDbRegAppTableRecord
  2
ACAD_MLEADERVER
 70
     0
  0
ENDTAB
  0
TABLE
  2
DIMSTYLE
  5
A
330
0
100
AcDbSymbolTable
 70
     1
100
AcDbDimStyleTable
  0
DIMSTYLE
105
27
330
A
100
AcDbSymbolTableRecord
100
AcDbDimStyleTableRecord
  2
Standard
 70
     0
178
     0
340
11
  0
ENDTAB
  0
TABLE
  2
BLOCK_RECORD
  5
1
330
0
100
AcDbSymbolTable
 70
     1
  0
BLOCK_RECORD
  5
1F
330
1
100
AcDbSymbolTableRecord
100
AcDbBlockTableRecord
  2
*Model_Space
340
22
 70
     0
280
     1
281
     0
  0
BLOCK_RECORD
  5
1B
330
1
100
AcDbSymbolTableRecord
100
AcDbBlockTableRecord
  2
*Paper_Space
340
1E
 70
     0
280
     1
281
     0
  0
BLOCK_RECORD
  5
23
330
1
100
AcDbSymbolTableRecord
100
AcDbBlockTableRecord
  2
*Paper_Space0
340
26
 70
     0
280
     1
281
     0
  0
ENDTAB
  0
ENDSEC
  0
SECTION
  2
BLOCKS
  0
BLOCK
  5
20
330
1F
100
AcDbEntity
  8
0
100
AcDbBlockBegin
  2
*Model_Space
 70
     0
 10
0.0
 20
0.0
 30
0.0
  3
*Model_Space
  1

  0
ENDBLK
  5
21
330
1F
100
AcDbEntity
  8
0
100
AcDbBlockEnd
  0
BLOCK
  5
1C
330
1B
100
AcDbEntity
 67
     1
  8
0
100
AcDbBlockBegin
  2
*Paper_Space
 70
     0
 10
0.0
 20
0.0
 30
0.0
  3
*Paper_Space
  1

  0
ENDBLK
  5
1D
330
1B
100
AcDbEntity
 67
     1
  8
0
100
AcDbBlockEnd
  0
BLOCK
  5
24
330
23
100
AcDbEntity
  8
0
100
AcDbBlockBegin
  2
*Paper_Space0
 70
     0
 10
0.0
 20
0.0
 30
0.0
  3
*Paper_Space0
  1

  0
ENDBLK
  5
25
330
23
100
AcDbEntity
  8
0
100
AcDbBlockEnd
  0
ENDSEC
  0
SECTION
  2
ENTITIES
  0
SPLINE
  5
70
330
1F
100
AcDbEntity
  8
Katman 1
100
AcDbSpline
210
0.0
220
0.0
230
1.0
 70
    11
 71
     3
 72
   432
 73
   428
 74
     0
 42
0.000000001
 43
0.0000000001
 40
0.0
 40
0.0
 40
0.0
 40
0.0
 40
0.0092592592592593
 40
0.0092592592592593
 40
0.0092592592592593
 40
0.0092592592592593
 40
0.0185185185185185
 40
0.0185185185185185
 40
0.0185185185185185
 40
0.0185185185185185
 40
0.0277777777777778
 40
0.0277777777777778
 40
0.0277777777777778
 40
0.0277777777777778
 40
0.037037037037037
 40
0.037037037037037
 40
0.037037037037037
 40
0.037037037037037
 40
0.0462962962962963
 40
0.0462962962962963
 40
0.0462962962962963
 40
0.0462962962962963
 40
0.0555555555555556
 40
0.0555555555555556
 40
0.0555555555555556
 40
0.0555555555555556
 40
0.0648148148148148
 40
0.0648148148148148
 40
0.0648148148148148
 40
0.0648148148148148
 40
0.0740740740740741
 40
0.0740740740740741
 40
0.0740740740740741
 40
0.0740740740740741
 40
0.0833333333333333
 40
0.0833333333333333
 40
0.0833333333333333
 40
0.0833333333333333
 40
0.0925925925925926
 40
0.0925925925925926
 40
0.0925925925925926
 40
0.0925925925925926
 40
0.1018518518518518
 40
0.1018518518518518
 40
0.1018518518518518
 40
0.1018518518518518
 40
0.1111111111111111
 40
0.1111111111111111
 40
0.1111111111111111
 40
0.1111111111111111
 40
0.1203703703703704
 40
0.1203703703703704
 40
0.1203703703703704
 40
0.1203703703703704
 40
0.1296296296296296
 40
0.1296296296296296
 40
0.1296296296296296
 40
0.1296296296296296
 40
0.1388888888888889
 40
0.1388888888888889
 40
0.1388888888888889
 40
0.1388888888888889
 40
0.1481481481481481
 40
0.1481481481481481
 40
0.1481481481481481
 40
0.1481481481481481
 40
0.1574074074074074
 40
0.1574074074074074
 40
0.1574074074074074
 40
0.1574074074074074
 40
0.1666666666666667
 40
0.1666666666666667
 40
0.1666666666666667
 40
0.1666666666666667
 40
0.1759259259259259
 40
0.1759259259259259
 40
0.1759259259259259
 40
0.1759259259259259
 40
0.1851851851851852
 40
0.1851851851851852
 40
0.1851851851851852
 40
0.1851851851851852
 40
0.1944444444444444
 40
0.1944444444444444
 40
0.1944444444444444
 40
0.1944444444444444
 40
0.2037037037037037
 40
0.2037037037037037
 40
0.2037037037037037
 40
0.2037037037037037
 40
0.212962962962963
 40
0.212962962962963
 40
0.212962962962963
 40
0.212962962962963
 40
0.2222222222222222
 40
0.2222222222222222
 40
0.2222222222222222
 40
0.2222222222222222
 40
0.2314814814814815
 40
0.2314814814814815
 40
0.2314814814814815
 40
0.2314814814814815
 40
0.2407407407407407
 40
0.2407407407407407
 40
0.2407407407407407
 40
0.2407407407407407
 40
0.25
 40
0.25
 40
0.25
 40
0.25
 40
0.2592592592592592
 40
0.2592592592592592
 40
0.2592592592592592
 40
0.2592592592592592
 40
0.2685185185185185
 40
0.2685185185185185
 40
0.2685185185185185
 40
0.2685185185185185
 40
0.2777777777777778
 40
0.2777777777777778
 40
0.2777777777777778
 40
0.2777777777777778
 40
0.287037037037037
 40
0.287037037037037
 40
0.287037037037037
 40
0.287037037037037
 40
0.2962962962962963
 40
0.2962962962962963
 40
0.2962962962962963
 40
0.2962962962962963
 40
0.3055555555555556
 40
0.3055555555555556
 40
0.3055555555555556
 40
0.3055555555555556
 40
0.3148148148148148
 40
0.3148148148148148
 40
0.3148148148148148
 40
0.3148148148148148
 40
0.3240740740740741
 40
0.3240740740740741
 40
0.3240740740740741
 40
0.3240740740740741
 40
0.3333333333333333
 40
0.3333333333333333
 40
0.3333333333333333
 40
0.3333333333333333
 40
0.3425925925925926
 40
0.3425925925925926
 40
0.3425925925925926
 40
0.3425925925925926
 40
0.3518518518518519
 40
0.3518518518518519
 40
0.3518518518518519
 40
0.3518518518518519
 40
0.3611111111111111
 40
0.3611111111111111
 40
0.3611111111111111
 40
0.3611111111111111
 40
0.3703703703703703
 40
0.3703703703703703
 40
0.3703703703703703
 40
0.3703703703703703
 40
0.3796296296296297
 40
0.3796296296296297
 40
0.3796296296296297
 40
0.3796296296296297
 40
0.3888888888888889
 40
0.3888888888888889
 40
0.3888888888888889
 40
0.3888888888888889
 40
0.3981481481481481
 40
0.3981481481481481
 40
0.3981481481481481
 40
0.3981481481481481
 40
0.4074074074074074
 40
0.4074074074074074
 40
0.4074074074074074
 40
0.4074074074074074
 40
0.4166666666666667
 40
0.4166666666666667
 40
0.4166666666666667
 40
0.4166666666666667
 40
0.4259259259259259
 40
0.4259259259259259
 40
0.4259259259259259
 40
0.4259259259259259
 40
0.4351851851851852
 40
0.4351851851851852
 40
0.4351851851851852
 40
0.4351851851851852
 40
0.4444444444444444
 40
0.4444444444444444
 40
0.4444444444444444
 40
0.4444444444444444
 40
0.4537037037037037
 40
0.4537037037037037
 40
0.4537037037037037
 40
0.4537037037037037
 40
0.462962962962963
 40
0.462962962962963
 40
0.462962962962963
 40
0.462962962962963
 40
0.4722222222222222
 40
0.4722222222222222
 40
0.4722222222222222
 40
0.4722222222222222
 40
0.4814814814814815
 40
0.4814814814814815
 40
0.4814814814814815
 40
0.4814814814814815
 40
0.4907407407407408
 40
0.4907407407407408
 40
0.4907407407407408
 40
0.4907407407407408
 40
0.5
 40
0.5
 40
0.5
 40
0.5
 40
0.5092592592592593
 40
0.5092592592592593
 40
0.5092592592592593
 40
0.5092592592592593
 40
0.5185185185185185
 40
0.5185185185185185
 40
0.5185185185185185
 40
0.5185185185185185
 40
0.5277777777777778
 40
0.5277777777777778
 40
0.5277777777777778
 40
0.5277777777777778
 40
0.5370370370370371
 40
0.5370370370370371
 40
0.5370370370370371
 40
0.5370370370370371
 40
0.5462962962962963
 40
0.5462962962962963
 40
0.5462962962962963
 40
0.5462962962962963
 40
0.5555555555555556
 40
0.5555555555555556
 40
0.5555555555555556
 40
0.5555555555555556
 40
0.5648148148148148
 40
0.5648148148148148
 40
0.5648148148148148
 40
0.5648148148148148
 40
0.5740740740740741
 40
0.5740740740740741
 40
0.5740740740740741
 40
0.5740740740740741
 40
0.5833333333333334
 40
0.5833333333333334
 40
0.5833333333333334
 40
0.5833333333333334
 40
0.5925925925925926
 40
0.5925925925925926
 40
0.5925925925925926
 40
0.5925925925925926
 40
0.6018518518518519
 40
0.6018518518518519
 40
0.6018518518518519
 40
0.6018518518518519
 40
0.6111111111111112
 40
0.6111111111111112
 40
0.6111111111111112
 40
0.6111111111111112
 40
0.6203703703703703
 40
0.6203703703703703
 40
0.6203703703703703
 40
0.6203703703703703
 40
0.6296296296296297
 40
0.6296296296296297
 40
0.6296296296296297
 40
0.6296296296296297
 40
0.6388888888888888
 40
0.6388888888888888
 40
0.6388888888888888
 40
0.6388888888888888
 40
0.6481481481481481
 40
0.6481481481481481
 40
0.6481481481481481
 40
0.6481481481481481
 40
0.6574074074074074
 40
0.6574074074074074
 40
0.6574074074074074
 40
0.6574074074074074
 40
0.6666666666666666
 40
0.6666666666666666
 40
0.6666666666666666
 40
0.6666666666666666
 40
0.6759259259259259
 40
0.6759259259259259
 40
0.6759259259259259
 40
0.6759259259259259
 40
0.6851851851851852
 40
0.6851851851851852
 40
0.6851851851851852
 40
0.6851851851851852
 40
0.6944444444444444
 40
0.6944444444444444
 40
0.6944444444444444
 40
0.6944444444444444
 40
0.7037037037037037
 40
0.7037037037037037
 40
0.7037037037037037
 40
0.7037037037037037
 40
0.7129629629629629
 40
0.7129629629629629
 40
0.7129629629629629
 40
0.7129629629629629
 40
0.7222222222222222
 40
0.7222222222222222
 40
0.7222222222222222
 40
0.7222222222222222
 40
0.7314814814814815
 40
0.7314814814814815
 40
0.7314814814814815
 40
0.7314814814814815
 40
0.7407407407407407
 40
0.7407407407407407
 40
0.7407407407407407
 40
0.7407407407407407
 40
0.75
 40
0.75
 40
0.75
 40
0.75
 40
0.7592592592592593
 40
0.7592592592592593
 40
0.7592592592592593
 40
0.7592592592592593
 40
0.7685185185185185
 40
0.7685185185185185
 40
0.7685185185185185
 40
0.7685185185185185
 40
0.7777777777777778
 40
0.7777777777777778
 40
0.7777777777777778
 40
0.7777777777777778
 40
0.7870370370370371
 40
0.7870370370370371
 40
0.7870370370370371
 40
0.7870370370370371
 40
0.7962962962962963
 40
0.7962962962962963
 40
0.7962962962962963
 40
0.7962962962962963
 40
0.8055555555555556
 40
0.8055555555555556
 40
0.8055555555555556
 40
0.8055555555555556
 40
0.8148148148148148
 40
0.8148148148148148
 40
0.8148148148148148
 40
0.8148148148148148
 40
0.8240740740740741
 40
0.8240740740740741
 40
0.8240740740740741
 40
0.8240740740740741
 40
0.8333333333333334
 40
0.8333333333333334
 40
0.8333333333333334
 40
0.8333333333333334
 40
0.8425925925925926
 40
0.8425925925925926
 40
0.8425925925925926
 40
0.8425925925925926
 40
0.8518518518518519
 40
0.8518518518518519
 40
0.8518518518518519
 40
0.8518518518518519
 40
0.8611111111111112
 40
0.8611111111111112
 40
0.8611111111111112
 40
0.8611111111111112
 40
0.8703703703703703
 40
0.8703703703703703
 40
0.8703703703703703
 40
0.8703703703703703
 40
0.8796296296296297
 40
0.8796296296296297
 40
0.8796296296296297
 40
0.8796296296296297
 40
0.8888888888888888
 40
0.8888888888888888
 40
0.8888888888888888
 40
0.8888888888888888
 40
0.8981481481481481
 40
0.8981481481481481
 40
0.8981481481481481
 40
0.8981481481481481
 40
0.9074074074074074
 40
0.9074074074074074
 40
0.9074074074074074
 40
0.9074074074074074
 40
0.9166666666666666
 40
0.9166666666666666
 40
0.9166666666666666
 40
0.9166666666666666
 40
0.9259259259259259
 40
0.9259259259259259
 40
0.9259259259259259
 40
0.9259259259259259
 40
0.9351851851851852
 40
0.9351851851851852
 40
0.9351851851851852
 40
0.9351851851851852
 40
0.9444444444444444
 40
0.9444444444444444
 40
0.9444444444444444
 40
0.9444444444444444
 40
0.9537037037037037
 40
0.9537037037037037
 40
0.9537037037037037
 40
0.9537037037037037
 40
0.9629629629629629
 40
0.9629629629629629
 40
0.9629629629629629
 40
0.9629629629629629
 40
0.9722222222222222
 40
0.9722222222222222
 40
0.9722222222222222
 40
0.9722222222222222
 40
0.9814814814814815
 40
0.9814814814814815
 40
0.9814814814814815
 40
0.9814814814814815
 40
1.0
 40
1.0
 40
1.0
 40
1.0
 10
-848.2498
 20
324.6354
 30
0.0
 10
-856.8644
 20
323.4695
 30
0.0
 10
-867.5303
 20
338.9197
 30
0.0
 10
-873.0473
 20
344.1551
 30
0.0
 10
-873.0473
 20
344.1551
 30
0.0
 10
-876.9629
 20
347.8709
 30
0.0
 10
-879.9754
 20
351.4884
 30
0.0
 10
-884.2221
 20
355.3708
 30
0.0
 10
-884.2221
 20
355.3708
 30
0.0
 10
-884.2221
 20
355.3708
 30
0.0
 10
-893.054
 20
363.2229
 30
0.0
 10
-893.054
 20
363.2229
 30
0.0
 10
-893.054
 20
363.2229
 30
0.0
 10
-894.1983
 20
364.3711
 30
0.0
 10
-894.8379
 20
365.2674
 30
0.0
 10
-896.5156
 20
364.7697
 30
0.0
 10
-896.5156
 20
364.7697
 30
0.0
 10
-897.1151
 20
362.8292
 30
0.0
 10
-895.4199
 20
361.6264
 30
0.0
 10
-894.0094
 20
359.8858
 30
0.0
 10
-894.0094
 20
359.8858
 30
0.0
 10
-889.9363
 20
354.8596
 30
0.0
 10
-886.0672
 20
350.9131
 30
0.0
 10
-885.4777
 20
343.5846
 30
0.0
 10
-885.4777
 20
343.5846
 30
0.0
 10
-889.7314
 20
345.1683
 30
0.0
 10
-894.1463
 20
349.1162
 30
0.0
 10
-898.405
 20
350.7494
 30
0.0
 10
-898.405
 20
350.7494
 30
0.0
 10
-897.6002
 20
348.4609
 30
0.0
 10
-895.0628
 20
344.8595
 30
0.0
 10
-893.6735
 20
342.5867
 30
0.0
 10
-893.6735
 20
342.5867
 30
0.0
 10
-879.4718
 20
319.3532
 30
0.0
 10
-871.5966
 20
300.0419
 30
0.0
 10
-892.1953
 20
276.0723
 30
0.0
 10
-892.1953
 20
276.0723
 30
0.0
 10
-895.689
 20
272.0068
 30
0.0
 10
-901.8065
 20
267.7324
 30
0.0
 10
-906.3802
 20
264.0365
 30
0.0
 10
-906.3802
 20
264.0365
 30
0.0
 10
-910.9953
 20
260.3072
 30
0.0
 10
-916.0851
 20
255.1019
 30
0.0
 10
-919.6604
 20
250.6316
 30
0.0
 10
-919.6604
 20
250.6316
 30
0.0
 10
-924.6125
 20
244.4401
 30
0.0
 10
-937.3905
 20
225.1605
 30
0.0
 10
-935.3353
 20
213.2345
 30
0.0
 10
-935.3353
 20
213.2345
 30
0.0
 10
-933.2923
 20
216.6545
 30
0.0
 10
-931.5502
 20
220.0973
 30
0.0
 10
-929.5989
 20
223.3958
 30
0.0
 10
-929.5989
 20
223.3958
 30
0.0
 10
-927.4713
 20
226.9923
 30
0.0
 10
-925.1527
 20
229.7859
 30
0.0
 10
-922.7401
 20
232.7369
 30
0.0
 10
-922.7401
 20
232.7369
 30
0.0
 10
-919.4285
 20
236.7876
 30
0.0
 10
-910.6858
 20
244.1907
 30
0.0
 10
-902.9712
 20
245.8748
 30
0.0
 10
-902.9712
 20
245.8748
 30
0.0
 10
-905.6698
 20
235.3479
 30
0.0
 10
-910.2303
 20
230.693
 30
0.0
 10
-911.8441
 20
214.678
 30
0.0
 10
-911.8441
 20
214.678
 30
0.0
 10
-905.674
 20
218.7108
 30
0.0
 10
-913.3624
 20
218.8586
 30
0.0
 10
-885.8663
 20
231.1303
 30
0.0
 10
-885.8663
 20
231.1303
 30
0.0
 10
-873.7747
 20
236.5269
 30
0.0
 10
-876.2081
 20
240.3925
 30
0.0
 10
-858.5677
 20
246.5003
 30
0.0
 10
-858.5677
 20
246.5003
 30
0.0
 10
-858.5113
 20
239.0736
 30
0.0
 10
-860.4718
 20
233.072
 30
0.0
 10
-863.7671
 20
228.0915
 30
0.0
 10
-863.7671
 20
228.0915
 30
0.0
 10
-865.4383
 20
225.5658
 30
0.0
 10
-867.1829
 20
223.795
 30
0.0
 10
-869.162
 20
222.0438
 30
0.0
 10
-869.162
 20
222.0438
 30
0.0
 10
-871.2964
 20
220.1553
 30
0.0
 10
-874.1823
 20
218.92
 30
0.0
 10
-875.9083
 20
216.8153
 30
0.0
 10
-875.9083
 20
216.8153
 30
0.0
 10
-862.9358
 20
216.4331
 30
0.0
 10
-852.0628
 20
222.9081
 30
0.0
 10
-842.5146
 20
230.1914
 30
0.0
 10
-842.5146
 20
230.1914
 30
0.0
 10
-841.799
 20
230.7372
 30
0.0
 10
-839.2003
 20
232.5877
 30
0.0
 10
-838.9891
 20
232.8004
 30
0.0
 10
-838.9891
 20
232.8004
 30
0.0
 10
-838.9891
 20
232.8004
 30
0.0
 10
-839.8002
 20
226.9907
 30
0.0
 10
-839.8002
 20
226.9907
 30
0.0
 10
-839.8002
 20
226.9907
 30
0.0
 10
-839.8002
 20
226.9907
 30
0.0
 10
-832.9679
 20
229.4859
 30
0.0
 10
-832.9679
 20
229.4859
 30
0.0
 10
-832.9679
 20
229.4859
 30
0.0
 10
-833.7963
 20
224.711
 30
0.0
 10
-836.7293
 20
221.0405
 30
0.0
 10
-838.977
 20
218.5388
 30
0.0
 10
-838.977
 20
218.5388
 30
0.0
 10
-840.8179
 20
216.4897
 30
0.0
 10
-847.0323
 20
212.002
 30
0.0
 10
-847.9555
 20
210.2313
 30
0.0
 10
-847.9555
 20
210.2313
 30
0.0
 10
-840.9666
 20
210.1739
 30
0.0
 10
-830.0266
 20
213.2214
 30
0.0
 10
-824.9516
 20
208.7772
 30
0.0
 10
-824.9516
 20
208.7772
 30
0.0
 10
-824.9516
 20
208.7772
 30
0.0
 10
-830.5517
 20
205.6426
 30
0.0
 10
-830.5517
 20
205.6426
 30
0.0
 10
-830.5517
 20
205.6426
 30
0.0
 10
-824.7887
 20
202.6499
 30
0.0
 10
-813.4312
 20
202.9299
 30
0.0
 10
-809.6929
 20
196.7454
 30
0.0
 10
-809.6929
 20
196.7454
 30
0.0
 10
-812.2742
 20
195.0281
 30
0.0
 10
-816.8551
 20
194.882
 30
0.0
 10
-818.3948
 20
193.1515
 30
0.0
 10
-818.3948
 20
193.1515
 30
0.0
 10
-821.3415
 20
188.5401
 30
0.0
 10
-811.7057
 20
179.7758
 30
0.0
 10
-808.9093
 20
177.1311
 30
0.0
 10
-808.9093
 20
177.1311
 30
0.0
 10
-794.1597
 20
163.1815
 30
0.0
 10
-777.3346
 20
156.0133
 30
0.0
 10
-756.7326
 20
150.5391
 30
0.0
 10
-756.7326
 20
150.5391
 30
0.0
 10
-758.4266
 20
149.3542
 30
0.0
 10
-761.4643
 20
149.1262
 30
0.0
 10
-762.9858
 20
147.7647
 30
0.0
 10
-762.9858
 20
147.7647
 30
0.0
 10
-759.5454
 20
144.9019
 30
0.0
 10
-754.8933
 20
142.6046
 30
0.0
 10
-751.2677
 20
139.9313
 30
0.0
 10
-751.2677
 20
139.9313
 30
0.0
 10
-749.0718
 20
138.3122
 30
0.0
 10
-742.7198
 20
132.4441
 30
0.0
 10
-741.981
 20
129.6423
 30
0.0
 10
-741.981
 20
129.6423
 30
0.0
 10
-744.3978
 20
129.9587
 30
0.0
 10
-747.1316
 20
132.1071
 30
0.0
 10
-749.5848
 20
132.9789
 30
0.0
 10
-749.5848
 20
132.9789
 30
0.0
 10
-746.3571
 20
123.4391
 30
0.0
 10
-739.2413
 20
116.7205
 30
0.0
 10
-741.8118
 20
104.5918
 30
0.0
 10
-741.8118
 20
104.5918
 30
0.0
 10
-741.8118
 20
104.5918
 30
0.0
 10
-744.2505
 20
107.868
 30
0.0
 10
-744.2505
 20
107.868
 30
0.0
 10
-744.2505
 20
107.868
 30
0.0
 10
-748.1821
 20
114.5235
 30
0.0
 10
-755.7453
 20
125.0968
 30
0.0
 10
-764.0744
 20
126.2003
 30
0.0
 10
-764.0744
 20
126.2003
 30
0.0
 10
-771.0515
 20
127.1247
 30
0.0
 10
-769.1451
 20
109.1259
 30
0.0
 10
-776.4883
 20
100.7413
 30
0.0
 10
-776.4883
 20
100.7413
 30
0.0
 10
-783.864
 20
92.3196
 30
0.0
 10
-777.7583
 20
116.8227
 30
0.0
 10
-781.0833
 20
118.6726
 30
0.0
 10
-781.0833
 20
118.6726
 30
0.0
 10
-782.4382
 20
118.2312
 30
0.0
 10
-782.2843
 20
116.9387
 30
0.0
 10
-782.4802
 20
115.3838
 30
0.0
 10
-782.4802
 20
115.3838
 30
0.0
 10
-782.6523
 20
114.0177
 30
0.0
 10
-782.9047
 20
112.7169
 30
0.0
 10
-783.2191
 20
111.2481
 30
0.0
 10
-783.2191
 20
111.2481
 30
0.0
 10
-789.0466
 20
84.0232
 30
0.0
 10
-811.5924
 20
65.2333
 30
0.0
 10
-825.1839
 20
45.5424
 30
0.0
 10
-825.1839
 20
45.5424
 30
0.0
 10
-829.4255
 20
39.3974
 30
0.0
 10
-835.2994
 20
25.6578
 30
0.0
 10
-834.1705
 20
15.9809
 30
0.0
 10
-834.1705
 20
15.9809
 30
0.0
 10
-833.4487
 20
18.6918
 30
0.0
 10
-829.9947
 20
24.7622
 30
0.0
 10
-828.3822
 20
27.2968
 30
0.0
 10
-828.3822
 20
27.2968
 30
0.0
 10
-823.4931
 20
34.982
 30
0.0
 10
-808.2415
 20
49.9953
 30
0.0
 10
-801.3536
 20
52.7475
 30
0.0
 10
-801.3536
 20
52.7475
 30
0.0
 10
-805.6513
 20
47.8136
 30
0.0
 10
-809.7966
 20
41.161
 30
0.0
 10
-813.1053
 20
35.3682
 30
0.0
 10
-813.1053
 20
35.3682
 30
0.0
 10
-816.8644
 20
28.7869
 30
0.0
 10
-819.8322
 20
22.827
 30
0.0
 10
-822.7158
 20
15.4315
 30
0.0
 10
-822.7158
 20
15.4315
 30
0.0
 10
-828.8627
 20
-0.3334
 30
0.0
 10
-832.1946
 20
-17.7532
 30
0.0
 10
-832.1665
 20
-36.7028
 30
0.0
 10
-832.1665
 20
-36.7028
 30
0.0
 10
-832.1582
 20
-41.9374
 30
0.0
 10
-830.5378
 20
-68.0182
 30
0.0
 10
-828.8763
 20
-70.894
 30
0.0
 10
-828.8763
 20
-70.894
 30
0.0
 10
-826.4575
 20
-66.6835
 30
0.0
 10
-826.8368
 20
-55.8785
 30
0.0
 10
-826.0203
 20
-50.3739
 30
0.0
 10
-826.0203
 20
-50.3739
 30
0.0
 10
-823.5687
 20
-33.8453
 30
0.0
 10
-816.363
 20
-11.3152
 30
0.0
 10
-802.4853
 20
-3.3663
 30
0.0
 10
-802.4853
 20
-3.3663
 30
0.0
 10
-788.8191
 20
4.4615
 30
0.0
 10
-792.4916
 20
-22.7759
 30
0.0
 10
-797.3559
 20
-34.2555
 30
0.0
 10
-797.3559
 20
-34.2555
 30
0.0
 10
-799.7384
 20
-39.8783
 30
0.0
 10
-802.3871
 20
-44.7549
 30
0.0
 10
-805.1625
 20
-49.7961
 30
0.0
 10
-805.1625
 20
-49.7961
 30
0.0
 10
-806.5079
 20
-52.2398
 30
0.0
 10
-813.4381
 20
-63.5213
 30
0.0
 10
-813.1066
 20
-64.8816
 30
0.0
 10
-813.1066
 20
-64.8816
 30
0.0
 10
-812.0388
 20
-66.7101
 30
0.0
 10
-804.6792
 20
-60.5968
 30
0.0
 10
-802.4816
 20
-59.1549
 30
0.0
 10
-802.4816
 20
-59.1549
 30
0.0
 10
-784.2266
 20
-47.1775
 30
0.0
 10
-764.5938
 20
-36.0205
 30
0.0
 10
-747.7918
 20
-22.3362
 30
0.0
 10
-747.7918
 20
-22.3362
 30
0.0
 10
-738.4616
 20
-14.7373
 30
0.0
 10
-733.3483
 20
-6.9749
 30
0.0
 10
-729.6827
 20
-3.7742
 30
0.0
 10
-729.6827
 20
-3.7742
 30
0.0
 10
-731.9017
 20
-14.057
 30
0.0
 10
-738.5504
 20
-25.1356
 30
0.0
 10
-744.4866
 20
-33.2734
 30
0.0
 10
-744.4866
 20
-33.2734
 30
0.0
 10
-746.7678
 20
-36.4007
 30
0.0
 10
-748.8811
 20
-38.7126
 30
0.0
 10
-750.86
 20
-41.3802
 30
0.0
 10
-750.86
 20
-41.3802
 30
0.0
 10
-743.0893
 20
-39.0652
 30
0.0
 10
-728.3763
 20
-25.9157
 30
0.0
 10
-722.4841
 20
-20.0071
 30
0.0
 10
-722.4841
 20
-20.0071
 30
0.0
 10
-722.4841
 20
-20.0071
 30
0.0
 10
-706.2491
 20
-2.8905
 30
0.0
 10
-706.2491
 20
-2.8905
 30
0.0
 10
-706.2491
 20
-2.8905
 30
0.0
 10
-703.5257
 20
-0.0989
 30
0.0
 10
-701.0132
 20
2.9807
 30
0.0
 10
-698.3851
 20
5.9382
 30
0.0
 10
-698.3851
 20
5.9382
 30
0.0
 10
-683.6153
 20
22.5591
 30
0.0
 10
-669.403
 20
53.6879
 30
0.0
 10
-669.8401
 20
77.6963
 30
0.0
 10
-669.8401
 20
77.6963
 30
0.0
 10
-670.1463
 20
94.5116
 30
0.0
 10
-678.0664
 20
106.8817
 30
0.0
 10
-690.0347
 20
116.3454
 30
0.0
 10
-690.0347
 20
116.3454
 30
0.0
 10
-692.4733
 20
118.2737
 30
0.0
 10
-692.99
 20
118.0009
 30
0.0
 10
-695.6491
 20
119.2097
 30
0.0
 10
-695.6491
 20
119.2097
 30
0.0
 10
-694.5407
 20
122.3413
 30
0.0
 10
-694.4285
 20
122.0147
 30
0.0
 10
-691.323
 20
123.281
 30
0.0
 10
-691.323
 20
123.281
 30
0.0
 10
-679.4921
 20
128.1054
 30
0.0
 10
-666.3542
 20
125.2454
 30
0.0
 10
-655.2457
 20
120.1564
 30
0.0
 10
-655.2457
 20
120.1564
 30
0.0
 10
-651.2872
 20
118.343
 30
0.0
 10
-647.46
 20
115.5906
 30
0.0
 10
-644.0305
 20
114.1059
 30
0.0
 10
-644.0305
 20
114.1059
 30
0.0
 10
-651.2802
 20
128.4423
 30
0.0
 10
-663.4777
 20
140.7064
 30
0.0
 10
-678.7622
 20
146.6775
 30
0.0
 10
-678.7622
 20
146.6775
 30
0.0
 10
-680.9173
 20
147.5194
 30
0.0
 10
-684.6404
 20
147.9463
 30
0.0
 10
-686.0365
 20
149.6713
 30
0.0
 10
-686.0365
 20
149.6713
 30
0.0
 10
-685.3674
 20
152.498
 30
0.0
 10
-675.4099
 20
155.8078
 30
0.0
 10
-671.4345
 20
157.715
 30
0.0
 10
-671.4345
 20
157.715
 30
0.0
 10
-668.7081
 20
159.023
 30
0.0
 10
-657.8212
 20
163.6053
 30
0.0
 10
-656.3744
 20
164.9244
 30
0.0
 10
-656.3744
 20
164.9244
 30
0.0
 10
-659.8482
 20
166.6793
 30
0.0
 10
-681.6949
 20
162.8389
 30
0.0
 10
-687.232
 20
162.1303
 30
0.0
 10
-687.232
 20
162.1303
 30
0.0
 10
-696.0874
 20
160.9971
 30
0.0
 10
-705.6456
 20
157.9369
 30
0.0
 10
-714.3718
 20
158.3445
 30
0.0
 10
-714.3718
 20
158.3445
 30
0.0
 10
-715.1057
 20
158.3788
 30
0.0
 10
-715.7591
 20
158.4004
 30
0.0
 10
-716.4786
 20
158.5509
 30
0.0
 10
-716.4786
 20
158.5509
 30
0.0
 10
-716.4786
 20
158.5509
 30
0.0
 10
-718.3234
 20
159.2045
 30
0.0
 10
-718.3234
 20
159.2045
 30
0.0
 10
-718.3234
 20
159.2045
 30
0.0
 10
-712.9929
 20
163.6151
 30
0.0
 10
-685.1415
 20
172.2401
 30
0.0
 10
-677.0929
 20
184.9293
 30
0.0
 10
-677.0929
 20
184.9293
 30
0.0
 10
-684.7413
 20
182.3935
 30
0.0
 10
-688.2539
 20
179.8575
 30
0.0
 10
-697.8473
 20
177.466
 30
0.0
 10
-697.8473
 20
177.466
 30
0.0
 10
-714.546
 20
173.3031
 30
0.0
 10
-733.0197
 20
173.8632
 30
0.0
 10
-749.8324
 20
177.1981
 30
0.0
 10
-749.8324
 20
177.1981
 30
0.0
 10
-754.795
 20
178.1825
 30
0.0
 10
-769.8442
 20
181.3344
 30
0.0
 10
-773.0122
 20
183.5142
 30
0.0
 10
-773.0122
 20
183.5142
 30
0.0
 10
-767.5129
 20
185.5498
 30
0.0
 10
-755.3864
 20
182.5676
 30
0.0
 10
-739.7316
 20
186.0114
 30
0.0
 10
-739.7316
 20
186.0114
 30
0.0
 10
-726.0034
 20
189.0314
 30
0.0
 10
-711.8401
 20
194.5861
 30
0.0
 10
-706.4905
 20
207.5624
 30
0.0
 10
-706.4905
 20
207.5624
 30
0.0
 10
-704.6098
 20
212.1243
 30
0.0
 10
-704.247
 20
218.2393
 30
0.0
 10
-703.8809
 20
223.5815
 30
0.0
 10
-703.8809
 20
223.5815
 30
0.0
 10
-703.4789
 20
229.45
 30
0.0
 10
-703.3165
 20
235.5008
 30
0.0
 10
-703.1612
 20
241.4537
 30
0.0
 10
-703.1612
 20
241.4537
 30
0.0
 10
-703.0207
 20
246.8419
 30
0.0
 10
-702.0843
 20
254.0387
 30
0.0
 10
-705.3822
 20
257.4746
 30
0.0
 10
-705.3822
 20
257.4746
 30
0.0
 10
-707.2749
 20
250.0747
 30
0.0
 10
-706.8136
 20
241.9568
 30
0.0
 10
-709.4831
 20
234.8787
 30
0.0
 10
-709.4831
 20
234.8787
 30
0.0
 10
-711.739
 20
228.8972
 30
0.0
 10
-715.4504
 20
222.0632
 30
0.0
 10
-722.3917
 20
221.2206
 30
0.0
 10
-722.3917
 20
221.2206
 30
0.0
 10
-723.8058
 20
229.9979
 30
0.0
 10
-720.6299
 20
236.2013
 30
0.0
 10
-718.1838
 20
244.4989
 30
0.0
 10
-718.1838
 20
244.4989
 30
0.0
 10
-711.2429
 20
268.0428
 30
0.0
 10
-715.1171
 20
287.0141
 30
0.0
 10
-722.7823
 20
309.9825
 30
0.0
 10
-722.7823
 20
309.9825
 30
0.0
 10
-725.889
 20
319.2914
 30
0.0
 10
-731.0273
 20
330.0369
 30
0.0
 10
-737.5163
 20
337.2048
 30
0.0
 10
-737.5163
 20
337.2048
 30
0.0
 10
-738.8308
 20
338.6569
 30
0.0
 10
-739.3157
 20
339.7939
 30
0.0
 10
-741.0558
 20
339.8411
 30
0.0
 10
-741.0558
 20
339.8411
 30
0.0
 10
-741.6575
 20
338.6527
 30
0.0
 10
-737.766
 20
329.1812
 30
0.0
 10
-737.2209
 20
327.0366
 30
0.0
 10
-737.2209
 20
327.0366
 30
0.0
 10
-736.0197
 20
322.3105
 30
0.0
 10
-735.0852
 20
316.9333
 30
0.0
 10
-734.8141
 20
311.7686
 30
0.0
 10
-734.8141
 20
311.7686
 30
0.0
 10
-734.2216
 20
300.4794
 30
0.0
 10
-735.1354
 20
289.0849
 30
0.0
 10
-736.7151
 20
278.3342
 30
0.0
 10
-736.7151
 20
278.3342
 30
0.0
 10
-738.3287
 20
279.9678
 30
0.0
 10
-744.3662
 20
291.7287
 30
0.0
 10
-746.4293
 20
294.9196
 30
0.0
 10
-746.4293
 20
294.9196
 30
0.0
 10
-763.9823
 20
322.0681
 30
0.0
 10
-787.5759
 20
341.0509
 30
0.0
 10
-814.8822
 20
358.4814
 30
0.0
 10
-814.8822
 20
358.4814
 30
0.0
 10
-820.9084
 20
362.3281
 30
0.0
 10
-842.5662
 20
375.7497
 30
0.0
 10
-850.1726
 20
375.9938
 30
0.0
 10
-850.1726
 20
375.9938
 30
0.0
 10
-846.0963
 20
370.2573
 30
0.0
 10
-833.8777
 20
364.0897
 30
0.0
 10
-830.8386
 20
350.6769
 30
0.0
 10
-830.8386
 20
350.6769
 30
0.0
 10
-834.6566
 20
351.7364
 30
0.0
 10
-840.9374
 20
355.8202
 30
0.0
 10
-844.6638
 20
357.7668
 30
0.0
 10
-844.6638
 20
357.7668
 30
0.0
 10
-849.1928
 20
360.1327
 30
0.0
 10
-853.678
 20
362.6555
 30
0.0
 10
-858.2303
 20
365.1675
 30
0.0
 10
-858.2303
 20
365.1675
 30
0.0
 10
-864.2479
 20
368.488
 30
0.0
 10
-880.825
 20
376.4195
 30
0.0
 10
-888.1973
 20
377.1554
 30
0.0
 10
-888.1973
 20
377.1554
 30
0.0
 10
-886.8565
 20
374.0656
 30
0.0
 10
-859.6723
 20
348.4316
 30
0.0
 10
-854.2387
 20
340.5618
 30
0.0
 10
-854.2387
 20
340.5618
 30
0.0
 10
-852.504
 20
338.0492
 30
0.0
 10
-851.2836
 20
335.8485
 30
0.0
 10
-849.7507
 20
333.1355
 30
0.0
 10
-849.7507
 20
333.1355
 30
0.0
 10
-847.5935
 20
329.3176
 30
0.0
 10
-846.5786
 20
329.2644
 30
0.0
 10
-848.2498
 20
324.6354
 30
0.0
  0
SPLINE
  5
71
330
1F
100
AcDbEntity
  8
Katman 1
100
AcDbSpline
210
0.0
220
0.0
230
1.0
 70
    11
 71
     3
 72
   240
 73
   236
 74
     0
 42
0.000000001
 43
0.0000000001
 40
0.0
 40
0.0
 40
0.0
 40
0.0
 40
0.0166666666666667
 40
0.0166666666666667
 40
0.0166666666666667
 40
0.0166666666666667
 40
0.0333333333333333
 40
0.0333333333333333
 40
0.0333333333333333
 40
0.0333333333333333
 40
0.05
 40
0.05
 40
0.05
 40
0.05
 40
0.0666666666666667
 40
0.0666666666666667
 40
0.0666666666666667
 40
0.0666666666666667
 40
0.0833333333333333
 40
0.0833333333333333
 40
0.0833333333333333
 40
0.0833333333333333
 40
0.1
 40
0.1
 40
0.1
 40
0.1
 40
0.1166666666666667
 40
0.1166666666666667
 40
0.1166666666666667
 40
0.1166666666666667
 40
0.1333333333333333
 40
0.1333333333333333
 40
0.1333333333333333
 40
0.1333333333333333
 40
0.15
 40
0.15
 40
0.15
 40
0.15
 40
0.1666666666666667
 40
0.1666666666666667
 40
0.1666666666666667
 40
0.1666666666666667
 40
0.1833333333333333
 40
0.1833333333333333
 40
0.1833333333333333
 40
0.1833333333333333
 40
0.2
 40
0.2
 40
0.2
 40
0.2
 40
0.2166666666666667
 40
0.2166666666666667
 40
0.2166666666666667
 40
0.2166666666666667
 40
0.2333333333333333
 40
0.2333333333333333
 40
0.2333333333333333
 40
0.2333333333333333
 40
0.25
 40
0.25
 40
0.25
 40
0.25
 40
0.2666666666666667
 40
0.2666666666666667
 40
0.2666666666666667
 40
0.2666666666666667
 40
0.2833333333333333
 40
0.2833333333333333
 40
0.2833333333333333
 40
0.2833333333333333
 40
0.3
 40
0.3
 40
0.3
 40
0.3
 40
0.3166666666666667
 40
0.3166666666666667
 40
0.3166666666666667
 40
0.3166666666666667
 40
0.3333333333333333
 40
0.3333333333333333
 40
0.3333333333333333
 40
0.3333333333333333
 40
0.35
 40
0.35
 40
0.35
 40
0.35
 40
0.3666666666666666
 40
0.3666666666666666
 40
0.3666666666666666
 40
0.3666666666666666
 40
0.3833333333333334
 40
0.3833333333333334
 40
0.3833333333333334
 40
0.3833333333333334
 40
0.4
 40
0.4
 40
0.4
 40
0.4
 40
0.4166666666666667
 40
0.4166666666666667
 40
0.4166666666666667
 40
0.4166666666666667
 40
0.4333333333333333
 40
0.4333333333333333
 40
0.4333333333333333
 40
0.4333333333333333
 40
0.45
 40
0.45
 40
0.45
 40
0.45
 40
0.4666666666666667
 40
0.4666666666666667
 40
0.4666666666666667
 40
0.4666666666666667
 40
0.4833333333333333
 40
0.4833333333333333
 40
0.4833333333333333
 40
0.4833333333333333
 40
0.5
 40
0.5
 40
0.5
 40
0.5
 40
0.5166666666666667
 40
0.5166666666666667
 40
0.5166666666666667
 40
0.5166666666666667
 40
0.5333333333333333
 40
0.5333333333333333
 40
0.5333333333333333
 40
0.5333333333333333
 40
0.55
 40
0.55
 40
0.55
 40
0.55
 40
0.5666666666666667
 40
0.5666666666666667
 40
0.5666666666666667
 40
0.5666666666666667
 40
0.5833333333333334
 40
0.5833333333333334
 40
0.5833333333333334
 40
0.5833333333333334
 40
0.6
 40
0.6
 40
0.6
 40
0.6
 40
0.6166666666666667
 40
0.6166666666666667
 40
0.6166666666666667
 40
0.6166666666666667
 40
0.6333333333333333
 40
0.6333333333333333
 40
0.6333333333333333
 40
0.6333333333333333
 40
0.65
 40
0.65
 40
0.65
 40
0.65
 40
0.6666666666666666
 40
0.6666666666666666
 40
0.6666666666666666
 40
0.6666666666666666
 40
0.6833333333333333
 40
0.6833333333333333
 40
0.6833333333333333
 40
0.6833333333333333
 40
0.7
 40
0.7
 40
0.7
 40
0.7
 40
0.7166666666666667
 40
0.7166666666666667
 40
0.7166666666666667
 40
0.7166666666666667
 40
0.7333333333333333
 40
0.7333333333333333
 40
0.7333333333333333
 40
0.7333333333333333
 40
0.75
 40
0.75
 40
0.75
 40
0.75
 40
0.7666666666666667
 40
0.7666666666666667
 40
0.7666666666666667
 40
0.7666666666666667
 40
0.7833333333333333
 40
0.7833333333333333
 40
0.7833333333333333
 40
0.7833333333333333
 40
0.8
 40
0.8
 40
0.8
 40
0.8
 40
0.8166666666666667
 40
0.8166666666666667
 40
0.8166666666666667
 40
0.8166666666666667
 40
0.8333333333333334
 40
0.8333333333333334
 40
0.8333333333333334
 40
0.8333333333333334
 40
0.85
 40
0.85
 40
0.85
 40
0.85
 40
0.8666666666666667
 40
0.8666666666666667
 40
0.8666666666666667
 40
0.8666666666666667
 40
0.8833333333333333
 40
0.8833333333333333
 40
0.8833333333333333
 40
0.8833333333333333
 40
0.9
 40
0.9
 40
0.9
 40
0.9
 40
0.9166666666666666
 40
0.9166666666666666
 40
0.9166666666666666
 40
0.9166666666666666
 40
0.9333333333333333
 40
0.9333333333333333
 40
0.9333333333333333
 40
0.9333333333333333
 40
0.95
 40
0.95
 40
0.95
 40
0.95
 40
0.9666666666666667
 40
0.9666666666666667
 40
0.9666666666666667
 40
0.9666666666666667
 40
1.0
 40
1.0
 40
1.0
 40
1.0
 10
-763.5061
 20
-46.3607
 30
0.0
 10
-765.4141
 20
-47.0422
 30
0.0
 10
-773.4146
 20
-56.975
 30
0.0
 10
-775.6538
 20
-59.7736
 30
0.0
 10
-775.6538
 20
-59.7736
 30
0.0
 10
-776.5437
 20
-60.8858
 30
0.0
 10
-776.6748
 20
-60.9996
 30
0.0
 10
-777.7462
 20
-61.9677
 30
0.0
 10
-777.7462
 20
-61.9677
 30
0.0
 10
-784.4225
 20
-68.0005
 30
0.0
 10
-781.7856
 20
-65.806
 30
0.0
 10
-790.1798
 20
-71.9331
 30
0.0
 10
-790.1798
 20
-71.9331
 30
0.0
 10
-796.3498
 20
-76.4368
 30
0.0
 10
-816.4386
 20
-90.0272
 30
0.0
 10
-822.7064
 20
-92.3468
 30
0.0
 10
-822.7064
 20
-92.3468
 30
0.0
 10
-838.7793
 20
-98.2951
 30
0.0
 10
-836.8271
 20
-74.4089
 30
0.0
 10
-836.8325
 20
-62.9192
 30
0.0
 10
-836.8325
 20
-62.9192
 30
0.0
 10
-836.8342
 20
-60.4552
 30
0.0
 10
-836.4742
 20
-61.4565
 30
0.0
 10
-837.7888
 20
-60.7135
 30
0.0
 10
-837.7888
 20
-60.7135
 30
0.0
 10
-838.9027
 20
-61.0358
 30
0.0
 10
-838.5254
 20
-59.4802
 30
0.0
 10
-839.2476
 20
-64.8019
 30
0.0
 10
-839.2476
 20
-64.8019
 30
0.0
 10
-840.6651
 20
-75.2474
 30
0.0
 10
-843.707
 20
-87.9531
 30
0.0
 10
-848.6954
 20
-96.8121
 30
0.0
 10
-848.6954
 20
-96.8121
 30
0.0
 10
-852.9686
 20
-104.401
 30
0.0
 10
-858.7734
 20
-110.845
 30
0.0
 10
-865.6805
 20
-115.0967
 30
0.0
 10
-865.6805
 20
-115.0967
 30
0.0
 10
-868.1993
 20
-116.6471
 30
0.0
 10
-870.8185
 20
-117.7385
 30
0.0
 10
-873.3323
 20
-119.3157
 30
0.0
 10
-873.3323
 20
-119.3157
 30
0.0
 10
-868.6365
 20
-122.7907
 30
0.0
 10
-862.4225
 20
-122.6051
 30
0.0
 10
-857.0594
 20
-130.8141
 30
0.0
 10
-857.0594
 20
-130.8141
 30
0.0
 10
-853.1737
 20
-136.7617
 30
0.0
 10
-851.4646
 20
-145.4124
 30
0.0
 10
-852.3396
 20
-153.8181
 30
0.0
 10
-852.3396
 20
-153.8181
 30
0.0
 10
-854.002
 20
-169.7883
 30
0.0
 10
-867.6913
 20
-189.9996
 30
0.0
 10
-868.7605
 20
-193.4664
 30
0.0
 10
-868.7605
 20
-193.4664
 30
0.0
 10
-864.432
 20
-192.4002
 30
0.0
 10
-862.7496
 20
-189.2512
 30
0.0
 10
-860.2582
 20
-186.3036
 30
0.0
 10
-860.2582
 20
-186.3036
 30
0.0
 10
-860.2582
 20
-186.3036
 30
0.0
 10
-838.4798
 20
-159.462
 30
0.0
 10
-838.4798
 20
-159.462
 30
0.0
 10
-838.4798
 20
-159.462
 30
0.0
 10
-832.4687
 20
-152.0095
 30
0.0
 10
-829.9959
 20
-149.4479
 30
0.0
 10
-823.2684
 20
-142.2718
 30
0.0
 10
-823.2684
 20
-142.2718
 30
0.0
 10
-807.9026
 20
-125.8814
 30
0.0
 10
-792.0455
 20
-136.3722
 30
0.0
 10
-793.236
 20
-159.2173
 30
0.0
 10
-793.236
 20
-159.2173
 30
0.0
 10
-794.1939
 20
-177.5987
 30
0.0
 10
-798.4139
 20
-193.9244
 30
0.0
 10
-809.661
 20
-207.8323
 30
0.0
 10
-809.661
 20
-207.8323
 30
0.0
 10
-809.661
 20
-207.8323
 30
0.0
 10
-821.7596
 20
-220.0469
 30
0.0
 10
-821.7596
 20
-220.0469
 30
0.0
 10
-821.7596
 20
-220.0469
 30
0.0
 10
-822.8528
 20
-220.9787
 30
0.0
 10
-825.3752
 20
-222.8288
 30
0.0
 10
-825.0362
 20
-224.0917
 30
0.0
 10
-825.0362
 20
-224.0917
 30
0.0
 10
-824.1494
 20
-225.3179
 30
0.0
 10
-819.5022
 20
-222.6834
 30
0.0
 10
-818.5785
 20
-222.2737
 30
0.0
 10
-818.5785
 20
-222.2737
 30
0.0
 10
-816.3769
 20
-221.2971
 30
0.0
 10
-814.593
 20
-220.4253
 30
0.0
 10
-812.4275
 20
-219.368
 30
0.0
 10
-812.4275
 20
-219.368
 30
0.0
 10
-782.7755
 20
-204.8909
 30
0.0
 10
-771.9983
 20
-193.8681
 30
0.0
 10
-749.6254
 20
-173.5045
 30
0.0
 10
-749.6254
 20
-173.5045
 30
0.0
 10
-747.8667
 20
-171.9038
 30
0.0
 10
-746.6901
 20
-170.5901
 30
0.0
 10
-744.9568
 20
-169.1203
 30
0.0
 10
-744.9568
 20
-169.1203
 30
0.0
 10
-743.4233
 20
-167.82
 30
0.0
 10
-741.8103
 20
-165.8276
 30
0.0
 10
-740.2497
 20
-164.9672
 30
0.0
 10
-740.2497
 20
-164.9672
 30
0.0
 10
-745.7035
 20
-181.8487
 30
0.0
 10
-756.8504
 20
-194.4695
 30
0.0
 10
-767.5695
 20
-207.5174
 30
0.0
 10
-767.5695
 20
-207.5174
 30
0.0
 10
-767.5695
 20
-207.5174
 30
0.0
 10
-776.0384
 20
-216.2088
 30
0.0
 10
-776.0384
 20
-216.2088
 30
0.0
 10
-776.0384
 20
-216.2088
 30
0.0
 10
-805.3208
 20
-244.4611
 30
0.0
 10
-832.557
 20
-259.3943
 30
0.0
 10
-867.7527
 20
-282.2389
 30
0.0
 10
-867.7527
 20
-282.2389
 30
0.0
 10
-871.3063
 20
-284.5454
 30
0.0
 10
-874.86
 20
-286.7878
 30
0.0
 10
-878.5887
 20
-289.0375
 30
0.0
 10
-878.5887
 20
-289.0375
 30
0.0
 10
-880.3594
 20
-290.1059
 30
0.0
 10
-882.0475
 20
-291.2422
 30
0.0
 10
-883.8637
 20
-292.3405
 30
0.0
 10
-883.8637
 20
-292.3405
 30
0.0
 10
-885.0014
 20
-293.0285
 30
0.0
 10
-885.4438
 20
-293.2898
 30
0.0
 10
-886.5266
 20
-293.9615
 30
0.0
 10
-886.5266
 20
-293.9615
 30
0.0
 10
-886.5266
 20
-293.9615
 30
0.0
 10
-889.3939
 20
-296.1548
 30
0.0
 10
-889.3939
 20
-296.1548
 30
0.0
 10
-889.3939
 20
-296.1548
 30
0.0
 10
-885.5341
 20
-295.9105
 30
0.0
 10
-868.6959
 20
-291.7485
 30
0.0
 10
-863.2675
 20
-290.527
 30
0.0
 10
-863.2675
 20
-290.527
 30
0.0
 10
-854.5584
 20
-288.5674
 30
0.0
 10
-846.2964
 20
-286.7543
 30
0.0
 10
-837.5694
 20
-284.7843
 30
0.0
 10
-837.5694
 20
-284.7843
 30
0.0
 10
-792.2561
 20
-274.5555
 30
0.0
 10
-760.206
 20
-270.2609
 30
0.0
 10
-722.2931
 20
-241.8448
 30
0.0
 10
-722.2931
 20
-241.8448
 30
0.0
 10
-717.2915
 20
-238.096
 30
0.0
 10
-708.4384
 20
-229.7708
 30
0.0
 10
-704.2246
 20
-227.8622
 30
0.0
 10
-704.2246
 20
-227.8622
 30
0.0
 10
-707.3354
 20
-246.7344
 30
0.0
 10
-721.4107
 20
-264.804
 30
0.0
 10
-731.9132
 20
-277.9732
 30
0.0
 10
-731.9132
 20
-277.9732
 30
0.0
 10
-735.7006
 20
-282.7222
 30
0.0
 10
-741.0597
 20
-287.2051
 30
0.0
 10
-744.2613
 20
-291.6398
 30
0.0
 10
-744.2613
 20
-291.6398
 30
0.0
 10
-739.6513
 20
-290.212
 30
0.0
 10
-724.49
 20
-279.1347
 30
0.0
 10
-720.2619
 20
-275.8188
 30
0.0
 10
-720.2619
 20
-275.8188
 30
0.0
 10
-699.0198
 20
-259.1594
 30
0.0
 10
-680.4837
 20
-229.8682
 30
0.0
 10
-672.2926
 20
-202.2531
 30
0.0
 10
-672.2926
 20
-202.2531
 30
0.0
 10
-668.1107
 20
-188.1545
 30
0.0
 10
-669.8199
 20
-186.3402
 30
0.0
 10
-661.7105
 20
-172.3164
 30
0.0
 10
-661.7105
 20
-172.3164
 30
0.0
 10
-658.0203
 20
-165.9349
 30
0.0
 10
-652.1059
 20
-164.4333
 30
0.0
 10
-648.8266
 20
-167.5314
 30
0.0
 10
-648.8266
 20
-167.5314
 30
0.0
 10
-644.906
 20
-171.2355
 30
0.0
 10
-645.3117
 20
-177.7518
 30
0.0
 10
-645.3365
 20
-184.476
 30
0.0
 10
-645.3365
 20
-184.476
 30
0.0
 10
-645.4074
 20
-203.6799
 30
0.0
 10
-652.8824
 20
-213.6323
 30
0.0
 10
-660.9034
 20
-229.3743
 30
0.0
 10
-660.9034
 20
-229.3743
 30
0.0
 10
-660.9034
 20
-229.3743
 30
0.0
 10
-667.9796
 20
-242.5215
 30
0.0
 10
-667.9796
 20
-242.5215
 30
0.0
 10
-667.9796
 20
-242.5215
 30
0.0
 10
-667.9796
 20
-242.5215
 30
0.0
 10
-665.8002
 20
-243.2587
 30
0.0
 10
-665.8002
 20
-243.2587
 30
0.0
 10
-665.8002
 20
-243.2587
 30
0.0
 10
-665.8002
 20
-243.2587
 30
0.0
 10
-657.6192
 20
-231.7041
 30
0.0
 10
-657.6192
 20
-231.7041
 30
0.0
 10
-657.6192
 20
-231.7041
 30
0.0
 10
-626.3035
 20
-182.8831
 30
0.0
 10
-615.5341
 20
-133.8536
 30
0.0
 10
-629.9899
 20
-77.1463
 30
0.0
 10
-629.9899
 20
-77.1463
 30
0.0
 10
-631.0811
 20
-72.8658
 30
0.0
 10
-633.0872
 20
-67.4187
 30
0.0
 10
-633.8154
 20
-63.3754
 30
0.0
 10
-633.8154
 20
-63.3754
 30
0.0
 10
-629.1095
 20
-67.7003
 30
0.0
 10
-619.6034
 20
-85.2524
 30
0.0
 10
-616.8805
 20
-91.7207
 30
0.0
 10
-616.8805
 20
-91.7207
 30
0.0
 10
-611.5537
 20
-104.3748
 30
0.0
 10
-609.5535
 20
-113.2747
 30
0.0
 10
-607.672
 20
-128.2514
 30
0.0
 10
-607.672
 20
-128.2514
 30
0.0
 10
-605.733
 20
-125.2494
 30
0.0
 10
-606.0722
 20
-117.7134
 30
0.0
 10
-606.0757
 20
-113.4451
 30
0.0
 10
-606.0757
 20
-113.4451
 30
0.0
 10
-606.1028
 20
-79.9236
 30
0.0
 10
-628.5373
 20
-20.7874
 30
0.0
 10
-648.7795
 20
6.5072
 30
0.0
 10
-648.7795
 20
6.5072
 30
0.0
 10
-650.6567
 20
9.0384
 30
0.0
 10
-652.2797
 20
11.0124
 30
0.0
 10
-654.2218
 20
13.4564
 30
0.0
 10
-654.2218
 20
13.4564
 30
0.0
 10
-656.4019
 20
16.2
 30
0.0
 10
-664.0334
 20
24.0338
 30
0.0
 10
-668.2715
 20
25.017
 30
0.0
 10
-668.2715
 20
25.017
 30
0.0
 10
-670.7138
 20
18.3484
 30
0.0
 10
-687.3289
 20
-5.8986
 30
0.0
 10
-691.2588
 20
-10.7276
 30
0.0
 10
-691.2588
 20
-10.7276
 30
0.0
 10
-699.6017
 20
-20.9792
 30
0.0
 10
-709.9059
 20
-30.9542
 30
0.0
 10
-722.0225
 20
-38.5855
 30
0.0
 10
-722.0225
 20
-38.5855
 30
0.0
 10
-737.99
 20
-48.6422
 30
0.0
 10
-751.0674
 20
-58.3034
 30
0.0
 10
-765.9421
 20
-68.0563
 30
0.0
 10
-765.9421
 20
-68.0563
 30
0.0
 10
-783.022
 20
-79.2552
 30
0.0
 10
-761.7498
 20
-50.5829
 30
0.0
 10
-763.5061
 20
-46.3607
 30
0.0
  0
SPLINE
  5
72
330
1F
100
AcDbEntity
  8
Katman 1
100
AcDbSpline
210
0.0
220
0.0
230
1.0
 70
    11
 71
     3
 72
   516
 73
   512
 74
     0
 42
0.000000001
 43
0.0000000001
 40
0.0
 40
0.0
 40
0.0
 40
0.0
 40
0.0077519379844961
 40
0.0077519379844961
 40
0.0077519379844961
 40
0.0077519379844961
 40
0.0155038759689922
 40
0.0155038759689922
 40
0.0155038759689922
 40
0.0155038759689922
 40
0.0232558139534884
 40
0.0232558139534884
 40
0.0232558139534884
 40
0.0232558139534884
 40
0.0310077519379845
 40
0.0310077519379845
 40
0.0310077519379845
 40
0.0310077519379845
 40
0.0387596899224806
 40
0.0387596899224806
 40
0.0387596899224806
 40
0.0387596899224806
 40
0.0465116279069767
 40
0.0465116279069767
 40
0.0465116279069767
 40
0.0465116279069767
 40
0.0542635658914729
 40
0.0542635658914729
 40
0.0542635658914729
 40
0.0542635658914729
 40
0.062015503875969
 40
0.062015503875969
 40
0.062015503875969
 40
0.062015503875969
 40
0.0697674418604651
 40
0.0697674418604651
 40
0.0697674418604651
 40
0.0697674418604651
 40
0.0775193798449612
 40
0.0775193798449612
 40
0.0775193798449612
 40
0.0775193798449612
 40
0.0852713178294574
 40
0.0852713178294574
 40
0.0852713178294574
 40
0.0852713178294574
 40
0.0930232558139535
 40
0.0930232558139535
 40
0.0930232558139535
 40
0.0930232558139535
 40
0.1007751937984496
 40
0.1007751937984496
 40
0.1007751937984496
 40
0.1007751937984496
 40
0.1085271317829457
 40
0.1085271317829457
 40
0.1085271317829457
 40
0.1085271317829457
 40
0.1162790697674419
 40
0.1162790697674419
 40
0.1162790697674419
 40
0.1162790697674419
 40
0.124031007751938
 40
0.124031007751938
 40
0.124031007751938
 40
0.124031007751938
 40
0.1317829457364341
 40
0.1317829457364341
 40
0.1317829457364341
 40
0.1317829457364341
 40
0.1395348837209302
 40
0.1395348837209302
 40
0.1395348837209302
 40
0.1395348837209302
 40
0.1472868217054264
 40
0.1472868217054264
 40
0.1472868217054264
 40
0.1472868217054264
 40
0.1550387596899225
 40
0.1550387596899225
 40
0.1550387596899225
 40
0.1550387596899225
 40
0.1627906976744186
 40
0.1627906976744186
 40
0.1627906976744186
 40
0.1627906976744186
 40
0.1705426356589147
 40
0.1705426356589147
 40
0.1705426356589147
 40
0.1705426356589147
 40
0.1782945736434109
 40
0.1782945736434109
 40
0.1782945736434109
 40
0.1782945736434109
 40
0.186046511627907
 40
0.186046511627907
 40
0.186046511627907
 40
0.186046511627907
 40
0.1937984496124031
 40
0.1937984496124031
 40
0.1937984496124031
 40
0.1937984496124031
 40
0.2015503875968992
 40
0.2015503875968992
 40
0.2015503875968992
 40
0.2015503875968992
 40
0.2093023255813954
 40
0.2093023255813954
 40
0.2093023255813954
 40
0.2093023255813954
 40
0.2170542635658915
 40
0.2170542635658915
 40
0.2170542635658915
 40
0.2170542635658915
 40
0.2248062015503876
 40
0.2248062015503876
 40
0.2248062015503876
 40
0.2248062015503876
 40
0.2325581395348837
 40
0.2325581395348837
 40
0.2325581395348837
 40
0.2325581395348837
 40
0.2403100775193799
 40
0.2403100775193799
 40
0.2403100775193799
 40
0.2403100775193799
 40
0.248062015503876
 40
0.248062015503876
 40
0.248062015503876
 40
0.248062015503876
 40
0.2558139534883721
 40
0.2558139534883721
 40
0.2558139534883721
 40
0.2558139534883721
 40
0.2635658914728682
 40
0.2635658914728682
 40
0.2635658914728682
 40
0.2635658914728682
 40
0.2713178294573643
 40
0.2713178294573643
 40
0.2713178294573643
 40
0.2713178294573643
 40
0.2790697674418605
 40
0.2790697674418605
 40
0.2790697674418605
 40
0.2790697674418605
 40
0.2868217054263566
 40
0.2868217054263566
 40
0.2868217054263566
 40
0.2868217054263566
 40
0.2945736434108527
 40
0.2945736434108527
 40
0.2945736434108527
 40
0.2945736434108527
 40
0.3023255813953488
 40
0.3023255813953488
 40
0.3023255813953488
 40
0.3023255813953488
 40
0.310077519379845
 40
0.310077519379845
 40
0.310077519379845
 40
0.310077519379845
 40
0.3178294573643411
 40
0.3178294573643411
 40
0.3178294573643411
 40
0.3178294573643411
 40
0.3255813953488372
 40
0.3255813953488372
 40
0.3255813953488372
 40
0.3255813953488372
 40
0.3333333333333333
 40
0.3333333333333333
 40
0.3333333333333333
 40
0.3333333333333333
 40
0.3410852713178295
 40
0.3410852713178295
 40
0.3410852713178295
 40
0.3410852713178295
 40
0.3488372093023256
 40
0.3488372093023256
 40
0.3488372093023256
 40
0.3488372093023256
 40
0.3565891472868217
 40
0.3565891472868217
 40
0.3565891472868217
 40
0.3565891472868217
 40
0.3643410852713178
 40
0.3643410852713178
 40
0.3643410852713178
 40
0.3643410852713178
 40
0.3720930232558139
 40
0.3720930232558139
 40
0.3720930232558139
 40
0.3720930232558139
 40
0.3798449612403101
 40
0.3798449612403101
 40
0.3798449612403101
 40
0.3798449612403101
 40
0.3875968992248062
 40
0.3875968992248062
 40
0.3875968992248062
 40
0.3875968992248062
 40
0.3953488372093023
 40
0.3953488372093023
 40
0.3953488372093023
 40
0.3953488372093023
 40
0.4031007751937984
 40
0.4031007751937984
 40
0.4031007751937984
 40
0.4031007751937984
 40
0.4108527131782946
 40
0.4108527131782946
 40
0.4108527131782946
 40
0.4108527131782946
 40
0.4186046511627907
 40
0.4186046511627907
 40
0.4186046511627907
 40
0.4186046511627907
 40
0.4263565891472868
 40
0.4263565891472868
 40
0.4263565891472868
 40
0.4263565891472868
 40
0.4341085271317829
 40
0.4341085271317829
 40
0.4341085271317829
 40
0.4341085271317829
 40
0.4418604651162791
 40
0.4418604651162791
 40
0.4418604651162791
 40
0.4418604651162791
 40
0.4496124031007752
 40
0.4496124031007752
 40
0.4496124031007752
 40
0.4496124031007752
 40
0.4573643410852713
 40
0.4573643410852713
 40
0.4573643410852713
 40
0.4573643410852713
 40
0.4651162790697674
 40
0.4651162790697674
 40
0.4651162790697674
 40
0.4651162790697674
 40
0.4728682170542636
 40
0.4728682170542636
 40
0.4728682170542636
 40
0.4728682170542636
 40
0.4806201550387597
 40
0.4806201550387597
 40
0.4806201550387597
 40
0.4806201550387597
 40
0.4883720930232558
 40
0.4883720930232558
 40
0.4883720930232558
 40
0.4883720930232558
 40
0.4961240310077519
 40
0.4961240310077519
 40
0.4961240310077519
 40
0.4961240310077519
 40
0.5038759689922481
 40
0.5038759689922481
 40
0.5038759689922481
 40
0.5038759689922481
 40
0.5116279069767442
 40
0.5116279069767442
 40
0.5116279069767442
 40
0.5116279069767442
 40
0.5193798449612403
 40
0.5193798449612403
 40
0.5193798449612403
 40
0.5193798449612403
 40
0.5271317829457365
 40
0.5271317829457365
 40
0.5271317829457365
 40
0.5271317829457365
 40
0.5348837209302325
 40
0.5348837209302325
 40
0.5348837209302325
 40
0.5348837209302325
 40
0.5426356589147286
 40
0.5426356589147286
 40
0.5426356589147286
 40
0.5426356589147286
 40
0.5503875968992248
 40
0.5503875968992248
 40
0.5503875968992248
 40
0.5503875968992248
 40
0.5581395348837209
 40
0.5581395348837209
 40
0.5581395348837209
 40
0.5581395348837209
 40
0.5658914728682171
 40
0.5658914728682171
 40
0.5658914728682171
 40
0.5658914728682171
 40
0.5736434108527132
 40
0.5736434108527132
 40
0.5736434108527132
 40
0.5736434108527132
 40
0.5813953488372093
 40
0.5813953488372093
 40
0.5813953488372093
 40
0.5813953488372093
 40
0.5891472868217055
 40
0.5891472868217055
 40
0.5891472868217055
 40
0.5891472868217055
 40
0.5968992248062015
 40
0.5968992248062015
 40
0.5968992248062015
 40
0.5968992248062015
 40
0.6046511627906976
 40
0.6046511627906976
 40
0.6046511627906976
 40
0.6046511627906976
 40
0.6124031007751938
 40
0.6124031007751938
 40
0.6124031007751938
 40
0.6124031007751938
 40
0.6201550387596899
 40
0.6201550387596899
 40
0.6201550387596899
 40
0.6201550387596899
 40
0.627906976744186
 40
0.627906976744186
 40
0.627906976744186
 40
0.627906976744186
 40
0.6356589147286822
 40
0.6356589147286822
 40
0.6356589147286822
 40
0.6356589147286822
 40
0.6434108527131783
 40
0.6434108527131783
 40
0.6434108527131783
 40
0.6434108527131783
 40
0.6511627906976745
 40
0.6511627906976745
 40
0.6511627906976745
 40
0.6511627906976745
 40
0.6589147286821705
 40
0.6589147286821705
 40
0.6589147286821705
 40
0.6589147286821705
 40
0.6666666666666666
 40
0.6666666666666666
 40
0.6666666666666666
 40
0.6666666666666666
 40
0.6744186046511628
 40
0.6744186046511628
 40
0.6744186046511628
 40
0.6744186046511628
 40
0.6821705426356589
 40
0.6821705426356589
 40
0.6821705426356589
 40
0.6821705426356589
 40
0.689922480620155
 40
0.689922480620155
 40
0.689922480620155
 40
0.689922480620155
 40
0.6976744186046512
 40
0.6976744186046512
 40
0.6976744186046512
 40
0.6976744186046512
 40
0.7054263565891473
 40
0.7054263565891473
 40
0.7054263565891473
 40
0.7054263565891473
 40
0.7131782945736435
 40
0.7131782945736435
 40
0.7131782945736435
 40
0.7131782945736435
 40
0.7209302325581395
 40
0.7209302325581395
 40
0.7209302325581395
 40
0.7209302325581395
 40
0.7286821705426356
 40
0.7286821705426356
 40
0.7286821705426356
 40
0.7286821705426356
 40
0.7364341085271318
 40
0.7364341085271318
 40
0.7364341085271318
 40
0.7364341085271318
 40
0.7441860465116279
 40
0.7441860465116279
 40
0.7441860465116279
 40
0.7441860465116279
 40
0.751937984496124
 40
0.751937984496124
 40
0.751937984496124
 40
0.751937984496124
 40
0.7596899224806202
 40
0.7596899224806202
 40
0.7596899224806202
 40
0.7596899224806202
 40
0.7674418604651163
 40
0.7674418604651163
 40
0.7674418604651163
 40
0.7674418604651163
 40
0.7751937984496124
 40
0.7751937984496124
 40
0.7751937984496124
 40
0.7751937984496124
 40
0.7829457364341085
 40
0.7829457364341085
 40
0.7829457364341085
 40
0.7829457364341085
 40
0.7906976744186046
 40
0.7906976744186046
 40
0.7906976744186046
 40
0.7906976744186046
 40
0.7984496124031008
 40
0.7984496124031008
 40
0.7984496124031008
 40
0.7984496124031008
 40
0.8062015503875969
 40
0.8062015503875969
 40
0.8062015503875969
 40
0.8062015503875969
 40
0.813953488372093
 40
0.813953488372093
 40
0.813953488372093
 40
0.813953488372093
 40
0.8217054263565892
 40
0.8217054263565892
 40
0.8217054263565892
 40
0.8217054263565892
 40
0.8294573643410853
 40
0.8294573643410853
 40
0.8294573643410853
 40
0.8294573643410853
 40
0.8372093023255814
 40
0.8372093023255814
 40
0.8372093023255814
 40
0.8372093023255814
 40
0.8449612403100775
 40
0.8449612403100775
 40
0.8449612403100775
 40
0.8449612403100775
 40
0.8527131782945736
 40
0.8527131782945736
 40
0.8527131782945736
 40
0.8527131782945736
 40
0.8604651162790697
 40
0.8604651162790697
 40
0.8604651162790697
 40
0.8604651162790697
 40
0.8682170542635659
 40
0.8682170542635659
 40
0.8682170542635659
 40
0.8682170542635659
 40
0.875968992248062
 40
0.875968992248062
 40
0.875968992248062
 40
0.875968992248062
 40
0.8837209302325582
 40
0.8837209302325582
 40
0.8837209302325582
 40
0.8837209302325582
 40
0.8914728682170543
 40
0.8914728682170543
 40
0.8914728682170543
 40
0.8914728682170543
 40
0.8992248062015504
 40
0.8992248062015504
 40
0.8992248062015504
 40
0.8992248062015504
 40
0.9069767441860465
 40
0.9069767441860465
 40
0.9069767441860465
 40
0.9069767441860465
 40
0.9147286821705426
 40
0.9147286821705426
 40
0.9147286821705426
 40
0.9147286821705426
 40
0.9224806201550387
 40
0.9224806201550387
 40
0.9224806201550387
 40
0.9224806201550387
 40
0.9302325581395349
 40
0.9302325581395349
 40
0.9302325581395349
 40
0.9302325581395349
 40
0.937984496124031
 40
0.937984496124031
 40
0.937984496124031
 40
0.937984496124031
 40
0.9457364341085271
 40
0.9457364341085271
 40
0.9457364341085271
 40
0.9457364341085271
 40
0.9534883720930233
 40
0.9534883720930233
 40
0.9534883720930233
 40
0.9534883720930233
 40
0.9612403100775194
 40
0.9612403100775194
 40
0.9612403100775194
 40
0.9612403100775194
 40
0.9689922480620154
 40
0.9689922480620154
 40
0.9689922480620154
 40
0.9689922480620154
 40
0.9767441860465116
 40
0.9767441860465116
 40
0.9767441860465116
 40
0.9767441860465116
 40
0.9844961240310077
 40
0.9844961240310077
 40
0.9844961240310077
 40
0.9844961240310077
 40
1.0
 40
1.0
 40
1.0
 40
1.0
 10
-1049.0959
 20
333.4204
 30
0.0
 10
-1051.5163
 20
338.7253
 30
0.0
 10
-1052.0435
 20
335.844
 30
0.0
 10
-1053.172
 20
343.6067
 30
0.0
 10
-1053.172
 20
343.6067
 30
0.0
 10
-1055.9705
 20
362.8587
 30
0.0
 10
-1045.6521
 20
374.9779
 30
0.0
 10
-1046.7826
 20
378.6933
 30
0.0
 10
-1046.7826
 20
378.6933
 30
0.0
 10
-1051.5316
 20
380.2242
 30
0.0
 10
-1065.6497
 20
362.0879
 30
0.0
 10
-1068.3663
 20
358.3923
 30
0.0
 10
-1068.3663
 20
358.3923
 30
0.0
 10
-1072.7938
 20
352.3691
 30
0.0
 10
-1076.8161
 20
345.4235
 30
0.0
 10
-1080.6033
 20
338.699
 30
0.0
 10
-1080.6033
 20
338.699
 30
0.0
 10
-1081.2702
 20
337.5149
 30
0.0
 10
-1084.7789
 20
330.1032
 30
0.0
 10
-1085.6831
 20
334.1899
 30
0.0
 10
-1085.6831
 20
334.1899
 30
0.0
 10
-1086.0313
 20
335.764
 30
0.0
 10
-1085.5402
 20
337.5252
 30
0.0
 10
-1085.3559
 20
339.1837
 30
0.0
 10
-1085.3559
 20
339.1837
 30
0.0
 10
-1085.3559
 20
339.1837
 30
0.0
 10
-1083.9801
 20
352.1347
 30
0.0
 10
-1083.9801
 20
352.1347
 30
0.0
 10
-1083.9801
 20
352.1347
 30
0.0
 10
-1083.8189
 20
353.6015
 30
0.0
 10
-1083.2827
 20
355.4945
 30
0.0
 10
-1083.5216
 20
356.9994
 30
0.0
 10
-1083.5216
 20
356.9994
 30
0.0
 10
-1083.7631
 20
358.5213
 30
0.0
 10
-1083.3458
 20
357.6328
 30
0.0
 10
-1084.215
 20
358.5545
 30
0.0
 10
-1084.215
 20
358.5545
 30
0.0
 10
-1086.2304
 20
358.4258
 30
0.0
 10
-1098.0223
 20
320.9689
 30
0.0
 10
-1101.5504
 20
314.8423
 30
0.0
 10
-1101.5504
 20
314.8423
 30
0.0
 10
-1108.7591
 20
302.3243
 30
0.0
 10
-1122.2952
 20
320.288
 30
0.0
 10
-1151.795
 20
311.215
 30
0.0
 10
-1151.795
 20
311.215
 30
0.0
 10
-1159.704
 20
308.7825
 30
0.0
 10
-1175.4137
 20
301.5944
 30
0.0
 10
-1178.0256
 20
295.9837
 30
0.0
 10
-1178.0256
 20
295.9837
 30
0.0
 10
-1173.222
 20
296.8146
 30
0.0
 10
-1161.1128
 20
303.5134
 30
0.0
 10
-1156.2229
 20
299.404
 30
0.0
 10
-1156.2229
 20
299.404
 30
0.0
 10
-1167.2086
 20
293.3647
 30
0.0
 10
-1180.2052
 20
286.2165
 30
0.0
 10
-1189.4875
 20
279.355
 30
0.0
 10
-1189.4875
 20
279.355
 30
0.0
 10
-1194.6813
 20
275.5157
 30
0.0
 10
-1214.2329
 20
257.8537
 30
0.0
 10
-1213.9694
 20
251.0023
 30
0.0
 10
-1213.9694
 20
251.0023
 30
0.0
 10
-1213.9694
 20
251.0023
 30
0.0
 10
-1204.4174
 20
259.4945
 30
0.0
 10
-1204.4174
 20
259.4945
 30
0.0
 10
-1204.4174
 20
259.4945
 30
0.0
 10
-1200.0347
 20
262.9705
 30
0.0
 10
-1183.3293
 20
273.0136
 30
0.0
 10
-1178.55
 20
265.9023
 30
0.0
 10
-1178.55
 20
265.9023
 30
0.0
 10
-1175.6133
 20
261.5328
 30
0.0
 10
-1179.2011
 20
254.7041
 30
0.0
 10
-1181.375
 20
252.1698
 30
0.0
 10
-1181.375
 20
252.1698
 30
0.0
 10
-1184.0343
 20
249.0695
 30
0.0
 10
-1197.9967
 20
238.6704
 30
0.0
 10
-1202.0212
 20
235.6421
 30
0.0
 10
-1202.0212
 20
235.6421
 30
0.0
 10
-1202.0212
 20
235.6421
 30
0.0
 10
-1220.6224
 20
221.339
 30
0.0
 10
-1220.6224
 20
221.339
 30
0.0
 10
-1220.6224
 20
221.339
 30
0.0
 10
-1221.8604
 20
220.4134
 30
0.0
 10
-1222.5527
 20
220.2707
 30
0.0
 10
-1221.7982
 20
218.787
 30
0.0
 10
-1221.7982
 20
218.787
 30
0.0
 10
-1220.9813
 20
218.0081
 30
0.0
 10
-1211.2684
 20
223.9489
 30
0.0
 10
-1209.6988
 20
224.7305
 30
0.0
 10
-1209.6988
 20
224.7305
 30
0.0
 10
-1195.1018
 20
231.9983
 30
0.0
 10
-1176.938
 20
234.6069
 30
0.0
 10
-1161.5528
 20
229.0629
 30
0.0
 10
-1161.5528
 20
229.0629
 30
0.0
 10
-1145.8138
 20
223.3915
 30
0.0
 10
-1140.1349
 20
212.498
 30
0.0
 10
-1130.6389
 20
201.8313
 30
0.0
 10
-1130.6389
 20
201.8313
 30
0.0
 10
-1128.4191
 20
199.3379
 30
0.0
 10
-1122.1341
 20
194.2471
 30
0.0
 10
-1121.3982
 20
191.716
 30
0.0
 10
-1121.3982
 20
191.716
 30
0.0
 10
-1121.3982
 20
191.716
 30
0.0
 10
-1135.0009
 20
198.0896
 30
0.0
 10
-1135.0009
 20
198.0896
 30
0.0
 10
-1135.0009
 20
198.0896
 30
0.0
 10
-1134.5576
 20
191.4333
 30
0.0
 10
-1126.1324
 20
182.9914
 30
0.0
 10
-1134.094
 20
171.9833
 30
0.0
 10
-1134.094
 20
171.9833
 30
0.0
 10
-1140.839
 20
162.6574
 30
0.0
 10
-1148.2856
 20
160.7704
 30
0.0
 10
-1152.7404
 20
156.4208
 30
0.0
 10
-1152.7404
 20
156.4208
 30
0.0
 10
-1146.3405
 20
155.9959
 30
0.0
 10
-1143.9948
 20
159.1565
 30
0.0
 10
-1136.7415
 20
156.7394
 30
0.0
 10
-1136.7415
 20
156.7394
 30
0.0
 10
-1137.6741
 20
150.1666
 30
0.0
 10
-1141.3628
 20
147.2846
 30
0.0
 10
-1145.3293
 20
142.7142
 30
0.0
 10
-1145.3293
 20
142.7142
 30
0.0
 10
-1149.0054
 20
138.4783
 30
0.0
 10
-1152.4494
 20
134.8517
 30
0.0
 10
-1156.7227
 20
131.2196
 30
0.0
 10
-1156.7227
 20
131.2196
 30
0.0
 10
-1158.9147
 20
129.3565
 30
0.0
 10
-1160.7266
 20
127.83
 30
0.0
 10
-1162.9139
 20
125.9762
 30
0.0
 10
-1162.9139
 20
125.9762
 30
0.0
 10
-1167.0452
 20
122.4748
 30
0.0
 10
-1171.77
 20
119.2349
 30
0.0
 10
-1175.4325
 20
115.6192
 30
0.0
 10
-1175.4325
 20
115.6192
 30
0.0
 10
-1177.0418
 20
114.0304
 30
0.0
 10
-1180.7306
 20
111.0618
 30
0.0
 10
-1180.2092
 20
108.8552
 30
0.0
 10
-1180.2092
 20
108.8552
 30
0.0
 10
-1179.1137
 20
108.8118
 30
0.0
 10
-1174.5008
 20
111.9917
 30
0.0
 10
-1172.64
 20
112.8282
 30
0.0
 10
-1172.64
 20
112.8282
 30
0.0
 10
-1172.64
 20
112.8282
 30
0.0
 10
-1156.1788
 20
120.2002
 30
0.0
 10
-1156.1788
 20
120.2002
 30
0.0
 10
-1156.1788
 20
120.2002
 30
0.0
 10
-1151.2504
 20
122.1898
 30
0.0
 10
-1151.6222
 20
121.0152
 30
0.0
 10
-1146.985
 20
119.6752
 30
0.0
 10
-1146.985
 20
119.6752
 30
0.0
 10
-1149.6504
 20
108.8908
 30
0.0
 10
-1165.6088
 20
101.8009
 30
0.0
 10
-1174.8602
 20
90.7391
 30
0.0
 10
-1174.8602
 20
90.7391
 30
0.0
 10
-1182.0481
 20
82.1447
 30
0.0
 10
-1190.2512
 20
71.7701
 30
0.0
 10
-1194.2151
 20
60.5348
 30
0.0
 10
-1194.2151
 20
60.5348
 30
0.0
 10
-1194.8944
 20
58.6093
 30
0.0
 10
-1195.9158
 20
56.7791
 30
0.0
 10
-1195.2062
 20
55.3502
 30
0.0
 10
-1195.2062
 20
55.3502
 30
0.0
 10
-1193.0689
 20
55.5518
 30
0.0
 10
-1192.9865
 20
57.0847
 30
0.0
 10
-1191.6918
 20
58.9497
 30
0.0
 10
-1191.6918
 20
58.9497
 30
0.0
 10
-1185.2225
 20
68.2684
 30
0.0
 10
-1174.1795
 20
80.4381
 30
0.0
 10
-1162.4363
 20
82.8068
 30
0.0
 10
-1162.4363
 20
82.8068
 30
0.0
 10
-1162.8459
 20
79.1405
 30
0.0
 10
-1165.1918
 20
76.1809
 30
0.0
 10
-1166.8407
 20
73.6632
 30
0.0
 10
-1166.8407
 20
73.6632
 30
0.0
 10
-1168.7526
 20
70.7439
 30
0.0
 10
-1170.2674
 20
68.1421
 30
0.0
 10
-1172.0199
 20
65.0159
 30
0.0
 10
-1172.0199
 20
65.0159
 30
0.0
 10
-1179.0002
 20
52.5639
 30
0.0
 10
-1189.3516
 20
29.7299
 30
0.0
 10
-1191.2926
 20
15.2069
 30
0.0
 10
-1191.2926
 20
15.2069
 30
0.0
 10
-1191.2926
 20
15.2069
 30
0.0
 10
-1191.8156
 20
5.2029
 30
0.0
 10
-1191.8156
 20
5.2029
 30
0.0
 10
-1191.8156
 20
5.2029
 30
0.0
 10
-1191.8936
 20
2.9901
 30
0.0
 10
-1192.286
 20
3.2851
 30
0.0
 10
-1191.1784
 20
2.1745
 30
0.0
 10
-1191.1784
 20
2.1745
 30
0.0
 10
-1189.5484
 20
2.1377
 30
0.0
 10
-1189.9211
 20
2.1245
 30
0.0
 10
-1189.2842
 20
4.1415
 30
0.0
 10
-1189.2842
 20
4.1415
 30
0.0
 10
-1189.2842
 20
4.1415
 30
0.0
 10
-1186.0171
 20
14.184
 30
0.0
 10
-1186.0171
 20
14.184
 30
0.0
 10
-1186.0171
 20
14.184
 30
0.0
 10
-1182.7334
 20
22.3113
 30
0.0
 10
-1178.714
 20
30.2509
 30
0.0
 10
-1173.2271
 20
36.6754
 30
0.0
 10
-1173.2271
 20
36.6754
 30
0.0
 10
-1171.5782
 20
38.606
 30
0.0
 10
-1165.9467
 20
44.2058
 30
0.0
 10
-1163.8825
 20
45.1655
 30
0.0
 10
-1163.8825
 20
45.1655
 30
0.0
 10
-1169.0821
 20
30.5988
 30
0.0
 10
-1173.5178
 20
19.4296
 30
0.0
 10
-1173.7046
 20
1.4304
 30
0.0
 10
-1173.7046
 20
1.4304
 30
0.0
 10
-1173.7946
 20
-7.2447
 30
0.0
 10
-1173.1555
 20
-15.3907
 30
0.0
 10
-1171.458
 20
-23.4104
 30
0.0
 10
-1171.458
 20
-23.4104
 30
0.0
 10
-1170.3682
 20
-28.5593
 30
0.0
 10
-1167.3987
 20
-40.7496
 30
0.0
 10
-1165.1559
 20
-44.2857
 30
0.0
 10
-1165.1559
 20
-44.2857
 30
0.0
 10
-1162.9161
 20
-41.3429
 30
0.0
 10
-1165.1362
 20
-27.0034
 30
0.0
 10
-1158.2409
 20
-13.1117
 30
0.0
 10
-1158.2409
 20
-13.1117
 30
0.0
 10
-1156.3561
 20
-9.3144
 30
0.0
 10
-1155.4791
 20
-8.5343
 30
0.0
 10
-1151.8134
 20
-6.4501
 30
0.0
 10
-1151.8134
 20
-6.4501
 30
0.0
 10
-1146.68
 20
-10.0598
 30
0.0
 10
-1147.1016
 20
-14.7299
 30
0.0
 10
-1146.1829
 20
-21.9749
 30
0.0
 10
-1146.1829
 20
-21.9749
 30
0.0
 10
-1144.0251
 20
-38.9913
 30
0.0
 10
-1146.1363
 20
-63.9387
 30
0.0
 10
-1144.4807
 20
-84.0122
 30
0.0
 10
-1144.4807
 20
-84.0122
 30
0.0
 10
-1143.4147
 20
-96.9373
 30
0.0
 10
-1141.8499
 20
-108.1979
 30
0.0
 10
-1136.2129
 20
-118.3378
 30
0.0
 10
-1136.2129
 20
-118.3378
 30
0.0
 10
-1131.7925
 20
-126.2894
 30
0.0
 10
-1122.1054
 20
-135.5004
 30
0.0
 10
-1113.1003
 20
-137.8776
 30
0.0
 10
-1113.1003
 20
-137.8776
 30
0.0
 10
-1117.0765
 20
-129.3886
 30
0.0
 10
-1122.6019
 20
-125.3741
 30
0.0
 10
-1123.2838
 20
-113.938
 30
0.0
 10
-1123.2838
 20
-113.938
 30
0.0
 10
-1124.3772
 20
-95.6003
 30
0.0
 10
-1108.4093
 20
-80.4651
 30
0.0
 10
-1090.8315
 20
-78.626
 30
0.0
 10
-1090.8315
 20
-78.626
 30
0.0
 10
-1080.2456
 20
-77.5184
 30
0.0
 10
-1069.7776
 20
-80.2279
 30
0.0
 10
-1059.2613
 20
-80.8941
 30
0.0
 10
-1059.2613
 20
-80.8941
 30
0.0
 10
-1061.6395
 20
-57.6027
 30
0.0
 10
-1065.49
 20
-45.3293
 30
0.0
 10
-1074.4111
 20
-26.0061
 30
0.0
 10
-1074.4111
 20
-26.0061
 30
0.0
 10
-1075.8225
 20
-22.9491
 30
0.0
 10
-1077.4622
 20
-18.7708
 30
0.0
 10
-1081.2708
 20
-18.9554
 30
0.0
 10
-1081.2708
 20
-18.9554
 30
0.0
 10
-1086.6292
 20
-19.2152
 30
0.0
 10
-1087.0119
 20
-29.1672
 30
0.0
 10
-1087.9608
 20
-33.3502
 30
0.0
 10
-1087.9608
 20
-33.3502
 30
0.0
 10
-1088.5489
 20
-35.9428
 30
0.0
 10
-1088.7141
 20
-37.1344
 30
0.0
 10
-1091.2958
 20
-37.0586
 30
0.0
 10
-1091.2958
 20
-37.0586
 30
0.0
 10
-1093.0091
 20
-34.0275
 30
0.0
 10
-1094.4503
 20
-22.6583
 30
0.0
 10
-1095.3216
 20
-18.3912
 30
0.0
 10
-1095.3216
 20
-18.3912
 30
0.0
 10
-1095.3216
 20
-18.3912
 30
0.0
 10
-1096.5235
 20
-12.8144
 30
0.0
 10
-1096.5235
 20
-12.8144
 30
0.0
 10
-1096.5235
 20
-12.8144
 30
0.0
 10
-1096.9897
 20
-11.4666
 30
0.0
 10
-1096.7361
 20
-12.183
 30
0.0
 10
-1097.014
 20
-11.6905
 30
0.0
 10
-1097.014
 20
-11.6905
 30
0.0
 10
-1097.2465
 20
-12.0352
 30
0.0
 10
-1097.1512
 20
-11.757
 30
0.0
 10
-1097.5919
 20
-12.718
 30
0.0
 10
-1097.5919
 20
-12.718
 30
0.0
 10
-1098.5263
 20
-14.7559
 30
0.0
 10
-1098.9289
 20
-20.2635
 30
0.0
 10
-1101.2692
 20
-20.7945
 30
0.0
 10
-1101.2692
 20
-20.7945
 30
0.0
 10
-1103.359
 20
-18.1585
 30
0.0
 10
-1104.7204
 20
-2.6536
 30
0.0
 10
-1104.8943
 20
1.918
 30
0.0
 10
-1104.8943
 20
1.918
 30
0.0
 10
-1105.2939
 20
12.4243
 30
0.0
 10
-1102.717
 20
23.8576
 30
0.0
 10
-1102.737
 20
24.3559
 30
0.0
 10
-1102.737
 20
24.3559
 30
0.0
 10
-1102.7968
 20
25.8503
 30
0.0
 10
-1102.5489
 20
25.0386
 30
0.0
 10
-1103.2087
 20
25.9777
 30
0.0
 10
-1103.2087
 20
25.9777
 30
0.0
 10
-1105.6493
 20
24.3912
 30
0.0
 10
-1106.8938
 20
19.1689
 30
0.0
 10
-1108.9269
 20
17.0538
 30
0.0
 10
-1108.9269
 20
17.0538
 30
0.0
 10
-1111.8259
 20
20.7114
 30
0.0
 10
-1107.5423
 20
36.0903
 30
0.0
 10
-1106.5832
 20
41.5287
 30
0.0
 10
-1106.5832
 20
41.5287
 30
0.0
 10
-1105.289
 20
48.8667
 30
0.0
 10
-1103.8696
 20
60.7518
 30
0.0
 10
-1107.2301
 20
67.4897
 30
0.0
 10
-1107.2301
 20
67.4897
 30
0.0
 10
-1109.3927
 20
71.8257
 30
0.0
 10
-1112.6256
 20
71.3348
 30
0.0
 10
-1116.0415
 20
68.6006
 30
0.0
 10
-1116.0415
 20
68.6006
 30
0.0
 10
-1118.6436
 20
66.5177
 30
0.0
 10
-1119.8816
 20
63.0479
 30
0.0
 10
-1120.8505
 20
58.6742
 30
0.0
 10
-1120.8505
 20
58.6742
 30
0.0
 10
-1120.8505
 20
58.6742
 30
0.0
 10
-1124.7176
 20
40.5937
 30
0.0
 10
-1124.7176
 20
40.5937
 30
0.0
 10
-1124.7176
 20
40.5937
 30
0.0
 10
-1124.9025
 20
39.8942
 30
0.0
 10
-1125.2529
 20
38.2041
 30
0.0
 10
-1125.5211
 20
37.5255
 30
0.0
 10
-1125.5211
 20
37.5255
 30
0.0
 10
-1126.3456
 20
35.439
 30
0.0
 10
-1125.4234
 20
35.8567
 30
0.0
 10
-1127.9876
 20
36.1825
 30
0.0
 10
-1127.9876
 20
36.1825
 30
0.0
 10
-1129.1091
 20
38.2902
 30
0.0
 10
-1129.4176
 20
48.0486
 30
0.0
 10
-1129.3493
 20
51.0205
 30
0.0
 10
-1129.3493
 20
51.0205
 30
0.0
 10
-1129.1346
 20
60.3574
 30
0.0
 10
-1119.2869
 20
87.2817
 30
0.0
 10
-1125.9811
 20
90.718
 30
0.0
 10
-1125.9811
 20
90.718
 30
0.0
 10
-1131.9624
 20
92.8225
 30
0.0
 10
-1138.5416
 20
86.3987
 30
0.0
 10
-1142.8172
 20
84.7358
 30
0.0
 10
-1142.8172
 20
84.7358
 30
0.0
 10
-1142.2416
 20
90.4869
 30
0.0
 10
-1139.8332
 20
95.1098
 30
0.0
 10
-1137.1769
 20
99.2808
 30
0.0
 10
-1137.1769
 20
99.2808
 30
0.0
 10
-1131.6232
 20
108.0011
 30
0.0
 10
-1116.4422
 20
127.8567
 30
0.0
 10
-1112.5234
 20
135.8482
 30
0.0
 10
-1112.5234
 20
135.8482
 30
0.0
 10
-1112.5234
 20
135.8482
 30
0.0
 10
-1113.9354
 20
137.4919
 30
0.0
 10
-1113.9354
 20
137.4919
 30
0.0
 10
-1113.9354
 20
137.4919
 30
0.0
 10
-1113.9354
 20
137.4919
 30
0.0
 10
-1125.4451
 20
130.2621
 30
0.0
 10
-1125.4451
 20
130.2621
 30
0.0
 10
-1125.4451
 20
130.2621
 30
0.0
 10
-1125.9989
 20
130.9505
 30
0.0
 10
-1126.2998
 20
131.414
 30
0.0
 10
-1126.8207
 20
132.0349
 30
0.0
 10
-1126.8207
 20
132.0349
 30
0.0
 10
-1124.0032
 20
135.5788
 30
0.0
 10
-1119.5381
 20
139.3418
 30
0.0
 10
-1116.1197
 20
142.5632
 30
0.0
 10
-1116.1197
 20
142.5632
 30
0.0
 10
-1111.6532
 20
146.7723
 30
0.0
 10
-1100.534
 20
156.2524
 30
0.0
 10
-1096.974
 20
160.6345
 30
0.0
 10
-1096.974
 20
160.6345
 30
0.0
 10
-1099.9233
 20
166.4917
 30
0.0
 10
-1104.8864
 20
164.0223
 30
0.0
 10
-1111.4434
 20
163.4703
 30
0.0
 10
-1111.4434
 20
163.4703
 30
0.0
 10
-1107.1771
 20
169.194
 30
0.0
 10
-1091.4921
 20
172.2092
 30
0.0
 10
-1082.9285
 20
174.6896
 30
0.0
 10
-1082.9285
 20
174.6896
 30
0.0
 10
-1078.3096
 20
176.0275
 30
0.0
 10
-1071.3912
 20
177.4985
 30
0.0
 10
-1070.1721
 20
181.9146
 30
0.0
 10
-1070.1721
 20
181.9146
 30
0.0
 10
-1069.3538
 20
184.8788
 30
0.0
 10
-1070.9367
 20
187.8526
 30
0.0
 10
-1072.5898
 20
188.8913
 30
0.0
 10
-1072.5898
 20
188.8913
 30
0.0
 10
-1076.0875
 20
191.0889
 30
0.0
 10
-1077.9501
 20
188.2489
 30
0.0
 10
-1080.7864
 20
189.7312
 30
0.0
 10
-1080.7864
 20
189.7312
 30
0.0
 10
-1080.5687
 20
191.5144
 30
0.0
 10
-1080.7484
 20
190.7304
 30
0.0
 10
-1079.2465
 20
191.964
 30
0.0
 10
-1079.2465
 20
191.964
 30
0.0
 10
-1074.1456
 20
196.1535
 30
0.0
 10
-1068.1013
 20
199.9996
 30
0.0
 10
-1063.5967
 20
204.4269
 30
0.0
 10
-1063.5967
 20
204.4269
 30
0.0
 10
-1061.7497
 20
206.2422
 30
0.0
 10
-1058.5043
 20
210.3042
 30
0.0
 10
-1057.077
 20
213.6336
 30
0.0
 10
-1057.077
 20
213.6336
 30
0.0
 10
-1055.0203
 20
218.4312
 30
0.0
 10
-1054.9419
 20
222.1561
 30
0.0
 10
-1055.1493
 20
227.905
 30
0.0
 10
-1055.1493
 20
227.905
 30
0.0
 10
-1055.1493
 20
227.905
 30
0.0
 10
-1049.318
 20
224.9531
 30
0.0
 10
-1049.318
 20
224.9531
 30
0.0
 10
-1049.318
 20
224.9531
 30
0.0
 10
-1049.0656
 20
224.8414
 30
0.0
 10
-1048.5
 20
224.6301
 30
0.0
 10
-1048.2852
 20
224.6086
 30
0.0
 10
-1048.2852
 20
224.6086
 30
0.0
 10
-1048.2852
 20
224.6086
 30
0.0
 10
-1046.8477
 20
224.8851
 30
0.0
 10
-1046.8477
 20
224.8851
 30
0.0
 10
-1046.8477
 20
224.8851
 30
0.0
 10
-1046.3152
 20
227.369
 30
0.0
 10
-1057.1776
 20
245.546
 30
0.0
 10
-1056.6328
 20
248.4069
 30
0.0
 10
-1056.6328
 20
248.4069
 30
0.0
 10
-1054.5394
 20
248.8944
 30
0.0
 10
-1052.469
 20
245.7752
 30
0.0
 10
-1051.0119
 20
244.3071
 30
0.0
 10
-1051.0119
 20
244.3071
 30
0.0
 10
-1046.5829
 20
239.8446
 30
0.0
 10
-1038.9263
 20
230.9098
 30
0.0
 10
-1034.4601
 20
227.918
 30
0.0
 10
-1034.4601
 20
227.918
 30
0.0
 10
-1035.5062
 20
239.0634
 30
0.0
 10
-1047.3044
 20
250.1238
 30
0.0
 10
-1049.7217
 20
255.8233
 30
0.0
 10
-1049.7217
 20
255.8233
 30
0.0
 10
-1032.3229
 20
255.1563
 30
0.0
 10
-1020.7327
 20
246.3667
 30
0.0
 10
-1010.2297
 20
236.4818
 30
0.0
 10
-1010.2297
 20
236.4818
 30
0.0
 10
-1005.393
 20
231.9298
 30
0.0
 10
-1000.453
 20
226.2291
 30
0.0
 10
-996.2153
 20
220.9457
 30
0.0
 10
-996.2153
 20
220.9457
 30
0.0
 10
-994.6506
 20
218.995
 30
0.0
 10
-994.9004
 20
218.2366
 30
0.0
 10
-992.6568
 20
218.2676
 30
0.0
 10
-992.6568
 20
218.2676
 30
0.0
 10
-991.7084
 20
219.621
 30
0.0
 10
-992.2592
 20
220.456
 30
0.0
 10
-992.7664
 20
222.52
 30
0.0
 10
-992.7664
 20
222.52
 30
0.0
 10
-994.4208
 20
229.2515
 30
0.0
 10
-999.6085
 20
250.0881
 30
0.0
 10
-999.7134
 20
254.3673
 30
0.0
 10
-999.7134
 20
254.3673
 30
0.0
 10
-990.0302
 20
249.3897
 30
0.0
 10
-981.1036
 20
233.9861
 30
0.0
 10
-974.0373
 20
224.973
 30
0.0
 10
-974.0373
 20
224.973
 30
0.0
 10
-972.8529
 20
223.4623
 30
0.0
 10
-973.4974
 20
223.4831
 30
0.0
 10
-972.1108
 20
223.8908
 30
0.0
 10
-972.1108
 20
223.8908
 30
0.0
 10
-971.5725
 20
225.2052
 30
0.0
 10
-972.5762
 20
227.1111
 30
0.0
 10
-973.0557
 20
228.3984
 30
0.0
 10
-973.0557
 20
228.3984
 30
0.0
 10
-973.736
 20
230.2243
 30
0.0
 10
-974.1107
 20
231.4152
 30
0.0
 10
-974.7849
 20
233.334
 30
0.0
 10
-974.7849
 20
233.334
 30
0.0
 10
-975.6784
 20
235.8769
 30
0.0
 10
-977.9185
 20
241.1792
 30
0.0
 10
-977.9796
 20
243.618
 30
0.0
 10
-977.9796
 20
243.618
 30
0.0
 10
-974.5882
 20
243.1215
 30
0.0
 10
-964.3943
 20
230.7648
 30
0.0
 10
-962.5323
 20
230.5463
 30
0.0
 10
-962.5323
 20
230.5463
 30
0.0
 10
-959.0452
 20
230.1371
 30
0.0
 10
-966.7971
 20
238.4482
 30
0.0
 10
-967.0109
 20
238.7155
 30
0.0
 10
-967.0109
 20
238.7155
 30
0.0
 10
-969.4082
 20
241.7132
 30
0.0
 10
-971.3152
 20
244.118
 30
0.0
 10
-973.7956
 20
246.7048
 30
0.0
 10
-973.7956
 20
246.7048
 30
0.0
 10
-973.7956
 20
246.7048
 30
0.0
 10
-987.3173
 20
262.2622
 30
0.0
 10
-987.3173
 20
262.2622
 30
0.0
 10
-987.3173
 20
262.2622
 30
0.0
 10
-993.3609
 20
270.0115
 30
0.0
 10
-1007.1906
 20
286.9413
 30
0.0
 10
-1005.7278
 20
301.4525
 30
0.0
 10
-1005.7278
 20
301.4525
 30
0.0
 10
-998.6794
 20
301.1443
 30
0.0
 10
-995.5836
 20
292.4828
 30
0.0
 10
-991.3648
 20
290.3512
 30
0.0
 10
-991.3648
 20
290.3512
 30
0.0
 10
-990.2573
 20
316.9106
 30
0.0
 10
-1023.4457
 20
378.4201
 30
0.0
 10
-1043.201
 20
383.9086
 30
0.0
 10
-1043.201
 20
383.9086
 30
0.0
 10
-1041.3
 20
374.7725
 30
0.0
 10
-1034.9465
 20
372.5217
 30
0.0
 10
-1036.8628
 20
356.5392
 30
0.0
 10
-1036.8628
 20
356.5392
 30
0.0
 10
-1037.6678
 20
349.8251
 30
0.0
 10
-1041.3101
 20
335.4969
 30
0.0
 10
-1049.0959
 20
333.4204
 30
0.0
  0
SPLINE
  5
73
330
1F
100
AcDbEntity
  8
Katman 1
100
AcDbSpline
210
0.0
220
0.0
230
1.0
 70
    11
 71
     3
 72
   248
 73
   244
 74
     0
 42
0.000000001
 43
0.0000000001
 40
0.0
 40
0.0
 40
0.0
 40
0.0
 40
0.0161290322580645
 40
0.0161290322580645
 40
0.0161290322580645
 40
0.0161290322580645
 40
0.032258064516129
 40
0.032258064516129
 40
0.032258064516129
 40
0.032258064516129
 40
0.0483870967741935
 40
0.0483870967741935
 40
0.0483870967741935
 40
0.0483870967741935
 40
0.0645161290322581
 40
0.0645161290322581
 40
0.0645161290322581
 40
0.0645161290322581
 40
0.0806451612903226
 40
0.0806451612903226
 40
0.0806451612903226
 40
0.0806451612903226
 40
0.0967741935483871
 40
0.0967741935483871
 40
0.0967741935483871
 40
0.0967741935483871
 40
0.1129032258064516
 40
0.1129032258064516
 40
0.1129032258064516
 40
0.1129032258064516
 40
0.1290322580645161
 40
0.1290322580645161
 40
0.1290322580645161
 40
0.1290322580645161
 40
0.1451612903225807
 40
0.1451612903225807
 40
0.1451612903225807
 40
0.1451612903225807
 40
0.1612903225806452
 40
0.1612903225806452
 40
0.1612903225806452
 40
0.1612903225806452
 40
0.1774193548387097
 40
0.1774193548387097
 40
0.1774193548387097
 40
0.1774193548387097
 40
0.1935483870967742
 40
0.1935483870967742
 40
0.1935483870967742
 40
0.1935483870967742
 40
0.2096774193548387
 40
0.2096774193548387
 40
0.2096774193548387
 40
0.2096774193548387
 40
0.2258064516129032
 40
0.2258064516129032
 40
0.2258064516129032
 40
0.2258064516129032
 40
0.2419354838709677
 40
0.2419354838709677
 40
0.2419354838709677
 40
0.2419354838709677
 40
0.2580645161290323
 40
0.2580645161290323
 40
0.2580645161290323
 40
0.2580645161290323
 40
0.2741935483870968
 40
0.2741935483870968
 40
0.2741935483870968
 40
0.2741935483870968
 40
0.2903225806451613
 40
0.2903225806451613
 40
0.2903225806451613
 40
0.2903225806451613
 40
0.3064516129032258
 40
0.3064516129032258
 40
0.3064516129032258
 40
0.3064516129032258
 40
0.3225806451612903
 40
0.3225806451612903
 40
0.3225806451612903
 40
0.3225806451612903
 40
0.3387096774193548
 40
0.3387096774193548
 40
0.3387096774193548
 40
0.3387096774193548
 40
0.3548387096774194
 40
0.3548387096774194
 40
0.3548387096774194
 40
0.3548387096774194
 40
0.3709677419354839
 40
0.3709677419354839
 40
0.3709677419354839
 40
0.3709677419354839
 40
0.3870967741935484
 40
0.3870967741935484
 40
0.3870967741935484
 40
0.3870967741935484
 40
0.4032258064516129
 40
0.4032258064516129
 40
0.4032258064516129
 40
0.4032258064516129
 40
0.4193548387096774
 40
0.4193548387096774
 40
0.4193548387096774
 40
0.4193548387096774
 40
0.4354838709677419
 40
0.4354838709677419
 40
0.4354838709677419
 40
0.4354838709677419
 40
0.4516129032258064
 40
0.4516129032258064
 40
0.4516129032258064
 40
0.4516129032258064
 40
0.4677419354838709
 40
0.4677419354838709
 40
0.4677419354838709
 40
0.4677419354838709
 40
0.4838709677419355
 40
0.4838709677419355
 40
0.4838709677419355
 40
0.4838709677419355
 40
0.5
 40
0.5
 40
0.5
 40
0.5
 40
0.5161290322580645
 40
0.5161290322580645
 40
0.5161290322580645
 40
0.5161290322580645
 40
0.532258064516129
 40
0.532258064516129
 40
0.532258064516129
 40
0.532258064516129
 40
0.5483870967741935
 40
0.5483870967741935
 40
0.5483870967741935
 40
0.5483870967741935
 40
0.5645161290322581
 40
0.5645161290322581
 40
0.5645161290322581
 40
0.5645161290322581
 40
0.5806451612903226
 40
0.5806451612903226
 40
0.5806451612903226
 40
0.5806451612903226
 40
0.5967741935483871
 40
0.5967741935483871
 40
0.5967741935483871
 40
0.5967741935483871
 40
0.6129032258064516
 40
0.6129032258064516
 40
0.6129032258064516
 40
0.6129032258064516
 40
0.6290322580645161
 40
0.6290322580645161
 40
0.6290322580645161
 40
0.6290322580645161
 40
0.6451612903225806
 40
0.6451612903225806
 40
0.6451612903225806
 40
0.6451612903225806
 40
0.6612903225806451
 40
0.6612903225806451
 40
0.6612903225806451
 40
0.6612903225806451
 40
0.6774193548387096
 40
0.6774193548387096
 40
0.6774193548387096
 40
0.6774193548387096
 40
0.6935483870967742
 40
0.6935483870967742
 40
0.6935483870967742
 40
0.6935483870967742
 40
0.7096774193548387
 40
0.7096774193548387
 40
0.7096774193548387
 40
0.7096774193548387
 40
0.7258064516129032
 40
0.7258064516129032
 40
0.7258064516129032
 40
0.7258064516129032
 40
0.7419354838709677
 40
0.7419354838709677
 40
0.7419354838709677
 40
0.7419354838709677
 40
0.7580645161290323
 40
0.7580645161290323
 40
0.7580645161290323
 40
0.7580645161290323
 40
0.7741935483870968
 40
0.7741935483870968
 40
0.7741935483870968
 40
0.7741935483870968
 40
0.7903225806451613
 40
0.7903225806451613
 40
0.7903225806451613
 40
0.7903225806451613
 40
0.8064516129032258
 40
0.8064516129032258
 40
0.8064516129032258
 40
0.8064516129032258
 40
0.8225806451612904
 40
0.8225806451612904
 40
0.8225806451612904
 40
0.8225806451612904
 40
0.8387096774193549
 40
0.8387096774193549
 40
0.8387096774193549
 40
0.8387096774193549
 40
0.8548387096774194
 40
0.8548387096774194
 40
0.8548387096774194
 40
0.8548387096774194
 40
0.8709677419354839
 40
0.8709677419354839
 40
0.8709677419354839
 40
0.8709677419354839
 40
0.8870967741935484
 40
0.8870967741935484
 40
0.8870967741935484
 40
0.8870967741935484
 40
0.9032258064516129
 40
0.9032258064516129
 40
0.9032258064516129
 40
0.9032258064516129
 40
0.9193548387096774
 40
0.9193548387096774
 40
0.9193548387096774
 40
0.9193548387096774
 40
0.9354838709677419
 40
0.9354838709677419
 40
0.9354838709677419
 40
0.9354838709677419
 40
0.9516129032258065
 40
0.9516129032258065
 40
0.9516129032258065
 40
0.9516129032258065
 40
0.967741935483871
 40
0.967741935483871
 40
0.967741935483871
 40
0.967741935483871
 40
1.0
 40
1.0
 40
1.0
 40
1.0
 10
-1245.6296
 20
97.0713
 30
0.0
 10
-1239.6539
 20
99.028
 30
0.0
 10
-1228.0112
 20
110.119
 30
0.0
 10
-1221.961
 20
108.6315
 30
0.0
 10
-1221.961
 20
108.6315
 30
0.0
 10
-1215.8949
 20
107.1402
 30
0.0
 10
-1219.5823
 20
100.9562
 30
0.0
 10
-1222.5852
 20
98.4489
 30
0.0
 10
-1222.5852
 20
98.4489
 30
0.0
 10
-1225.6318
 20
95.9051
 30
0.0
 10
-1229.4345
 20
93.2044
 30
0.0
 10
-1232.9764
 20
90.7229
 30
0.0
 10
-1232.9764
 20
90.7229
 30
0.0
 10
-1249.2894
 20
79.2934
 30
0.0
 10
-1257.1205
 20
69.4982
 30
0.0
 10
-1249.6171
 20
42.7854
 30
0.0
 10
-1249.6171
 20
42.7854
 30
0.0
 10
-1247.1129
 20
33.8701
 30
0.0
 10
-1241.3136
 20
24.8962
 30
0.0
 10
-1243.8812
 20
14.3733
 30
0.0
 10
-1243.8812
 20
14.3733
 30
0.0
 10
-1245.4258
 20
8.043
 30
0.0
 10
-1252.9768
 20
-3.5173
 30
0.0
 10
-1256.2545
 20
-8.9715
 30
0.0
 10
-1256.2545
 20
-8.9715
 30
0.0
 10
-1261.6816
 20
-18.0024
 30
0.0
 10
-1272.9242
 20
-33.9232
 30
0.0
 10
-1275.5159
 20
-43.0828
 30
0.0
 10
-1275.5159
 20
-43.0828
 30
0.0
 10
-1276.2134
 20
-45.5478
 30
0.0
 10
-1278.5221
 20
-55.822
 30
0.0
 10
-1278.3289
 20
-57.9033
 30
0.0
 10
-1278.3289
 20
-57.9033
 30
0.0
 10
-1278.3289
 20
-57.9033
 30
0.0
 10
-1276.6859
 20
-58.6556
 30
0.0
 10
-1276.6859
 20
-58.6556
 30
0.0
 10
-1276.6859
 20
-58.6556
 30
0.0
 10
-1276.6859
 20
-58.6556
 30
0.0
 10
-1275.2993
 20
-56.1822
 30
0.0
 10
-1275.2993
 20
-56.1822
 30
0.0
 10
-1275.2993
 20
-56.1822
 30
0.0
 10
-1271.2425
 20
-45.5879
 30
0.0
 10
-1264.7484
 20
-37.0458
 30
0.0
 10
-1256.4326
 20
-29.764
 30
0.0
 10
-1256.4326
 20
-29.764
 30
0.0
 10
-1254.1149
 20
-27.7345
 30
0.0
 10
-1249.6885
 20
-24.0922
 30
0.0
 10
-1246.5659
 20
-22.8351
 30
0.0
 10
-1246.5659
 20
-22.8351
 30
0.0
 10
-1250.6698
 20
-34.6509
 30
0.0
 10
-1276.0533
 20
-59.2671
 30
0.0
 10
-1281.0271
 20
-102.4056
 30
0.0
 10
-1281.0271
 20
-102.4056
 30
0.0
 10
-1281.96
 20
-110.4969
 30
0.0
 10
-1283.1838
 20
-130.6889
 30
0.0
 10
-1279.5497
 20
-137.2577
 30
0.0
 10
-1279.5497
 20
-137.2577
 30
0.0
 10
-1277.5295
 20
-129.1124
 30
0.0
 10
-1277.0187
 20
-122.3336
 30
0.0
 10
-1274.3177
 20
-114.3565
 30
0.0
 10
-1274.3177
 20
-114.3565
 30
0.0
 10
-1269.3536
 20
-99.6956
 30
0.0
 10
-1261.9782
 20
-90.1631
 30
0.0
 10
-1250.6692
 20
-80.8231
 30
0.0
 10
-1250.6692
 20
-80.8231
 30
0.0
 10
-1246.7463
 20
-77.5831
 30
0.0
 10
-1238.2421
 20
-71.5145
 30
0.0
 10
-1230.826
 20
-71.9311
 30
0.0
 10
-1230.826
 20
-71.9311
 30
0.0
 10
-1231.5796
 20
-73.7747
 30
0.0
 10
-1236.6574
 20
-79.2586
 30
0.0
 10
-1238.4504
 20
-81.5993
 30
0.0
 10
-1238.4504
 20
-81.5993
 30
0.0
 10
-1251.7476
 20
-98.9586
 30
0.0
 10
-1250.7349
 20
-118.5964
 30
0.0
 10
-1262.1188
 20
-144.193
 30
0.0
 10
-1262.1188
 20
-144.193
 30
0.0
 10
-1268.2701
 20
-158.0241
 30
0.0
 10
-1273.2599
 20
-163.27
 30
0.0
 10
-1274.7213
 20
-166.4921
 30
0.0
 10
-1274.7213
 20
-166.4921
 30
0.0
 10
-1271.3747
 20
-165.732
 30
0.0
 10
-1255.3831
 20
-156.2545
 30
0.0
 10
-1251.6651
 20
-152.7517
 30
0.0
 10
-1251.6651
 20
-152.7517
 30
0.0
 10
-1234.8565
 20
-136.9165
 30
0.0
 10
-1220.5023
 20
-107.147
 30
0.0
 10
-1212.2562
 20
-100.6542
 30
0.0
 10
-1212.2562
 20
-100.6542
 30
0.0
 10
-1207.3587
 20
-96.798
 30
0.0
 10
-1202.7951
 20
-101.7973
 30
0.0
 10
-1205.617
 20
-108.6913
 30
0.0
 10
-1205.617
 20
-108.6913
 30
0.0
 10
-1220.1106
 20
-144.0989
 30
0.0
 10
-1212.1071
 20
-148.6581
 30
0.0
 10
-1217.1883
 20
-170.5391
 30
0.0
 10
-1217.1883
 20
-170.5391
 30
0.0
 10
-1221.3511
 20
-188.4648
 30
0.0
 10
-1232.452
 20
-200.6305
 30
0.0
 10
-1247.1478
 20
-209.2196
 30
0.0
 10
-1247.1478
 20
-209.2196
 30
0.0
 10
-1247.717
 20
-209.5523
 30
0.0
 10
-1248.1906
 20
-209.7611
 30
0.0
 10
-1248.6135
 20
-210.1493
 30
0.0
 10
-1248.6135
 20
-210.1493
 30
0.0
 10
-1249.4235
 20
-210.893
 30
0.0
 10
-1249.2556
 20
-210.5102
 30
0.0
 10
-1249.6072
 20
-211.6371
 30
0.0
 10
-1249.6072
 20
-211.6371
 30
0.0
 10
-1248.0319
 20
-212.6215
 30
0.0
 10
-1244.1732
 20
-210.9211
 30
0.0
 10
-1241.9621
 20
-210.1217
 30
0.0
 10
-1241.9621
 20
-210.1217
 30
0.0
 10
-1224.5447
 20
-203.8251
 30
0.0
 10
-1216.9525
 20
-195.9144
 30
0.0
 10
-1204.503
 20
-184.6753
 30
0.0
 10
-1204.503
 20
-184.6753
 30
0.0
 10
-1204.503
 20
-184.6753
 30
0.0
 10
-1200.3993
 20
-181.1458
 30
0.0
 10
-1200.3993
 20
-181.1458
 30
0.0
 10
-1200.3993
 20
-181.1458
 30
0.0
 10
-1198.9354
 20
-179.9005
 30
0.0
 10
-1200.3456
 20
-180.4288
 30
0.0
 10
-1198.5121
 20
-180.1673
 30
0.0
 10
-1198.5121
 20
-180.1673
 30
0.0
 10
-1196.757
 20
-182.915
 30
0.0
 10
-1204.6637
 20
-211.2265
 30
0.0
 10
-1205.9672
 20
-215.6271
 30
0.0
 10
-1205.9672
 20
-215.6271
 30
0.0
 10
-1212.5453
 20
-237.8351
 30
0.0
 10
-1221.4037
 20
-256.6403
 30
0.0
 10
-1235.4587
 20
-273.8328
 30
0.0
 10
-1235.4587
 20
-273.8328
 30
0.0
 10
-1237.2772
 20
-276.0572
 30
0.0
 10
-1238.8954
 20
-277.5075
 30
0.0
 10
-1240.6946
 20
-279.545
 30
0.0
 10
-1240.6946
 20
-279.545
 30
0.0
 10
-1242.5494
 20
-281.6456
 30
0.0
 10
-1244.0512
 20
-283.2478
 30
0.0
 10
-1246.1323
 20
-285.079
 30
0.0
 10
-1246.1323
 20
-285.079
 30
0.0
 10
-1246.1323
 20
-285.079
 30
0.0
 10
-1257.9335
 20
-295.3861
 30
0.0
 10
-1257.9335
 20
-295.3861
 30
0.0
 10
-1257.9335
 20
-295.3861
 30
0.0
 10
-1248.1396
 20
-294.7746
 30
0.0
 10
-1222.3006
 20
-275.0629
 30
0.0
 10
-1215.0471
 20
-267.5492
 30
0.0
 10
-1215.0471
 20
-267.5492
 30
0.0
 10
-1188.2328
 20
-239.7734
 30
0.0
 10
-1192.7022
 20
-201.1877
 30
0.0
 10
-1162.593
 20
-177.0165
 30
0.0
 10
-1162.593
 20
-177.0165
 30
0.0
 10
-1151.4066
 20
-168.0363
 30
0.0
 10
-1144.6031
 20
-161.7297
 30
0.0
 10
-1130.7375
 20
-155.5064
 30
0.0
 10
-1130.7375
 20
-155.5064
 30
0.0
 10
-1126.0718
 20
-153.4123
 30
0.0
 10
-1122.0883
 20
-152.652
 30
0.0
 10
-1117.2118
 20
-150.9097
 30
0.0
 10
-1117.2118
 20
-150.9097
 30
0.0
 10
-1126.7589
 20
-141.5871
 30
0.0
 10
-1134.814
 20
-140.1081
 30
0.0
 10
-1144.0522
 20
-124.2673
 30
0.0
 10
-1144.0522
 20
-124.2673
 30
0.0
 10
-1154.1174
 20
-107.0086
 30
0.0
 10
-1153.2619
 20
-76.1502
 30
0.0
 10
-1156.0499
 20
-68.5852
 30
0.0
 10
-1156.0499
 20
-68.5852
 30
0.0
 10
-1159.4515
 20
-59.3558
 30
0.0
 10
-1168.0398
 20
-69.9515
 30
0.0
 10
-1175.871
 20
-47.8817
 30
0.0
 10
-1175.871
 20
-47.8817
 30
0.0
 10
-1178.3525
 20
-40.8883
 30
0.0
 10
-1180.2308
 20
-33.8194
 30
0.0
 10
-1180.9227
 20
-25.7587
 30
0.0
 10
-1180.9227
 20
-25.7587
 30
0.0
 10
-1181.3367
 20
-20.9358
 30
0.0
 10
-1180.5127
 20
-1.6304
 30
0.0
 10
-1181.3575
 20
0.7506
 30
0.0
 10
-1181.3575
 20
0.7506
 30
0.0
 10
-1183.5838
 20
0.8602
 30
0.0
 10
-1183.1439
 20
1.3051
 30
0.0
 10
-1184.2287
 20
-4.2975
 30
0.0
 10
-1184.2287
 20
-4.2975
 30
0.0
 10
-1188.2388
 20
-25.0077
 30
0.0
 10
-1187.0699
 20
-37.5546
 30
0.0
 10
-1188.5294
 20
-57.8303
 30
0.0
 10
-1188.5294
 20
-57.8303
 30
0.0
 10
-1196.416
 20
-48.2336
 30
0.0
 10
-1202.4207
 20
-18.617
 30
0.0
 10
-1203.3402
 20
-4.769
 30
0.0
 10
-1203.3402
 20
-4.769
 30
0.0
 10
-1204.3835
 20
10.9442
 30
0.0
 10
-1204.1847
 20
24.9203
 30
0.0
 10
-1197.3128
 20
38.844
 30
0.0
 10
-1197.3128
 20
38.844
 30
0.0
 10
-1194.8968
 20
43.7394
 30
0.0
 10
-1190.339
 20
48.4367
 30
0.0
 10
-1192.8013
 20
49.6694
 30
0.0
 10
-1192.8013
 20
49.6694
 30
0.0
 10
-1194.2441
 20
50.3917
 30
0.0
 10
-1207.8776
 20
31.1916
 30
0.0
 10
-1210.7918
 20
29.1451
 30
0.0
 10
-1210.7918
 20
29.1451
 30
0.0
 10
-1212.9979
 20
51.9447
 30
0.0
 10
-1202.0053
 20
69.4826
 30
0.0
 10
-1189.9596
 20
85.3482
 30
0.0
 10
-1189.9596
 20
85.3482
 30
0.0
 10
-1188.5207
 20
87.2435
 30
0.0
 10
-1179.4143
 20
98.653
 30
0.0
 10
-1179.7829
 20
100.2195
 30
0.0
 10
-1179.7829
 20
100.2195
 30
0.0
 10
-1181.2282
 20
100.5612
 30
0.0
 10
-1183.5255
 20
98.3891
 30
0.0
 10
-1184.9027
 20
97.4462
 30
0.0
 10
-1184.9027
 20
97.4462
 30
0.0
 10
-1187.6435
 20
95.5697
 30
0.0
 10
-1198.6686
 20
87.8063
 30
0.0
 10
-1200.2266
 20
87.3906
 30
0.0
 10
-1200.2266
 20
87.3906
 30
0.0
 10
-1200.6716
 20
94.0309
 30
0.0
 10
-1186.5405
 20
115.2626
 30
0.0
 10
-1182.4561
 20
121.2178
 30
0.0
 10
-1182.4561
 20
121.2178
 30
0.0
 10
-1178.9245
 20
126.367
 30
0.0
 10
-1174.6859
 20
131.3495
 30
0.0
 10
-1170.8543
 20
135.3523
 30
0.0
 10
-1170.8543
 20
135.3523
 30
0.0
 10
-1168.5798
 20
137.7285
 30
0.0
 10
-1166.2522
 20
139.2384
 30
0.0
 10
-1164.1323
 20
141.4955
 30
0.0
 10
-1164.1323
 20
141.4955
 30
0.0
 10
-1163.1354
 20
142.5568
 30
0.0
 10
-1159.3006
 20
147.5486
 30
0.0
 10
-1158.6148
 20
149.0831
 30
0.0
 10
-1158.6148
 20
149.0831
 30
0.0
 10
-1184.6294
 20
153.2042
 30
0.0
 10
-1214.8878
 20
133.7618
 30
0.0
 10
-1230.6516
 20
117.4718
 30
0.0
 10
-1230.6516
 20
117.4718
 30
0.0
 10
-1234.1702
 20
113.8358
 30
0.0
 10
-1243.5764
 20
103.1575
 30
0.0
 10
-1245.6296
 20
97.0713
 30
0.0
  0
SPLINE
  5
74
330
1F
100
AcDbEntity
  8
Katman 1
100
AcDbSpline
210
0.0
220
0.0
230
1.0
 70
    11
 71
     3
 72
   268
 73
   264
 74
     0
 42
0.000000001
 43
0.0000000001
 40
0.0
 40
0.0
 40
0.0
 40
0.0
 40
0.0149253731343284
 40
0.0149253731343284
 40
0.0149253731343284
 40
0.0149253731343284
 40
0.0298507462686567
 40
0.0298507462686567
 40
0.0298507462686567
 40
0.0298507462686567
 40
0.0447761194029851
 40
0.0447761194029851
 40
0.0447761194029851
 40
0.0447761194029851
 40
0.0597014925373134
 40
0.0597014925373134
 40
0.0597014925373134
 40
0.0597014925373134
 40
0.0746268656716418
 40
0.0746268656716418
 40
0.0746268656716418
 40
0.0746268656716418
 40
0.0895522388059701
 40
0.0895522388059701
 40
0.0895522388059701
 40
0.0895522388059701
 40
0.1044776119402985
 40
0.1044776119402985
 40
0.1044776119402985
 40
0.1044776119402985
 40
0.1194029850746269
 40
0.1194029850746269
 40
0.1194029850746269
 40
0.1194029850746269
 40
0.1343283582089552
 40
0.1343283582089552
 40
0.1343283582089552
 40
0.1343283582089552
 40
0.1492537313432836
 40
0.1492537313432836
 40
0.1492537313432836
 40
0.1492537313432836
 40
0.1641791044776119
 40
0.1641791044776119
 40
0.1641791044776119
 40
0.1641791044776119
 40
0.1791044776119403
 40
0.1791044776119403
 40
0.1791044776119403
 40
0.1791044776119403
 40
0.1940298507462687
 40
0.1940298507462687
 40
0.1940298507462687
 40
0.1940298507462687
 40
0.208955223880597
 40
0.208955223880597
 40
0.208955223880597
 40
0.208955223880597
 40
0.2238805970149254
 40
0.2238805970149254
 40
0.2238805970149254
 40
0.2238805970149254
 40
0.2388059701492537
 40
0.2388059701492537
 40
0.2388059701492537
 40
0.2388059701492537
 40
0.2537313432835821
 40
0.2537313432835821
 40
0.2537313432835821
 40
0.2537313432835821
 40
0.2686567164179104
 40
0.2686567164179104
 40
0.2686567164179104
 40
0.2686567164179104
 40
0.2835820895522388
 40
0.2835820895522388
 40
0.2835820895522388
 40
0.2835820895522388
 40
0.2985074626865671
 40
0.2985074626865671
 40
0.2985074626865671
 40
0.2985074626865671
 40
0.3134328358208955
 40
0.3134328358208955
 40
0.3134328358208955
 40
0.3134328358208955
 40
0.3283582089552239
 40
0.3283582089552239
 40
0.3283582089552239
 40
0.3283582089552239
 40
0.3432835820895522
 40
0.3432835820895522
 40
0.3432835820895522
 40
0.3432835820895522
 40
0.3582089552238806
 40
0.3582089552238806
 40
0.3582089552238806
 40
0.3582089552238806
 40
0.373134328358209
 40
0.373134328358209
 40
0.373134328358209
 40
0.373134328358209
 40
0.3880597014925373
 40
0.3880597014925373
 40
0.3880597014925373
 40
0.3880597014925373
 40
0.4029850746268657
 40
0.4029850746268657
 40
0.4029850746268657
 40
0.4029850746268657
 40
0.417910447761194
 40
0.417910447761194
 40
0.417910447761194
 40
0.417910447761194
 40
0.4328358208955224
 40
0.4328358208955224
 40
0.4328358208955224
 40
0.4328358208955224
 40
0.4477611940298508
 40
0.4477611940298508
 40
0.4477611940298508
 40
0.4477611940298508
 40
0.4626865671641791
 40
0.4626865671641791
 40
0.4626865671641791
 40
0.4626865671641791
 40
0.4776119402985075
 40
0.4776119402985075
 40
0.4776119402985075
 40
0.4776119402985075
 40
0.4925373134328358
 40
0.4925373134328358
 40
0.4925373134328358
 40
0.4925373134328358
 40
0.5074626865671642
 40
0.5074626865671642
 40
0.5074626865671642
 40
0.5074626865671642
 40
0.5223880597014925
 40
0.5223880597014925
 40
0.5223880597014925
 40
0.5223880597014925
 40
0.5373134328358209
 40
0.5373134328358209
 40
0.5373134328358209
 40
0.5373134328358209
 40
0.5522388059701493
 40
0.5522388059701493
 40
0.5522388059701493
 40
0.5522388059701493
 40
0.5671641791044776
 40
0.5671641791044776
 40
0.5671641791044776
 40
0.5671641791044776
 40
0.582089552238806
 40
0.582089552238806
 40
0.582089552238806
 40
0.582089552238806
 40
0.5970149253731343
 40
0.5970149253731343
 40
0.5970149253731343
 40
0.5970149253731343
 40
0.6119402985074627
 40
0.6119402985074627
 40
0.6119402985074627
 40
0.6119402985074627
 40
0.6268656716417911
 40
0.6268656716417911
 40
0.6268656716417911
 40
0.6268656716417911
 40
0.6417910447761194
 40
0.6417910447761194
 40
0.6417910447761194
 40
0.6417910447761194
 40
0.6567164179104478
 40
0.6567164179104478
 40
0.6567164179104478
 40
0.6567164179104478
 40
0.6716417910447762
 40
0.6716417910447762
 40
0.6716417910447762
 40
0.6716417910447762
 40
0.6865671641791045
 40
0.6865671641791045
 40
0.6865671641791045
 40
0.6865671641791045
 40
0.7014925373134329
 40
0.7014925373134329
 40
0.7014925373134329
 40
0.7014925373134329
 40
0.7164179104477612
 40
0.7164179104477612
 40
0.7164179104477612
 40
0.7164179104477612
 40
0.7313432835820896
 40
0.7313432835820896
 40
0.7313432835820896
 40
0.7313432835820896
 40
0.746268656716418
 40
0.746268656716418
 40
0.746268656716418
 40
0.746268656716418
 40
0.7611940298507462
 40
0.7611940298507462
 40
0.7611940298507462
 40
0.7611940298507462
 40
0.7761194029850746
 40
0.7761194029850746
 40
0.7761194029850746
 40
0.7761194029850746
 40
0.7910447761194029
 40
0.7910447761194029
 40
0.7910447761194029
 40
0.7910447761194029
 40
0.8059701492537313
 40
0.8059701492537313
 40
0.8059701492537313
 40
0.8059701492537313
 40
0.8208955223880597
 40
0.8208955223880597
 40
0.8208955223880597
 40
0.8208955223880597
 40
0.835820895522388
 40
0.835820895522388
 40
0.835820895522388
 40
0.835820895522388
 40
0.8507462686567164
 40
0.8507462686567164
 40
0.8507462686567164
 40
0.8507462686567164
 40
0.8656716417910447
 40
0.8656716417910447
 40
0.8656716417910447
 40
0.8656716417910447
 40
0.8805970149253731
 40
0.8805970149253731
 40
0.8805970149253731
 40
0.8805970149253731
 40
0.8955223880597015
 40
0.8955223880597015
 40
0.8955223880597015
 40
0.8955223880597015
 40
0.9104477611940298
 40
0.9104477611940298
 40
0.9104477611940298
 40
0.9104477611940298
 40
0.9253731343283582
 40
0.9253731343283582
 40
0.9253731343283582
 40
0.9253731343283582
 40
0.9402985074626866
 40
0.9402985074626866
 40
0.9402985074626866
 40
0.9402985074626866
 40
0.9552238805970149
 40
0.9552238805970149
 40
0.9552238805970149
 40
0.9552238805970149
 40
0.9701492537313433
 40
0.9701492537313433
 40
0.9701492537313433
 40
0.9701492537313433
 40
1.0
 40
1.0
 40
1.0
 40
1.0
 10
-1219.9237
 20
-292.7605
 30
0.0
 10
-1211.037
 20
-292.2522
 30
0.0
 10
-1198.6641
 20
-283.8033
 30
0.0
 10
-1193.9484
 20
-279.5989
 30
0.0
 10
-1193.9484
 20
-279.5989
 30
0.0
 10
-1190.372
 20
-276.4103
 30
0.0
 10
-1187.1739
 20
-273.3468
 30
0.0
 10
-1183.8399
 20
-270.1665
 30
0.0
 10
-1183.8399
 20
-270.1665
 30
0.0
 10
-1182.0847
 20
-268.4923
 30
0.0
 10
-1180.7596
 20
-267.1547
 30
0.0
 10
-1179.012
 20
-265.4621
 30
0.0
 10
-1179.012
 20
-265.4621
 30
0.0
 10
-1177.6255
 20
-264.1193
 30
0.0
 10
-1175.8431
 20
-262.2077
 30
0.0
 10
-1173.9191
 20
-260.7908
 30
0.0
 10
-1173.9191
 20
-260.7908
 30
0.0
 10
-1176.4979
 20
-265.6349
 30
0.0
 10
-1180.0
 20
-269.9441
 30
0.0
 10
-1183.2021
 20
-274.6215
 30
0.0
 10
-1183.2021
 20
-274.6215
 30
0.0
 10
-1201.2118
 20
-300.9294
 30
0.0
 10
-1214.8465
 20
-330.2196
 30
0.0
 10
-1213.1905
 20
-363.7106
 30
0.0
 10
-1213.1905
 20
-363.7106
 30
0.0
 10
-1212.6681
 20
-374.277
 30
0.0
 10
-1207.8624
 20
-394.4353
 30
0.0
 10
-1201.8923
 20
-399.8733
 30
0.0
 10
-1201.8923
 20
-399.8733
 30
0.0
 10
-1200.7309
 20
-395.6743
 30
0.0
 10
-1203.4724
 20
-388.7993
 30
0.0
 10
-1203.9748
 20
-383.519
 30
0.0
 10
-1203.9748
 20
-383.519
 30
0.0
 10
-1205.5778
 20
-366.6692
 30
0.0
 10
-1199.329
 20
-351.4985
 30
0.0
 10
-1190.805
 20
-338.5096
 30
0.0
 10
-1190.805
 20
-338.5096
 30
0.0
 10
-1183.4774
 20
-327.3436
 30
0.0
 10
-1172.2514
 20
-316.8021
 30
0.0
 10
-1161.3154
 20
-309.3771
 30
0.0
 10
-1161.3154
 20
-309.3771
 30
0.0
 10
-1158.1158
 20
-307.2047
 30
0.0
 10
-1152.5877
 20
-302.5966
 30
0.0
 10
-1147.5248
 20
-303.0555
 30
0.0
 10
-1147.5248
 20
-303.0555
 30
0.0
 10
-1142.7899
 20
-307.3764
 30
0.0
 10
-1146.8772
 20
-314.9714
 30
0.0
 10
-1149.1499
 20
-319.6431
 30
0.0
 10
-1149.1499
 20
-319.6431
 30
0.0
 10
-1153.9771
 20
-329.5659
 30
0.0
 10
-1161.2823
 20
-339.0793
 30
0.0
 10
-1167.3137
 20
-348.1911
 30
0.0
 10
-1167.3137
 20
-348.1911
 30
0.0
 10
-1170.3616
 20
-352.7958
 30
0.0
 10
-1173.9602
 20
-357.2861
 30
0.0
 10
-1174.7048
 20
-364.1777
 30
0.0
 10
-1174.7048
 20
-364.1777
 30
0.0
 10
-1171.2363
 20
-362.0174
 30
0.0
 10
-1166.26
 20
-353.1489
 30
0.0
 10
-1162.5349
 20
-349.6304
 30
0.0
 10
-1162.5349
 20
-349.6304
 30
0.0
 10
-1160.1949
 20
-347.4202
 30
0.0
 10
-1158.3294
 20
-345.4399
 30
0.0
 10
-1155.8679
 20
-342.9611
 30
0.0
 10
-1155.8679
 20
-342.9611
 30
0.0
 10
-1153.9071
 20
-340.9865
 30
0.0
 10
-1150.9804
 20
-338.8672
 30
0.0
 10
-1148.5021
 20
-336.9751
 30
0.0
 10
-1148.5021
 20
-336.9751
 30
0.0
 10
-1138.8083
 20
-329.5741
 30
0.0
 10
-1125.9688
 20
-323.135
 30
0.0
 10
-1112.1649
 20
-319.5142
 30
0.0
 10
-1112.1649
 20
-319.5142
 30
0.0
 10
-1104.4018
 20
-317.4779
 30
0.0
 10
-1096.493
 20
-316.248
 30
0.0
 10
-1087.9481
 20
-316.8659
 30
0.0
 10
-1087.9481
 20
-316.8659
 30
0.0
 10
-1081.0317
 20
-317.366
 30
0.0
 10
-1068.6955
 20
-318.5957
 30
0.0
 10
-1073.062
 20
-327.5999
 30
0.0
 10
-1073.062
 20
-327.5999
 30
0.0
 10
-1079.0761
 20
-340.0019
 30
0.0
 10
-1089.677
 20
-343.5984
 30
0.0
 10
-1099.7858
 20
-347.5794
 30
0.0
 10
-1099.7858
 20
-347.5794
 30
0.0
 10
-1103.9641
 20
-349.2248
 30
0.0
 10
-1103.7111
 20
-348.7284
 30
0.0
 10
-1103.4156
 20
-350.6118
 30
0.0
 10
-1103.4156
 20
-350.6118
 30
0.0
 10
-1098.9549
 20
-352.2478
 30
0.0
 10
-1081.9969
 20
-345.2637
 30
0.0
 10
-1077.4679
 20
-343.6745
 30
0.0
 10
-1077.4679
 20
-343.6745
 30
0.0
 10
-1052.2701
 20
-334.8326
 30
0.0
 10
-1021.3278
 20
-332.3121
 30
0.0
 10
-996.3886
 20
-324.683
 30
0.0
 10
-996.3886
 20
-324.683
 30
0.0
 10
-972.3946
 20
-317.3431
 30
0.0
 10
-950.1119
 20
-304.245
 30
0.0
 10
-931.6533
 20
-289.3339
 30
0.0
 10
-931.6533
 20
-289.3339
 30
0.0
 10
-931.6533
 20
-289.3339
 30
0.0
 10
-913.2644
 20
-274.3493
 30
0.0
 10
-913.2644
 20
-274.3493
 30
0.0
 10
-913.2644
 20
-274.3493
 30
0.0
 10
-914.2888
 20
-281.8256
 30
0.0
 10
-927.9907
 20
-295.3128
 30
0.0
 10
-933.3104
 20
-300.0716
 30
0.0
 10
-933.3104
 20
-300.0716
 30
0.0
 10
-933.3104
 20
-300.0716
 30
0.0
 10
-948.5718
 20
-312.5199
 30
0.0
 10
-948.5718
 20
-312.5199
 30
0.0
 10
-948.5718
 20
-312.5199
 30
0.0
 10
-942.8016
 20
-311.966
 30
0.0
 10
-917.9506
 20
-301.2859
 30
0.0
 10
-911.6869
 20
-298.3526
 30
0.0
 10
-911.6869
 20
-298.3526
 30
0.0
 10
-889.1447
 20
-287.7963
 30
0.0
 10
-866.6663
 20
-273.9247
 30
0.0
 10
-847.9628
 20
-258.6587
 30
0.0
 10
-847.9628
 20
-258.6587
 30
0.0
 10
-845.6315
 20
-256.7559
 30
0.0
 10
-842.9327
 20
-254.7518
 30
0.0
 10
-840.8804
 20
-252.8644
 30
0.0
 10
-840.8804
 20
-252.8644
 30
0.0
 10
-837.0612
 20
-249.3523
 30
0.0
 10
-823.2568
 20
-237.6324
 30
0.0
 10
-820.8071
 20
-234.1685
 30
0.0
 10
-820.8071
 20
-234.1685
 30
0.0
 10
-828.2381
 20
-234.1038
 30
0.0
 10
-855.9902
 20
-249.7794
 30
0.0
 10
-855.8573
 20
-232.1315
 30
0.0
 10
-855.8573
 20
-232.1315
 30
0.0
 10
-855.8195
 20
-227.1109
 30
0.0
 10
-853.4463
 20
-222.8706
 30
0.0
 10
-851.539
 20
-219.3325
 30
0.0
 10
-851.539
 20
-219.3325
 30
0.0
 10
-844.3773
 20
-206.0468
 30
0.0
 10
-831.7069
 20
-186.124
 30
0.0
 10
-829.8237
 20
-173.0351
 30
0.0
 10
-829.8237
 20
-173.0351
 30
0.0
 10
-831.0956
 20
-173.5646
 30
0.0
 10
-836.5248
 20
-184.7713
 30
0.0
 10
-839.2129
 20
-188.7667
 30
0.0
 10
-839.2129
 20
-188.7667
 30
0.0
 10
-846.1022
 20
-199.0068
 30
0.0
 10
-854.8129
 20
-207.303
 30
0.0
 10
-867.0291
 20
-211.4817
 30
0.0
 10
-867.0291
 20
-211.4817
 30
0.0
 10
-869.6423
 20
-212.3756
 30
0.0
 10
-874.5509
 20
-213.9095
 30
0.0
 10
-877.7598
 20
-213.4769
 30
0.0
 10
-877.7598
 20
-213.4769
 30
0.0
 10
-882.3395
 20
-212.8595
 30
0.0
 10
-881.9664
 20
-209.2799
 30
0.0
 10
-883.9124
 20
-206.9542
 30
0.0
 10
-883.9124
 20
-206.9542
 30
0.0
 10
-887.325
 20
-213.4313
 30
0.0
 10
-892.8377
 20
-221.0746
 30
0.0
 10
-897.854
 20
-225.4286
 30
0.0
 10
-897.854
 20
-225.4286
 30
0.0
 10
-922.0159
 20
-246.4004
 30
0.0
 10
-942.2621
 20
-261.4745
 30
0.0
 10
-974.1446
 20
-274.0053
 30
0.0
 10
-974.1446
 20
-274.0053
 30
0.0
 10
-974.1446
 20
-274.0053
 30
0.0
 10
-1003.031
 20
-284.182
 30
0.0
 10
-1003.031
 20
-284.182
 30
0.0
 10
-1003.031
 20
-284.182
 30
0.0
 10
-1008.6984
 20
-286.0654
 30
0.0
 10
-1007.7646
 20
-286.2053
 30
0.0
 10
-1014.1075
 20
-285.4153
 30
0.0
 10
-1014.1075
 20
-285.4153
 30
0.0
 10
-1014.0292
 20
-279.953
 30
0.0
 10
-1009.7893
 20
-275.7079
 30
0.0
 10
-1005.7788
 20
-271.4355
 30
0.0
 10
-1005.7788
 20
-271.4355
 30
0.0
 10
-1004.2343
 20
-269.7901
 30
0.0
 10
-995.2195
 20
-260.8005
 30
0.0
 10
-995.1026
 20
-259.3924
 30
0.0
 10
-995.1026
 20
-259.3924
 30
0.0
 10
-997.1593
 20
-258.014
 30
0.0
 10
-998.2708
 20
-259.9007
 30
0.0
 10
-1002.2768
 20
-263.0246
 30
0.0
 10
-1002.2768
 20
-263.0246
 30
0.0
 10
-1004.6204
 20
-264.8522
 30
0.0
 10
-1006.7809
 20
-266.4592
 30
0.0
 10
-1009.0345
 20
-268.1918
 30
0.0
 10
-1009.0345
 20
-268.1918
 30
0.0
 10
-1020.9414
 20
-277.346
 30
0.0
 10
-1039.2259
 20
-292.5197
 30
0.0
 10
-1051.1762
 20
-298.9557
 30
0.0
 10
-1051.1762
 20
-298.9557
 30
0.0
 10
-1060.7973
 20
-304.1373
 30
0.0
 10
-1077.5478
 20
-312.0094
 30
0.0
 10
-1087.0648
 20
-302.7374
 30
0.0
 10
-1087.0648
 20
-302.7374
 30
0.0
 10
-1097.7689
 20
-292.3089
 30
0.0
 10
-1079.3212
 20
-276.2197
 30
0.0
 10
-1077.9403
 20
-269.9217
 30
0.0
 10
-1077.9403
 20
-269.9217
 30
0.0
 10
-1079.9003
 20
-270.1072
 30
0.0
 10
-1085.6777
 20
-274.9876
 30
0.0
 10
-1087.2514
 20
-276.2205
 30
0.0
 10
-1087.2514
 20
-276.2205
 30
0.0
 10
-1090.4034
 20
-278.6899
 30
0.0
 10
-1093.2536
 20
-280.8853
 30
0.0
 10
-1096.4953
 20
-283.178
 30
0.0
 10
-1096.4953
 20
-283.178
 30
0.0
 10
-1103.0553
 20
-287.8178
 30
0.0
 10
-1120.8247
 20
-300.4244
 30
0.0
 10
-1129.9544
 20
-295.1173
 30
0.0
 10
-1129.9544
 20
-295.1173
 30
0.0
 10
-1133.3343
 20
-293.1525
 30
0.0
 10
-1134.7979
 20
-288.5311
 30
0.0
 10
-1133.306
 20
-283.0076
 30
0.0
 10
-1133.306
 20
-283.0076
 30
0.0
 10
-1131.6867
 20
-277.0119
 30
0.0
 10
-1124.0577
 20
-268.4203
 30
0.0
 10
-1120.0703
 20
-263.8791
 30
0.0
 10
-1120.0703
 20
-263.8791
 30
0.0
 10
-1112.2698
 20
-254.9952
 30
0.0
 10
-1097.7319
 20
-236.2051
 30
0.0
 10
-1093.2774
 20
-226.3374
 30
0.0
 10
-1093.2774
 20
-226.3374
 30
0.0
 10
-1086.1228
 20
-210.4882
 30
0.0
 10
-1090.2372
 20
-195.495
 30
0.0
 10
-1095.8859
 20
-180.4727
 30
0.0
 10
-1095.8859
 20
-180.4727
 30
0.0
 10
-1096.8884
 20
-177.8068
 30
0.0
 10
-1097.6834
 20
-177.5095
 30
0.0
 10
-1099.9363
 20
-176.2415
 30
0.0
 10
-1099.9363
 20
-176.2415
 30
0.0
 10
-1100.0462
 20
-180.5976
 30
0.0
 10
-1098.995
 20
-182.3431
 30
0.0
 10
-1098.4265
 20
-186.3268
 30
0.0
 10
-1098.4265
 20
-186.3268
 30
0.0
 10
-1096.9913
 20
-196.3831
 30
0.0
 10
-1099.9791
 20
-205.4447
 30
0.0
 10
-1104.2541
 20
-213.9286
 30
0.0
 10
-1104.2541
 20
-213.9286
 30
0.0
 10
-1109.8203
 20
-224.9748
 30
0.0
 10
-1124.0109
 20
-237.8744
 30
0.0
 10
-1129.0128
 20
-226.4869
 30
0.0
 10
-1129.0128
 20
-226.4869
 30
0.0
 10
-1135.4101
 20
-211.9226
 30
0.0
 10
-1124.4118
 20
-186.5476
 30
0.0
 10
-1117.0815
 20
-173.4571
 30
0.0
 10
-1117.0815
 20
-173.4571
 30
0.0
 10
-1115.5269
 20
-170.6808
 30
0.0
 10
-1109.2919
 20
-161.2943
 30
0.0
 10
-1109.1482
 20
-159.0199
 30
0.0
 10
-1109.1482
 20
-159.0199
 30
0.0
 10
-1135.5579
 20
-171.8845
 30
0.0
 10
-1162.6792
 20
-185.754
 30
0.0
 10
-1175.3823
 20
-214.7525
 30
0.0
 10
-1175.3823
 20
-214.7525
 30
0.0
 10
-1184.5128
 20
-235.5956
 30
0.0
 10
-1183.5944
 20
-256.9353
 30
0.0
 10
-1203.9516
 20
-277.6963
 30
0.0
 10
-1203.9516
 20
-277.6963
 30
0.0
 10
-1207.133
 20
-280.9408
 30
0.0
 10
-1218.379
 20
-290.5953
 30
0.0
 10
-1219.9237
 20
-292.7605
 30
0.0
  0
SPLINE
  5
75
330
1F
100
AcDbEntity
  8
Katman 1
100
AcDbSpline
210
0.0
220
0.0
230
1.0
 70
    11
 71
     3
 72
   404
 73
   400
 74
     0
 42
0.000000001
 43
0.0000000001
 40
0.0
 40
0.0
 40
0.0
 40
0.0
 40
0.0099009900990099
 40
0.0099009900990099
 40
0.0099009900990099
 40
0.0099009900990099
 40
0.0198019801980198
 40
0.0198019801980198
 40
0.0198019801980198
 40
0.0198019801980198
 40
0.0297029702970297
 40
0.0297029702970297
 40
0.0297029702970297
 40
0.0297029702970297
 40
0.0396039603960396
 40
0.0396039603960396
 40
0.0396039603960396
 40
0.0396039603960396
 40
0.0495049504950495
 40
0.0495049504950495
 40
0.0495049504950495
 40
0.0495049504950495
 40
0.0594059405940594
 40
0.0594059405940594
 40
0.0594059405940594
 40
0.0594059405940594
 40
0.0693069306930693
 40
0.0693069306930693
 40
0.0693069306930693
 40
0.0693069306930693
 40
0.0792079207920792
 40
0.0792079207920792
 40
0.0792079207920792
 40
0.0792079207920792
 40
0.0891089108910891
 40
0.0891089108910891
 40
0.0891089108910891
 40
0.0891089108910891
 40
0.099009900990099
 40
0.099009900990099
 40
0.099009900990099
 40
0.099009900990099
 40
0.1089108910891089
 40
0.1089108910891089
 40
0.1089108910891089
 40
0.1089108910891089
 40
0.1188118811881188
 40
0.1188118811881188
 40
0.1188118811881188
 40
0.1188118811881188
 40
0.1287128712871287
 40
0.1287128712871287
 40
0.1287128712871287
 40
0.1287128712871287
 40
0.1386138613861386
 40
0.1386138613861386
 40
0.1386138613861386
 40
0.1386138613861386
 40
0.1485148514851485
 40
0.1485148514851485
 40
0.1485148514851485
 40
0.1485148514851485
 40
0.1584158415841584
 40
0.1584158415841584
 40
0.1584158415841584
 40
0.1584158415841584
 40
0.1683168316831683
 40
0.1683168316831683
 40
0.1683168316831683
 40
0.1683168316831683
 40
0.1782178217821782
 40
0.1782178217821782
 40
0.1782178217821782
 40
0.1782178217821782
 40
0.1881188118811881
 40
0.1881188118811881
 40
0.1881188118811881
 40
0.1881188118811881
 40
0.198019801980198
 40
0.198019801980198
 40
0.198019801980198
 40
0.198019801980198
 40
0.2079207920792079
 40
0.2079207920792079
 40
0.2079207920792079
 40
0.2079207920792079
 40
0.2178217821782178
 40
0.2178217821782178
 40
0.2178217821782178
 40
0.2178217821782178
 40
0.2277227722772277
 40
0.2277227722772277
 40
0.2277227722772277
 40
0.2277227722772277
 40
0.2376237623762376
 40
0.2376237623762376
 40
0.2376237623762376
 40
0.2376237623762376
 40
0.2475247524752475
 40
0.2475247524752475
 40
0.2475247524752475
 40
0.2475247524752475
 40
0.2574257425742574
 40
0.2574257425742574
 40
0.2574257425742574
 40
0.2574257425742574
 40
0.2673267326732673
 40
0.2673267326732673
 40
0.2673267326732673
 40
0.2673267326732673
 40
0.2772277227722773
 40
0.2772277227722773
 40
0.2772277227722773
 40
0.2772277227722773
 40
0.2871287128712871
 40
0.2871287128712871
 40
0.2871287128712871
 40
0.2871287128712871
 40
0.297029702970297
 40
0.297029702970297
 40
0.297029702970297
 40
0.297029702970297
 40
0.3069306930693069
 40
0.3069306930693069
 40
0.3069306930693069
 40
0.3069306930693069
 40
0.3168316831683168
 40
0.3168316831683168
 40
0.3168316831683168
 40
0.3168316831683168
 40
0.3267326732673267
 40
0.3267326732673267
 40
0.3267326732673267
 40
0.3267326732673267
 40
0.3366336633663367
 40
0.3366336633663367
 40
0.3366336633663367
 40
0.3366336633663367
 40
0.3465346534653465
 40
0.3465346534653465
 40
0.3465346534653465
 40
0.3465346534653465
 40
0.3564356435643564
 40
0.3564356435643564
 40
0.3564356435643564
 40
0.3564356435643564
 40
0.3663366336633663
 40
0.3663366336633663
 40
0.3663366336633663
 40
0.3663366336633663
 40
0.3762376237623762
 40
0.3762376237623762
 40
0.3762376237623762
 40
0.3762376237623762
 40
0.3861386138613861
 40
0.3861386138613861
 40
0.3861386138613861
 40
0.3861386138613861
 40
0.3960396039603961
 40
0.3960396039603961
 40
0.3960396039603961
 40
0.3960396039603961
 40
0.405940594059406
 40
0.405940594059406
 40
0.405940594059406
 40
0.405940594059406
 40
0.4158415841584158
 40
0.4158415841584158
 40
0.4158415841584158
 40
0.4158415841584158
 40
0.4257425742574257
 40
0.4257425742574257
 40
0.4257425742574257
 40
0.4257425742574257
 40
0.4356435643564356
 40
0.4356435643564356
 40
0.4356435643564356
 40
0.4356435643564356
 40
0.4455445544554456
 40
0.4455445544554456
 40
0.4455445544554456
 40
0.4455445544554456
 40
0.4554455445544555
 40
0.4554455445544555
 40
0.4554455445544555
 40
0.4554455445544555
 40
0.4653465346534654
 40
0.4653465346534654
 40
0.4653465346534654
 40
0.4653465346534654
 40
0.4752475247524752
 40
0.4752475247524752
 40
0.4752475247524752
 40
0.4752475247524752
 40
0.4851485148514851
 40
0.4851485148514851
 40
0.4851485148514851
 40
0.4851485148514851
 40
0.495049504950495
 40
0.495049504950495
 40
0.495049504950495
 40
0.495049504950495
 40
0.504950495049505
 40
0.504950495049505
 40
0.504950495049505
 40
0.504950495049505
 40
0.5148514851485149
 40
0.5148514851485149
 40
0.5148514851485149
 40
0.5148514851485149
 40
0.5247524752475248
 40
0.5247524752475248
 40
0.5247524752475248
 40
0.5247524752475248
 40
0.5346534653465347
 40
0.5346534653465347
 40
0.5346534653465347
 40
0.5346534653465347
 40
0.5445544554455446
 40
0.5445544554455446
 40
0.5445544554455446
 40
0.5445544554455446
 40
0.5544554455445545
 40
0.5544554455445545
 40
0.5544554455445545
 40
0.5544554455445545
 40
0.5643564356435643
 40
0.5643564356435643
 40
0.5643564356435643
 40
0.5643564356435643
 40
0.5742574257425742
 40
0.5742574257425742
 40
0.5742574257425742
 40
0.5742574257425742
 40
0.5841584158415841
 40
0.5841584158415841
 40
0.5841584158415841
 40
0.5841584158415841
 40
0.594059405940594
 40
0.594059405940594
 40
0.594059405940594
 40
0.594059405940594
 40
0.6039603960396039
 40
0.6039603960396039
 40
0.6039603960396039
 40
0.6039603960396039
 40
0.6138613861386139
 40
0.6138613861386139
 40
0.6138613861386139
 40
0.6138613861386139
 40
0.6237623762376238
 40
0.6237623762376238
 40
0.6237623762376238
 40
0.6237623762376238
 40
0.6336633663366337
 40
0.6336633663366337
 40
0.6336633663366337
 40
0.6336633663366337
 40
0.6435643564356436
 40
0.6435643564356436
 40
0.6435643564356436
 40
0.6435643564356436
 40
0.6534653465346535
 40
0.6534653465346535
 40
0.6534653465346535
 40
0.6534653465346535
 40
0.6633663366336634
 40
0.6633663366336634
 40
0.6633663366336634
 40
0.6633663366336634
 40
0.6732673267326733
 40
0.6732673267326733
 40
0.6732673267326733
 40
0.6732673267326733
 40
0.6831683168316832
 40
0.6831683168316832
 40
0.6831683168316832
 40
0.6831683168316832
 40
0.693069306930693
 40
0.693069306930693
 40
0.693069306930693
 40
0.693069306930693
 40
0.7029702970297029
 40
0.7029702970297029
 40
0.7029702970297029
 40
0.7029702970297029
 40
0.7128712871287128
 40
0.7128712871287128
 40
0.7128712871287128
 40
0.7128712871287128
 40
0.7227722772277227
 40
0.7227722772277227
 40
0.7227722772277227
 40
0.7227722772277227
 40
0.7326732673267327
 40
0.7326732673267327
 40
0.7326732673267327
 40
0.7326732673267327
 40
0.7425742574257426
 40
0.7425742574257426
 40
0.7425742574257426
 40
0.7425742574257426
 40
0.7524752475247525
 40
0.7524752475247525
 40
0.7524752475247525
 40
0.7524752475247525
 40
0.7623762376237624
 40
0.7623762376237624
 40
0.7623762376237624
 40
0.7623762376237624
 40
0.7722772277227723
 40
0.7722772277227723
 40
0.7722772277227723
 40
0.7722772277227723
 40
0.7821782178217822
 40
0.7821782178217822
 40
0.7821782178217822
 40
0.7821782178217822
 40
0.7920792079207921
 40
0.7920792079207921
 40
0.7920792079207921
 40
0.7920792079207921
 40
0.801980198019802
 40
0.801980198019802
 40
0.801980198019802
 40
0.801980198019802
 40
0.8118811881188119
 40
0.8118811881188119
 40
0.8118811881188119
 40
0.8118811881188119
 40
0.8217821782178217
 40
0.8217821782178217
 40
0.8217821782178217
 40
0.8217821782178217
 40
0.8316831683168316
 40
0.8316831683168316
 40
0.8316831683168316
 40
0.8316831683168316
 40
0.8415841584158416
 40
0.8415841584158416
 40
0.8415841584158416
 40
0.8415841584158416
 40
0.8514851485148515
 40
0.8514851485148515
 40
0.8514851485148515
 40
0.8514851485148515
 40
0.8613861386138614
 40
0.8613861386138614
 40
0.8613861386138614
 40
0.8613861386138614
 40
0.8712871287128713
 40
0.8712871287128713
 40
0.8712871287128713
 40
0.8712871287128713
 40
0.8811881188118812
 40
0.8811881188118812
 40
0.8811881188118812
 40
0.8811881188118812
 40
0.8910891089108911
 40
0.8910891089108911
 40
0.8910891089108911
 40
0.8910891089108911
 40
0.900990099009901
 40
0.900990099009901
 40
0.900990099009901
 40
0.900990099009901
 40
0.9108910891089109
 40
0.9108910891089109
 40
0.9108910891089109
 40
0.9108910891089109
 40
0.9207920792079208
 40
0.9207920792079208
 40
0.9207920792079208
 40
0.9207920792079208
 40
0.9306930693069307
 40
0.9306930693069307
 40
0.9306930693069307
 40
0.9306930693069307
 40
0.9405940594059405
 40
0.9405940594059405
 40
0.9405940594059405
 40
0.9405940594059405
 40
0.9504950495049505
 40
0.9504950495049505
 40
0.9504950495049505
 40
0.9504950495049505
 40
0.9603960396039604
 40
0.9603960396039604
 40
0.9603960396039604
 40
0.9603960396039604
 40
0.9702970297029703
 40
0.9702970297029703
 40
0.9702970297029703
 40
0.9702970297029703
 40
0.9801980198019802
 40
0.9801980198019802
 40
0.9801980198019802
 40
0.9801980198019802
 40
1.0
 40
1.0
 40
1.0
 40
1.0
 10
-1103.7986
 20
123.9317
 30
0.0
 10
-1103.7986
 20
118.3112
 30
0.0
 10
-1102.6849
 20
108.1817
 30
0.0
 10
-1101.1706
 20
103.1074
 30
0.0
 10
-1101.1706
 20
103.1074
 30
0.0
 10
-1097.1822
 20
107.6404
 30
0.0
 10
-1095.3541
 20
122.805
 30
0.0
 10
-1087.7393
 20
114.1466
 30
0.0
 10
-1087.7393
 20
114.1466
 30
0.0
 10
-1086.1691
 20
112.3612
 30
0.0
 10
-1085.5126
 20
109.0658
 30
0.0
 10
-1085.4148
 20
105.8268
 30
0.0
 10
-1085.4148
 20
105.8268
 30
0.0
 10
-1084.9858
 20
91.6179
 30
0.0
 10
-1098.8792
 20
89.887
 30
0.0
 10
-1090.7088
 20
74.4671
 30
0.0
 10
-1090.7088
 20
74.4671
 30
0.0
 10
-1084.7323
 20
63.1876
 30
0.0
 10
-1074.7505
 20
54.0396
 30
0.0
 10
-1072.3331
 20
40.9937
 30
0.0
 10
-1072.3331
 20
40.9937
 30
0.0
 10
-1071.7409
 20
37.7977
 30
0.0
 10
-1072.4103
 20
34.4657
 30
0.0
 10
-1071.4046
 20
31.3345
 30
0.0
 10
-1071.4046
 20
31.3345
 30
0.0
 10
-1070.3738
 20
28.1246
 30
0.0
 10
-1071.1297
 20
25.0916
 30
0.0
 10
-1071.0534
 20
21.4394
 30
0.0
 10
-1071.0534
 20
21.4394
 30
0.0
 10
-1070.9065
 20
14.4106
 30
0.0
 10
-1060.8901
 20
-11.1289
 30
0.0
 10
-1058.206
 20
-17.9016
 30
0.0
 10
-1058.206
 20
-17.9016
 30
0.0
 10
-1054.1313
 20
-28.1832
 30
0.0
 10
-1049.5575
 20
-36.7386
 30
0.0
 10
-1046.5236
 20
-48.1491
 30
0.0
 10
-1046.5236
 20
-48.1491
 30
0.0
 10
-1043.2133
 20
-60.5991
 30
0.0
 10
-1045.1703
 20
-72.7832
 30
0.0
 10
-1041.9532
 20
-85.0546
 30
0.0
 10
-1041.9532
 20
-85.0546
 30
0.0
 10
-1038.9254
 20
-96.6038
 30
0.0
 10
-1031.8585
 20
-104.3268
 30
0.0
 10
-1031.8585
 20
-117.2584
 30
0.0
 10
-1031.8585
 20
-117.2584
 30
0.0
 10
-1031.8585
 20
-132.6286
 30
0.0
 10
-1040.517
 20
-131.942
 30
0.0
 10
-1025.623
 20
-152.618
 30
0.0
 10
-1025.623
 20
-152.618
 30
0.0
 10
-1021.906
 20
-157.7778
 30
0.0
 10
-1020.2695
 20
-161.379
 30
0.0
 10
-1011.1284
 20
-160.371
 30
0.0
 10
-1011.1284
 20
-160.371
 30
0.0
 10
-983.1272
 20
-157.2834
 30
0.0
 10
-965.1261
 20
-158.8199
 30
0.0
 10
-935.8145
 20
-161.0252
 30
0.0
 10
-935.8145
 20
-161.0252
 30
0.0
 10
-917.1627
 20
-162.4285
 30
0.0
 10
-912.8037
 20
-160.394
 30
0.0
 10
-902.3062
 20
-147.5734
 30
0.0
 10
-902.3062
 20
-147.5734
 30
0.0
 10
-901.1386
 20
-146.1474
 30
0.0
 10
-900.2467
 20
-145.2756
 30
0.0
 10
-899.0196
 20
-143.7166
 30
0.0
 10
-899.0196
 20
-143.7166
 30
0.0
 10
-891.7322
 20
-134.458
 30
0.0
 10
-898.1463
 20
-132.9844
 30
0.0
 10
-897.1317
 20
-121.6302
 30
0.0
 10
-897.1317
 20
-121.6302
 30
0.0
 10
-896.4902
 20
-114.4518
 30
0.0
 10
-892.4416
 20
-107.3029
 30
0.0
 10
-889.4196
 20
-101.8379
 30
0.0
 10
-889.4196
 20
-101.8379
 30
0.0
 10
-884.306
 20
-92.5904
 30
0.0
 10
-880.464
 20
-81.0291
 30
0.0
 10
-879.8757
 20
-70.0603
 30
0.0
 10
-879.8757
 20
-70.0603
 30
0.0
 10
-879.63
 20
-65.4787
 30
0.0
 10
-880.2728
 20
-60.5016
 30
0.0
 10
-879.9435
 20
-56.2249
 30
0.0
 10
-879.9435
 20
-56.2249
 30
0.0
 10
-879.1589
 20
-46.036
 30
0.0
 10
-865.9785
 20
-36.2199
 30
0.0
 10
-858.8022
 20
-21.8824
 30
0.0
 10
-858.8022
 20
-21.8824
 30
0.0
 10
-857.2267
 20
-18.7347
 30
0.0
 10
-855.9892
 20
-15.6104
 30
0.0
 10
-854.4284
 20
-12.4297
 30
0.0
 10
-854.4284
 20
-12.4297
 30
0.0
 10
-852.7837
 20
-9.0779
 30
0.0
 10
-850.9106
 20
-6.9858
 30
0.0
 10
-849.1998
 20
-3.8407
 30
0.0
 10
-849.1998
 20
-3.8407
 30
0.0
 10
-845.3182
 20
3.2952
 30
0.0
 10
-845.0767
 20
10.9037
 30
0.0
 10
-846.5716
 20
19.7678
 30
0.0
 10
-846.5716
 20
19.7678
 30
0.0
 10
-849.7823
 20
38.8062
 30
0.0
 10
-854.7368
 20
46.9931
 30
0.0
 10
-864.9707
 20
56.6995
 30
0.0
 10
-864.9707
 20
56.6995
 30
0.0
 10
-879.1139
 20
70.1136
 30
0.0
 10
-880.9758
 20
69.4455
 30
0.0
 10
-895.2734
 20
58.9364
 30
0.0
 10
-895.2734
 20
58.9364
 30
0.0
 10
-897.1146
 20
57.583
 30
0.0
 10
-898.9983
 20
57.1654
 30
0.0
 10
-897.9433
 20
55.2721
 30
0.0
 10
-897.9433
 20
55.2721
 30
0.0
 10
-897.184
 20
54.5782
 30
0.0
 10
-895.4641
 20
55.6782
 30
0.0
 10
-894.7598
 20
56.0183
 30
0.0
 10
-894.7598
 20
56.0183
 30
0.0
 10
-887.9125
 20
59.3256
 30
0.0
 10
-876.1889
 20
66.898
 30
0.0
 10
-872.5047
 20
56.306
 30
0.0
 10
-872.5047
 20
56.306
 30
0.0
 10
-870.4567
 20
50.4179
 30
0.0
 10
-872.0056
 20
37.2427
 30
0.0
 10
-873.8711
 20
30.8863
 30
0.0
 10
-873.8711
 20
30.8863
 30
0.0
 10
-874.634
 20
28.2867
 30
0.0
 10
-875.7934
 20
25.9717
 30
0.0
 10
-876.3457
 20
23.4456
 30
0.0
 10
-876.3457
 20
23.4456
 30
0.0
 10
-873.3007
 20
26.5448
 30
0.0
 10
-871.2524
 20
31.3645
 30
0.0
 10
-869.6816
 20
36.2001
 30
0.0
 10
-869.6816
 20
36.2001
 30
0.0
 10
-868.5773
 20
39.5998
 30
0.0
 10
-866.6091
 20
49.6872
 30
0.0
 10
-865.4268
 20
51.7821
 30
0.0
 10
-865.4268
 20
51.7821
 30
0.0
 10
-862.7128
 20
49.9585
 30
0.0
 10
-853.7511
 20
36.337
 30
0.0
 10
-852.5641
 20
31.4956
 30
0.0
 10
-852.5641
 20
31.4956
 30
0.0
 10
-849.9671
 20
20.9033
 30
0.0
 10
-857.5784
 20
13.1694
 30
0.0
 10
-862.0508
 20
8.0652
 30
0.0
 10
-862.0508
 20
8.0652
 30
0.0
 10
-873.3282
 20
-4.8052
 30
0.0
 10
-883.328
 20
-10.4454
 30
0.0
 10
-897.6979
 20
-19.2004
 30
0.0
 10
-897.6979
 20
-19.2004
 30
0.0
 10
-899.6068
 20
-20.3634
 30
0.0
 10
-899.4585
 20
-19.8152
 30
0.0
 10
-899.6728
 20
-21.446
 30
0.0
 10
-899.6728
 20
-21.446
 30
0.0
 10
-898.4119
 20
-22.4326
 30
0.0
 10
-897.5314
 20
-22.058
 30
0.0
 10
-895.5341
 20
-21.3807
 30
0.0
 10
-895.5341
 20
-21.3807
 30
0.0
 10
-894.1305
 20
-20.9048
 30
0.0
 10
-892.9379
 20
-20.433
 30
0.0
 10
-891.7546
 20
-19.9007
 30
0.0
 10
-891.7546
 20
-19.9007
 30
0.0
 10
-875.9632
 20
-12.7974
 30
0.0
 10
-855.8726
 20
11.0953
 30
0.0
 10
-850.6659
 20
14.27
 30
0.0
 10
-850.6659
 20
14.27
 30
0.0
 10
-850.6659
 20
14.27
 30
0.0
 10
-850.1057
 20
9.0647
 30
0.0
 10
-850.1057
 20
9.0647
 30
0.0
 10
-850.1057
 20
9.0647
 30
0.0
 10
-849.5744
 20
2.8234
 30
0.0
 10
-859.2724
 20
-14.3262
 30
0.0
 10
-862.0421
 20
-19.1126
 30
0.0
 10
-862.0421
 20
-19.1126
 30
0.0
 10
-867.3504
 20
-28.2857
 30
0.0
 10
-868.8105
 20
-29.1549
 30
0.0
 10
-878.4228
 20
-32.7552
 30
0.0
 10
-878.4228
 20
-32.7552
 30
0.0
 10
-879.5953
 20
-33.1944
 30
0.0
 10
-880.725
 20
-33.6594
 30
0.0
 10
-881.8902
 20
-34.0528
 30
0.0
 10
-881.8902
 20
-34.0528
 30
0.0
 10
-885.1895
 20
-35.1669
 30
0.0
 10
-884.6515
 20
-34.3578
 30
0.0
 10
-884.8226
 20
-36.2262
 30
0.0
 10
-884.8226
 20
-36.2262
 30
0.0
 10
-883.094
 20
-37.4651
 30
0.0
 10
-874.7142
 20
-35.4177
 30
0.0
 10
-871.9195
 20
-35.2282
 30
0.0
 10
-871.9195
 20
-35.2282
 30
0.0
 10
-873.2742
 20
-39.5561
 30
0.0
 10
-880.914
 20
-44.8781
 30
0.0
 10
-885.6274
 20
-47.0184
 30
0.0
 10
-885.6274
 20
-47.0184
 30
0.0
 10
-891.8042
 20
-49.8231
 30
0.0
 10
-898.3922
 20
-51.1754
 30
0.0
 10
-905.7103
 20
-52.6695
 30
0.0
 10
-905.7103
 20
-52.6695
 30
0.0
 10
-919.1604
 20
-55.4154
 30
0.0
 10
-925.2094
 20
-52.8183
 30
0.0
 10
-936.819
 20
-47.5811
 30
0.0
 10
-936.819
 20
-47.5811
 30
0.0
 10
-940.4631
 20
-45.9372
 30
0.0
 10
-942.3439
 20
-44.9467
 30
0.0
 10
-943.5369
 20
-41.432
 30
0.0
 10
-943.5369
 20
-41.432
 30
0.0
 10
-949.3681
 20
-24.253
 30
0.0
 10
-931.8652
 20
-20.8388
 30
0.0
 10
-920.7859
 20
-15.1684
 30
0.0
 10
-920.7859
 20
-15.1684
 30
0.0
 10
-909.3498
 20
-9.3154
 30
0.0
 10
-897.7383
 20
-3.1848
 30
0.0
 10
-895.8718
 20
11.4008
 30
0.0
 10
-895.8718
 20
11.4008
 30
0.0
 10
-900.9318
 20
6.5944
 30
0.0
 10
-901.6825
 20
6.7109
 30
0.0
 10
-910.1933
 20
5.6408
 30
0.0
 10
-910.1933
 20
5.6408
 30
0.0
 10
-915.7017
 20
4.9482
 30
0.0
 10
-921.7302
 20
3.3784
 30
0.0
 10
-927.1306
 20
2.1773
 30
0.0
 10
-927.1306
 20
2.1773
 30
0.0
 10
-933.1747
 20
0.833
 30
0.0
 10
-937.4676
 20
-0.5574
 30
0.0
 10
-942.6458
 20
-2.8373
 30
0.0
 10
-942.6458
 20
-2.8373
 30
0.0
 10
-961.773
 20
-11.2588
 30
0.0
 10
-969.7247
 20
1.0711
 30
0.0
 10
-987.7405
 20
7.7717
 30
0.0
 10
-987.7405
 20
7.7717
 30
0.0
 10
-996.2108
 20
10.9221
 30
0.0
 10
-1007.3609
 20
10.3671
 30
0.0
 10
-1013.4348
 20
17.8296
 30
0.0
 10
-1013.4348
 20
17.8296
 30
0.0
 10
-1014.6862
 20
19.367
 30
0.0
 10
-1014.627
 20
19.7523
 30
0.0
 10
-1017.0651
 20
19.4594
 30
0.0
 10
-1017.0651
 20
19.4594
 30
0.0
 10
-1016.6032
 20
17.3312
 30
0.0
 10
-1011.2707
 20
7.827
 30
0.0
 10
-1010.0605
 20
5.9434
 30
0.0
 10
-1010.0605
 20
5.9434
 30
0.0
 10
-1005.6781
 20
-0.8777
 30
0.0
 10
-984.0762
 20
-18.6464
 30
0.0
 10
-976.8407
 20
-23.2657
 30
0.0
 10
-976.8407
 20
-23.2657
 30
0.0
 10
-969.4791
 20
-27.9654
 30
0.0
 10
-963.2457
 20
-32.1815
 30
0.0
 10
-965.4427
 20
-42.0535
 30
0.0
 10
-965.4427
 20
-42.0535
 30
0.0
 10
-966.1228
 20
-45.1093
 30
0.0
 10
-967.9304
 20
-46.4537
 30
0.0
 10
-970.3081
 20
-47.6179
 30
0.0
 10
-970.3081
 20
-47.6179
 30
0.0
 10
-976.5279
 20
-50.6634
 30
0.0
 10
-996.4165
 20
-56.0953
 30
0.0
 10
-1004.0932
 20
-56.0953
 30
0.0
 10
-1004.0932
 20
-56.0953
 30
0.0
 10
-1015.9485
 20
-56.0953
 30
0.0
 10
-1028.6664
 20
-45.6751
 30
0.0
 10
-1038.1982
 20
-39.8389
 30
0.0
 10
-1038.1982
 20
-39.8389
 30
0.0
 10
-1042.2372
 20
-37.3658
 30
0.0
 10
-1045.0483
 20
-35.7436
 30
0.0
 10
-1047.3056
 20
-32.0218
 30
0.0
 10
-1047.3056
 20
-32.0218
 30
0.0
 10
-1038.9329
 20
-32.3821
 30
0.0
 10
-1033.899
 20
-38.1373
 30
0.0
 10
-1023.6285
 20
-35.6677
 30
0.0
 10
-1023.6285
 20
-35.6677
 30
0.0
 10
-1028.6842
 20
-32.3091
 30
0.0
 10
-1043.8224
 20
-29.6981
 30
0.0
 10
-1052.4563
 20
-18.8266
 30
0.0
 10
-1052.4563
 20
-18.8266
 30
0.0
 10
-1057.4472
 20
-12.5423
 30
0.0
 10
-1064.8371
 20
4.5306
 30
0.0
 10
-1063.8889
 20
15.5884
 30
0.0
 10
-1063.8889
 20
15.5884
 30
0.0
 10
-1062.43
 20
15.359
 30
0.0
 10
-1059.5275
 20
11.5281
 30
0.0
 10
-1058.5509
 20
10.356
 30
0.0
 10
-1058.5509
 20
10.356
 30
0.0
 10
-1056.7445
 20
8.1879
 30
0.0
 10
-1055.1801
 20
6.9087
 30
0.0
 10
-1053.1548
 20
4.7931
 30
0.0
 10
-1053.1548
 20
4.7931
 30
0.0
 10
-1045.9368
 20
-2.7466
 30
0.0
 10
-1038.3748
 20
-9.5618
 30
0.0
 10
-1028.2753
 20
-14.1807
 30
0.0
 10
-1028.2753
 20
-14.1807
 30
0.0
 10
-1024.9399
 20
-15.7061
 30
0.0
 10
-1016.2908
 20
-19.3549
 30
0.0
 10
-1012.1988
 20
-18.8998
 30
0.0
 10
-1012.1988
 20
-18.8998
 30
0.0
 10
-1011.3579
 20
-18.8063
 30
0.0
 10
-1011.357
 20
-18.7407
 30
0.0
 10
-1011.0578
 20
-18.5897
 30
0.0
 10
-1011.0578
 20
-18.5897
 30
0.0
 10
-1011.0578
 20
-18.5897
 30
0.0
 10
-1030.9203
 20
-7.7691
 30
0.0
 10
-1030.9203
 20
-7.7691
 30
0.0
 10
-1030.9203
 20
-7.7691
 30
0.0
 10
-1042.414
 20
-0.343
 30
0.0
 10
-1054.67
 20
10.7744
 30
0.0
 10
-1061.2477
 20
22.9111
 30
0.0
 10
-1061.2477
 20
22.9111
 30
0.0
 10
-1065.8964
 20
31.4886
 30
0.0
 10
-1059.4756
 20
39.8441
 30
0.0
 10
-1053.1744
 20
42.692
 30
0.0
 10
-1053.1744
 20
42.692
 30
0.0
 10
-1047.0245
 20
34.7258
 30
0.0
 10
-1041.4164
 20
16.0633
 30
0.0
 10
-1024.6336
 20
10.1549
 30
0.0
 10
-1024.6336
 20
10.1549
 30
0.0
 10
-1025.2282
 20
11.5816
 30
0.0
 10
-1029.4736
 20
15.3521
 30
0.0
 10
-1030.8009
 20
16.6595
 30
0.0
 10
-1030.8009
 20
16.6595
 30
0.0
 10
-1037.8145
 20
23.5687
 30
0.0
 10
-1043.414
 20
30.4118
 30
0.0
 10
-1046.4936
 20
41.006
 30
0.0
 10
-1046.4936
 20
41.006
 30
0.0
 10
-1048.9993
 20
49.6259
 30
0.0
 10
-1044.7126
 20
56.4238
 30
0.0
 10
-1037.4272
 20
57.6956
 30
0.0
 10
-1037.4272
 20
57.6956
 30
0.0
 10
-1029.5426
 20
59.0721
 30
0.0
 10
-1021.6087
 20
54.454
 30
0.0
 10
-1015.0326
 20
53.4027
 30
0.0
 10
-1015.0326
 20
53.4027
 30
0.0
 10
-1016.4265
 20
55.2481
 30
0.0
 10
-1025.5843
 20
62.4909
 30
0.0
 10
-1028.6326
 20
63.6784
 30
0.0
 10
-1028.6326
 20
63.6784
 30
0.0
 10
-1032.475
 20
65.1752
 30
0.0
 10
-1043.5612
 20
59.6011
 30
0.0
 10
-1046.1251
 20
57.7773
 30
0.0
 10
-1046.1251
 20
57.7773
 30
0.0
 10
-1055.0125
 20
51.4554
 30
0.0
 10
-1060.864
 20
43.2232
 30
0.0
 10
-1067.2373
 20
34.5872
 30
0.0
 10
-1067.2373
 20
34.5872
 30
0.0
 10
-1067.2373
 20
34.5872
 30
0.0
 10
-1069.0575
 20
32.7203
 30
0.0
 10
-1069.0575
 20
32.7203
 30
0.0
 10
-1069.0575
 20
32.7203
 30
0.0
 10
-1067.3671
 20
39.399
 30
0.0
 10
-1059.0488
 20
49.029
 30
0.0
 10
-1054.6257
 20
53.879
 30
0.0
 10
-1054.6257
 20
53.879
 30
0.0
 10
-1043.1455
 20
66.4672
 30
0.0
 10
-1024.6641
 20
80.4455
 30
0.0
 10
-1007.3655
 20
69.1775
 30
0.0
 10
-1007.3655
 20
69.1775
 30
0.0
 10
-1002.1313
 20
65.7681
 30
0.0
 10
-997.4743
 20
61.1121
 30
0.0
 10
-992.6274
 20
57.2218
 30
0.0
 10
-992.6274
 20
57.2218
 30
0.0
 10
-990.7591
 20
55.7222
 30
0.0
 10
-989.5054
 20
54.5654
 30
0.0
 10
-987.376
 20
53.3357
 30
0.0
 10
-987.376
 20
53.3357
 30
0.0
 10
-988.6948
 20
56.2373
 30
0.0
 10
-991.3863
 20
59.7545
 30
0.0
 10
-993.1647
 20
62.4065
 30
0.0
 10
-993.1647
 20
62.4065
 30
0.0
 10
-996.2284
 20
66.9752
 30
0.0
 10
-1002.5022
 20
76.619
 30
0.0
 10
-1005.8947
 20
80.1821
 30
0.0
 10
-1005.8947
 20
80.1821
 30
0.0
 10
-1013.9266
 20
88.6184
 30
0.0
 10
-1031.5651
 20
78.921
 30
0.0
 10
-1039.1859
 20
74.665
 30
0.0
 10
-1039.1859
 20
74.665
 30
0.0
 10
-1043.8155
 20
72.0795
 30
0.0
 10
-1055.5479
 20
64.377
 30
0.0
 10
-1061.1726
 20
68.2739
 30
0.0
 10
-1061.1726
 20
68.2739
 30
0.0
 10
-1064.5109
 20
70.5868
 30
0.0
 10
-1071.9685
 20
80.8781
 30
0.0
 10
-1074.1359
 20
85.3227
 30
0.0
 10
-1074.1359
 20
85.3227
 30
0.0
 10
-1079.1729
 20
95.6523
 30
0.0
 10
-1071.9188
 20
100.6766
 30
0.0
 10
-1074.2337
 20
110.9837
 30
0.0
 10
-1074.2337
 20
110.9837
 30
0.0
 10
-1075.2732
 20
115.6117
 30
0.0
 10
-1077.185
 20
117.3717
 30
0.0
 10
-1079.3069
 20
120.6715
 30
0.0
 10
-1079.3069
 20
120.6715
 30
0.0
 10
-1082.5289
 20
125.682
 30
0.0
 10
-1088.2544
 20
135.5977
 30
0.0
 10
-1088.9388
 20
141.5509
 30
0.0
 10
-1088.9388
 20
141.5509
 30
0.0
 10
-1089.6844
 20
148.0373
 30
0.0
 10
-1086.7945
 20
150.7138
 30
0.0
 10
-1088.718
 20
154.2012
 30
0.0
 10
-1088.718
 20
154.2012
 30
0.0
 10
-1092.4625
 20
153.096
 30
0.0
 10
-1097.8494
 20
145.4125
 30
0.0
 10
-1099.4997
 20
142.1498
 30
0.0
 10
-1099.4997
 20
142.1498
 30
0.0
 10
-1102.3094
 20
136.595
 30
0.0
 10
-1103.7986
 20
131.0596
 30
0.0
 10
-1103.7986
 20
123.9317
 30
0.0
  0
SPLINE
  5
76
330
1F
100
AcDbEntity
  8
Katman 1
100
AcDbSpline
210
0.0
220
0.0
230
1.0
 70
    11
 71
     3
 72
   284
 73
   280
 74
     0
 42
0.000000001
 43
0.0000000001
 40
0.0
 40
0.0
 40
0.0
 40
0.0
 40
0.0140845070422535
 40
0.0140845070422535
 40
0.0140845070422535
 40
0.0140845070422535
 40
0.028169014084507
 40
0.028169014084507
 40
0.028169014084507
 40
0.028169014084507
 40
0.0422535211267606
 40
0.0422535211267606
 40
0.0422535211267606
 40
0.0422535211267606
 40
0.0563380281690141
 40
0.0563380281690141
 40
0.0563380281690141
 40
0.0563380281690141
 40
0.0704225352112676
 40
0.0704225352112676
 40
0.0704225352112676
 40
0.0704225352112676
 40
0.0845070422535211
 40
0.0845070422535211
 40
0.0845070422535211
 40
0.0845070422535211
 40
0.0985915492957746
 40
0.0985915492957746
 40
0.0985915492957746
 40
0.0985915492957746
 40
0.1126760563380282
 40
0.1126760563380282
 40
0.1126760563380282
 40
0.1126760563380282
 40
0.1267605633802817
 40
0.1267605633802817
 40
0.1267605633802817
 40
0.1267605633802817
 40
0.1408450704225352
 40
0.1408450704225352
 40
0.1408450704225352
 40
0.1408450704225352
 40
0.1549295774647887
 40
0.1549295774647887
 40
0.1549295774647887
 40
0.1549295774647887
 40
0.1690140845070423
 40
0.1690140845070423
 40
0.1690140845070423
 40
0.1690140845070423
 40
0.1830985915492958
 40
0.1830985915492958
 40
0.1830985915492958
 40
0.1830985915492958
 40
0.1971830985915493
 40
0.1971830985915493
 40
0.1971830985915493
 40
0.1971830985915493
 40
0.2112676056338028
 40
0.2112676056338028
 40
0.2112676056338028
 40
0.2112676056338028
 40
0.2253521126760563
 40
0.2253521126760563
 40
0.2253521126760563
 40
0.2253521126760563
 40
0.2394366197183098
 40
0.2394366197183098
 40
0.2394366197183098
 40
0.2394366197183098
 40
0.2535211267605634
 40
0.2535211267605634
 40
0.2535211267605634
 40
0.2535211267605634
 40
0.2676056338028169
 40
0.2676056338028169
 40
0.2676056338028169
 40
0.2676056338028169
 40
0.2816901408450704
 40
0.2816901408450704
 40
0.2816901408450704
 40
0.2816901408450704
 40
0.2957746478873239
 40
0.2957746478873239
 40
0.2957746478873239
 40
0.2957746478873239
 40
0.3098591549295774
 40
0.3098591549295774
 40
0.3098591549295774
 40
0.3098591549295774
 40
0.323943661971831
 40
0.323943661971831
 40
0.323943661971831
 40
0.323943661971831
 40
0.3380281690140845
 40
0.3380281690140845
 40
0.3380281690140845
 40
0.3380281690140845
 40
0.352112676056338
 40
0.352112676056338
 40
0.352112676056338
 40
0.352112676056338
 40
0.3661971830985916
 40
0.3661971830985916
 40
0.3661971830985916
 40
0.3661971830985916
 40
0.3802816901408451
 40
0.3802816901408451
 40
0.3802816901408451
 40
0.3802816901408451
 40
0.3943661971830986
 40
0.3943661971830986
 40
0.3943661971830986
 40
0.3943661971830986
 40
0.4084507042253521
 40
0.4084507042253521
 40
0.4084507042253521
 40
0.4084507042253521
 40
0.4225352112676056
 40
0.4225352112676056
 40
0.4225352112676056
 40
0.4225352112676056
 40
0.4366197183098591
 40
0.4366197183098591
 40
0.4366197183098591
 40
0.4366197183098591
 40
0.4507042253521127
 40
0.4507042253521127
 40
0.4507042253521127
 40
0.4507042253521127
 40
0.4647887323943662
 40
0.4647887323943662
 40
0.4647887323943662
 40
0.4647887323943662
 40
0.4788732394366197
 40
0.4788732394366197
 40
0.4788732394366197
 40
0.4788732394366197
 40
0.4929577464788732
 40
0.4929577464788732
 40
0.4929577464788732
 40
0.4929577464788732
 40
0.5070422535211268
 40
0.5070422535211268
 40
0.5070422535211268
 40
0.5070422535211268
 40
0.5211267605633803
 40
0.5211267605633803
 40
0.5211267605633803
 40
0.5211267605633803
 40
0.5352112676056338
 40
0.5352112676056338
 40
0.5352112676056338
 40
0.5352112676056338
 40
0.5492957746478874
 40
0.5492957746478874
 40
0.5492957746478874
 40
0.5492957746478874
 40
0.5633802816901409
 40
0.5633802816901409
 40
0.5633802816901409
 40
0.5633802816901409
 40
0.5774647887323944
 40
0.5774647887323944
 40
0.5774647887323944
 40
0.5774647887323944
 40
0.5915492957746479
 40
0.5915492957746479
 40
0.5915492957746479
 40
0.5915492957746479
 40
0.6056338028169014
 40
0.6056338028169014
 40
0.6056338028169014
 40
0.6056338028169014
 40
0.6197183098591549
 40
0.6197183098591549
 40
0.6197183098591549
 40
0.6197183098591549
 40
0.6338028169014085
 40
0.6338028169014085
 40
0.6338028169014085
 40
0.6338028169014085
 40
0.647887323943662
 40
0.647887323943662
 40
0.647887323943662
 40
0.647887323943662
 40
0.6619718309859155
 40
0.6619718309859155
 40
0.6619718309859155
 40
0.6619718309859155
 40
0.676056338028169
 40
0.676056338028169
 40
0.676056338028169
 40
0.676056338028169
 40
0.6901408450704225
 40
0.6901408450704225
 40
0.6901408450704225
 40
0.6901408450704225
 40
0.704225352112676
 40
0.704225352112676
 40
0.704225352112676
 40
0.704225352112676
 40
0.7183098591549296
 40
0.7183098591549296
 40
0.7183098591549296
 40
0.7183098591549296
 40
0.7323943661971831
 40
0.7323943661971831
 40
0.7323943661971831
 40
0.7323943661971831
 40
0.7464788732394366
 40
0.7464788732394366
 40
0.7464788732394366
 40
0.7464788732394366
 40
0.7605633802816901
 40
0.7605633802816901
 40
0.7605633802816901
 40
0.7605633802816901
 40
0.7746478873239436
 40
0.7746478873239436
 40
0.7746478873239436
 40
0.7746478873239436
 40
0.7887323943661971
 40
0.7887323943661971
 40
0.7887323943661971
 40
0.7887323943661971
 40
0.8028169014084507
 40
0.8028169014084507
 40
0.8028169014084507
 40
0.8028169014084507
 40
0.8169014084507042
 40
0.8169014084507042
 40
0.8169014084507042
 40
0.8169014084507042
 40
0.8309859154929577
 40
0.8309859154929577
 40
0.8309859154929577
 40
0.8309859154929577
 40
0.8450704225352113
 40
0.8450704225352113
 40
0.8450704225352113
 40
0.8450704225352113
 40
0.8591549295774648
 40
0.8591549295774648
 40
0.8591549295774648
 40
0.8591549295774648
 40
0.8732394366197183
 40
0.8732394366197183
 40
0.8732394366197183
 40
0.8732394366197183
 40
0.8873239436619719
 40
0.8873239436619719
 40
0.8873239436619719
 40
0.8873239436619719
 40
0.9014084507042254
 40
0.9014084507042254
 40
0.9014084507042254
 40
0.9014084507042254
 40
0.9154929577464789
 40
0.9154929577464789
 40
0.9154929577464789
 40
0.9154929577464789
 40
0.9295774647887324
 40
0.9295774647887324
 40
0.9295774647887324
 40
0.9295774647887324
 40
0.9436619718309859
 40
0.9436619718309859
 40
0.9436619718309859
 40
0.9436619718309859
 40
0.9577464788732394
 40
0.9577464788732394
 40
0.9577464788732394
 40
0.9577464788732394
 40
0.971830985915493
 40
0.971830985915493
 40
0.971830985915493
 40
0.971830985915493
 40
1.0
 40
1.0
 40
1.0
 40
1.0
 10
-1117.0593
 20
-275.0051
 30
0.0
 10
-1114.5484
 20
-273.9436
 30
0.0
 10
-1085.7895
 20
-250.8591
 30
0.0
 10
-1076.6095
 20
-246.3477
 30
0.0
 10
-1076.6095
 20
-246.3477
 30
0.0
 10
-1072.7685
 20
-244.46
 30
0.0
 10
-1063.5955
 20
-239.7209
 30
0.0
 10
-1058.9856
 20
-240.8789
 30
0.0
 10
-1058.9856
 20
-240.8789
 30
0.0
 10
-1052.6649
 20
-247.3874
 30
0.0
 10
-1078.5735
 20
-277.2962
 30
0.0
 10
-1071.2895
 20
-285.0571
 30
0.0
 10
-1071.2895
 20
-285.0571
 30
0.0
 10
-1068.522
 20
-288.0056
 30
0.0
 10
-1062.1739
 20
-285.913
 30
0.0
 10
-1058.7904
 20
-284.6493
 30
0.0
 10
-1058.7904
 20
-284.6493
 30
0.0
 10
-1053.9726
 20
-282.8499
 30
0.0
 10
-1052.4449
 20
-281.2625
 30
0.0
 10
-1049.011
 20
-278.7239
 30
0.0
 10
-1049.011
 20
-278.7239
 30
0.0
 10
-1029.7275
 20
-264.4684
 30
0.0
 10
-1015.7558
 20
-248.132
 30
0.0
 10
-993.3374
 20
-240.5204
 30
0.0
 10
-993.3374
 20
-240.5204
 30
0.0
 10
-982.5091
 20
-236.8438
 30
0.0
 10
-968.7151
 20
-233.1345
 30
0.0
 10
-957.1001
 20
-229.5826
 30
0.0
 10
-957.1001
 20
-229.5826
 30
0.0
 10
-953.6257
 20
-228.5201
 30
0.0
 10
-948.408
 20
-226.5778
 30
0.0
 10
-945.1966
 20
-226.1025
 30
0.0
 10
-945.1966
 20
-226.1025
 30
0.0
 10
-948.4965
 20
-232.8611
 30
0.0
 10
-957.1528
 20
-242.4788
 30
0.0
 10
-961.6413
 20
-246.4716
 30
0.0
 10
-961.6413
 20
-246.4716
 30
0.0
 10
-964.8576
 20
-249.3327
 30
0.0
 10
-968.2167
 20
-252.1898
 30
0.0
 10
-971.6603
 20
-255.0437
 30
0.0
 10
-971.6603
 20
-255.0437
 30
0.0
 10
-973.6893
 20
-256.7253
 30
0.0
 10
-975.0933
 20
-257.8169
 30
0.0
 10
-976.9239
 20
-259.3128
 30
0.0
 10
-976.9239
 20
-259.3128
 30
0.0
 10
-977.8234
 20
-260.0478
 30
0.0
 10
-981.1559
 20
-262.9668
 30
0.0
 10
-981.9019
 20
-263.3588
 30
0.0
 10
-981.9019
 20
-263.3588
 30
0.0
 10
-977.0975
 20
-262.821
 30
0.0
 10
-961.1558
 20
-254.9593
 30
0.0
 10
-956.5128
 20
-252.5575
 30
0.0
 10
-956.5128
 20
-252.5575
 30
0.0
 10
-948.1982
 20
-248.2565
 30
0.0
 10
-940.4122
 20
-243.4885
 30
0.0
 10
-933.1344
 20
-238.7638
 30
0.0
 10
-933.1344
 20
-238.7638
 30
0.0
 10
-915.2153
 20
-227.1309
 30
0.0
 10
-906.1905
 20
-219.3359
 30
0.0
 10
-891.9143
 20
-205.6415
 30
0.0
 10
-891.9143
 20
-205.6415
 30
0.0
 10
-881.727
 20
-195.8693
 30
0.0
 10
-866.9986
 20
-180.5575
 30
0.0
 10
-863.1974
 20
-160.5299
 30
0.0
 10
-863.1974
 20
-160.5299
 30
0.0
 10
-858.7747
 20
-137.2274
 30
0.0
 10
-877.3901
 20
-137.7512
 30
0.0
 10
-884.0728
 20
-117.8157
 30
0.0
 10
-884.0728
 20
-117.8157
 30
0.0
 10
-884.8089
 20
-115.6196
 30
0.0
 10
-884.9031
 20
-111.8153
 30
0.0
 10
-885.9374
 20
-110.0192
 30
0.0
 10
-885.9374
 20
-110.0192
 30
0.0
 10
-889.5985
 20
-120.0142
 30
0.0
 10
-887.7715
 20
-120.6711
 30
0.0
 10
-886.6525
 20
-131.0909
 30
0.0
 10
-886.6525
 20
-131.0909
 30
0.0
 10
-886.6525
 20
-131.0909
 30
0.0
 10
-893.2028
 20
-127.8837
 30
0.0
 10
-893.2028
 20
-127.8837
 30
0.0
 10
-893.2028
 20
-127.8837
 30
0.0
 10
-891.8794
 20
-138.7395
 30
0.0
 10
-888.9623
 20
-141.9085
 30
0.0
 10
-891.168
 20
-154.084
 30
0.0
 10
-891.168
 20
-154.084
 30
0.0
 10
-893.5881
 20
-152.5362
 30
0.0
 10
-894.3303
 20
-149.9775
 30
0.0
 10
-897.0647
 20
-149.6695
 30
0.0
 10
-897.0647
 20
-149.6695
 30
0.0
 10
-897.3603
 20
-156.8192
 30
0.0
 10
-895.9031
 20
-161.242
 30
0.0
 10
-898.0281
 20
-168.5475
 30
0.0
 10
-898.0281
 20
-168.5475
 30
0.0
 10
-899.5418
 20
-173.7512
 30
0.0
 10
-902.7862
 20
-178.8792
 30
0.0
 10
-905.9307
 20
-180.9607
 30
0.0
 10
-905.9307
 20
-180.9607
 30
0.0
 10
-907.1093
 20
-178.9665
 30
0.0
 10
-906.78
 20
-172.5327
 30
0.0
 10
-907.734
 20
-169.6008
 30
0.0
 10
-907.734
 20
-169.6008
 30
0.0
 10
-908.6345
 20
-166.8332
 30
0.0
 10
-906.6515
 20
-171.9819
 30
0.0
 10
-908.0301
 20
-168.8782
 30
0.0
 10
-908.0301
 20
-168.8782
 30
0.0
 10
-908.0301
 20
-168.8782
 30
0.0
 10
-908.4193
 20
-168.1922
 30
0.0
 10
-908.4193
 20
-168.1922
 30
0.0
 10
-908.4193
 20
-168.1922
 30
0.0
 10
-910.6857
 20
-172.5405
 30
0.0
 10
-912.904
 20
-177.537
 30
0.0
 10
-915.4971
 20
-182.0488
 30
0.0
 10
-915.4971
 20
-182.0488
 30
0.0
 10
-918.4723
 20
-187.2254
 30
0.0
 10
-919.581
 20
-190.4982
 30
0.0
 10
-926.7636
 20
-191.437
 30
0.0
 10
-926.7636
 20
-191.437
 30
0.0
 10
-926.7636
 20
-191.437
 30
0.0
 10
-921.4754
 20
-179.1417
 30
0.0
 10
-921.4754
 20
-179.1417
 30
0.0
 10
-921.4754
 20
-179.1417
 30
0.0
 10
-923.3913
 20
-180.0675
 30
0.0
 10
-932.6069
 20
-190.1112
 30
0.0
 10
-941.5519
 20
-195.5509
 30
0.0
 10
-941.5519
 20
-195.5509
 30
0.0
 10
-947.5178
 20
-199.1789
 30
0.0
 10
-959.1613
 20
-205.2323
 30
0.0
 10
-967.0922
 20
-206.4013
 30
0.0
 10
-967.0922
 20
-206.4013
 30
0.0
 10
-966.0119
 20
-204.015
 30
0.0
 10
-962.9685
 20
-200.1147
 30
0.0
 10
-961.2836
 20
-197.7336
 30
0.0
 10
-961.2836
 20
-197.7336
 30
0.0
 10
-959.9631
 20
-195.8675
 30
0.0
 10
-955.9298
 20
-191.0321
 30
0.0
 10
-956.3244
 20
-189.0742
 30
0.0
 10
-956.3244
 20
-189.0742
 30
0.0
 10
-958.3521
 20
-188.3927
 30
0.0
 10
-958.646
 20
-189.8921
 30
0.0
 10
-963.0411
 20
-193.1145
 30
0.0
 10
-963.0411
 20
-193.1145
 30
0.0
 10
-965.528
 20
-194.9378
 30
0.0
 10
-967.4262
 20
-196.1263
 30
0.0
 10
-970.3487
 20
-197.7265
 30
0.0
 10
-970.3487
 20
-197.7265
 30
0.0
 10
-974.7872
 20
-200.1567
 30
0.0
 10
-982.4592
 20
-203.2512
 30
0.0
 10
-988.1501
 20
-204.1352
 30
0.0
 10
-988.1501
 20
-204.1352
 30
0.0
 10
-987.3209
 20
-201.7102
 30
0.0
 10
-985.5141
 20
-198.8443
 30
0.0
 10
-984.2789
 20
-196.6638
 30
0.0
 10
-984.2789
 20
-196.6638
 30
0.0
 10
-983.5453
 20
-195.3689
 30
0.0
 10
-980.9133
 20
-191.4122
 30
0.0
 10
-980.913
 20
-190.175
 30
0.0
 10
-980.913
 20
-190.175
 30
0.0
 10
-980.9121
 20
-186.828
 30
0.0
 10
-985.7777
 20
-192.2416
 30
0.0
 10
-990.6292
 20
-195.0711
 30
0.0
 10
-990.6292
 20
-195.0711
 30
0.0
 10
-994.5858
 20
-197.3787
 30
0.0
 10
-998.0498
 20
-198.864
 30
0.0
 10
-1003.4172
 20
-198.9793
 30
0.0
 10
-1003.4172
 20
-198.9793
 30
0.0
 10
-1002.4278
 20
-196.1405
 30
0.0
 10
-998.0671
 20
-190.1977
 30
0.0
 10
-997.7847
 20
-189.301
 30
0.0
 10
-997.7847
 20
-189.301
 30
0.0
 10
-996.9642
 20
-186.695
 30
0.0
 10
-997.4431
 20
-188.4868
 30
0.0
 10
-997.8966
 20
-187.7576
 30
0.0
 10
-997.8966
 20
-187.7576
 30
0.0
 10
-999.1007
 20
-186.6873
 30
0.0
 10
-999.1201
 20
-187.8931
 30
0.0
 10
-1002.3106
 20
-190.5391
 30
0.0
 10
-1002.3106
 20
-190.5391
 30
0.0
 10
-1006.67
 20
-194.1545
 30
0.0
 10
-1010.164
 20
-198.7782
 30
0.0
 10
-1017.735
 20
-199.8973
 30
0.0
 10
-1017.735
 20
-199.8973
 30
0.0
 10
-1017.735
 20
-199.8973
 30
0.0
 10
-1014.4829
 20
-190.7326
 30
0.0
 10
-1014.4829
 20
-190.7326
 30
0.0
 10
-1014.4829
 20
-190.7326
 30
0.0
 10
-1018.1612
 20
-192.0772
 30
0.0
 10
-1028.4937
 20
-198.2735
 30
0.0
 10
-1031.0167
 20
-198.5906
 30
0.0
 10
-1031.0167
 20
-198.5906
 30
0.0
 10
-1031.611
 20
-195.0435
 30
0.0
 10
-1029.9601
 20
-190.3633
 30
0.0
 10
-1029.203
 20
-187.0469
 30
0.0
 10
-1029.203
 20
-187.0469
 30
0.0
 10
-1027.7754
 20
-180.7933
 30
0.0
 10
-1027.0647
 20
-180.9481
 30
0.0
 10
-1029.3021
 20
-175.4333
 30
0.0
 10
-1029.3021
 20
-175.4333
 30
0.0
 10
-1033.8755
 20
-176.48
 30
0.0
 10
-1034.9556
 20
-178.6813
 30
0.0
 10
-1036.9169
 20
-182.1385
 30
0.0
 10
-1036.9169
 20
-182.1385
 30
0.0
 10
-1038.2722
 20
-184.5274
 30
0.0
 10
-1040.5332
 20
-189.5512
 30
0.0
 10
-1042.8993
 20
-190.9505
 30
0.0
 10
-1042.8993
 20
-190.9505
 30
0.0
 10
-1044.7677
 20
-180.7211
 30
0.0
 10
-1045.3196
 20
-172.2096
 30
0.0
 10
-1039.8894
 20
-162.9605
 30
0.0
 10
-1039.8894
 20
-162.9605
 30
0.0
 10
-1037.773
 20
-159.3556
 30
0.0
 10
-1035.6689
 20
-157.9145
 30
0.0
 10
-1035.0668
 20
-156.2516
 30
0.0
 10
-1035.0668
 20
-156.2516
 30
0.0
 10
-1037.187
 20
-155.4113
 30
0.0
 10
-1037.6253
 20
-155.9278
 30
0.0
 10
-1038.9186
 20
-157.2594
 30
0.0
 10
-1038.9186
 20
-157.2594
 30
0.0
 10
-1040.2252
 20
-158.6047
 30
0.0
 10
-1048.899
 20
-167.9017
 30
0.0
 10
-1048.6079
 20
-163.5799
 30
0.0
 10
-1048.6079
 20
-163.5799
 30
0.0
 10
-1048.5068
 20
-162.0793
 30
0.0
 10
-1041.1117
 20
-150.9143
 30
0.0
 10
-1041.1062
 20
-149.1947
 30
0.0
 10
-1041.1062
 20
-149.1947
 30
0.0
 10
-1041.8206
 20
-147.2321
 30
0.0
 10
-1043.4589
 20
-146.508
 30
0.0
 10
-1042.0641
 20
-143.6663
 30
0.0
 10
-1042.0641
 20
-143.6663
 30
0.0
 10
-1035.5309
 20
-130.3554
 30
0.0
 10
-1040.6133
 20
-118.8179
 30
0.0
 10
-1054.0369
 20
-113.836
 30
0.0
 10
-1054.0369
 20
-113.836
 30
0.0
 10
-1055.9911
 20
-113.1107
 30
0.0
 10
-1058.0398
 20
-112.3406
 30
0.0
 10
-1059.5179
 20
-111.0618
 30
0.0
 10
-1059.5179
 20
-111.0618
 30
0.0
 10
-1057.6629
 20
-109.6113
 30
0.0
 10
-1054.5112
 20
-108.674
 30
0.0
 10
-1052.4092
 20
-107.5671
 30
0.0
 10
-1052.4092
 20
-107.5671
 30
0.0
 10
-1054.6496
 20
-106.284
 30
0.0
 10
-1058.423
 20
-105.2422
 30
0.0
 10
-1061.1287
 20
-104.2441
 30
0.0
 10
-1061.1287
 20
-104.2441
 30
0.0
 10
-1065.6411
 20
-102.5796
 30
0.0
 10
-1068.9257
 20
-102.2795
 30
0.0
 10
-1069.5303
 20
-100.0986
 30
0.0
 10
-1069.5303
 20
-100.0986
 30
0.0
 10
-1068.9196
 20
-99.5495
 30
0.0
 10
-1069.6083
 20
-99.8758
 30
0.0
 10
-1068.256
 20
-99.3087
 30
0.0
 10
-1068.256
 20
-99.3087
 30
0.0
 10
-1064.0167
 20
-97.5309
 30
0.0
 10
-1060.4014
 20
-98.9428
 30
0.0
 10
-1058.8796
 20
-95.319
 30
0.0
 10
-1058.8796
 20
-95.319
 30
0.0
 10
-1067.2806
 20
-92.1837
 30
0.0
 10
-1085.224
 20
-88.3541
 30
0.0
 10
-1093.9712
 20
-90.7705
 30
0.0
 10
-1093.9712
 20
-90.7705
 30
0.0
 10
-1103.663
 20
-93.448
 30
0.0
 10
-1111.7572
 20
-102.2482
 30
0.0
 10
-1114.4663
 20
-112.2385
 30
0.0
 10
-1114.4663
 20
-112.2385
 30
0.0
 10
-1120.3972
 20
-134.11
 30
0.0
 10
-1092.3467
 20
-141.1839
 30
0.0
 10
-1079.9904
 20
-160.2903
 30
0.0
 10
-1079.9904
 20
-160.2903
 30
0.0
 10
-1068.2986
 20
-178.369
 30
0.0
 10
-1069.4621
 20
-209.383
 30
0.0
 10
-1079.8392
 20
-227.8618
 30
0.0
 10
-1079.8392
 20
-227.8618
 30
0.0
 10
-1085.3317
 20
-237.6422
 30
0.0
 10
-1091.7634
 20
-243.8169
 30
0.0
 10
-1098.4914
 20
-251.153
 30
0.0
 10
-1098.4914
 20
-251.153
 30
0.0
 10
-1102.7269
 20
-255.7711
 30
0.0
 10
-1115.4967
 20
-270.8593
 30
0.0
 10
-1117.0593
 20
-275.0051
 30
0.0
  0
SPLINE
  5
77
330
1F
100
AcDbEntity
  8
Katman 1
100
AcDbSpline
210
0.0
220
0.0
230
1.0
 70
    11
 71
     3
 72
   140
 73
   136
 74
     0
 42
0.000000001
 43
0.0000000001
 40
0.0
 40
0.0
 40
0.0
 40
0.0
 40
0.0285714285714286
 40
0.0285714285714286
 40
0.0285714285714286
 40
0.0285714285714286
 40
0.0571428571428571
 40
0.0571428571428571
 40
0.0571428571428571
 40
0.0571428571428571
 40
0.0857142857142857
 40
0.0857142857142857
 40
0.0857142857142857
 40
0.0857142857142857
 40
0.1142857142857143
 40
0.1142857142857143
 40
0.1142857142857143
 40
0.1142857142857143
 40
0.1428571428571428
 40
0.1428571428571428
 40
0.1428571428571428
 40
0.1428571428571428
 40
0.1714285714285714
 40
0.1714285714285714
 40
0.1714285714285714
 40
0.1714285714285714
 40
0.2
 40
0.2
 40
0.2
 40
0.2
 40
0.2285714285714286
 40
0.2285714285714286
 40
0.2285714285714286
 40
0.2285714285714286
 40
0.2571428571428571
 40
0.2571428571428571
 40
0.2571428571428571
 40
0.2571428571428571
 40
0.2857142857142857
 40
0.2857142857142857
 40
0.2857142857142857
 40
0.2857142857142857
 40
0.3142857142857143
 40
0.3142857142857143
 40
0.3142857142857143
 40
0.3142857142857143
 40
0.3428571428571429
 40
0.3428571428571429
 40
0.3428571428571429
 40
0.3428571428571429
 40
0.3714285714285714
 40
0.3714285714285714
 40
0.3714285714285714
 40
0.3714285714285714
 40
0.4
 40
0.4
 40
0.4
 40
0.4
 40
0.4285714285714285
 40
0.4285714285714285
 40
0.4285714285714285
 40
0.4285714285714285
 40
0.4571428571428571
 40
0.4571428571428571
 40
0.4571428571428571
 40
0.4571428571428571
 40
0.4857142857142857
 40
0.4857142857142857
 40
0.4857142857142857
 40
0.4857142857142857
 40
0.5142857142857142
 40
0.5142857142857142
 40
0.5142857142857142
 40
0.5142857142857142
 40
0.5428571428571428
 40
0.5428571428571428
 40
0.5428571428571428
 40
0.5428571428571428
 40
0.5714285714285714
 40
0.5714285714285714
 40
0.5714285714285714
 40
0.5714285714285714
 40
0.6
 40
0.6
 40
0.6
 40
0.6
 40
0.6285714285714286
 40
0.6285714285714286
 40
0.6285714285714286
 40
0.6285714285714286
 40
0.6571428571428571
 40
0.6571428571428571
 40
0.6571428571428571
 40
0.6571428571428571
 40
0.6857142857142857
 40
0.6857142857142857
 40
0.6857142857142857
 40
0.6857142857142857
 40
0.7142857142857143
 40
0.7142857142857143
 40
0.7142857142857143
 40
0.7142857142857143
 40
0.7428571428571429
 40
0.7428571428571429
 40
0.7428571428571429
 40
0.7428571428571429
 40
0.7714285714285715
 40
0.7714285714285715
 40
0.7714285714285715
 40
0.7714285714285715
 40
0.8
 40
0.8
 40
0.8
 40
0.8
 40
0.8285714285714286
 40
0.8285714285714286
 40
0.8285714285714286
 40
0.8285714285714286
 40
0.8571428571428571
 40
0.8571428571428571
 40
0.8571428571428571
 40
0.8571428571428571
 40
0.8857142857142857
 40
0.8857142857142857
 40
0.8857142857142857
 40
0.8857142857142857
 40
0.9142857142857143
 40
0.9142857142857143
 40
0.9142857142857143
 40
0.9142857142857143
 40
0.9428571428571428
 40
0.9428571428571428
 40
0.9428571428571428
 40
0.9428571428571428
 40
1.0
 40
1.0
 40
1.0
 40
1.0
 10
-989.7661
 20
361.9079
 30
0.0
 10
-1004.9671
 20
361.0303
 30
0.0
 10
-1004.9625
 20
366.3719
 30
0.0
 10
-1017.4171
 20
369.9051
 30
0.0
 10
-1017.4171
 20
369.9051
 30
0.0
 10
-1016.5963
 20
368.3108
 30
0.0
 10
-1012.6165
 20
364.259
 30
0.0
 10
-1011.2259
 20
362.7488
 30
0.0
 10
-1011.2259
 20
362.7488
 30
0.0
 10
-1011.2259
 20
362.7488
 30
0.0
 10
-990.9483
 20
342.5221
 30
0.0
 10
-990.9483
 20
342.5221
 30
0.0
 10
-990.9483
 20
342.5221
 30
0.0
 10
-984.0488
 20
335.6809
 30
0.0
 10
-970.4958
 20
320.895
 30
0.0
 10
-967.8203
 20
311.0936
 30
0.0
 10
-967.8203
 20
311.0936
 30
0.0
 10
-969.7275
 20
312.1707
 30
0.0
 10
-977.0222
 20
318.9257
 30
0.0
 10
-978.3577
 20
320.3194
 30
0.0
 10
-978.3577
 20
320.3194
 30
0.0
 10
-980.1356
 20
322.1749
 30
0.0
 10
-981.726
 20
323.1074
 30
0.0
 10
-983.3805
 20
324.8303
 30
0.0
 10
-983.3805
 20
324.8303
 30
0.0
 10
-984.7094
 20
326.2141
 30
0.0
 10
-987.1059
 20
329.123
 30
0.0
 10
-989.1352
 20
328.6742
 30
0.0
 10
-989.1352
 20
328.6742
 30
0.0
 10
-989.3713
 20
327.1654
 30
0.0
 10
-984.3263
 20
320.0109
 30
0.0
 10
-982.0414
 20
313.7743
 30
0.0
 10
-982.0414
 20
313.7743
 30
0.0
 10
-972.9206
 20
288.8782
 30
0.0
 10
-985.0697
 20
281.2642
 30
0.0
 10
-970.0366
 20
263.3393
 30
0.0
 10
-970.0366
 20
263.3393
 30
0.0
 10
-969.8147
 20
263.0747
 30
0.0
 10
-969.017
 20
261.9935
 30
0.0
 10
-968.8498
 20
261.6149
 30
0.0
 10
-968.8498
 20
261.6149
 30
0.0
 10
-968.6812
 20
261.2332
 30
0.0
 10
-968.6081
 20
261.035
 30
0.0
 10
-968.5635
 20
260.6317
 30
0.0
 10
-968.5635
 20
260.6317
 30
0.0
 10
-968.3754
 20
258.9279
 30
0.0
 10
-968.4896
 20
260.1375
 30
0.0
 10
-968.6617
 20
259.592
 30
0.0
 10
-968.6617
 20
259.592
 30
0.0
 10
-970.099
 20
259.1972
 30
0.0
 10
-970.3681
 20
259.7884
 30
0.0
 10
-971.463
 20
260.9541
 30
0.0
 10
-971.463
 20
260.9541
 30
0.0
 10
-971.463
 20
260.9541
 30
0.0
 10
-989.807
 20
277.4442
 30
0.0
 10
-989.807
 20
277.4442
 30
0.0
 10
-989.807
 20
277.4442
 30
0.0
 10
-987.6096
 20
268.8329
 30
0.0
 10
-977.5595
 20
256.9568
 30
0.0
 10
-971.9047
 20
250.4997
 30
0.0
 10
-971.9047
 20
250.4997
 30
0.0
 10
-971.9047
 20
250.4997
 30
0.0
 10
-964.7958
 20
242.3642
 30
0.0
 10
-964.7958
 20
242.3642
 30
0.0
 10
-964.7958
 20
242.3642
 30
0.0
 10
-957.9017
 20
234.3826
 30
0.0
 10
-951.8151
 20
224.1981
 30
0.0
 10
-949.2909
 20
213.0892
 30
0.0
 10
-949.2909
 20
213.0892
 30
0.0
 10
-948.3436
 20
208.9201
 30
0.0
 10
-948.7371
 20
203.7041
 30
0.0
 10
-945.9581
 20
201.1646
 30
0.0
 10
-945.9581
 20
201.1646
 30
0.0
 10
-941.9778
 20
205.2976
 30
0.0
 10
-949.1937
 20
221.0333
 30
0.0
 10
-934.0765
 20
244.0818
 30
0.0
 10
-934.0765
 20
244.0818
 30
0.0
 10
-925.9083
 20
256.5355
 30
0.0
 10
-916.8599
 20
260.7812
 30
0.0
 10
-906.1844
 20
271.4808
 30
0.0
 10
-906.1844
 20
271.4808
 30
0.0
 10
-900.5473
 20
277.1306
 30
0.0
 10
-895.2919
 20
284.5439
 30
0.0
 10
-891.8136
 20
293.7893
 30
0.0
 10
-891.8136
 20
293.7893
 30
0.0
 10
-882.3749
 20
318.8771
 30
0.0
 10
-897.3838
 20
343.2842
 30
0.0
 10
-911.8622
 20
359.1859
 30
0.0
 10
-911.8622
 20
359.1859
 30
0.0
 10
-914.1539
 20
361.7028
 30
0.0
 10
-917.9654
 20
366.1661
 30
0.0
 10
-920.951
 20
368.6835
 30
0.0
 10
-920.951
 20
368.6835
 30
0.0
 10
-924.9383
 20
372.0457
 30
0.0
 10
-936.4796
 20
381.9854
 30
0.0
 10
-942.6671
 20
383.7896
 30
0.0
 10
-942.6671
 20
383.7896
 30
0.0
 10
-941.891
 20
382.1368
 30
0.0
 10
-935.1403
 20
375.6096
 30
0.0
 10
-933.3851
 20
373.41
 30
0.0
 10
-933.3851
 20
373.41
 30
0.0
 10
-932.4064
 20
372.1836
 30
0.0
 10
-931.3749
 20
371.034
 30
0.0
 10
-930.3629
 20
369.76
 30
0.0
 10
-930.3629
 20
369.76
 30
0.0
 10
-927.5204
 20
366.1818
 30
0.0
 10
-921.9425
 20
358.3431
 30
0.0
 10
-921.0602
 20
352.4273
 30
0.0
 10
-921.0602
 20
352.4273
 30
0.0
 10
-922.7379
 20
353.2189
 30
0.0
 10
-940.1324
 20
368.0152
 30
0.0
 10
-944.2134
 20
371.1558
 30
0.0
 10
-944.2134
 20
371.1558
 30
0.0
 10
-963.1314
 20
385.7143
 30
0.0
 10
-976.9606
 20
391.8959
 30
0.0
 10
-1001.1078
 20
397.6617
 30
0.0
 10
-1001.1078
 20
397.6617
 30
0.0
 10
-1007.9252
 20
399.2896
 30
0.0
 10
-1030.5296
 20
404.069
 30
0.0
 10
-1036.6791
 20
403.5043
 30
0.0
 10
-1036.6791
 20
403.5043
 30
0.0
 10
-1035.8039
 20
403.0326
 30
0.0
 10
-1034.9403
 20
402.2761
 30
0.0
 10
-1033.8318
 20
401.6334
 30
0.0
 10
-1033.8318
 20
401.6334
 30
0.0
 10
-1033.8318
 20
401.6334
 30
0.0
 10
-1023.0849
 20
395.6966
 30
0.0
 10
-1023.0849
 20
395.6966
 30
0.0
 10
-1023.0849
 20
395.6966
 30
0.0
 10
-1018.5736
 20
393.2818
 30
0.0
 10
-1013.0962
 20
389.8846
 30
0.0
 10
-1009.3074
 20
387.0711
 30
0.0
 10
-1009.3074
 20
387.0711
 30
0.0
 10
-1003.0247
 20
382.4058
 30
0.0
 10
-989.9159
 20
372.9389
 30
0.0
 10
-989.7661
 20
361.9079
 30
0.0
  0
SPLINE
  5
78
330
1F
100
AcDbEntity
  8
Katman 1
100
AcDbSpline
210
0.0
220
0.0
230
1.0
 70
    11
 71
     3
 72
    76
 73
    72
 74
     0
 42
0.000000001
 43
0.0000000001
 40
0.0
 40
0.0
 40
0.0
 40
0.0
 40
0.0526315789473684
 40
0.0526315789473684
 40
0.0526315789473684
 40
0.0526315789473684
 40
0.1052631578947368
 40
0.1052631578947368
 40
0.1052631578947368
 40
0.1052631578947368
 40
0.1578947368421053
 40
0.1578947368421053
 40
0.1578947368421053
 40
0.1578947368421053
 40
0.2105263157894737
 40
0.2105263157894737
 40
0.2105263157894737
 40
0.2105263157894737
 40
0.2631578947368421
 40
0.2631578947368421
 40
0.2631578947368421
 40
0.2631578947368421
 40
0.3157894736842105
 40
0.3157894736842105
 40
0.3157894736842105
 40
0.3157894736842105
 40
0.3684210526315789
 40
0.3684210526315789
 40
0.3684210526315789
 40
0.3684210526315789
 40
0.4210526315789473
 40
0.4210526315789473
 40
0.4210526315789473
 40
0.4210526315789473
 40
0.4736842105263158
 40
0.4736842105263158
 40
0.4736842105263158
 40
0.4736842105263158
 40
0.5263157894736842
 40
0.5263157894736842
 40
0.5263157894736842
 40
0.5263157894736842
 40
0.5789473684210527
 40
0.5789473684210527
 40
0.5789473684210527
 40
0.5789473684210527
 40
0.631578947368421
 40
0.631578947368421
 40
0.631578947368421
 40
0.631578947368421
 40
0.6842105263157895
 40
0.6842105263157895
 40
0.6842105263157895
 40
0.6842105263157895
 40
0.7368421052631579
 40
0.7368421052631579
 40
0.7368421052631579
 40
0.7368421052631579
 40
0.7894736842105263
 40
0.7894736842105263
 40
0.7894736842105263
 40
0.7894736842105263
 40
0.8421052631578947
 40
0.8421052631578947
 40
0.8421052631578947
 40
0.8421052631578947
 40
0.8947368421052632
 40
0.8947368421052632
 40
0.8947368421052632
 40
0.8947368421052632
 40
1.0
 40
1.0
 40
1.0
 40
1.0
 10
-958.0049
 20
-102.1448
 30
0.0
 10
-960.9511
 20
-92.0748
 30
0.0
 10
-960.2234
 20
-76.3943
 30
0.0
 10
-965.8906
 20
-68.0788
 30
0.0
 10
-965.8906
 20
-68.0788
 30
0.0
 10
-971.148
 20
-60.3646
 30
0.0
 10
-980.9484
 20
-60.5853
 30
0.0
 10
-989.9352
 20
-62.2818
 30
0.0
 10
-989.9352
 20
-62.2818
 30
0.0
 10
-995.2152
 20
-63.2785
 30
0.0
 10
-995.248
 20
-62.5351
 30
0.0
 10
-998.375
 20
-60.2643
 30
0.0
 10
-998.375
 20
-60.2643
 30
0.0
 10
-1002.4137
 20
-61.4807
 30
0.0
 10
-1002.005
 20
-62.5456
 30
0.0
 10
-1003.0419
 20
-66.8639
 30
0.0
 10
-1003.0419
 20
-66.8639
 30
0.0
 10
-1007.4909
 20
-85.3908
 30
0.0
 10
-1002.2973
 20
-88.191
 30
0.0
 10
-1004.6126
 20
-96.6925
 30
0.0
 10
-1004.6126
 20
-96.6925
 30
0.0
 10
-1006.381
 20
-103.186
 30
0.0
 10
-1008.0474
 20
-98.5958
 30
0.0
 10
-1000.3873
 20
-112.1248
 30
0.0
 10
-1000.3873
 20
-112.1248
 30
0.0
 10
-1000.3873
 20
-112.1248
 30
0.0
 10
-992.1803
 20
-126.3745
 30
0.0
 10
-992.1803
 20
-126.3745
 30
0.0
 10
-992.1803
 20
-126.3745
 30
0.0
 10
-989.1206
 20
-125.0098
 30
0.0
 10
-985.2536
 20
-120.5529
 30
0.0
 10
-980.7327
 20
-128.1807
 30
0.0
 10
-980.7327
 20
-128.1807
 30
0.0
 10
-973.8669
 20
-125.9258
 30
0.0
 10
-972.2439
 20
-124.7275
 30
0.0
 10
-963.5925
 20
-125.4548
 30
0.0
 10
-963.5925
 20
-125.4548
 30
0.0
 10
-956.9266
 20
-126.0151
 30
0.0
 10
-951.3407
 20
-127.2652
 30
0.0
 10
-944.324
 20
-126.946
 30
0.0
 10
-944.324
 20
-126.946
 30
0.0
 10
-941.2739
 20
-121.3291
 30
0.0
 10
-937.6259
 20
-125.7574
 30
0.0
 10
-934.3358
 20
-126.9497
 30
0.0
 10
-934.3358
 20
-126.9497
 30
0.0
 10
-931.8606
 20
-123.0193
 30
0.0
 10
-919.4806
 20
-109.9759
 30
0.0
 10
-914.207
 20
-102.3061
 30
0.0
 10
-914.207
 20
-102.3061
 30
0.0
 10
-911.1035
 20
-97.7923
 30
0.0
 10
-913.4003
 20
-98.9446
 30
0.0
 10
-914.4271
 20
-94.7505
 30
0.0
 10
-914.4271
 20
-94.7505
 30
0.0
 10
-915.3073
 20
-91.1554
 30
0.0
 10
-914.3481
 20
-87.4272
 30
0.0
 10
-914.2406
 20
-83.8587
 30
0.0
 10
-914.2406
 20
-83.8587
 30
0.0
 10
-914.0857
 20
-78.7181
 30
0.0
 10
-915.8021
 20
-69.27
 30
0.0
 10
-916.8242
 20
-64.2767
 30
0.0
 10
-916.8242
 20
-64.2767
 30
0.0
 10
-918.4119
 20
-56.5212
 30
0.0
 10
-925.5301
 20
-58.9975
 30
0.0
 10
-933.1026
 20
-59.1798
 30
0.0
 10
-933.1026
 20
-59.1798
 30
0.0
 10
-955.9286
 20
-59.7295
 30
0.0
 10
-956.7244
 20
-80.5846
 30
0.0
 10
-957.2958
 20
-96.7519
 30
0.0
 10
-957.2958
 20
-96.7519
 30
0.0
 10
-957.3541
 20
-98.401
 30
0.0
 10
-957.2036
 20
-100.7429
 30
0.0
 10
-958.0049
 20
-102.1448
 30
0.0
  0
SPLINE
  5
79
330
1F
100
AcDbEntity
  8
Katman 1
100
AcDbSpline
210
0.0
220
0.0
230
1.0
 70
    11
 71
     3
 72
   100
 73
    96
 74
     0
 42
0.000000001
 43
0.0000000001
 40
0.0
 40
0.0
 40
0.0
 40
0.0
 40
0.04
 40
0.04
 40
0.04
 40
0.04
 40
0.08
 40
0.08
 40
0.08
 40
0.08
 40
0.12
 40
0.12
 40
0.12
 40
0.12
 40
0.16
 40
0.16
 40
0.16
 40
0.16
 40
0.2
 40
0.2
 40
0.2
 40
0.2
 40
0.24
 40
0.24
 40
0.24
 40
0.24
 40
0.28
 40
0.28
 40
0.28
 40
0.28
 40
0.32
 40
0.32
 40
0.32
 40
0.32
 40
0.36
 40
0.36
 40
0.36
 40
0.36
 40
0.4
 40
0.4
 40
0.4
 40
0.4
 40
0.44
 40
0.44
 40
0.44
 40
0.44
 40
0.48
 40
0.48
 40
0.48
 40
0.48
 40
0.52
 40
0.52
 40
0.52
 40
0.52
 40
0.56
 40
0.56
 40
0.56
 40
0.56
 40
0.6
 40
0.6
 40
0.6
 40
0.6
 40
0.64
 40
0.64
 40
0.64
 40
0.64
 40
0.68
 40
0.68
 40
0.68
 40
0.68
 40
0.72
 40
0.72
 40
0.72
 40
0.72
 40
0.76
 40
0.76
 40
0.76
 40
0.76
 40
0.8
 40
0.8
 40
0.8
 40
0.8
 40
0.84
 40
0.84
 40
0.84
 40
0.84
 40
0.88
 40
0.88
 40
0.88
 40
0.88
 40
0.92
 40
0.92
 40
0.92
 40
0.92
 40
1.0
 40
1.0
 40
1.0
 40
1.0
 10
-862.8211
 20
275.2524
 30
0.0
 10
-858.6523
 20
277.4095
 30
0.0
 10
-849.3955
 20
284.4617
 30
0.0
 10
-846.8389
 20
284.5885
 30
0.0
 10
-846.8389
 20
284.5885
 30
0.0
 10
-845.1524
 20
282.1165
 30
0.0
 10
-849.3688
 20
279.6444
 30
0.0
 10
-851.93
 20
274.6028
 30
0.0
 10
-851.93
 20
274.6028
 30
0.0
 10
-839.5447
 20
273.1665
 30
0.0
 10
-826.8821
 20
285.6804
 30
0.0
 10
-821.972
 20
295.921
 30
0.0
 10
-821.972
 20
295.921
 30
0.0
 10
-820.7327
 20
298.5056
 30
0.0
 10
-818.2813
 20
306.8144
 30
0.0
 10
-817.2986
 20
308.3731
 30
0.0
 10
-817.2986
 20
308.3731
 30
0.0
 10
-815.5416
 20
306.945
 30
0.0
 10
-814.4914
 20
305.2832
 30
0.0
 10
-813.0239
 20
303.6218
 30
0.0
 10
-813.0239
 20
303.6218
 30
0.0
 10
-811.6533
 20
302.0701
 30
0.0
 10
-810.1101
 20
300.1634
 30
0.0
 10
-808.8101
 20
298.3015
 30
0.0
 10
-808.8101
 20
298.3015
 30
0.0
 10
-798.7183
 20
283.8476
 30
0.0
 10
-794.874
 20
276.5189
 30
0.0
 10
-794.0589
 20
256.8789
 30
0.0
 10
-794.0589
 20
256.8789
 30
0.0
 10
-791.4064
 20
256.9066
 30
0.0
 10
-791.821
 20
257.1836
 30
0.0
 10
-790.5995
 20
259.2924
 30
0.0
 10
-790.5995
 20
259.2924
 30
0.0
 10
-790.5995
 20
259.2924
 30
0.0
 10
-783.4658
 20
270.1603
 30
0.0
 10
-783.4658
 20
270.1603
 30
0.0
 10
-783.4658
 20
270.1603
 30
0.0
 10
-780.1448
 20
264.4138
 30
0.0
 10
-783.5631
 20
252.0842
 30
0.0
 10
-784.6961
 20
245.2422
 30
0.0
 10
-784.6961
 20
245.2422
 30
0.0
 10
-784.959
 20
243.6547
 30
0.0
 10
-785.1379
 20
242.6237
 30
0.0
 10
-784.5435
 20
241.4417
 30
0.0
 10
-784.5435
 20
241.4417
 30
0.0
 10
-782.7363
 20
240.995
 30
0.0
 10
-783.1133
 20
241.698
 30
0.0
 10
-780.4264
 20
245.3
 30
0.0
 10
-780.4264
 20
245.3
 30
0.0
 10
-779.1439
 20
247.0194
 30
0.0
 10
-777.7616
 20
249.3237
 30
0.0
 10
-776.1136
 20
250.4382
 30
0.0
 10
-776.1136
 20
250.4382
 30
0.0
 10
-774.0229
 20
231.8029
 30
0.0
 10
-788.5133
 20
222.3884
 30
0.0
 10
-789.4486
 20
218.5801
 30
0.0
 10
-789.4486
 20
218.5801
 30
0.0
 10
-780.6836
 20
217.4032
 30
0.0
 10
-777.1357
 20
222.0877
 30
0.0
 10
-771.7054
 20
224.8869
 30
0.0
 10
-771.7054
 20
224.8869
 30
0.0
 10
-772.3995
 20
221.9224
 30
0.0
 10
-775.2199
 20
216.2876
 30
0.0
 10
-775.2126
 20
213.7242
 30
0.0
 10
-775.2126
 20
213.7242
 30
0.0
 10
-775.2126
 20
213.7242
 30
0.0
 10
-771.3773
 20
213.2598
 30
0.0
 10
-771.3773
 20
213.2598
 30
0.0
 10
-771.3773
 20
213.2598
 30
0.0
 10
-771.3773
 20
213.2598
 30
0.0
 10
-773.9599
 20
203.2757
 30
0.0
 10
-773.9599
 20
203.2757
 30
0.0
 10
-773.9599
 20
203.2757
 30
0.0
 10
-766.1891
 20
206.057
 30
0.0
 10
-759.6758
 20
214.0413
 30
0.0
 10
-758.3704
 20
224.1892
 30
0.0
 10
-758.3704
 20
224.1892
 30
0.0
 10
-757.4903
 20
231.0299
 30
0.0
 10
-759.965
 20
250.3771
 30
0.0
 10
-760.9222
 20
258.0545
 30
0.0
 10
-760.9222
 20
258.0545
 30
0.0
 10
-763.1401
 20
275.8432
 30
0.0
 10
-774.338
 20
297.9605
 30
0.0
 10
-782.6379
 20
309.7086
 30
0.0
 10
-782.6379
 20
309.7086
 30
0.0
 10
-793.2053
 20
324.6663
 30
0.0
 10
-813.6437
 20
331.8616
 30
0.0
 10
-832.7168
 20
318.1003
 30
0.0
 10
-832.7168
 20
318.1003
 30
0.0
 10
-842.5754
 20
310.9872
 30
0.0
 10
-851.9519
 20
299.6291
 30
0.0
 10
-857.8672
 20
288.4415
 30
0.0
 10
-857.8672
 20
288.4415
 30
0.0
 10
-859.6129
 20
285.1401
 30
0.0
 10
-863.2497
 20
279.6991
 30
0.0
 10
-862.8211
 20
275.2524
 30
0.0
  0
SPLINE
  5
7A
330
1F
100
AcDbEntity
  8
Katman 1
100
AcDbSpline
210
0.0
220
0.0
230
1.0
 70
    11
 71
     3
 72
    72
 73
    68
 74
     0
 42
0.000000001
 43
0.0000000001
 40
0.0
 40
0.0
 40
0.0
 40
0.0
 40
0.0555555555555556
 40
0.0555555555555556
 40
0.0555555555555556
 40
0.0555555555555556
 40
0.1111111111111111
 40
0.1111111111111111
 40
0.1111111111111111
 40
0.1111111111111111
 40
0.1666666666666667
 40
0.1666666666666667
 40
0.1666666666666667
 40
0.1666666666666667
 40
0.2222222222222222
 40
0.2222222222222222
 40
0.2222222222222222
 40
0.2222222222222222
 40
0.2777777777777778
 40
0.2777777777777778
 40
0.2777777777777778
 40
0.2777777777777778
 40
0.3333333333333333
 40
0.3333333333333333
 40
0.3333333333333333
 40
0.3333333333333333
 40
0.3888888888888889
 40
0.3888888888888889
 40
0.3888888888888889
 40
0.3888888888888889
 40
0.4444444444444444
 40
0.4444444444444444
 40
0.4444444444444444
 40
0.4444444444444444
 40
0.5
 40
0.5
 40
0.5
 40
0.5
 40
0.5555555555555556
 40
0.5555555555555556
 40
0.5555555555555556
 40
0.5555555555555556
 40
0.6111111111111112
 40
0.6111111111111112
 40
0.6111111111111112
 40
0.6111111111111112
 40
0.6666666666666666
 40
0.6666666666666666
 40
0.6666666666666666
 40
0.6666666666666666
 40
0.7222222222222222
 40
0.7222222222222222
 40
0.7222222222222222
 40
0.7222222222222222
 40
0.7777777777777778
 40
0.7777777777777778
 40
0.7777777777777778
 40
0.7777777777777778
 40
0.8333333333333334
 40
0.8333333333333334
 40
0.8333333333333334
 40
0.8333333333333334
 40
0.8888888888888888
 40
0.8888888888888888
 40
0.8888888888888888
 40
0.8888888888888888
 40
1.0
 40
1.0
 40
1.0
 40
1.0
 10
-1231.0919
 20
186.6834
 30
0.0
 10
-1229.0177
 20
186.0088
 30
0.0
 10
-1222.3107
 20
191.0833
 30
0.0
 10
-1217.5027
 20
193.4534
 30
0.0
 10
-1217.5027
 20
193.4534
 30
0.0
 10
-1201.8615
 20
201.1635
 30
0.0
 10
-1180.9857
 20
199.1038
 30
0.0
 10
-1201.2013
 20
171.4259
 30
0.0
 10
-1201.2013
 20
171.4259
 30
0.0
 10
-1202.9105
 20
169.0858
 30
0.0
 10
-1203.9714
 20
167.7651
 30
0.0
 10
-1205.8352
 20
165.5815
 30
0.0
 10
-1205.8352
 20
165.5815
 30
0.0
 10
-1206.7773
 20
164.4778
 30
0.0
 10
-1207.1995
 20
163.7626
 30
0.0
 10
-1208.2643
 20
162.7596
 30
0.0
 10
-1208.2643
 20
162.7596
 30
0.0
 10
-1209.5165
 20
161.58
 30
0.0
 10
-1209.8554
 20
161.2627
 30
0.0
 10
-1210.8777
 20
160.1366
 30
0.0
 10
-1210.8777
 20
160.1366
 30
0.0
 10
-1214.1238
 20
156.5612
 30
0.0
 10
-1217.3282
 20
153.0584
 30
0.0
 10
-1220.4529
 20
148.7401
 30
0.0
 10
-1220.4529
 20
148.7401
 30
0.0
 10
-1226.963
 20
139.7434
 30
0.0
 10
-1229.1274
 20
134.4451
 30
0.0
 10
-1233.8589
 20
125.4404
 30
0.0
 10
-1233.8589
 20
125.4404
 30
0.0
 10
-1234.4917
 20
124.2362
 30
0.0
 10
-1235.3417
 20
123.0783
 30
0.0
 10
-1234.8836
 20
121.8409
 30
0.0
 10
-1234.8836
 20
121.8409
 30
0.0
 10
-1234.7822
 20
121.8011
 30
0.0
 10
-1234.6041
 20
121.8927
 30
0.0
 10
-1234.5611
 20
121.7884
 30
0.0
 10
-1234.5611
 20
121.7884
 30
0.0
 10
-1234.137
 20
120.7597
 30
0.0
 10
-1229.9742
 20
125.4793
 30
0.0
 10
-1229.8004
 20
125.6728
 30
0.0
 10
-1229.8004
 20
125.6728
 30
0.0
 10
-1228.1086
 20
127.5584
 30
0.0
 10
-1226.632
 20
128.8976
 30
0.0
 10
-1224.7225
 20
130.6045
 30
0.0
 10
-1224.7225
 20
130.6045
 30
0.0
 10
-1221.6323
 20
133.3667
 30
0.0
 10
-1217.3147
 20
136.4593
 30
0.0
 10
-1213.6128
 20
139.0445
 30
0.0
 10
-1213.6128
 20
139.0445
 30
0.0
 10
-1201.4929
 20
147.5087
 30
0.0
 10
-1189.443
 20
153.9936
 30
0.0
 10
-1174.9476
 20
159.0059
 30
0.0
 10
-1174.9476
 20
159.0059
 30
0.0
 10
-1162.8885
 20
163.1757
 30
0.0
 10
-1145.4127
 20
167.6268
 30
0.0
 10
-1144.3089
 20
187.3149
 30
0.0
 10
-1144.3089
 20
187.3149
 30
0.0
 10
-1142.9875
 20
210.8845
 30
0.0
 10
-1168.5036
 20
225.9235
 30
0.0
 10
-1186.9071
 20
220.4987
 30
0.0
 10
-1186.9071
 20
220.4987
 30
0.0
 10
-1201.9397
 20
216.0676
 30
0.0
 10
-1218.2136
 20
204.5911
 30
0.0
 10
-1227.6187
 20
192.6015
 30
0.0
 10
-1227.6187
 20
192.6015
 30
0.0
 10
-1229.469
 20
190.2427
 30
0.0
 10
-1231.486
 20
188.3796
 30
0.0
 10
-1231.0919
 20
186.6834
 30
0.0
  0
SPLINE
  5
7B
330
1F
100
AcDbEntity
  8
Katman 1
100
AcDbSpline
210
0.0
220
0.0
230
1.0
 70
    11
 71
     3
 72
   104
 73
   100
 74
     0
 42
0.000000001
 43
0.0000000001
 40
0.0
 40
0.0
 40
0.0
 40
0.0
 40
0.0384615384615385
 40
0.0384615384615385
 40
0.0384615384615385
 40
0.0384615384615385
 40
0.0769230769230769
 40
0.0769230769230769
 40
0.0769230769230769
 40
0.0769230769230769
 40
0.1153846153846154
 40
0.1153846153846154
 40
0.1153846153846154
 40
0.1153846153846154
 40
0.1538461538461539
 40
0.1538461538461539
 40
0.1538461538461539
 40
0.1538461538461539
 40
0.1923076923076923
 40
0.1923076923076923
 40
0.1923076923076923
 40
0.1923076923076923
 40
0.2307692307692308
 40
0.2307692307692308
 40
0.2307692307692308
 40
0.2307692307692308
 40
0.2692307692307692
 40
0.2692307692307692
 40
0.2692307692307692
 40
0.2692307692307692
 40
0.3076923076923077
 40
0.3076923076923077
 40
0.3076923076923077
 40
0.3076923076923077
 40
0.3461538461538461
 40
0.3461538461538461
 40
0.3461538461538461
 40
0.3461538461538461
 40
0.3846153846153846
 40
0.3846153846153846
 40
0.3846153846153846
 40
0.3846153846153846
 40
0.4230769230769231
 40
0.4230769230769231
 40
0.4230769230769231
 40
0.4230769230769231
 40
0.4615384615384616
 40
0.4615384615384616
 40
0.4615384615384616
 40
0.4615384615384616
 40
0.5
 40
0.5
 40
0.5
 40
0.5
 40
0.5384615384615384
 40
0.5384615384615384
 40
0.5384615384615384
 40
0.5384615384615384
 40
0.5769230769230769
 40
0.5769230769230769
 40
0.5769230769230769
 40
0.5769230769230769
 40
0.6153846153846154
 40
0.6153846153846154
 40
0.6153846153846154
 40
0.6153846153846154
 40
0.6538461538461539
 40
0.6538461538461539
 40
0.6538461538461539
 40
0.6538461538461539
 40
0.6923076923076923
 40
0.6923076923076923
 40
0.6923076923076923
 40
0.6923076923076923
 40
0.7307692307692307
 40
0.7307692307692307
 40
0.7307692307692307
 40
0.7307692307692307
 40
0.7692307692307693
 40
0.7692307692307693
 40
0.7692307692307693
 40
0.7692307692307693
 40
0.8076923076923077
 40
0.8076923076923077
 40
0.8076923076923077
 40
0.8076923076923077
 40
0.8461538461538461
 40
0.8461538461538461
 40
0.8461538461538461
 40
0.8461538461538461
 40
0.8846153846153846
 40
0.8846153846153846
 40
0.8846153846153846
 40
0.8846153846153846
 40
0.9230769230769231
 40
0.9230769230769231
 40
0.9230769230769231
 40
0.9230769230769231
 40
1.0
 40
1.0
 40
1.0
 40
1.0
 10
-1109.0849
 20
205.0588
 30
0.0
 10
-1108.155
 20
208.1233
 30
0.0
 10
-1111.6417
 20
210.0085
 30
0.0
 10
-1113.6354
 20
214.4971
 30
0.0
 10
-1113.6354
 20
214.4971
 30
0.0
 10
-1113.6354
 20
214.4971
 30
0.0
 10
-1108.9847
 20
215.6068
 30
0.0
 10
-1108.9847
 20
215.6068
 30
0.0
 10
-1108.9847
 20
215.6068
 30
0.0
 10
-1108.9847
 20
215.6068
 30
0.0
 10
-1110.5042
 20
220.1778
 30
0.0
 10
-1110.5042
 20
220.1778
 30
0.0
 10
-1110.5042
 20
220.1778
 30
0.0
 10
-1110.5042
 20
220.1778
 30
0.0
 10
-1104.316
 20
223.663
 30
0.0
 10
-1104.316
 20
223.663
 30
0.0
 10
-1104.316
 20
223.663
 30
0.0
 10
-1104.9483
 20
224.5413
 30
0.0
 10
-1107.9065
 20
227.3228
 30
0.0
 10
-1109.1006
 20
228.1482
 30
0.0
 10
-1109.1006
 20
228.1482
 30
0.0
 10
-1112.0424
 20
230.1816
 30
0.0
 10
-1113.8257
 20
229.2982
 30
0.0
 10
-1117.0333
 20
230.1134
 30
0.0
 10
-1117.0333
 20
230.1134
 30
0.0
 10
-1117.1245
 20
232.4158
 30
0.0
 10
-1118.3098
 20
230.8999
 30
0.0
 10
-1113.9492
 20
233.3438
 30
0.0
 10
-1113.9492
 20
233.3438
 30
0.0
 10
-1113.9492
 20
233.3438
 30
0.0
 10
-1102.4286
 20
240.1438
 30
0.0
 10
-1102.4286
 20
240.1438
 30
0.0
 10
-1102.4286
 20
240.1438
 30
0.0
 10
-1104.2638
 20
242.7982
 30
0.0
 10
-1107.0346
 20
245.1682
 30
0.0
 10
-1108.7893
 20
247.8652
 30
0.0
 10
-1108.7893
 20
247.8652
 30
0.0
 10
-1102.6256
 20
247.94
 30
0.0
 10
-1095.554
 20
243.0363
 30
0.0
 10
-1089.86
 20
246.8916
 30
0.0
 10
-1089.86
 20
246.8916
 30
0.0
 10
-1078.1162
 20
254.8432
 30
0.0
 10
-1093.594
 20
278.8488
 30
0.0
 10
-1114.3118
 20
283.4826
 30
0.0
 10
-1114.3118
 20
283.4826
 30
0.0
 10
-1113.2407
 20
285.4539
 30
0.0
 10
-1110.083
 20
287.303
 30
0.0
 10
-1108.037
 20
288.4417
 30
0.0
 10
-1108.037
 20
288.4417
 30
0.0
 10
-1091.7073
 20
297.5295
 30
0.0
 10
-1067.1813
 20
295.6373
 30
0.0
 10
-1051.651
 20
283.7057
 30
0.0
 10
-1051.651
 20
283.7057
 30
0.0
 10
-1051.2827
 20
283.4228
 30
0.0
 10
-1050.3722
 20
282.599
 30
0.0
 10
-1050.0392
 20
282.3914
 30
0.0
 10
-1050.0392
 20
282.3914
 30
0.0
 10
-1049.7138
 20
282.1885
 30
0.0
 10
-1050.2002
 20
282.2004
 30
0.0
 10
-1049.1732
 20
282.0026
 30
0.0
 10
-1049.1732
 20
282.0026
 30
0.0
 10
-1048.1367
 20
281.8031
 30
0.0
 10
-1048.8604
 20
281.8265
 30
0.0
 10
-1048.2438
 20
282.088
 30
0.0
 10
-1048.2438
 20
282.088
 30
0.0
 10
-1047.8204
 20
284.0296
 30
0.0
 10
-1055.6288
 20
291.7805
 30
0.0
 10
-1056.836
 20
294.537
 30
0.0
 10
-1056.836
 20
294.537
 30
0.0
 10
-1056.836
 20
294.537
 30
0.0
 10
-1055.5822
 20
295.9158
 30
0.0
 10
-1055.5822
 20
295.9158
 30
0.0
 10
-1055.5822
 20
295.9158
 30
0.0
 10
-1050.7618
 20
294.2419
 30
0.0
 10
-1032.7063
 20
278.5192
 30
0.0
 10
-1028.0101
 20
275.5301
 30
0.0
 10
-1028.0101
 20
275.5301
 30
0.0
 10
-1031.8837
 20
289.016
 30
0.0
 10
-1043.473
 20
309.3617
 30
0.0
 10
-1055.5387
 20
316.5224
 30
0.0
 10
-1055.5387
 20
316.5224
 30
0.0
 10
-1072.7986
 20
326.7657
 30
0.0
 10
-1096.0372
 20
312.267
 30
0.0
 10
-1104.3538
 20
303.3473
 30
0.0
 10
-1104.3538
 20
303.3473
 30
0.0
 10
-1110.7459
 20
296.4917
 30
0.0
 10
-1114.1566
 20
293.8293
 30
0.0
 10
-1119.0452
 20
283.7267
 30
0.0
 10
-1119.0452
 20
283.7267
 30
0.0
 10
-1127.112
 20
267.056
 30
0.0
 10
-1126.5278
 20
240.8347
 30
0.0
 10
-1125.8359
 20
222.1618
 30
0.0
 10
-1125.8359
 20
222.1618
 30
0.0
 10
-1125.6112
 20
216.0974
 30
0.0
 10
-1118.7641
 20
207.535
 30
0.0
 10
-1116.1175
 20
206.3463
 30
0.0
 10
-1116.1175
 20
206.3463
 30
0.0
 10
-1114.4993
 20
205.6194
 30
0.0
 10
-1111.0434
 20
204.7962
 30
0.0
 10
-1109.0849
 20
205.0588
 30
0.0
  0
SPLINE
  5
7C
330
1F
100
AcDbEntity
  8
Katman 1
100
AcDbSpline
210
0.0
220
0.0
230
1.0
 70
    11
 71
     3
 72
    76
 73
    72
 74
     0
 42
0.000000001
 43
0.0000000001
 40
0.0
 40
0.0
 40
0.0
 40
0.0
 40
0.0526315789473684
 40
0.0526315789473684
 40
0.0526315789473684
 40
0.0526315789473684
 40
0.1052631578947368
 40
0.1052631578947368
 40
0.1052631578947368
 40
0.1052631578947368
 40
0.1578947368421053
 40
0.1578947368421053
 40
0.1578947368421053
 40
0.1578947368421053
 40
0.2105263157894737
 40
0.2105263157894737
 40
0.2105263157894737
 40
0.2105263157894737
 40
0.2631578947368421
 40
0.2631578947368421
 40
0.2631578947368421
 40
0.2631578947368421
 40
0.3157894736842105
 40
0.3157894736842105
 40
0.3157894736842105
 40
0.3157894736842105
 40
0.3684210526315789
 40
0.3684210526315789
 40
0.3684210526315789
 40
0.3684210526315789
 40
0.4210526315789473
 40
0.4210526315789473
 40
0.4210526315789473
 40
0.4210526315789473
 40
0.4736842105263158
 40
0.4736842105263158
 40
0.4736842105263158
 40
0.4736842105263158
 40
0.5263157894736842
 40
0.5263157894736842
 40
0.5263157894736842
 40
0.5263157894736842
 40
0.5789473684210527
 40
0.5789473684210527
 40
0.5789473684210527
 40
0.5789473684210527
 40
0.631578947368421
 40
0.631578947368421
 40
0.631578947368421
 40
0.631578947368421
 40
0.6842105263157895
 40
0.6842105263157895
 40
0.6842105263157895
 40
0.6842105263157895
 40
0.7368421052631579
 40
0.7368421052631579
 40
0.7368421052631579
 40
0.7368421052631579
 40
0.7894736842105263
 40
0.7894736842105263
 40
0.7894736842105263
 40
0.7894736842105263
 40
0.8421052631578947
 40
0.8421052631578947
 40
0.8421052631578947
 40
0.8421052631578947
 40
0.8947368421052632
 40
0.8947368421052632
 40
0.8947368421052632
 40
0.8947368421052632
 40
1.0
 40
1.0
 40
1.0
 40
1.0
 10
-925.6073
 20
51.757
 30
0.0
 10
-925.6073
 20
51.757
 30
0.0
 10
-923.986
 20
50.7038
 30
0.0
 10
-923.986
 20
50.7038
 30
0.0
 10
-923.986
 20
50.7038
 30
0.0
 10
-916.6755
 20
56.6511
 30
0.0
 10
-907.5666
 20
85.9102
 30
0.0
 10
-878.4657
 20
74.1999
 30
0.0
 10
-878.4657
 20
74.1999
 30
0.0
 10
-859.4551
 20
66.55
 30
0.0
 10
-858.1331
 20
55.7951
 30
0.0
 10
-851.4583
 20
44.4752
 30
0.0
 10
-851.4583
 20
44.4752
 30
0.0
 10
-849.7692
 20
41.6107
 30
0.0
 10
-845.9826
 20
35.0059
 30
0.0
 10
-842.8482
 20
33.7294
 30
0.0
 10
-842.8482
 20
33.7294
 30
0.0
 10
-840.5073
 20
40.8716
 30
0.0
 10
-829.5801
 20
60.6331
 30
0.0
 10
-825.3591
 20
67.6474
 30
0.0
 10
-825.3591
 20
67.6474
 30
0.0
 10
-822.11
 20
73.0468
 30
0.0
 10
-818.5579
 20
78.2698
 30
0.0
 10
-815.6772
 20
83.7059
 30
0.0
 10
-815.6772
 20
83.7059
 30
0.0
 10
-812.502
 20
89.6978
 30
0.0
 10
-816.3246
 20
98.425
 30
0.0
 10
-816.3324
 20
109.6319
 30
0.0
 10
-816.3324
 20
109.6319
 30
0.0
 10
-816.3362
 20
116.037
 30
0.0
 10
-815.5345
 20
114.797
 30
0.0
 10
-812.5334
 20
118.1848
 30
0.0
 10
-812.5334
 20
118.1848
 30
0.0
 10
-806.6213
 20
115.6615
 30
0.0
 10
-807.518
 20
108.513
 30
0.0
 10
-804.4326
 20
102.2229
 30
0.0
 10
-804.4326
 20
102.2229
 30
0.0
 10
-801.5506
 20
106.3168
 30
0.0
 10
-801.5868
 20
125.1292
 30
0.0
 10
-802.6282
 20
131.0077
 30
0.0
 10
-802.6282
 20
131.0077
 30
0.0
 10
-804.0404
 20
138.9789
 30
0.0
 10
-808.7133
 20
149.7524
 30
0.0
 10
-814.9234
 20
151.2929
 30
0.0
 10
-814.9234
 20
151.2929
 30
0.0
 10
-816.7082
 20
143.3144
 30
0.0
 10
-815.0747
 20
137.4197
 30
0.0
 10
-820.5201
 20
126.1999
 30
0.0
 10
-820.5201
 20
126.1999
 30
0.0
 10
-823.9726
 20
119.0865
 30
0.0
 10
-830.4137
 20
114.1179
 30
0.0
 10
-829.3919
 20
103.8918
 30
0.0
 10
-829.3919
 20
103.8918
 30
0.0
 10
-828.6226
 20
96.1924
 30
0.0
 10
-825.8517
 20
89.5146
 30
0.0
 10
-834.459
 20
80.0865
 30
0.0
 10
-834.459
 20
80.0865
 30
0.0
 10
-850.1623
 20
62.8857
 30
0.0
 10
-852.4026
 20
66.7526
 30
0.0
 10
-874.8928
 20
78.2382
 30
0.0
 10
-874.8928
 20
78.2382
 30
0.0
 10
-881.4091
 20
81.5661
 30
0.0
 10
-888.3973
 20
87.5257
 30
0.0
 10
-897.4589
 20
85.8368
 30
0.0
 10
-897.4589
 20
85.8368
 30
0.0
 10
-905.9863
 20
84.2476
 30
0.0
 10
-909.7789
 20
77.0672
 30
0.0
 10
-913.6298
 20
71.0995
 30
0.0
 10
-913.6298
 20
71.0995
 30
0.0
 10
-915.7054
 20
67.8831
 30
0.0
 10
-924.8287
 20
54.5428
 30
0.0
 10
-925.6073
 20
51.757
 30
0.0
  0
SPLINE
  5
7D
330
1F
100
AcDbEntity
  8
Katman 1
100
AcDbSpline
210
0.0
220
0.0
230
1.0
 70
    11
 71
     3
 72
   100
 73
    96
 74
     0
 42
0.000000001
 43
0.0000000001
 40
0.0
 40
0.0
 40
0.0
 40
0.0
 40
0.04
 40
0.04
 40
0.04
 40
0.04
 40
0.08
 40
0.08
 40
0.08
 40
0.08
 40
0.12
 40
0.12
 40
0.12
 40
0.12
 40
0.16
 40
0.16
 40
0.16
 40
0.16
 40
0.2
 40
0.2
 40
0.2
 40
0.2
 40
0.24
 40
0.24
 40
0.24
 40
0.24
 40
0.28
 40
0.28
 40
0.28
 40
0.28
 40
0.32
 40
0.32
 40
0.32
 40
0.32
 40
0.36
 40
0.36
 40
0.36
 40
0.36
 40
0.4
 40
0.4
 40
0.4
 40
0.4
 40
0.44
 40
0.44
 40
0.44
 40
0.44
 40
0.48
 40
0.48
 40
0.48
 40
0.48
 40
0.52
 40
0.52
 40
0.52
 40
0.52
 40
0.56
 40
0.56
 40
0.56
 40
0.56
 40
0.6
 40
0.6
 40
0.6
 40
0.6
 40
0.64
 40
0.64
 40
0.64
 40
0.64
 40
0.68
 40
0.68
 40
0.68
 40
0.68
 40
0.72
 40
0.72
 40
0.72
 40
0.72
 40
0.76
 40
0.76
 40
0.76
 40
0.76
 40
0.8
 40
0.8
 40
0.8
 40
0.8
 40
0.84
 40
0.84
 40
0.84
 40
0.84
 40
0.88
 40
0.88
 40
0.88
 40
0.88
 40
0.92
 40
0.92
 40
0.92
 40
0.92
 40
1.0
 40
1.0
 40
1.0
 40
1.0
 10
-846.1262
 20
151.7607
 30
0.0
 10
-845.5789
 20
148.1852
 30
0.0
 10
-836.7663
 20
150.1959
 30
0.0
 10
-844.675
 20
129.8651
 30
0.0
 10
-844.675
 20
129.8651
 30
0.0
 10
-847.7034
 20
122.0799
 30
0.0
 10
-852.1432
 20
116.7005
 30
0.0
 10
-856.9058
 20
112.0727
 30
0.0
 10
-856.9058
 20
112.0727
 30
0.0
 10
-858.1333
 20
110.8798
 30
0.0
 10
-859.2827
 20
109.3432
 30
0.0
 10
-860.3914
 20
108.4134
 30
0.0
 10
-860.3914
 20
108.4134
 30
0.0
 10
-861.7821
 20
107.2471
 30
0.0
 10
-862.9739
 20
106.1645
 30
0.0
 10
-864.5282
 20
104.9281
 30
0.0
 10
-864.5282
 20
104.9281
 30
0.0
 10
-872.3887
 20
98.6757
 30
0.0
 10
-877.9332
 20
97.5292
 30
0.0
 10
-887.5702
 20
99.3628
 30
0.0
 10
-887.5702
 20
99.3628
 30
0.0
 10
-887.5702
 20
99.3628
 30
0.0
 10
-897.3007
 20
101.1341
 30
0.0
 10
-897.3007
 20
101.1341
 30
0.0
 10
-897.3007
 20
101.1341
 30
0.0
 10
-899.3692
 20
101.5503
 30
0.0
 10
-898.9257
 20
101.1224
 30
0.0
 10
-899.7639
 20
102.4819
 30
0.0
 10
-899.7639
 20
102.4819
 30
0.0
 10
-899.3981
 20
103.9471
 30
0.0
 10
-900.5794
 20
103.0965
 30
0.0
 10
-896.3032
 20
104.7698
 30
0.0
 10
-896.3032
 20
104.7698
 30
0.0
 10
-879.6289
 20
111.2944
 30
0.0
 10
-866.7719
 20
111.7728
 30
0.0
 10
-855.6927
 20
131.8334
 30
0.0
 10
-855.6927
 20
131.8334
 30
0.0
 10
-853.7117
 20
135.4203
 30
0.0
 10
-848.3748
 20
145.3413
 30
0.0
 10
-849.3144
 20
150.1238
 30
0.0
 10
-849.3144
 20
150.1238
 30
0.0
 10
-852.5912
 20
152.0417
 30
0.0
 10
-860.9713
 20
149.27
 30
0.0
 10
-865.55
 20
148.3045
 30
0.0
 10
-865.55
 20
148.3045
 30
0.0
 10
-881.2897
 20
144.9857
 30
0.0
 10
-894.9913
 20
138.2924
 30
0.0
 10
-901.5918
 20
122.9237
 30
0.0
 10
-901.5918
 20
122.9237
 30
0.0
 10
-904.233
 20
116.7739
 30
0.0
 10
-903.9608
 20
113.4656
 30
0.0
 10
-908.4799
 20
109.3199
 30
0.0
 10
-908.4799
 20
109.3199
 30
0.0
 10
-912.5883
 20
105.5509
 30
0.0
 10
-916.9823
 20
106.0483
 30
0.0
 10
-920.8063
 20
101.155
 30
0.0
 10
-920.8063
 20
101.155
 30
0.0
 10
-923.2757
 20
97.995
 30
0.0
 10
-934.4515
 20
77.3096
 30
0.0
 10
-933.1331
 20
73.4968
 30
0.0
 10
-933.1331
 20
73.4968
 30
0.0
 10
-931.2555
 20
73.5275
 30
0.0
 10
-932.1702
 20
72.4199
 30
0.0
 10
-930.1801
 20
76.6858
 30
0.0
 10
-930.1801
 20
76.6858
 30
0.0
 10
-929.4588
 20
78.2321
 30
0.0
 10
-928.8949
 20
79.303
 30
0.0
 10
-928.0827
 20
80.7852
 30
0.0
 10
-928.0827
 20
80.7852
 30
0.0
 10
-923.5146
 20
89.1215
 30
0.0
 10
-916.0151
 20
95.7636
 30
0.0
 10
-904.9807
 20
96.0719
 30
0.0
 10
-904.9807
 20
96.0719
 30
0.0
 10
-886.9556
 20
96.5755
 30
0.0
 10
-880.6711
 20
82.2402
 30
0.0
 10
-866.4132
 20
96.7948
 30
0.0
 10
-866.4132
 20
96.7948
 30
0.0
 10
-866.4132
 20
96.7948
 30
0.0
 10
-841.662
 20
122.5682
 30
0.0
 10
-841.662
 20
122.5682
 30
0.0
 10
-841.662
 20
122.5682
 30
0.0
 10
-838.1045
 20
128.9772
 30
0.0
 10
-843.3218
 20
143.4876
 30
0.0
 10
-830.2264
 20
149.2516
 30
0.0
 10
-830.2264
 20
149.2516
 30
0.0
 10
-828.8385
 20
149.8625
 30
0.0
 10
-827.2327
 20
150.2754
 30
0.0
 10
-825.6001
 20
150.8276
 30
0.0
 10
-825.6001
 20
150.8276
 30
0.0
 10
-823.2949
 20
151.6072
 30
0.0
 10
-822.0561
 20
151.7113
 30
0.0
 10
-822.3333
 20
153.7715
 30
0.0
 10
-822.3333
 20
153.7715
 30
0.0
 10
-824.3711
 20
154.4523
 30
0.0
 10
-842.7292
 20
152.2606
 30
0.0
 10
-846.1262
 20
151.7607
 30
0.0
  0
SPLINE
  5
7E
330
1F
100
AcDbEntity
  8
Katman 1
100
AcDbSpline
210
0.0
220
0.0
230
1.0
 70
    11
 71
     3
 72
    80
 73
    76
 74
     0
 42
0.000000001
 43
0.0000000001
 40
0.0
 40
0.0
 40
0.0
 40
0.0
 40
0.05
 40
0.05
 40
0.05
 40
0.05
 40
0.1
 40
0.1
 40
0.1
 40
0.1
 40
0.15
 40
0.15
 40
0.15
 40
0.15
 40
0.2
 40
0.2
 40
0.2
 40
0.2
 40
0.25
 40
0.25
 40
0.25
 40
0.25
 40
0.3
 40
0.3
 40
0.3
 40
0.3
 40
0.35
 40
0.35
 40
0.35
 40
0.35
 40
0.4
 40
0.4
 40
0.4
 40
0.4
 40
0.45
 40
0.45
 40
0.45
 40
0.45
 40
0.5
 40
0.5
 40
0.5
 40
0.5
 40
0.55
 40
0.55
 40
0.55
 40
0.55
 40
0.6
 40
0.6
 40
0.6
 40
0.6
 40
0.65
 40
0.65
 40
0.65
 40
0.65
 40
0.7
 40
0.7
 40
0.7
 40
0.7
 40
0.75
 40
0.75
 40
0.75
 40
0.75
 40
0.8
 40
0.8
 40
0.8
 40
0.8
 40
0.85
 40
0.85
 40
0.85
 40
0.85
 40
0.9
 40
0.9
 40
0.9
 40
0.9
 40
1.0
 40
1.0
 40
1.0
 40
1.0
 10
-1083.9519
 20
154.9146
 30
0.0
 10
-1080.9238
 20
152.776
 30
0.0
 10
-1075.473
 20
152.5309
 30
0.0
 10
-1069.9436
 20
143.3805
 30
0.0
 10
-1069.9436
 20
143.3805
 30
0.0
 10
-1068.2702
 20
140.6111
 30
0.0
 10
-1067.2218
 20
137.3064
 30
0.0
 10
-1066.4764
 20
133.9743
 30
0.0
 10
-1066.4764
 20
133.9743
 30
0.0
 10
-1062.6975
 20
117.0823
 30
0.0
 10
-1068.5721
 20
125.4282
 30
0.0
 10
-1051.7747
 20
110.0766
 30
0.0
 10
-1051.7747
 20
110.0766
 30
0.0
 10
-1045.7178
 20
104.541
 30
0.0
 10
-1037.2838
 20
98.0183
 30
0.0
 10
-1030.6448
 20
92.6063
 30
0.0
 10
-1030.6448
 20
92.6063
 30
0.0
 10
-1021.6915
 20
85.3076
 30
0.0
 10
-1014.9637
 20
96.9945
 30
0.0
 10
-1003.0836
 20
99.5345
 30
0.0
 10
-1003.0836
 20
99.5345
 30
0.0
 10
-982.8987
 20
103.85
 30
0.0
 10
-979.0018
 20
76.0245
 30
0.0
 10
-976.5649
 20
76.1578
 30
0.0
 10
-976.5649
 20
76.1578
 30
0.0
 10
-974.3257
 20
76.7041
 30
0.0
 10
-976.1139
 20
82.4673
 30
0.0
 10
-976.4188
 20
83.9869
 30
0.0
 10
-976.4188
 20
83.9869
 30
0.0
 10
-977.3368
 20
88.5618
 30
0.0
 10
-981.8959
 20
103.7512
 30
0.0
 10
-984.6623
 20
105.7107
 30
0.0
 10
-984.6623
 20
105.7107
 30
0.0
 10
-996.727
 20
114.2565
 30
0.0
 10
-990.2633
 20
106.1753
 30
0.0
 10
-1000.5863
 20
119.3437
 30
0.0
 10
-1000.5863
 20
119.3437
 30
0.0
 10
-1002.2298
 20
121.4402
 30
0.0
 10
-1003.5076
 20
122.9054
 30
0.0
 10
-1005.1033
 20
124.833
 30
0.0
 10
-1005.1033
 20
124.833
 30
0.0
 10
-1010.3799
 20
131.2071
 30
0.0
 10
-1019.8697
 20
138.2377
 30
0.0
 10
-1027.293
 20
142.1923
 30
0.0
 10
-1027.293
 20
142.1923
 30
0.0
 10
-1037.9529
 20
147.8709
 30
0.0
 10
-1045.1623
 20
149.5655
 30
0.0
 10
-1058.848
 20
150.055
 30
0.0
 10
-1058.848
 20
150.055
 30
0.0
 10
-1060.6275
 20
146.2258
 30
0.0
 10
-1053.9094
 20
135.6162
 30
0.0
 10
-1051.6022
 20
132.1783
 30
0.0
 10
-1051.6022
 20
132.1783
 30
0.0
 10
-1044.2162
 20
121.1725
 30
0.0
 10
-1034.8807
 20
110.6876
 30
0.0
 10
-1020.9256
 20
108.5542
 30
0.0
 10
-1020.9256
 20
108.5542
 30
0.0
 10
-1009.0876
 20
106.7445
 30
0.0
 10
-1007.7715
 20
112.1437
 30
0.0
 10
-999.1276
 20
104.3886
 30
0.0
 10
-999.1276
 20
104.3886
 30
0.0
 10
-1001.3362
 20
102.9065
 30
0.0
 10
-1021.2361
 20
99.2869
 30
0.0
 10
-1025.0642
 20
99.6623
 30
0.0
 10
-1025.0642
 20
99.6623
 30
0.0
 10
-1039.0407
 20
101.0331
 30
0.0
 10
-1053.4195
 20
116.0336
 30
0.0
 10
-1059.6259
 20
127.4867
 30
0.0
 10
-1059.6259
 20
127.4867
 30
0.0
 10
-1065.2321
 20
137.8323
 30
0.0
 10
-1065.7897
 20
141.3868
 30
0.0
 10
-1066.4128
 20
152.0732
 30
0.0
 10
-1066.4128
 20
152.0732
 30
0.0
 10
-1070.855
 20
153.1893
 30
0.0
 10
-1078.9953
 20
157.0278
 30
0.0
 10
-1083.9519
 20
154.9146
 30
0.0
  0
SPLINE
  5
7F
330
1F
100
AcDbEntity
  8
Katman 1
100
AcDbSpline
210
0.0
220
0.0
230
1.0
 70
    11
 71
     3
 72
    68
 73
    64
 74
     0
 42
0.000000001
 43
0.0000000001
 40
0.0
 40
0.0
 40
0.0
 40
0.0
 40
0.0588235294117647
 40
0.0588235294117647
 40
0.0588235294117647
 40
0.0588235294117647
 40
0.1176470588235294
 40
0.1176470588235294
 40
0.1176470588235294
 40
0.1176470588235294
 40
0.1764705882352941
 40
0.1764705882352941
 40
0.1764705882352941
 40
0.1764705882352941
 40
0.2352941176470588
 40
0.2352941176470588
 40
0.2352941176470588
 40
0.2352941176470588
 40
0.2941176470588235
 40
0.2941176470588235
 40
0.2941176470588235
 40
0.2941176470588235
 40
0.3529411764705883
 40
0.3529411764705883
 40
0.3529411764705883
 40
0.3529411764705883
 40
0.4117647058823529
 40
0.4117647058823529
 40
0.4117647058823529
 40
0.4117647058823529
 40
0.4705882352941176
 40
0.4705882352941176
 40
0.4705882352941176
 40
0.4705882352941176
 40
0.5294117647058824
 40
0.5294117647058824
 40
0.5294117647058824
 40
0.5294117647058824
 40
0.5882352941176471
 40
0.5882352941176471
 40
0.5882352941176471
 40
0.5882352941176471
 40
0.6470588235294118
 40
0.6470588235294118
 40
0.6470588235294118
 40
0.6470588235294118
 40
0.7058823529411765
 40
0.7058823529411765
 40
0.7058823529411765
 40
0.7058823529411765
 40
0.7647058823529411
 40
0.7647058823529411
 40
0.7647058823529411
 40
0.7647058823529411
 40
0.8235294117647058
 40
0.8235294117647058
 40
0.8235294117647058
 40
0.8235294117647058
 40
0.8823529411764706
 40
0.8823529411764706
 40
0.8823529411764706
 40
0.8823529411764706
 40
1.0
 40
1.0
 40
1.0
 40
1.0
 10
-602.1458
 20
-78.9781
 30
0.0
 10
-602.0088
 20
-59.8956
 30
0.0
 10
-612.6735
 20
-9.548
 30
0.0
 10
-619.3694
 20
8.7533
 30
0.0
 10
-619.3694
 20
8.7533
 30
0.0
 10
-621.8181
 20
15.4461
 30
0.0
 10
-630.203
 20
30.3197
 30
0.0
 10
-630.3626
 20
32.2641
 30
0.0
 10
-630.3626
 20
32.2641
 30
0.0
 10
-628.0692
 20
30.9686
 30
0.0
 10
-617.2258
 20
19.9625
 30
0.0
 10
-615.2693
 20
19.7679
 30
0.0
 10
-615.2693
 20
19.7679
 30
0.0
 10
-615.2693
 20
19.7679
 30
0.0
 10
-614.6115
 20
19.8561
 30
0.0
 10
-614.6115
 20
19.8561
 30
0.0
 10
-614.6115
 20
19.8561
 30
0.0
 10
-614.1167
 20
21.423
 30
0.0
 10
-614.3364
 20
20.9493
 30
0.0
 10
-616.2807
 20
24.2415
 30
0.0
 10
-616.2807
 20
24.2415
 30
0.0
 10
-617.2803
 20
25.9339
 30
0.0
 10
-618.1235
 20
27.2305
 30
0.0
 10
-619.0421
 20
28.6317
 30
0.0
 10
-619.0421
 20
28.6317
 30
0.0
 10
-624.4757
 20
36.9212
 30
0.0
 10
-633.8622
 20
47.8879
 30
0.0
 10
-640.4845
 20
55.3127
 30
0.0
 10
-640.4845
 20
55.3127
 30
0.0
 10
-644.9752
 20
60.3476
 30
0.0
 10
-651.9653
 20
69.2796
 30
0.0
 10
-655.6732
 20
74.9213
 30
0.0
 10
-655.6732
 20
74.9213
 30
0.0
 10
-656.9376
 20
76.8451
 30
0.0
 10
-659.8314
 20
82.2765
 30
0.0
 10
-661.001
 20
83.4323
 30
0.0
 10
-661.001
 20
83.4323
 30
0.0
 10
-661.807
 20
73.6672
 30
0.0
 10
-660.2774
 20
66.1624
 30
0.0
 10
-662.3446
 20
56.1027
 30
0.0
 10
-662.3446
 20
56.1027
 30
0.0
 10
-665.6515
 20
40.0113
 30
0.0
 10
-669.2805
 20
40.9785
 30
0.0
 10
-653.0594
 20
28.4422
 30
0.0
 10
-653.0594
 20
28.4422
 30
0.0
 10
-639.1712
 20
17.7089
 30
0.0
 10
-621.4614
 20
-18.0185
 30
0.0
 10
-615.1628
 20
-33.753
 30
0.0
 10
-615.1628
 20
-33.753
 30
0.0
 10
-612.5118
 20
-40.3753
 30
0.0
 10
-610.0174
 20
-48.2839
 30
0.0
 10
-608.2455
 20
-55.4079
 30
0.0
 10
-608.2455
 20
-55.4079
 30
0.0
 10
-607.2924
 20
-59.2401
 30
0.0
 10
-606.3353
 20
-63.0361
 30
0.0
 10
-605.4534
 20
-66.9398
 30
0.0
 10
-605.4534
 20
-66.9398
 30
0.0
 10
-605.4534
 20
-66.9398
 30
0.0
 10
-603.0586
 20
-77.4533
 30
0.0
 10
-603.0586
 20
-77.4533
 30
0.0
 10
-603.0586
 20
-77.4533
 30
0.0
 10
-602.3441
 20
-79.1651
 30
0.0
 10
-602.7774
 20
-78.2247
 30
0.0
 10
-602.1458
 20
-78.9781
 30
0.0
  0
SPLINE
  5
80
330
1F
100
AcDbEntity
  8
Katman 1
100
AcDbSpline
210
0.0
220
0.0
230
1.0
 70
    11
 71
     3
 72
    52
 73
    48
 74
     0
 42
0.000000001
 43
0.0000000001
 40
0.0
 40
0.0
 40
0.0
 40
0.0
 40
0.0769230769230769
 40
0.0769230769230769
 40
0.0769230769230769
 40
0.0769230769230769
 40
0.1538461538461539
 40
0.1538461538461539
 40
0.1538461538461539
 40
0.1538461538461539
 40
0.2307692307692308
 40
0.2307692307692308
 40
0.2307692307692308
 40
0.2307692307692308
 40
0.3076923076923077
 40
0.3076923076923077
 40
0.3076923076923077
 40
0.3076923076923077
 40
0.3846153846153846
 40
0.3846153846153846
 40
0.3846153846153846
 40
0.3846153846153846
 40
0.4615384615384616
 40
0.4615384615384616
 40
0.4615384615384616
 40
0.4615384615384616
 40
0.5384615384615384
 40
0.5384615384615384
 40
0.5384615384615384
 40
0.5384615384615384
 40
0.6153846153846154
 40
0.6153846153846154
 40
0.6153846153846154
 40
0.6153846153846154
 40
0.6923076923076923
 40
0.6923076923076923
 40
0.6923076923076923
 40
0.6923076923076923
 40
0.7692307692307693
 40
0.7692307692307693
 40
0.7692307692307693
 40
0.7692307692307693
 40
0.8461538461538461
 40
0.8461538461538461
 40
0.8461538461538461
 40
0.8461538461538461
 40
1.0
 40
1.0
 40
1.0
 40
1.0
 10
-972.1665
 20
109.6263
 30
0.0
 10
-965.9734
 20
103.1715
 30
0.0
 10
-958.6928
 20
106.873
 30
0.0
 10
-957.3816
 20
78.6364
 30
0.0
 10
-957.3816
 20
78.6364
 30
0.0
 10
-956.8524
 20
67.2401
 30
0.0
 10
-955.9513
 20
51.4891
 30
0.0
 10
-955.9535
 20
40.0371
 30
0.0
 10
-955.9535
 20
40.0371
 30
0.0
 10
-955.9545
 20
35.1499
 30
0.0
 10
-956.5428
 20
35.5543
 30
0.0
 10
-955.0119
 20
34.7227
 30
0.0
 10
-955.0119
 20
34.7227
 30
0.0
 10
-954.0646
 20
35.0851
 30
0.0
 10
-953.8319
 20
33.5146
 30
0.0
 10
-953.2666
 20
39.1671
 30
0.0
 10
-953.2666
 20
39.1671
 30
0.0
 10
-951.8087
 20
53.7437
 30
0.0
 10
-954.3428
 20
57.8285
 30
0.0
 10
-949.6627
 20
79.5185
 30
0.0
 10
-949.6627
 20
79.5185
 30
0.0
 10
-946.8782
 20
92.4233
 30
0.0
 10
-941.0703
 20
101.253
 30
0.0
 10
-929.8127
 20
106.8132
 30
0.0
 10
-929.8127
 20
106.8132
 30
0.0
 10
-929.7069
 20
106.8654
 30
0.0
 10
-928.9431
 20
107.263
 30
0.0
 10
-928.8662
 20
107.3148
 30
0.0
 10
-928.8662
 20
107.3148
 30
0.0
 10
-927.8275
 20
108.0139
 30
0.0
 10
-928.3943
 20
107.5282
 30
0.0
 10
-927.778
 20
108.2856
 30
0.0
 10
-927.778
 20
108.2856
 30
0.0
 10
-935.1239
 20
110.7283
 30
0.0
 10
-941.2243
 20
116.6976
 30
0.0
 10
-943.7886
 20
124.1947
 30
0.0
 10
-943.7886
 20
124.1947
 30
0.0
 10
-945.2533
 20
128.4768
 30
0.0
 10
-945.8526
 20
133.1082
 30
0.0
 10
-946.1949
 20
137.7696
 30
0.0
 10
-946.1949
 20
137.7696
 30
0.0
 10
-946.4664
 20
141.466
 30
0.0
 10
-946.4596
 20
149.7419
 30
0.0
 10
-947.7526
 20
152.5238
 30
0.0
 10
-947.7526
 20
152.5238
 30
0.0
 10
-952.3018
 20
140.621
 30
0.0
 10
-949.0529
 20
117.0257
 30
0.0
 10
-972.1665
 20
109.6263
 30
0.0
  0
SPLINE
  5
81
330
1F
100
AcDbEntity
  8
Katman 1
100
AcDbSpline
210
0.0
220
0.0
230
1.0
 70
    11
 71
     3
 72
    52
 73
    48
 74
     0
 42
0.000000001
 43
0.0000000001
 40
0.0
 40
0.0
 40
0.0
 40
0.0
 40
0.0769230769230769
 40
0.0769230769230769
 40
0.0769230769230769
 40
0.0769230769230769
 40
0.1538461538461539
 40
0.1538461538461539
 40
0.1538461538461539
 40
0.1538461538461539
 40
0.2307692307692308
 40
0.2307692307692308
 40
0.2307692307692308
 40
0.2307692307692308
 40
0.3076923076923077
 40
0.3076923076923077
 40
0.3076923076923077
 40
0.3076923076923077
 40
0.3846153846153846
 40
0.3846153846153846
 40
0.3846153846153846
 40
0.3846153846153846
 40
0.4615384615384616
 40
0.4615384615384616
 40
0.4615384615384616
 40
0.4615384615384616
 40
0.5384615384615384
 40
0.5384615384615384
 40
0.5384615384615384
 40
0.5384615384615384
 40
0.6153846153846154
 40
0.6153846153846154
 40
0.6153846153846154
 40
0.6153846153846154
 40
0.6923076923076923
 40
0.6923076923076923
 40
0.6923076923076923
 40
0.6923076923076923
 40
0.7692307692307693
 40
0.7692307692307693
 40
0.7692307692307693
 40
0.7692307692307693
 40
0.8461538461538461
 40
0.8461538461538461
 40
0.8461538461538461
 40
0.8461538461538461
 40
1.0
 40
1.0
 40
1.0
 40
1.0
 10
-872.7623
 20
-68.6391
 30
0.0
 10
-872.7528
 20
-79.0803
 30
0.0
 10
-870.6438
 20
-90.7368
 30
0.0
 10
-872.2219
 20
-99.9328
 30
0.0
 10
-872.2219
 20
-99.9328
 30
0.0
 10
-872.7256
 20
-102.8679
 30
0.0
 10
-874.0068
 20
-105.751
 30
0.0
 10
-874.2742
 20
-107.9619
 30
0.0
 10
-874.2742
 20
-107.9619
 30
0.0
 10
-873.796
 20
-107.0814
 30
0.0
 10
-871.05
 20
-103.9982
 30
0.0
 10
-870.2325
 20
-102.9218
 30
0.0
 10
-870.2325
 20
-102.9218
 30
0.0
 10
-868.9004
 20
-101.1678
 30
0.0
 10
-867.5353
 20
-99.383
 30
0.0
 10
-866.257
 20
-97.3601
 30
0.0
 10
-866.257
 20
-97.3601
 30
0.0
 10
-855.2528
 20
-79.9474
 30
0.0
 10
-859.0209
 20
-69.2644
 30
0.0
 10
-855.2117
 20
-51.1905
 30
0.0
 10
-855.2117
 20
-51.1905
 30
0.0
 10
-853.6795
 20
-52.6782
 30
0.0
 10
-851.2858
 20
-55.9705
 30
0.0
 10
-850.2526
 20
-57.7819
 30
0.0
 10
-850.2526
 20
-57.7819
 30
0.0
 10
-850.1952
 20
-57.6713
 30
0.0
 10
-850.1375
 20
-57.3643
 30
0.0
 10
-850.1245
 20
-57.4305
 30
0.0
 10
-850.1245
 20
-57.4305
 30
0.0
 10
-850.1116
 20
-57.4964
 30
0.0
 10
-850.0262
 20
-57.1576
 30
0.0
 10
-850.0115
 20
-57.0759
 30
0.0
 10
-850.0115
 20
-57.0759
 30
0.0
 10
-850.0115
 20
-57.0759
 30
0.0
 10
-849.9698
 20
-54.7481
 30
0.0
 10
-849.9698
 20
-54.7481
 30
0.0
 10
-849.9698
 20
-54.7481
 30
0.0
 10
-851.4298
 20
-38.2362
 30
0.0
 10
-845.1115
 20
-22.9639
 30
0.0
 10
-840.374
 20
-8.2613
 30
0.0
 10
-840.374
 20
-8.2613
 30
0.0
 10
-845.1857
 20
-9.264
 30
0.0
 10
-858.5291
 20
-28.0175
 30
0.0
 10
-861.9005
 20
-32.6055
 30
0.0
 10
-861.9005
 20
-32.6055
 30
0.0
 10
-869.4903
 20
-42.934
 30
0.0
 10
-872.7753
 20
-54.8845
 30
0.0
 10
-872.7623
 20
-68.6391
 30
0.0
  0
SPLINE
  5
82
330
1F
100
AcDbEntity
  8
Katman 1
100
AcDbSpline
210
0.0
220
0.0
230
1.0
 70
    11
 71
     3
 72
    48
 73
    44
 74
     0
 42
0.000000001
 43
0.0000000001
 40
0.0
 40
0.0
 40
0.0
 40
0.0
 40
0.0833333333333333
 40
0.0833333333333333
 40
0.0833333333333333
 40
0.0833333333333333
 40
0.1666666666666667
 40
0.1666666666666667
 40
0.1666666666666667
 40
0.1666666666666667
 40
0.25
 40
0.25
 40
0.25
 40
0.25
 40
0.3333333333333333
 40
0.3333333333333333
 40
0.3333333333333333
 40
0.3333333333333333
 40
0.4166666666666667
 40
0.4166666666666667
 40
0.4166666666666667
 40
0.4166666666666667
 40
0.5
 40
0.5
 40
0.5
 40
0.5
 40
0.5833333333333334
 40
0.5833333333333334
 40
0.5833333333333334
 40
0.5833333333333334
 40
0.6666666666666666
 40
0.6666666666666666
 40
0.6666666666666666
 40
0.6666666666666666
 40
0.75
 40
0.75
 40
0.75
 40
0.75
 40
0.8333333333333334
 40
0.8333333333333334
 40
0.8333333333333334
 40
0.8333333333333334
 40
1.0
 40
1.0
 40
1.0
 40
1.0
 10
-1024.695
 20
171.933
 30
0.0
 10
-1008.3784
 20
173.5394
 30
0.0
 10
-999.1412
 20
170.4834
 30
0.0
 10
-990.4718
 20
161.8675
 30
0.0
 10
-990.4718
 20
161.8675
 30
0.0
 10
-982.9027
 20
154.3452
 30
0.0
 10
-978.2549
 20
144.3792
 30
0.0
 10
-975.0814
 20
131.4262
 30
0.0
 10
-975.0814
 20
131.4262
 30
0.0
 10
-975.0814
 20
131.4262
 30
0.0
 10
-974.6136
 20
132.0274
 30
0.0
 10
-974.6136
 20
132.0274
 30
0.0
 10
-974.6136
 20
132.0274
 30
0.0
 10
-974.0341
 20
132.9927
 30
0.0
 10
-974.5163
 20
131.9857
 30
0.0
 10
-974.0782
 20
133.012
 30
0.0
 10
-974.0782
 20
133.012
 30
0.0
 10
-974.0782
 20
133.012
 30
0.0
 10
-972.6504
 20
138.722
 30
0.0
 10
-972.6504
 20
138.722
 30
0.0
 10
-972.6504
 20
138.722
 30
0.0
 10
-970.0183
 20
153.7759
 30
0.0
 10
-974.3398
 20
169.66
 30
0.0
 10
-980.508
 20
181.8446
 30
0.0
 10
-980.508
 20
181.8446
 30
0.0
 10
-984.1551
 20
189.049
 30
0.0
 10
-993.7262
 20
201.0072
 30
0.0
 10
-1002.6506
 20
202.774
 30
0.0
 10
-1002.6506
 20
202.774
 30
0.0
 10
-1001.572
 20
199.0928
 30
0.0
 10
-996.7899
 20
191.6826
 30
0.0
 10
-995.8814
 20
184.9006
 30
0.0
 10
-995.8814
 20
184.9006
 30
0.0
 10
-995.392
 20
181.2473
 30
0.0
 10
-996.3955
 20
180.5549
 30
0.0
 10
-999.5396
 20
179.9799
 30
0.0
 10
-999.5396
 20
179.9799
 30
0.0
 10
-1006.0967
 20
178.7806
 30
0.0
 10
-1016.4072
 20
178.0285
 30
0.0
 10
-1023.2967
 20
173.1794
 30
0.0
 10
-1023.2967
 20
173.1794
 30
0.0
 10
-1023.2967
 20
173.1794
 30
0.0
 10
-1024.695
 20
171.933
 30
0.0
 10
-1024.695
 20
171.933
 30
0.0
  0
SPLINE
  5
83
330
1F
100
AcDbEntity
  8
Katman 1
100
AcDbSpline
210
0.0
220
0.0
230
1.0
 70
    11
 71
     3
 72
    44
 73
    40
 74
     0
 42
0.000000001
 43
0.0000000001
 40
0.0
 40
0.0
 40
0.0
 40
0.0
 40
0.0909090909090909
 40
0.0909090909090909
 40
0.0909090909090909
 40
0.0909090909090909
 40
0.1818181818181818
 40
0.1818181818181818
 40
0.1818181818181818
 40
0.1818181818181818
 40
0.2727272727272727
 40
0.2727272727272727
 40
0.2727272727272727
 40
0.2727272727272727
 40
0.3636363636363636
 40
0.3636363636363636
 40
0.3636363636363636
 40
0.3636363636363636
 40
0.4545454545454545
 40
0.4545454545454545
 40
0.4545454545454545
 40
0.4545454545454545
 40
0.5454545454545454
 40
0.5454545454545454
 40
0.5454545454545454
 40
0.5454545454545454
 40
0.6363636363636364
 40
0.6363636363636364
 40
0.6363636363636364
 40
0.6363636363636364
 40
0.7272727272727273
 40
0.7272727272727273
 40
0.7272727272727273
 40
0.7272727272727273
 40
0.8181818181818182
 40
0.8181818181818182
 40
0.8181818181818182
 40
0.8181818181818182
 40
1.0
 40
1.0
 40
1.0
 40
1.0
 10
-925.9444
 20
128.9605
 30
0.0
 10
-925.181
 20
130.0023
 30
0.0
 10
-923.8677
 20
136.4763
 30
0.0
 10
-923.2216
 20
138.3691
 30
0.0
 10
-923.2216
 20
138.3691
 30
0.0
 10
-920.2151
 20
147.1765
 30
0.0
 10
-914.9333
 20
156.486
 30
0.0
 10
-909.0418
 20
162.8018
 30
0.0
 10
-909.0418
 20
162.8018
 30
0.0
 10
-899.5067
 20
173.0236
 30
0.0
 10
-891.7232
 20
177.9043
 30
0.0
 10
-871.9344
 20
176.1839
 30
0.0
 10
-871.9344
 20
176.1839
 30
0.0
 10
-871.9344
 20
176.1839
 30
0.0
 10
-872.4738
 20
176.7895
 30
0.0
 10
-872.4738
 20
176.7895
 30
0.0
 10
-872.4738
 20
176.7895
 30
0.0
 10
-876.2189
 20
180.1336
 30
0.0
 10
-890.4228
 20
182.9501
 30
0.0
 10
-895.4339
 20
183.0824
 30
0.0
 10
-895.4339
 20
183.0824
 30
0.0
 10
-899.5503
 20
183.1911
 30
0.0
 10
-904.4341
 20
181.1751
 30
0.0
 10
-904.9633
 20
184.0961
 30
0.0
 10
-904.9633
 20
184.0961
 30
0.0
 10
-905.6561
 20
187.92
 30
0.0
 10
-898.4354
 20
199.7085
 30
0.0
 10
-897.2697
 20
203.2507
 30
0.0
 10
-897.2697
 20
203.2507
 30
0.0
 10
-902.7806
 20
201.9731
 30
0.0
 10
-909.6862
 20
194.6597
 30
0.0
 10
-912.2307
 20
191.2473
 30
0.0
 10
-912.2307
 20
191.2473
 30
0.0
 10
-920.4236
 20
180.2601
 30
0.0
 10
-925.6335
 20
167.0835
 30
0.0
 10
-927.7687
 20
152.9539
 30
0.0
 10
-927.7687
 20
152.9539
 30
0.0
 10
-928.7694
 20
146.3315
 30
0.0
 10
-929.179
 20
134.2024
 30
0.0
 10
-925.9444
 20
128.9605
 30
0.0
  0
SPLINE
  5
84
330
1F
100
AcDbEntity
  8
Katman 1
100
AcDbSpline
210
0.0
220
0.0
230
1.0
 70
    11
 71
     3
 72
    28
 73
    24
 74
     0
 42
0.000000001
 43
0.0000000001
 40
0.0
 40
0.0
 40
0.0
 40
0.0
 40
0.1428571428571428
 40
0.1428571428571428
 40
0.1428571428571428
 40
0.1428571428571428
 40
0.2857142857142857
 40
0.2857142857142857
 40
0.2857142857142857
 40
0.2857142857142857
 40
0.4285714285714285
 40
0.4285714285714285
 40
0.4285714285714285
 40
0.4285714285714285
 40
0.5714285714285714
 40
0.5714285714285714
 40
0.5714285714285714
 40
0.5714285714285714
 40
0.7142857142857143
 40
0.7142857142857143
 40
0.7142857142857143
 40
0.7142857142857143
 40
1.0
 40
1.0
 40
1.0
 40
1.0
 10
-1014.9053
 20
-115.3518
 30
0.0
 10
-1014.8878
 20
-124.3155
 30
0.0
 10
-1014.9186
 20
-129.7102
 30
0.0
 10
-1010.0961
 20
-135.1856
 30
0.0
 10
-1010.0961
 20
-135.1856
 30
0.0
 10
-1008.4167
 20
-137.0923
 30
0.0
 10
-1005.7677
 20
-138.8751
 30
0.0
 10
-1001.7042
 20
-138.8241
 30
0.0
 10
-1001.7042
 20
-138.8241
 30
0.0
 10
-997.0465
 20
-138.7656
 30
0.0
 10
-996.0355
 20
-136.7693
 30
0.0
 10
-996.2158
 20
-132.0207
 30
0.0
 10
-996.2158
 20
-132.0207
 30
0.0
 10
-996.378
 20
-127.7507
 30
0.0
 10
-1008.6561
 20
-103.2189
 30
0.0
 10
-1011.0978
 20
-99.2179
 30
0.0
 10
-1011.0978
 20
-99.2179
 30
0.0
 10
-1015.0831
 20
-99.6399
 30
0.0
 10
-1014.6821
 20
-101.7152
 30
0.0
 10
-1014.731
 20
-105.5971
 30
0.0
 10
-1014.731
 20
-105.5971
 30
0.0
 10
-1014.772
 20
-108.843
 30
0.0
 10
-1014.9116
 20
-112.1092
 30
0.0
 10
-1014.9053
 20
-115.3518
 30
0.0
  0
SPLINE
  5
85
330
1F
100
AcDbEntity
  8
Katman 1
100
AcDbSpline
210
0.0
220
0.0
230
1.0
 70
    11
 71
     3
 72
    16
 73
    12
 74
     0
 42
0.000000001
 43
0.0000000001
 40
0.0
 40
0.0
 40
0.0
 40
0.0
 40
0.25
 40
0.25
 40
0.25
 40
0.25
 40
0.5
 40
0.5
 40
0.5
 40
0.5
 40
1.0
 40
1.0
 40
1.0
 40
1.0
 10
-912.5511
 20
-58.7278
 30
0.0
 10
-912.5511
 20
-58.7278
 30
0.0
 10
-910.4091
 20
-92.0545
 30
0.0
 10
-910.4091
 20
-92.0545
 30
0.0
 10
-910.4091
 20
-92.0545
 30
0.0
 10
-904.3952
 20
-88.076
 30
0.0
 10
-893.1198
 20
-64.9963
 30
0.0
 10
-892.6198
 20
-54.8568
 30
0.0
 10
-892.6198
 20
-54.8568
 30
0.0
 10
-892.6198
 20
-54.8568
 30
0.0
 10
-912.5511
 20
-58.7278
 30
0.0
 10
-912.5511
 20
-58.7278
 30
0.0
  0
SPLINE
  5
86
330
1F
100
AcDbEntity
  8
Katman 1
100
AcDbSpline
210
0.0
220
0.0
230
1.0
 70
    11
 71
     3
 72
    20
 73
    16
 74
     0
 42
0.000000001
 43
0.0000000001
 40
0.0
 40
0.0
 40
0.0
 40
0.0
 40
0.2
 40
0.2
 40
0.2
 40
0.2
 40
0.4
 40
0.4
 40
0.4
 40
0.4
 40
0.6
 40
0.6
 40
0.6
 40
0.6
 40
1.0
 40
1.0
 40
1.0
 40
1.0
 10
-1008.5213
 20
-93.7905
 30
0.0
 10
-1007.73
 20
-84.9297
 30
0.0
 10
-1007.5741
 20
-73.2511
 30
0.0
 10
-1007.9781
 20
-64.3278
 30
0.0
 10
-1007.9781
 20
-64.3278
 30
0.0
 10
-1008.1917
 20
-59.6101
 30
0.0
 10
-1011.6289
 20
-58.7413
 30
0.0
 10
-1015.6451
 20
-57.3043
 30
0.0
 10
-1015.6451
 20
-57.3043
 30
0.0
 10
-1019.1557
 20
-56.0481
 30
0.0
 10
-1023.378
 20
-54.1778
 30
0.0
 10
-1026.9418
 20
-53.3339
 30
0.0
 10
-1026.9418
 20
-53.3339
 30
0.0
 10
-1025.2763
 20
-62.5746
 30
0.0
 10
-1013.6875
 20
-88.9353
 30
0.0
 10
-1008.5213
 20
-93.7905
 30
0.0
  0
SPLINE
  5
87
330
1F
100
AcDbEntity
  8
Katman 1
100
AcDbSpline
210
0.0
220
0.0
230
1.0
 70
    11
 71
     3
 72
    40
 73
    36
 74
     0
 42
0.000000001
 43
0.0000000001
 40
0.0
 40
0.0
 40
0.0
 40
0.0
 40
0.1
 40
0.1
 40
0.1
 40
0.1
 40
0.2
 40
0.2
 40
0.2
 40
0.2
 40
0.3
 40
0.3
 40
0.3
 40
0.3
 40
0.4
 40
0.4
 40
0.4
 40
0.4
 40
0.5
 40
0.5
 40
0.5
 40
0.5
 40
0.6
 40
0.6
 40
0.6
 40
0.6
 40
0.7
 40
0.7
 40
0.7
 40
0.7
 40
0.8
 40
0.8
 40
0.8
 40
0.8
 40
1.0
 40
1.0
 40
1.0
 40
1.0
 10
-1047.4023
 20
143.8286
 30
0.0
 10
-1050.504
 20
139.8812
 30
0.0
 10
-1044.1575
 20
132.8634
 30
0.0
 10
-1042.6344
 20
130.6583
 30
0.0
 10
-1042.6344
 20
130.6583
 30
0.0
 10
-1034.8084
 20
119.3278
 30
0.0
 10
-1031.9133
 20
118.1584
 30
0.0
 10
-1021.0737
 20
113.5867
 30
0.0
 10
-1021.0737
 20
113.5867
 30
0.0
 10
-1018.4526
 20
112.4812
 30
0.0
 10
-1019.5479
 20
112.7453
 30
0.0
 10
-1017.4471
 20
113.4566
 30
0.0
 10
-1017.4471
 20
113.4566
 30
0.0
 10
-1014.7748
 20
114.3615
 30
0.0
 10
-1001.3455
 20
115.9202
 30
0.0
 10
-1009.8012
 20
125.3694
 30
0.0
 10
-1009.8012
 20
125.3694
 30
0.0
 10
-1011.9616
 20
127.7836
 30
0.0
 10
-1014.1917
 20
127.1194
 30
0.0
 10
-1016.281
 20
125.1585
 30
0.0
 10
-1016.281
 20
125.1585
 30
0.0
 10
-1020.669
 20
121.04
 30
0.0
 10
-1024.2586
 20
119.981
 30
0.0
 10
-1029.4982
 20
124.2586
 30
0.0
 10
-1029.4982
 20
124.2586
 30
0.0
 10
-1032.0852
 20
126.3705
 30
0.0
 10
-1035.3518
 20
131.6031
 30
0.0
 10
-1037.5866
 20
135.2338
 30
0.0
 10
-1037.5866
 20
135.2338
 30
0.0
 10
-1039.3153
 20
138.0423
 30
0.0
 10
-1038.3673
 20
139.803
 30
0.0
 10
-1040.9987
 20
141.3511
 30
0.0
 10
-1040.9987
 20
141.3511
 30
0.0
 10
-1042.218
 20
142.0684
 30
0.0
 10
-1046.7724
 20
144.6303
 30
0.0
 10
-1047.4023
 20
143.8286
 30
0.0
  0
SPLINE
  5
88
330
1F
100
AcDbEntity
  8
Katman 1
100
AcDbSpline
210
0.0
220
0.0
230
1.0
 70
    11
 71
     3
 72
    28
 73
    24
 74
     0
 42
0.000000001
 43
0.0000000001
 40
0.0
 40
0.0
 40
0.0
 40
0.0
 40
0.1428571428571428
 40
0.1428571428571428
 40
0.1428571428571428
 40
0.1428571428571428
 40
0.2857142857142857
 40
0.2857142857142857
 40
0.2857142857142857
 40
0.2857142857142857
 40
0.4285714285714285
 40
0.4285714285714285
 40
0.4285714285714285
 40
0.4285714285714285
 40
0.5714285714285714
 40
0.5714285714285714
 40
0.5714285714285714
 40
0.5714285714285714
 40
0.7142857142857143
 40
0.7142857142857143
 40
0.7142857142857143
 40
0.7142857142857143
 40
1.0
 40
1.0
 40
1.0
 40
1.0
 10
-911.6954
 20
-104.8448
 30
0.0
 10
-911.6954
 20
-104.8448
 30
0.0
 10
-923.8463
 20
-119.3547
 30
0.0
 10
-923.8463
 20
-119.3547
 30
0.0
 10
-923.8463
 20
-119.3547
 30
0.0
 10
-928.5905
 20
-125.3538
 30
0.0
 10
-934.8223
 20
-131.8113
 30
0.0
 10
-928.9033
 20
-136.909
 30
0.0
 10
-928.9033
 20
-136.909
 30
0.0
 10
-926.1828
 20
-139.252
 30
0.0
 10
-921.2681
 20
-138.3735
 30
0.0
 10
-918.6265
 20
-136.4954
 30
0.0
 10
-918.6265
 20
-136.4954
 30
0.0
 10
-911.5368
 20
-131.4548
 30
0.0
 10
-909.9461
 20
-116.8986
 30
0.0
 10
-910.8234
 20
-107.8614
 30
0.0
 10
-910.8234
 20
-107.8614
 30
0.0
 10
-910.8234
 20
-107.8614
 30
0.0
 10
-911.5072
 20
-105.1866
 30
0.0
 10
-911.5072
 20
-105.1866
 30
0.0
 10
-911.5072
 20
-105.1866
 30
0.0
 10
-911.5444
 20
-105.1035
 30
0.0
 10
-911.6182
 20
-104.9495
 30
0.0
 10
-911.6954
 20
-104.8448
 30
0.0
  0
SPLINE
  5
89
330
1F
100
AcDbEntity
  8
Katman 1
100
AcDbSpline
210
0.0
220
0.0
230
1.0
 70
    11
 71
     3
 72
    28
 73
    24
 74
     0
 42
0.000000001
 43
0.0000000001
 40
0.0
 40
0.0
 40
0.0
 40
0.0
 40
0.1428571428571428
 40
0.1428571428571428
 40
0.1428571428571428
 40
0.1428571428571428
 40
0.2857142857142857
 40
0.2857142857142857
 40
0.2857142857142857
 40
0.2857142857142857
 40
0.4285714285714285
 40
0.4285714285714285
 40
0.4285714285714285
 40
0.4285714285714285
 40
0.5714285714285714
 40
0.5714285714285714
 40
0.5714285714285714
 40
0.5714285714285714
 40
0.7142857142857143
 40
0.7142857142857143
 40
0.7142857142857143
 40
0.7142857142857143
 40
1.0
 40
1.0
 40
1.0
 40
1.0
 10
-895.4715
 20
125.9443
 30
0.0
 10
-896.9806
 20
120.4276
 30
0.0
 10
-900.5817
 20
113.8419
 30
0.0
 10
-891.6429
 20
113.8528
 30
0.0
 10
-891.6429
 20
113.8528
 30
0.0
 10
-880.2749
 20
113.8666
 30
0.0
 10
-865.3097
 20
125.1195
 30
0.0
 10
-862.0161
 20
135.7383
 30
0.0
 10
-862.0161
 20
135.7383
 30
0.0
 10
-860.5733
 20
140.3898
 30
0.0
 10
-862.0673
 20
140.6671
 30
0.0
 10
-863.8076
 20
143.5212
 30
0.0
 10
-863.8076
 20
143.5212
 30
0.0
 10
-868.368
 20
143.6295
 30
0.0
 10
-870.1636
 20
141.1141
 30
0.0
 10
-870.9239
 20
137.0302
 30
0.0
 10
-870.9239
 20
137.0302
 30
0.0
 10
-872.2573
 20
129.8677
 30
0.0
 10
-876.7137
 20
123.2223
 30
0.0
 10
-884.4874
 20
122.967
 30
0.0
 10
-884.4874
 20
122.967
 30
0.0
 10
-889.8558
 20
122.7907
 30
0.0
 10
-891.5854
 20
124.8925
 30
0.0
 10
-895.4715
 20
125.9443
 30
0.0
  0
ENDSEC
  0
SECTION
  2
OBJECTS
  0
DICTIONARY
  5
C
330
0
100
AcDbDictionary
281
     1
  3
ACAD_DETAILVIEWSTYLE
350
C5
  3
ACAD_GROUP
350
D
  3
ACAD_LAYOUT
350
1A
  3
ACAD_MATERIAL
350
43
  3
ACAD_MLEADERSTYLE
350
6B
  3
ACAD_MLINESTYLE
350
17
  3
ACAD_PLOTSETTINGS
350
19
  3
ACAD_PLOTSTYLENAME
350
E
  3
ACAD_SCALELIST
350
47
  3
ACAD_SECTIONVIEWSTYLE
350
C6
  3
ACAD_TABLESTYLE
350
69
  3
ACAD_VISUALSTYLE
350
2A
  3
ACDB_RECOMPOSE_DATA
350
C2
  3
AcDbVariableDictionary
350
8A
  0
SUN
  5
6D
330
29
100
AcDbSun
 90
        1
290
     0
 63
     7
421
 16777215
 40
1.0
291
     1
 91
  2455826
 92
 54000000
292
     0
 70
     2
 71
   256
280
     1
  0
DICTIONARY
  5
C5
102
{ACAD_REACTORS
330
C
102
}
330
C
100
AcDbDictionary
281
     1
  0
DICTIONARY
  5
D
102
{ACAD_REACTORS
330
C
102
}
330
C
100
AcDbDictionary
281
     1
  0
DICTIONARY
  5
1A
102
{ACAD_REACTORS
330
C
102
}
330
C
100
AcDbDictionary
281
     1
  3
Layout1
350
1E
  3
Layout2
350
26
  3
Model
350
22
  0
DICTIONARY
  5
43
102
{ACAD_REACTORS
330
C
102
}
330
C
100
AcDbDictionary
281
     1
  3
ByBlock
350
45
  3
ByLayer
350
44
  3
Global
350
46
  0
DICTIONARY
  5
6B
102
{ACAD_REACTORS
330
C
102
}
330
C
100
AcDbDictionary
281
     1
  3
Standard
350
6C
  0
DICTIONARY
  5
17
102
{ACAD_REACTORS
330
C
102
}
330
C
100
AcDbDictionary
281
     1
  3
Standard
350
18
  0
DICTIONARY
  5
19
102
{ACAD_REACTORS
330
C
102
}
330
C
100
AcDbDictionary
281
     1
  0
ACDBDICTIONARYWDFLT
  5
E
102
{ACAD_REACTORS
330
C
102
}
330
C
100
AcDbDictionary
281
     1
  3
Normal
350
F
100
AcDbDictionaryWithDefault
340
F
  0
DICTIONARY
  5
47
102
{ACAD_REACTORS
330
C
102
}
330
C
100
AcDbDictionary
281
     1
  3
A0
350
48
  3
A1
350
49
  3
A2
350
4A
  3
A3
350
4B
  3
A4
350
4C
  3
A5
350
4D
  3
A6
350
4E
  3
A7
350
4F
  3
A8
350
50
  3
A9
350
51
  3
B0
350
52
  3
B1
350
53
  3
B2
350
54
  3
B3
350
55
  3
B4
350
56
  3
B5
350
57
  3
B6
350
58
  3
B7
350
59
  3
B8
350
5A
  3
B9
350
5B
  3
C0
350
5C
  3
C1
350
5D
  3
C2
350
5E
  3
C3
350
5F
  3
C4
350
60
  3
C5
350
61
  3
C6
350
62
  3
C7
350
63
  3
C8
350
64
  3
C9
350
65
  3
D0
350
66
  3
D1
350
67
  3
D2
350
68
  0
DICTIONARY
  5
C6
102
{ACAD_REACTORS
330
C
102
}
330
C
100
AcDbDictionary
281
     1
  0
DICTIONARY
  5
69
102
{ACAD_REACTORS
330
C
102
}
330
C
100
AcDbDictionary
281
     1
  3
Standard
350
6A
  0
DICTIONARY
  5
2A
102
{ACAD_REACTORS
330
C
102
}
330
C
100
AcDbDictionary
281
     1
  3
2dWireframe
350
2F
  3
Basic
350
32
  3
Brighten
350
36
  3
ColorChange
350
3A
  3
Conceptual
350
34
  3
Dim
350
35
  3
EdgeColorOff
350
3D
  3
Facepattern
350
39
  3
Flat
350
2B
  3
FlatWithEdges
350
2C
  3
Gouraud
350
2D
  3
GouraudWithEdges
350
2E
  3
Hidden
350
31
  3
JitterOff
350
3B
  3
Linepattern
350
38
  3
OverhangOff
350
3C
  3
Realistic
350
33
  3
Shaded
350
42
  3
Shaded with edges
350
41
  3
Shades of Gray
350
3E
  3
Sketchy
350
3F
  3
Thicken
350
37
  3
Wireframe
350
30
  3
X-Ray
350
40
  0
XRECORD
  5
C2
102
{ACAD_REACTORS
330
C
102
}
330
C
100
AcDbXrecord
280
     1
 90
        1
330
6A
  0
DICTIONARY
  5
8A
102
{ACAD_REACTORS
330
C
102
}
330
C
100
AcDbDictionary
281
     1
  3
CANNOSCALE
350
8B
  3
CMLEADERSTYLE
350
C4
  3
CTABLESTYLE
350
C3
  3
XCLIPFRAME
350
8C
  0
LAYOUT
  5
1E
102
{ACAD_REACTORS
330
1A
102
}
330
1A
100
AcDbPlotSettings
  1

  2
none_device
  4

  6

 40
0.0
 41
0.0
 42
0.0
 43
0.0
 44
0.0
 45
0.0
 46
0.0
 47
0.0
 48
0.0
 49
0.0
140
0.0
141
0.0
142
1.0
143
1.0
 70
   688
 72
     0
 73
     0
 74
     5
  7

 75
    16
 76
     0
 77
     2
 78
   300
147
1.0
148
0.0
149
0.0
100
AcDbLayout
  1
Layout1
 70
     1
 71
     1
 10
0.0
 20
0.0
 11
12.0
 21
9.0
 12
0.0
 22
0.0
 32
0.0
 14
1.000000000000000E+20
 24
1.000000000000000E+20
 34
1.000000000000000E+20
 15
-1.000000000000000E+20
 25
-1.000000000000000E+20
 35
-1.000000000000000E+20
146
0.0
 13
0.0
 23
0.0
 33
0.0
 16
1.0
 26
0.0
 36
0.0
 17
0.0
 27
1.0
 37
0.0
 76
     0
330
1B
  0
LAYOUT
  5
26
102
{ACAD_REACTORS
330
1A
102
}
330
1A
100
AcDbPlotSettings
  1

  2
none_device
  4

  6

 40
0.0
 41
0.0
 42
0.0
 43
0.0
 44
0.0
 45
0.0
 46
0.0
 47
0.0
 48
0.0
 49
0.0
140
0.0
141
0.0
142
1.0
143
1.0
 70
   688
 72
     0
 73
     0
 74
     5
  7

 75
    16
 76
     0
 77
     2
 78
   300
147
1.0
148
0.0
149
0.0
100
AcDbLayout
  1
Layout2
 70
     1
 71
     2
 10
0.0
 20
0.0
 11
0.0
 21
0.0
 12
0.0
 22
0.0
 32
0.0
 14
0.0
 24
0.0
 34
0.0
 15
0.0
 25
0.0
 35
0.0
146
0.0
 13
0.0
 23
0.0
 33
0.0
 16
1.0
 26
0.0
 36
0.0
 17
0.0
 27
1.0
 37
0.0
 76
     0
330
23
  0
LAYOUT
  5
22
102
{ACAD_REACTORS
330
1A
102
}
330
1A
100
AcDbPlotSettings
  1

  2
none_device
  4
Letter_(8.50_x_11.00_Inches)
  6

 40
6.35
 41
6.35
 42
6.35000508
 43
6.35000508
 44
215.9
 45
279.4
 46
0.0
 47
0.0
 48
0.0
 49
0.0
140
0.0
141
0.0
142
1.0
143
1.0
 70
  1712
 72
     0
 73
     0
 74
     0
  7

 75
     0
 76
     0
 77
     2
 78
   300
147
1.0
148
0.0
149
0.0
100
AcDbLayout
  1
Model
 70
     1
 71
     0
 10
0.0
 20
0.0
 11
12.0
 21
9.0
 12
0.0
 22
0.0
 32
0.0
 14
-1282.0024
 24
-399.8733
 34
0.0
 15
-602.1444
 25
403.5504
 35
0.0
146
0.0
 13
0.0
 23
0.0
 33
0.0
 16
1.0
 26
0.0
 36
0.0
 17
0.0
 27
1.0
 37
0.0
 76
     0
330
1F
331
29
  0
MATERIAL
  5
45
102
{ACAD_REACTORS
330
43
102
}
330
43
100
AcDbMaterial
  1
ByBlock
 72
     1
 94
      127
  0
MATERIAL
  5
44
102
{ACAD_REACTORS
330
43
102
}
330
43
100
AcDbMaterial
  1
ByLayer
 72
     1
 94
      127
  0
MATERIAL
  5
46
102
{ACAD_REACTORS
330
43
102
}
330
43
100
AcDbMaterial
  1
Global
 72
     1
 94
      127
  0
MLEADERSTYLE
  5
6C
102
{ACAD_REACTORS
330
6B
102
}
102
{ACAD_XDICTIONARY
360
C0
102
}
330
6B
100
AcDbMLeaderStyle
170
     2
171
     1
172
     0
 90
        2
 40
0.0
 41
0.0
173
     1
 91
-1056964608
340
14
 92
       -2
290
     1
 42
0.09
291
     1
 43
0.36
  3
Standard
341
0
 44
0.18
300

342
11
174
     1
178
     6
175
     1
176
     0
 93
-1056964608
 45
0.18
292
     0
297
     0
 46
0.18
343
0
 94
-1056964608
 47
1.0
 49
1.0
140
1.0
293
     1
141
0.0
294
     1
177
     0
142
1.0
295
     0
296
     0
143
0.125
1001
ACAD_MLEADERVER
1070
     2
  0
MLINESTYLE
  5
18
102
{ACAD_REACTORS
330
17
102
}
330
17
100
AcDbMlineStyle
  2
Standard
 70
     0
  3

 62
   256
 51
90.0
 52
90.0
 71
     2
 49
0.5
 62
   256
  6
BYLAYER
 49
-0.5
 62
   256
  6
BYLAYER
  0
ACDBPLACEHOLDER
  5
F
102
{ACAD_REACTORS
330
E
102
}
330
E
  0
SCALE
  5
48
102
{ACAD_REACTORS
330
47
102
}
330
47
100
AcDbScale
 70
     0
300
1:1
140
1.0
141
1.0
290
     1
  0
SCALE
  5
49
102
{ACAD_REACTORS
330
47
102
}
330
47
100
AcDbScale
 70
     0
300
1:2
140
1.0
141
2.0
290
     0
  0
SCALE
  5
4A
102
{ACAD_REACTORS
330
47
102
}
330
47
100
AcDbScale
 70
     0
300
1:4
140
1.0
141
4.0
290
     0
  0
SCALE
  5
4B
102
{ACAD_REACTORS
330
47
102
}
330
47
100
AcDbScale
 70
     0
300
1:5
140
1.0
141
5.0
290
     0
  0
SCALE
  5
4C
102
{ACAD_REACTORS
330
47
102
}
330
47
100
AcDbScale
 70
     0
300
1:8
140
1.0
141
8.0
290
     0
  0
SCALE
  5
4D
102
{ACAD_REACTORS
330
47
102
}
330
47
100
AcDbScale
 70
     0
300
1:10
140
1.0
141
10.0
290
     0
  0
SCALE
  5
4E
102
{ACAD_REACTORS
330
47
102
}
330
47
100
AcDbScale
 70
     0
300
1:16
140
1.0
141
16.0
290
     0
  0
SCALE
  5
4F
102
{ACAD_REACTORS
330
47
102
}
330
47
100
AcDbScale
 70
     0
300
1:20
140
1.0
141
20.0
290
     0
  0
SCALE
  5
50
102
{ACAD_REACTORS
330
47
102
}
330
47
100
AcDbScale
 70
     0
300
1:30
140
1.0
141
30.0
290
     0
  0
SCALE
  5
51
102
{ACAD_REACTORS
330
47
102
}
330
47
100
AcDbScale
 70
     0
300
1:40
140
1.0
141
40.0
290
     0
  0
SCALE
  5
52
102
{ACAD_REACTORS
330
47
102
}
330
47
100
AcDbScale
 70
     0
300
1:50
140
1.0
141
50.0
290
     0
  0
SCALE
  5
53
102
{ACAD_REACTORS
330
47
102
}
330
47
100
AcDbScale
 70
     0
300
1:100
140
1.0
141
100.0
290
     0
  0
SCALE
  5
54
102
{ACAD_REACTORS
330
47
102
}
330
47
100
AcDbScale
 70
     0
300
2:1
140
2.0
141
1.0
290
     0
  0
SCALE
  5
55
102
{ACAD_REACTORS
330
47
102
}
330
47
100
AcDbScale
 70
     0
300
4:1
140
4.0
141
1.0
290
     0
  0
SCALE
  5
56
102
{ACAD_REACTORS
330
47
102
}
330
47
100
AcDbScale
 70
     0
300
8:1
140
8.0
141
1.0
290
     0
  0
SCALE
  5
57
102
{ACAD_REACTORS
330
47
102
}
330
47
100
AcDbScale
 70
     0
300
10:1
140
10.0
141
1.0
290
     0
  0
SCALE
  5
58
102
{ACAD_REACTORS
330
47
102
}
330
47
100
AcDbScale
 70
     0
300
100:1
140
100.0
141
1.0
290
     0
  0
SCALE
  5
59
102
{ACAD_REACTORS
330
47
102
}
330
47
100
AcDbScale
 70
     0
300
1/128\" = 1\'-0\"
140
0.0078125
141
12.0
290
     0
  0
SCALE
  5
5A
102
{ACAD_REACTORS
330
47
102
}
330
47
100
AcDbScale
 70
     0
300
1/64\" = 1\'-0\"
140
0.015625
141
12.0
290
     0
  0
SCALE
  5
5B
102
{ACAD_REACTORS
330
47
102
}
330
47
100
AcDbScale
 70
     0
300
1/32\" = 1\'-0\"
140
0.03125
141
12.0
290
     0
  0
SCALE
  5
5C
102
{ACAD_REACTORS
330
47
102
}
330
47
100
AcDbScale
 70
     0
300
1/16\" = 1\'-0\"
140
0.0625
141
12.0
290
     0
  0
SCALE
  5
5D
102
{ACAD_REACTORS
330
47
102
}
330
47
100
AcDbScale
 70
     0
300
3/32\" = 1\'-0\"
140
0.09375
141
12.0
290
     0
  0
SCALE
  5
5E
102
{ACAD_REACTORS
330
47
102
}
330
47
100
AcDbScale
 70
     0
300
1/8\" = 1\'-0\"
140
0.125
141
12.0
290
     0
  0
SCALE
  5
5F
102
{ACAD_REACTORS
330
47
102
}
330
47
100
AcDbScale
 70
     0
300
3/16\" = 1\'-0\"
140
0.1875
141
12.0
290
     0
  0
SCALE
  5
60
102
{ACAD_REACTORS
330
47
102
}
330
47
100
AcDbScale
 70
     0
300
1/4\" = 1\'-0\"
140
0.25
141
12.0
290
     0
  0
SCALE
  5
61
102
{ACAD_REACTORS
330
47
102
}
330
47
100
AcDbScale
 70
     0
300
3/8\" = 1\'-0\"
140
0.375
141
12.0
290
     0
  0
SCALE
  5
62
102
{ACAD_REACTORS
330
47
102
}
330
47
100
AcDbScale
 70
     0
300
1/2\" = 1\'-0\"
140
0.5
141
12.0
290
     0
  0
SCALE
  5
63
102
{ACAD_REACTORS
330
47
102
}
330
47
100
AcDbScale
 70
     0
300
3/4\" = 1\'-0\"
140
0.75
141
12.0
290
     0
  0
SCALE
  5
64
102
{ACAD_REACTORS
330
47
102
}
330
47
100
AcDbScale
 70
     0
300
1\" = 1\'-0\"
140
1.0
141
12.0
290
     0
  0
SCALE
  5
65
102
{ACAD_REACTORS
330
47
102
}
330
47
100
AcDbScale
 70
     0
300
1-1/2\" = 1\'-0\"
140
1.5
141
12.0
290
     0
  0
SCALE
  5
66
102
{ACAD_REACTORS
330
47
102
}
330
47
100
AcDbScale
 70
     0
300
3\" = 1\'-0\"
140
3.0
141
12.0
290
     0
  0
SCALE
  5
67
102
{ACAD_REACTORS
330
47
102
}
330
47
100
AcDbScale
 70
     0
300
6\" = 1\'-0\"
140
6.0
141
12.0
290
     0
  0
SCALE
  5
68
102
{ACAD_REACTORS
330
47
102
}
330
47
100
AcDbScale
 70
     0
300
1\'-0\" = 1\'-0\"
140
12.0
141
12.0
290
     0
  0
TABLESTYLE
  5
6A
102
{ACAD_REACTORS
330
69
102
}
102
{ACAD_XDICTIONARY
360
BD
102
}
330
69
100
AcDbTableStyle
  3
Standard
 70
     0
 71
     0
 40
0.06
 41
0.06
280
     0
281
     0
  7
Standard
140
0.18
170
     2
 62
     0
 63
   257
283
     0
 90
        4
 91
        0
  1

274
    -2
284
     1
 64
     0
275
    -2
285
     1
 65
     0
276
    -2
286
     1
 66
     0
277
    -2
287
     1
 67
     0
278
    -2
288
     1
 68
     0
279
    -2
289
     1
 69
     0
  7
Standard
140
0.25
170
     5
 62
     0
 63
   257
283
     0
 90
        4
 91
        0
  1

274
    -2
284
     1
 64
     0
275
    -2
285
     1
 65
     0
276
    -2
286
     1
 66
     0
277
    -2
287
     1
 67
     0
278
    -2
288
     1
 68
     0
279
    -2
289
     1
 69
     0
  7
Standard
140
0.18
170
     5
 62
     0
 63
   257
283
     0
 90
        4
 91
        0
  1

274
    -2
284
     1
 64
     0
275
    -2
285
     1
 65
     0
276
    -2
286
     1
 66
     0
277
    -2
287
     1
 67
     0
278
    -2
288
     1
 68
     0
279
    -2
289
     1
 69
     0
  0
VISUALSTYLE
  5
2F
102
{ACAD_REACTORS
330
2A
102
}
102
{ACAD_XDICTIONARY
360
95
102
}
330
2A
100
AcDbVisualStyle
  2
2dWireframe
 70
     4
 71
     0
 72
     2
 73
     0
 90
        0
 40
0.6
 41
30.0
 62
     5
 63
     7
421
 16777215
 74
     1
 91
        4
 64
     7
 65
   257
 75
     1
175
     1
 42
1.0
 92
        0
 66
   257
 43
1.0
 76
     1
 77
     6
 78
     2
 67
     7
 79
     5
170
     0
171
     0
290
     0
174
     0
 93
        1
 44
0.0
173
     0
291
     0
 45
0.0
  0
VISUALSTYLE
  5
32
102
{ACAD_REACTORS
330
2A
102
}
102
{ACAD_XDICTIONARY
360
9B
102
}
330
2A
100
AcDbVisualStyle
  2
Basic
 70
     7
 71
     1
 72
     0
 73
     1
 90
        0
 40
0.6
 41
30.0
 62
     5
 63
     7
421
 16777215
 74
     0
 91
        4
 64
     7
 65
   257
 75
     1
175
     1
 42
1.0
 92
        8
 66
     7
 43
1.0
 76
     1
 77
     6
 78
     2
 67
     7
 79
     5
170
     0
171
     0
290
     0
174
     0
 93
        1
 44
0.0
173
     0
291
     1
 45
0.0
  0
VISUALSTYLE
  5
36
102
{ACAD_REACTORS
330
2A
102
}
102
{ACAD_XDICTIONARY
360
A3
102
}
330
2A
100
AcDbVisualStyle
  2
Brighten
 70
    12
 71
     2
 72
     2
 73
     0
 90
        0
 40
0.6
 41
30.0
 62
     5
 63
     7
421
 16777215
 74
     1
 91
        4
 64
     7
 65
   257
 75
     1
175
     1
 42
1.0
 92
        8
 66
     7
 43
1.0
 76
     1
 77
     6
 78
     2
 67
     7
 79
     5
170
     0
171
     0
290
     0
174
     0
 93
        1
 44
50.0
173
     0
291
     1
 45
0.0
  0
VISUALSTYLE
  5
3A
102
{ACAD_REACTORS
330
2A
102
}
102
{ACAD_XDICTIONARY
360
AB
102
}
330
2A
100
AcDbVisualStyle
  2
ColorChange
 70
    16
 71
     2
 72
     2
 73
     3
 90
        0
 40
0.6
 41
30.0
 62
     5
 63
     8
421
  8421504
 74
     1
 91
        4
 64
     7
 65
   257
 75
     1
175
     1
 42
1.0
 92
        8
 66
     8
424
  8421504
 43
1.0
 76
     1
 77
     6
 78
     2
 67
     7
 79
     5
170
     0
171
     0
290
     0
174
     0
 93
        1
 44
0.0
173
     0
291
     1
 45
0.0
  0
VISUALSTYLE
  5
34
102
{ACAD_REACTORS
330
2A
102
}
102
{ACAD_XDICTIONARY
360
9F
102
}
330
2A
100
AcDbVisualStyle
  2
Conceptual
 70
     9
 71
     3
 72
     2
 73
     0
 90
        0
 40
0.6
 41
30.0
 62
     5
 63
     7
421
 16777215
 74
     2
 91
        2
 64
     7
 65
   257
 75
     1
175
     1
 42
179.0
 92
        8
 66
     7
 43
1.0
 76
     1
 77
     6
 78
     2
 67
     7
 79
     3
170
     0
171
     0
290
     0
174
     0
 93
        1
 44
0.0
173
     0
291
     0
 45
0.0
  0
VISUALSTYLE
  5
35
102
{ACAD_REACTORS
330
2A
102
}
102
{ACAD_XDICTIONARY
360
A1
102
}
330
2A
100
AcDbVisualStyle
  2
Dim
 70
    11
 71
     2
 72
     2
 73
     0
 90
        0
 40
0.6
 41
30.0
 62
     5
 63
     7
421
 16777215
 74
     1
 91
        4
 64
     7
 65
   257
 75
     1
175
     1
 42
1.0
 92
        8
 66
     7
 43
1.0
 76
     1
 77
     6
 78
     2
 67
     7
 79
     5
170
     0
171
     0
290
     0
174
     0
 93
        1
 44
-50.0
173
     0
291
     1
 45
0.0
  0
VISUALSTYLE
  5
3D
102
{ACAD_REACTORS
330
2A
102
}
102
{ACAD_XDICTIONARY
360
B1
102
}
330
2A
100
AcDbVisualStyle
  2
EdgeColorOff
 70
    22
 71
     2
 72
     2
 73
     0
 90
        0
 40
0.6
 41
30.0
 62
     5
 63
     7
421
 16777215
 74
     1
 91
        4
 64
     7
 65
   257
 75
     1
175
     1
 42
1.0
 92
        8
 66
     7
 43
1.0
 76
     1
 77
     6
 78
     2
 67
     7
 79
     5
170
     0
171
     0
290
     0
174
     0
 93
        1
 44
0.0
173
     0
291
     1
 45
0.0
  0
VISUALSTYLE
  5
39
102
{ACAD_REACTORS
330
2A
102
}
102
{ACAD_XDICTIONARY
360
A9
102
}
330
2A
100
AcDbVisualStyle
  2
Facepattern
 70
    15
 71
     2
 72
     2
 73
     0
 90
        0
 40
0.6
 41
30.0
 62
     5
 63
     7
421
 16777215
 74
     1
 91
        4
 64
     7
 65
   257
 75
     1
175
     1
 42
1.0
 92
        8
 66
     7
 43
1.0
 76
     1
 77
     6
 78
     2
 67
     7
 79
     5
170
     0
171
     0
290
     0
174
     0
 93
        1
 44
0.0
173
     0
291
     1
 45
0.0
  0
VISUALSTYLE
  5
2B
102
{ACAD_REACTORS
330
2A
102
}
102
{ACAD_XDICTIONARY
360
8D
102
}
330
2A
100
AcDbVisualStyle
  2
Flat
 70
     0
 71
     2
 72
     1
 73
     1
 90
        2
 40
0.6
 41
30.0
 62
     5
 63
     7
421
 16777215
 74
     0
 91
        0
 64
     7
 65
   257
 75
     1
175
     1
 42
1.0
 92
        8
 66
     7
 43
1.0
 76
     1
 77
     6
 78
     2
 67
     7
 79
     5
170
     0
171
     0
290
     0
174
     0
 93
       13
 44
0.0
173
     0
291
     1
 45
0.0
  0
VISUALSTYLE
  5
2C
102
{ACAD_REACTORS
330
2A
102
}
102
{ACAD_XDICTIONARY
360
8F
102
}
330
2A
100
AcDbVisualStyle
  2
FlatWithEdges
 70
     1
 71
     2
 72
     1
 73
     1
 90
        2
 40
0.6
 41
30.0
 62
     5
 63
     7
421
 16777215
 74
     1
 91
        0
 64
     7
 65
   257
 75
     1
175
     1
 42
1.0
 92
        0
 66
   257
 43
1.0
 76
     1
 77
     6
 78
     2
 67
     7
 79
     5
170
     0
171
     0
290
     0
174
     0
 93
       13
 44
0.0
173
     0
291
     1
 45
0.0
  0
VISUALSTYLE
  5
2D
102
{ACAD_REACTORS
330
2A
102
}
102
{ACAD_XDICTIONARY
360
91
102
}
330
2A
100
AcDbVisualStyle
  2
Gouraud
 70
     2
 71
     2
 72
     2
 73
     1
 90
        2
 40
0.6
 41
30.0
 62
     5
 63
     7
421
 16777215
 74
     0
 91
        0
 64
     7
 65
   257
 75
     1
175
     1
 42
1.0
 92
        0
 66
     7
 43
1.0
 76
     1
 77
     6
 78
     2
 67
     7
 79
     5
170
     0
171
     0
290
     0
174
     0
 93
       13
 44
0.0
173
     0
291
     1
 45
0.0
  0
VISUALSTYLE
  5
2E
102
{ACAD_REACTORS
330
2A
102
}
102
{ACAD_XDICTIONARY
360
93
102
}
330
2A
100
AcDbVisualStyle
  2
GouraudWithEdges
 70
     3
 71
     2
 72
     2
 73
     1
 90
        2
 40
0.6
 41
30.0
 62
     5
 63
     7
421
 16777215
 74
     1
 91
        0
 64
     7
 65
   257
 75
     1
175
     1
 42
1.0
 92
        0
 66
   257
 43
1.0
 76
     1
 77
     6
 78
     2
 67
     7
 79
     5
170
     0
171
     0
290
     0
174
     0
 93
       13
 44
0.0
173
     0
291
     1
 45
0.0
  0
VISUALSTYLE
  5
31
102
{ACAD_REACTORS
330
2A
102
}
102
{ACAD_XDICTIONARY
360
99
102
}
330
2A
100
AcDbVisualStyle
  2
Hidden
 70
     6
 71
     1
 72
     2
 73
     2
 90
        0
 40
0.6
 41
30.0
 62
     5
 63
     7
421
 16777215
 74
     2
 91
        2
 64
     7
 65
   257
 75
     2
175
     1
 42
40.0
 92
        0
 66
   257
 43
1.0
 76
     1
 77
     6
 78
     2
 67
     7
 79
     3
170
     0
171
     0
290
     0
174
     0
 93
        1
 44
0.0
173
     0
291
     0
 45
0.0
  0
VISUALSTYLE
  5
3B
102
{ACAD_REACTORS
330
2A
102
}
102
{ACAD_XDICTIONARY
360
AD
102
}
330
2A
100
AcDbVisualStyle
  2
JitterOff
 70
    20
 71
     2
 72
     2
 73
     0
 90
        0
 40
0.6
 41
30.0
 62
     5
 63
     7
421
 16777215
 74
     1
 91
        4
 64
     7
 65
   257
 75
     1
175
     1
 42
1.0
 92
       10
 66
     7
 43
1.0
 76
     1
 77
     6
 78
     2
 67
     7
 79
     5
170
     0
171
     0
290
     0
174
     0
 93
        1
 44
0.0
173
     0
291
     1
 45
0.0
  0
VISUALSTYLE
  5
38
102
{ACAD_REACTORS
330
2A
102
}
102
{ACAD_XDICTIONARY
360
A7
102
}
330
2A
100
AcDbVisualStyle
  2
Linepattern
 70
    14
 71
     2
 72
     2
 73
     0
 90
        0
 40
0.6
 41
30.0
 62
     5
 63
     7
421
 16777215
 74
     1
 91
        4
 64
     7
 65
   257
 75
     7
175
     7
 42
1.0
 92
        8
 66
     7
 43
1.0
 76
     1
 77
     6
 78
     2
 67
     7
 79
     5
170
     0
171
     0
290
     0
174
     0
 93
        1
 44
0.0
173
     0
291
     1
 45
0.0
  0
VISUALSTYLE
  5
3C
102
{ACAD_REACTORS
330
2A
102
}
102
{ACAD_XDICTIONARY
360
AF
102
}
330
2A
100
AcDbVisualStyle
  2
OverhangOff
 70
    21
 71
     2
 72
     2
 73
     0
 90
        0
 40
0.6
 41
30.0
 62
     5
 63
     7
421
 16777215
 74
     1
 91
        4
 64
     7
 65
   257
 75
     1
175
     1
 42
1.0
 92
        9
 66
     7
 43
1.0
 76
     1
 77
     6
 78
     2
 67
     7
 79
     5
170
     0
171
     0
290
     0
174
     0
 93
        1
 44
0.0
173
     0
291
     1
 45
0.0
  0
VISUALSTYLE
  5
33
102
{ACAD_REACTORS
330
2A
102
}
102
{ACAD_XDICTIONARY
360
9D
102
}
330
2A
100
AcDbVisualStyle
  2
Realistic
 70
     8
 71
     2
 72
     3
 73
     0
 90
        2
 40
0.6
 41
30.0
 62
     5
 63
     7
421
 16777215
 74
     0
 91
        0
 64
     7
 65
   257
 75
     1
175
     1
 42
1.0
 92
        8
 66
   257
 43
1.0
 76
     1
 77
     6
 78
     2
 67
     7
 79
     3
170
     0
171
     0
290
     0
174
     0
 93
       13
 44
0.0
173
     0
291
     0
 45
0.0
  0
VISUALSTYLE
  5
42
102
{ACAD_REACTORS
330
2A
102
}
102
{ACAD_XDICTIONARY
360
BB
102
}
330
2A
100
AcDbVisualStyle
  2
Shaded
 70
    27
 71
     2
 72
     2
 73
     1
 90
        2
 40
0.6
 41
30.0
 62
     5
 63
     7
421
 16777215
 74
     0
 91
        4
 64
     7
 65
   257
 75
     1
175
     1
 42
1.0
 92
        8
 66
   257
 43
1.0
 76
     1
 77
     6
 78
     2
 67
     8
425
  7895160
 79
     3
170
     0
171
     0
290
     0
174
     0
 93
        5
 44
0.0
173
     0
291
     0
 45
0.0
  0
VISUALSTYLE
  5
41
102
{ACAD_REACTORS
330
2A
102
}
102
{ACAD_XDICTIONARY
360
B9
102
}
330
2A
100
AcDbVisualStyle
  2
Shaded with edges
 70
    26
 71
     2
 72
     2
 73
     1
 90
        2
 40
0.6
 41
30.0
 62
     5
 63
     7
421
 16777215
 74
     1
 91
       10
 64
     7
 65
   257
 75
     2
175
     1
 42
1.0
 92
        8
 66
   257
 43
1.0
 76
     1
 77
     6
 78
     2
 67
     7
 79
     3
170
     0
171
     0
290
     0
174
     0
 93
        5
 44
0.0
173
     0
291
     0
 45
0.0
  0
VISUALSTYLE
  5
3E
102
{ACAD_REACTORS
330
2A
102
}
102
{ACAD_XDICTIONARY
360
B3
102
}
330
2A
100
AcDbVisualStyle
  2
Shades of Gray
 70
    23
 71
     2
 72
     2
 73
     3
 90
        0
 40
0.6
 41
30.0
 62
     5
 63
     7
421
 16777215
 74
     2
 91
        2
 64
     7
 65
     7
 75
     1
175
     1
 42
40.0
 92
        8
 66
     7
 43
1.0
 76
     1
 77
     6
 78
     2
 67
     7
 79
     3
170
     0
171
     0
290
     0
174
     0
 93
        1
 44
0.0
173
     0
291
     0
 45
0.0
  0
VISUALSTYLE
  5
3F
102
{ACAD_REACTORS
330
2A
102
}
102
{ACAD_XDICTIONARY
360
B5
102
}
330
2A
100
AcDbVisualStyle
  2
Sketchy
 70
    24
 71
     1
 72
     2
 73
     2
 90
        0
 40
0.6
 41
30.0
 62
     5
 63
     7
421
 16777215
 74
     2
 91
        2
 64
     7
 65
     7
 75
     1
175
     1
 42
40.0
 92
       11
 66
     7
 43
1.0
 76
     1
 77
     6
 78
     2
 67
     7
 79
     6
170
     0
171
     0
290
     0
174
     0
 93
        1
 44
0.0
173
     0
291
     0
 45
0.0
  0
VISUALSTYLE
  5
37
102
{ACAD_REACTORS
330
2A
102
}
102
{ACAD_XDICTIONARY
360
A5
102
}
330
2A
100
AcDbVisualStyle
  2
Thicken
 70
    13
 71
     2
 72
     2
 73
     0
 90
        0
 40
0.6
 41
30.0
 62
     5
 63
     7
421
 16777215
 74
     1
 91
        4
 64
     7
 65
   257
 75
     1
175
     1
 42
1.0
 92
       12
 66
     7
 43
1.0
 76
     1
 77
     6
 78
     2
 67
     7
 79
     5
170
     0
171
     0
290
     0
174
     0
 93
        1
 44
0.0
173
     0
291
     1
 45
0.0
  0
VISUALSTYLE
  5
30
102
{ACAD_REACTORS
330
2A
102
}
102
{ACAD_XDICTIONARY
360
97
102
}
330
2A
100
AcDbVisualStyle
  2
Wireframe
 70
     5
 71
     0
 72
     2
 73
     0
 90
        0
 40
0.6
 41
30.0
 62
     5
 63
     7
421
 16777215
 74
     1
 91
        4
 64
     7
 65
   257
 75
     1
175
     1
 42
1.0
 92
        0
 66
   257
 43
1.0
 76
     1
 77
     6
 78
     2
 67
     7
 79
     3
170
     0
171
     0
290
     0
174
     0
 93
        1
 44
0.0
173
     0
291
     0
 45
0.0
  0
VISUALSTYLE
  5
40
102
{ACAD_REACTORS
330
2A
102
}
102
{ACAD_XDICTIONARY
360
B7
102
}
330
2A
100
AcDbVisualStyle
  2
X-Ray
 70
    25
 71
     2
 72
     2
 73
     1
 90
        1
 40
0.5
 41
30.0
 62
     5
 63
     7
421
 16777215
 74
     1
 91
        0
 64
     7
 65
   257
 75
     1
175
     1
 42
1.0
 92
        8
 66
     7
 43
1.0
 76
     1
 77
     6
 78
     2
 67
     7
 79
     3
170
     0
171
     0
290
     0
174
     0
 93
       13
 44
0.0
173
     0
291
     0
 45
0.0
  0
DICTIONARYVAR
  5
8B
102
{ACAD_REACTORS
330
8A
102
}
330
8A
100
DictionaryVariables
280
     0
  1
1:1
  0
DICTIONARYVAR
  5
C4
102
{ACAD_REACTORS
330
8A
102
}
330
8A
100
DictionaryVariables
280
     0
  1
Standard
  0
DICTIONARYVAR
  5
C3
102
{ACAD_REACTORS
330
8A
102
}
330
8A
100
DictionaryVariables
280
     0
  1
Standard
  0
DICTIONARYVAR
  5
8C
102
{ACAD_REACTORS
330
8A
102
}
330
8A
100
DictionaryVariables
280
     0
  1
2
  0
DICTIONARY
  5
C0
330
6C
100
AcDbDictionary
280
     1
281
     1
  3
ACAD_XREC_ROUNDTRIP
360
C1
  0
DICTIONARY
  5
BD
330
6A
100
AcDbDictionary
280
     1
281
     1
  3
ACAD_ROUNDTRIP_2008_TABLESTYLE_CELLSTYLEMAP
360
BE
  0
DICTIONARY
  5
95
330
2F
100
AcDbDictionary
280
     1
281
     1
  3
ACAD_XREC_ROUNDTRIP
360
96
  0
DICTIONARY
  5
9B
330
32
100
AcDbDictionary
280
     1
281
     1
  3
ACAD_XREC_ROUNDTRIP
360
9C
  0
DICTIONARY
  5
A3
330
36
100
AcDbDictionary
280
     1
281
     1
  3
ACAD_XREC_ROUNDTRIP
360
A4
  0
DICTIONARY
  5
AB
330
3A
100
AcDbDictionary
280
     1
281
     1
  3
ACAD_XREC_ROUNDTRIP
360
AC
  0
DICTIONARY
  5
9F
330
34
100
AcDbDictionary
280
     1
281
     1
  3
ACAD_XREC_ROUNDTRIP
360
A0
  0
DICTIONARY
  5
A1
330
35
100
AcDbDictionary
280
     1
281
     1
  3
ACAD_XREC_ROUNDTRIP
360
A2
  0
DICTIONARY
  5
B1
330
3D
100
AcDbDictionary
280
     1
281
     1
  3
ACAD_XREC_ROUNDTRIP
360
B2
  0
DICTIONARY
  5
A9
330
39
100
AcDbDictionary
280
     1
281
     1
  3
ACAD_XREC_ROUNDTRIP
360
AA
  0
DICTIONARY
  5
8D
330
2B
100
AcDbDictionary
280
     1
281
     1
  3
ACAD_XREC_ROUNDTRIP
360
8E
  0
DICTIONARY
  5
8F
330
2C
100
AcDbDictionary
280
     1
281
     1
  3
ACAD_XREC_ROUNDTRIP
360
90
  0
DICTIONARY
  5
91
330
2D
100
AcDbDictionary
280
     1
281
     1
  3
ACAD_XREC_ROUNDTRIP
360
92
  0
DICTIONARY
  5
93
330
2E
100
AcDbDictionary
280
     1
281
     1
  3
ACAD_XREC_ROUNDTRIP
360
94
  0
DICTIONARY
  5
99
330
31
100
AcDbDictionary
280
     1
281
     1
  3
ACAD_XREC_ROUNDTRIP
360
9A
  0
DICTIONARY
  5
AD
330
3B
100
AcDbDictionary
280
     1
281
     1
  3
ACAD_XREC_ROUNDTRIP
360
AE
  0
DICTIONARY
  5
A7
330
38
100
AcDbDictionary
280
     1
281
     1
  3
ACAD_XREC_ROUNDTRIP
360
A8
  0
DICTIONARY
  5
AF
330
3C
100
AcDbDictionary
280
     1
281
     1
  3
ACAD_XREC_ROUNDTRIP
360
B0
  0
DICTIONARY
  5
9D
330
33
100
AcDbDictionary
280
     1
281
     1
  3
ACAD_XREC_ROUNDTRIP
360
9E
  0
DICTIONARY
  5
BB
330
42
100
AcDbDictionary
280
     1
281
     1
  3
ACAD_XREC_ROUNDTRIP
360
BC
  0
DICTIONARY
  5
B9
330
41
100
AcDbDictionary
280
     1
281
     1
  3
ACAD_XREC_ROUNDTRIP
360
BA
  0
DICTIONARY
  5
B3
330
3E
100
AcDbDictionary
280
     1
281
     1
  3
ACAD_XREC_ROUNDTRIP
360
B4
  0
DICTIONARY
  5
B5
330
3F
100
AcDbDictionary
280
     1
281
     1
  3
ACAD_XREC_ROUNDTRIP
360
B6
  0
DICTIONARY
  5
A5
330
37
100
AcDbDictionary
280
     1
281
     1
  3
ACAD_XREC_ROUNDTRIP
360
A6
  0
DICTIONARY
  5
97
330
30
100
AcDbDictionary
280
     1
281
     1
  3
ACAD_XREC_ROUNDTRIP
360
98
  0
DICTIONARY
  5
B7
330
40
100
AcDbDictionary
280
     1
281
     1
  3
ACAD_XREC_ROUNDTRIP
360
B8
  0
XRECORD
  5
C1
102
{ACAD_REACTORS
330
C0
102
}
330
C0
100
AcDbXrecord
280
     1
102
ACAD_ROUNDTRIP_2010_MLEADER_STYLE
  0
CELLSTYLEMAP
  5
BE
102
{ACAD_REACTORS
330
BD
102
}
330
BD
100
AcDbCellStyleMap
 90
        3
300
CELLSTYLE
  1
TABLEFORMAT_BEGIN
 90
        5
170
     1
 91
        0
 92
    32768
 62
   257
 93
        1
300
CONTENTFORMAT
  1
CONTENTFORMAT_BEGIN
 90
        0
 91
        0
 92
        4
 93
        0
300

 40
0.0
140
1.0
 94
        5
 62
     0
340
11
144
0.25
309
CONTENTFORMAT_END
171
     1
301
MARGIN
  1
CELLMARGIN_BEGIN
 40
0.06
 40
0.06
 40
0.06
 40
0.06
 40
0.06
 40
0.06
309
CELLMARGIN_END
 94
        6
 95
        1
302
GRIDFORMAT
  1
GRIDFORMAT_BEGIN
 90
        0
 91
        1
 62
     0
 92
       -2
340
14
 93
        0
 40
0.045
309
GRIDFORMAT_END
 95
        2
302
GRIDFORMAT
  1
GRIDFORMAT_BEGIN
 90
        0
 91
        1
 62
     0
 92
       -2
340
14
 93
        0
 40
0.045
309
GRIDFORMAT_END
 95
        4
302
GRIDFORMAT
  1
GRIDFORMAT_BEGIN
 90
        0
 91
        1
 62
     0
 92
       -2
340
14
 93
        0
 40
0.045
309
GRIDFORMAT_END
 95
        8
302
GRIDFORMAT
  1
GRIDFORMAT_BEGIN
 90
        0
 91
        1
 62
     0
 92
       -2
340
14
 93
        0
 40
0.045
309
GRIDFORMAT_END
 95
       16
302
GRIDFORMAT
  1
GRIDFORMAT_BEGIN
 90
        0
 91
        1
 62
     0
 92
       -2
340
14
 93
        0
 40
0.045
309
GRIDFORMAT_END
 95
       32
302
GRIDFORMAT
  1
GRIDFORMAT_BEGIN
 90
        0
 91
        1
 62
     0
 92
       -2
340
14
 93
        0
 40
0.045
309
GRIDFORMAT_END
309
TABLEFORMAT_END
  1
CELLSTYLE_BEGIN
 90
        1
 91
        1
300
_TITLE
309
CELLSTYLE_END
300
CELLSTYLE
  1
TABLEFORMAT_BEGIN
 90
        5
170
     1
 91
        0
 92
        0
 62
   257
 93
        1
300
CONTENTFORMAT
  1
CONTENTFORMAT_BEGIN
 90
        0
 91
        0
 92
        4
 93
        0
300

 40
0.0
140
1.0
 94
        5
 62
     0
340
11
144
0.18
309
CONTENTFORMAT_END
171
     1
301
MARGIN
  1
CELLMARGIN_BEGIN
 40
0.06
 40
0.06
 40
0.06
 40
0.06
 40
0.06
 40
0.06
309
CELLMARGIN_END
 94
        6
 95
        1
302
GRIDFORMAT
  1
GRIDFORMAT_BEGIN
 90
        0
 91
        1
 62
     0
 92
       -2
340
14
 93
        0
 40
0.045
309
GRIDFORMAT_END
 95
        2
302
GRIDFORMAT
  1
GRIDFORMAT_BEGIN
 90
        0
 91
        1
 62
     0
 92
       -2
340
14
 93
        0
 40
0.045
309
GRIDFORMAT_END
 95
        4
302
GRIDFORMAT
  1
GRIDFORMAT_BEGIN
 90
        0
 91
        1
 62
     0
 92
       -2
340
14
 93
        0
 40
0.045
309
GRIDFORMAT_END
 95
        8
302
GRIDFORMAT
  1
GRIDFORMAT_BEGIN
 90
        0
 91
        1
 62
     0
 92
       -2
340
14
 93
        0
 40
0.045
309
GRIDFORMAT_END
 95
       16
302
GRIDFORMAT
  1
GRIDFORMAT_BEGIN
 90
        0
 91
        1
 62
     0
 92
       -2
340
14
 93
        0
 40
0.045
309
GRIDFORMAT_END
 95
       32
302
GRIDFORMAT
  1
GRIDFORMAT_BEGIN
 90
        0
 91
        1
 62
     0
 92
       -2
340
14
 93
        0
 40
0.045
309
GRIDFORMAT_END
309
TABLEFORMAT_END
  1
CELLSTYLE_BEGIN
 90
        2
 91
        1
300
_HEADER
309
CELLSTYLE_END
300
CELLSTYLE
  1
TABLEFORMAT_BEGIN
 90
        5
170
     1
 91
        0
 92
        0
 62
   257
 93
        1
300
CONTENTFORMAT
  1
CONTENTFORMAT_BEGIN
 90
        0
 91
        0
 92
        4
 93
        0
300

 40
0.0
140
1.0
 94
        2
 62
     0
340
11
144
0.18
309
CONTENTFORMAT_END
171
     1
301
MARGIN
  1
CELLMARGIN_BEGIN
 40
0.06
 40
0.06
 40
0.06
 40
0.06
 40
0.06
 40
0.06
309
CELLMARGIN_END
 94
        6
 95
        1
302
GRIDFORMAT
  1
GRIDFORMAT_BEGIN
 90
        0
 91
        1
 62
     0
 92
       -2
340
14
 93
        0
 40
0.045
309
GRIDFORMAT_END
 95
        2
302
GRIDFORMAT
  1
GRIDFORMAT_BEGIN
 90
        0
 91
        1
 62
     0
 92
       -2
340
14
 93
        0
 40
0.045
309
GRIDFORMAT_END
 95
        4
302
GRIDFORMAT
  1
GRIDFORMAT_BEGIN
 90
        0
 91
        1
 62
     0
 92
       -2
340
14
 93
        0
 40
0.045
309
GRIDFORMAT_END
 95
        8
302
GRIDFORMAT
  1
GRIDFORMAT_BEGIN
 90
        0
 91
        1
 62
     0
 92
       -2
340
14
 93
        0
 40
0.045
309
GRIDFORMAT_END
 95
       16
302
GRIDFORMAT
  1
GRIDFORMAT_BEGIN
 90
        0
 91
        1
 62
     0
 92
       -2
340
14
 93
        0
 40
0.045
309
GRIDFORMAT_END
 95
       32
302
GRIDFORMAT
  1
GRIDFORMAT_BEGIN
 90
        0
 91
        1
 62
     0
 92
       -2
340
14
 93
        0
 40
0.045
309
GRIDFORMAT_END
309
TABLEFORMAT_END
  1
CELLSTYLE_BEGIN
 90
        3
 91
        2
300
_DATA
309
CELLSTYLE_END
  0
XRECORD
  5
96
102
{ACAD_REACTORS
330
95
102
}
330
95
100
AcDbXrecord
280
     1
102
RTVSPropertyOp0
 70
     1
102
RTVSPropertyOp1
 70
     1
102
RTVSPropertyOp2
 70
     1
102
RTVSPropertyOp3
 70
     1
102
RTVSPropertyOp4
 70
     1
102
RTVSPropertyOp5
 70
     1
102
RTVSPropertyOp6
 70
     1
102
RTVSPropertyOp7
 70
     1
102
RTVSPropertyOp8
 70
     1
102
RTVSPropertyOp9
 70
     1
102
RTVSPropertyOp10
 70
     1
102
RTVSPropertyOp11
 70
     1
102
RTVSPropertyOp12
 70
     1
102
RTVSPropertyOp13
 70
     1
102
RTVSPropertyOp14
 70
     1
102
RTVSPropertyOp15
 70
     1
102
RTVSPropertyOp16
 70
     1
102
RTVSPropertyOp17
 70
     1
102
RTVSPropertyOp18
 70
     1
102
RTVSPropertyOp19
 70
     1
102
RTVSPropertyOp20
 70
     1
102
RTVSPropertyOp21
 70
     1
102
RTVSPropertyOp22
 70
     1
102
RTVSPropertyOp23
 70
     1
102
RTVSPropertyOp24
 70
     1
102
RTVSPropertyOp25
 70
     1
102
RTVSPropertyOp26
 70
     1
102
RTVSPropertyOp27
 70
     1
102
RTVSPropertyOp28
 70
     1
102
RTVSPropertyOp29
 70
     1
102
RTVSPropertyOp30
 70
     1
102
RTVSPropertyOp31
 70
     1
102
RTVSPropertyOp32
 70
     1
102
RTVSPropertyOp33
 70
     1
102
RTVSPropertyOp34
 70
     1
102
RTVSPropertyOp35
 70
     1
102
RTVSPropertyOp36
 70
     1
102
RTVSPropertyOp37
 70
     1
102
RTVSPropertyOp38
 70
     1
102
RTVSPropertyOp39
 70
     1
102
RTVSPropertyOp40
 70
     1
102
RTVSPropertyOp41
 70
     1
102
RTVSPropertyOp42
 70
     1
102
RTVSPropertyOp43
 70
     1
102
RTVSPropertyOp44
 70
     1
102
RTVSPropertyOp45
 70
     1
102
RTVSPropertyOp46
 70
     1
102
RTVSPropertyOp47
 70
     1
102
RTVSPropertyOp48
 70
     1
102
RTVSPropertyOp49
 70
     1
102
RTVSPropertyOp50
 70
     1
102
RTVSPropertyOp51
 70
     0
102
RTVSPropertyOp52
 70
     0
102
RTVSPropertyOp53
 70
     1
102
RTVSPropertyOp54
 70
     1
102
RTVSPropertyOp55
 70
     1
102
RTVSPropertyOp56
 70
     1
102
RTVSPropertyOp57
 70
     1
102
RTVSPost2010Prop28
280
     1
102
RTVSPost2010PropOp28
 70
     1
102
RTVSPost2010Prop29
280
     1
102
RTVSPost2010PropOp29
 70
     1
102
RTVSPost2010Prop30
280
     0
102
RTVSPost2010PropOp30
 70
     1
102
RTVSPost2010Prop31
280
     0
102
RTVSPost2010PropOp31
 70
     1
102
RTVSPost2010Prop32
280
     0
102
RTVSPost2010PropOp32
 70
     1
102
RTVSPost2010Prop33
280
     0
102
RTVSPost2010PropOp33
 70
     1
102
RTVSPost2010Prop34
280
     0
102
RTVSPost2010PropOp34
 70
     1
102
RTVSPost2010Prop35
280
     0
102
RTVSPost2010PropOp35
 70
     1
102
RTVSPost2010Prop36
280
     0
102
RTVSPost2010PropOp36
 70
     1
102
RTVSPost2010Prop37
 90
       50
102
RTVSPost2010PropOp37
 70
     1
102
RTVSPost2010Prop38
140
0.0
102
RTVSPost2010PropOp38
 70
     1
102
RTVSPost2010Prop39
140
1.0
102
RTVSPost2010PropOp39
 70
     1
102
RTVSPost2010Prop40
 90
        0
102
RTVSPost2010PropOp40
 70
     1
102
RTVSPost2010Prop41ColorIndex
 90
       18
102
RTVSPost2010Prop41ColorRGB
 90
        0
102
RTVSPost2010PropOp41
 70
     1
102
RTVSPost2010Prop42
 90
       50
102
RTVSPost2010PropOp42
 70
     1
102
RTVSPost2010Prop43
 90
        3
102
RTVSPost2010PropOp43
 70
     1
102
RTVSPost2010Prop44ColorIndex
 90
        5
102
RTVSPost2010Prop44ColorRGB
 90
      255
102
RTVSPost2010PropOp44
 70
     1
102
RTVSPost2010Prop45
280
     0
102
RTVSPost2010PropOp45
 70
     1
102
RTVSPost2010Prop46
 90
       50
102
RTVSPost2010PropOp46
 70
     1
102
RTVSPost2010Prop47
 90
       50
102
RTVSPost2010PropOp47
 70
     1
102
RTVSPost2010Prop48
 90
       50
102
RTVSPost2010PropOp48
 70
     1
102
RTVSPost2010Prop49
280
     0
102
RTVSPost2010PropOp49
 70
     1
102
RTVSPost2010Prop50
 90
       50
102
RTVSPost2010PropOp50
 70
     1
102
RTVSPost2010Prop51ColorIndex
 90
      256
102
RTVSPost2010Prop51ColorRGB
 90
-16777216
102
RTVSPost2010PropOp51
 70
     0
102
RTVSPost2010Prop52
140
1.0
102
RTVSPost2010PropOp52
 70
     0
102
RTVSPost2010Prop53
 90
        2
102
RTVSPost2010PropOp53
 70
     1
102
RTVSPost2010Prop54
  1
strokes_ogs.tif
102
RTVSPost2010PropOp54
 70
     1
102
RTVSPost2010Prop55
280
     0
102
RTVSPost2010PropOp55
 70
     1
102
RTVSPost2010Prop56
140
1.0
102
RTVSPost2010PropOp56
 70
     1
102
RTVSPost2010Prop57
140
1.0
102
RTVSPost2010PropOp57
 70
     1
  0
XRECORD
  5
9C
102
{ACAD_REACTORS
330
9B
102
}
330
9B
100
AcDbXrecord
280
     1
102
RTVSPropertyOp0
 70
     1
102
RTVSPropertyOp1
 70
     1
102
RTVSPropertyOp2
 70
     1
102
RTVSPropertyOp3
 70
     1
102
RTVSPropertyOp4
 70
     1
102
RTVSPropertyOp5
 70
     1
102
RTVSPropertyOp6
 70
     1
102
RTVSPropertyOp7
 70
     1
102
RTVSPropertyOp8
 70
     1
102
RTVSPropertyOp9
 70
     1
102
RTVSPropertyOp10
 70
     1
102
RTVSPropertyOp11
 70
     1
102
RTVSPropertyOp12
 70
     1
102
RTVSPropertyOp13
 70
     1
102
RTVSPropertyOp14
 70
     1
102
RTVSPropertyOp15
 70
     1
102
RTVSPropertyOp16
 70
     1
102
RTVSPropertyOp17
 70
     1
102
RTVSPropertyOp18
 70
     1
102
RTVSPropertyOp19
 70
     1
102
RTVSPropertyOp20
 70
     1
102
RTVSPropertyOp21
 70
     1
102
RTVSPropertyOp22
 70
     1
102
RTVSPropertyOp23
 70
     1
102
RTVSPropertyOp24
 70
     1
102
RTVSPropertyOp25
 70
     1
102
RTVSPropertyOp26
 70
     1
102
RTVSPropertyOp27
 70
     1
102
RTVSPropertyOp28
 70
     1
102
RTVSPropertyOp29
 70
     1
102
RTVSPropertyOp30
 70
     1
102
RTVSPropertyOp31
 70
     1
102
RTVSPropertyOp32
 70
     1
102
RTVSPropertyOp33
 70
     1
102
RTVSPropertyOp34
 70
     1
102
RTVSPropertyOp35
 70
     1
102
RTVSPropertyOp36
 70
     1
102
RTVSPropertyOp37
 70
     1
102
RTVSPropertyOp38
 70
     1
102
RTVSPropertyOp39
 70
     1
102
RTVSPropertyOp40
 70
     1
102
RTVSPropertyOp41
 70
     1
102
RTVSPropertyOp42
 70
     1
102
RTVSPropertyOp43
 70
     1
102
RTVSPropertyOp44
 70
     1
102
RTVSPropertyOp45
 70
     1
102
RTVSPropertyOp46
 70
     1
102
RTVSPropertyOp47
 70
     1
102
RTVSPropertyOp48
 70
     1
102
RTVSPropertyOp49
 70
     1
102
RTVSPropertyOp50
 70
     1
102
RTVSPropertyOp51
 70
     0
102
RTVSPropertyOp52
 70
     0
102
RTVSPropertyOp53
 70
     1
102
RTVSPropertyOp54
 70
     1
102
RTVSPropertyOp55
 70
     1
102
RTVSPropertyOp56
 70
     1
102
RTVSPropertyOp57
 70
     1
102
RTVSPost2010Prop28
280
     0
102
RTVSPost2010PropOp28
 70
     1
102
RTVSPost2010Prop29
280
     1
102
RTVSPost2010PropOp29
 70
     1
102
RTVSPost2010Prop30
280
     1
102
RTVSPost2010PropOp30
 70
     1
102
RTVSPost2010Prop31
280
     0
102
RTVSPost2010PropOp31
 70
     1
102
RTVSPost2010Prop32
280
     0
102
RTVSPost2010PropOp32
 70
     1
102
RTVSPost2010Prop33
280
     0
102
RTVSPost2010PropOp33
 70
     1
102
RTVSPost2010Prop34
280
     0
102
RTVSPost2010PropOp34
 70
     1
102
RTVSPost2010Prop35
280
     0
102
RTVSPost2010PropOp35
 70
     1
102
RTVSPost2010Prop36
280
     0
102
RTVSPost2010PropOp36
 70
     1
102
RTVSPost2010Prop37
 90
       50
102
RTVSPost2010PropOp37
 70
     1
102
RTVSPost2010Prop38
140
0.0
102
RTVSPost2010PropOp38
 70
     1
102
RTVSPost2010Prop39
140
1.0
102
RTVSPost2010PropOp39
 70
     1
102
RTVSPost2010Prop40
 90
        0
102
RTVSPost2010PropOp40
 70
     1
102
RTVSPost2010Prop41ColorIndex
 90
       18
102
RTVSPost2010Prop41ColorRGB
 90
        0
102
RTVSPost2010PropOp41
 70
     1
102
RTVSPost2010Prop42
 90
       50
102
RTVSPost2010PropOp42
 70
     1
102
RTVSPost2010Prop43
 90
        3
102
RTVSPost2010PropOp43
 70
     1
102
RTVSPost2010Prop44ColorIndex
 90
        5
102
RTVSPost2010Prop44ColorRGB
 90
      255
102
RTVSPost2010PropOp44
 70
     1
102
RTVSPost2010Prop45
280
     0
102
RTVSPost2010PropOp45
 70
     1
102
RTVSPost2010Prop46
 90
       50
102
RTVSPost2010PropOp46
 70
     1
102
RTVSPost2010Prop47
 90
       50
102
RTVSPost2010PropOp47
 70
     1
102
RTVSPost2010Prop48
 90
       50
102
RTVSPost2010PropOp48
 70
     1
102
RTVSPost2010Prop49
280
     0
102
RTVSPost2010PropOp49
 70
     1
102
RTVSPost2010Prop50
 90
       50
102
RTVSPost2010PropOp50
 70
     1
102
RTVSPost2010Prop51ColorIndex
 90
      256
102
RTVSPost2010Prop51ColorRGB
 90
-16777216
102
RTVSPost2010PropOp51
 70
     0
102
RTVSPost2010Prop52
140
1.0
102
RTVSPost2010PropOp52
 70
     0
102
RTVSPost2010Prop53
 90
        2
102
RTVSPost2010PropOp53
 70
     1
102
RTVSPost2010Prop54
  1
strokes_ogs.tif
102
RTVSPost2010PropOp54
 70
     1
102
RTVSPost2010Prop55
280
     0
102
RTVSPost2010PropOp55
 70
     1
102
RTVSPost2010Prop56
140
1.0
102
RTVSPost2010PropOp56
 70
     1
102
RTVSPost2010Prop57
140
1.0
102
RTVSPost2010PropOp57
 70
     1
  0
XRECORD
  5
A4
102
{ACAD_REACTORS
330
A3
102
}
330
A3
100
AcDbXrecord
280
     1
102
RTVSPropertyOp0
 70
     1
102
RTVSPropertyOp1
 70
     1
102
RTVSPropertyOp2
 70
     1
102
RTVSPropertyOp3
 70
     1
102
RTVSPropertyOp4
 70
     1
102
RTVSPropertyOp5
 70
     1
102
RTVSPropertyOp6
 70
     1
102
RTVSPropertyOp7
 70
     1
102
RTVSPropertyOp8
 70
     1
102
RTVSPropertyOp9
 70
     1
102
RTVSPropertyOp10
 70
     1
102
RTVSPropertyOp11
 70
     1
102
RTVSPropertyOp12
 70
     1
102
RTVSPropertyOp13
 70
     1
102
RTVSPropertyOp14
 70
     1
102
RTVSPropertyOp15
 70
     1
102
RTVSPropertyOp16
 70
     1
102
RTVSPropertyOp17
 70
     1
102
RTVSPropertyOp18
 70
     1
102
RTVSPropertyOp19
 70
     1
102
RTVSPropertyOp20
 70
     1
102
RTVSPropertyOp21
 70
     1
102
RTVSPropertyOp22
 70
     1
102
RTVSPropertyOp23
 70
     1
102
RTVSPropertyOp24
 70
     1
102
RTVSPropertyOp25
 70
     1
102
RTVSPropertyOp26
 70
     1
102
RTVSPropertyOp27
 70
     1
102
RTVSPropertyOp28
 70
     1
102
RTVSPropertyOp29
 70
     1
102
RTVSPropertyOp30
 70
     1
102
RTVSPropertyOp31
 70
     1
102
RTVSPropertyOp32
 70
     1
102
RTVSPropertyOp33
 70
     1
102
RTVSPropertyOp34
 70
     1
102
RTVSPropertyOp35
 70
     1
102
RTVSPropertyOp36
 70
     1
102
RTVSPropertyOp37
 70
     1
102
RTVSPropertyOp38
 70
     1
102
RTVSPropertyOp39
 70
     1
102
RTVSPropertyOp40
 70
     1
102
RTVSPropertyOp41
 70
     1
102
RTVSPropertyOp42
 70
     1
102
RTVSPropertyOp43
 70
     1
102
RTVSPropertyOp44
 70
     1
102
RTVSPropertyOp45
 70
     1
102
RTVSPropertyOp46
 70
     1
102
RTVSPropertyOp47
 70
     1
102
RTVSPropertyOp48
 70
     1
102
RTVSPropertyOp49
 70
     1
102
RTVSPropertyOp50
 70
     1
102
RTVSPropertyOp51
 70
     0
102
RTVSPropertyOp52
 70
     0
102
RTVSPropertyOp53
 70
     1
102
RTVSPropertyOp54
 70
     1
102
RTVSPropertyOp55
 70
     1
102
RTVSPropertyOp56
 70
     1
102
RTVSPropertyOp57
 70
     1
102
RTVSPost2010Prop28
280
     0
102
RTVSPost2010PropOp28
 70
     1
102
RTVSPost2010Prop29
280
     1
102
RTVSPost2010PropOp29
 70
     1
102
RTVSPost2010Prop30
280
     1
102
RTVSPost2010PropOp30
 70
     1
102
RTVSPost2010Prop31
280
     0
102
RTVSPost2010PropOp31
 70
     1
102
RTVSPost2010Prop32
280
     0
102
RTVSPost2010PropOp32
 70
     1
102
RTVSPost2010Prop33
280
     0
102
RTVSPost2010PropOp33
 70
     1
102
RTVSPost2010Prop34
280
     0
102
RTVSPost2010PropOp34
 70
     1
102
RTVSPost2010Prop35
280
     0
102
RTVSPost2010PropOp35
 70
     1
102
RTVSPost2010Prop36
280
     0
102
RTVSPost2010PropOp36
 70
     1
102
RTVSPost2010Prop37
 90
       50
102
RTVSPost2010PropOp37
 70
     1
102
RTVSPost2010Prop38
140
0.0
102
RTVSPost2010PropOp38
 70
     1
102
RTVSPost2010Prop39
140
1.0
102
RTVSPost2010PropOp39
 70
     1
102
RTVSPost2010Prop40
 90
        0
102
RTVSPost2010PropOp40
 70
     1
102
RTVSPost2010Prop41ColorIndex
 90
       18
102
RTVSPost2010Prop41ColorRGB
 90
        0
102
RTVSPost2010PropOp41
 70
     1
102
RTVSPost2010Prop42
 90
       50
102
RTVSPost2010PropOp42
 70
     1
102
RTVSPost2010Prop43
 90
        3
102
RTVSPost2010PropOp43
 70
     1
102
RTVSPost2010Prop44ColorIndex
 90
        5
102
RTVSPost2010Prop44ColorRGB
 90
      255
102
RTVSPost2010PropOp44
 70
     1
102
RTVSPost2010Prop45
280
     0
102
RTVSPost2010PropOp45
 70
     1
102
RTVSPost2010Prop46
 90
       50
102
RTVSPost2010PropOp46
 70
     1
102
RTVSPost2010Prop47
 90
       50
102
RTVSPost2010PropOp47
 70
     1
102
RTVSPost2010Prop48
 90
       50
102
RTVSPost2010PropOp48
 70
     1
102
RTVSPost2010Prop49
280
     0
102
RTVSPost2010PropOp49
 70
     1
102
RTVSPost2010Prop50
 90
       50
102
RTVSPost2010PropOp50
 70
     1
102
RTVSPost2010Prop51ColorIndex
 90
      256
102
RTVSPost2010Prop51ColorRGB
 90
-16777216
102
RTVSPost2010PropOp51
 70
     0
102
RTVSPost2010Prop52
140
1.0
102
RTVSPost2010PropOp52
 70
     0
102
RTVSPost2010Prop53
 90
        2
102
RTVSPost2010PropOp53
 70
     1
102
RTVSPost2010Prop54
  1
strokes_ogs.tif
102
RTVSPost2010PropOp54
 70
     1
102
RTVSPost2010Prop55
280
     0
102
RTVSPost2010PropOp55
 70
     1
102
RTVSPost2010Prop56
140
1.0
102
RTVSPost2010PropOp56
 70
     1
102
RTVSPost2010Prop57
140
1.0
102
RTVSPost2010PropOp57
 70
     1
  0
XRECORD
  5
AC
102
{ACAD_REACTORS
330
AB
102
}
330
AB
100
AcDbXrecord
280
     1
102
RTVSPropertyOp0
 70
     1
102
RTVSPropertyOp1
 70
     1
102
RTVSPropertyOp2
 70
     1
102
RTVSPropertyOp3
 70
     1
102
RTVSPropertyOp4
 70
     1
102
RTVSPropertyOp5
 70
     1
102
RTVSPropertyOp6
 70
     1
102
RTVSPropertyOp7
 70
     1
102
RTVSPropertyOp8
 70
     1
102
RTVSPropertyOp9
 70
     1
102
RTVSPropertyOp10
 70
     1
102
RTVSPropertyOp11
 70
     1
102
RTVSPropertyOp12
 70
     1
102
RTVSPropertyOp13
 70
     1
102
RTVSPropertyOp14
 70
     1
102
RTVSPropertyOp15
 70
     1
102
RTVSPropertyOp16
 70
     1
102
RTVSPropertyOp17
 70
     1
102
RTVSPropertyOp18
 70
     1
102
RTVSPropertyOp19
 70
     1
102
RTVSPropertyOp20
 70
     1
102
RTVSPropertyOp21
 70
     1
102
RTVSPropertyOp22
 70
     1
102
RTVSPropertyOp23
 70
     1
102
RTVSPropertyOp24
 70
     1
102
RTVSPropertyOp25
 70
     1
102
RTVSPropertyOp26
 70
     1
102
RTVSPropertyOp27
 70
     1
102
RTVSPropertyOp28
 70
     1
102
RTVSPropertyOp29
 70
     1
102
RTVSPropertyOp30
 70
     1
102
RTVSPropertyOp31
 70
     1
102
RTVSPropertyOp32
 70
     1
102
RTVSPropertyOp33
 70
     1
102
RTVSPropertyOp34
 70
     1
102
RTVSPropertyOp35
 70
     1
102
RTVSPropertyOp36
 70
     1
102
RTVSPropertyOp37
 70
     1
102
RTVSPropertyOp38
 70
     1
102
RTVSPropertyOp39
 70
     1
102
RTVSPropertyOp40
 70
     1
102
RTVSPropertyOp41
 70
     1
102
RTVSPropertyOp42
 70
     1
102
RTVSPropertyOp43
 70
     1
102
RTVSPropertyOp44
 70
     1
102
RTVSPropertyOp45
 70
     1
102
RTVSPropertyOp46
 70
     1
102
RTVSPropertyOp47
 70
     1
102
RTVSPropertyOp48
 70
     1
102
RTVSPropertyOp49
 70
     1
102
RTVSPropertyOp50
 70
     1
102
RTVSPropertyOp51
 70
     0
102
RTVSPropertyOp52
 70
     0
102
RTVSPropertyOp53
 70
     1
102
RTVSPropertyOp54
 70
     1
102
RTVSPropertyOp55
 70
     1
102
RTVSPropertyOp56
 70
     1
102
RTVSPropertyOp57
 70
     1
102
RTVSPost2010Prop28
280
     0
102
RTVSPost2010PropOp28
 70
     1
102
RTVSPost2010Prop29
280
     1
102
RTVSPost2010PropOp29
 70
     1
102
RTVSPost2010Prop30
280
     1
102
RTVSPost2010PropOp30
 70
     1
102
RTVSPost2010Prop31
280
     0
102
RTVSPost2010PropOp31
 70
     1
102
RTVSPost2010Prop32
280
     0
102
RTVSPost2010PropOp32
 70
     1
102
RTVSPost2010Prop33
280
     0
102
RTVSPost2010PropOp33
 70
     1
102
RTVSPost2010Prop34
280
     0
102
RTVSPost2010PropOp34
 70
     1
102
RTVSPost2010Prop35
280
     0
102
RTVSPost2010PropOp35
 70
     1
102
RTVSPost2010Prop36
280
     0
102
RTVSPost2010PropOp36
 70
     1
102
RTVSPost2010Prop37
 90
       50
102
RTVSPost2010PropOp37
 70
     1
102
RTVSPost2010Prop38
140
0.0
102
RTVSPost2010PropOp38
 70
     1
102
RTVSPost2010Prop39
140
1.0
102
RTVSPost2010PropOp39
 70
     1
102
RTVSPost2010Prop40
 90
        0
102
RTVSPost2010PropOp40
 70
     1
102
RTVSPost2010Prop41ColorIndex
 90
       18
102
RTVSPost2010Prop41ColorRGB
 90
        0
102
RTVSPost2010PropOp41
 70
     1
102
RTVSPost2010Prop42
 90
       50
102
RTVSPost2010PropOp42
 70
     1
102
RTVSPost2010Prop43
 90
        3
102
RTVSPost2010PropOp43
 70
     1
102
RTVSPost2010Prop44ColorIndex
 90
        5
102
RTVSPost2010Prop44ColorRGB
 90
      255
102
RTVSPost2010PropOp44
 70
     1
102
RTVSPost2010Prop45
280
     0
102
RTVSPost2010PropOp45
 70
     1
102
RTVSPost2010Prop46
 90
       50
102
RTVSPost2010PropOp46
 70
     1
102
RTVSPost2010Prop47
 90
       50
102
RTVSPost2010PropOp47
 70
     1
102
RTVSPost2010Prop48
 90
       50
102
RTVSPost2010PropOp48
 70
     1
102
RTVSPost2010Prop49
280
     0
102
RTVSPost2010PropOp49
 70
     1
102
RTVSPost2010Prop50
 90
       50
102
RTVSPost2010PropOp50
 70
     1
102
RTVSPost2010Prop51ColorIndex
 90
      256
102
RTVSPost2010Prop51ColorRGB
 90
-16777216
102
RTVSPost2010PropOp51
 70
     0
102
RTVSPost2010Prop52
140
1.0
102
RTVSPost2010PropOp52
 70
     0
102
RTVSPost2010Prop53
 90
        2
102
RTVSPost2010PropOp53
 70
     1
102
RTVSPost2010Prop54
  1
strokes_ogs.tif
102
RTVSPost2010PropOp54
 70
     1
102
RTVSPost2010Prop55
280
     0
102
RTVSPost2010PropOp55
 70
     1
102
RTVSPost2010Prop56
140
1.0
102
RTVSPost2010PropOp56
 70
     1
102
RTVSPost2010Prop57
140
1.0
102
RTVSPost2010PropOp57
 70
     1
  0
XRECORD
  5
A0
102
{ACAD_REACTORS
330
9F
102
}
330
9F
100
AcDbXrecord
280
     1
102
RTVSPropertyOp0
 70
     1
102
RTVSPropertyOp1
 70
     1
102
RTVSPropertyOp2
 70
     1
102
RTVSPropertyOp3
 70
     1
102
RTVSPropertyOp4
 70
     1
102
RTVSPropertyOp5
 70
     1
102
RTVSPropertyOp6
 70
     1
102
RTVSPropertyOp7
 70
     1
102
RTVSPropertyOp8
 70
     1
102
RTVSPropertyOp9
 70
     1
102
RTVSPropertyOp10
 70
     1
102
RTVSPropertyOp11
 70
     1
102
RTVSPropertyOp12
 70
     1
102
RTVSPropertyOp13
 70
     1
102
RTVSPropertyOp14
 70
     1
102
RTVSPropertyOp15
 70
     1
102
RTVSPropertyOp16
 70
     1
102
RTVSPropertyOp17
 70
     1
102
RTVSPropertyOp18
 70
     1
102
RTVSPropertyOp19
 70
     1
102
RTVSPropertyOp20
 70
     1
102
RTVSPropertyOp21
 70
     1
102
RTVSPropertyOp22
 70
     1
102
RTVSPropertyOp23
 70
     1
102
RTVSPropertyOp24
 70
     1
102
RTVSPropertyOp25
 70
     1
102
RTVSPropertyOp26
 70
     1
102
RTVSPropertyOp27
 70
     1
102
RTVSPropertyOp28
 70
     1
102
RTVSPropertyOp29
 70
     1
102
RTVSPropertyOp30
 70
     1
102
RTVSPropertyOp31
 70
     1
102
RTVSPropertyOp32
 70
     1
102
RTVSPropertyOp33
 70
     1
102
RTVSPropertyOp34
 70
     1
102
RTVSPropertyOp35
 70
     1
102
RTVSPropertyOp36
 70
     1
102
RTVSPropertyOp37
 70
     1
102
RTVSPropertyOp38
 70
     1
102
RTVSPropertyOp39
 70
     1
102
RTVSPropertyOp40
 70
     1
102
RTVSPropertyOp41
 70
     1
102
RTVSPropertyOp42
 70
     1
102
RTVSPropertyOp43
 70
     1
102
RTVSPropertyOp44
 70
     1
102
RTVSPropertyOp45
 70
     1
102
RTVSPropertyOp46
 70
     1
102
RTVSPropertyOp47
 70
     1
102
RTVSPropertyOp48
 70
     1
102
RTVSPropertyOp49
 70
     1
102
RTVSPropertyOp50
 70
     1
102
RTVSPropertyOp51
 70
     0
102
RTVSPropertyOp52
 70
     0
102
RTVSPropertyOp53
 70
     1
102
RTVSPropertyOp54
 70
     1
102
RTVSPropertyOp55
 70
     1
102
RTVSPropertyOp56
 70
     1
102
RTVSPropertyOp57
 70
     1
102
RTVSPost2010Prop28
280
     0
102
RTVSPost2010PropOp28
 70
     1
102
RTVSPost2010Prop29
280
     1
102
RTVSPost2010PropOp29
 70
     1
102
RTVSPost2010Prop30
280
     1
102
RTVSPost2010PropOp30
 70
     1
102
RTVSPost2010Prop31
280
     0
102
RTVSPost2010PropOp31
 70
     1
102
RTVSPost2010Prop32
280
     0
102
RTVSPost2010PropOp32
 70
     1
102
RTVSPost2010Prop33
280
     0
102
RTVSPost2010PropOp33
 70
     1
102
RTVSPost2010Prop34
280
     0
102
RTVSPost2010PropOp34
 70
     1
102
RTVSPost2010Prop35
280
     0
102
RTVSPost2010PropOp35
 70
     1
102
RTVSPost2010Prop36
280
     0
102
RTVSPost2010PropOp36
 70
     1
102
RTVSPost2010Prop37
 90
       50
102
RTVSPost2010PropOp37
 70
     1
102
RTVSPost2010Prop38
140
0.0
102
RTVSPost2010PropOp38
 70
     1
102
RTVSPost2010Prop39
140
1.0
102
RTVSPost2010PropOp39
 70
     1
102
RTVSPost2010Prop40
 90
        0
102
RTVSPost2010PropOp40
 70
     1
102
RTVSPost2010Prop41ColorIndex
 90
       18
102
RTVSPost2010Prop41ColorRGB
 90
        0
102
RTVSPost2010PropOp41
 70
     1
102
RTVSPost2010Prop42
 90
       50
102
RTVSPost2010PropOp42
 70
     1
102
RTVSPost2010Prop43
 90
        3
102
RTVSPost2010PropOp43
 70
     1
102
RTVSPost2010Prop44ColorIndex
 90
        5
102
RTVSPost2010Prop44ColorRGB
 90
      255
102
RTVSPost2010PropOp44
 70
     1
102
RTVSPost2010Prop45
280
     0
102
RTVSPost2010PropOp45
 70
     1
102
RTVSPost2010Prop46
 90
       50
102
RTVSPost2010PropOp46
 70
     1
102
RTVSPost2010Prop47
 90
       50
102
RTVSPost2010PropOp47
 70
     1
102
RTVSPost2010Prop48
 90
       50
102
RTVSPost2010PropOp48
 70
     1
102
RTVSPost2010Prop49
280
     0
102
RTVSPost2010PropOp49
 70
     1
102
RTVSPost2010Prop50
 90
       50
102
RTVSPost2010PropOp50
 70
     1
102
RTVSPost2010Prop51ColorIndex
 90
      256
102
RTVSPost2010Prop51ColorRGB
 90
-16777216
102
RTVSPost2010PropOp51
 70
     0
102
RTVSPost2010Prop52
140
1.0
102
RTVSPost2010PropOp52
 70
     0
102
RTVSPost2010Prop53
 90
        2
102
RTVSPost2010PropOp53
 70
     1
102
RTVSPost2010Prop54
  1
strokes_ogs.tif
102
RTVSPost2010PropOp54
 70
     1
102
RTVSPost2010Prop55
280
     0
102
RTVSPost2010PropOp55
 70
     1
102
RTVSPost2010Prop56
140
1.0
102
RTVSPost2010PropOp56
 70
     1
102
RTVSPost2010Prop57
140
1.0
102
RTVSPost2010PropOp57
 70
     1
  0
XRECORD
  5
A2
102
{ACAD_REACTORS
330
A1
102
}
330
A1
100
AcDbXrecord
280
     1
102
RTVSPropertyOp0
 70
     1
102
RTVSPropertyOp1
 70
     1
102
RTVSPropertyOp2
 70
     1
102
RTVSPropertyOp3
 70
     1
102
RTVSPropertyOp4
 70
     1
102
RTVSPropertyOp5
 70
     1
102
RTVSPropertyOp6
 70
     1
102
RTVSPropertyOp7
 70
     1
102
RTVSPropertyOp8
 70
     1
102
RTVSPropertyOp9
 70
     1
102
RTVSPropertyOp10
 70
     1
102
RTVSPropertyOp11
 70
     1
102
RTVSPropertyOp12
 70
     1
102
RTVSPropertyOp13
 70
     1
102
RTVSPropertyOp14
 70
     1
102
RTVSPropertyOp15
 70
     1
102
RTVSPropertyOp16
 70
     1
102
RTVSPropertyOp17
 70
     1
102
RTVSPropertyOp18
 70
     1
102
RTVSPropertyOp19
 70
     1
102
RTVSPropertyOp20
 70
     1
102
RTVSPropertyOp21
 70
     1
102
RTVSPropertyOp22
 70
     1
102
RTVSPropertyOp23
 70
     1
102
RTVSPropertyOp24
 70
     1
102
RTVSPropertyOp25
 70
     1
102
RTVSPropertyOp26
 70
     1
102
RTVSPropertyOp27
 70
     1
102
RTVSPropertyOp28
 70
     1
102
RTVSPropertyOp29
 70
     1
102
RTVSPropertyOp30
 70
     1
102
RTVSPropertyOp31
 70
     1
102
RTVSPropertyOp32
 70
     1
102
RTVSPropertyOp33
 70
     1
102
RTVSPropertyOp34
 70
     1
102
RTVSPropertyOp35
 70
     1
102
RTVSPropertyOp36
 70
     1
102
RTVSPropertyOp37
 70
     1
102
RTVSPropertyOp38
 70
     1
102
RTVSPropertyOp39
 70
     1
102
RTVSPropertyOp40
 70
     1
102
RTVSPropertyOp41
 70
     1
102
RTVSPropertyOp42
 70
     1
102
RTVSPropertyOp43
 70
     1
102
RTVSPropertyOp44
 70
     1
102
RTVSPropertyOp45
 70
     1
102
RTVSPropertyOp46
 70
     1
102
RTVSPropertyOp47
 70
     1
102
RTVSPropertyOp48
 70
     1
102
RTVSPropertyOp49
 70
     1
102
RTVSPropertyOp50
 70
     1
102
RTVSPropertyOp51
 70
     0
102
RTVSPropertyOp52
 70
     0
102
RTVSPropertyOp53
 70
     1
102
RTVSPropertyOp54
 70
     1
102
RTVSPropertyOp55
 70
     1
102
RTVSPropertyOp56
 70
     1
102
RTVSPropertyOp57
 70
     1
102
RTVSPost2010Prop28
280
     0
102
RTVSPost2010PropOp28
 70
     1
102
RTVSPost2010Prop29
280
     1
102
RTVSPost2010PropOp29
 70
     1
102
RTVSPost2010Prop30
280
     1
102
RTVSPost2010PropOp30
 70
     1
102
RTVSPost2010Prop31
280
     0
102
RTVSPost2010PropOp31
 70
     1
102
RTVSPost2010Prop32
280
     0
102
RTVSPost2010PropOp32
 70
     1
102
RTVSPost2010Prop33
280
     0
102
RTVSPost2010PropOp33
 70
     1
102
RTVSPost2010Prop34
280
     0
102
RTVSPost2010PropOp34
 70
     1
102
RTVSPost2010Prop35
280
     0
102
RTVSPost2010PropOp35
 70
     1
102
RTVSPost2010Prop36
280
     0
102
RTVSPost2010PropOp36
 70
     1
102
RTVSPost2010Prop37
 90
       50
102
RTVSPost2010PropOp37
 70
     1
102
RTVSPost2010Prop38
140
0.0
102
RTVSPost2010PropOp38
 70
     1
102
RTVSPost2010Prop39
140
1.0
102
RTVSPost2010PropOp39
 70
     1
102
RTVSPost2010Prop40
 90
        0
102
RTVSPost2010PropOp40
 70
     1
102
RTVSPost2010Prop41ColorIndex
 90
       18
102
RTVSPost2010Prop41ColorRGB
 90
        0
102
RTVSPost2010PropOp41
 70
     1
102
RTVSPost2010Prop42
 90
       50
102
RTVSPost2010PropOp42
 70
     1
102
RTVSPost2010Prop43
 90
        3
102
RTVSPost2010PropOp43
 70
     1
102
RTVSPost2010Prop44ColorIndex
 90
        5
102
RTVSPost2010Prop44ColorRGB
 90
      255
102
RTVSPost2010PropOp44
 70
     1
102
RTVSPost2010Prop45
280
     0
102
RTVSPost2010PropOp45
 70
     1
102
RTVSPost2010Prop46
 90
       50
102
RTVSPost2010PropOp46
 70
     1
102
RTVSPost2010Prop47
 90
       50
102
RTVSPost2010PropOp47
 70
     1
102
RTVSPost2010Prop48
 90
       50
102
RTVSPost2010PropOp48
 70
     1
102
RTVSPost2010Prop49
280
     0
102
RTVSPost2010PropOp49
 70
     1
102
RTVSPost2010Prop50
 90
       50
102
RTVSPost2010PropOp50
 70
     1
102
RTVSPost2010Prop51ColorIndex
 90
      256
102
RTVSPost2010Prop51ColorRGB
 90
-16777216
102
RTVSPost2010PropOp51
 70
     0
102
RTVSPost2010Prop52
140
1.0
102
RTVSPost2010PropOp52
 70
     0
102
RTVSPost2010Prop53
 90
        2
102
RTVSPost2010PropOp53
 70
     1
102
RTVSPost2010Prop54
  1
strokes_ogs.tif
102
RTVSPost2010PropOp54
 70
     1
102
RTVSPost2010Prop55
280
     0
102
RTVSPost2010PropOp55
 70
     1
102
RTVSPost2010Prop56
140
1.0
102
RTVSPost2010PropOp56
 70
     1
102
RTVSPost2010Prop57
140
1.0
102
RTVSPost2010PropOp57
 70
     1
  0
XRECORD
  5
B2
102
{ACAD_REACTORS
330
B1
102
}
330
B1
100
AcDbXrecord
280
     1
102
RTVSPropertyOp0
 70
     0
102
RTVSPropertyOp1
 70
     0
102
RTVSPropertyOp2
 70
     0
102
RTVSPropertyOp3
 70
     0
102
RTVSPropertyOp4
 70
     0
102
RTVSPropertyOp5
 70
     0
102
RTVSPropertyOp6
 70
     0
102
RTVSPropertyOp7
 70
     0
102
RTVSPropertyOp8
 70
     0
102
RTVSPropertyOp9
 70
     0
102
RTVSPropertyOp10
 70
     0
102
RTVSPropertyOp11
 70
     0
102
RTVSPropertyOp12
 70
     0
102
RTVSPropertyOp13
 70
     0
102
RTVSPropertyOp14
 70
     2
102
RTVSPropertyOp15
 70
     0
102
RTVSPropertyOp16
 70
     0
102
RTVSPropertyOp17
 70
     0
102
RTVSPropertyOp18
 70
     0
102
RTVSPropertyOp19
 70
     0
102
RTVSPropertyOp20
 70
     0
102
RTVSPropertyOp21
 70
     0
102
RTVSPropertyOp22
 70
     0
102
RTVSPropertyOp23
 70
     0
102
RTVSPropertyOp24
 70
     0
102
RTVSPropertyOp25
 70
     0
102
RTVSPropertyOp26
 70
     0
102
RTVSPropertyOp27
 70
     0
102
RTVSPropertyOp28
 70
     0
102
RTVSPropertyOp29
 70
     0
102
RTVSPropertyOp30
 70
     0
102
RTVSPropertyOp31
 70
     0
102
RTVSPropertyOp32
 70
     0
102
RTVSPropertyOp33
 70
     0
102
RTVSPropertyOp34
 70
     0
102
RTVSPropertyOp35
 70
     0
102
RTVSPropertyOp36
 70
     0
102
RTVSPropertyOp37
 70
     0
102
RTVSPropertyOp38
 70
     0
102
RTVSPropertyOp39
 70
     0
102
RTVSPropertyOp40
 70
     0
102
RTVSPropertyOp41
 70
     0
102
RTVSPropertyOp42
 70
     0
102
RTVSPropertyOp43
 70
     0
102
RTVSPropertyOp44
 70
     0
102
RTVSPropertyOp45
 70
     0
102
RTVSPropertyOp46
 70
     0
102
RTVSPropertyOp47
 70
     0
102
RTVSPropertyOp48
 70
     0
102
RTVSPropertyOp49
 70
     0
102
RTVSPropertyOp50
 70
     0
102
RTVSPropertyOp51
 70
     0
102
RTVSPropertyOp52
 70
     0
102
RTVSPropertyOp53
 70
     0
102
RTVSPropertyOp54
 70
     0
102
RTVSPropertyOp55
 70
     0
102
RTVSPropertyOp56
 70
     0
102
RTVSPropertyOp57
 70
     0
102
RTVSPost2010Prop28
280
     0
102
RTVSPost2010PropOp28
 70
     0
102
RTVSPost2010Prop29
280
     1
102
RTVSPost2010PropOp29
 70
     0
102
RTVSPost2010Prop30
280
     1
102
RTVSPost2010PropOp30
 70
     0
102
RTVSPost2010Prop31
280
     0
102
RTVSPost2010PropOp31
 70
     0
102
RTVSPost2010Prop32
280
     0
102
RTVSPost2010PropOp32
 70
     0
102
RTVSPost2010Prop33
280
     0
102
RTVSPost2010PropOp33
 70
     0
102
RTVSPost2010Prop34
280
     0
102
RTVSPost2010PropOp34
 70
     0
102
RTVSPost2010Prop35
280
     0
102
RTVSPost2010PropOp35
 70
     0
102
RTVSPost2010Prop36
280
     0
102
RTVSPost2010PropOp36
 70
     0
102
RTVSPost2010Prop37
 90
       50
102
RTVSPost2010PropOp37
 70
     0
102
RTVSPost2010Prop38
140
0.0
102
RTVSPost2010PropOp38
 70
     0
102
RTVSPost2010Prop39
140
1.0
102
RTVSPost2010PropOp39
 70
     0
102
RTVSPost2010Prop40
 90
        0
102
RTVSPost2010PropOp40
 70
     0
102
RTVSPost2010Prop41ColorIndex
 90
       18
102
RTVSPost2010Prop41ColorRGB
 90
        0
102
RTVSPost2010PropOp41
 70
     0
102
RTVSPost2010Prop42
 90
       50
102
RTVSPost2010PropOp42
 70
     0
102
RTVSPost2010Prop43
 90
        3
102
RTVSPost2010PropOp43
 70
     0
102
RTVSPost2010Prop44ColorIndex
 90
        5
102
RTVSPost2010Prop44ColorRGB
 90
      255
102
RTVSPost2010PropOp44
 70
     0
102
RTVSPost2010Prop45
280
     0
102
RTVSPost2010PropOp45
 70
     0
102
RTVSPost2010Prop46
 90
       50
102
RTVSPost2010PropOp46
 70
     0
102
RTVSPost2010Prop47
 90
       50
102
RTVSPost2010PropOp47
 70
     0
102
RTVSPost2010Prop48
 90
       50
102
RTVSPost2010PropOp48
 70
     0
102
RTVSPost2010Prop49
280
     0
102
RTVSPost2010PropOp49
 70
     0
102
RTVSPost2010Prop50
 90
       50
102
RTVSPost2010PropOp50
 70
     0
102
RTVSPost2010Prop51ColorIndex
 90
      256
102
RTVSPost2010Prop51ColorRGB
 90
-16777216
102
RTVSPost2010PropOp51
 70
     0
102
RTVSPost2010Prop52
140
1.0
102
RTVSPost2010PropOp52
 70
     0
102
RTVSPost2010Prop53
 90
        2
102
RTVSPost2010PropOp53
 70
     0
102
RTVSPost2010Prop54
  1
strokes_ogs.tif
102
RTVSPost2010PropOp54
 70
     0
102
RTVSPost2010Prop55
280
     0
102
RTVSPost2010PropOp55
 70
     0
102
RTVSPost2010Prop56
140
1.0
102
RTVSPost2010PropOp56
 70
     0
102
RTVSPost2010Prop57
140
1.0
102
RTVSPost2010PropOp57
 70
     0
  0
XRECORD
  5
AA
102
{ACAD_REACTORS
330
A9
102
}
330
A9
100
AcDbXrecord
280
     1
102
RTVSPropertyOp0
 70
     1
102
RTVSPropertyOp1
 70
     1
102
RTVSPropertyOp2
 70
     1
102
RTVSPropertyOp3
 70
     1
102
RTVSPropertyOp4
 70
     1
102
RTVSPropertyOp5
 70
     1
102
RTVSPropertyOp6
 70
     1
102
RTVSPropertyOp7
 70
     1
102
RTVSPropertyOp8
 70
     1
102
RTVSPropertyOp9
 70
     1
102
RTVSPropertyOp10
 70
     1
102
RTVSPropertyOp11
 70
     1
102
RTVSPropertyOp12
 70
     1
102
RTVSPropertyOp13
 70
     1
102
RTVSPropertyOp14
 70
     1
102
RTVSPropertyOp15
 70
     1
102
RTVSPropertyOp16
 70
     1
102
RTVSPropertyOp17
 70
     1
102
RTVSPropertyOp18
 70
     1
102
RTVSPropertyOp19
 70
     1
102
RTVSPropertyOp20
 70
     1
102
RTVSPropertyOp21
 70
     1
102
RTVSPropertyOp22
 70
     1
102
RTVSPropertyOp23
 70
     1
102
RTVSPropertyOp24
 70
     1
102
RTVSPropertyOp25
 70
     1
102
RTVSPropertyOp26
 70
     1
102
RTVSPropertyOp27
 70
     1
102
RTVSPropertyOp28
 70
     1
102
RTVSPropertyOp29
 70
     1
102
RTVSPropertyOp30
 70
     1
102
RTVSPropertyOp31
 70
     1
102
RTVSPropertyOp32
 70
     1
102
RTVSPropertyOp33
 70
     1
102
RTVSPropertyOp34
 70
     1
102
RTVSPropertyOp35
 70
     1
102
RTVSPropertyOp36
 70
     1
102
RTVSPropertyOp37
 70
     1
102
RTVSPropertyOp38
 70
     1
102
RTVSPropertyOp39
 70
     1
102
RTVSPropertyOp40
 70
     1
102
RTVSPropertyOp41
 70
     1
102
RTVSPropertyOp42
 70
     1
102
RTVSPropertyOp43
 70
     1
102
RTVSPropertyOp44
 70
     1
102
RTVSPropertyOp45
 70
     1
102
RTVSPropertyOp46
 70
     1
102
RTVSPropertyOp47
 70
     1
102
RTVSPropertyOp48
 70
     1
102
RTVSPropertyOp49
 70
     1
102
RTVSPropertyOp50
 70
     1
102
RTVSPropertyOp51
 70
     0
102
RTVSPropertyOp52
 70
     0
102
RTVSPropertyOp53
 70
     1
102
RTVSPropertyOp54
 70
     1
102
RTVSPropertyOp55
 70
     1
102
RTVSPropertyOp56
 70
     1
102
RTVSPropertyOp57
 70
     1
102
RTVSPost2010Prop28
280
     0
102
RTVSPost2010PropOp28
 70
     1
102
RTVSPost2010Prop29
280
     1
102
RTVSPost2010PropOp29
 70
     1
102
RTVSPost2010Prop30
280
     1
102
RTVSPost2010PropOp30
 70
     1
102
RTVSPost2010Prop31
280
     0
102
RTVSPost2010PropOp31
 70
     1
102
RTVSPost2010Prop32
280
     0
102
RTVSPost2010PropOp32
 70
     1
102
RTVSPost2010Prop33
280
     0
102
RTVSPost2010PropOp33
 70
     1
102
RTVSPost2010Prop34
280
     0
102
RTVSPost2010PropOp34
 70
     1
102
RTVSPost2010Prop35
280
     0
102
RTVSPost2010PropOp35
 70
     1
102
RTVSPost2010Prop36
280
     0
102
RTVSPost2010PropOp36
 70
     1
102
RTVSPost2010Prop37
 90
       50
102
RTVSPost2010PropOp37
 70
     1
102
RTVSPost2010Prop38
140
0.0
102
RTVSPost2010PropOp38
 70
     1
102
RTVSPost2010Prop39
140
1.0
102
RTVSPost2010PropOp39
 70
     1
102
RTVSPost2010Prop40
 90
        0
102
RTVSPost2010PropOp40
 70
     1
102
RTVSPost2010Prop41ColorIndex
 90
       18
102
RTVSPost2010Prop41ColorRGB
 90
        0
102
RTVSPost2010PropOp41
 70
     1
102
RTVSPost2010Prop42
 90
       50
102
RTVSPost2010PropOp42
 70
     1
102
RTVSPost2010Prop43
 90
        3
102
RTVSPost2010PropOp43
 70
     1
102
RTVSPost2010Prop44ColorIndex
 90
        5
102
RTVSPost2010Prop44ColorRGB
 90
      255
102
RTVSPost2010PropOp44
 70
     1
102
RTVSPost2010Prop45
280
     0
102
RTVSPost2010PropOp45
 70
     1
102
RTVSPost2010Prop46
 90
       50
102
RTVSPost2010PropOp46
 70
     1
102
RTVSPost2010Prop47
 90
       50
102
RTVSPost2010PropOp47
 70
     1
102
RTVSPost2010Prop48
 90
       50
102
RTVSPost2010PropOp48
 70
     1
102
RTVSPost2010Prop49
280
     0
102
RTVSPost2010PropOp49
 70
     1
102
RTVSPost2010Prop50
 90
       50
102
RTVSPost2010PropOp50
 70
     1
102
RTVSPost2010Prop51ColorIndex
 90
      256
102
RTVSPost2010Prop51ColorRGB
 90
-16777216
102
RTVSPost2010PropOp51
 70
     0
102
RTVSPost2010Prop52
140
1.0
102
RTVSPost2010PropOp52
 70
     0
102
RTVSPost2010Prop53
 90
        2
102
RTVSPost2010PropOp53
 70
     1
102
RTVSPost2010Prop54
  1
strokes_ogs.tif
102
RTVSPost2010PropOp54
 70
     1
102
RTVSPost2010Prop55
280
     0
102
RTVSPost2010PropOp55
 70
     1
102
RTVSPost2010Prop56
140
1.0
102
RTVSPost2010PropOp56
 70
     1
102
RTVSPost2010Prop57
140
1.0
102
RTVSPost2010PropOp57
 70
     1
  0
XRECORD
  5
8E
102
{ACAD_REACTORS
330
8D
102
}
330
8D
100
AcDbXrecord
280
     1
102
RTVSPropertyOp0
 70
     1
102
RTVSPropertyOp1
 70
     1
102
RTVSPropertyOp2
 70
     1
102
RTVSPropertyOp3
 70
     1
102
RTVSPropertyOp4
 70
     1
102
RTVSPropertyOp5
 70
     1
102
RTVSPropertyOp6
 70
     1
102
RTVSPropertyOp7
 70
     1
102
RTVSPropertyOp8
 70
     1
102
RTVSPropertyOp9
 70
     1
102
RTVSPropertyOp10
 70
     1
102
RTVSPropertyOp11
 70
     1
102
RTVSPropertyOp12
 70
     1
102
RTVSPropertyOp13
 70
     1
102
RTVSPropertyOp14
 70
     1
102
RTVSPropertyOp15
 70
     1
102
RTVSPropertyOp16
 70
     1
102
RTVSPropertyOp17
 70
     1
102
RTVSPropertyOp18
 70
     1
102
RTVSPropertyOp19
 70
     1
102
RTVSPropertyOp20
 70
     1
102
RTVSPropertyOp21
 70
     1
102
RTVSPropertyOp22
 70
     1
102
RTVSPropertyOp23
 70
     1
102
RTVSPropertyOp24
 70
     1
102
RTVSPropertyOp25
 70
     1
102
RTVSPropertyOp26
 70
     1
102
RTVSPropertyOp27
 70
     1
102
RTVSPropertyOp28
 70
     1
102
RTVSPropertyOp29
 70
     1
102
RTVSPropertyOp30
 70
     1
102
RTVSPropertyOp31
 70
     1
102
RTVSPropertyOp32
 70
     1
102
RTVSPropertyOp33
 70
     1
102
RTVSPropertyOp34
 70
     1
102
RTVSPropertyOp35
 70
     1
102
RTVSPropertyOp36
 70
     1
102
RTVSPropertyOp37
 70
     1
102
RTVSPropertyOp38
 70
     1
102
RTVSPropertyOp39
 70
     1
102
RTVSPropertyOp40
 70
     1
102
RTVSPropertyOp41
 70
     1
102
RTVSPropertyOp42
 70
     1
102
RTVSPropertyOp43
 70
     1
102
RTVSPropertyOp44
 70
     1
102
RTVSPropertyOp45
 70
     1
102
RTVSPropertyOp46
 70
     1
102
RTVSPropertyOp47
 70
     1
102
RTVSPropertyOp48
 70
     1
102
RTVSPropertyOp49
 70
     1
102
RTVSPropertyOp50
 70
     1
102
RTVSPropertyOp51
 70
     0
102
RTVSPropertyOp52
 70
     0
102
RTVSPropertyOp53
 70
     1
102
RTVSPropertyOp54
 70
     1
102
RTVSPropertyOp55
 70
     1
102
RTVSPropertyOp56
 70
     1
102
RTVSPropertyOp57
 70
     1
102
RTVSPost2010Prop28
280
     0
102
RTVSPost2010PropOp28
 70
     1
102
RTVSPost2010Prop29
280
     1
102
RTVSPost2010PropOp29
 70
     1
102
RTVSPost2010Prop30
280
     1
102
RTVSPost2010PropOp30
 70
     1
102
RTVSPost2010Prop31
280
     0
102
RTVSPost2010PropOp31
 70
     1
102
RTVSPost2010Prop32
280
     0
102
RTVSPost2010PropOp32
 70
     1
102
RTVSPost2010Prop33
280
     0
102
RTVSPost2010PropOp33
 70
     1
102
RTVSPost2010Prop34
280
     0
102
RTVSPost2010PropOp34
 70
     1
102
RTVSPost2010Prop35
280
     0
102
RTVSPost2010PropOp35
 70
     1
102
RTVSPost2010Prop36
280
     0
102
RTVSPost2010PropOp36
 70
     1
102
RTVSPost2010Prop37
 90
       50
102
RTVSPost2010PropOp37
 70
     1
102
RTVSPost2010Prop38
140
0.0
102
RTVSPost2010PropOp38
 70
     1
102
RTVSPost2010Prop39
140
1.0
102
RTVSPost2010PropOp39
 70
     1
102
RTVSPost2010Prop40
 90
        0
102
RTVSPost2010PropOp40
 70
     1
102
RTVSPost2010Prop41ColorIndex
 90
       18
102
RTVSPost2010Prop41ColorRGB
 90
        0
102
RTVSPost2010PropOp41
 70
     1
102
RTVSPost2010Prop42
 90
       50
102
RTVSPost2010PropOp42
 70
     1
102
RTVSPost2010Prop43
 90
        3
102
RTVSPost2010PropOp43
 70
     1
102
RTVSPost2010Prop44ColorIndex
 90
        5
102
RTVSPost2010Prop44ColorRGB
 90
      255
102
RTVSPost2010PropOp44
 70
     1
102
RTVSPost2010Prop45
280
     0
102
RTVSPost2010PropOp45
 70
     1
102
RTVSPost2010Prop46
 90
       50
102
RTVSPost2010PropOp46
 70
     1
102
RTVSPost2010Prop47
 90
       50
102
RTVSPost2010PropOp47
 70
     1
102
RTVSPost2010Prop48
 90
       50
102
RTVSPost2010PropOp48
 70
     1
102
RTVSPost2010Prop49
280
     0
102
RTVSPost2010PropOp49
 70
     1
102
RTVSPost2010Prop50
 90
       50
102
RTVSPost2010PropOp50
 70
     1
102
RTVSPost2010Prop51ColorIndex
 90
      256
102
RTVSPost2010Prop51ColorRGB
 90
-16777216
102
RTVSPost2010PropOp51
 70
     0
102
RTVSPost2010Prop52
140
1.0
102
RTVSPost2010PropOp52
 70
     0
102
RTVSPost2010Prop53
 90
        2
102
RTVSPost2010PropOp53
 70
     1
102
RTVSPost2010Prop54
  1
strokes_ogs.tif
102
RTVSPost2010PropOp54
 70
     1
102
RTVSPost2010Prop55
280
     0
102
RTVSPost2010PropOp55
 70
     1
102
RTVSPost2010Prop56
140
1.0
102
RTVSPost2010PropOp56
 70
     1
102
RTVSPost2010Prop57
140
1.0
102
RTVSPost2010PropOp57
 70
     1
  0
XRECORD
  5
90
102
{ACAD_REACTORS
330
8F
102
}
330
8F
100
AcDbXrecord
280
     1
102
RTVSPropertyOp0
 70
     1
102
RTVSPropertyOp1
 70
     1
102
RTVSPropertyOp2
 70
     1
102
RTVSPropertyOp3
 70
     1
102
RTVSPropertyOp4
 70
     1
102
RTVSPropertyOp5
 70
     1
102
RTVSPropertyOp6
 70
     1
102
RTVSPropertyOp7
 70
     1
102
RTVSPropertyOp8
 70
     1
102
RTVSPropertyOp9
 70
     1
102
RTVSPropertyOp10
 70
     1
102
RTVSPropertyOp11
 70
     1
102
RTVSPropertyOp12
 70
     1
102
RTVSPropertyOp13
 70
     1
102
RTVSPropertyOp14
 70
     1
102
RTVSPropertyOp15
 70
     1
102
RTVSPropertyOp16
 70
     1
102
RTVSPropertyOp17
 70
     1
102
RTVSPropertyOp18
 70
     1
102
RTVSPropertyOp19
 70
     1
102
RTVSPropertyOp20
 70
     1
102
RTVSPropertyOp21
 70
     1
102
RTVSPropertyOp22
 70
     1
102
RTVSPropertyOp23
 70
     1
102
RTVSPropertyOp24
 70
     1
102
RTVSPropertyOp25
 70
     1
102
RTVSPropertyOp26
 70
     1
102
RTVSPropertyOp27
 70
     1
102
RTVSPropertyOp28
 70
     1
102
RTVSPropertyOp29
 70
     1
102
RTVSPropertyOp30
 70
     1
102
RTVSPropertyOp31
 70
     1
102
RTVSPropertyOp32
 70
     1
102
RTVSPropertyOp33
 70
     1
102
RTVSPropertyOp34
 70
     1
102
RTVSPropertyOp35
 70
     1
102
RTVSPropertyOp36
 70
     1
102
RTVSPropertyOp37
 70
     1
102
RTVSPropertyOp38
 70
     1
102
RTVSPropertyOp39
 70
     1
102
RTVSPropertyOp40
 70
     1
102
RTVSPropertyOp41
 70
     1
102
RTVSPropertyOp42
 70
     1
102
RTVSPropertyOp43
 70
     1
102
RTVSPropertyOp44
 70
     1
102
RTVSPropertyOp45
 70
     1
102
RTVSPropertyOp46
 70
     1
102
RTVSPropertyOp47
 70
     1
102
RTVSPropertyOp48
 70
     1
102
RTVSPropertyOp49
 70
     1
102
RTVSPropertyOp50
 70
     1
102
RTVSPropertyOp51
 70
     0
102
RTVSPropertyOp52
 70
     0
102
RTVSPropertyOp53
 70
     1
102
RTVSPropertyOp54
 70
     1
102
RTVSPropertyOp55
 70
     1
102
RTVSPropertyOp56
 70
     1
102
RTVSPropertyOp57
 70
     1
102
RTVSPost2010Prop28
280
     0
102
RTVSPost2010PropOp28
 70
     1
102
RTVSPost2010Prop29
280
     1
102
RTVSPost2010PropOp29
 70
     1
102
RTVSPost2010Prop30
280
     1
102
RTVSPost2010PropOp30
 70
     1
102
RTVSPost2010Prop31
280
     0
102
RTVSPost2010PropOp31
 70
     1
102
RTVSPost2010Prop32
280
     0
102
RTVSPost2010PropOp32
 70
     1
102
RTVSPost2010Prop33
280
     0
102
RTVSPost2010PropOp33
 70
     1
102
RTVSPost2010Prop34
280
     0
102
RTVSPost2010PropOp34
 70
     1
102
RTVSPost2010Prop35
280
     0
102
RTVSPost2010PropOp35
 70
     1
102
RTVSPost2010Prop36
280
     0
102
RTVSPost2010PropOp36
 70
     1
102
RTVSPost2010Prop37
 90
       50
102
RTVSPost2010PropOp37
 70
     1
102
RTVSPost2010Prop38
140
0.0
102
RTVSPost2010PropOp38
 70
     1
102
RTVSPost2010Prop39
140
1.0
102
RTVSPost2010PropOp39
 70
     1
102
RTVSPost2010Prop40
 90
        0
102
RTVSPost2010PropOp40
 70
     1
102
RTVSPost2010Prop41ColorIndex
 90
       18
102
RTVSPost2010Prop41ColorRGB
 90
        0
102
RTVSPost2010PropOp41
 70
     1
102
RTVSPost2010Prop42
 90
       50
102
RTVSPost2010PropOp42
 70
     1
102
RTVSPost2010Prop43
 90
        3
102
RTVSPost2010PropOp43
 70
     1
102
RTVSPost2010Prop44ColorIndex
 90
        5
102
RTVSPost2010Prop44ColorRGB
 90
      255
102
RTVSPost2010PropOp44
 70
     1
102
RTVSPost2010Prop45
280
     0
102
RTVSPost2010PropOp45
 70
     1
102
RTVSPost2010Prop46
 90
       50
102
RTVSPost2010PropOp46
 70
     1
102
RTVSPost2010Prop47
 90
       50
102
RTVSPost2010PropOp47
 70
     1
102
RTVSPost2010Prop48
 90
       50
102
RTVSPost2010PropOp48
 70
     1
102
RTVSPost2010Prop49
280
     0
102
RTVSPost2010PropOp49
 70
     1
102
RTVSPost2010Prop50
 90
       50
102
RTVSPost2010PropOp50
 70
     1
102
RTVSPost2010Prop51ColorIndex
 90
      256
102
RTVSPost2010Prop51ColorRGB
 90
-16777216
102
RTVSPost2010PropOp51
 70
     0
102
RTVSPost2010Prop52
140
1.0
102
RTVSPost2010PropOp52
 70
     0
102
RTVSPost2010Prop53
 90
        2
102
RTVSPost2010PropOp53
 70
     1
102
RTVSPost2010Prop54
  1
strokes_ogs.tif
102
RTVSPost2010PropOp54
 70
     1
102
RTVSPost2010Prop55
280
     0
102
RTVSPost2010PropOp55
 70
     1
102
RTVSPost2010Prop56
140
1.0
102
RTVSPost2010PropOp56
 70
     1
102
RTVSPost2010Prop57
140
1.0
102
RTVSPost2010PropOp57
 70
     1
  0
XRECORD
  5
92
102
{ACAD_REACTORS
330
91
102
}
330
91
100
AcDbXrecord
280
     1
102
RTVSPropertyOp0
 70
     1
102
RTVSPropertyOp1
 70
     1
102
RTVSPropertyOp2
 70
     1
102
RTVSPropertyOp3
 70
     1
102
RTVSPropertyOp4
 70
     1
102
RTVSPropertyOp5
 70
     1
102
RTVSPropertyOp6
 70
     1
102
RTVSPropertyOp7
 70
     1
102
RTVSPropertyOp8
 70
     1
102
RTVSPropertyOp9
 70
     1
102
RTVSPropertyOp10
 70
     1
102
RTVSPropertyOp11
 70
     1
102
RTVSPropertyOp12
 70
     1
102
RTVSPropertyOp13
 70
     1
102
RTVSPropertyOp14
 70
     1
102
RTVSPropertyOp15
 70
     1
102
RTVSPropertyOp16
 70
     1
102
RTVSPropertyOp17
 70
     1
102
RTVSPropertyOp18
 70
     1
102
RTVSPropertyOp19
 70
     1
102
RTVSPropertyOp20
 70
     1
102
RTVSPropertyOp21
 70
     1
102
RTVSPropertyOp22
 70
     1
102
RTVSPropertyOp23
 70
     1
102
RTVSPropertyOp24
 70
     1
102
RTVSPropertyOp25
 70
     1
102
RTVSPropertyOp26
 70
     1
102
RTVSPropertyOp27
 70
     1
102
RTVSPropertyOp28
 70
     1
102
RTVSPropertyOp29
 70
     1
102
RTVSPropertyOp30
 70
     1
102
RTVSPropertyOp31
 70
     1
102
RTVSPropertyOp32
 70
     1
102
RTVSPropertyOp33
 70
     1
102
RTVSPropertyOp34
 70
     1
102
RTVSPropertyOp35
 70
     1
102
RTVSPropertyOp36
 70
     1
102
RTVSPropertyOp37
 70
     1
102
RTVSPropertyOp38
 70
     1
102
RTVSPropertyOp39
 70
     1
102
RTVSPropertyOp40
 70
     1
102
RTVSPropertyOp41
 70
     1
102
RTVSPropertyOp42
 70
     1
102
RTVSPropertyOp43
 70
     1
102
RTVSPropertyOp44
 70
     1
102
RTVSPropertyOp45
 70
     1
102
RTVSPropertyOp46
 70
     1
102
RTVSPropertyOp47
 70
     1
102
RTVSPropertyOp48
 70
     1
102
RTVSPropertyOp49
 70
     1
102
RTVSPropertyOp50
 70
     1
102
RTVSPropertyOp51
 70
     0
102
RTVSPropertyOp52
 70
     0
102
RTVSPropertyOp53
 70
     1
102
RTVSPropertyOp54
 70
     1
102
RTVSPropertyOp55
 70
     1
102
RTVSPropertyOp56
 70
     1
102
RTVSPropertyOp57
 70
     1
102
RTVSPost2010Prop28
280
     0
102
RTVSPost2010PropOp28
 70
     1
102
RTVSPost2010Prop29
280
     1
102
RTVSPost2010PropOp29
 70
     1
102
RTVSPost2010Prop30
280
     1
102
RTVSPost2010PropOp30
 70
     1
102
RTVSPost2010Prop31
280
     0
102
RTVSPost2010PropOp31
 70
     1
102
RTVSPost2010Prop32
280
     0
102
RTVSPost2010PropOp32
 70
     1
102
RTVSPost2010Prop33
280
     0
102
RTVSPost2010PropOp33
 70
     1
102
RTVSPost2010Prop34
280
     0
102
RTVSPost2010PropOp34
 70
     1
102
RTVSPost2010Prop35
280
     0
102
RTVSPost2010PropOp35
 70
     1
102
RTVSPost2010Prop36
280
     0
102
RTVSPost2010PropOp36
 70
     1
102
RTVSPost2010Prop37
 90
       50
102
RTVSPost2010PropOp37
 70
     1
102
RTVSPost2010Prop38
140
0.0
102
RTVSPost2010PropOp38
 70
     1
102
RTVSPost2010Prop39
140
1.0
102
RTVSPost2010PropOp39
 70
     1
102
RTVSPost2010Prop40
 90
        0
102
RTVSPost2010PropOp40
 70
     1
102
RTVSPost2010Prop41ColorIndex
 90
       18
102
RTVSPost2010Prop41ColorRGB
 90
        0
102
RTVSPost2010PropOp41
 70
     1
102
RTVSPost2010Prop42
 90
       50
102
RTVSPost2010PropOp42
 70
     1
102
RTVSPost2010Prop43
 90
        3
102
RTVSPost2010PropOp43
 70
     1
102
RTVSPost2010Prop44ColorIndex
 90
        5
102
RTVSPost2010Prop44ColorRGB
 90
      255
102
RTVSPost2010PropOp44
 70
     1
102
RTVSPost2010Prop45
280
     0
102
RTVSPost2010PropOp45
 70
     1
102
RTVSPost2010Prop46
 90
       50
102
RTVSPost2010PropOp46
 70
     1
102
RTVSPost2010Prop47
 90
       50
102
RTVSPost2010PropOp47
 70
     1
102
RTVSPost2010Prop48
 90
       50
102
RTVSPost2010PropOp48
 70
     1
102
RTVSPost2010Prop49
280
     0
102
RTVSPost2010PropOp49
 70
     1
102
RTVSPost2010Prop50
 90
       50
102
RTVSPost2010PropOp50
 70
     1
102
RTVSPost2010Prop51ColorIndex
 90
      256
102
RTVSPost2010Prop51ColorRGB
 90
-16777216
102
RTVSPost2010PropOp51
 70
     0
102
RTVSPost2010Prop52
140
1.0
102
RTVSPost2010PropOp52
 70
     0
102
RTVSPost2010Prop53
 90
        2
102
RTVSPost2010PropOp53
 70
     1
102
RTVSPost2010Prop54
  1
strokes_ogs.tif
102
RTVSPost2010PropOp54
 70
     1
102
RTVSPost2010Prop55
280
     0
102
RTVSPost2010PropOp55
 70
     1
102
RTVSPost2010Prop56
140
1.0
102
RTVSPost2010PropOp56
 70
     1
102
RTVSPost2010Prop57
140
1.0
102
RTVSPost2010PropOp57
 70
     1
  0
XRECORD
  5
94
102
{ACAD_REACTORS
330
93
102
}
330
93
100
AcDbXrecord
280
     1
102
RTVSPropertyOp0
 70
     1
102
RTVSPropertyOp1
 70
     1
102
RTVSPropertyOp2
 70
     1
102
RTVSPropertyOp3
 70
     1
102
RTVSPropertyOp4
 70
     1
102
RTVSPropertyOp5
 70
     1
102
RTVSPropertyOp6
 70
     1
102
RTVSPropertyOp7
 70
     1
102
RTVSPropertyOp8
 70
     1
102
RTVSPropertyOp9
 70
     1
102
RTVSPropertyOp10
 70
     1
102
RTVSPropertyOp11
 70
     1
102
RTVSPropertyOp12
 70
     1
102
RTVSPropertyOp13
 70
     1
102
RTVSPropertyOp14
 70
     1
102
RTVSPropertyOp15
 70
     1
102
RTVSPropertyOp16
 70
     1
102
RTVSPropertyOp17
 70
     1
102
RTVSPropertyOp18
 70
     1
102
RTVSPropertyOp19
 70
     1
102
RTVSPropertyOp20
 70
     1
102
RTVSPropertyOp21
 70
     1
102
RTVSPropertyOp22
 70
     1
102
RTVSPropertyOp23
 70
     1
102
RTVSPropertyOp24
 70
     1
102
RTVSPropertyOp25
 70
     1
102
RTVSPropertyOp26
 70
     1
102
RTVSPropertyOp27
 70
     1
102
RTVSPropertyOp28
 70
     1
102
RTVSPropertyOp29
 70
     1
102
RTVSPropertyOp30
 70
     1
102
RTVSPropertyOp31
 70
     1
102
RTVSPropertyOp32
 70
     1
102
RTVSPropertyOp33
 70
     1
102
RTVSPropertyOp34
 70
     1
102
RTVSPropertyOp35
 70
     1
102
RTVSPropertyOp36
 70
     1
102
RTVSPropertyOp37
 70
     1
102
RTVSPropertyOp38
 70
     1
102
RTVSPropertyOp39
 70
     1
102
RTVSPropertyOp40
 70
     1
102
RTVSPropertyOp41
 70
     1
102
RTVSPropertyOp42
 70
     1
102
RTVSPropertyOp43
 70
     1
102
RTVSPropertyOp44
 70
     1
102
RTVSPropertyOp45
 70
     1
102
RTVSPropertyOp46
 70
     1
102
RTVSPropertyOp47
 70
     1
102
RTVSPropertyOp48
 70
     1
102
RTVSPropertyOp49
 70
     1
102
RTVSPropertyOp50
 70
     1
102
RTVSPropertyOp51
 70
     0
102
RTVSPropertyOp52
 70
     0
102
RTVSPropertyOp53
 70
     1
102
RTVSPropertyOp54
 70
     1
102
RTVSPropertyOp55
 70
     1
102
RTVSPropertyOp56
 70
     1
102
RTVSPropertyOp57
 70
     1
102
RTVSPost2010Prop28
280
     0
102
RTVSPost2010PropOp28
 70
     1
102
RTVSPost2010Prop29
280
     1
102
RTVSPost2010PropOp29
 70
     1
102
RTVSPost2010Prop30
280
     1
102
RTVSPost2010PropOp30
 70
     1
102
RTVSPost2010Prop31
280
     0
102
RTVSPost2010PropOp31
 70
     1
102
RTVSPost2010Prop32
280
     0
102
RTVSPost2010PropOp32
 70
     1
102
RTVSPost2010Prop33
280
     0
102
RTVSPost2010PropOp33
 70
     1
102
RTVSPost2010Prop34
280
     0
102
RTVSPost2010PropOp34
 70
     1
102
RTVSPost2010Prop35
280
     0
102
RTVSPost2010PropOp35
 70
     1
102
RTVSPost2010Prop36
280
     0
102
RTVSPost2010PropOp36
 70
     1
102
RTVSPost2010Prop37
 90
       50
102
RTVSPost2010PropOp37
 70
     1
102
RTVSPost2010Prop38
140
0.0
102
RTVSPost2010PropOp38
 70
     1
102
RTVSPost2010Prop39
140
1.0
102
RTVSPost2010PropOp39
 70
     1
102
RTVSPost2010Prop40
 90
        0
102
RTVSPost2010PropOp40
 70
     1
102
RTVSPost2010Prop41ColorIndex
 90
       18
102
RTVSPost2010Prop41ColorRGB
 90
        0
102
RTVSPost2010PropOp41
 70
     1
102
RTVSPost2010Prop42
 90
       50
102
RTVSPost2010PropOp42
 70
     1
102
RTVSPost2010Prop43
 90
        3
102
RTVSPost2010PropOp43
 70
     1
102
RTVSPost2010Prop44ColorIndex
 90
        5
102
RTVSPost2010Prop44ColorRGB
 90
      255
102
RTVSPost2010PropOp44
 70
     1
102
RTVSPost2010Prop45
280
     0
102
RTVSPost2010PropOp45
 70
     1
102
RTVSPost2010Prop46
 90
       50
102
RTVSPost2010PropOp46
 70
     1
102
RTVSPost2010Prop47
 90
       50
102
RTVSPost2010PropOp47
 70
     1
102
RTVSPost2010Prop48
 90
       50
102
RTVSPost2010PropOp48
 70
     1
102
RTVSPost2010Prop49
280
     0
102
RTVSPost2010PropOp49
 70
     1
102
RTVSPost2010Prop50
 90
       50
102
RTVSPost2010PropOp50
 70
     1
102
RTVSPost2010Prop51ColorIndex
 90
      256
102
RTVSPost2010Prop51ColorRGB
 90
-16777216
102
RTVSPost2010PropOp51
 70
     0
102
RTVSPost2010Prop52
140
1.0
102
RTVSPost2010PropOp52
 70
     0
102
RTVSPost2010Prop53
 90
        2
102
RTVSPost2010PropOp53
 70
     1
102
RTVSPost2010Prop54
  1
strokes_ogs.tif
102
RTVSPost2010PropOp54
 70
     1
102
RTVSPost2010Prop55
280
     0
102
RTVSPost2010PropOp55
 70
     1
102
RTVSPost2010Prop56
140
1.0
102
RTVSPost2010PropOp56
 70
     1
102
RTVSPost2010Prop57
140
1.0
102
RTVSPost2010PropOp57
 70
     1
  0
XRECORD
  5
9A
102
{ACAD_REACTORS
330
99
102
}
330
99
100
AcDbXrecord
280
     1
102
RTVSPropertyOp0
 70
     1
102
RTVSPropertyOp1
 70
     1
102
RTVSPropertyOp2
 70
     1
102
RTVSPropertyOp3
 70
     1
102
RTVSPropertyOp4
 70
     1
102
RTVSPropertyOp5
 70
     1
102
RTVSPropertyOp6
 70
     1
102
RTVSPropertyOp7
 70
     1
102
RTVSPropertyOp8
 70
     1
102
RTVSPropertyOp9
 70
     1
102
RTVSPropertyOp10
 70
     1
102
RTVSPropertyOp11
 70
     1
102
RTVSPropertyOp12
 70
     1
102
RTVSPropertyOp13
 70
     1
102
RTVSPropertyOp14
 70
     1
102
RTVSPropertyOp15
 70
     1
102
RTVSPropertyOp16
 70
     1
102
RTVSPropertyOp17
 70
     1
102
RTVSPropertyOp18
 70
     1
102
RTVSPropertyOp19
 70
     1
102
RTVSPropertyOp20
 70
     1
102
RTVSPropertyOp21
 70
     1
102
RTVSPropertyOp22
 70
     1
102
RTVSPropertyOp23
 70
     1
102
RTVSPropertyOp24
 70
     1
102
RTVSPropertyOp25
 70
     1
102
RTVSPropertyOp26
 70
     1
102
RTVSPropertyOp27
 70
     1
102
RTVSPropertyOp28
 70
     1
102
RTVSPropertyOp29
 70
     1
102
RTVSPropertyOp30
 70
     1
102
RTVSPropertyOp31
 70
     1
102
RTVSPropertyOp32
 70
     1
102
RTVSPropertyOp33
 70
     1
102
RTVSPropertyOp34
 70
     1
102
RTVSPropertyOp35
 70
     1
102
RTVSPropertyOp36
 70
     1
102
RTVSPropertyOp37
 70
     1
102
RTVSPropertyOp38
 70
     1
102
RTVSPropertyOp39
 70
     1
102
RTVSPropertyOp40
 70
     1
102
RTVSPropertyOp41
 70
     1
102
RTVSPropertyOp42
 70
     1
102
RTVSPropertyOp43
 70
     1
102
RTVSPropertyOp44
 70
     1
102
RTVSPropertyOp45
 70
     1
102
RTVSPropertyOp46
 70
     1
102
RTVSPropertyOp47
 70
     1
102
RTVSPropertyOp48
 70
     1
102
RTVSPropertyOp49
 70
     1
102
RTVSPropertyOp50
 70
     1
102
RTVSPropertyOp51
 70
     0
102
RTVSPropertyOp52
 70
     0
102
RTVSPropertyOp53
 70
     1
102
RTVSPropertyOp54
 70
     1
102
RTVSPropertyOp55
 70
     1
102
RTVSPropertyOp56
 70
     1
102
RTVSPropertyOp57
 70
     1
102
RTVSPost2010Prop28
280
     0
102
RTVSPost2010PropOp28
 70
     1
102
RTVSPost2010Prop29
280
     1
102
RTVSPost2010PropOp29
 70
     1
102
RTVSPost2010Prop30
280
     1
102
RTVSPost2010PropOp30
 70
     1
102
RTVSPost2010Prop31
280
     0
102
RTVSPost2010PropOp31
 70
     1
102
RTVSPost2010Prop32
280
     0
102
RTVSPost2010PropOp32
 70
     1
102
RTVSPost2010Prop33
280
     0
102
RTVSPost2010PropOp33
 70
     1
102
RTVSPost2010Prop34
280
     0
102
RTVSPost2010PropOp34
 70
     1
102
RTVSPost2010Prop35
280
     0
102
RTVSPost2010PropOp35
 70
     1
102
RTVSPost2010Prop36
280
     0
102
RTVSPost2010PropOp36
 70
     1
102
RTVSPost2010Prop37
 90
       50
102
RTVSPost2010PropOp37
 70
     1
102
RTVSPost2010Prop38
140
0.0
102
RTVSPost2010PropOp38
 70
     1
102
RTVSPost2010Prop39
140
1.0
102
RTVSPost2010PropOp39
 70
     1
102
RTVSPost2010Prop40
 90
        0
102
RTVSPost2010PropOp40
 70
     1
102
RTVSPost2010Prop41ColorIndex
 90
       18
102
RTVSPost2010Prop41ColorRGB
 90
        0
102
RTVSPost2010PropOp41
 70
     1
102
RTVSPost2010Prop42
 90
       50
102
RTVSPost2010PropOp42
 70
     1
102
RTVSPost2010Prop43
 90
        3
102
RTVSPost2010PropOp43
 70
     1
102
RTVSPost2010Prop44ColorIndex
 90
        5
102
RTVSPost2010Prop44ColorRGB
 90
      255
102
RTVSPost2010PropOp44
 70
     1
102
RTVSPost2010Prop45
280
     0
102
RTVSPost2010PropOp45
 70
     1
102
RTVSPost2010Prop46
 90
       50
102
RTVSPost2010PropOp46
 70
     1
102
RTVSPost2010Prop47
 90
       50
102
RTVSPost2010PropOp47
 70
     1
102
RTVSPost2010Prop48
 90
       50
102
RTVSPost2010PropOp48
 70
     1
102
RTVSPost2010Prop49
280
     0
102
RTVSPost2010PropOp49
 70
     1
102
RTVSPost2010Prop50
 90
       50
102
RTVSPost2010PropOp50
 70
     1
102
RTVSPost2010Prop51ColorIndex
 90
      256
102
RTVSPost2010Prop51ColorRGB
 90
-16777216
102
RTVSPost2010PropOp51
 70
     0
102
RTVSPost2010Prop52
140
1.0
102
RTVSPost2010PropOp52
 70
     0
102
RTVSPost2010Prop53
 90
        2
102
RTVSPost2010PropOp53
 70
     1
102
RTVSPost2010Prop54
  1
strokes_ogs.tif
102
RTVSPost2010PropOp54
 70
     1
102
RTVSPost2010Prop55
280
     0
102
RTVSPost2010PropOp55
 70
     1
102
RTVSPost2010Prop56
140
1.0
102
RTVSPost2010PropOp56
 70
     1
102
RTVSPost2010Prop57
140
1.0
102
RTVSPost2010PropOp57
 70
     1
  0
XRECORD
  5
AE
102
{ACAD_REACTORS
330
AD
102
}
330
AD
100
AcDbXrecord
280
     1
102
RTVSPropertyOp0
 70
     0
102
RTVSPropertyOp1
 70
     0
102
RTVSPropertyOp2
 70
     0
102
RTVSPropertyOp3
 70
     0
102
RTVSPropertyOp4
 70
     0
102
RTVSPropertyOp5
 70
     0
102
RTVSPropertyOp6
 70
     0
102
RTVSPropertyOp7
 70
     0
102
RTVSPropertyOp8
 70
     0
102
RTVSPropertyOp9
 70
     0
102
RTVSPropertyOp10
 70
     0
102
RTVSPropertyOp11
 70
     0
102
RTVSPropertyOp12
 70
     0
102
RTVSPropertyOp13
 70
     0
102
RTVSPropertyOp14
 70
     2
102
RTVSPropertyOp15
 70
     0
102
RTVSPropertyOp16
 70
     0
102
RTVSPropertyOp17
 70
     0
102
RTVSPropertyOp18
 70
     0
102
RTVSPropertyOp19
 70
     0
102
RTVSPropertyOp20
 70
     0
102
RTVSPropertyOp21
 70
     0
102
RTVSPropertyOp22
 70
     0
102
RTVSPropertyOp23
 70
     0
102
RTVSPropertyOp24
 70
     0
102
RTVSPropertyOp25
 70
     0
102
RTVSPropertyOp26
 70
     0
102
RTVSPropertyOp27
 70
     0
102
RTVSPropertyOp28
 70
     0
102
RTVSPropertyOp29
 70
     0
102
RTVSPropertyOp30
 70
     0
102
RTVSPropertyOp31
 70
     0
102
RTVSPropertyOp32
 70
     0
102
RTVSPropertyOp33
 70
     0
102
RTVSPropertyOp34
 70
     0
102
RTVSPropertyOp35
 70
     0
102
RTVSPropertyOp36
 70
     0
102
RTVSPropertyOp37
 70
     0
102
RTVSPropertyOp38
 70
     0
102
RTVSPropertyOp39
 70
     0
102
RTVSPropertyOp40
 70
     0
102
RTVSPropertyOp41
 70
     0
102
RTVSPropertyOp42
 70
     0
102
RTVSPropertyOp43
 70
     0
102
RTVSPropertyOp44
 70
     0
102
RTVSPropertyOp45
 70
     0
102
RTVSPropertyOp46
 70
     0
102
RTVSPropertyOp47
 70
     0
102
RTVSPropertyOp48
 70
     0
102
RTVSPropertyOp49
 70
     0
102
RTVSPropertyOp50
 70
     0
102
RTVSPropertyOp51
 70
     0
102
RTVSPropertyOp52
 70
     0
102
RTVSPropertyOp53
 70
     0
102
RTVSPropertyOp54
 70
     0
102
RTVSPropertyOp55
 70
     0
102
RTVSPropertyOp56
 70
     0
102
RTVSPropertyOp57
 70
     0
102
RTVSPost2010Prop28
280
     0
102
RTVSPost2010PropOp28
 70
     0
102
RTVSPost2010Prop29
280
     1
102
RTVSPost2010PropOp29
 70
     0
102
RTVSPost2010Prop30
280
     1
102
RTVSPost2010PropOp30
 70
     0
102
RTVSPost2010Prop31
280
     0
102
RTVSPost2010PropOp31
 70
     0
102
RTVSPost2010Prop32
280
     0
102
RTVSPost2010PropOp32
 70
     0
102
RTVSPost2010Prop33
280
     0
102
RTVSPost2010PropOp33
 70
     0
102
RTVSPost2010Prop34
280
     0
102
RTVSPost2010PropOp34
 70
     0
102
RTVSPost2010Prop35
280
     0
102
RTVSPost2010PropOp35
 70
     0
102
RTVSPost2010Prop36
280
     0
102
RTVSPost2010PropOp36
 70
     0
102
RTVSPost2010Prop37
 90
       50
102
RTVSPost2010PropOp37
 70
     0
102
RTVSPost2010Prop38
140
0.0
102
RTVSPost2010PropOp38
 70
     0
102
RTVSPost2010Prop39
140
1.0
102
RTVSPost2010PropOp39
 70
     0
102
RTVSPost2010Prop40
 90
        0
102
RTVSPost2010PropOp40
 70
     0
102
RTVSPost2010Prop41ColorIndex
 90
       18
102
RTVSPost2010Prop41ColorRGB
 90
        0
102
RTVSPost2010PropOp41
 70
     0
102
RTVSPost2010Prop42
 90
       50
102
RTVSPost2010PropOp42
 70
     0
102
RTVSPost2010Prop43
 90
        3
102
RTVSPost2010PropOp43
 70
     0
102
RTVSPost2010Prop44ColorIndex
 90
        5
102
RTVSPost2010Prop44ColorRGB
 90
      255
102
RTVSPost2010PropOp44
 70
     0
102
RTVSPost2010Prop45
280
     0
102
RTVSPost2010PropOp45
 70
     0
102
RTVSPost2010Prop46
 90
       50
102
RTVSPost2010PropOp46
 70
     0
102
RTVSPost2010Prop47
 90
       50
102
RTVSPost2010PropOp47
 70
     0
102
RTVSPost2010Prop48
 90
       50
102
RTVSPost2010PropOp48
 70
     0
102
RTVSPost2010Prop49
280
     0
102
RTVSPost2010PropOp49
 70
     0
102
RTVSPost2010Prop50
 90
       50
102
RTVSPost2010PropOp50
 70
     0
102
RTVSPost2010Prop51ColorIndex
 90
      256
102
RTVSPost2010Prop51ColorRGB
 90
-16777216
102
RTVSPost2010PropOp51
 70
     0
102
RTVSPost2010Prop52
140
1.0
102
RTVSPost2010PropOp52
 70
     0
102
RTVSPost2010Prop53
 90
        2
102
RTVSPost2010PropOp53
 70
     0
102
RTVSPost2010Prop54
  1
strokes_ogs.tif
102
RTVSPost2010PropOp54
 70
     0
102
RTVSPost2010Prop55
280
     0
102
RTVSPost2010PropOp55
 70
     0
102
RTVSPost2010Prop56
140
1.0
102
RTVSPost2010PropOp56
 70
     0
102
RTVSPost2010Prop57
140
1.0
102
RTVSPost2010PropOp57
 70
     0
  0
XRECORD
  5
A8
102
{ACAD_REACTORS
330
A7
102
}
330
A7
100
AcDbXrecord
280
     1
102
RTVSPropertyOp0
 70
     1
102
RTVSPropertyOp1
 70
     1
102
RTVSPropertyOp2
 70
     1
102
RTVSPropertyOp3
 70
     1
102
RTVSPropertyOp4
 70
     1
102
RTVSPropertyOp5
 70
     1
102
RTVSPropertyOp6
 70
     1
102
RTVSPropertyOp7
 70
     1
102
RTVSPropertyOp8
 70
     1
102
RTVSPropertyOp9
 70
     1
102
RTVSPropertyOp10
 70
     1
102
RTVSPropertyOp11
 70
     1
102
RTVSPropertyOp12
 70
     1
102
RTVSPropertyOp13
 70
     1
102
RTVSPropertyOp14
 70
     1
102
RTVSPropertyOp15
 70
     1
102
RTVSPropertyOp16
 70
     1
102
RTVSPropertyOp17
 70
     1
102
RTVSPropertyOp18
 70
     1
102
RTVSPropertyOp19
 70
     1
102
RTVSPropertyOp20
 70
     1
102
RTVSPropertyOp21
 70
     1
102
RTVSPropertyOp22
 70
     1
102
RTVSPropertyOp23
 70
     1
102
RTVSPropertyOp24
 70
     1
102
RTVSPropertyOp25
 70
     1
102
RTVSPropertyOp26
 70
     1
102
RTVSPropertyOp27
 70
     1
102
RTVSPropertyOp28
 70
     1
102
RTVSPropertyOp29
 70
     1
102
RTVSPropertyOp30
 70
     1
102
RTVSPropertyOp31
 70
     1
102
RTVSPropertyOp32
 70
     1
102
RTVSPropertyOp33
 70
     1
102
RTVSPropertyOp34
 70
     1
102
RTVSPropertyOp35
 70
     1
102
RTVSPropertyOp36
 70
     1
102
RTVSPropertyOp37
 70
     1
102
RTVSPropertyOp38
 70
     1
102
RTVSPropertyOp39
 70
     1
102
RTVSPropertyOp40
 70
     1
102
RTVSPropertyOp41
 70
     1
102
RTVSPropertyOp42
 70
     1
102
RTVSPropertyOp43
 70
     1
102
RTVSPropertyOp44
 70
     1
102
RTVSPropertyOp45
 70
     1
102
RTVSPropertyOp46
 70
     1
102
RTVSPropertyOp47
 70
     1
102
RTVSPropertyOp48
 70
     1
102
RTVSPropertyOp49
 70
     1
102
RTVSPropertyOp50
 70
     1
102
RTVSPropertyOp51
 70
     0
102
RTVSPropertyOp52
 70
     0
102
RTVSPropertyOp53
 70
     1
102
RTVSPropertyOp54
 70
     1
102
RTVSPropertyOp55
 70
     1
102
RTVSPropertyOp56
 70
     1
102
RTVSPropertyOp57
 70
     1
102
RTVSPost2010Prop28
280
     0
102
RTVSPost2010PropOp28
 70
     1
102
RTVSPost2010Prop29
280
     1
102
RTVSPost2010PropOp29
 70
     1
102
RTVSPost2010Prop30
280
     1
102
RTVSPost2010PropOp30
 70
     1
102
RTVSPost2010Prop31
280
     0
102
RTVSPost2010PropOp31
 70
     1
102
RTVSPost2010Prop32
280
     0
102
RTVSPost2010PropOp32
 70
     1
102
RTVSPost2010Prop33
280
     0
102
RTVSPost2010PropOp33
 70
     1
102
RTVSPost2010Prop34
280
     0
102
RTVSPost2010PropOp34
 70
     1
102
RTVSPost2010Prop35
280
     0
102
RTVSPost2010PropOp35
 70
     1
102
RTVSPost2010Prop36
280
     0
102
RTVSPost2010PropOp36
 70
     1
102
RTVSPost2010Prop37
 90
       50
102
RTVSPost2010PropOp37
 70
     1
102
RTVSPost2010Prop38
140
0.0
102
RTVSPost2010PropOp38
 70
     1
102
RTVSPost2010Prop39
140
1.0
102
RTVSPost2010PropOp39
 70
     1
102
RTVSPost2010Prop40
 90
        0
102
RTVSPost2010PropOp40
 70
     1
102
RTVSPost2010Prop41ColorIndex
 90
       18
102
RTVSPost2010Prop41ColorRGB
 90
        0
102
RTVSPost2010PropOp41
 70
     1
102
RTVSPost2010Prop42
 90
       50
102
RTVSPost2010PropOp42
 70
     1
102
RTVSPost2010Prop43
 90
        3
102
RTVSPost2010PropOp43
 70
     1
102
RTVSPost2010Prop44ColorIndex
 90
        5
102
RTVSPost2010Prop44ColorRGB
 90
      255
102
RTVSPost2010PropOp44
 70
     1
102
RTVSPost2010Prop45
280
     0
102
RTVSPost2010PropOp45
 70
     1
102
RTVSPost2010Prop46
 90
       50
102
RTVSPost2010PropOp46
 70
     1
102
RTVSPost2010Prop47
 90
       50
102
RTVSPost2010PropOp47
 70
     1
102
RTVSPost2010Prop48
 90
       50
102
RTVSPost2010PropOp48
 70
     1
102
RTVSPost2010Prop49
280
     0
102
RTVSPost2010PropOp49
 70
     1
102
RTVSPost2010Prop50
 90
       50
102
RTVSPost2010PropOp50
 70
     1
102
RTVSPost2010Prop51ColorIndex
 90
      256
102
RTVSPost2010Prop51ColorRGB
 90
-16777216
102
RTVSPost2010PropOp51
 70
     0
102
RTVSPost2010Prop52
140
1.0
102
RTVSPost2010PropOp52
 70
     0
102
RTVSPost2010Prop53
 90
        2
102
RTVSPost2010PropOp53
 70
     1
102
RTVSPost2010Prop54
  1
strokes_ogs.tif
102
RTVSPost2010PropOp54
 70
     1
102
RTVSPost2010Prop55
280
     0
102
RTVSPost2010PropOp55
 70
     1
102
RTVSPost2010Prop56
140
1.0
102
RTVSPost2010PropOp56
 70
     1
102
RTVSPost2010Prop57
140
1.0
102
RTVSPost2010PropOp57
 70
     1
  0
XRECORD
  5
B0
102
{ACAD_REACTORS
330
AF
102
}
330
AF
100
AcDbXrecord
280
     1
102
RTVSPropertyOp0
 70
     0
102
RTVSPropertyOp1
 70
     0
102
RTVSPropertyOp2
 70
     0
102
RTVSPropertyOp3
 70
     0
102
RTVSPropertyOp4
 70
     0
102
RTVSPropertyOp5
 70
     0
102
RTVSPropertyOp6
 70
     0
102
RTVSPropertyOp7
 70
     0
102
RTVSPropertyOp8
 70
     0
102
RTVSPropertyOp9
 70
     0
102
RTVSPropertyOp10
 70
     0
102
RTVSPropertyOp11
 70
     0
102
RTVSPropertyOp12
 70
     0
102
RTVSPropertyOp13
 70
     0
102
RTVSPropertyOp14
 70
     2
102
RTVSPropertyOp15
 70
     0
102
RTVSPropertyOp16
 70
     0
102
RTVSPropertyOp17
 70
     0
102
RTVSPropertyOp18
 70
     0
102
RTVSPropertyOp19
 70
     0
102
RTVSPropertyOp20
 70
     0
102
RTVSPropertyOp21
 70
     0
102
RTVSPropertyOp22
 70
     0
102
RTVSPropertyOp23
 70
     0
102
RTVSPropertyOp24
 70
     0
102
RTVSPropertyOp25
 70
     0
102
RTVSPropertyOp26
 70
     0
102
RTVSPropertyOp27
 70
     0
102
RTVSPropertyOp28
 70
     0
102
RTVSPropertyOp29
 70
     0
102
RTVSPropertyOp30
 70
     0
102
RTVSPropertyOp31
 70
     0
102
RTVSPropertyOp32
 70
     0
102
RTVSPropertyOp33
 70
     0
102
RTVSPropertyOp34
 70
     0
102
RTVSPropertyOp35
 70
     0
102
RTVSPropertyOp36
 70
     0
102
RTVSPropertyOp37
 70
     0
102
RTVSPropertyOp38
 70
     0
102
RTVSPropertyOp39
 70
     0
102
RTVSPropertyOp40
 70
     0
102
RTVSPropertyOp41
 70
     0
102
RTVSPropertyOp42
 70
     0
102
RTVSPropertyOp43
 70
     0
102
RTVSPropertyOp44
 70
     0
102
RTVSPropertyOp45
 70
     0
102
RTVSPropertyOp46
 70
     0
102
RTVSPropertyOp47
 70
     0
102
RTVSPropertyOp48
 70
     0
102
RTVSPropertyOp49
 70
     0
102
RTVSPropertyOp50
 70
     0
102
RTVSPropertyOp51
 70
     0
102
RTVSPropertyOp52
 70
     0
102
RTVSPropertyOp53
 70
     0
102
RTVSPropertyOp54
 70
     0
102
RTVSPropertyOp55
 70
     0
102
RTVSPropertyOp56
 70
     0
102
RTVSPropertyOp57
 70
     0
102
RTVSPost2010Prop28
280
     0
102
RTVSPost2010PropOp28
 70
     0
102
RTVSPost2010Prop29
280
     1
102
RTVSPost2010PropOp29
 70
     0
102
RTVSPost2010Prop30
280
     1
102
RTVSPost2010PropOp30
 70
     0
102
RTVSPost2010Prop31
280
     0
102
RTVSPost2010PropOp31
 70
     0
102
RTVSPost2010Prop32
280
     0
102
RTVSPost2010PropOp32
 70
     0
102
RTVSPost2010Prop33
280
     0
102
RTVSPost2010PropOp33
 70
     0
102
RTVSPost2010Prop34
280
     0
102
RTVSPost2010PropOp34
 70
     0
102
RTVSPost2010Prop35
280
     0
102
RTVSPost2010PropOp35
 70
     0
102
RTVSPost2010Prop36
280
     0
102
RTVSPost2010PropOp36
 70
     0
102
RTVSPost2010Prop37
 90
       50
102
RTVSPost2010PropOp37
 70
     0
102
RTVSPost2010Prop38
140
0.0
102
RTVSPost2010PropOp38
 70
     0
102
RTVSPost2010Prop39
140
1.0
102
RTVSPost2010PropOp39
 70
     0
102
RTVSPost2010Prop40
 90
        0
102
RTVSPost2010PropOp40
 70
     0
102
RTVSPost2010Prop41ColorIndex
 90
       18
102
RTVSPost2010Prop41ColorRGB
 90
        0
102
RTVSPost2010PropOp41
 70
     0
102
RTVSPost2010Prop42
 90
       50
102
RTVSPost2010PropOp42
 70
     0
102
RTVSPost2010Prop43
 90
        3
102
RTVSPost2010PropOp43
 70
     0
102
RTVSPost2010Prop44ColorIndex
 90
        5
102
RTVSPost2010Prop44ColorRGB
 90
      255
102
RTVSPost2010PropOp44
 70
     0
102
RTVSPost2010Prop45
280
     0
102
RTVSPost2010PropOp45
 70
     0
102
RTVSPost2010Prop46
 90
       50
102
RTVSPost2010PropOp46
 70
     0
102
RTVSPost2010Prop47
 90
       50
102
RTVSPost2010PropOp47
 70
     0
102
RTVSPost2010Prop48
 90
       50
102
RTVSPost2010PropOp48
 70
     0
102
RTVSPost2010Prop49
280
     0
102
RTVSPost2010PropOp49
 70
     0
102
RTVSPost2010Prop50
 90
       50
102
RTVSPost2010PropOp50
 70
     0
102
RTVSPost2010Prop51ColorIndex
 90
      256
102
RTVSPost2010Prop51ColorRGB
 90
-16777216
102
RTVSPost2010PropOp51
 70
     0
102
RTVSPost2010Prop52
140
1.0
102
RTVSPost2010PropOp52
 70
     0
102
RTVSPost2010Prop53
 90
        2
102
RTVSPost2010PropOp53
 70
     0
102
RTVSPost2010Prop54
  1
strokes_ogs.tif
102
RTVSPost2010PropOp54
 70
     0
102
RTVSPost2010Prop55
280
     0
102
RTVSPost2010PropOp55
 70
     0
102
RTVSPost2010Prop56
140
1.0
102
RTVSPost2010PropOp56
 70
     0
102
RTVSPost2010Prop57
140
1.0
102
RTVSPost2010PropOp57
 70
     0
  0
XRECORD
  5
9E
102
{ACAD_REACTORS
330
9D
102
}
330
9D
100
AcDbXrecord
280
     1
102
RTVSPropertyOp0
 70
     1
102
RTVSPropertyOp1
 70
     1
102
RTVSPropertyOp2
 70
     1
102
RTVSPropertyOp3
 70
     1
102
RTVSPropertyOp4
 70
     1
102
RTVSPropertyOp5
 70
     1
102
RTVSPropertyOp6
 70
     1
102
RTVSPropertyOp7
 70
     1
102
RTVSPropertyOp8
 70
     1
102
RTVSPropertyOp9
 70
     1
102
RTVSPropertyOp10
 70
     1
102
RTVSPropertyOp11
 70
     1
102
RTVSPropertyOp12
 70
     1
102
RTVSPropertyOp13
 70
     1
102
RTVSPropertyOp14
 70
     1
102
RTVSPropertyOp15
 70
     1
102
RTVSPropertyOp16
 70
     1
102
RTVSPropertyOp17
 70
     1
102
RTVSPropertyOp18
 70
     1
102
RTVSPropertyOp19
 70
     1
102
RTVSPropertyOp20
 70
     1
102
RTVSPropertyOp21
 70
     1
102
RTVSPropertyOp22
 70
     1
102
RTVSPropertyOp23
 70
     1
102
RTVSPropertyOp24
 70
     1
102
RTVSPropertyOp25
 70
     1
102
RTVSPropertyOp26
 70
     1
102
RTVSPropertyOp27
 70
     1
102
RTVSPropertyOp28
 70
     1
102
RTVSPropertyOp29
 70
     1
102
RTVSPropertyOp30
 70
     1
102
RTVSPropertyOp31
 70
     1
102
RTVSPropertyOp32
 70
     1
102
RTVSPropertyOp33
 70
     1
102
RTVSPropertyOp34
 70
     1
102
RTVSPropertyOp35
 70
     1
102
RTVSPropertyOp36
 70
     1
102
RTVSPropertyOp37
 70
     1
102
RTVSPropertyOp38
 70
     1
102
RTVSPropertyOp39
 70
     1
102
RTVSPropertyOp40
 70
     1
102
RTVSPropertyOp41
 70
     1
102
RTVSPropertyOp42
 70
     1
102
RTVSPropertyOp43
 70
     1
102
RTVSPropertyOp44
 70
     1
102
RTVSPropertyOp45
 70
     1
102
RTVSPropertyOp46
 70
     1
102
RTVSPropertyOp47
 70
     1
102
RTVSPropertyOp48
 70
     1
102
RTVSPropertyOp49
 70
     1
102
RTVSPropertyOp50
 70
     1
102
RTVSPropertyOp51
 70
     0
102
RTVSPropertyOp52
 70
     0
102
RTVSPropertyOp53
 70
     1
102
RTVSPropertyOp54
 70
     1
102
RTVSPropertyOp55
 70
     1
102
RTVSPropertyOp56
 70
     1
102
RTVSPropertyOp57
 70
     1
102
RTVSPost2010Prop28
280
     0
102
RTVSPost2010PropOp28
 70
     1
102
RTVSPost2010Prop29
280
     1
102
RTVSPost2010PropOp29
 70
     1
102
RTVSPost2010Prop30
280
     1
102
RTVSPost2010PropOp30
 70
     1
102
RTVSPost2010Prop31
280
     0
102
RTVSPost2010PropOp31
 70
     1
102
RTVSPost2010Prop32
280
     0
102
RTVSPost2010PropOp32
 70
     1
102
RTVSPost2010Prop33
280
     0
102
RTVSPost2010PropOp33
 70
     1
102
RTVSPost2010Prop34
280
     0
102
RTVSPost2010PropOp34
 70
     1
102
RTVSPost2010Prop35
280
     0
102
RTVSPost2010PropOp35
 70
     1
102
RTVSPost2010Prop36
280
     0
102
RTVSPost2010PropOp36
 70
     1
102
RTVSPost2010Prop37
 90
       50
102
RTVSPost2010PropOp37
 70
     1
102
RTVSPost2010Prop38
140
0.0
102
RTVSPost2010PropOp38
 70
     1
102
RTVSPost2010Prop39
140
1.0
102
RTVSPost2010PropOp39
 70
     1
102
RTVSPost2010Prop40
 90
        0
102
RTVSPost2010PropOp40
 70
     1
102
RTVSPost2010Prop41ColorIndex
 90
       18
102
RTVSPost2010Prop41ColorRGB
 90
        0
102
RTVSPost2010PropOp41
 70
     1
102
RTVSPost2010Prop42
 90
       50
102
RTVSPost2010PropOp42
 70
     1
102
RTVSPost2010Prop43
 90
        3
102
RTVSPost2010PropOp43
 70
     1
102
RTVSPost2010Prop44ColorIndex
 90
        5
102
RTVSPost2010Prop44ColorRGB
 90
      255
102
RTVSPost2010PropOp44
 70
     1
102
RTVSPost2010Prop45
280
     0
102
RTVSPost2010PropOp45
 70
     1
102
RTVSPost2010Prop46
 90
       50
102
RTVSPost2010PropOp46
 70
     1
102
RTVSPost2010Prop47
 90
       50
102
RTVSPost2010PropOp47
 70
     1
102
RTVSPost2010Prop48
 90
       50
102
RTVSPost2010PropOp48
 70
     1
102
RTVSPost2010Prop49
280
     0
102
RTVSPost2010PropOp49
 70
     1
102
RTVSPost2010Prop50
 90
       50
102
RTVSPost2010PropOp50
 70
     1
102
RTVSPost2010Prop51ColorIndex
 90
      256
102
RTVSPost2010Prop51ColorRGB
 90
-16777216
102
RTVSPost2010PropOp51
 70
     0
102
RTVSPost2010Prop52
140
1.0
102
RTVSPost2010PropOp52
 70
     0
102
RTVSPost2010Prop53
 90
        2
102
RTVSPost2010PropOp53
 70
     1
102
RTVSPost2010Prop54
  1
strokes_ogs.tif
102
RTVSPost2010PropOp54
 70
     1
102
RTVSPost2010Prop55
280
     0
102
RTVSPost2010PropOp55
 70
     1
102
RTVSPost2010Prop56
140
1.0
102
RTVSPost2010PropOp56
 70
     1
102
RTVSPost2010Prop57
140
1.0
102
RTVSPost2010PropOp57
 70
     1
  0
XRECORD
  5
BC
102
{ACAD_REACTORS
330
BB
102
}
330
BB
100
AcDbXrecord
280
     1
102
RTVSPropertyOp0
 70
     1
102
RTVSPropertyOp1
 70
     1
102
RTVSPropertyOp2
 70
     1
102
RTVSPropertyOp3
 70
     1
102
RTVSPropertyOp4
 70
     1
102
RTVSPropertyOp5
 70
     1
102
RTVSPropertyOp6
 70
     1
102
RTVSPropertyOp7
 70
     1
102
RTVSPropertyOp8
 70
     1
102
RTVSPropertyOp9
 70
     1
102
RTVSPropertyOp10
 70
     1
102
RTVSPropertyOp11
 70
     1
102
RTVSPropertyOp12
 70
     1
102
RTVSPropertyOp13
 70
     1
102
RTVSPropertyOp14
 70
     1
102
RTVSPropertyOp15
 70
     1
102
RTVSPropertyOp16
 70
     1
102
RTVSPropertyOp17
 70
     1
102
RTVSPropertyOp18
 70
     1
102
RTVSPropertyOp19
 70
     1
102
RTVSPropertyOp20
 70
     1
102
RTVSPropertyOp21
 70
     1
102
RTVSPropertyOp22
 70
     1
102
RTVSPropertyOp23
 70
     1
102
RTVSPropertyOp24
 70
     1
102
RTVSPropertyOp25
 70
     1
102
RTVSPropertyOp26
 70
     1
102
RTVSPropertyOp27
 70
     1
102
RTVSPropertyOp28
 70
     1
102
RTVSPropertyOp29
 70
     1
102
RTVSPropertyOp30
 70
     1
102
RTVSPropertyOp31
 70
     1
102
RTVSPropertyOp32
 70
     1
102
RTVSPropertyOp33
 70
     1
102
RTVSPropertyOp34
 70
     1
102
RTVSPropertyOp35
 70
     1
102
RTVSPropertyOp36
 70
     1
102
RTVSPropertyOp37
 70
     1
102
RTVSPropertyOp38
 70
     1
102
RTVSPropertyOp39
 70
     1
102
RTVSPropertyOp40
 70
     1
102
RTVSPropertyOp41
 70
     1
102
RTVSPropertyOp42
 70
     1
102
RTVSPropertyOp43
 70
     1
102
RTVSPropertyOp44
 70
     1
102
RTVSPropertyOp45
 70
     1
102
RTVSPropertyOp46
 70
     1
102
RTVSPropertyOp47
 70
     1
102
RTVSPropertyOp48
 70
     1
102
RTVSPropertyOp49
 70
     1
102
RTVSPropertyOp50
 70
     1
102
RTVSPropertyOp51
 70
     0
102
RTVSPropertyOp52
 70
     0
102
RTVSPropertyOp53
 70
     1
102
RTVSPropertyOp54
 70
     1
102
RTVSPropertyOp55
 70
     1
102
RTVSPropertyOp56
 70
     1
102
RTVSPropertyOp57
 70
     1
102
RTVSPost2010Prop28
280
     0
102
RTVSPost2010PropOp28
 70
     1
102
RTVSPost2010Prop29
280
     1
102
RTVSPost2010PropOp29
 70
     1
102
RTVSPost2010Prop30
280
     1
102
RTVSPost2010PropOp30
 70
     1
102
RTVSPost2010Prop31
280
     0
102
RTVSPost2010PropOp31
 70
     1
102
RTVSPost2010Prop32
280
     0
102
RTVSPost2010PropOp32
 70
     1
102
RTVSPost2010Prop33
280
     0
102
RTVSPost2010PropOp33
 70
     1
102
RTVSPost2010Prop34
280
     0
102
RTVSPost2010PropOp34
 70
     1
102
RTVSPost2010Prop35
280
     0
102
RTVSPost2010PropOp35
 70
     1
102
RTVSPost2010Prop36
280
     0
102
RTVSPost2010PropOp36
 70
     1
102
RTVSPost2010Prop37
 90
       50
102
RTVSPost2010PropOp37
 70
     1
102
RTVSPost2010Prop38
140
0.0
102
RTVSPost2010PropOp38
 70
     1
102
RTVSPost2010Prop39
140
1.0
102
RTVSPost2010PropOp39
 70
     1
102
RTVSPost2010Prop40
 90
        0
102
RTVSPost2010PropOp40
 70
     1
102
RTVSPost2010Prop41ColorIndex
 90
       18
102
RTVSPost2010Prop41ColorRGB
 90
        0
102
RTVSPost2010PropOp41
 70
     1
102
RTVSPost2010Prop42
 90
       50
102
RTVSPost2010PropOp42
 70
     1
102
RTVSPost2010Prop43
 90
        3
102
RTVSPost2010PropOp43
 70
     1
102
RTVSPost2010Prop44ColorIndex
 90
        5
102
RTVSPost2010Prop44ColorRGB
 90
      255
102
RTVSPost2010PropOp44
 70
     1
102
RTVSPost2010Prop45
280
     0
102
RTVSPost2010PropOp45
 70
     1
102
RTVSPost2010Prop46
 90
       50
102
RTVSPost2010PropOp46
 70
     1
102
RTVSPost2010Prop47
 90
       50
102
RTVSPost2010PropOp47
 70
     1
102
RTVSPost2010Prop48
 90
       50
102
RTVSPost2010PropOp48
 70
     1
102
RTVSPost2010Prop49
280
     0
102
RTVSPost2010PropOp49
 70
     1
102
RTVSPost2010Prop50
 90
       50
102
RTVSPost2010PropOp50
 70
     1
102
RTVSPost2010Prop51ColorIndex
 90
      256
102
RTVSPost2010Prop51ColorRGB
 90
-16777216
102
RTVSPost2010PropOp51
 70
     0
102
RTVSPost2010Prop52
140
1.0
102
RTVSPost2010PropOp52
 70
     0
102
RTVSPost2010Prop53
 90
        2
102
RTVSPost2010PropOp53
 70
     1
102
RTVSPost2010Prop54
  1
strokes_ogs.tif
102
RTVSPost2010PropOp54
 70
     1
102
RTVSPost2010Prop55
280
     0
102
RTVSPost2010PropOp55
 70
     1
102
RTVSPost2010Prop56
140
1.0
102
RTVSPost2010PropOp56
 70
     1
102
RTVSPost2010Prop57
140
1.0
102
RTVSPost2010PropOp57
 70
     1
  0
XRECORD
  5
BA
102
{ACAD_REACTORS
330
B9
102
}
330
B9
100
AcDbXrecord
280
     1
102
RTVSPropertyOp0
 70
     1
102
RTVSPropertyOp1
 70
     1
102
RTVSPropertyOp2
 70
     1
102
RTVSPropertyOp3
 70
     1
102
RTVSPropertyOp4
 70
     1
102
RTVSPropertyOp5
 70
     1
102
RTVSPropertyOp6
 70
     1
102
RTVSPropertyOp7
 70
     1
102
RTVSPropertyOp8
 70
     1
102
RTVSPropertyOp9
 70
     1
102
RTVSPropertyOp10
 70
     1
102
RTVSPropertyOp11
 70
     1
102
RTVSPropertyOp12
 70
     1
102
RTVSPropertyOp13
 70
     1
102
RTVSPropertyOp14
 70
     1
102
RTVSPropertyOp15
 70
     1
102
RTVSPropertyOp16
 70
     1
102
RTVSPropertyOp17
 70
     1
102
RTVSPropertyOp18
 70
     1
102
RTVSPropertyOp19
 70
     1
102
RTVSPropertyOp20
 70
     1
102
RTVSPropertyOp21
 70
     1
102
RTVSPropertyOp22
 70
     1
102
RTVSPropertyOp23
 70
     1
102
RTVSPropertyOp24
 70
     1
102
RTVSPropertyOp25
 70
     1
102
RTVSPropertyOp26
 70
     1
102
RTVSPropertyOp27
 70
     1
102
RTVSPropertyOp28
 70
     1
102
RTVSPropertyOp29
 70
     1
102
RTVSPropertyOp30
 70
     1
102
RTVSPropertyOp31
 70
     1
102
RTVSPropertyOp32
 70
     1
102
RTVSPropertyOp33
 70
     1
102
RTVSPropertyOp34
 70
     1
102
RTVSPropertyOp35
 70
     1
102
RTVSPropertyOp36
 70
     1
102
RTVSPropertyOp37
 70
     1
102
RTVSPropertyOp38
 70
     1
102
RTVSPropertyOp39
 70
     1
102
RTVSPropertyOp40
 70
     1
102
RTVSPropertyOp41
 70
     1
102
RTVSPropertyOp42
 70
     1
102
RTVSPropertyOp43
 70
     1
102
RTVSPropertyOp44
 70
     1
102
RTVSPropertyOp45
 70
     1
102
RTVSPropertyOp46
 70
     1
102
RTVSPropertyOp47
 70
     1
102
RTVSPropertyOp48
 70
     1
102
RTVSPropertyOp49
 70
     1
102
RTVSPropertyOp50
 70
     1
102
RTVSPropertyOp51
 70
     0
102
RTVSPropertyOp52
 70
     0
102
RTVSPropertyOp53
 70
     1
102
RTVSPropertyOp54
 70
     1
102
RTVSPropertyOp55
 70
     1
102
RTVSPropertyOp56
 70
     1
102
RTVSPropertyOp57
 70
     1
102
RTVSPost2010Prop28
280
     0
102
RTVSPost2010PropOp28
 70
     1
102
RTVSPost2010Prop29
280
     1
102
RTVSPost2010PropOp29
 70
     1
102
RTVSPost2010Prop30
280
     1
102
RTVSPost2010PropOp30
 70
     1
102
RTVSPost2010Prop31
280
     0
102
RTVSPost2010PropOp31
 70
     1
102
RTVSPost2010Prop32
280
     0
102
RTVSPost2010PropOp32
 70
     1
102
RTVSPost2010Prop33
280
     0
102
RTVSPost2010PropOp33
 70
     1
102
RTVSPost2010Prop34
280
     0
102
RTVSPost2010PropOp34
 70
     1
102
RTVSPost2010Prop35
280
     0
102
RTVSPost2010PropOp35
 70
     1
102
RTVSPost2010Prop36
280
     0
102
RTVSPost2010PropOp36
 70
     1
102
RTVSPost2010Prop37
 90
       50
102
RTVSPost2010PropOp37
 70
     1
102
RTVSPost2010Prop38
140
0.0
102
RTVSPost2010PropOp38
 70
     1
102
RTVSPost2010Prop39
140
1.0
102
RTVSPost2010PropOp39
 70
     1
102
RTVSPost2010Prop40
 90
        0
102
RTVSPost2010PropOp40
 70
     1
102
RTVSPost2010Prop41ColorIndex
 90
       18
102
RTVSPost2010Prop41ColorRGB
 90
        0
102
RTVSPost2010PropOp41
 70
     1
102
RTVSPost2010Prop42
 90
       50
102
RTVSPost2010PropOp42
 70
     1
102
RTVSPost2010Prop43
 90
        3
102
RTVSPost2010PropOp43
 70
     1
102
RTVSPost2010Prop44ColorIndex
 90
        5
102
RTVSPost2010Prop44ColorRGB
 90
      255
102
RTVSPost2010PropOp44
 70
     1
102
RTVSPost2010Prop45
280
     0
102
RTVSPost2010PropOp45
 70
     1
102
RTVSPost2010Prop46
 90
       50
102
RTVSPost2010PropOp46
 70
     1
102
RTVSPost2010Prop47
 90
       50
102
RTVSPost2010PropOp47
 70
     1
102
RTVSPost2010Prop48
 90
       50
102
RTVSPost2010PropOp48
 70
     1
102
RTVSPost2010Prop49
280
     0
102
RTVSPost2010PropOp49
 70
     1
102
RTVSPost2010Prop50
 90
       50
102
RTVSPost2010PropOp50
 70
     1
102
RTVSPost2010Prop51ColorIndex
 90
      256
102
RTVSPost2010Prop51ColorRGB
 90
-16777216
102
RTVSPost2010PropOp51
 70
     0
102
RTVSPost2010Prop52
140
1.0
102
RTVSPost2010PropOp52
 70
     0
102
RTVSPost2010Prop53
 90
        2
102
RTVSPost2010PropOp53
 70
     1
102
RTVSPost2010Prop54
  1
strokes_ogs.tif
102
RTVSPost2010PropOp54
 70
     1
102
RTVSPost2010Prop55
280
     0
102
RTVSPost2010PropOp55
 70
     1
102
RTVSPost2010Prop56
140
1.0
102
RTVSPost2010PropOp56
 70
     1
102
RTVSPost2010Prop57
140
1.0
102
RTVSPost2010PropOp57
 70
     1
  0
XRECORD
  5
B4
102
{ACAD_REACTORS
330
B3
102
}
330
B3
100
AcDbXrecord
280
     1
102
RTVSPropertyOp0
 70
     1
102
RTVSPropertyOp1
 70
     1
102
RTVSPropertyOp2
 70
     1
102
RTVSPropertyOp3
 70
     1
102
RTVSPropertyOp4
 70
     1
102
RTVSPropertyOp5
 70
     1
102
RTVSPropertyOp6
 70
     1
102
RTVSPropertyOp7
 70
     1
102
RTVSPropertyOp8
 70
     1
102
RTVSPropertyOp9
 70
     1
102
RTVSPropertyOp10
 70
     1
102
RTVSPropertyOp11
 70
     1
102
RTVSPropertyOp12
 70
     1
102
RTVSPropertyOp13
 70
     1
102
RTVSPropertyOp14
 70
     1
102
RTVSPropertyOp15
 70
     1
102
RTVSPropertyOp16
 70
     1
102
RTVSPropertyOp17
 70
     1
102
RTVSPropertyOp18
 70
     1
102
RTVSPropertyOp19
 70
     1
102
RTVSPropertyOp20
 70
     1
102
RTVSPropertyOp21
 70
     1
102
RTVSPropertyOp22
 70
     1
102
RTVSPropertyOp23
 70
     1
102
RTVSPropertyOp24
 70
     1
102
RTVSPropertyOp25
 70
     1
102
RTVSPropertyOp26
 70
     1
102
RTVSPropertyOp27
 70
     1
102
RTVSPropertyOp28
 70
     1
102
RTVSPropertyOp29
 70
     1
102
RTVSPropertyOp30
 70
     1
102
RTVSPropertyOp31
 70
     1
102
RTVSPropertyOp32
 70
     1
102
RTVSPropertyOp33
 70
     1
102
RTVSPropertyOp34
 70
     1
102
RTVSPropertyOp35
 70
     1
102
RTVSPropertyOp36
 70
     1
102
RTVSPropertyOp37
 70
     1
102
RTVSPropertyOp38
 70
     1
102
RTVSPropertyOp39
 70
     1
102
RTVSPropertyOp40
 70
     1
102
RTVSPropertyOp41
 70
     1
102
RTVSPropertyOp42
 70
     1
102
RTVSPropertyOp43
 70
     1
102
RTVSPropertyOp44
 70
     1
102
RTVSPropertyOp45
 70
     1
102
RTVSPropertyOp46
 70
     1
102
RTVSPropertyOp47
 70
     1
102
RTVSPropertyOp48
 70
     1
102
RTVSPropertyOp49
 70
     1
102
RTVSPropertyOp50
 70
     1
102
RTVSPropertyOp51
 70
     0
102
RTVSPropertyOp52
 70
     0
102
RTVSPropertyOp53
 70
     1
102
RTVSPropertyOp54
 70
     1
102
RTVSPropertyOp55
 70
     1
102
RTVSPropertyOp56
 70
     1
102
RTVSPropertyOp57
 70
     1
102
RTVSPost2010Prop28
280
     0
102
RTVSPost2010PropOp28
 70
     1
102
RTVSPost2010Prop29
280
     1
102
RTVSPost2010PropOp29
 70
     1
102
RTVSPost2010Prop30
280
     1
102
RTVSPost2010PropOp30
 70
     1
102
RTVSPost2010Prop31
280
     0
102
RTVSPost2010PropOp31
 70
     1
102
RTVSPost2010Prop32
280
     0
102
RTVSPost2010PropOp32
 70
     1
102
RTVSPost2010Prop33
280
     0
102
RTVSPost2010PropOp33
 70
     1
102
RTVSPost2010Prop34
280
     0
102
RTVSPost2010PropOp34
 70
     1
102
RTVSPost2010Prop35
280
     0
102
RTVSPost2010PropOp35
 70
     1
102
RTVSPost2010Prop36
280
     0
102
RTVSPost2010PropOp36
 70
     1
102
RTVSPost2010Prop37
 90
       50
102
RTVSPost2010PropOp37
 70
     1
102
RTVSPost2010Prop38
140
0.0
102
RTVSPost2010PropOp38
 70
     1
102
RTVSPost2010Prop39
140
1.0
102
RTVSPost2010PropOp39
 70
     1
102
RTVSPost2010Prop40
 90
        0
102
RTVSPost2010PropOp40
 70
     1
102
RTVSPost2010Prop41ColorIndex
 90
       18
102
RTVSPost2010Prop41ColorRGB
 90
        0
102
RTVSPost2010PropOp41
 70
     1
102
RTVSPost2010Prop42
 90
       50
102
RTVSPost2010PropOp42
 70
     1
102
RTVSPost2010Prop43
 90
        3
102
RTVSPost2010PropOp43
 70
     1
102
RTVSPost2010Prop44ColorIndex
 90
        5
102
RTVSPost2010Prop44ColorRGB
 90
      255
102
RTVSPost2010PropOp44
 70
     1
102
RTVSPost2010Prop45
280
     0
102
RTVSPost2010PropOp45
 70
     1
102
RTVSPost2010Prop46
 90
       50
102
RTVSPost2010PropOp46
 70
     1
102
RTVSPost2010Prop47
 90
       50
102
RTVSPost2010PropOp47
 70
     1
102
RTVSPost2010Prop48
 90
       50
102
RTVSPost2010PropOp48
 70
     1
102
RTVSPost2010Prop49
280
     0
102
RTVSPost2010PropOp49
 70
     1
102
RTVSPost2010Prop50
 90
       50
102
RTVSPost2010PropOp50
 70
     1
102
RTVSPost2010Prop51ColorIndex
 90
      256
102
RTVSPost2010Prop51ColorRGB
 90
-16777216
102
RTVSPost2010PropOp51
 70
     0
102
RTVSPost2010Prop52
140
1.0
102
RTVSPost2010PropOp52
 70
     0
102
RTVSPost2010Prop53
 90
        2
102
RTVSPost2010PropOp53
 70
     1
102
RTVSPost2010Prop54
  1
strokes_ogs.tif
102
RTVSPost2010PropOp54
 70
     1
102
RTVSPost2010Prop55
280
     0
102
RTVSPost2010PropOp55
 70
     1
102
RTVSPost2010Prop56
140
1.0
102
RTVSPost2010PropOp56
 70
     1
102
RTVSPost2010Prop57
140
1.0
102
RTVSPost2010PropOp57
 70
     1
  0
XRECORD
  5
B6
102
{ACAD_REACTORS
330
B5
102
}
330
B5
100
AcDbXrecord
280
     1
102
RTVSPropertyOp0
 70
     1
102
RTVSPropertyOp1
 70
     1
102
RTVSPropertyOp2
 70
     1
102
RTVSPropertyOp3
 70
     1
102
RTVSPropertyOp4
 70
     1
102
RTVSPropertyOp5
 70
     1
102
RTVSPropertyOp6
 70
     1
102
RTVSPropertyOp7
 70
     1
102
RTVSPropertyOp8
 70
     1
102
RTVSPropertyOp9
 70
     1
102
RTVSPropertyOp10
 70
     1
102
RTVSPropertyOp11
 70
     1
102
RTVSPropertyOp12
 70
     1
102
RTVSPropertyOp13
 70
     1
102
RTVSPropertyOp14
 70
     1
102
RTVSPropertyOp15
 70
     1
102
RTVSPropertyOp16
 70
     1
102
RTVSPropertyOp17
 70
     1
102
RTVSPropertyOp18
 70
     1
102
RTVSPropertyOp19
 70
     1
102
RTVSPropertyOp20
 70
     1
102
RTVSPropertyOp21
 70
     1
102
RTVSPropertyOp22
 70
     1
102
RTVSPropertyOp23
 70
     1
102
RTVSPropertyOp24
 70
     1
102
RTVSPropertyOp25
 70
     1
102
RTVSPropertyOp26
 70
     1
102
RTVSPropertyOp27
 70
     1
102
RTVSPropertyOp28
 70
     1
102
RTVSPropertyOp29
 70
     1
102
RTVSPropertyOp30
 70
     1
102
RTVSPropertyOp31
 70
     1
102
RTVSPropertyOp32
 70
     1
102
RTVSPropertyOp33
 70
     1
102
RTVSPropertyOp34
 70
     1
102
RTVSPropertyOp35
 70
     1
102
RTVSPropertyOp36
 70
     1
102
RTVSPropertyOp37
 70
     1
102
RTVSPropertyOp38
 70
     1
102
RTVSPropertyOp39
 70
     1
102
RTVSPropertyOp40
 70
     1
102
RTVSPropertyOp41
 70
     1
102
RTVSPropertyOp42
 70
     1
102
RTVSPropertyOp43
 70
     1
102
RTVSPropertyOp44
 70
     1
102
RTVSPropertyOp45
 70
     1
102
RTVSPropertyOp46
 70
     1
102
RTVSPropertyOp47
 70
     1
102
RTVSPropertyOp48
 70
     1
102
RTVSPropertyOp49
 70
     1
102
RTVSPropertyOp50
 70
     1
102
RTVSPropertyOp51
 70
     0
102
RTVSPropertyOp52
 70
     0
102
RTVSPropertyOp53
 70
     1
102
RTVSPropertyOp54
 70
     1
102
RTVSPropertyOp55
 70
     1
102
RTVSPropertyOp56
 70
     1
102
RTVSPropertyOp57
 70
     1
102
RTVSPost2010Prop28
280
     0
102
RTVSPost2010PropOp28
 70
     1
102
RTVSPost2010Prop29
280
     1
102
RTVSPost2010PropOp29
 70
     1
102
RTVSPost2010Prop30
280
     1
102
RTVSPost2010PropOp30
 70
     1
102
RTVSPost2010Prop31
280
     0
102
RTVSPost2010PropOp31
 70
     1
102
RTVSPost2010Prop32
280
     0
102
RTVSPost2010PropOp32
 70
     1
102
RTVSPost2010Prop33
280
     0
102
RTVSPost2010PropOp33
 70
     1
102
RTVSPost2010Prop34
280
     0
102
RTVSPost2010PropOp34
 70
     1
102
RTVSPost2010Prop35
280
     0
102
RTVSPost2010PropOp35
 70
     1
102
RTVSPost2010Prop36
280
     0
102
RTVSPost2010PropOp36
 70
     1
102
RTVSPost2010Prop37
 90
       50
102
RTVSPost2010PropOp37
 70
     1
102
RTVSPost2010Prop38
140
0.0
102
RTVSPost2010PropOp38
 70
     1
102
RTVSPost2010Prop39
140
1.0
102
RTVSPost2010PropOp39
 70
     1
102
RTVSPost2010Prop40
 90
        0
102
RTVSPost2010PropOp40
 70
     1
102
RTVSPost2010Prop41ColorIndex
 90
       18
102
RTVSPost2010Prop41ColorRGB
 90
        0
102
RTVSPost2010PropOp41
 70
     1
102
RTVSPost2010Prop42
 90
       50
102
RTVSPost2010PropOp42
 70
     1
102
RTVSPost2010Prop43
 90
        3
102
RTVSPost2010PropOp43
 70
     1
102
RTVSPost2010Prop44ColorIndex
 90
        5
102
RTVSPost2010Prop44ColorRGB
 90
      255
102
RTVSPost2010PropOp44
 70
     1
102
RTVSPost2010Prop45
280
     0
102
RTVSPost2010PropOp45
 70
     1
102
RTVSPost2010Prop46
 90
       50
102
RTVSPost2010PropOp46
 70
     1
102
RTVSPost2010Prop47
 90
       50
102
RTVSPost2010PropOp47
 70
     1
102
RTVSPost2010Prop48
 90
       50
102
RTVSPost2010PropOp48
 70
     1
102
RTVSPost2010Prop49
280
     0
102
RTVSPost2010PropOp49
 70
     1
102
RTVSPost2010Prop50
 90
       50
102
RTVSPost2010PropOp50
 70
     1
102
RTVSPost2010Prop51ColorIndex
 90
      256
102
RTVSPost2010Prop51ColorRGB
 90
-16777216
102
RTVSPost2010PropOp51
 70
     0
102
RTVSPost2010Prop52
140
1.0
102
RTVSPost2010PropOp52
 70
     0
102
RTVSPost2010Prop53
 90
        2
102
RTVSPost2010PropOp53
 70
     1
102
RTVSPost2010Prop54
  1
strokes_ogs.tif
102
RTVSPost2010PropOp54
 70
     1
102
RTVSPost2010Prop55
280
     0
102
RTVSPost2010PropOp55
 70
     1
102
RTVSPost2010Prop56
140
1.0
102
RTVSPost2010PropOp56
 70
     1
102
RTVSPost2010Prop57
140
1.0
102
RTVSPost2010PropOp57
 70
     1
  0
XRECORD
  5
A6
102
{ACAD_REACTORS
330
A5
102
}
330
A5
100
AcDbXrecord
280
     1
102
RTVSPropertyOp0
 70
     1
102
RTVSPropertyOp1
 70
     1
102
RTVSPropertyOp2
 70
     1
102
RTVSPropertyOp3
 70
     1
102
RTVSPropertyOp4
 70
     1
102
RTVSPropertyOp5
 70
     1
102
RTVSPropertyOp6
 70
     1
102
RTVSPropertyOp7
 70
     1
102
RTVSPropertyOp8
 70
     1
102
RTVSPropertyOp9
 70
     1
102
RTVSPropertyOp10
 70
     1
102
RTVSPropertyOp11
 70
     1
102
RTVSPropertyOp12
 70
     1
102
RTVSPropertyOp13
 70
     1
102
RTVSPropertyOp14
 70
     1
102
RTVSPropertyOp15
 70
     1
102
RTVSPropertyOp16
 70
     1
102
RTVSPropertyOp17
 70
     1
102
RTVSPropertyOp18
 70
     1
102
RTVSPropertyOp19
 70
     1
102
RTVSPropertyOp20
 70
     1
102
RTVSPropertyOp21
 70
     1
102
RTVSPropertyOp22
 70
     1
102
RTVSPropertyOp23
 70
     1
102
RTVSPropertyOp24
 70
     1
102
RTVSPropertyOp25
 70
     1
102
RTVSPropertyOp26
 70
     1
102
RTVSPropertyOp27
 70
     1
102
RTVSPropertyOp28
 70
     1
102
RTVSPropertyOp29
 70
     1
102
RTVSPropertyOp30
 70
     1
102
RTVSPropertyOp31
 70
     1
102
RTVSPropertyOp32
 70
     1
102
RTVSPropertyOp33
 70
     1
102
RTVSPropertyOp34
 70
     1
102
RTVSPropertyOp35
 70
     1
102
RTVSPropertyOp36
 70
     1
102
RTVSPropertyOp37
 70
     1
102
RTVSPropertyOp38
 70
     1
102
RTVSPropertyOp39
 70
     1
102
RTVSPropertyOp40
 70
     1
102
RTVSPropertyOp41
 70
     1
102
RTVSPropertyOp42
 70
     1
102
RTVSPropertyOp43
 70
     1
102
RTVSPropertyOp44
 70
     1
102
RTVSPropertyOp45
 70
     1
102
RTVSPropertyOp46
 70
     1
102
RTVSPropertyOp47
 70
     1
102
RTVSPropertyOp48
 70
     1
102
RTVSPropertyOp49
 70
     1
102
RTVSPropertyOp50
 70
     1
102
RTVSPropertyOp51
 70
     0
102
RTVSPropertyOp52
 70
     0
102
RTVSPropertyOp53
 70
     1
102
RTVSPropertyOp54
 70
     1
102
RTVSPropertyOp55
 70
     1
102
RTVSPropertyOp56
 70
     1
102
RTVSPropertyOp57
 70
     1
102
RTVSPost2010Prop28
280
     0
102
RTVSPost2010PropOp28
 70
     1
102
RTVSPost2010Prop29
280
     1
102
RTVSPost2010PropOp29
 70
     1
102
RTVSPost2010Prop30
280
     1
102
RTVSPost2010PropOp30
 70
     1
102
RTVSPost2010Prop31
280
     0
102
RTVSPost2010PropOp31
 70
     1
102
RTVSPost2010Prop32
280
     0
102
RTVSPost2010PropOp32
 70
     1
102
RTVSPost2010Prop33
280
     0
102
RTVSPost2010PropOp33
 70
     1
102
RTVSPost2010Prop34
280
     0
102
RTVSPost2010PropOp34
 70
     1
102
RTVSPost2010Prop35
280
     0
102
RTVSPost2010PropOp35
 70
     1
102
RTVSPost2010Prop36
280
     0
102
RTVSPost2010PropOp36
 70
     1
102
RTVSPost2010Prop37
 90
       50
102
RTVSPost2010PropOp37
 70
     1
102
RTVSPost2010Prop38
140
0.0
102
RTVSPost2010PropOp38
 70
     1
102
RTVSPost2010Prop39
140
1.0
102
RTVSPost2010PropOp39
 70
     1
102
RTVSPost2010Prop40
 90
        0
102
RTVSPost2010PropOp40
 70
     1
102
RTVSPost2010Prop41ColorIndex
 90
       18
102
RTVSPost2010Prop41ColorRGB
 90
        0
102
RTVSPost2010PropOp41
 70
     1
102
RTVSPost2010Prop42
 90
       50
102
RTVSPost2010PropOp42
 70
     1
102
RTVSPost2010Prop43
 90
        3
102
RTVSPost2010PropOp43
 70
     1
102
RTVSPost2010Prop44ColorIndex
 90
        5
102
RTVSPost2010Prop44ColorRGB
 90
      255
102
RTVSPost2010PropOp44
 70
     1
102
RTVSPost2010Prop45
280
     0
102
RTVSPost2010PropOp45
 70
     1
102
RTVSPost2010Prop46
 90
       50
102
RTVSPost2010PropOp46
 70
     1
102
RTVSPost2010Prop47
 90
       50
102
RTVSPost2010PropOp47
 70
     1
102
RTVSPost2010Prop48
 90
       50
102
RTVSPost2010PropOp48
 70
     1
102
RTVSPost2010Prop49
280
     0
102
RTVSPost2010PropOp49
 70
     1
102
RTVSPost2010Prop50
 90
       50
102
RTVSPost2010PropOp50
 70
     1
102
RTVSPost2010Prop51ColorIndex
 90
      256
102
RTVSPost2010Prop51ColorRGB
 90
-16777216
102
RTVSPost2010PropOp51
 70
     0
102
RTVSPost2010Prop52
140
1.0
102
RTVSPost2010PropOp52
 70
     0
102
RTVSPost2010Prop53
 90
        2
102
RTVSPost2010PropOp53
 70
     1
102
RTVSPost2010Prop54
  1
strokes_ogs.tif
102
RTVSPost2010PropOp54
 70
     1
102
RTVSPost2010Prop55
280
     0
102
RTVSPost2010PropOp55
 70
     1
102
RTVSPost2010Prop56
140
1.0
102
RTVSPost2010PropOp56
 70
     1
102
RTVSPost2010Prop57
140
1.0
102
RTVSPost2010PropOp57
 70
     1
  0
XRECORD
  5
98
102
{ACAD_REACTORS
330
97
102
}
330
97
100
AcDbXrecord
280
     1
102
RTVSPropertyOp0
 70
     1
102
RTVSPropertyOp1
 70
     1
102
RTVSPropertyOp2
 70
     1
102
RTVSPropertyOp3
 70
     1
102
RTVSPropertyOp4
 70
     1
102
RTVSPropertyOp5
 70
     1
102
RTVSPropertyOp6
 70
     1
102
RTVSPropertyOp7
 70
     1
102
RTVSPropertyOp8
 70
     1
102
RTVSPropertyOp9
 70
     1
102
RTVSPropertyOp10
 70
     1
102
RTVSPropertyOp11
 70
     1
102
RTVSPropertyOp12
 70
     1
102
RTVSPropertyOp13
 70
     1
102
RTVSPropertyOp14
 70
     1
102
RTVSPropertyOp15
 70
     1
102
RTVSPropertyOp16
 70
     1
102
RTVSPropertyOp17
 70
     1
102
RTVSPropertyOp18
 70
     1
102
RTVSPropertyOp19
 70
     1
102
RTVSPropertyOp20
 70
     1
102
RTVSPropertyOp21
 70
     1
102
RTVSPropertyOp22
 70
     1
102
RTVSPropertyOp23
 70
     1
102
RTVSPropertyOp24
 70
     1
102
RTVSPropertyOp25
 70
     1
102
RTVSPropertyOp26
 70
     1
102
RTVSPropertyOp27
 70
     1
102
RTVSPropertyOp28
 70
     1
102
RTVSPropertyOp29
 70
     1
102
RTVSPropertyOp30
 70
     1
102
RTVSPropertyOp31
 70
     1
102
RTVSPropertyOp32
 70
     1
102
RTVSPropertyOp33
 70
     1
102
RTVSPropertyOp34
 70
     1
102
RTVSPropertyOp35
 70
     1
102
RTVSPropertyOp36
 70
     1
102
RTVSPropertyOp37
 70
     1
102
RTVSPropertyOp38
 70
     1
102
RTVSPropertyOp39
 70
     1
102
RTVSPropertyOp40
 70
     1
102
RTVSPropertyOp41
 70
     1
102
RTVSPropertyOp42
 70
     1
102
RTVSPropertyOp43
 70
     1
102
RTVSPropertyOp44
 70
     1
102
RTVSPropertyOp45
 70
     1
102
RTVSPropertyOp46
 70
     1
102
RTVSPropertyOp47
 70
     1
102
RTVSPropertyOp48
 70
     1
102
RTVSPropertyOp49
 70
     1
102
RTVSPropertyOp50
 70
     1
102
RTVSPropertyOp51
 70
     0
102
RTVSPropertyOp52
 70
     0
102
RTVSPropertyOp53
 70
     1
102
RTVSPropertyOp54
 70
     1
102
RTVSPropertyOp55
 70
     1
102
RTVSPropertyOp56
 70
     1
102
RTVSPropertyOp57
 70
     1
102
RTVSPost2010Prop28
280
     0
102
RTVSPost2010PropOp28
 70
     1
102
RTVSPost2010Prop29
280
     1
102
RTVSPost2010PropOp29
 70
     1
102
RTVSPost2010Prop30
280
     1
102
RTVSPost2010PropOp30
 70
     1
102
RTVSPost2010Prop31
280
     0
102
RTVSPost2010PropOp31
 70
     1
102
RTVSPost2010Prop32
280
     0
102
RTVSPost2010PropOp32
 70
     1
102
RTVSPost2010Prop33
280
     0
102
RTVSPost2010PropOp33
 70
     1
102
RTVSPost2010Prop34
280
     0
102
RTVSPost2010PropOp34
 70
     1
102
RTVSPost2010Prop35
280
     0
102
RTVSPost2010PropOp35
 70
     1
102
RTVSPost2010Prop36
280
     0
102
RTVSPost2010PropOp36
 70
     1
102
RTVSPost2010Prop37
 90
       50
102
RTVSPost2010PropOp37
 70
     1
102
RTVSPost2010Prop38
140
0.0
102
RTVSPost2010PropOp38
 70
     1
102
RTVSPost2010Prop39
140
1.0
102
RTVSPost2010PropOp39
 70
     1
102
RTVSPost2010Prop40
 90
        0
102
RTVSPost2010PropOp40
 70
     1
102
RTVSPost2010Prop41ColorIndex
 90
       18
102
RTVSPost2010Prop41ColorRGB
 90
        0
102
RTVSPost2010PropOp41
 70
     1
102
RTVSPost2010Prop42
 90
       50
102
RTVSPost2010PropOp42
 70
     1
102
RTVSPost2010Prop43
 90
        3
102
RTVSPost2010PropOp43
 70
     1
102
RTVSPost2010Prop44ColorIndex
 90
        5
102
RTVSPost2010Prop44ColorRGB
 90
      255
102
RTVSPost2010PropOp44
 70
     1
102
RTVSPost2010Prop45
280
     0
102
RTVSPost2010PropOp45
 70
     1
102
RTVSPost2010Prop46
 90
       50
102
RTVSPost2010PropOp46
 70
     1
102
RTVSPost2010Prop47
 90
       50
102
RTVSPost2010PropOp47
 70
     1
102
RTVSPost2010Prop48
 90
       50
102
RTVSPost2010PropOp48
 70
     1
102
RTVSPost2010Prop49
280
     0
102
RTVSPost2010PropOp49
 70
     1
102
RTVSPost2010Prop50
 90
       50
102
RTVSPost2010PropOp50
 70
     1
102
RTVSPost2010Prop51ColorIndex
 90
      256
102
RTVSPost2010Prop51ColorRGB
 90
-16777216
102
RTVSPost2010PropOp51
 70
     0
102
RTVSPost2010Prop52
140
1.0
102
RTVSPost2010PropOp52
 70
     0
102
RTVSPost2010Prop53
 90
        2
102
RTVSPost2010PropOp53
 70
     1
102
RTVSPost2010Prop54
  1
strokes_ogs.tif
102
RTVSPost2010PropOp54
 70
     1
102
RTVSPost2010Prop55
280
     0
102
RTVSPost2010PropOp55
 70
     1
102
RTVSPost2010Prop56
140
1.0
102
RTVSPost2010PropOp56
 70
     1
102
RTVSPost2010Prop57
140
1.0
102
RTVSPost2010PropOp57
 70
     1
  0
XRECORD
  5
B8
102
{ACAD_REACTORS
330
B7
102
}
330
B7
100
AcDbXrecord
280
     1
102
RTVSPropertyOp0
 70
     1
102
RTVSPropertyOp1
 70
     1
102
RTVSPropertyOp2
 70
     1
102
RTVSPropertyOp3
 70
     1
102
RTVSPropertyOp4
 70
     1
102
RTVSPropertyOp5
 70
     1
102
RTVSPropertyOp6
 70
     1
102
RTVSPropertyOp7
 70
     1
102
RTVSPropertyOp8
 70
     1
102
RTVSPropertyOp9
 70
     1
102
RTVSPropertyOp10
 70
     1
102
RTVSPropertyOp11
 70
     1
102
RTVSPropertyOp12
 70
     1
102
RTVSPropertyOp13
 70
     1
102
RTVSPropertyOp14
 70
     1
102
RTVSPropertyOp15
 70
     1
102
RTVSPropertyOp16
 70
     1
102
RTVSPropertyOp17
 70
     1
102
RTVSPropertyOp18
 70
     1
102
RTVSPropertyOp19
 70
     1
102
RTVSPropertyOp20
 70
     1
102
RTVSPropertyOp21
 70
     1
102
RTVSPropertyOp22
 70
     1
102
RTVSPropertyOp23
 70
     1
102
RTVSPropertyOp24
 70
     1
102
RTVSPropertyOp25
 70
     1
102
RTVSPropertyOp26
 70
     1
102
RTVSPropertyOp27
 70
     1
102
RTVSPropertyOp28
 70
     1
102
RTVSPropertyOp29
 70
     1
102
RTVSPropertyOp30
 70
     1
102
RTVSPropertyOp31
 70
     1
102
RTVSPropertyOp32
 70
     1
102
RTVSPropertyOp33
 70
     1
102
RTVSPropertyOp34
 70
     1
102
RTVSPropertyOp35
 70
     1
102
RTVSPropertyOp36
 70
     1
102
RTVSPropertyOp37
 70
     1
102
RTVSPropertyOp38
 70
     1
102
RTVSPropertyOp39
 70
     1
102
RTVSPropertyOp40
 70
     1
102
RTVSPropertyOp41
 70
     1
102
RTVSPropertyOp42
 70
     1
102
RTVSPropertyOp43
 70
     1
102
RTVSPropertyOp44
 70
     1
102
RTVSPropertyOp45
 70
     1
102
RTVSPropertyOp46
 70
     1
102
RTVSPropertyOp47
 70
     1
102
RTVSPropertyOp48
 70
     1
102
RTVSPropertyOp49
 70
     1
102
RTVSPropertyOp50
 70
     1
102
RTVSPropertyOp51
 70
     0
102
RTVSPropertyOp52
 70
     0
102
RTVSPropertyOp53
 70
     1
102
RTVSPropertyOp54
 70
     1
102
RTVSPropertyOp55
 70
     1
102
RTVSPropertyOp56
 70
     1
102
RTVSPropertyOp57
 70
     1
102
RTVSPost2010Prop28
280
     0
102
RTVSPost2010PropOp28
 70
     1
102
RTVSPost2010Prop29
280
     1
102
RTVSPost2010PropOp29
 70
     1
102
RTVSPost2010Prop30
280
     1
102
RTVSPost2010PropOp30
 70
     1
102
RTVSPost2010Prop31
280
     0
102
RTVSPost2010PropOp31
 70
     1
102
RTVSPost2010Prop32
280
     0
102
RTVSPost2010PropOp32
 70
     1
102
RTVSPost2010Prop33
280
     0
102
RTVSPost2010PropOp33
 70
     1
102
RTVSPost2010Prop34
280
     0
102
RTVSPost2010PropOp34
 70
     1
102
RTVSPost2010Prop35
280
     0
102
RTVSPost2010PropOp35
 70
     1
102
RTVSPost2010Prop36
280
     0
102
RTVSPost2010PropOp36
 70
     1
102
RTVSPost2010Prop37
 90
       50
102
RTVSPost2010PropOp37
 70
     1
102
RTVSPost2010Prop38
140
0.0
102
RTVSPost2010PropOp38
 70
     1
102
RTVSPost2010Prop39
140
1.0
102
RTVSPost2010PropOp39
 70
     1
102
RTVSPost2010Prop40
 90
        0
102
RTVSPost2010PropOp40
 70
     1
102
RTVSPost2010Prop41ColorIndex
 90
       18
102
RTVSPost2010Prop41ColorRGB
 90
        0
102
RTVSPost2010PropOp41
 70
     1
102
RTVSPost2010Prop42
 90
       50
102
RTVSPost2010PropOp42
 70
     1
102
RTVSPost2010Prop43
 90
        3
102
RTVSPost2010PropOp43
 70
     1
102
RTVSPost2010Prop44ColorIndex
 90
        5
102
RTVSPost2010Prop44ColorRGB
 90
      255
102
RTVSPost2010PropOp44
 70
     1
102
RTVSPost2010Prop45
280
     0
102
RTVSPost2010PropOp45
 70
     1
102
RTVSPost2010Prop46
 90
       50
102
RTVSPost2010PropOp46
 70
     1
102
RTVSPost2010Prop47
 90
       50
102
RTVSPost2010PropOp47
 70
     1
102
RTVSPost2010Prop48
 90
       50
102
RTVSPost2010PropOp48
 70
     1
102
RTVSPost2010Prop49
280
     0
102
RTVSPost2010PropOp49
 70
     1
102
RTVSPost2010Prop50
 90
       50
102
RTVSPost2010PropOp50
 70
     1
102
RTVSPost2010Prop51ColorIndex
 90
      256
102
RTVSPost2010Prop51ColorRGB
 90
-16777216
102
RTVSPost2010PropOp51
 70
     0
102
RTVSPost2010Prop52
140
1.0
102
RTVSPost2010PropOp52
 70
     0
102
RTVSPost2010Prop53
 90
        2
102
RTVSPost2010PropOp53
 70
     1
102
RTVSPost2010Prop54
  1
strokes_ogs.tif
102
RTVSPost2010PropOp54
 70
     1
102
RTVSPost2010Prop55
280
     0
102
RTVSPost2010PropOp55
 70
     1
102
RTVSPost2010Prop56
140
1.0
102
RTVSPost2010PropOp56
 70
     1
102
RTVSPost2010Prop57
140
1.0
102
RTVSPost2010PropOp57
 70
     1
  0
ENDSEC
  0
EOF
