  0
SECTION
  2
HEADER
  9
$ACADVER
  1
AC1015
  9
$ACADMAINTVER
 70
     6
  9
$DWGCODEPAGE
  3
ANSI_1252
  9
$INSBASE
 10
0.0
 20
0.0
 30
0.0
  9
$EXTMIN
 10
-23.41494
 20
-9.38215
 30
0.0
  9
$EXTMAX
 10
22.40167
 20
11.04795
 30
0.0
  9
$LIMMIN
 10
0.0
 20
0.0
  9
$LIMMAX
 10
12.0
 20
9.0
  9
$ORTHOMODE
 70
     0
  9
$REGENMODE
 70
     1
  9
$FILLMODE
 70
     1
  9
$QTEXTMODE
 70
     0
  9
$MIRRTEXT
 70
     1
  9
$LTSCALE
 40
1.0
  9
$ATTMODE
 70
     1
  9
$TEXTSIZE
 40
0.2
  9
$TRACEWID
 40
0.05
  9
$TEXTSTYLE
  7
Standard
  9
$CLAYER
  8
0
  9
$CELTYPE
  6
ByLayer
  9
$CECOLOR
 62
   256
  9
$CELTSCALE
 40
1.0
  9
$DISPSILH
 70
     0
  9
$DIMSCALE
 40
1.0
  9
$DIMASZ
 40
0.18
  9
$DIMEXO
 40
0.0625
  9
$DIMDLI
 40
0.38
  9
$DIMRND
 40
0.0
  9
$DIMDLE
 40
0.0
  9
$DIMEXE
 40
0.18
  9
$DIMTP
 40
0.0
  9
$DIMTM
 40
0.0
  9
$DIMTXT
 40
0.18
  9
$DIMCEN
 40
0.09
  9
$DIMTSZ
 40
0.0
  9
$DIMTOL
 70
     0
  9
$DIMLIM
 70
     0
  9
$DIMTIH
 70
     1
  9
$DIMTOH
 70
     1
  9
$DIMSE1
 70
     0
  9
$DIMSE2
 70
     0
  9
$DIMTAD
 70
     0
  9
$DIMZIN
 70
     0
  9
$DIMBLK
  1

  9
$DIMASO
 70
     1
  9
$DIMSHO
 70
     1
  9
$DIMPOST
  1

  9
$DIMAPOST
  1

  9
$DIMALT
 70
     0
  9
$DIMALTD
 70
     2
  9
$DIMALTF
 40
25.4
  9
$DIMLFAC
 40
1.0
  9
$DIMTOFL
 70
     0
  9
$DIMTVP
 40
0.0
  9
$DIMTIX
 70
     0
  9
$DIMSOXD
 70
     0
  9
$DIMSAH
 70
     0
  9
$DIMBLK1
  1

  9
$DIMBLK2
  1

  9
$DIMSTYLE
  2
Standard
  9
$DIMCLRD
 70
     0
  9
$DIMCLRE
 70
     0
  9
$DIMCLRT
 70
     0
  9
$DIMTFAC
 40
1.0
  9
$DIMGAP
 40
0.09
  9
$DIMJUST
 70
     0
  9
$DIMSD1
 70
     0
  9
$DIMSD2
 70
     0
  9
$DIMTOLJ
 70
     1
  9
$DIMTZIN
 70
     0
  9
$DIMALTZ
 70
     0
  9
$DIMALTTZ
 70
     0
  9
$DIMUPT
 70
     0
  9
$DIMDEC
 70
     4
  9
$DIMTDEC
 70
     4
  9
$DIMALTU
 70
     2
  9
$DIMALTTD
 70
     2
  9
$DIMTXSTY
  7
Standard
  9
$DIMAUNIT
 70
     0
  9
$DIMADEC
 70
     0
  9
$DIMALTRND
 40
0.0
  9
$DIMAZIN
 70
     0
  9
$DIMDSEP
 70
    46
  9
$DIMATFIT
 70
     3
  9
$DIMFRAC
 70
     0
  9
$DIMLDRBLK
  1

  9
$DIMLUNIT
 70
     2
  9
$DIMLWD
 70
    -2
  9
$DIMLWE
 70
    -2
  9
$DIMTMOVE
 70
     0
  9
$LUNITS
 70
     2
  9
$LUPREC
 70
     4
  9
$SKETCHINC
 40
0.1
  9
$FILLETRAD
 40
0.5
  9
$AUNITS
 70
     0
  9
$AUPREC
 70
     0
  9
$MENU
  1
.
  9
$ELEVATION
 40
0.0
  9
$PELEVATION
 40
0.0
  9
$THICKNESS
 40
0.0
  9
$LIMCHECK
 70
     0
  9
$CHAMFERA
 40
0.5
  9
$CHAMFERB
 40
0.5
  9
$CHAMFERC
 40
1.0
  9
$CHAMFERD
 40
0.0
  9
$SKPOLY
 70
     0
  9
$TDCREATE
 40
2458031.547262211
  9
$TDUCREATE
 40
2458031.318095544
  9
$TDUPDATE
 40
2458031.547262384
  9
$TDUUPDATE
 40
2458031.318095718
  9
$TDINDWG
 40
0.0000000116
  9
$TDUSRTIMER
 40
0.0000000116
  9
$USRTIMER
 70
     1
  9
$ANGBASE
 50
0.0
  9
$ANGDIR
 70
     0
  9
$PDMODE
 70
     0
  9
$PDSIZE
 40
0.0
  9
$PLINEWID
 40
0.0
  9
$SPLFRAME
 70
     0
  9
$SPLINETYPE
 70
     6
  9
$SPLINESEGS
 70
     8
  9
$HANDSEED
  5
12B
  9
$SURFTAB1
 70
     6
  9
$SURFTAB2
 70
     6
  9
$SURFTYPE
 70
     6
  9
$SURFU
 70
     6
  9
$SURFV
 70
     6
  9
$UCSBASE
  2

  9
$UCSNAME
  2

  9
$UCSORG
 10
0.0
 20
0.0
 30
0.0
  9
$UCSXDIR
 10
1.0
 20
0.0
 30
0.0
  9
$UCSYDIR
 10
0.0
 20
1.0
 30
0.0
  9
$UCSORTHOREF
  2

  9
$UCSORTHOVIEW
 70
     0
  9
$UCSORGTOP
 10
0.0
 20
0.0
 30
0.0
  9
$UCSORGBOTTOM
 10
0.0
 20
0.0
 30
0.0
  9
$UCSORGLEFT
 10
0.0
 20
0.0
 30
0.0
  9
$UCSORGRIGHT
 10
0.0
 20
0.0
 30
0.0
  9
$UCSORGFRONT
 10
0.0
 20
0.0
 30
0.0
  9
$UCSORGBACK
 10
0.0
 20
0.0
 30
0.0
  9
$PUCSBASE
  2

  9
$PUCSNAME
  2

  9
$PUCSORG
 10
0.0
 20
0.0
 30
0.0
  9
$PUCSXDIR
 10
1.0
 20
0.0
 30
0.0
  9
$PUCSYDIR
 10
0.0
 20
1.0
 30
0.0
  9
$PUCSORTHOREF
  2

  9
$PUCSORTHOVIEW
 70
     0
  9
$PUCSORGTOP
 10
0.0
 20
0.0
 30
0.0
  9
$PUCSORGBOTTOM
 10
0.0
 20
0.0
 30
0.0
  9
$PUCSORGLEFT
 10
0.0
 20
0.0
 30
0.0
  9
$PUCSORGRIGHT
 10
0.0
 20
0.0
 30
0.0
  9
$PUCSORGFRONT
 10
0.0
 20
0.0
 30
0.0
  9
$PUCSORGBACK
 10
0.0
 20
0.0
 30
0.0
  9
$USERI1
 70
     0
  9
$USERI2
 70
     0
  9
$USERI3
 70
     0
  9
$USERI4
 70
     0
  9
$USERI5
 70
     0
  9
$USERR1
 40
0.0
  9
$USERR2
 40
0.0
  9
$USERR3
 40
0.0
  9
$USERR4
 40
0.0
  9
$USERR5
 40
0.0
  9
$WORLDVIEW
 70
     1
  9
$SHADEDGE
 70
     3
  9
$SHADEDIF
 70
    70
  9
$TILEMODE
 70
     1
  9
$MAXACTVP
 70
    64
  9
$PINSBASE
 10
0.0
 20
0.0
 30
0.0
  9
$PLIMCHECK
 70
     0
  9
$PEXTMIN
 10
1.000000000000000E+20
 20
1.000000000000000E+20
 30
1.000000000000000E+20
  9
$PEXTMAX
 10
-1.000000000000000E+20
 20
-1.000000000000000E+20
 30
-1.000000000000000E+20
  9
$PLIMMIN
 10
0.0
 20
0.0
  9
$PLIMMAX
 10
12.0
 20
9.0
  9
$UNITMODE
 70
     0
  9
$VISRETAIN
 70
     1
  9
$PLINEGEN
 70
     0
  9
$PSLTSCALE
 70
     1
  9
$TREEDEPTH
 70
  3020
  9
$CMLSTYLE
  2
Standard
  9
$CMLJUST
 70
     0
  9
$CMLSCALE
 40
1.0
  9
$PROXYGRAPHICS
 70
     1
  9
$MEASUREMENT
 70
     0
  9
$CELWEIGHT
370
    -1
  9
$ENDCAPS
280
     0
  9
$JOINSTYLE
280
     0
  9
$LWDISPLAY
290
     0
  9
$INSUNITS
 70
     5
  9
$HYPERLINKBASE
  1

  9
$STYLESHEET
  1

  9
$XEDIT
290
     1
  9
$CEPSNTYPE
380
     0
  9
$PSTYLEMODE
290
     1
  9
$FINGERPRINTGUID
  2
{FF6D304F-ADED-4520-ABB6-994720C70CEB}
  9
$VERSIONGUID
  2
{FAEB1C32-E019-11D5-929B-00C0DF256EC4}
  9
$EXTNAMES
290
     1
  9
$PSVPSCALE
 40
0.0
  9
$OLESTARTUP
290
     0
  0
ENDSEC
  0
SECTION
  2
CLASSES
  0
CLASS
  1
ACDBDICTIONARYWDFLT
  2
AcDbDictionaryWithDefault
  3
ObjectDBX Classes
 90
        0
280
     0
281
     0
  0
CLASS
  1
VISUALSTYLE
  2
AcDbVisualStyle
  3
ObjectDBX Classes
 90
     4095
280
     0
281
     0
  0
CLASS
  1
MATERIAL
  2
AcDbMaterial
  3
ObjectDBX Classes
 90
     1153
280
     0
281
     0
  0
CLASS
  1
DICTIONARYVAR
  2
AcDbDictionaryVar
  3
ObjectDBX Classes
 90
        0
280
     0
281
     0
  0
CLASS
  1
ACDBPLACEHOLDER
  2
AcDbPlaceHolder
  3
ObjectDBX Classes
 90
        0
280
     0
281
     0
  0
CLASS
  1
LAYOUT
  2
AcDbLayout
  3
ObjectDBX Classes
 90
        0
280
     0
281
     0
  0
ENDSEC
  0
SECTION
  2
TABLES
  0
TABLE
  2
VPORT
  5
8
330
0
100
AcDbSymbolTable
 70
     1
  0
VPORT
  5
29
330
8
100
AcDbSymbolTableRecord
100
AcDbViewportTableRecord
  2
*Active
 70
     0
 10
0.0
 20
0.0
 11
1.0
 21
1.0
 12
10.42990654205607
 22
4.5
 13
0.0
 23
0.0
 14
0.5
 24
0.5
 15
0.5
 25
0.5
 16
0.0
 26
0.0
 36
1.0
 17
0.0
 27
0.0
 37
0.0
 40
9.0
 41
1.972972972850329
 42
50.0
 43
0.0
 44
0.0
 50
0.0
 51
0.0
 71
     0
 72
   100
 73
     1
 74
     3
 75
     0
 76
     0
 77
     0
 78
     0
281
     0
 65
     1
110
0.0
120
0.0
130
0.0
111
1.0
121
0.0
131
0.0
112
0.0
122
1.0
132
0.0
 79
     0
146
0.0
  0
ENDTAB
  0
TABLE
  2
LTYPE
  5
5
330
0
100
AcDbSymbolTable
 70
     1
  0
LTYPE
  5
14
330
5
100
AcDbSymbolTableRecord
100
AcDbLinetypeTableRecord
  2
ByBlock
 70
     0
  3

 72
    65
 73
     0
 40
0.0
  0
LTYPE
  5
15
330
5
100
AcDbSymbolTableRecord
100
AcDbLinetypeTableRecord
  2
ByLayer
 70
     0
  3

 72
    65
 73
     0
 40
0.0
  0
LTYPE
  5
16
330
5
100
AcDbSymbolTableRecord
100
AcDbLinetypeTableRecord
  2
Continuous
 70
     0
  3
Solid line
 72
    65
 73
     0
 40
0.0
  0
ENDTAB
  0
TABLE
  2
LAYER
  5
2
330
0
100
AcDbSymbolTable
 70
     2
  0
LAYER
  5
10
330
2
100
AcDbSymbolTableRecord
100
AcDbLayerTableRecord
  2
0
 70
     0
 62
     7
  6
Continuous
370
    -3
390
F
  0
LAYER
  5
40
330
2
100
AcDbSymbolTableRecord
100
AcDbLayerTableRecord
  2
Layer 1
 70
     0
 62
     7
  6
Continuous
370
    -3
390
F
  0
ENDTAB
  0
TABLE
  2
STYLE
  5
3
330
0
100
AcDbSymbolTable
 70
     1
  0
STYLE
  5
11
330
3
100
AcDbSymbolTableRecord
100
AcDbTextStyleTableRecord
  2
Standard
 70
     0
 40
0.0
 41
1.0
 50
0.0
 71
     0
 42
0.2
  3
txt
  4

  0
ENDTAB
  0
TABLE
  2
VIEW
  5
6
330
0
100
AcDbSymbolTable
 70
     0
  0
ENDTAB
  0
TABLE
  2
UCS
  5
7
330
0
100
AcDbSymbolTable
 70
     0
  0
ENDTAB
  0
TABLE
  2
APPID
  5
9
330
0
100
AcDbSymbolTable
 70
     2
  0
APPID
  5
12
330
9
100
AcDbSymbolTableRecord
100
AcDbRegAppTableRecord
  2
ACAD
 70
     0
  0
APPID
  5
3F
330
9
100
AcDbSymbolTableRecord
100
AcDbRegAppTableRecord
  2
ODA
 70
     0
  0
ENDTAB
  0
TABLE
  2
DIMSTYLE
  5
A
330
0
100
AcDbSymbolTable
 70
     1
100
AcDbDimStyleTable
  0
DIMSTYLE
105
27
330
A
100
AcDbSymbolTableRecord
100
AcDbDimStyleTableRecord
  2
Standard
 70
     0
178
     0
340
11
  0
ENDTAB
  0
TABLE
  2
BLOCK_RECORD
  5
1
330
0
100
AcDbSymbolTable
 70
     1
  0
BLOCK_RECORD
  5
1F
330
1
100
AcDbSymbolTableRecord
100
AcDbBlockTableRecord
  2
*Model_Space
340
22
  0
BLOCK_RECORD
  5
1B
330
1
100
AcDbSymbolTableRecord
100
AcDbBlockTableRecord
  2
*Paper_Space
340
1E
  0
BLOCK_RECORD
  5
23
330
1
100
AcDbSymbolTableRecord
100
AcDbBlockTableRecord
  2
*Paper_Space0
340
26
  0
ENDTAB
  0
ENDSEC
  0
SECTION
  2
BLOCKS
  0
BLOCK
  5
20
330
1F
100
AcDbEntity
  8
0
100
AcDbBlockBegin
  2
*Model_Space
 70
     0
 10
0.0
 20
0.0
 30
0.0
  3
*Model_Space
  1

  0
ENDBLK
  5
21
330
1F
100
AcDbEntity
  8
0
100
AcDbBlockEnd
  0
BLOCK
  5
1C
330
1B
100
AcDbEntity
 67
     1
  8
0
100
AcDbBlockBegin
  2
*Paper_Space
 70
     0
 10
0.0
 20
0.0
 30
0.0
  3
*Paper_Space
  1

  0
ENDBLK
  5
1D
330
1B
100
AcDbEntity
 67
     1
  8
0
100
AcDbBlockEnd
  0
BLOCK
  5
24
330
23
100
AcDbEntity
  8
0
100
AcDbBlockBegin
  2
*Paper_Space0
 70
     0
 10
0.0
 20
0.0
 30
0.0
  3
*Paper_Space0
  1

  0
ENDBLK
  5
25
330
23
100
AcDbEntity
  8
0
100
AcDbBlockEnd
  0
ENDSEC
  0
SECTION
  2
ENTITIES
  0
SPLINE
  5
41
330
1F
100
AcDbEntity
  8
Layer 1
 62
    15
100
AcDbSpline
210
0.0
220
0.0
230
1.0
 70
    11
 71
     3
 72
    20
 73
    16
 74
     0
 42
0.0000000001
 43
0.0000000001
 12
1.0
 22
0.0
 32
0.0
 13
1.0
 23
0.0
 33
0.0
 40
0.0
 40
0.0
 40
0.0
 40
0.0
 40
0.2
 40
0.2
 40
0.2
 40
0.2
 40
0.4
 40
0.4
 40
0.4
 40
0.4
 40
0.6
 40
0.6
 40
0.6
 40
0.6
 40
1.0
 40
1.0
 40
1.0
 40
1.0
 10
-16.38615
 20
-6.05403
 30
0.0
 10
-16.38615
 20
-6.05403
 30
0.0
 10
-16.38615
 20
-8.17327
 30
0.0
 10
-16.38615
 20
-8.17327
 30
0.0
 10
-16.38615
 20
-8.17327
 30
0.0
 10
-16.38615
 20
-8.17327
 30
0.0
 10
-11.45156
 20
-8.17327
 30
0.0
 10
-11.45156
 20
-8.17327
 30
0.0
 10
-11.45156
 20
-8.17327
 30
0.0
 10
-11.45156
 20
-8.17327
 30
0.0
 10
-11.45156
 20
-6.05403
 30
0.0
 10
-11.45156
 20
-6.05403
 30
0.0
 10
-11.45156
 20
-6.05403
 30
0.0
 10
-11.45156
 20
-6.05403
 30
0.0
 10
-16.38615
 20
-6.05403
 30
0.0
 10
-16.38615
 20
-6.05403
 30
0.0
  0
SPLINE
  5
42
330
1F
100
AcDbEntity
  8
Layer 1
 62
    15
100
AcDbSpline
210
0.0
220
0.0
230
1.0
 70
    11
 71
     3
 72
    36
 73
    32
 74
     0
 42
0.0000000001
 43
0.0000000001
 12
1.0
 22
0.0
 32
0.0
 13
1.0
 23
0.0
 33
0.0
 40
0.0
 40
0.0
 40
0.0
 40
0.0
 40
0.1111111111111111
 40
0.1111111111111111
 40
0.1111111111111111
 40
0.1111111111111111
 40
0.2222222222222222
 40
0.2222222222222222
 40
0.2222222222222222
 40
0.2222222222222222
 40
0.3333333333333333
 40
0.3333333333333333
 40
0.3333333333333333
 40
0.3333333333333333
 40
0.4444444444444444
 40
0.4444444444444444
 40
0.4444444444444444
 40
0.4444444444444444
 40
0.5555555555555556
 40
0.5555555555555556
 40
0.5555555555555556
 40
0.5555555555555556
 40
0.6666666666666666
 40
0.6666666666666666
 40
0.6666666666666666
 40
0.6666666666666666
 40
0.7777777777777778
 40
0.7777777777777778
 40
0.7777777777777778
 40
0.7777777777777778
 40
1.0
 40
1.0
 40
1.0
 40
1.0
 10
-16.99059
 20
-8.17327
 30
0.0
 10
-16.99059
 20
-8.17327
 30
0.0
 10
-16.99059
 20
-6.05403
 30
0.0
 10
-16.99059
 20
-6.05403
 30
0.0
 10
-16.99059
 20
-6.05403
 30
0.0
 10
-16.99059
 20
-6.05403
 30
0.0
 10
-18.85678
 20
-6.05403
 30
0.0
 10
-18.85678
 20
-6.05403
 30
0.0
 10
-18.85678
 20
-6.05403
 30
0.0
 10
-18.85678
 20
-6.05403
 30
0.0
 10
-19.46122
 20
-6.05403
 30
0.0
 10
-19.46122
 20
-6.05403
 30
0.0
 10
-19.46122
 20
-6.05403
 30
0.0
 10
-19.46122
 20
-6.05403
 30
0.0
 10
-19.46122
 20
-5.44959
 30
0.0
 10
-19.46122
 20
-5.44959
 30
0.0
 10
-19.46122
 20
-5.44959
 30
0.0
 10
-19.46122
 20
-5.44959
 30
0.0
 10
-19.46122
 20
-5.31712
 30
0.0
 10
-19.46122
 20
-5.31712
 30
0.0
 10
-19.46122
 20
-5.31712
 30
0.0
 10
-19.46122
 20
-5.31712
 30
0.0
 10
-22.20606
 20
-5.31712
 30
0.0
 10
-22.20606
 20
-5.31712
 30
0.0
 10
-22.20606
 20
-5.31712
 30
0.0
 10
-22.20606
 20
-5.31712
 30
0.0
 10
-22.20606
 20
-8.17327
 30
0.0
 10
-22.20606
 20
-8.17327
 30
0.0
 10
-22.20606
 20
-8.17327
 30
0.0
 10
-22.20606
 20
-8.17327
 30
0.0
 10
-16.99059
 20
-8.17327
 30
0.0
 10
-16.99059
 20
-8.17327
 30
0.0
  0
SPLINE
  5
43
330
1F
100
AcDbEntity
  8
Layer 1
 62
    15
100
AcDbSpline
210
0.0
220
0.0
230
1.0
 70
    11
 71
     3
 72
    68
 73
    64
 74
     0
 42
0.0000000001
 43
0.0000000001
 12
1.0
 22
0.0
 32
0.0
 13
1.0
 23
0.0
 33
0.0
 40
0.0
 40
0.0
 40
0.0
 40
0.0
 40
0.0588235294117647
 40
0.0588235294117647
 40
0.0588235294117647
 40
0.0588235294117647
 40
0.1176470588235294
 40
0.1176470588235294
 40
0.1176470588235294
 40
0.1176470588235294
 40
0.1764705882352941
 40
0.1764705882352941
 40
0.1764705882352941
 40
0.1764705882352941
 40
0.2352941176470588
 40
0.2352941176470588
 40
0.2352941176470588
 40
0.2352941176470588
 40
0.2941176470588235
 40
0.2941176470588235
 40
0.2941176470588235
 40
0.2941176470588235
 40
0.3529411764705883
 40
0.3529411764705883
 40
0.3529411764705883
 40
0.3529411764705883
 40
0.4117647058823529
 40
0.4117647058823529
 40
0.4117647058823529
 40
0.4117647058823529
 40
0.4705882352941176
 40
0.4705882352941176
 40
0.4705882352941176
 40
0.4705882352941176
 40
0.5294117647058824
 40
0.5294117647058824
 40
0.5294117647058824
 40
0.5294117647058824
 40
0.5882352941176471
 40
0.5882352941176471
 40
0.5882352941176471
 40
0.5882352941176471
 40
0.6470588235294118
 40
0.6470588235294118
 40
0.6470588235294118
 40
0.6470588235294118
 40
0.7058823529411765
 40
0.7058823529411765
 40
0.7058823529411765
 40
0.7058823529411765
 40
0.7647058823529411
 40
0.7647058823529411
 40
0.7647058823529411
 40
0.7647058823529411
 40
0.8235294117647058
 40
0.8235294117647058
 40
0.8235294117647058
 40
0.8235294117647058
 40
0.8823529411764706
 40
0.8823529411764706
 40
0.8823529411764706
 40
0.8823529411764706
 40
1.0
 40
1.0
 40
1.0
 40
1.0
 10
-22.20606
 20
-4.71268
 30
0.0
 10
-22.20606
 20
-4.71268
 30
0.0
 10
-19.46122
 20
-4.71268
 30
0.0
 10
-19.46122
 20
-4.71268
 30
0.0
 10
-19.46122
 20
-4.71268
 30
0.0
 10
-19.46122
 20
-4.71268
 30
0.0
 10
-19.46122
 20
-4.41068
 30
0.0
 10
-19.46122
 20
-4.41068
 30
0.0
 10
-19.46122
 20
-4.41068
 30
0.0
 10
-19.46122
 20
-4.41068
 30
0.0
 10
-19.46122
 20
-3.80624
 30
0.0
 10
-19.46122
 20
-3.80624
 30
0.0
 10
-19.46122
 20
-3.80624
 30
0.0
 10
-19.46122
 20
-3.80624
 30
0.0
 10
-18.85678
 20
-3.80624
 30
0.0
 10
-18.85678
 20
-3.80624
 30
0.0
 10
-18.85678
 20
-3.80624
 30
0.0
 10
-18.85678
 20
-3.80624
 30
0.0
 10
-18.67205
 20
-3.80624
 30
0.0
 10
-18.67205
 20
-3.80624
 30
0.0
 10
-18.67205
 20
-3.80624
 30
0.0
 10
-18.67205
 20
-3.80624
 30
0.0
 10
-18.67205
 20
-1.77015
 30
0.0
 10
-18.67205
 20
-1.77015
 30
0.0
 10
-18.67205
 20
-1.77015
 30
0.0
 10
-18.67205
 20
-1.77015
 30
0.0
 10
-20.95665
 20
-1.77015
 30
0.0
 10
-20.95665
 20
-1.77015
 30
0.0
 10
-20.95665
 20
-1.77015
 30
0.0
 10
-20.95665
 20
-1.77015
 30
0.0
 10
-20.95665
 20
-1.07629
 30
0.0
 10
-20.95665
 20
-1.07629
 30
0.0
 10
-20.95665
 20
-1.07629
 30
0.0
 10
-20.95665
 20
-1.07629
 30
0.0
 10
-20.95665
 20
-0.52119
 30
0.0
 10
-20.95665
 20
-0.52119
 30
0.0
 10
-20.95665
 20
-0.52119
 30
0.0
 10
-20.95665
 20
-0.02943
 30
0.0
 10
-20.67487
 20
0.0339
 30
0.0
 10
-20.67487
 20
0.0339
 30
0.0
 10
-20.67487
 20
0.0339
 30
0.0
 10
-19.97043
 20
0.17268
 30
0.0
 10
-19.96999
 20
-0.70622
 30
0.0
 10
-19.96999
 20
-0.70622
 30
0.0
 10
-19.96999
 20
-0.70622
 30
0.0
 10
-20.43621
 20
-0.29514
 30
0.0
 10
-20.3595
 20
-0.80404
 30
0.0
 10
-20.35301
 20
-1.07629
 30
0.0
 10
-20.35301
 20
-1.07629
 30
0.0
 10
-20.35301
 20
-1.07629
 30
0.0
 10
-18.72019
 20
-1.07629
 30
0.0
 10
-18.72019
 20
-1.07629
 30
0.0
 10
-18.72019
 20
-1.07629
 30
0.0
 10
-18.72019
 20
-1.07629
 30
0.0
 10
-18.72019
 20
0.44696
 30
0.0
 10
-18.72019
 20
0.44696
 30
0.0
 10
-18.72019
 20
0.44696
 30
0.0
 10
-18.72019
 20
0.44696
 30
0.0
 10
-22.20606
 20
0.44696
 30
0.0
 10
-22.20606
 20
0.44696
 30
0.0
 10
-22.20606
 20
0.44696
 30
0.0
 10
-22.20606
 20
0.44696
 30
0.0
 10
-22.20606
 20
-4.71268
 30
0.0
 10
-22.20606
 20
-4.71268
 30
0.0
  0
SPLINE
  5
44
330
1F
100
AcDbEntity
  8
Layer 1
 62
    15
100
AcDbSpline
210
0.0
220
0.0
230
1.0
 70
    11
 71
     3
 72
    68
 73
    64
 74
     0
 42
0.0000000001
 43
0.0000000001
 12
1.0
 22
0.0
 32
0.0
 13
1.0
 23
0.0
 33
0.0
 40
0.0
 40
0.0
 40
0.0
 40
0.0
 40
0.0588235294117647
 40
0.0588235294117647
 40
0.0588235294117647
 40
0.0588235294117647
 40
0.1176470588235294
 40
0.1176470588235294
 40
0.1176470588235294
 40
0.1176470588235294
 40
0.1764705882352941
 40
0.1764705882352941
 40
0.1764705882352941
 40
0.1764705882352941
 40
0.2352941176470588
 40
0.2352941176470588
 40
0.2352941176470588
 40
0.2352941176470588
 40
0.2941176470588235
 40
0.2941176470588235
 40
0.2941176470588235
 40
0.2941176470588235
 40
0.3529411764705883
 40
0.3529411764705883
 40
0.3529411764705883
 40
0.3529411764705883
 40
0.4117647058823529
 40
0.4117647058823529
 40
0.4117647058823529
 40
0.4117647058823529
 40
0.4705882352941176
 40
0.4705882352941176
 40
0.4705882352941176
 40
0.4705882352941176
 40
0.5294117647058824
 40
0.5294117647058824
 40
0.5294117647058824
 40
0.5294117647058824
 40
0.5882352941176471
 40
0.5882352941176471
 40
0.5882352941176471
 40
0.5882352941176471
 40
0.6470588235294118
 40
0.6470588235294118
 40
0.6470588235294118
 40
0.6470588235294118
 40
0.7058823529411765
 40
0.7058823529411765
 40
0.7058823529411765
 40
0.7058823529411765
 40
0.7647058823529411
 40
0.7647058823529411
 40
0.7647058823529411
 40
0.7647058823529411
 40
0.8235294117647058
 40
0.8235294117647058
 40
0.8235294117647058
 40
0.8235294117647058
 40
0.8823529411764706
 40
0.8823529411764706
 40
0.8823529411764706
 40
0.8823529411764706
 40
1.0
 40
1.0
 40
1.0
 40
1.0
 10
-22.20606
 20
1.14409
 30
0.0
 10
-22.20606
 20
1.14409
 30
0.0
 10
-18.72019
 20
1.14409
 30
0.0
 10
-18.72019
 20
1.14409
 30
0.0
 10
-18.72019
 20
1.14409
 30
0.0
 10
-18.72019
 20
1.14409
 30
0.0
 10
-18.72019
 20
2.66734
 30
0.0
 10
-18.72019
 20
2.66734
 30
0.0
 10
-18.72019
 20
2.66734
 30
0.0
 10
-18.72019
 20
2.66734
 30
0.0
 10
-20.35301
 20
2.66734
 30
0.0
 10
-20.35301
 20
2.66734
 30
0.0
 10
-20.35301
 20
2.66734
 30
0.0
 10
-20.3595
 20
2.39509
 30
0.0
 10
-20.43621
 20
1.88619
 30
0.0
 10
-19.96999
 20
2.29727
 30
0.0
 10
-19.96999
 20
2.29727
 30
0.0
 10
-19.96999
 20
2.29727
 30
0.0
 10
-19.97043
 20
1.41837
 30
0.0
 10
-20.67487
 20
1.55715
 30
0.0
 10
-20.67487
 20
1.55715
 30
0.0
 10
-20.67487
 20
1.55715
 30
0.0
 10
-20.95665
 20
1.62048
 30
0.0
 10
-20.95665
 20
2.11224
 30
0.0
 10
-20.95665
 20
2.11224
 30
0.0
 10
-20.95665
 20
2.11224
 30
0.0
 10
-20.95665
 20
2.66734
 30
0.0
 10
-20.95665
 20
2.66734
 30
0.0
 10
-20.95665
 20
2.66734
 30
0.0
 10
-20.95665
 20
2.66734
 30
0.0
 10
-20.95665
 20
3.3612
 30
0.0
 10
-20.95665
 20
3.3612
 30
0.0
 10
-20.95665
 20
3.3612
 30
0.0
 10
-20.95665
 20
3.3612
 30
0.0
 10
-18.67205
 20
3.3612
 30
0.0
 10
-18.67205
 20
3.3612
 30
0.0
 10
-18.67205
 20
3.3612
 30
0.0
 10
-18.67205
 20
3.3612
 30
0.0
 10
-18.67205
 20
5.56683
 30
0.0
 10
-18.67205
 20
5.56683
 30
0.0
 10
-18.67205
 20
5.56683
 30
0.0
 10
-18.67205
 20
5.56683
 30
0.0
 10
-18.85678
 20
5.56683
 30
0.0
 10
-18.85678
 20
5.56683
 30
0.0
 10
-18.85678
 20
5.56683
 30
0.0
 10
-18.85678
 20
5.56683
 30
0.0
 10
-19.46122
 20
5.56683
 30
0.0
 10
-19.46122
 20
5.56683
 30
0.0
 10
-19.46122
 20
5.56683
 30
0.0
 10
-19.46122
 20
5.56683
 30
0.0
 10
-19.46122
 20
6.17127
 30
0.0
 10
-19.46122
 20
6.17127
 30
0.0
 10
-19.46122
 20
6.17127
 30
0.0
 10
-19.46122
 20
6.17127
 30
0.0
 10
-19.46122
 20
6.30374
 30
0.0
 10
-19.46122
 20
6.30374
 30
0.0
 10
-19.46122
 20
6.30374
 30
0.0
 10
-19.46122
 20
6.30374
 30
0.0
 10
-22.20606
 20
6.30374
 30
0.0
 10
-22.20606
 20
6.30374
 30
0.0
 10
-22.20606
 20
6.30374
 30
0.0
 10
-22.20606
 20
6.30374
 30
0.0
 10
-22.20606
 20
1.14409
 30
0.0
 10
-22.20606
 20
1.14409
 30
0.0
  0
SPLINE
  5
45
330
1F
100
AcDbEntity
  8
Layer 1
 62
    15
100
AcDbSpline
210
0.0
220
0.0
230
1.0
 70
    11
 71
     3
 72
    36
 73
    32
 74
     0
 42
0.0000000001
 43
0.0000000001
 12
1.0
 22
0.0
 32
0.0
 13
1.0
 23
0.0
 33
0.0
 40
0.0
 40
0.0
 40
0.0
 40
0.0
 40
0.1111111111111111
 40
0.1111111111111111
 40
0.1111111111111111
 40
0.1111111111111111
 40
0.2222222222222222
 40
0.2222222222222222
 40
0.2222222222222222
 40
0.2222222222222222
 40
0.3333333333333333
 40
0.3333333333333333
 40
0.3333333333333333
 40
0.3333333333333333
 40
0.4444444444444444
 40
0.4444444444444444
 40
0.4444444444444444
 40
0.4444444444444444
 40
0.5555555555555556
 40
0.5555555555555556
 40
0.5555555555555556
 40
0.5555555555555556
 40
0.6666666666666666
 40
0.6666666666666666
 40
0.6666666666666666
 40
0.6666666666666666
 40
0.7777777777777778
 40
0.7777777777777778
 40
0.7777777777777778
 40
0.7777777777777778
 40
1.0
 40
1.0
 40
1.0
 40
1.0
 10
-22.20606
 20
6.90818
 30
0.0
 10
-22.20606
 20
6.90818
 30
0.0
 10
-19.46122
 20
6.90818
 30
0.0
 10
-19.46122
 20
6.90818
 30
0.0
 10
-19.46122
 20
6.90818
 30
0.0
 10
-19.46122
 20
6.90818
 30
0.0
 10
-19.46122
 20
7.21155
 30
0.0
 10
-19.46122
 20
7.21155
 30
0.0
 10
-19.46122
 20
7.21155
 30
0.0
 10
-19.46122
 20
7.21155
 30
0.0
 10
-19.46122
 20
7.4754
 30
0.0
 10
-19.46122
 20
7.4754
 30
0.0
 10
-19.46122
 20
7.4754
 30
0.0
 10
-19.46122
 20
7.4754
 30
0.0
 10
-19.46122
 20
7.81599
 30
0.0
 10
-19.46122
 20
7.81599
 30
0.0
 10
-19.46122
 20
7.81599
 30
0.0
 10
-19.46122
 20
7.81599
 30
0.0
 10
-16.99059
 20
7.81599
 30
0.0
 10
-16.99059
 20
7.81599
 30
0.0
 10
-16.99059
 20
7.81599
 30
0.0
 10
-16.99059
 20
7.81599
 30
0.0
 10
-16.99059
 20
9.83907
 30
0.0
 10
-16.99059
 20
9.83907
 30
0.0
 10
-16.99059
 20
9.83907
 30
0.0
 10
-16.99059
 20
9.83907
 30
0.0
 10
-22.20606
 20
9.83907
 30
0.0
 10
-22.20606
 20
9.83907
 30
0.0
 10
-22.20606
 20
9.83907
 30
0.0
 10
-22.20606
 20
9.83907
 30
0.0
 10
-22.20606
 20
6.90818
 30
0.0
 10
-22.20606
 20
6.90818
 30
0.0
  0
SPLINE
  5
46
330
1F
100
AcDbEntity
  8
Layer 1
 62
    15
100
AcDbSpline
210
0.0
220
0.0
230
1.0
 70
    11
 71
     3
 72
    20
 73
    16
 74
     0
 42
0.0000000001
 43
0.0000000001
 12
1.0
 22
0.0
 32
0.0
 13
1.0
 23
0.0
 33
0.0
 40
0.0
 40
0.0
 40
0.0
 40
0.0
 40
0.2
 40
0.2
 40
0.2
 40
0.2
 40
0.4
 40
0.4
 40
0.4
 40
0.4
 40
0.6
 40
0.6
 40
0.6
 40
0.6
 40
1.0
 40
1.0
 40
1.0
 40
1.0
 10
-16.38615
 20
9.83907
 30
0.0
 10
-16.38615
 20
9.83907
 30
0.0
 10
-16.38615
 20
7.81599
 30
0.0
 10
-16.38615
 20
7.81599
 30
0.0
 10
-16.38615
 20
7.81599
 30
0.0
 10
-16.38615
 20
7.81599
 30
0.0
 10
-11.45156
 20
7.81599
 30
0.0
 10
-11.45156
 20
7.81599
 30
0.0
 10
-11.45156
 20
7.81599
 30
0.0
 10
-11.45156
 20
7.81599
 30
0.0
 10
-11.45156
 20
9.83907
 30
0.0
 10
-11.45156
 20
9.83907
 30
0.0
 10
-11.45156
 20
9.83907
 30
0.0
 10
-11.45156
 20
9.83907
 30
0.0
 10
-16.38615
 20
9.83907
 30
0.0
 10
-16.38615
 20
9.83907
 30
0.0
  0
SPLINE
  5
47
330
1F
100
AcDbEntity
  8
Layer 1
 62
    15
100
AcDbSpline
210
0.0
220
0.0
230
1.0
 70
    11
 71
     3
 72
    52
 73
    48
 74
     0
 42
0.0000000001
 43
0.0000000001
 12
1.0
 22
0.0
 32
0.0
 13
1.0
 23
0.0
 33
0.0
 40
0.0
 40
0.0
 40
0.0
 40
0.0
 40
0.0769230769230769
 40
0.0769230769230769
 40
0.0769230769230769
 40
0.0769230769230769
 40
0.1538461538461539
 40
0.1538461538461539
 40
0.1538461538461539
 40
0.1538461538461539
 40
0.2307692307692308
 40
0.2307692307692308
 40
0.2307692307692308
 40
0.2307692307692308
 40
0.3076923076923077
 40
0.3076923076923077
 40
0.3076923076923077
 40
0.3076923076923077
 40
0.3846153846153846
 40
0.3846153846153846
 40
0.3846153846153846
 40
0.3846153846153846
 40
0.4615384615384616
 40
0.4615384615384616
 40
0.4615384615384616
 40
0.4615384615384616
 40
0.5384615384615384
 40
0.5384615384615384
 40
0.5384615384615384
 40
0.5384615384615384
 40
0.6153846153846154
 40
0.6153846153846154
 40
0.6153846153846154
 40
0.6153846153846154
 40
0.6923076923076923
 40
0.6923076923076923
 40
0.6923076923076923
 40
0.6923076923076923
 40
0.7692307692307693
 40
0.7692307692307693
 40
0.7692307692307693
 40
0.7692307692307693
 40
0.8461538461538461
 40
0.8461538461538461
 40
0.8461538461538461
 40
0.8461538461538461
 40
1.0
 40
1.0
 40
1.0
 40
1.0
 10
-10.84712
 20
9.83907
 30
0.0
 10
-10.84712
 20
9.83907
 30
0.0
 10
-10.84712
 20
7.39442
 30
0.0
 10
-10.84712
 20
7.39442
 30
0.0
 10
-10.84712
 20
7.39442
 30
0.0
 10
-10.84712
 20
7.39442
 30
0.0
 10
-7.31367
 20
7.39442
 30
0.0
 10
-7.31367
 20
7.39442
 30
0.0
 10
-7.31367
 20
7.39442
 30
0.0
 10
-7.31367
 20
7.39442
 30
0.0
 10
-7.31367
 20
9.18142
 30
0.0
 10
-7.31367
 20
9.18142
 30
0.0
 10
-7.31367
 20
9.18142
 30
0.0
 10
-7.31367
 20
9.18142
 30
0.0
 10
-6.6198
 20
9.18142
 30
0.0
 10
-6.6198
 20
9.18142
 30
0.0
 10
-6.6198
 20
9.18142
 30
0.0
 10
-6.6198
 20
9.18142
 30
0.0
 10
-6.06471
 20
9.18142
 30
0.0
 10
-6.06471
 20
9.18142
 30
0.0
 10
-6.06471
 20
9.18142
 30
0.0
 10
-5.57295
 20
9.18142
 30
0.0
 10
-5.50961
 20
8.90388
 30
0.0
 10
-5.50961
 20
8.90388
 30
0.0
 10
-5.50961
 20
8.90388
 30
0.0
 10
-5.37084
 20
8.21001
 30
0.0
 10
-6.24974
 20
8.30252
 30
0.0
 10
-6.24974
 20
8.30252
 30
0.0
 10
-6.24974
 20
8.30252
 30
0.0
 10
-5.83866
 20
8.76175
 30
0.0
 10
-6.34756
 20
8.68619
 30
0.0
 10
-6.6198
 20
8.6798
 30
0.0
 10
-6.6198
 20
8.6798
 30
0.0
 10
-6.6198
 20
8.6798
 30
0.0
 10
-6.6198
 20
7.46621
 30
0.0
 10
-6.6198
 20
7.46621
 30
0.0
 10
-6.6198
 20
7.46621
 30
0.0
 10
-6.6198
 20
7.46621
 30
0.0
 10
-5.09329
 20
7.46621
 30
0.0
 10
-5.09329
 20
7.46621
 30
0.0
 10
-5.09329
 20
7.46621
 30
0.0
 10
-5.09329
 20
7.46621
 30
0.0
 10
-5.09329
 20
9.83907
 30
0.0
 10
-5.09329
 20
9.83907
 30
0.0
 10
-5.09329
 20
9.83907
 30
0.0
 10
-5.09329
 20
9.83907
 30
0.0
 10
-10.84712
 20
9.83907
 30
0.0
 10
-10.84712
 20
9.83907
 30
0.0
  0
SPLINE
  5
48
330
1F
100
AcDbEntity
  8
Layer 1
 62
    15
100
AcDbSpline
210
0.0
220
0.0
230
1.0
 70
    11
 71
     3
 72
    52
 73
    48
 74
     0
 42
0.0000000001
 43
0.0000000001
 12
1.0
 22
0.0
 32
0.0
 13
1.0
 23
0.0
 33
0.0
 40
0.0
 40
0.0
 40
0.0
 40
0.0
 40
0.0769230769230769
 40
0.0769230769230769
 40
0.0769230769230769
 40
0.0769230769230769
 40
0.1538461538461539
 40
0.1538461538461539
 40
0.1538461538461539
 40
0.1538461538461539
 40
0.2307692307692308
 40
0.2307692307692308
 40
0.2307692307692308
 40
0.2307692307692308
 40
0.3076923076923077
 40
0.3076923076923077
 40
0.3076923076923077
 40
0.3076923076923077
 40
0.3846153846153846
 40
0.3846153846153846
 40
0.3846153846153846
 40
0.3846153846153846
 40
0.4615384615384616
 40
0.4615384615384616
 40
0.4615384615384616
 40
0.4615384615384616
 40
0.5384615384615384
 40
0.5384615384615384
 40
0.5384615384615384
 40
0.5384615384615384
 40
0.6153846153846154
 40
0.6153846153846154
 40
0.6153846153846154
 40
0.6153846153846154
 40
0.6923076923076923
 40
0.6923076923076923
 40
0.6923076923076923
 40
0.6923076923076923
 40
0.7692307692307693
 40
0.7692307692307693
 40
0.7692307692307693
 40
0.7692307692307693
 40
0.8461538461538461
 40
0.8461538461538461
 40
0.8461538461538461
 40
0.8461538461538461
 40
1.0
 40
1.0
 40
1.0
 40
1.0
 10
-4.39943
 20
9.83907
 30
0.0
 10
-4.39943
 20
9.83907
 30
0.0
 10
-4.39943
 20
7.39442
 30
0.0
 10
-4.39943
 20
7.39442
 30
0.0
 10
-4.39943
 20
7.39442
 30
0.0
 10
-4.39943
 20
7.39442
 30
0.0
 10
2.87748
 20
7.39442
 30
0.0
 10
2.87748
 20
7.39442
 30
0.0
 10
2.87748
 20
7.39442
 30
0.0
 10
2.87748
 20
7.39442
 30
0.0
 10
2.87748
 20
9.18142
 30
0.0
 10
2.87748
 20
9.18142
 30
0.0
 10
2.87748
 20
9.18142
 30
0.0
 10
2.87748
 20
9.18142
 30
0.0
 10
3.57135
 20
9.18142
 30
0.0
 10
3.57135
 20
9.18142
 30
0.0
 10
3.57135
 20
9.18142
 30
0.0
 10
3.57135
 20
9.18142
 30
0.0
 10
4.12644
 20
9.18142
 30
0.0
 10
4.12644
 20
9.18142
 30
0.0
 10
4.12644
 20
9.18142
 30
0.0
 10
4.6182
 20
9.18142
 30
0.0
 10
4.68154
 20
8.90388
 30
0.0
 10
4.68154
 20
8.90388
 30
0.0
 10
4.68154
 20
8.90388
 30
0.0
 10
4.82031
 20
8.21001
 30
0.0
 10
3.94141
 20
8.30252
 30
0.0
 10
3.94141
 20
8.30252
 30
0.0
 10
3.94141
 20
8.30252
 30
0.0
 10
4.35249
 20
8.76175
 30
0.0
 10
3.84359
 20
8.68619
 30
0.0
 10
3.57135
 20
8.6798
 30
0.0
 10
3.57135
 20
8.6798
 30
0.0
 10
3.57135
 20
8.6798
 30
0.0
 10
3.57135
 20
7.46621
 30
0.0
 10
3.57135
 20
7.46621
 30
0.0
 10
3.57135
 20
7.46621
 30
0.0
 10
3.57135
 20
7.46621
 30
0.0
 10
5.09786
 20
7.46621
 30
0.0
 10
5.09786
 20
7.46621
 30
0.0
 10
5.09786
 20
7.46621
 30
0.0
 10
5.09786
 20
7.46621
 30
0.0
 10
5.09786
 20
9.83907
 30
0.0
 10
5.09786
 20
9.83907
 30
0.0
 10
5.09786
 20
9.83907
 30
0.0
 10
5.09786
 20
9.83907
 30
0.0
 10
-4.39943
 20
9.83907
 30
0.0
 10
-4.39943
 20
9.83907
 30
0.0
  0
SPLINE
  5
49
330
1F
100
AcDbEntity
  8
Layer 1
 62
    15
100
AcDbSpline
210
0.0
220
0.0
230
1.0
 70
    11
 71
     3
 72
    24
 73
    20
 74
     0
 42
0.0000000001
 43
0.0000000001
 12
1.0
 22
0.0
 32
0.0
 13
1.0
 23
0.0
 33
0.0
 40
0.0
 40
0.0
 40
0.0
 40
0.0
 40
0.1666666666666667
 40
0.1666666666666667
 40
0.1666666666666667
 40
0.1666666666666667
 40
0.3333333333333333
 40
0.3333333333333333
 40
0.3333333333333333
 40
0.3333333333333333
 40
0.5
 40
0.5
 40
0.5
 40
0.5
 40
0.6666666666666666
 40
0.6666666666666666
 40
0.6666666666666666
 40
0.6666666666666666
 40
1.0
 40
1.0
 40
1.0
 40
1.0
 10
5.79172
 20
9.83907
 30
0.0
 10
5.79172
 20
9.83907
 30
0.0
 10
5.79172
 20
7.39442
 30
0.0
 10
5.79172
 20
7.39442
 30
0.0
 10
5.79172
 20
7.39442
 30
0.0
 10
5.79172
 20
7.39442
 30
0.0
 10
9.73189
 20
7.39442
 30
0.0
 10
9.73189
 20
7.39442
 30
0.0
 10
9.73189
 20
7.39442
 30
0.0
 10
9.73189
 20
7.39442
 30
0.0
 10
9.73189
 20
7.81599
 30
0.0
 10
9.73189
 20
7.81599
 30
0.0
 10
9.73189
 20
7.81599
 30
0.0
 10
9.73189
 20
7.81599
 30
0.0
 10
9.73189
 20
9.83907
 30
0.0
 10
9.73189
 20
9.83907
 30
0.0
 10
9.73189
 20
9.83907
 30
0.0
 10
9.73189
 20
9.83907
 30
0.0
 10
5.79172
 20
9.83907
 30
0.0
 10
5.79172
 20
9.83907
 30
0.0
  0
SPLINE
  5
4A
330
1F
100
AcDbEntity
  8
Layer 1
 62
    15
100
AcDbSpline
210
0.0
220
0.0
230
1.0
 70
    11
 71
     3
 72
    20
 73
    16
 74
     0
 42
0.0000000001
 43
0.0000000001
 12
1.0
 22
0.0
 32
0.0
 13
1.0
 23
0.0
 33
0.0
 40
0.0
 40
0.0
 40
0.0
 40
0.0
 40
0.2
 40
0.2
 40
0.2
 40
0.2
 40
0.4
 40
0.4
 40
0.4
 40
0.4
 40
0.6
 40
0.6
 40
0.6
 40
0.6
 40
1.0
 40
1.0
 40
1.0
 40
1.0
 10
10.33633
 20
9.83907
 30
0.0
 10
10.33633
 20
9.83907
 30
0.0
 10
10.33633
 20
7.81599
 30
0.0
 10
10.33633
 20
7.81599
 30
0.0
 10
10.33633
 20
7.81599
 30
0.0
 10
10.33633
 20
7.81599
 30
0.0
 10
15.36625
 20
7.81599
 30
0.0
 10
15.36625
 20
7.81599
 30
0.0
 10
15.36625
 20
7.81599
 30
0.0
 10
15.36625
 20
7.81599
 30
0.0
 10
15.36625
 20
9.83907
 30
0.0
 10
15.36625
 20
9.83907
 30
0.0
 10
15.36625
 20
9.83907
 30
0.0
 10
15.36625
 20
9.83907
 30
0.0
 10
10.33633
 20
9.83907
 30
0.0
 10
10.33633
 20
9.83907
 30
0.0
  0
SPLINE
  5
4B
330
1F
100
AcDbEntity
  8
Layer 1
 62
    15
100
AcDbSpline
210
0.0
220
0.0
230
1.0
 70
    11
 71
     3
 72
    36
 73
    32
 74
     0
 42
0.0000000001
 43
0.0000000001
 12
1.0
 22
0.0
 32
0.0
 13
1.0
 23
0.0
 33
0.0
 40
0.0
 40
0.0
 40
0.0
 40
0.0
 40
0.1111111111111111
 40
0.1111111111111111
 40
0.1111111111111111
 40
0.1111111111111111
 40
0.2222222222222222
 40
0.2222222222222222
 40
0.2222222222222222
 40
0.2222222222222222
 40
0.3333333333333333
 40
0.3333333333333333
 40
0.3333333333333333
 40
0.3333333333333333
 40
0.4444444444444444
 40
0.4444444444444444
 40
0.4444444444444444
 40
0.4444444444444444
 40
0.5555555555555556
 40
0.5555555555555556
 40
0.5555555555555556
 40
0.5555555555555556
 40
0.6666666666666666
 40
0.6666666666666666
 40
0.6666666666666666
 40
0.6666666666666666
 40
0.7777777777777778
 40
0.7777777777777778
 40
0.7777777777777778
 40
0.7777777777777778
 40
1.0
 40
1.0
 40
1.0
 40
1.0
 10
15.97069
 20
9.83907
 30
0.0
 10
15.97069
 20
9.83907
 30
0.0
 10
15.97069
 20
7.81599
 30
0.0
 10
15.97069
 20
7.81599
 30
0.0
 10
15.97069
 20
7.81599
 30
0.0
 10
15.97069
 20
7.81599
 30
0.0
 10
18.40064
 20
7.81599
 30
0.0
 10
18.40064
 20
7.81599
 30
0.0
 10
18.40064
 20
7.81599
 30
0.0
 10
18.40064
 20
7.81599
 30
0.0
 10
18.40064
 20
7.4754
 30
0.0
 10
18.40064
 20
7.4754
 30
0.0
 10
18.40064
 20
7.4754
 30
0.0
 10
18.40064
 20
7.4754
 30
0.0
 10
18.40064
 20
7.21155
 30
0.0
 10
18.40064
 20
7.21155
 30
0.0
 10
18.40064
 20
7.21155
 30
0.0
 10
18.40064
 20
7.21155
 30
0.0
 10
18.40064
 20
6.90818
 30
0.0
 10
18.40064
 20
6.90818
 30
0.0
 10
18.40064
 20
6.90818
 30
0.0
 10
18.40064
 20
6.90818
 30
0.0
 10
21.19279
 20
6.90818
 30
0.0
 10
21.19279
 20
6.90818
 30
0.0
 10
21.19279
 20
6.90818
 30
0.0
 10
21.19279
 20
6.90818
 30
0.0
 10
21.19279
 20
9.83907
 30
0.0
 10
21.19279
 20
9.83907
 30
0.0
 10
21.19279
 20
9.83907
 30
0.0
 10
21.19279
 20
9.83907
 30
0.0
 10
15.97069
 20
9.83907
 30
0.0
 10
15.97069
 20
9.83907
 30
0.0
  0
SPLINE
  5
4C
330
1F
100
AcDbEntity
  8
Layer 1
 62
    15
100
AcDbSpline
210
0.0
220
0.0
230
1.0
 70
    11
 71
     3
 72
    68
 73
    64
 74
     0
 42
0.0000000001
 43
0.0000000001
 12
1.0
 22
0.0
 32
0.0
 13
1.0
 23
0.0
 33
0.0
 40
0.0
 40
0.0
 40
0.0
 40
0.0
 40
0.0588235294117647
 40
0.0588235294117647
 40
0.0588235294117647
 40
0.0588235294117647
 40
0.1176470588235294
 40
0.1176470588235294
 40
0.1176470588235294
 40
0.1176470588235294
 40
0.1764705882352941
 40
0.1764705882352941
 40
0.1764705882352941
 40
0.1764705882352941
 40
0.2352941176470588
 40
0.2352941176470588
 40
0.2352941176470588
 40
0.2352941176470588
 40
0.2941176470588235
 40
0.2941176470588235
 40
0.2941176470588235
 40
0.2941176470588235
 40
0.3529411764705883
 40
0.3529411764705883
 40
0.3529411764705883
 40
0.3529411764705883
 40
0.4117647058823529
 40
0.4117647058823529
 40
0.4117647058823529
 40
0.4117647058823529
 40
0.4705882352941176
 40
0.4705882352941176
 40
0.4705882352941176
 40
0.4705882352941176
 40
0.5294117647058824
 40
0.5294117647058824
 40
0.5294117647058824
 40
0.5294117647058824
 40
0.5882352941176471
 40
0.5882352941176471
 40
0.5882352941176471
 40
0.5882352941176471
 40
0.6470588235294118
 40
0.6470588235294118
 40
0.6470588235294118
 40
0.6470588235294118
 40
0.7058823529411765
 40
0.7058823529411765
 40
0.7058823529411765
 40
0.7058823529411765
 40
0.7647058823529411
 40
0.7647058823529411
 40
0.7647058823529411
 40
0.7647058823529411
 40
0.8235294117647058
 40
0.8235294117647058
 40
0.8235294117647058
 40
0.8235294117647058
 40
0.8823529411764706
 40
0.8823529411764706
 40
0.8823529411764706
 40
0.8823529411764706
 40
1.0
 40
1.0
 40
1.0
 40
1.0
 10
21.19279
 20
6.30374
 30
0.0
 10
21.19279
 20
6.30374
 30
0.0
 10
18.40064
 20
6.30374
 30
0.0
 10
18.40064
 20
6.30374
 30
0.0
 10
18.40064
 20
6.30374
 30
0.0
 10
18.40064
 20
6.30374
 30
0.0
 10
18.40064
 20
6.17127
 30
0.0
 10
18.40064
 20
6.17127
 30
0.0
 10
18.40064
 20
6.17127
 30
0.0
 10
18.40064
 20
6.17127
 30
0.0
 10
18.40064
 20
5.56683
 30
0.0
 10
18.40064
 20
5.56683
 30
0.0
 10
18.40064
 20
5.56683
 30
0.0
 10
18.40064
 20
5.56683
 30
0.0
 10
17.7962
 20
5.56683
 30
0.0
 10
17.7962
 20
5.56683
 30
0.0
 10
17.7962
 20
5.56683
 30
0.0
 10
17.7962
 20
5.56683
 30
0.0
 10
17.48967
 20
5.56683
 30
0.0
 10
17.48967
 20
5.56683
 30
0.0
 10
17.48967
 20
5.56683
 30
0.0
 10
17.48967
 20
5.56683
 30
0.0
 10
17.48967
 20
3.3612
 30
0.0
 10
17.48967
 20
3.3612
 30
0.0
 10
17.48967
 20
3.3612
 30
0.0
 10
17.48967
 20
3.3612
 30
0.0
 10
19.94272
 20
3.3612
 30
0.0
 10
19.94272
 20
3.3612
 30
0.0
 10
19.94272
 20
3.3612
 30
0.0
 10
19.94272
 20
3.3612
 30
0.0
 10
19.94272
 20
2.66734
 30
0.0
 10
19.94272
 20
2.66734
 30
0.0
 10
19.94272
 20
2.66734
 30
0.0
 10
19.94272
 20
2.66734
 30
0.0
 10
19.94272
 20
2.11224
 30
0.0
 10
19.94272
 20
2.11224
 30
0.0
 10
19.94272
 20
2.11224
 30
0.0
 10
19.94272
 20
1.62048
 30
0.0
 10
19.66095
 20
1.55715
 30
0.0
 10
19.66095
 20
1.55715
 30
0.0
 10
19.66095
 20
1.55715
 30
0.0
 10
18.95651
 20
1.41837
 30
0.0
 10
18.78672
 20
2.29727
 30
0.0
 10
18.78672
 20
2.29727
 30
0.0
 10
18.78672
 20
2.29727
 30
0.0
 10
19.25295
 20
1.88619
 30
0.0
 10
19.17624
 20
2.39509
 30
0.0
 10
19.16975
 20
2.66734
 30
0.0
 10
19.16975
 20
2.66734
 30
0.0
 10
19.16975
 20
2.66734
 30
0.0
 10
17.53692
 20
2.66734
 30
0.0
 10
17.53692
 20
2.66734
 30
0.0
 10
17.53692
 20
2.66734
 30
0.0
 10
17.53692
 20
2.66734
 30
0.0
 10
17.53692
 20
1.14409
 30
0.0
 10
17.53692
 20
1.14409
 30
0.0
 10
17.53692
 20
1.14409
 30
0.0
 10
17.53692
 20
1.14409
 30
0.0
 10
21.19279
 20
1.14409
 30
0.0
 10
21.19279
 20
1.14409
 30
0.0
 10
21.19279
 20
1.14409
 30
0.0
 10
21.19279
 20
1.14409
 30
0.0
 10
21.19279
 20
6.30374
 30
0.0
 10
21.19279
 20
6.30374
 30
0.0
  0
SPLINE
  5
4D
330
1F
100
AcDbEntity
  8
Layer 1
 62
    15
100
AcDbSpline
210
0.0
220
0.0
230
1.0
 70
    11
 71
     3
 72
    68
 73
    64
 74
     0
 42
0.0000000001
 43
0.0000000001
 12
1.0
 22
0.0
 32
0.0
 13
1.0
 23
0.0
 33
0.0
 40
0.0
 40
0.0
 40
0.0
 40
0.0
 40
0.0588235294117647
 40
0.0588235294117647
 40
0.0588235294117647
 40
0.0588235294117647
 40
0.1176470588235294
 40
0.1176470588235294
 40
0.1176470588235294
 40
0.1176470588235294
 40
0.1764705882352941
 40
0.1764705882352941
 40
0.1764705882352941
 40
0.1764705882352941
 40
0.2352941176470588
 40
0.2352941176470588
 40
0.2352941176470588
 40
0.2352941176470588
 40
0.2941176470588235
 40
0.2941176470588235
 40
0.2941176470588235
 40
0.2941176470588235
 40
0.3529411764705883
 40
0.3529411764705883
 40
0.3529411764705883
 40
0.3529411764705883
 40
0.4117647058823529
 40
0.4117647058823529
 40
0.4117647058823529
 40
0.4117647058823529
 40
0.4705882352941176
 40
0.4705882352941176
 40
0.4705882352941176
 40
0.4705882352941176
 40
0.5294117647058824
 40
0.5294117647058824
 40
0.5294117647058824
 40
0.5294117647058824
 40
0.5882352941176471
 40
0.5882352941176471
 40
0.5882352941176471
 40
0.5882352941176471
 40
0.6470588235294118
 40
0.6470588235294118
 40
0.6470588235294118
 40
0.6470588235294118
 40
0.7058823529411765
 40
0.7058823529411765
 40
0.7058823529411765
 40
0.7058823529411765
 40
0.7647058823529411
 40
0.7647058823529411
 40
0.7647058823529411
 40
0.7647058823529411
 40
0.8235294117647058
 40
0.8235294117647058
 40
0.8235294117647058
 40
0.8235294117647058
 40
0.8823529411764706
 40
0.8823529411764706
 40
0.8823529411764706
 40
0.8823529411764706
 40
1.0
 40
1.0
 40
1.0
 40
1.0
 10
21.19279
 20
0.44696
 30
0.0
 10
21.19279
 20
0.44696
 30
0.0
 10
17.53692
 20
0.44696
 30
0.0
 10
17.53692
 20
0.44696
 30
0.0
 10
17.53692
 20
0.44696
 30
0.0
 10
17.53692
 20
0.44696
 30
0.0
 10
17.53692
 20
-1.07629
 30
0.0
 10
17.53692
 20
-1.07629
 30
0.0
 10
17.53692
 20
-1.07629
 30
0.0
 10
17.53692
 20
-1.07629
 30
0.0
 10
19.16975
 20
-1.07629
 30
0.0
 10
19.16975
 20
-1.07629
 30
0.0
 10
19.16975
 20
-1.07629
 30
0.0
 10
19.17624
 20
-0.80404
 30
0.0
 10
19.25295
 20
-0.29514
 30
0.0
 10
18.78672
 20
-0.70622
 30
0.0
 10
18.78672
 20
-0.70622
 30
0.0
 10
18.78672
 20
-0.70622
 30
0.0
 10
18.95651
 20
0.17268
 30
0.0
 10
19.66095
 20
0.0339
 30
0.0
 10
19.66095
 20
0.0339
 30
0.0
 10
19.66095
 20
0.0339
 30
0.0
 10
19.94272
 20
-0.02943
 30
0.0
 10
19.94272
 20
-0.52119
 30
0.0
 10
19.94272
 20
-0.52119
 30
0.0
 10
19.94272
 20
-0.52119
 30
0.0
 10
19.94272
 20
-1.07629
 30
0.0
 10
19.94272
 20
-1.07629
 30
0.0
 10
19.94272
 20
-1.07629
 30
0.0
 10
19.94272
 20
-1.07629
 30
0.0
 10
19.94272
 20
-1.77015
 30
0.0
 10
19.94272
 20
-1.77015
 30
0.0
 10
19.94272
 20
-1.77015
 30
0.0
 10
19.94272
 20
-1.77015
 30
0.0
 10
17.48967
 20
-1.77015
 30
0.0
 10
17.48967
 20
-1.77015
 30
0.0
 10
17.48967
 20
-1.77015
 30
0.0
 10
17.48967
 20
-1.77015
 30
0.0
 10
17.48967
 20
-3.80624
 30
0.0
 10
17.48967
 20
-3.80624
 30
0.0
 10
17.48967
 20
-3.80624
 30
0.0
 10
17.48967
 20
-3.80624
 30
0.0
 10
18.27884
 20
-3.80624
 30
0.0
 10
18.27884
 20
-3.80624
 30
0.0
 10
18.27884
 20
-3.80624
 30
0.0
 10
18.27884
 20
-3.80624
 30
0.0
 10
18.27884
 20
-3.81666
 30
0.0
 10
18.27884
 20
-3.81666
 30
0.0
 10
18.27884
 20
-3.81666
 30
0.0
 10
18.27884
 20
-3.81666
 30
0.0
 10
18.29328
 20
-3.81666
 30
0.0
 10
18.29328
 20
-3.81666
 30
0.0
 10
18.29328
 20
-3.81666
 30
0.0
 10
18.29328
 20
-3.81666
 30
0.0
 10
18.29328
 20
-4.71268
 30
0.0
 10
18.29328
 20
-4.71268
 30
0.0
 10
18.29328
 20
-4.71268
 30
0.0
 10
18.29328
 20
-4.71268
 30
0.0
 10
21.19279
 20
-4.71268
 30
0.0
 10
21.19279
 20
-4.71268
 30
0.0
 10
21.19279
 20
-4.71268
 30
0.0
 10
21.19279
 20
-4.71268
 30
0.0
 10
21.19279
 20
0.44696
 30
0.0
 10
21.19279
 20
0.44696
 30
0.0
  0
SPLINE
  5
4E
330
1F
100
AcDbEntity
  8
Layer 1
 62
    15
100
AcDbSpline
210
0.0
220
0.0
230
1.0
 70
    11
 71
     3
 72
    36
 73
    32
 74
     0
 42
0.0000000001
 43
0.0000000001
 12
1.0
 22
0.0
 32
0.0
 13
1.0
 23
0.0
 33
0.0
 40
0.0
 40
0.0
 40
0.0
 40
0.0
 40
0.1111111111111111
 40
0.1111111111111111
 40
0.1111111111111111
 40
0.1111111111111111
 40
0.2222222222222222
 40
0.2222222222222222
 40
0.2222222222222222
 40
0.2222222222222222
 40
0.3333333333333333
 40
0.3333333333333333
 40
0.3333333333333333
 40
0.3333333333333333
 40
0.4444444444444444
 40
0.4444444444444444
 40
0.4444444444444444
 40
0.4444444444444444
 40
0.5555555555555556
 40
0.5555555555555556
 40
0.5555555555555556
 40
0.5555555555555556
 40
0.6666666666666666
 40
0.6666666666666666
 40
0.6666666666666666
 40
0.6666666666666666
 40
0.7777777777777778
 40
0.7777777777777778
 40
0.7777777777777778
 40
0.7777777777777778
 40
1.0
 40
1.0
 40
1.0
 40
1.0
 10
21.19279
 20
-5.31712
 30
0.0
 10
21.19279
 20
-5.31712
 30
0.0
 10
18.29328
 20
-5.31712
 30
0.0
 10
18.29328
 20
-5.31712
 30
0.0
 10
18.29328
 20
-5.31712
 30
0.0
 10
18.29328
 20
-5.31712
 30
0.0
 10
18.29328
 20
-5.46002
 30
0.0
 10
18.29328
 20
-5.46002
 30
0.0
 10
18.29328
 20
-5.46002
 30
0.0
 10
18.29328
 20
-5.46002
 30
0.0
 10
18.29328
 20
-6.06446
 30
0.0
 10
18.29328
 20
-6.06446
 30
0.0
 10
18.29328
 20
-6.06446
 30
0.0
 10
18.29328
 20
-6.06446
 30
0.0
 10
17.68884
 20
-6.06446
 30
0.0
 10
17.68884
 20
-6.06446
 30
0.0
 10
17.68884
 20
-6.06446
 30
0.0
 10
17.68884
 20
-6.06446
 30
0.0
 10
15.924
 20
-6.06446
 30
0.0
 10
15.924
 20
-6.06446
 30
0.0
 10
15.924
 20
-6.06446
 30
0.0
 10
15.924
 20
-6.06446
 30
0.0
 10
15.924
 20
-8.17327
 30
0.0
 10
15.924
 20
-8.17327
 30
0.0
 10
15.924
 20
-8.17327
 30
0.0
 10
15.924
 20
-8.17327
 30
0.0
 10
21.19279
 20
-8.17327
 30
0.0
 10
21.19279
 20
-8.17327
 30
0.0
 10
21.19279
 20
-8.17327
 30
0.0
 10
21.19279
 20
-8.17327
 30
0.0
 10
21.19279
 20
-5.31712
 30
0.0
 10
21.19279
 20
-5.31712
 30
0.0
  0
SPLINE
  5
4F
330
1F
100
AcDbEntity
  8
Layer 1
 62
    15
100
AcDbSpline
210
0.0
220
0.0
230
1.0
 70
    11
 71
     3
 72
    20
 73
    16
 74
     0
 42
0.0000000001
 43
0.0000000001
 12
1.0
 22
0.0
 32
0.0
 13
1.0
 23
0.0
 33
0.0
 40
0.0
 40
0.0
 40
0.0
 40
0.0
 40
0.2
 40
0.2
 40
0.2
 40
0.2
 40
0.4
 40
0.4
 40
0.4
 40
0.4
 40
0.6
 40
0.6
 40
0.6
 40
0.6
 40
1.0
 40
1.0
 40
1.0
 40
1.0
 10
15.31956
 20
-8.17327
 30
0.0
 10
15.31956
 20
-8.17327
 30
0.0
 10
15.31956
 20
-6.06446
 30
0.0
 10
15.31956
 20
-6.06446
 30
0.0
 10
15.31956
 20
-6.06446
 30
0.0
 10
15.31956
 20
-6.06446
 30
0.0
 10
10.28361
 20
-6.06446
 30
0.0
 10
10.28361
 20
-6.06446
 30
0.0
 10
10.28361
 20
-6.06446
 30
0.0
 10
10.28361
 20
-6.06446
 30
0.0
 10
10.28361
 20
-8.17327
 30
0.0
 10
10.28361
 20
-8.17327
 30
0.0
 10
10.28361
 20
-8.17327
 30
0.0
 10
10.28361
 20
-8.17327
 30
0.0
 10
15.31956
 20
-8.17327
 30
0.0
 10
15.31956
 20
-8.17327
 30
0.0
  0
SPLINE
  5
50
330
1F
100
AcDbEntity
  8
Layer 1
 62
    15
100
AcDbSpline
210
0.0
220
0.0
230
1.0
 70
    11
 71
     3
 72
    20
 73
    16
 74
     0
 42
0.0000000001
 43
0.0000000001
 12
1.0
 22
0.0
 32
0.0
 13
1.0
 23
0.0
 33
0.0
 40
0.0
 40
0.0
 40
0.0
 40
0.0
 40
0.2
 40
0.2
 40
0.2
 40
0.2
 40
0.4
 40
0.4
 40
0.4
 40
0.4
 40
0.6
 40
0.6
 40
0.6
 40
0.6
 40
1.0
 40
1.0
 40
1.0
 40
1.0
 10
9.67917
 20
-8.17327
 30
0.0
 10
9.67917
 20
-8.17327
 30
0.0
 10
9.67917
 20
-5.71637
 30
0.0
 10
9.67917
 20
-5.71637
 30
0.0
 10
9.67917
 20
-5.71637
 30
0.0
 10
9.67917
 20
-5.71637
 30
0.0
 10
5.79172
 20
-5.71637
 30
0.0
 10
5.79172
 20
-5.71637
 30
0.0
 10
5.79172
 20
-5.71637
 30
0.0
 10
5.79172
 20
-5.71637
 30
0.0
 10
5.79172
 20
-8.17327
 30
0.0
 10
5.79172
 20
-8.17327
 30
0.0
 10
5.79172
 20
-8.17327
 30
0.0
 10
5.79172
 20
-8.17327
 30
0.0
 10
9.67917
 20
-8.17327
 30
0.0
 10
9.67917
 20
-8.17327
 30
0.0
  0
SPLINE
  5
51
330
1F
100
AcDbEntity
  8
Layer 1
 62
    15
100
AcDbSpline
210
0.0
220
0.0
230
1.0
 70
    11
 71
     3
 72
    52
 73
    48
 74
     0
 42
0.0000000001
 43
0.0000000001
 12
1.0
 22
0.0
 32
0.0
 13
1.0
 23
0.0
 33
0.0
 40
0.0
 40
0.0
 40
0.0
 40
0.0
 40
0.0769230769230769
 40
0.0769230769230769
 40
0.0769230769230769
 40
0.0769230769230769
 40
0.1538461538461539
 40
0.1538461538461539
 40
0.1538461538461539
 40
0.1538461538461539
 40
0.2307692307692308
 40
0.2307692307692308
 40
0.2307692307692308
 40
0.2307692307692308
 40
0.3076923076923077
 40
0.3076923076923077
 40
0.3076923076923077
 40
0.3076923076923077
 40
0.3846153846153846
 40
0.3846153846153846
 40
0.3846153846153846
 40
0.3846153846153846
 40
0.4615384615384616
 40
0.4615384615384616
 40
0.4615384615384616
 40
0.4615384615384616
 40
0.5384615384615384
 40
0.5384615384615384
 40
0.5384615384615384
 40
0.5384615384615384
 40
0.6153846153846154
 40
0.6153846153846154
 40
0.6153846153846154
 40
0.6153846153846154
 40
0.6923076923076923
 40
0.6923076923076923
 40
0.6923076923076923
 40
0.6923076923076923
 40
0.7692307692307693
 40
0.7692307692307693
 40
0.7692307692307693
 40
0.7692307692307693
 40
0.8461538461538461
 40
0.8461538461538461
 40
0.8461538461538461
 40
0.8461538461538461
 40
1.0
 40
1.0
 40
1.0
 40
1.0
 10
5.09786
 20
-8.17327
 30
0.0
 10
5.09786
 20
-8.17327
 30
0.0
 10
5.09786
 20
-5.71637
 30
0.0
 10
5.09786
 20
-5.71637
 30
0.0
 10
5.09786
 20
-5.71637
 30
0.0
 10
5.09786
 20
-5.71637
 30
0.0
 10
3.57135
 20
-5.71637
 30
0.0
 10
3.57135
 20
-5.71637
 30
0.0
 10
3.57135
 20
-5.71637
 30
0.0
 10
3.57135
 20
-5.71637
 30
0.0
 10
3.57135
 20
-7.028
 30
0.0
 10
3.57135
 20
-7.028
 30
0.0
 10
3.57135
 20
-7.028
 30
0.0
 10
3.84359
 20
-7.0344
 30
0.0
 10
4.35249
 20
-7.10995
 30
0.0
 10
3.94141
 20
-6.65073
 30
0.0
 10
3.94141
 20
-6.65073
 30
0.0
 10
3.94141
 20
-6.65073
 30
0.0
 10
4.82031
 20
-6.53976
 30
0.0
 10
4.68154
 20
-7.23362
 30
0.0
 10
4.68154
 20
-7.23362
 30
0.0
 10
4.68154
 20
-7.23362
 30
0.0
 10
4.6182
 20
-7.51117
 30
0.0
 10
4.12644
 20
-7.51117
 30
0.0
 10
4.12644
 20
-7.51117
 30
0.0
 10
4.12644
 20
-7.51117
 30
0.0
 10
3.57135
 20
-7.51117
 30
0.0
 10
3.57135
 20
-7.51117
 30
0.0
 10
3.57135
 20
-7.51117
 30
0.0
 10
3.57135
 20
-7.51117
 30
0.0
 10
2.87748
 20
-7.51117
 30
0.0
 10
2.87748
 20
-7.51117
 30
0.0
 10
2.87748
 20
-7.51117
 30
0.0
 10
2.87748
 20
-7.51117
 30
0.0
 10
2.87748
 20
-5.71637
 30
0.0
 10
2.87748
 20
-5.71637
 30
0.0
 10
2.87748
 20
-5.71637
 30
0.0
 10
2.87748
 20
-5.71637
 30
0.0
 10
-4.39943
 20
-5.71637
 30
0.0
 10
-4.39943
 20
-5.71637
 30
0.0
 10
-4.39943
 20
-5.71637
 30
0.0
 10
-4.39943
 20
-5.71637
 30
0.0
 10
-4.39943
 20
-8.17327
 30
0.0
 10
-4.39943
 20
-8.17327
 30
0.0
 10
-4.39943
 20
-8.17327
 30
0.0
 10
-4.39943
 20
-8.17327
 30
0.0
 10
5.09786
 20
-8.17327
 30
0.0
 10
5.09786
 20
-8.17327
 30
0.0
  0
SPLINE
  5
52
330
1F
100
AcDbEntity
  8
Layer 1
 62
    15
100
AcDbSpline
210
0.0
220
0.0
230
1.0
 70
    11
 71
     3
 72
    52
 73
    48
 74
     0
 42
0.0000000001
 43
0.0000000001
 12
1.0
 22
0.0
 32
0.0
 13
1.0
 23
0.0
 33
0.0
 40
0.0
 40
0.0
 40
0.0
 40
0.0
 40
0.0769230769230769
 40
0.0769230769230769
 40
0.0769230769230769
 40
0.0769230769230769
 40
0.1538461538461539
 40
0.1538461538461539
 40
0.1538461538461539
 40
0.1538461538461539
 40
0.2307692307692308
 40
0.2307692307692308
 40
0.2307692307692308
 40
0.2307692307692308
 40
0.3076923076923077
 40
0.3076923076923077
 40
0.3076923076923077
 40
0.3076923076923077
 40
0.3846153846153846
 40
0.3846153846153846
 40
0.3846153846153846
 40
0.3846153846153846
 40
0.4615384615384616
 40
0.4615384615384616
 40
0.4615384615384616
 40
0.4615384615384616
 40
0.5384615384615384
 40
0.5384615384615384
 40
0.5384615384615384
 40
0.5384615384615384
 40
0.6153846153846154
 40
0.6153846153846154
 40
0.6153846153846154
 40
0.6153846153846154
 40
0.6923076923076923
 40
0.6923076923076923
 40
0.6923076923076923
 40
0.6923076923076923
 40
0.7692307692307693
 40
0.7692307692307693
 40
0.7692307692307693
 40
0.7692307692307693
 40
0.8461538461538461
 40
0.8461538461538461
 40
0.8461538461538461
 40
0.8461538461538461
 40
1.0
 40
1.0
 40
1.0
 40
1.0
 10
-5.09329
 20
-8.17327
 30
0.0
 10
-5.09329
 20
-8.17327
 30
0.0
 10
-5.09329
 20
-5.71637
 30
0.0
 10
-5.09329
 20
-5.71637
 30
0.0
 10
-5.09329
 20
-5.71637
 30
0.0
 10
-5.09329
 20
-5.71637
 30
0.0
 10
-6.6198
 20
-5.71637
 30
0.0
 10
-6.6198
 20
-5.71637
 30
0.0
 10
-6.6198
 20
-5.71637
 30
0.0
 10
-6.6198
 20
-5.71637
 30
0.0
 10
-6.6198
 20
-7.028
 30
0.0
 10
-6.6198
 20
-7.028
 30
0.0
 10
-6.6198
 20
-7.028
 30
0.0
 10
-6.34756
 20
-7.0344
 30
0.0
 10
-5.83866
 20
-7.10995
 30
0.0
 10
-6.24974
 20
-6.65073
 30
0.0
 10
-6.24974
 20
-6.65073
 30
0.0
 10
-6.24974
 20
-6.65073
 30
0.0
 10
-5.37084
 20
-6.53976
 30
0.0
 10
-5.50961
 20
-7.23362
 30
0.0
 10
-5.50961
 20
-7.23362
 30
0.0
 10
-5.50961
 20
-7.23362
 30
0.0
 10
-5.57295
 20
-7.51117
 30
0.0
 10
-6.06471
 20
-7.51117
 30
0.0
 10
-6.06471
 20
-7.51117
 30
0.0
 10
-6.06471
 20
-7.51117
 30
0.0
 10
-6.6198
 20
-7.51117
 30
0.0
 10
-6.6198
 20
-7.51117
 30
0.0
 10
-6.6198
 20
-7.51117
 30
0.0
 10
-6.6198
 20
-7.51117
 30
0.0
 10
-7.31367
 20
-7.51117
 30
0.0
 10
-7.31367
 20
-7.51117
 30
0.0
 10
-7.31367
 20
-7.51117
 30
0.0
 10
-7.31367
 20
-7.51117
 30
0.0
 10
-7.31367
 20
-5.71637
 30
0.0
 10
-7.31367
 20
-5.71637
 30
0.0
 10
-7.31367
 20
-5.71637
 30
0.0
 10
-7.31367
 20
-5.71637
 30
0.0
 10
-10.84712
 20
-5.71637
 30
0.0
 10
-10.84712
 20
-5.71637
 30
0.0
 10
-10.84712
 20
-5.71637
 30
0.0
 10
-10.84712
 20
-5.71637
 30
0.0
 10
-10.84712
 20
-8.17327
 30
0.0
 10
-10.84712
 20
-8.17327
 30
0.0
 10
-10.84712
 20
-8.17327
 30
0.0
 10
-10.84712
 20
-8.17327
 30
0.0
 10
-5.09329
 20
-8.17327
 30
0.0
 10
-5.09329
 20
-8.17327
 30
0.0
  0
SPLINE
  5
53
330
1F
100
AcDbEntity
  8
Layer 1
 62
    15
100
AcDbSpline
210
0.0
220
0.0
230
1.0
 70
    11
 71
     3
 72
    52
 73
    48
 74
     0
 42
0.0000000001
 43
0.0000000001
 12
1.0
 22
0.0
 32
0.0
 13
1.0
 23
0.0
 33
0.0
 40
0.0
 40
0.0
 40
0.0
 40
0.0
 40
0.0769230769230769
 40
0.0769230769230769
 40
0.0769230769230769
 40
0.0769230769230769
 40
0.1538461538461539
 40
0.1538461538461539
 40
0.1538461538461539
 40
0.1538461538461539
 40
0.2307692307692308
 40
0.2307692307692308
 40
0.2307692307692308
 40
0.2307692307692308
 40
0.3076923076923077
 40
0.3076923076923077
 40
0.3076923076923077
 40
0.3076923076923077
 40
0.3846153846153846
 40
0.3846153846153846
 40
0.3846153846153846
 40
0.3846153846153846
 40
0.4615384615384616
 40
0.4615384615384616
 40
0.4615384615384616
 40
0.4615384615384616
 40
0.5384615384615384
 40
0.5384615384615384
 40
0.5384615384615384
 40
0.5384615384615384
 40
0.6153846153846154
 40
0.6153846153846154
 40
0.6153846153846154
 40
0.6153846153846154
 40
0.6923076923076923
 40
0.6923076923076923
 40
0.6923076923076923
 40
0.6923076923076923
 40
0.7692307692307693
 40
0.7692307692307693
 40
0.7692307692307693
 40
0.7692307692307693
 40
0.8461538461538461
 40
0.8461538461538461
 40
0.8461538461538461
 40
0.8461538461538461
 40
1.0
 40
1.0
 40
1.0
 40
1.0
 10
21.19279
 20
11.04795
 30
0.0
 10
21.19279
 20
11.04795
 30
0.0
 10
22.40167
 20
11.04795
 30
0.0
 10
22.40167
 20
11.04795
 30
0.0
 10
22.40167
 20
11.04795
 30
0.0
 10
22.40167
 20
11.04795
 30
0.0
 10
22.40167
 20
9.83907
 30
0.0
 10
22.40167
 20
9.83907
 30
0.0
 10
22.40167
 20
9.83907
 30
0.0
 10
22.40167
 20
9.83907
 30
0.0
 10
22.40167
 20
-8.17327
 30
0.0
 10
22.40167
 20
-8.17327
 30
0.0
 10
22.40167
 20
-8.17327
 30
0.0
 10
22.40167
 20
-8.17327
 30
0.0
 10
22.40167
 20
-9.38215
 30
0.0
 10
22.40167
 20
-9.38215
 30
0.0
 10
22.40167
 20
-9.38215
 30
0.0
 10
22.40167
 20
-9.38215
 30
0.0
 10
21.19279
 20
-9.38215
 30
0.0
 10
21.19279
 20
-9.38215
 30
0.0
 10
21.19279
 20
-9.38215
 30
0.0
 10
21.19279
 20
-9.38215
 30
0.0
 10
-22.20606
 20
-9.38215
 30
0.0
 10
-22.20606
 20
-9.38215
 30
0.0
 10
-22.20606
 20
-9.38215
 30
0.0
 10
-22.20606
 20
-9.38215
 30
0.0
 10
-23.41494
 20
-9.38215
 30
0.0
 10
-23.41494
 20
-9.38215
 30
0.0
 10
-23.41494
 20
-9.38215
 30
0.0
 10
-23.41494
 20
-9.38215
 30
0.0
 10
-23.41494
 20
-8.17327
 30
0.0
 10
-23.41494
 20
-8.17327
 30
0.0
 10
-23.41494
 20
-8.17327
 30
0.0
 10
-23.41494
 20
-8.17327
 30
0.0
 10
-23.41494
 20
9.83907
 30
0.0
 10
-23.41494
 20
9.83907
 30
0.0
 10
-23.41494
 20
9.83907
 30
0.0
 10
-23.41494
 20
9.83907
 30
0.0
 10
-23.41494
 20
11.04795
 30
0.0
 10
-23.41494
 20
11.04795
 30
0.0
 10
-23.41494
 20
11.04795
 30
0.0
 10
-23.41494
 20
11.04795
 30
0.0
 10
-22.20606
 20
11.04795
 30
0.0
 10
-22.20606
 20
11.04795
 30
0.0
 10
-22.20606
 20
11.04795
 30
0.0
 10
-22.20606
 20
11.04795
 30
0.0
 10
21.19279
 20
11.04795
 30
0.0
 10
21.19279
 20
11.04795
 30
0.0
  0
SPLINE
  5
54
330
1F
100
AcDbEntity
  8
Layer 1
 62
    15
100
AcDbSpline
210
0.0
220
0.0
230
1.0
 70
    11
 71
     3
 72
   216
 73
   212
 74
     0
 42
0.0000000001
 43
0.0000000001
 12
1.0
 22
0.0
 32
0.0
 13
1.0
 23
0.0
 33
0.0
 40
0.0
 40
0.0
 40
0.0
 40
0.0
 40
0.0185185185185185
 40
0.0185185185185185
 40
0.0185185185185185
 40
0.0185185185185185
 40
0.037037037037037
 40
0.037037037037037
 40
0.037037037037037
 40
0.037037037037037
 40
0.0555555555555556
 40
0.0555555555555556
 40
0.0555555555555556
 40
0.0555555555555556
 40
0.0740740740740741
 40
0.0740740740740741
 40
0.0740740740740741
 40
0.0740740740740741
 40
0.0925925925925926
 40
0.0925925925925926
 40
0.0925925925925926
 40
0.0925925925925926
 40
0.1111111111111111
 40
0.1111111111111111
 40
0.1111111111111111
 40
0.1111111111111111
 40
0.1296296296296296
 40
0.1296296296296296
 40
0.1296296296296296
 40
0.1296296296296296
 40
0.1481481481481481
 40
0.1481481481481481
 40
0.1481481481481481
 40
0.1481481481481481
 40
0.1666666666666667
 40
0.1666666666666667
 40
0.1666666666666667
 40
0.1666666666666667
 40
0.1851851851851852
 40
0.1851851851851852
 40
0.1851851851851852
 40
0.1851851851851852
 40
0.2037037037037037
 40
0.2037037037037037
 40
0.2037037037037037
 40
0.2037037037037037
 40
0.2222222222222222
 40
0.2222222222222222
 40
0.2222222222222222
 40
0.2222222222222222
 40
0.2407407407407407
 40
0.2407407407407407
 40
0.2407407407407407
 40
0.2407407407407407
 40
0.2592592592592592
 40
0.2592592592592592
 40
0.2592592592592592
 40
0.2592592592592592
 40
0.2777777777777778
 40
0.2777777777777778
 40
0.2777777777777778
 40
0.2777777777777778
 40
0.2962962962962963
 40
0.2962962962962963
 40
0.2962962962962963
 40
0.2962962962962963
 40
0.3148148148148148
 40
0.3148148148148148
 40
0.3148148148148148
 40
0.3148148148148148
 40
0.3333333333333333
 40
0.3333333333333333
 40
0.3333333333333333
 40
0.3333333333333333
 40
0.3518518518518519
 40
0.3518518518518519
 40
0.3518518518518519
 40
0.3518518518518519
 40
0.3703703703703703
 40
0.3703703703703703
 40
0.3703703703703703
 40
0.3703703703703703
 40
0.3888888888888889
 40
0.3888888888888889
 40
0.3888888888888889
 40
0.3888888888888889
 40
0.4074074074074074
 40
0.4074074074074074
 40
0.4074074074074074
 40
0.4074074074074074
 40
0.4259259259259259
 40
0.4259259259259259
 40
0.4259259259259259
 40
0.4259259259259259
 40
0.4444444444444444
 40
0.4444444444444444
 40
0.4444444444444444
 40
0.4444444444444444
 40
0.462962962962963
 40
0.462962962962963
 40
0.462962962962963
 40
0.462962962962963
 40
0.4814814814814815
 40
0.4814814814814815
 40
0.4814814814814815
 40
0.4814814814814815
 40
0.5
 40
0.5
 40
0.5
 40
0.5
 40
0.5185185185185185
 40
0.5185185185185185
 40
0.5185185185185185
 40
0.5185185185185185
 40
0.5370370370370371
 40
0.5370370370370371
 40
0.5370370370370371
 40
0.5370370370370371
 40
0.5555555555555556
 40
0.5555555555555556
 40
0.5555555555555556
 40
0.5555555555555556
 40
0.5740740740740741
 40
0.5740740740740741
 40
0.5740740740740741
 40
0.5740740740740741
 40
0.5925925925925926
 40
0.5925925925925926
 40
0.5925925925925926
 40
0.5925925925925926
 40
0.6111111111111112
 40
0.6111111111111112
 40
0.6111111111111112
 40
0.6111111111111112
 40
0.6296296296296297
 40
0.6296296296296297
 40
0.6296296296296297
 40
0.6296296296296297
 40
0.6481481481481481
 40
0.6481481481481481
 40
0.6481481481481481
 40
0.6481481481481481
 40
0.6666666666666666
 40
0.6666666666666666
 40
0.6666666666666666
 40
0.6666666666666666
 40
0.6851851851851852
 40
0.6851851851851852
 40
0.6851851851851852
 40
0.6851851851851852
 40
0.7037037037037037
 40
0.7037037037037037
 40
0.7037037037037037
 40
0.7037037037037037
 40
0.7222222222222222
 40
0.7222222222222222
 40
0.7222222222222222
 40
0.7222222222222222
 40
0.7407407407407407
 40
0.7407407407407407
 40
0.7407407407407407
 40
0.7407407407407407
 40
0.7592592592592593
 40
0.7592592592592593
 40
0.7592592592592593
 40
0.7592592592592593
 40
0.7777777777777778
 40
0.7777777777777778
 40
0.7777777777777778
 40
0.7777777777777778
 40
0.7962962962962963
 40
0.7962962962962963
 40
0.7962962962962963
 40
0.7962962962962963
 40
0.8148148148148148
 40
0.8148148148148148
 40
0.8148148148148148
 40
0.8148148148148148
 40
0.8333333333333334
 40
0.8333333333333334
 40
0.8333333333333334
 40
0.8333333333333334
 40
0.8518518518518519
 40
0.8518518518518519
 40
0.8518518518518519
 40
0.8518518518518519
 40
0.8703703703703703
 40
0.8703703703703703
 40
0.8703703703703703
 40
0.8703703703703703
 40
0.8888888888888888
 40
0.8888888888888888
 40
0.8888888888888888
 40
0.8888888888888888
 40
0.9074074074074074
 40
0.9074074074074074
 40
0.9074074074074074
 40
0.9074074074074074
 40
0.9259259259259259
 40
0.9259259259259259
 40
0.9259259259259259
 40
0.9259259259259259
 40
0.9444444444444444
 40
0.9444444444444444
 40
0.9444444444444444
 40
0.9444444444444444
 40
0.9629629629629629
 40
0.9629629629629629
 40
0.9629629629629629
 40
0.9629629629629629
 40
1.0
 40
1.0
 40
1.0
 40
1.0
 10
16.25373
 20
-0.58586
 30
0.0
 10
16.25373
 20
-0.58586
 30
0.0
 10
16.25373
 20
-0.12328
 30
0.0
 10
16.25373
 20
-0.12328
 30
0.0
 10
16.25373
 20
-0.12328
 30
0.0
 10
16.25373
 20
-0.12328
 30
0.0
 10
14.53144
 20
-0.12328
 30
0.0
 10
14.53144
 20
-0.12328
 30
0.0
 10
14.53144
 20
-0.12328
 30
0.0
 10
14.53144
 20
-0.12328
 30
0.0
 10
14.5319
 20
-0.21579
 30
0.0
 10
14.5319
 20
-0.21579
 30
0.0
 10
14.5319
 20
-0.21579
 30
0.0
 10
14.5319
 20
-0.8507
 30
0.0
 10
14.51106
 20
-1.45296
 30
0.0
 10
14.51106
 20
-2.06611
 30
0.0
 10
14.51106
 20
-2.06611
 30
0.0
 10
14.51106
 20
-2.06611
 30
0.0
 10
16.88523
 20
-2.06611
 30
0.0
 10
16.88523
 20
-2.06611
 30
0.0
 10
16.88523
 20
-2.06611
 30
0.0
 10
16.88523
 20
-2.06611
 30
0.0
 10
16.88523
 20
-3.80624
 30
0.0
 10
16.88523
 20
-3.80624
 30
0.0
 10
16.88523
 20
-3.80624
 30
0.0
 10
16.88523
 20
-3.80624
 30
0.0
 10
16.88523
 20
-4.23461
 30
0.0
 10
16.88523
 20
-4.23461
 30
0.0
 10
16.88523
 20
-4.23461
 30
0.0
 10
16.88523
 20
-4.23461
 30
0.0
 10
16.88523
 20
-4.41068
 30
0.0
 10
16.88523
 20
-4.41068
 30
0.0
 10
16.88523
 20
-4.41068
 30
0.0
 10
16.88523
 20
-4.41068
 30
0.0
 10
17.68884
 20
-4.41068
 30
0.0
 10
17.68884
 20
-4.41068
 30
0.0
 10
17.68884
 20
-4.41068
 30
0.0
 10
17.68884
 20
-4.41068
 30
0.0
 10
17.68884
 20
-5.46002
 30
0.0
 10
17.68884
 20
-5.46002
 30
0.0
 10
17.68884
 20
-5.46002
 30
0.0
 10
17.68884
 20
-5.46002
 30
0.0
 10
10.28361
 20
-5.46002
 30
0.0
 10
10.28361
 20
-5.46002
 30
0.0
 10
10.28361
 20
-5.46002
 30
0.0
 10
10.28361
 20
-5.46002
 30
0.0
 10
10.28361
 20
-5.11193
 30
0.0
 10
10.28361
 20
-5.11193
 30
0.0
 10
10.28361
 20
-5.11193
 30
0.0
 10
10.28361
 20
-5.11193
 30
0.0
 10
10.28361
 20
-5.11193
 30
0.0
 10
10.28361
 20
-5.11193
 30
0.0
 10
10.28361
 20
-5.11193
 30
0.0
 10
10.28361
 20
-5.11193
 30
0.0
 10
6.21978
 20
-5.11193
 30
0.0
 10
6.21978
 20
-5.11193
 30
0.0
 10
6.21978
 20
-5.11193
 30
0.0
 10
6.21978
 20
-5.11193
 30
0.0
 10
6.21978
 20
-3.02232
 30
0.0
 10
6.21978
 20
-3.02232
 30
0.0
 10
6.21978
 20
-3.02232
 30
0.0
 10
6.21978
 20
-3.02232
 30
0.0
 10
13.97164
 20
-3.02232
 30
0.0
 10
13.97164
 20
-3.02232
 30
0.0
 10
13.97164
 20
-3.02232
 30
0.0
 10
13.97164
 20
-3.02232
 30
0.0
 10
13.97164
 20
-2.80811
 30
0.0
 10
13.97164
 20
-2.80811
 30
0.0
 10
13.97164
 20
-2.80811
 30
0.0
 10
13.97164
 20
-2.80811
 30
0.0
 10
13.97164
 20
-2.41788
 30
0.0
 10
13.97164
 20
-2.41788
 30
0.0
 10
13.97164
 20
-2.41788
 30
0.0
 10
13.97164
 20
-2.41788
 30
0.0
 10
13.97164
 20
4.19521
 30
0.0
 10
13.97164
 20
4.19521
 30
0.0
 10
13.97164
 20
4.19521
 30
0.0
 10
13.97164
 20
4.19521
 30
0.0
 10
13.97164
 20
4.79317
 30
0.0
 10
13.97164
 20
4.79317
 30
0.0
 10
13.97164
 20
4.79317
 30
0.0
 10
13.97164
 20
4.79317
 30
0.0
 10
13.97164
 20
4.79965
 30
0.0
 10
13.97164
 20
4.79965
 30
0.0
 10
13.97164
 20
4.79965
 30
0.0
 10
13.97164
 20
4.79965
 30
0.0
 10
6.21978
 20
4.79965
 30
0.0
 10
6.21978
 20
4.79965
 30
0.0
 10
6.21978
 20
4.79965
 30
0.0
 10
6.21978
 20
4.79965
 30
0.0
 10
6.21978
 20
6.78998
 30
0.0
 10
6.21978
 20
6.78998
 30
0.0
 10
6.21978
 20
6.78998
 30
0.0
 10
6.21978
 20
6.78998
 30
0.0
 10
10.28361
 20
6.78998
 30
0.0
 10
10.28361
 20
6.78998
 30
0.0
 10
10.28361
 20
6.78998
 30
0.0
 10
10.28361
 20
6.78998
 30
0.0
 10
10.28361
 20
6.78999
 30
0.0
 10
10.28361
 20
6.78999
 30
0.0
 10
10.28361
 20
6.78999
 30
0.0
 10
10.28361
 20
6.78999
 30
0.0
 10
10.33633
 20
6.78999
 30
0.0
 10
10.33633
 20
6.78999
 30
0.0
 10
10.33633
 20
6.78999
 30
0.0
 10
10.33633
 20
6.78999
 30
0.0
 10
10.33633
 20
7.21155
 30
0.0
 10
10.33633
 20
7.21155
 30
0.0
 10
10.33633
 20
7.21155
 30
0.0
 10
10.33633
 20
7.21155
 30
0.0
 10
17.7962
 20
7.21155
 30
0.0
 10
17.7962
 20
7.21155
 30
0.0
 10
17.7962
 20
7.21155
 30
0.0
 10
17.7962
 20
7.21155
 30
0.0
 10
17.7962
 20
6.17127
 30
0.0
 10
17.7962
 20
6.17127
 30
0.0
 10
17.7962
 20
6.17127
 30
0.0
 10
17.7962
 20
6.17127
 30
0.0
 10
17.48967
 20
6.17127
 30
0.0
 10
17.48967
 20
6.17127
 30
0.0
 10
17.48967
 20
6.17127
 30
0.0
 10
17.48967
 20
6.17127
 30
0.0
 10
16.88523
 20
6.17127
 30
0.0
 10
16.88523
 20
6.17127
 30
0.0
 10
16.88523
 20
6.17127
 30
0.0
 10
16.88523
 20
6.17127
 30
0.0
 10
16.88523
 20
5.56683
 30
0.0
 10
16.88523
 20
5.56683
 30
0.0
 10
16.88523
 20
5.56683
 30
0.0
 10
16.88523
 20
5.56683
 30
0.0
 10
16.88523
 20
3.80864
 30
0.0
 10
16.88523
 20
3.80864
 30
0.0
 10
16.88523
 20
3.80864
 30
0.0
 10
16.88523
 20
3.80864
 30
0.0
 10
14.51106
 20
3.80864
 30
0.0
 10
14.51106
 20
3.80864
 30
0.0
 10
14.51106
 20
3.80864
 30
0.0
 10
14.51106
 20
3.1955
 30
0.0
 10
14.5319
 20
2.59323
 30
0.0
 10
14.5319
 20
1.95833
 30
0.0
 10
14.5319
 20
1.95833
 30
0.0
 10
14.5319
 20
1.95833
 30
0.0
 10
14.53144
 20
1.86581
 30
0.0
 10
14.53144
 20
1.86581
 30
0.0
 10
14.53144
 20
1.86581
 30
0.0
 10
14.53144
 20
1.86581
 30
0.0
 10
16.25373
 20
1.86581
 30
0.0
 10
16.25373
 20
1.86581
 30
0.0
 10
16.25373
 20
1.86581
 30
0.0
 10
16.25373
 20
1.86581
 30
0.0
 10
16.25373
 20
2.32839
 30
0.0
 10
16.25373
 20
2.32839
 30
0.0
 10
16.25373
 20
2.32839
 30
0.0
 10
16.25373
 20
2.32839
 30
0.0
 10
16.25373
 20
2.69845
 30
0.0
 10
16.25373
 20
2.69845
 30
0.0
 10
16.25373
 20
2.69845
 30
0.0
 10
16.25373
 20
3.02629
 30
0.0
 10
15.97618
 20
3.06851
 30
0.0
 10
15.97618
 20
3.06851
 30
0.0
 10
15.97618
 20
3.06851
 30
0.0
 10
15.28232
 20
3.16103
 30
0.0
 10
15.29746
 20
2.5751
 30
0.0
 10
15.29746
 20
2.5751
 30
0.0
 10
15.29746
 20
2.5751
 30
0.0
 10
15.75669
 20
2.84915
 30
0.0
 10
15.68113
 20
2.50988
 30
0.0
 10
15.67474
 20
2.32839
 30
0.0
 10
15.67474
 20
2.32839
 30
0.0
 10
15.67474
 20
2.32839
 30
0.0
 10
14.99759
 20
2.32839
 30
0.0
 10
14.99759
 20
2.32839
 30
0.0
 10
14.99759
 20
2.32839
 30
0.0
 10
14.99759
 20
2.32839
 30
0.0
 10
14.99759
 20
3.34606
 30
0.0
 10
14.99759
 20
3.34606
 30
0.0
 10
14.99759
 20
3.34606
 30
0.0
 10
14.99759
 20
3.34606
 30
0.0
 10
16.88523
 20
3.34606
 30
0.0
 10
16.88523
 20
3.34606
 30
0.0
 10
16.88523
 20
3.34606
 30
0.0
 10
16.88523
 20
3.34606
 30
0.0
 10
16.88523
 20
-1.60353
 30
0.0
 10
16.88523
 20
-1.60353
 30
0.0
 10
16.88523
 20
-1.60353
 30
0.0
 10
16.88523
 20
-1.60353
 30
0.0
 10
14.99759
 20
-1.60353
 30
0.0
 10
14.99759
 20
-1.60353
 30
0.0
 10
14.99759
 20
-1.60353
 30
0.0
 10
14.99759
 20
-1.60353
 30
0.0
 10
14.99759
 20
-0.58586
 30
0.0
 10
14.99759
 20
-0.58586
 30
0.0
 10
14.99759
 20
-0.58586
 30
0.0
 10
14.99759
 20
-0.58586
 30
0.0
 10
15.67474
 20
-0.58586
 30
0.0
 10
15.67474
 20
-0.58586
 30
0.0
 10
15.67474
 20
-0.58586
 30
0.0
 10
15.68113
 20
-0.76735
 30
0.0
 10
15.75669
 20
-1.10662
 30
0.0
 10
15.29746
 20
-0.83256
 30
0.0
 10
15.29746
 20
-0.83256
 30
0.0
 10
15.29746
 20
-0.83256
 30
0.0
 10
15.28232
 20
-1.4185
 30
0.0
 10
15.97618
 20
-1.32598
 30
0.0
 10
15.97618
 20
-1.32598
 30
0.0
 10
15.97618
 20
-1.32598
 30
0.0
 10
16.25373
 20
-1.28376
 30
0.0
 10
16.25373
 20
-0.95592
 30
0.0
 10
16.25373
 20
-0.95592
 30
0.0
 10
16.25373
 20
-0.95592
 30
0.0
 10
16.25373
 20
-0.58586
 30
0.0
 10
16.25373
 20
-0.58586
 30
0.0
  0
SPLINE
  5
55
330
1F
100
AcDbEntity
  8
Layer 1
 62
    15
100
AcDbSpline
210
0.0
220
0.0
230
1.0
 70
    11
 71
     3
 72
   212
 73
   208
 74
     0
 42
0.0000000001
 43
0.0000000001
 12
1.0
 22
0.0
 32
0.0
 13
1.0
 23
0.0
 33
0.0
 40
0.0
 40
0.0
 40
0.0
 40
0.0
 40
0.0188679245283019
 40
0.0188679245283019
 40
0.0188679245283019
 40
0.0188679245283019
 40
0.0377358490566038
 40
0.0377358490566038
 40
0.0377358490566038
 40
0.0377358490566038
 40
0.0566037735849057
 40
0.0566037735849057
 40
0.0566037735849057
 40
0.0566037735849057
 40
0.0754716981132075
 40
0.0754716981132075
 40
0.0754716981132075
 40
0.0754716981132075
 40
0.0943396226415094
 40
0.0943396226415094
 40
0.0943396226415094
 40
0.0943396226415094
 40
0.1132075471698113
 40
0.1132075471698113
 40
0.1132075471698113
 40
0.1132075471698113
 40
0.1320754716981132
 40
0.1320754716981132
 40
0.1320754716981132
 40
0.1320754716981132
 40
0.1509433962264151
 40
0.1509433962264151
 40
0.1509433962264151
 40
0.1509433962264151
 40
0.169811320754717
 40
0.169811320754717
 40
0.169811320754717
 40
0.169811320754717
 40
0.1886792452830189
 40
0.1886792452830189
 40
0.1886792452830189
 40
0.1886792452830189
 40
0.2075471698113208
 40
0.2075471698113208
 40
0.2075471698113208
 40
0.2075471698113208
 40
0.2264150943396226
 40
0.2264150943396226
 40
0.2264150943396226
 40
0.2264150943396226
 40
0.2452830188679245
 40
0.2452830188679245
 40
0.2452830188679245
 40
0.2452830188679245
 40
0.2641509433962264
 40
0.2641509433962264
 40
0.2641509433962264
 40
0.2641509433962264
 40
0.2830188679245283
 40
0.2830188679245283
 40
0.2830188679245283
 40
0.2830188679245283
 40
0.3018867924528302
 40
0.3018867924528302
 40
0.3018867924528302
 40
0.3018867924528302
 40
0.3207547169811321
 40
0.3207547169811321
 40
0.3207547169811321
 40
0.3207547169811321
 40
0.3396226415094339
 40
0.3396226415094339
 40
0.3396226415094339
 40
0.3396226415094339
 40
0.3584905660377358
 40
0.3584905660377358
 40
0.3584905660377358
 40
0.3584905660377358
 40
0.3773584905660378
 40
0.3773584905660378
 40
0.3773584905660378
 40
0.3773584905660378
 40
0.3962264150943396
 40
0.3962264150943396
 40
0.3962264150943396
 40
0.3962264150943396
 40
0.4150943396226415
 40
0.4150943396226415
 40
0.4150943396226415
 40
0.4150943396226415
 40
0.4339622641509434
 40
0.4339622641509434
 40
0.4339622641509434
 40
0.4339622641509434
 40
0.4528301886792453
 40
0.4528301886792453
 40
0.4528301886792453
 40
0.4528301886792453
 40
0.4716981132075472
 40
0.4716981132075472
 40
0.4716981132075472
 40
0.4716981132075472
 40
0.4905660377358491
 40
0.4905660377358491
 40
0.4905660377358491
 40
0.4905660377358491
 40
0.5094339622641509
 40
0.5094339622641509
 40
0.5094339622641509
 40
0.5094339622641509
 40
0.5283018867924528
 40
0.5283018867924528
 40
0.5283018867924528
 40
0.5283018867924528
 40
0.5471698113207547
 40
0.5471698113207547
 40
0.5471698113207547
 40
0.5471698113207547
 40
0.5660377358490566
 40
0.5660377358490566
 40
0.5660377358490566
 40
0.5660377358490566
 40
0.5849056603773585
 40
0.5849056603773585
 40
0.5849056603773585
 40
0.5849056603773585
 40
0.6037735849056604
 40
0.6037735849056604
 40
0.6037735849056604
 40
0.6037735849056604
 40
0.6226415094339622
 40
0.6226415094339622
 40
0.6226415094339622
 40
0.6226415094339622
 40
0.6415094339622641
 40
0.6415094339622641
 40
0.6415094339622641
 40
0.6415094339622641
 40
0.660377358490566
 40
0.660377358490566
 40
0.660377358490566
 40
0.660377358490566
 40
0.6792452830188679
 40
0.6792452830188679
 40
0.6792452830188679
 40
0.6792452830188679
 40
0.6981132075471698
 40
0.6981132075471698
 40
0.6981132075471698
 40
0.6981132075471698
 40
0.7169811320754716
 40
0.7169811320754716
 40
0.7169811320754716
 40
0.7169811320754716
 40
0.7358490566037735
 40
0.7358490566037735
 40
0.7358490566037735
 40
0.7358490566037735
 40
0.7547169811320755
 40
0.7547169811320755
 40
0.7547169811320755
 40
0.7547169811320755
 40
0.7735849056603774
 40
0.7735849056603774
 40
0.7735849056603774
 40
0.7735849056603774
 40
0.7924528301886793
 40
0.7924528301886793
 40
0.7924528301886793
 40
0.7924528301886793
 40
0.8113207547169812
 40
0.8113207547169812
 40
0.8113207547169812
 40
0.8113207547169812
 40
0.8301886792452831
 40
0.8301886792452831
 40
0.8301886792452831
 40
0.8301886792452831
 40
0.8490566037735849
 40
0.8490566037735849
 40
0.8490566037735849
 40
0.8490566037735849
 40
0.8679245283018868
 40
0.8679245283018868
 40
0.8679245283018868
 40
0.8679245283018868
 40
0.8867924528301887
 40
0.8867924528301887
 40
0.8867924528301887
 40
0.8867924528301887
 40
0.9056603773584906
 40
0.9056603773584906
 40
0.9056603773584906
 40
0.9056603773584906
 40
0.9245283018867925
 40
0.9245283018867925
 40
0.9245283018867925
 40
0.9245283018867925
 40
0.9433962264150944
 40
0.9433962264150944
 40
0.9433962264150944
 40
0.9433962264150944
 40
0.9622641509433962
 40
0.9622641509433962
 40
0.9622641509433962
 40
0.9622641509433962
 40
1.0
 40
1.0
 40
1.0
 40
1.0
 10
-17.33159
 20
-0.58586
 30
0.0
 10
-17.33159
 20
-0.58586
 30
0.0
 10
-17.33159
 20
-0.12328
 30
0.0
 10
-17.33159
 20
-0.12328
 30
0.0
 10
-17.33159
 20
-0.12328
 30
0.0
 10
-17.33159
 20
-0.12328
 30
0.0
 10
-15.6093
 20
-0.12328
 30
0.0
 10
-15.6093
 20
-0.12328
 30
0.0
 10
-15.6093
 20
-0.12328
 30
0.0
 10
-15.6093
 20
-0.12328
 30
0.0
 10
-15.60976
 20
-0.21579
 30
0.0
 10
-15.60976
 20
-0.21579
 30
0.0
 10
-15.60976
 20
-0.21579
 30
0.0
 10
-15.60976
 20
-0.8507
 30
0.0
 10
-15.58892
 20
-1.45296
 30
0.0
 10
-15.58892
 20
-2.06611
 30
0.0
 10
-15.58892
 20
-2.06611
 30
0.0
 10
-15.58892
 20
-2.06611
 30
0.0
 10
-18.06761
 20
-2.06611
 30
0.0
 10
-18.06761
 20
-2.06611
 30
0.0
 10
-18.06761
 20
-2.06611
 30
0.0
 10
-18.06761
 20
-2.06611
 30
0.0
 10
-18.06761
 20
-3.80624
 30
0.0
 10
-18.06761
 20
-3.80624
 30
0.0
 10
-18.06761
 20
-3.80624
 30
0.0
 10
-18.06761
 20
-3.80624
 30
0.0
 10
-18.06761
 20
-4.23461
 30
0.0
 10
-18.06761
 20
-4.23461
 30
0.0
 10
-18.06761
 20
-4.23461
 30
0.0
 10
-18.06761
 20
-4.23461
 30
0.0
 10
-18.06761
 20
-4.41068
 30
0.0
 10
-18.06761
 20
-4.41068
 30
0.0
 10
-18.06761
 20
-4.41068
 30
0.0
 10
-18.06761
 20
-4.41068
 30
0.0
 10
-18.85678
 20
-4.41068
 30
0.0
 10
-18.85678
 20
-4.41068
 30
0.0
 10
-18.85678
 20
-4.41068
 30
0.0
 10
-18.85678
 20
-4.41068
 30
0.0
 10
-18.85678
 20
-5.44959
 30
0.0
 10
-18.85678
 20
-5.44959
 30
0.0
 10
-18.85678
 20
-5.44959
 30
0.0
 10
-18.85678
 20
-5.44959
 30
0.0
 10
-11.45156
 20
-5.44959
 30
0.0
 10
-11.45156
 20
-5.44959
 30
0.0
 10
-11.45156
 20
-5.44959
 30
0.0
 10
-11.45156
 20
-5.44959
 30
0.0
 10
-11.45156
 20
-5.11193
 30
0.0
 10
-11.45156
 20
-5.11193
 30
0.0
 10
-11.45156
 20
-5.11193
 30
0.0
 10
-11.45156
 20
-5.11193
 30
0.0
 10
-11.45156
 20
-5.11193
 30
0.0
 10
-11.45156
 20
-5.11193
 30
0.0
 10
-11.45156
 20
-5.11193
 30
0.0
 10
-11.45156
 20
-5.11193
 30
0.0
 10
-7.40179
 20
-5.11193
 30
0.0
 10
-7.40179
 20
-5.11193
 30
0.0
 10
-7.40179
 20
-5.11193
 30
0.0
 10
-7.40179
 20
-5.11193
 30
0.0
 10
-7.40179
 20
-3.02232
 30
0.0
 10
-7.40179
 20
-3.02232
 30
0.0
 10
-7.40179
 20
-3.02232
 30
0.0
 10
-7.40179
 20
-3.02232
 30
0.0
 10
-15.11853
 20
-3.02232
 30
0.0
 10
-15.11853
 20
-3.02232
 30
0.0
 10
-15.11853
 20
-3.02232
 30
0.0
 10
-15.11853
 20
-3.02232
 30
0.0
 10
-15.11853
 20
-2.80811
 30
0.0
 10
-15.11853
 20
-2.80811
 30
0.0
 10
-15.11853
 20
-2.80811
 30
0.0
 10
-15.11853
 20
-2.80811
 30
0.0
 10
-15.11853
 20
-2.41788
 30
0.0
 10
-15.11853
 20
-2.41788
 30
0.0
 10
-15.11853
 20
-2.41788
 30
0.0
 10
-15.11853
 20
-2.41788
 30
0.0
 10
-15.11853
 20
4.19521
 30
0.0
 10
-15.11853
 20
4.19521
 30
0.0
 10
-15.11853
 20
4.19521
 30
0.0
 10
-15.11853
 20
4.19521
 30
0.0
 10
-15.11853
 20
4.79317
 30
0.0
 10
-15.11853
 20
4.79317
 30
0.0
 10
-15.11853
 20
4.79317
 30
0.0
 10
-15.11853
 20
4.79317
 30
0.0
 10
-15.11853
 20
4.79965
 30
0.0
 10
-15.11853
 20
4.79965
 30
0.0
 10
-15.11853
 20
4.79965
 30
0.0
 10
-15.11853
 20
4.79965
 30
0.0
 10
-7.40179
 20
4.79965
 30
0.0
 10
-7.40179
 20
4.79965
 30
0.0
 10
-7.40179
 20
4.79965
 30
0.0
 10
-7.40179
 20
4.79965
 30
0.0
 10
-7.40179
 20
6.78998
 30
0.0
 10
-7.40179
 20
6.78998
 30
0.0
 10
-7.40179
 20
6.78998
 30
0.0
 10
-7.40179
 20
6.78998
 30
0.0
 10
-11.45156
 20
6.78998
 30
0.0
 10
-11.45156
 20
6.78998
 30
0.0
 10
-11.45156
 20
6.78998
 30
0.0
 10
-11.45156
 20
6.78998
 30
0.0
 10
-11.45156
 20
6.85804
 30
0.0
 10
-11.45156
 20
6.85804
 30
0.0
 10
-11.45156
 20
6.85804
 30
0.0
 10
-11.45156
 20
6.85804
 30
0.0
 10
-11.45156
 20
7.21155
 30
0.0
 10
-11.45156
 20
7.21155
 30
0.0
 10
-11.45156
 20
7.21155
 30
0.0
 10
-11.45156
 20
7.21155
 30
0.0
 10
-18.85678
 20
7.21155
 30
0.0
 10
-18.85678
 20
7.21155
 30
0.0
 10
-18.85678
 20
7.21155
 30
0.0
 10
-18.85678
 20
7.21155
 30
0.0
 10
-18.85678
 20
6.17127
 30
0.0
 10
-18.85678
 20
6.17127
 30
0.0
 10
-18.85678
 20
6.17127
 30
0.0
 10
-18.85678
 20
6.17127
 30
0.0
 10
-18.67205
 20
6.17127
 30
0.0
 10
-18.67205
 20
6.17127
 30
0.0
 10
-18.67205
 20
6.17127
 30
0.0
 10
-18.67205
 20
6.17127
 30
0.0
 10
-18.06761
 20
6.17127
 30
0.0
 10
-18.06761
 20
6.17127
 30
0.0
 10
-18.06761
 20
6.17127
 30
0.0
 10
-18.06761
 20
6.17127
 30
0.0
 10
-18.06761
 20
5.56683
 30
0.0
 10
-18.06761
 20
5.56683
 30
0.0
 10
-18.06761
 20
5.56683
 30
0.0
 10
-18.06761
 20
5.56683
 30
0.0
 10
-18.06761
 20
3.80864
 30
0.0
 10
-18.06761
 20
3.80864
 30
0.0
 10
-18.06761
 20
3.80864
 30
0.0
 10
-18.06761
 20
3.80864
 30
0.0
 10
-15.58892
 20
3.80864
 30
0.0
 10
-15.58892
 20
3.80864
 30
0.0
 10
-15.58892
 20
3.80864
 30
0.0
 10
-15.58892
 20
3.1955
 30
0.0
 10
-15.60976
 20
2.59323
 30
0.0
 10
-15.60976
 20
1.95833
 30
0.0
 10
-15.60976
 20
1.95833
 30
0.0
 10
-15.60976
 20
1.95833
 30
0.0
 10
-15.6093
 20
1.86581
 30
0.0
 10
-15.6093
 20
1.86581
 30
0.0
 10
-15.6093
 20
1.86581
 30
0.0
 10
-15.6093
 20
1.86581
 30
0.0
 10
-17.33159
 20
1.86581
 30
0.0
 10
-17.33159
 20
1.86581
 30
0.0
 10
-17.33159
 20
1.86581
 30
0.0
 10
-17.33159
 20
1.86581
 30
0.0
 10
-17.33159
 20
2.32839
 30
0.0
 10
-17.33159
 20
2.32839
 30
0.0
 10
-17.33159
 20
2.32839
 30
0.0
 10
-17.33159
 20
2.32839
 30
0.0
 10
-17.33159
 20
2.69845
 30
0.0
 10
-17.33159
 20
2.69845
 30
0.0
 10
-17.33159
 20
2.69845
 30
0.0
 10
-17.33159
 20
3.02629
 30
0.0
 10
-17.05405
 20
3.06851
 30
0.0
 10
-17.05405
 20
3.06851
 30
0.0
 10
-17.05405
 20
3.06851
 30
0.0
 10
-16.36018
 20
3.16103
 30
0.0
 10
-16.37533
 20
2.5751
 30
0.0
 10
-16.37533
 20
2.5751
 30
0.0
 10
-16.37533
 20
2.5751
 30
0.0
 10
-16.83455
 20
2.84915
 30
0.0
 10
-16.75899
 20
2.50988
 30
0.0
 10
-16.7526
 20
2.32839
 30
0.0
 10
-16.7526
 20
2.32839
 30
0.0
 10
-16.7526
 20
2.32839
 30
0.0
 10
-16.07545
 20
2.32839
 30
0.0
 10
-16.07545
 20
2.32839
 30
0.0
 10
-16.07545
 20
2.32839
 30
0.0
 10
-16.07545
 20
2.32839
 30
0.0
 10
-16.07545
 20
3.34606
 30
0.0
 10
-16.07545
 20
3.34606
 30
0.0
 10
-16.07545
 20
3.34606
 30
0.0
 10
-16.07545
 20
3.34606
 30
0.0
 10
-18.06761
 20
3.34606
 30
0.0
 10
-18.06761
 20
3.34606
 30
0.0
 10
-18.06761
 20
3.34606
 30
0.0
 10
-18.06761
 20
3.34606
 30
0.0
 10
-18.06761
 20
-1.60353
 30
0.0
 10
-18.06761
 20
-1.60353
 30
0.0
 10
-18.06761
 20
-1.60353
 30
0.0
 10
-18.06761
 20
-1.60353
 30
0.0
 10
-16.07545
 20
-1.60353
 30
0.0
 10
-16.07545
 20
-1.60353
 30
0.0
 10
-16.07545
 20
-1.60353
 30
0.0
 10
-16.07545
 20
-1.60353
 30
0.0
 10
-16.07545
 20
-0.58586
 30
0.0
 10
-16.07545
 20
-0.58586
 30
0.0
 10
-16.07545
 20
-0.58586
 30
0.0
 10
-16.07545
 20
-0.58586
 30
0.0
 10
-16.7526
 20
-0.58586
 30
0.0
 10
-16.7526
 20
-0.58586
 30
0.0
 10
-16.7526
 20
-0.58586
 30
0.0
 10
-16.75899
 20
-0.76735
 30
0.0
 10
-16.83455
 20
-1.10662
 30
0.0
 10
-16.37533
 20
-0.83256
 30
0.0
 10
-16.37533
 20
-0.83256
 30
0.0
 10
-16.37533
 20
-0.83256
 30
0.0
 10
-16.36018
 20
-1.4185
 30
0.0
 10
-17.05405
 20
-1.32598
 30
0.0
 10
-17.05405
 20
-1.32598
 30
0.0
 10
-17.05405
 20
-1.32598
 30
0.0
 10
-17.33159
 20
-1.28376
 30
0.0
 10
-17.33159
 20
-0.95592
 30
0.0
 10
-17.33159
 20
-0.95592
 30
0.0
 10
-17.33159
 20
-0.95592
 30
0.0
 10
-17.33159
 20
-0.58586
 30
0.0
 10
-17.33159
 20
-0.58586
 30
0.0
  0
SPLINE
  5
56
330
1F
100
AcDbEntity
  8
Layer 1
 62
    15
100
AcDbSpline
210
0.0
220
0.0
230
1.0
 70
    11
 71
     3
 72
    84
 73
    80
 74
     0
 42
0.0000000001
 43
0.0000000001
 12
1.0
 22
0.0
 32
0.0
 13
1.0
 23
0.0
 33
0.0
 40
0.0
 40
0.0
 40
0.0
 40
0.0
 40
0.0476190476190476
 40
0.0476190476190476
 40
0.0476190476190476
 40
0.0476190476190476
 40
0.0952380952380952
 40
0.0952380952380952
 40
0.0952380952380952
 40
0.0952380952380952
 40
0.1428571428571428
 40
0.1428571428571428
 40
0.1428571428571428
 40
0.1428571428571428
 40
0.1904761904761905
 40
0.1904761904761905
 40
0.1904761904761905
 40
0.1904761904761905
 40
0.2380952380952381
 40
0.2380952380952381
 40
0.2380952380952381
 40
0.2380952380952381
 40
0.2857142857142857
 40
0.2857142857142857
 40
0.2857142857142857
 40
0.2857142857142857
 40
0.3333333333333333
 40
0.3333333333333333
 40
0.3333333333333333
 40
0.3333333333333333
 40
0.3809523809523809
 40
0.3809523809523809
 40
0.3809523809523809
 40
0.3809523809523809
 40
0.4285714285714285
 40
0.4285714285714285
 40
0.4285714285714285
 40
0.4285714285714285
 40
0.4761904761904762
 40
0.4761904761904762
 40
0.4761904761904762
 40
0.4761904761904762
 40
0.5238095238095238
 40
0.5238095238095238
 40
0.5238095238095238
 40
0.5238095238095238
 40
0.5714285714285714
 40
0.5714285714285714
 40
0.5714285714285714
 40
0.5714285714285714
 40
0.6190476190476191
 40
0.6190476190476191
 40
0.6190476190476191
 40
0.6190476190476191
 40
0.6666666666666666
 40
0.6666666666666666
 40
0.6666666666666666
 40
0.6666666666666666
 40
0.7142857142857143
 40
0.7142857142857143
 40
0.7142857142857143
 40
0.7142857142857143
 40
0.7619047619047619
 40
0.7619047619047619
 40
0.7619047619047619
 40
0.7619047619047619
 40
0.8095238095238095
 40
0.8095238095238095
 40
0.8095238095238095
 40
0.8095238095238095
 40
0.8571428571428571
 40
0.8571428571428571
 40
0.8571428571428571
 40
0.8571428571428571
 40
0.9047619047619048
 40
0.9047619047619048
 40
0.9047619047619048
 40
0.9047619047619048
 40
1.0
 40
1.0
 40
1.0
 40
1.0
 10
3.30553
 20
-3.02232
 30
0.0
 10
3.30553
 20
-3.02232
 30
0.0
 10
-4.48755
 20
-3.02232
 30
0.0
 10
-4.48755
 20
-3.02232
 30
0.0
 10
-4.48755
 20
-3.02232
 30
0.0
 10
-4.48755
 20
-3.02232
 30
0.0
 10
-4.48755
 20
-4.6953
 30
0.0
 10
-4.48755
 20
-4.6953
 30
0.0
 10
-4.48755
 20
-4.6953
 30
0.0
 10
-4.48755
 20
-4.6953
 30
0.0
 10
-5.18141
 20
-4.6953
 30
0.0
 10
-5.18141
 20
-4.6953
 30
0.0
 10
-5.18141
 20
-4.6953
 30
0.0
 10
-5.18141
 20
-4.6953
 30
0.0
 10
-5.73651
 20
-4.6953
 30
0.0
 10
-5.73651
 20
-4.6953
 30
0.0
 10
-5.73651
 20
-4.6953
 30
0.0
 10
-6.22827
 20
-4.6953
 30
0.0
 10
-6.2916
 20
-4.41775
 30
0.0
 10
-6.2916
 20
-4.41775
 30
0.0
 10
-6.2916
 20
-4.41775
 30
0.0
 10
-6.43038
 20
-3.72388
 30
0.0
 10
-5.55148
 20
-3.8164
 30
0.0
 10
-5.55148
 20
-3.8164
 30
0.0
 10
-5.55148
 20
-3.8164
 30
0.0
 10
-5.96256
 20
-4.27562
 30
0.0
 10
-5.45366
 20
-4.20007
 30
0.0
 10
-5.18141
 20
-4.19367
 30
0.0
 10
-5.18141
 20
-4.19367
 30
0.0
 10
-5.18141
 20
-4.19367
 30
0.0
 10
-5.18141
 20
-3.51652
 30
0.0
 10
-5.18141
 20
-3.51652
 30
0.0
 10
-5.18141
 20
-3.51652
 30
0.0
 10
-5.18141
 20
-3.51652
 30
0.0
 10
-6.70792
 20
-3.51652
 30
0.0
 10
-6.70792
 20
-3.51652
 30
0.0
 10
-6.70792
 20
-3.51652
 30
0.0
 10
-6.70792
 20
-3.51652
 30
0.0
 10
-6.70792
 20
-5.1093
 30
0.0
 10
-6.70792
 20
-5.1093
 30
0.0
 10
-6.70792
 20
-5.1093
 30
0.0
 10
-6.70792
 20
-5.1093
 30
0.0
 10
5.52591
 20
-5.08846
 30
0.0
 10
5.52591
 20
-5.08846
 30
0.0
 10
5.52591
 20
-5.08846
 30
0.0
 10
5.52591
 20
-5.08846
 30
0.0
 10
5.52591
 20
-3.51652
 30
0.0
 10
5.52591
 20
-3.51652
 30
0.0
 10
5.52591
 20
-3.51652
 30
0.0
 10
5.52591
 20
-3.51652
 30
0.0
 10
3.9994
 20
-3.51652
 30
0.0
 10
3.9994
 20
-3.51652
 30
0.0
 10
3.9994
 20
-3.51652
 30
0.0
 10
3.9994
 20
-3.51652
 30
0.0
 10
3.9994
 20
-4.19367
 30
0.0
 10
3.9994
 20
-4.19367
 30
0.0
 10
3.9994
 20
-4.19367
 30
0.0
 10
4.27165
 20
-4.20007
 30
0.0
 10
4.78054
 20
-4.27562
 30
0.0
 10
4.36946
 20
-3.8164
 30
0.0
 10
4.36946
 20
-3.8164
 30
0.0
 10
4.36946
 20
-3.8164
 30
0.0
 10
5.24836
 20
-3.72388
 30
0.0
 10
5.10959
 20
-4.41775
 30
0.0
 10
5.10959
 20
-4.41775
 30
0.0
 10
5.10959
 20
-4.41775
 30
0.0
 10
5.04626
 20
-4.6953
 30
0.0
 10
4.55449
 20
-4.6953
 30
0.0
 10
4.55449
 20
-4.6953
 30
0.0
 10
4.55449
 20
-4.6953
 30
0.0
 10
3.9994
 20
-4.6953
 30
0.0
 10
3.9994
 20
-4.6953
 30
0.0
 10
3.9994
 20
-4.6953
 30
0.0
 10
3.9994
 20
-4.6953
 30
0.0
 10
3.30553
 20
-4.6953
 30
0.0
 10
3.30553
 20
-4.6953
 30
0.0
 10
3.30553
 20
-4.6953
 30
0.0
 10
3.30553
 20
-4.6953
 30
0.0
 10
3.30553
 20
-3.02232
 30
0.0
 10
3.30553
 20
-3.02232
 30
0.0
  0
SPLINE
  5
57
330
1F
100
AcDbEntity
  8
Layer 1
 62
    15
100
AcDbSpline
210
0.0
220
0.0
230
1.0
 70
    11
 71
     3
 72
    84
 73
    80
 74
     0
 42
0.0000000001
 43
0.0000000001
 12
1.0
 22
0.0
 32
0.0
 13
1.0
 23
0.0
 33
0.0
 40
0.0
 40
0.0
 40
0.0
 40
0.0
 40
0.0476190476190476
 40
0.0476190476190476
 40
0.0476190476190476
 40
0.0476190476190476
 40
0.0952380952380952
 40
0.0952380952380952
 40
0.0952380952380952
 40
0.0952380952380952
 40
0.1428571428571428
 40
0.1428571428571428
 40
0.1428571428571428
 40
0.1428571428571428
 40
0.1904761904761905
 40
0.1904761904761905
 40
0.1904761904761905
 40
0.1904761904761905
 40
0.2380952380952381
 40
0.2380952380952381
 40
0.2380952380952381
 40
0.2380952380952381
 40
0.2857142857142857
 40
0.2857142857142857
 40
0.2857142857142857
 40
0.2857142857142857
 40
0.3333333333333333
 40
0.3333333333333333
 40
0.3333333333333333
 40
0.3333333333333333
 40
0.3809523809523809
 40
0.3809523809523809
 40
0.3809523809523809
 40
0.3809523809523809
 40
0.4285714285714285
 40
0.4285714285714285
 40
0.4285714285714285
 40
0.4285714285714285
 40
0.4761904761904762
 40
0.4761904761904762
 40
0.4761904761904762
 40
0.4761904761904762
 40
0.5238095238095238
 40
0.5238095238095238
 40
0.5238095238095238
 40
0.5238095238095238
 40
0.5714285714285714
 40
0.5714285714285714
 40
0.5714285714285714
 40
0.5714285714285714
 40
0.6190476190476191
 40
0.6190476190476191
 40
0.6190476190476191
 40
0.6190476190476191
 40
0.6666666666666666
 40
0.6666666666666666
 40
0.6666666666666666
 40
0.6666666666666666
 40
0.7142857142857143
 40
0.7142857142857143
 40
0.7142857142857143
 40
0.7142857142857143
 40
0.7619047619047619
 40
0.7619047619047619
 40
0.7619047619047619
 40
0.7619047619047619
 40
0.8095238095238095
 40
0.8095238095238095
 40
0.8095238095238095
 40
0.8095238095238095
 40
0.8571428571428571
 40
0.8571428571428571
 40
0.8571428571428571
 40
0.8571428571428571
 40
0.9047619047619048
 40
0.9047619047619048
 40
0.9047619047619048
 40
0.9047619047619048
 40
1.0
 40
1.0
 40
1.0
 40
1.0
 10
-4.48755
 20
4.79965
 30
0.0
 10
-4.48755
 20
4.79965
 30
0.0
 10
3.30553
 20
4.79965
 30
0.0
 10
3.30553
 20
4.79965
 30
0.0
 10
3.30553
 20
4.79965
 30
0.0
 10
3.30553
 20
4.79965
 30
0.0
 10
3.30553
 20
6.39908
 30
0.0
 10
3.30553
 20
6.39908
 30
0.0
 10
3.30553
 20
6.39908
 30
0.0
 10
3.30553
 20
6.39908
 30
0.0
 10
3.9994
 20
6.39908
 30
0.0
 10
3.9994
 20
6.39908
 30
0.0
 10
3.9994
 20
6.39908
 30
0.0
 10
3.9994
 20
6.39908
 30
0.0
 10
4.55449
 20
6.39908
 30
0.0
 10
4.55449
 20
6.39908
 30
0.0
 10
4.55449
 20
6.39908
 30
0.0
 10
5.04626
 20
6.39908
 30
0.0
 10
5.10959
 20
6.12153
 30
0.0
 10
5.10959
 20
6.12153
 30
0.0
 10
5.10959
 20
6.12153
 30
0.0
 10
5.24836
 20
5.42767
 30
0.0
 10
4.36946
 20
5.52018
 30
0.0
 10
4.36946
 20
5.52018
 30
0.0
 10
4.36946
 20
5.52018
 30
0.0
 10
4.78054
 20
5.9794
 30
0.0
 10
4.27165
 20
5.90385
 30
0.0
 10
3.9994
 20
5.89745
 30
0.0
 10
3.9994
 20
5.89745
 30
0.0
 10
3.9994
 20
5.89745
 30
0.0
 10
3.9994
 20
5.22031
 30
0.0
 10
3.9994
 20
5.22031
 30
0.0
 10
3.9994
 20
5.22031
 30
0.0
 10
3.9994
 20
5.22031
 30
0.0
 10
5.52591
 20
5.22031
 30
0.0
 10
5.52591
 20
5.22031
 30
0.0
 10
5.52591
 20
5.22031
 30
0.0
 10
5.52591
 20
5.22031
 30
0.0
 10
5.52591
 20
6.78998
 30
0.0
 10
5.52591
 20
6.78998
 30
0.0
 10
5.52591
 20
6.78998
 30
0.0
 10
5.52591
 20
6.78998
 30
0.0
 10
-6.70792
 20
6.78998
 30
0.0
 10
-6.70792
 20
6.78998
 30
0.0
 10
-6.70792
 20
6.78998
 30
0.0
 10
-6.70792
 20
6.78998
 30
0.0
 10
-6.70792
 20
5.22031
 30
0.0
 10
-6.70792
 20
5.22031
 30
0.0
 10
-6.70792
 20
5.22031
 30
0.0
 10
-6.70792
 20
5.22031
 30
0.0
 10
-5.18141
 20
5.22031
 30
0.0
 10
-5.18141
 20
5.22031
 30
0.0
 10
-5.18141
 20
5.22031
 30
0.0
 10
-5.18141
 20
5.22031
 30
0.0
 10
-5.18141
 20
5.89745
 30
0.0
 10
-5.18141
 20
5.89745
 30
0.0
 10
-5.18141
 20
5.89745
 30
0.0
 10
-5.45366
 20
5.90385
 30
0.0
 10
-5.96256
 20
5.9794
 30
0.0
 10
-5.55148
 20
5.52018
 30
0.0
 10
-5.55148
 20
5.52018
 30
0.0
 10
-5.55148
 20
5.52018
 30
0.0
 10
-6.43038
 20
5.42767
 30
0.0
 10
-6.2916
 20
6.12153
 30
0.0
 10
-6.2916
 20
6.12153
 30
0.0
 10
-6.2916
 20
6.12153
 30
0.0
 10
-6.22827
 20
6.39908
 30
0.0
 10
-5.73651
 20
6.39908
 30
0.0
 10
-5.73651
 20
6.39908
 30
0.0
 10
-5.73651
 20
6.39908
 30
0.0
 10
-5.18141
 20
6.39908
 30
0.0
 10
-5.18141
 20
6.39908
 30
0.0
 10
-5.18141
 20
6.39908
 30
0.0
 10
-5.18141
 20
6.39908
 30
0.0
 10
-4.48755
 20
6.39908
 30
0.0
 10
-4.48755
 20
6.39908
 30
0.0
 10
-4.48755
 20
6.39908
 30
0.0
 10
-4.48755
 20
6.39908
 30
0.0
 10
-4.48755
 20
4.79965
 30
0.0
 10
-4.48755
 20
4.79965
 30
0.0
  0
SPLINE
  5
58
330
1F
100
AcDbEntity
  8
Layer 1
 62
    15
100
AcDbSpline
210
0.0
220
0.0
230
1.0
 70
    11
 71
     3
 72
    24
 73
    20
 74
     0
 42
0.0000000001
 43
0.0000000001
 12
1.0
 22
0.0
 32
0.0
 13
1.0
 23
0.0
 33
0.0
 40
0.0
 40
0.0
 40
0.0
 40
0.0
 40
0.1666666666666667
 40
0.1666666666666667
 40
0.1666666666666667
 40
0.1666666666666667
 40
0.3333333333333333
 40
0.3333333333333333
 40
0.3333333333333333
 40
0.3333333333333333
 40
0.5
 40
0.5
 40
0.5
 40
0.5
 40
0.6666666666666666
 40
0.6666666666666666
 40
0.6666666666666666
 40
0.6666666666666666
 40
1.0
 40
1.0
 40
1.0
 40
1.0
 10
13.36481
 20
4.19521
 30
0.0
 10
13.36481
 20
4.19521
 30
0.0
 10
12.56412
 20
4.19521
 30
0.0
 10
12.56412
 20
4.19521
 30
0.0
 10
12.56412
 20
4.19521
 30
0.0
 10
12.56412
 20
4.19521
 30
0.0
 10
11.8938
 20
3.43641
 30
0.0
 10
11.8938
 20
3.43641
 30
0.0
 10
11.8938
 20
3.43641
 30
0.0
 10
11.8938
 20
3.43641
 30
0.0
 10
12.49846
 20
2.76932
 30
0.0
 10
12.49846
 20
2.76932
 30
0.0
 10
12.49846
 20
2.76932
 30
0.0
 10
12.49846
 20
2.76932
 30
0.0
 10
13.36481
 20
3.75002
 30
0.0
 10
13.36481
 20
3.75002
 30
0.0
 10
13.36481
 20
3.75002
 30
0.0
 10
13.36481
 20
3.75002
 30
0.0
 10
13.36481
 20
4.19521
 30
0.0
 10
13.36481
 20
4.19521
 30
0.0
  0
SPLINE
  5
59
330
1F
100
AcDbEntity
  8
Layer 1
 62
    15
100
AcDbSpline
210
0.0
220
0.0
230
1.0
 70
    11
 71
     3
 72
    16
 73
    12
 74
     0
 42
0.0000000001
 43
0.0000000001
 12
1.0
 22
0.0
 32
0.0
 13
1.0
 23
0.0
 33
0.0
 40
0.0
 40
0.0
 40
0.0
 40
0.0
 40
0.25
 40
0.25
 40
0.25
 40
0.25
 40
0.5
 40
0.5
 40
0.5
 40
0.5
 40
1.0
 40
1.0
 40
1.0
 40
1.0
 10
12.21751
 20
4.19521
 30
0.0
 10
12.21751
 20
4.19521
 30
0.0
 10
11.20599
 20
4.19521
 30
0.0
 10
11.20599
 20
4.19521
 30
0.0
 10
11.20599
 20
4.19521
 30
0.0
 10
11.20599
 20
4.19521
 30
0.0
 10
11.71826
 20
3.63006
 30
0.0
 10
11.71826
 20
3.63006
 30
0.0
 10
11.71826
 20
3.63006
 30
0.0
 10
11.71826
 20
3.63006
 30
0.0
 10
12.21751
 20
4.19521
 30
0.0
 10
12.21751
 20
4.19521
 30
0.0
  0
SPLINE
  5
5A
330
1F
100
AcDbEntity
  8
Layer 1
 62
    15
100
AcDbSpline
210
0.0
220
0.0
230
1.0
 70
    11
 71
     3
 72
    16
 73
    12
 74
     0
 42
0.0000000001
 43
0.0000000001
 12
1.0
 22
0.0
 32
0.0
 13
1.0
 23
0.0
 33
0.0
 40
0.0
 40
0.0
 40
0.0
 40
0.0
 40
0.25
 40
0.25
 40
0.25
 40
0.25
 40
0.5
 40
0.5
 40
0.5
 40
0.5
 40
1.0
 40
1.0
 40
1.0
 40
1.0
 10
10.67696
 20
4.19521
 30
0.0
 10
10.67696
 20
4.19521
 30
0.0
 10
9.71099
 20
4.19521
 30
0.0
 10
9.71099
 20
4.19521
 30
0.0
 10
9.71099
 20
4.19521
 30
0.0
 10
9.71099
 20
4.19521
 30
0.0
 10
10.20019
 20
3.65552
 30
0.0
 10
10.20019
 20
3.65552
 30
0.0
 10
10.20019
 20
3.65552
 30
0.0
 10
10.20019
 20
3.65552
 30
0.0
 10
10.67696
 20
4.19521
 30
0.0
 10
10.67696
 20
4.19521
 30
0.0
  0
SPLINE
  5
5B
330
1F
100
AcDbEntity
  8
Layer 1
 62
    15
100
AcDbSpline
210
0.0
220
0.0
230
1.0
 70
    11
 71
     3
 72
    16
 73
    12
 74
     0
 42
0.0000000001
 43
0.0000000001
 12
1.0
 22
0.0
 32
0.0
 13
1.0
 23
0.0
 33
0.0
 40
0.0
 40
0.0
 40
0.0
 40
0.0
 40
0.25
 40
0.25
 40
0.25
 40
0.25
 40
0.5
 40
0.5
 40
0.5
 40
0.5
 40
1.0
 40
1.0
 40
1.0
 40
1.0
 10
9.14444
 20
4.19521
 30
0.0
 10
9.14444
 20
4.19521
 30
0.0
 10
8.32313
 20
4.19521
 30
0.0
 10
8.32313
 20
4.19521
 30
0.0
 10
8.32313
 20
4.19521
 30
0.0
 10
8.32313
 20
4.19521
 30
0.0
 10
8.73907
 20
3.73633
 30
0.0
 10
8.73907
 20
3.73633
 30
0.0
 10
8.73907
 20
3.73633
 30
0.0
 10
8.73907
 20
3.73633
 30
0.0
 10
9.14444
 20
4.19521
 30
0.0
 10
9.14444
 20
4.19521
 30
0.0
  0
SPLINE
  5
5C
330
1F
100
AcDbEntity
  8
Layer 1
 62
    15
100
AcDbSpline
210
0.0
220
0.0
230
1.0
 70
    11
 71
     3
 72
    16
 73
    12
 74
     0
 42
0.0000000001
 43
0.0000000001
 12
1.0
 22
0.0
 32
0.0
 13
1.0
 23
0.0
 33
0.0
 40
0.0
 40
0.0
 40
0.0
 40
0.0
 40
0.25
 40
0.25
 40
0.25
 40
0.25
 40
0.5
 40
0.5
 40
0.5
 40
0.5
 40
1.0
 40
1.0
 40
1.0
 40
1.0
 10
7.66807
 20
4.19521
 30
0.0
 10
7.66807
 20
4.19521
 30
0.0
 10
6.76315
 20
4.19521
 30
0.0
 10
6.76315
 20
4.19521
 30
0.0
 10
6.76315
 20
4.19521
 30
0.0
 10
6.76315
 20
4.19521
 30
0.0
 10
7.22143
 20
3.68961
 30
0.0
 10
7.22143
 20
3.68961
 30
0.0
 10
7.22143
 20
3.68961
 30
0.0
 10
7.22143
 20
3.68961
 30
0.0
 10
7.66807
 20
4.19521
 30
0.0
 10
7.66807
 20
4.19521
 30
0.0
  0
SPLINE
  5
5D
330
1F
100
AcDbEntity
  8
Layer 1
 62
    15
100
AcDbSpline
210
0.0
220
0.0
230
1.0
 70
    11
 71
     3
 72
    16
 73
    12
 74
     0
 42
0.0000000001
 43
0.0000000001
 12
1.0
 22
0.0
 32
0.0
 13
1.0
 23
0.0
 33
0.0
 40
0.0
 40
0.0
 40
0.0
 40
0.0
 40
0.25
 40
0.25
 40
0.25
 40
0.25
 40
0.5
 40
0.5
 40
0.5
 40
0.5
 40
1.0
 40
1.0
 40
1.0
 40
1.0
 10
6.19161
 20
4.19521
 30
0.0
 10
6.19161
 20
4.19521
 30
0.0
 10
5.20318
 20
4.19521
 30
0.0
 10
5.20318
 20
4.19521
 30
0.0
 10
5.20318
 20
4.19521
 30
0.0
 10
5.20318
 20
4.19521
 30
0.0
 10
5.70375
 20
3.64296
 30
0.0
 10
5.70375
 20
3.64296
 30
0.0
 10
5.70375
 20
3.64296
 30
0.0
 10
5.70375
 20
3.64296
 30
0.0
 10
6.19161
 20
4.19521
 30
0.0
 10
6.19161
 20
4.19521
 30
0.0
  0
SPLINE
  5
5E
330
1F
100
AcDbEntity
  8
Layer 1
 62
    15
100
AcDbSpline
210
0.0
220
0.0
230
1.0
 70
    11
 71
     3
 72
    24
 73
    20
 74
     0
 42
0.0000000001
 43
0.0000000001
 12
1.0
 22
0.0
 32
0.0
 13
1.0
 23
0.0
 33
0.0
 40
0.0
 40
0.0
 40
0.0
 40
0.0
 40
0.1666666666666667
 40
0.1666666666666667
 40
0.1666666666666667
 40
0.1666666666666667
 40
0.3333333333333333
 40
0.3333333333333333
 40
0.3333333333333333
 40
0.3333333333333333
 40
0.5
 40
0.5
 40
0.5
 40
0.5
 40
0.6666666666666666
 40
0.6666666666666666
 40
0.6666666666666666
 40
0.6666666666666666
 40
1.0
 40
1.0
 40
1.0
 40
1.0
 10
4.85219
 20
4.19521
 30
0.0
 10
4.85219
 20
4.19521
 30
0.0
 10
4.32194
 20
4.19521
 30
0.0
 10
4.32194
 20
4.19521
 30
0.0
 10
4.32194
 20
4.19521
 30
0.0
 10
4.32194
 20
4.19521
 30
0.0
 10
4.32194
 20
3.44648
 30
0.0
 10
4.32194
 20
3.44648
 30
0.0
 10
4.32194
 20
3.44648
 30
0.0
 10
4.32194
 20
3.44648
 30
0.0
 10
4.93383
 20
2.77141
 30
0.0
 10
4.93383
 20
2.77141
 30
0.0
 10
4.93383
 20
2.77141
 30
0.0
 10
4.93383
 20
2.77141
 30
0.0
 10
5.53052
 20
3.44686
 30
0.0
 10
5.53052
 20
3.44686
 30
0.0
 10
5.53052
 20
3.44686
 30
0.0
 10
5.53052
 20
3.44686
 30
0.0
 10
4.85219
 20
4.19521
 30
0.0
 10
4.85219
 20
4.19521
 30
0.0
  0
SPLINE
  5
5F
330
1F
100
AcDbEntity
  8
Layer 1
 62
    15
100
AcDbSpline
210
0.0
220
0.0
230
1.0
 70
    11
 71
     3
 72
    24
 73
    20
 74
     0
 42
0.0000000001
 43
0.0000000001
 12
1.0
 22
0.0
 32
0.0
 13
1.0
 23
0.0
 33
0.0
 40
0.0
 40
0.0
 40
0.0
 40
0.0
 40
0.1666666666666667
 40
0.1666666666666667
 40
0.1666666666666667
 40
0.1666666666666667
 40
0.3333333333333333
 40
0.3333333333333333
 40
0.3333333333333333
 40
0.3333333333333333
 40
0.5
 40
0.5
 40
0.5
 40
0.5
 40
0.6666666666666666
 40
0.6666666666666666
 40
0.6666666666666666
 40
0.6666666666666666
 40
1.0
 40
1.0
 40
1.0
 40
1.0
 10
3.95515
 20
4.19521
 30
0.0
 10
3.95515
 20
4.19521
 30
0.0
 10
3.19215
 20
4.19521
 30
0.0
 10
3.19215
 20
4.19521
 30
0.0
 10
3.19215
 20
4.19521
 30
0.0
 10
3.19215
 20
4.19521
 30
0.0
 10
2.52181
 20
3.43641
 30
0.0
 10
2.52181
 20
3.43641
 30
0.0
 10
2.52181
 20
3.43641
 30
0.0
 10
2.52181
 20
3.43641
 30
0.0
 10
3.12648
 20
2.76932
 30
0.0
 10
3.12648
 20
2.76932
 30
0.0
 10
3.12648
 20
2.76932
 30
0.0
 10
3.12648
 20
2.76932
 30
0.0
 10
3.95515
 20
3.70736
 30
0.0
 10
3.95515
 20
3.70736
 30
0.0
 10
3.95515
 20
3.70736
 30
0.0
 10
3.95515
 20
3.70736
 30
0.0
 10
3.95515
 20
4.19521
 30
0.0
 10
3.95515
 20
4.19521
 30
0.0
  0
SPLINE
  5
60
330
1F
100
AcDbEntity
  8
Layer 1
 62
    15
100
AcDbSpline
210
0.0
220
0.0
230
1.0
 70
    11
 71
     3
 72
    16
 73
    12
 74
     0
 42
0.0000000001
 43
0.0000000001
 12
1.0
 22
0.0
 32
0.0
 13
1.0
 23
0.0
 33
0.0
 40
0.0
 40
0.0
 40
0.0
 40
0.0
 40
0.25
 40
0.25
 40
0.25
 40
0.25
 40
0.5
 40
0.5
 40
0.5
 40
0.5
 40
1.0
 40
1.0
 40
1.0
 40
1.0
 10
2.84553
 20
4.19521
 30
0.0
 10
2.84553
 20
4.19521
 30
0.0
 10
1.83402
 20
4.19521
 30
0.0
 10
1.83402
 20
4.19521
 30
0.0
 10
1.83402
 20
4.19521
 30
0.0
 10
1.83402
 20
4.19521
 30
0.0
 10
2.34628
 20
3.63006
 30
0.0
 10
2.34628
 20
3.63006
 30
0.0
 10
2.34628
 20
3.63006
 30
0.0
 10
2.34628
 20
3.63006
 30
0.0
 10
2.84553
 20
4.19521
 30
0.0
 10
2.84553
 20
4.19521
 30
0.0
  0
SPLINE
  5
61
330
1F
100
AcDbEntity
  8
Layer 1
 62
    15
100
AcDbSpline
210
0.0
220
0.0
230
1.0
 70
    11
 71
     3
 72
    16
 73
    12
 74
     0
 42
0.0000000001
 43
0.0000000001
 12
1.0
 22
0.0
 32
0.0
 13
1.0
 23
0.0
 33
0.0
 40
0.0
 40
0.0
 40
0.0
 40
0.0
 40
0.25
 40
0.25
 40
0.25
 40
0.25
 40
0.5
 40
0.5
 40
0.5
 40
0.5
 40
1.0
 40
1.0
 40
1.0
 40
1.0
 10
1.30498
 20
4.19521
 30
0.0
 10
1.30498
 20
4.19521
 30
0.0
 10
0.33902
 20
4.19521
 30
0.0
 10
0.33902
 20
4.19521
 30
0.0
 10
0.33902
 20
4.19521
 30
0.0
 10
0.33902
 20
4.19521
 30
0.0
 10
0.82821
 20
3.65552
 30
0.0
 10
0.82821
 20
3.65552
 30
0.0
 10
0.82821
 20
3.65552
 30
0.0
 10
0.82821
 20
3.65552
 30
0.0
 10
1.30498
 20
4.19521
 30
0.0
 10
1.30498
 20
4.19521
 30
0.0
  0
SPLINE
  5
62
330
1F
100
AcDbEntity
  8
Layer 1
 62
    15
100
AcDbSpline
210
0.0
220
0.0
230
1.0
 70
    11
 71
     3
 72
    16
 73
    12
 74
     0
 42
0.0000000001
 43
0.0000000001
 12
1.0
 22
0.0
 32
0.0
 13
1.0
 23
0.0
 33
0.0
 40
0.0
 40
0.0
 40
0.0
 40
0.0
 40
0.25
 40
0.25
 40
0.25
 40
0.25
 40
0.5
 40
0.5
 40
0.5
 40
0.5
 40
1.0
 40
1.0
 40
1.0
 40
1.0
 10
-0.22753
 20
4.19521
 30
0.0
 10
-0.22753
 20
4.19521
 30
0.0
 10
-1.04885
 20
4.19521
 30
0.0
 10
-1.04885
 20
4.19521
 30
0.0
 10
-1.04885
 20
4.19521
 30
0.0
 10
-1.04885
 20
4.19521
 30
0.0
 10
-0.63291
 20
3.73633
 30
0.0
 10
-0.63291
 20
3.73633
 30
0.0
 10
-0.63291
 20
3.73633
 30
0.0
 10
-0.63291
 20
3.73633
 30
0.0
 10
-0.22753
 20
4.19521
 30
0.0
 10
-0.22753
 20
4.19521
 30
0.0
  0
SPLINE
  5
63
330
1F
100
AcDbEntity
  8
Layer 1
 62
    15
100
AcDbSpline
210
0.0
220
0.0
230
1.0
 70
    11
 71
     3
 72
    16
 73
    12
 74
     0
 42
0.0000000001
 43
0.0000000001
 12
1.0
 22
0.0
 32
0.0
 13
1.0
 23
0.0
 33
0.0
 40
0.0
 40
0.0
 40
0.0
 40
0.0
 40
0.25
 40
0.25
 40
0.25
 40
0.25
 40
0.5
 40
0.5
 40
0.5
 40
0.5
 40
1.0
 40
1.0
 40
1.0
 40
1.0
 10
-1.7039
 20
4.19521
 30
0.0
 10
-1.7039
 20
4.19521
 30
0.0
 10
-2.60883
 20
4.19521
 30
0.0
 10
-2.60883
 20
4.19521
 30
0.0
 10
-2.60883
 20
4.19521
 30
0.0
 10
-2.60883
 20
4.19521
 30
0.0
 10
-2.15054
 20
3.68961
 30
0.0
 10
-2.15054
 20
3.68961
 30
0.0
 10
-2.15054
 20
3.68961
 30
0.0
 10
-2.15054
 20
3.68961
 30
0.0
 10
-1.7039
 20
4.19521
 30
0.0
 10
-1.7039
 20
4.19521
 30
0.0
  0
SPLINE
  5
64
330
1F
100
AcDbEntity
  8
Layer 1
 62
    15
100
AcDbSpline
210
0.0
220
0.0
230
1.0
 70
    11
 71
     3
 72
    16
 73
    12
 74
     0
 42
0.0000000001
 43
0.0000000001
 12
1.0
 22
0.0
 32
0.0
 13
1.0
 23
0.0
 33
0.0
 40
0.0
 40
0.0
 40
0.0
 40
0.0
 40
0.25
 40
0.25
 40
0.25
 40
0.25
 40
0.5
 40
0.5
 40
0.5
 40
0.5
 40
1.0
 40
1.0
 40
1.0
 40
1.0
 10
-3.18036
 20
4.19521
 30
0.0
 10
-3.18036
 20
4.19521
 30
0.0
 10
-4.1688
 20
4.19521
 30
0.0
 10
-4.1688
 20
4.19521
 30
0.0
 10
-4.1688
 20
4.19521
 30
0.0
 10
-4.1688
 20
4.19521
 30
0.0
 10
-3.66822
 20
3.64296
 30
0.0
 10
-3.66822
 20
3.64296
 30
0.0
 10
-3.66822
 20
3.64296
 30
0.0
 10
-3.66822
 20
3.64296
 30
0.0
 10
-3.18036
 20
4.19521
 30
0.0
 10
-3.18036
 20
4.19521
 30
0.0
  0
SPLINE
  5
65
330
1F
100
AcDbEntity
  8
Layer 1
 62
    15
100
AcDbSpline
210
0.0
220
0.0
230
1.0
 70
    11
 71
     3
 72
    24
 73
    20
 74
     0
 42
0.0000000001
 43
0.0000000001
 12
1.0
 22
0.0
 32
0.0
 13
1.0
 23
0.0
 33
0.0
 40
0.0
 40
0.0
 40
0.0
 40
0.0
 40
0.1666666666666667
 40
0.1666666666666667
 40
0.1666666666666667
 40
0.1666666666666667
 40
0.3333333333333333
 40
0.3333333333333333
 40
0.3333333333333333
 40
0.3333333333333333
 40
0.5
 40
0.5
 40
0.5
 40
0.5
 40
0.6666666666666666
 40
0.6666666666666666
 40
0.6666666666666666
 40
0.6666666666666666
 40
1.0
 40
1.0
 40
1.0
 40
1.0
 10
-4.51978
 20
4.19521
 30
0.0
 10
-4.51978
 20
4.19521
 30
0.0
 10
-5.08641
 20
4.19521
 30
0.0
 10
-5.08641
 20
4.19521
 30
0.0
 10
-5.08641
 20
4.19521
 30
0.0
 10
-5.08641
 20
4.19521
 30
0.0
 10
-5.08641
 20
3.48661
 30
0.0
 10
-5.08641
 20
3.48661
 30
0.0
 10
-5.08641
 20
3.48661
 30
0.0
 10
-5.08641
 20
3.48661
 30
0.0
 10
-4.43815
 20
2.77141
 30
0.0
 10
-4.43815
 20
2.77141
 30
0.0
 10
-4.43815
 20
2.77141
 30
0.0
 10
-4.43815
 20
2.77141
 30
0.0
 10
-3.84145
 20
3.44686
 30
0.0
 10
-3.84145
 20
3.44686
 30
0.0
 10
-3.84145
 20
3.44686
 30
0.0
 10
-3.84145
 20
3.44686
 30
0.0
 10
-4.51978
 20
4.19521
 30
0.0
 10
-4.51978
 20
4.19521
 30
0.0
  0
SPLINE
  5
66
330
1F
100
AcDbEntity
  8
Layer 1
 62
    15
100
AcDbSpline
210
0.0
220
0.0
230
1.0
 70
    11
 71
     3
 72
    24
 73
    20
 74
     0
 42
0.0000000001
 43
0.0000000001
 12
1.0
 22
0.0
 32
0.0
 13
1.0
 23
0.0
 33
0.0
 40
0.0
 40
0.0
 40
0.0
 40
0.0
 40
0.1666666666666667
 40
0.1666666666666667
 40
0.1666666666666667
 40
0.1666666666666667
 40
0.3333333333333333
 40
0.3333333333333333
 40
0.3333333333333333
 40
0.3333333333333333
 40
0.5
 40
0.5
 40
0.5
 40
0.5
 40
0.6666666666666666
 40
0.6666666666666666
 40
0.6666666666666666
 40
0.6666666666666666
 40
1.0
 40
1.0
 40
1.0
 40
1.0
 10
-5.4532
 20
4.19521
 30
0.0
 10
-5.4532
 20
4.19521
 30
0.0
 10
-6.24402
 20
4.19521
 30
0.0
 10
-6.24402
 20
4.19521
 30
0.0
 10
-6.24402
 20
4.19521
 30
0.0
 10
-6.24402
 20
4.19521
 30
0.0
 10
-6.91435
 20
3.43641
 30
0.0
 10
-6.91435
 20
3.43641
 30
0.0
 10
-6.91435
 20
3.43641
 30
0.0
 10
-6.91435
 20
3.43641
 30
0.0
 10
-6.30969
 20
2.76932
 30
0.0
 10
-6.30969
 20
2.76932
 30
0.0
 10
-6.30969
 20
2.76932
 30
0.0
 10
-6.30969
 20
2.76932
 30
0.0
 10
-5.4532
 20
3.73886
 30
0.0
 10
-5.4532
 20
3.73886
 30
0.0
 10
-5.4532
 20
3.73886
 30
0.0
 10
-5.4532
 20
3.73886
 30
0.0
 10
-5.4532
 20
4.19521
 30
0.0
 10
-5.4532
 20
4.19521
 30
0.0
  0
SPLINE
  5
67
330
1F
100
AcDbEntity
  8
Layer 1
 62
    15
100
AcDbSpline
210
0.0
220
0.0
230
1.0
 70
    11
 71
     3
 72
    16
 73
    12
 74
     0
 42
0.0000000001
 43
0.0000000001
 12
1.0
 22
0.0
 32
0.0
 13
1.0
 23
0.0
 33
0.0
 40
0.0
 40
0.0
 40
0.0
 40
0.0
 40
0.25
 40
0.25
 40
0.25
 40
0.25
 40
0.5
 40
0.5
 40
0.5
 40
0.5
 40
1.0
 40
1.0
 40
1.0
 40
1.0
 10
-6.59063
 20
4.19521
 30
0.0
 10
-6.59063
 20
4.19521
 30
0.0
 10
-7.60216
 20
4.19521
 30
0.0
 10
-7.60216
 20
4.19521
 30
0.0
 10
-7.60216
 20
4.19521
 30
0.0
 10
-7.60216
 20
4.19521
 30
0.0
 10
-7.08989
 20
3.63006
 30
0.0
 10
-7.08989
 20
3.63006
 30
0.0
 10
-7.08989
 20
3.63006
 30
0.0
 10
-7.08989
 20
3.63006
 30
0.0
 10
-6.59063
 20
4.19521
 30
0.0
 10
-6.59063
 20
4.19521
 30
0.0
  0
SPLINE
  5
68
330
1F
100
AcDbEntity
  8
Layer 1
 62
    15
100
AcDbSpline
210
0.0
220
0.0
230
1.0
 70
    11
 71
     3
 72
    16
 73
    12
 74
     0
 42
0.0000000001
 43
0.0000000001
 12
1.0
 22
0.0
 32
0.0
 13
1.0
 23
0.0
 33
0.0
 40
0.0
 40
0.0
 40
0.0
 40
0.0
 40
0.25
 40
0.25
 40
0.25
 40
0.25
 40
0.5
 40
0.5
 40
0.5
 40
0.5
 40
1.0
 40
1.0
 40
1.0
 40
1.0
 10
-8.13118
 20
4.19521
 30
0.0
 10
-8.13118
 20
4.19521
 30
0.0
 10
-9.09715
 20
4.19521
 30
0.0
 10
-9.09715
 20
4.19521
 30
0.0
 10
-9.09715
 20
4.19521
 30
0.0
 10
-9.09715
 20
4.19521
 30
0.0
 10
-8.60795
 20
3.65552
 30
0.0
 10
-8.60795
 20
3.65552
 30
0.0
 10
-8.60795
 20
3.65552
 30
0.0
 10
-8.60795
 20
3.65552
 30
0.0
 10
-8.13118
 20
4.19521
 30
0.0
 10
-8.13118
 20
4.19521
 30
0.0
  0
SPLINE
  5
69
330
1F
100
AcDbEntity
  8
Layer 1
 62
    15
100
AcDbSpline
210
0.0
220
0.0
230
1.0
 70
    11
 71
     3
 72
    16
 73
    12
 74
     0
 42
0.0000000001
 43
0.0000000001
 12
1.0
 22
0.0
 32
0.0
 13
1.0
 23
0.0
 33
0.0
 40
0.0
 40
0.0
 40
0.0
 40
0.0
 40
0.25
 40
0.25
 40
0.25
 40
0.25
 40
0.5
 40
0.5
 40
0.5
 40
0.5
 40
1.0
 40
1.0
 40
1.0
 40
1.0
 10
-9.6637
 20
4.19521
 30
0.0
 10
-9.6637
 20
4.19521
 30
0.0
 10
-10.48501
 20
4.19521
 30
0.0
 10
-10.48501
 20
4.19521
 30
0.0
 10
-10.48501
 20
4.19521
 30
0.0
 10
-10.48501
 20
4.19521
 30
0.0
 10
-10.06908
 20
3.73633
 30
0.0
 10
-10.06908
 20
3.73633
 30
0.0
 10
-10.06908
 20
3.73633
 30
0.0
 10
-10.06908
 20
3.73633
 30
0.0
 10
-9.6637
 20
4.19521
 30
0.0
 10
-9.6637
 20
4.19521
 30
0.0
  0
SPLINE
  5
6A
330
1F
100
AcDbEntity
  8
Layer 1
 62
    15
100
AcDbSpline
210
0.0
220
0.0
230
1.0
 70
    11
 71
     3
 72
    16
 73
    12
 74
     0
 42
0.0000000001
 43
0.0000000001
 12
1.0
 22
0.0
 32
0.0
 13
1.0
 23
0.0
 33
0.0
 40
0.0
 40
0.0
 40
0.0
 40
0.0
 40
0.25
 40
0.25
 40
0.25
 40
0.25
 40
0.5
 40
0.5
 40
0.5
 40
0.5
 40
1.0
 40
1.0
 40
1.0
 40
1.0
 10
-11.14008
 20
4.19521
 30
0.0
 10
-11.14008
 20
4.19521
 30
0.0
 10
-12.045
 20
4.19521
 30
0.0
 10
-12.045
 20
4.19521
 30
0.0
 10
-12.045
 20
4.19521
 30
0.0
 10
-12.045
 20
4.19521
 30
0.0
 10
-11.58672
 20
3.68961
 30
0.0
 10
-11.58672
 20
3.68961
 30
0.0
 10
-11.58672
 20
3.68961
 30
0.0
 10
-11.58672
 20
3.68961
 30
0.0
 10
-11.14008
 20
4.19521
 30
0.0
 10
-11.14008
 20
4.19521
 30
0.0
  0
SPLINE
  5
6B
330
1F
100
AcDbEntity
  8
Layer 1
 62
    15
100
AcDbSpline
210
0.0
220
0.0
230
1.0
 70
    11
 71
     3
 72
    16
 73
    12
 74
     0
 42
0.0000000001
 43
0.0000000001
 12
1.0
 22
0.0
 32
0.0
 13
1.0
 23
0.0
 33
0.0
 40
0.0
 40
0.0
 40
0.0
 40
0.0
 40
0.25
 40
0.25
 40
0.25
 40
0.25
 40
0.5
 40
0.5
 40
0.5
 40
0.5
 40
1.0
 40
1.0
 40
1.0
 40
1.0
 10
-12.61653
 20
4.19521
 30
0.0
 10
-12.61653
 20
4.19521
 30
0.0
 10
-13.60497
 20
4.19521
 30
0.0
 10
-13.60497
 20
4.19521
 30
0.0
 10
-13.60497
 20
4.19521
 30
0.0
 10
-13.60497
 20
4.19521
 30
0.0
 10
-13.10439
 20
3.64296
 30
0.0
 10
-13.10439
 20
3.64296
 30
0.0
 10
-13.10439
 20
3.64296
 30
0.0
 10
-13.10439
 20
3.64296
 30
0.0
 10
-12.61653
 20
4.19521
 30
0.0
 10
-12.61653
 20
4.19521
 30
0.0
  0
SPLINE
  5
6C
330
1F
100
AcDbEntity
  8
Layer 1
 62
    15
100
AcDbSpline
210
0.0
220
0.0
230
1.0
 70
    11
 71
     3
 72
    24
 73
    20
 74
     0
 42
0.0000000001
 43
0.0000000001
 12
1.0
 22
0.0
 32
0.0
 13
1.0
 23
0.0
 33
0.0
 40
0.0
 40
0.0
 40
0.0
 40
0.0
 40
0.1666666666666667
 40
0.1666666666666667
 40
0.1666666666666667
 40
0.1666666666666667
 40
0.3333333333333333
 40
0.3333333333333333
 40
0.3333333333333333
 40
0.3333333333333333
 40
0.5
 40
0.5
 40
0.5
 40
0.5
 40
0.6666666666666666
 40
0.6666666666666666
 40
0.6666666666666666
 40
0.6666666666666666
 40
1.0
 40
1.0
 40
1.0
 40
1.0
 10
-13.95595
 20
4.19521
 30
0.0
 10
-13.95595
 20
4.19521
 30
0.0
 10
-14.48581
 20
4.19521
 30
0.0
 10
-14.48581
 20
4.19521
 30
0.0
 10
-14.48581
 20
4.19521
 30
0.0
 10
-14.48581
 20
4.19521
 30
0.0
 10
-14.48581
 20
3.44604
 30
0.0
 10
-14.48581
 20
3.44604
 30
0.0
 10
-14.48581
 20
3.44604
 30
0.0
 10
-14.48581
 20
3.44604
 30
0.0
 10
-13.87431
 20
2.77141
 30
0.0
 10
-13.87431
 20
2.77141
 30
0.0
 10
-13.87431
 20
2.77141
 30
0.0
 10
-13.87431
 20
2.77141
 30
0.0
 10
-13.27763
 20
3.44686
 30
0.0
 10
-13.27763
 20
3.44686
 30
0.0
 10
-13.27763
 20
3.44686
 30
0.0
 10
-13.27763
 20
3.44686
 30
0.0
 10
-13.95595
 20
4.19521
 30
0.0
 10
-13.95595
 20
4.19521
 30
0.0
  0
SPLINE
  5
6D
330
1F
100
AcDbEntity
  8
Layer 1
 62
    15
100
AcDbSpline
210
0.0
220
0.0
230
1.0
 70
    11
 71
     3
 72
    16
 73
    12
 74
     0
 42
0.0000000001
 43
0.0000000001
 12
1.0
 22
0.0
 32
0.0
 13
1.0
 23
0.0
 33
0.0
 40
0.0
 40
0.0
 40
0.0
 40
0.0
 40
0.25
 40
0.25
 40
0.25
 40
0.25
 40
0.5
 40
0.5
 40
0.5
 40
0.5
 40
1.0
 40
1.0
 40
1.0
 40
1.0
 10
-14.48581
 20
-2.41788
 30
0.0
 10
-14.48581
 20
-2.41788
 30
0.0
 10
-14.06326
 20
-2.41788
 30
0.0
 10
-14.06326
 20
-2.41788
 30
0.0
 10
-14.06326
 20
-2.41788
 30
0.0
 10
-14.06326
 20
-2.41788
 30
0.0
 10
-14.48581
 20
-1.9517
 30
0.0
 10
-14.48581
 20
-1.9517
 30
0.0
 10
-14.48581
 20
-1.9517
 30
0.0
 10
-14.48581
 20
-1.9517
 30
0.0
 10
-14.48581
 20
-2.41788
 30
0.0
 10
-14.48581
 20
-2.41788
 30
0.0
  0
SPLINE
  5
6E
330
1F
100
AcDbEntity
  8
Layer 1
 62
    15
100
AcDbSpline
210
0.0
220
0.0
230
1.0
 70
    11
 71
     3
 72
    16
 73
    12
 74
     0
 42
0.0000000001
 43
0.0000000001
 12
1.0
 22
0.0
 32
0.0
 13
1.0
 23
0.0
 33
0.0
 40
0.0
 40
0.0
 40
0.0
 40
0.0
 40
0.25
 40
0.25
 40
0.25
 40
0.25
 40
0.5
 40
0.5
 40
0.5
 40
0.5
 40
1.0
 40
1.0
 40
1.0
 40
1.0
 10
-13.62658
 20
-2.41788
 30
0.0
 10
-13.62658
 20
-2.41788
 30
0.0
 10
-12.56826
 20
-2.41788
 30
0.0
 10
-12.56826
 20
-2.41788
 30
0.0
 10
-12.56826
 20
-2.41788
 30
0.0
 10
-12.56826
 20
-2.41788
 30
0.0
 10
-13.10423
 20
-1.82658
 30
0.0
 10
-13.10423
 20
-1.82658
 30
0.0
 10
-13.10423
 20
-1.82658
 30
0.0
 10
-13.10423
 20
-1.82658
 30
0.0
 10
-13.62658
 20
-2.41788
 30
0.0
 10
-13.62658
 20
-2.41788
 30
0.0
  0
SPLINE
  5
6F
330
1F
100
AcDbEntity
  8
Layer 1
 62
    15
100
AcDbSpline
210
0.0
220
0.0
230
1.0
 70
    11
 71
     3
 72
    16
 73
    12
 74
     0
 42
0.0000000001
 43
0.0000000001
 12
1.0
 22
0.0
 32
0.0
 13
1.0
 23
0.0
 33
0.0
 40
0.0
 40
0.0
 40
0.0
 40
0.0
 40
0.25
 40
0.25
 40
0.25
 40
0.25
 40
0.5
 40
0.5
 40
0.5
 40
0.5
 40
1.0
 40
1.0
 40
1.0
 40
1.0
 10
-12.08606
 20
-2.41788
 30
0.0
 10
-12.08606
 20
-2.41788
 30
0.0
 10
-11.07333
 20
-2.41788
 30
0.0
 10
-11.07333
 20
-2.41788
 30
0.0
 10
-11.07333
 20
-2.41788
 30
0.0
 10
-11.07333
 20
-2.41788
 30
0.0
 10
-11.58621
 20
-1.85206
 30
0.0
 10
-11.58621
 20
-1.85206
 30
0.0
 10
-11.58621
 20
-1.85206
 30
0.0
 10
-11.58621
 20
-1.85206
 30
0.0
 10
-12.08606
 20
-2.41788
 30
0.0
 10
-12.08606
 20
-2.41788
 30
0.0
  0
SPLINE
  5
70
330
1F
100
AcDbEntity
  8
Layer 1
 62
    15
100
AcDbSpline
210
0.0
220
0.0
230
1.0
 70
    11
 71
     3
 72
    16
 73
    12
 74
     0
 42
0.0000000001
 43
0.0000000001
 12
1.0
 22
0.0
 32
0.0
 13
1.0
 23
0.0
 33
0.0
 40
0.0
 40
0.0
 40
0.0
 40
0.0
 40
0.25
 40
0.25
 40
0.25
 40
0.25
 40
0.5
 40
0.5
 40
0.5
 40
0.5
 40
1.0
 40
1.0
 40
1.0
 40
1.0
 10
-10.54545
 20
-2.41788
 30
0.0
 10
-10.54545
 20
-2.41788
 30
0.0
 10
-9.52156
 20
-2.41788
 30
0.0
 10
-9.52156
 20
-2.41788
 30
0.0
 10
-9.52156
 20
-2.41788
 30
0.0
 10
-9.52156
 20
-2.41788
 30
0.0
 10
-10.04009
 20
-1.84582
 30
0.0
 10
-10.04009
 20
-1.84582
 30
0.0
 10
-10.04009
 20
-1.84582
 30
0.0
 10
-10.04009
 20
-1.84582
 30
0.0
 10
-10.54545
 20
-2.41788
 30
0.0
 10
-10.54545
 20
-2.41788
 30
0.0
  0
SPLINE
  5
71
330
1F
100
AcDbEntity
  8
Layer 1
 62
    15
100
AcDbSpline
210
0.0
220
0.0
230
1.0
 70
    11
 71
     3
 72
    16
 73
    12
 74
     0
 42
0.0000000001
 43
0.0000000001
 12
1.0
 22
0.0
 32
0.0
 13
1.0
 23
0.0
 33
0.0
 40
0.0
 40
0.0
 40
0.0
 40
0.0
 40
0.25
 40
0.25
 40
0.25
 40
0.25
 40
0.5
 40
0.5
 40
0.5
 40
0.5
 40
1.0
 40
1.0
 40
1.0
 40
1.0
 10
-9.00481
 20
-2.41788
 30
0.0
 10
-9.00481
 20
-2.41788
 30
0.0
 10
-7.96167
 20
-2.41788
 30
0.0
 10
-7.96167
 20
-2.41788
 30
0.0
 10
-7.96167
 20
-2.41788
 30
0.0
 10
-7.96167
 20
-2.41788
 30
0.0
 10
-8.48995
 20
-1.83506
 30
0.0
 10
-8.48995
 20
-1.83506
 30
0.0
 10
-8.48995
 20
-1.83506
 30
0.0
 10
-8.48995
 20
-1.83506
 30
0.0
 10
-9.00481
 20
-2.41788
 30
0.0
 10
-9.00481
 20
-2.41788
 30
0.0
  0
SPLINE
  5
72
330
1F
100
AcDbEntity
  8
Layer 1
 62
    15
100
AcDbSpline
210
0.0
220
0.0
230
1.0
 70
    11
 71
     3
 72
    16
 73
    12
 74
     0
 42
0.0000000001
 43
0.0000000001
 12
1.0
 22
0.0
 32
0.0
 13
1.0
 23
0.0
 33
0.0
 40
0.0
 40
0.0
 40
0.0
 40
0.0
 40
0.25
 40
0.25
 40
0.25
 40
0.25
 40
0.5
 40
0.5
 40
0.5
 40
0.5
 40
1.0
 40
1.0
 40
1.0
 40
1.0
 10
-7.46195
 20
-2.41788
 30
0.0
 10
-7.46195
 20
-2.41788
 30
0.0
 10
-6.40171
 20
-2.41788
 30
0.0
 10
-6.40171
 20
-2.41788
 30
0.0
 10
-6.40171
 20
-2.41788
 30
0.0
 10
-6.40171
 20
-2.41788
 30
0.0
 10
-6.94227
 20
-1.82151
 30
0.0
 10
-6.94227
 20
-1.82151
 30
0.0
 10
-6.94227
 20
-1.82151
 30
0.0
 10
-6.94227
 20
-1.82151
 30
0.0
 10
-7.46195
 20
-2.41788
 30
0.0
 10
-7.46195
 20
-2.41788
 30
0.0
  0
SPLINE
  5
73
330
1F
100
AcDbEntity
  8
Layer 1
 62
    15
100
AcDbSpline
210
0.0
220
0.0
230
1.0
 70
    11
 71
     3
 72
    24
 73
    20
 74
     0
 42
0.0000000001
 43
0.0000000001
 12
1.0
 22
0.0
 32
0.0
 13
1.0
 23
0.0
 33
0.0
 40
0.0
 40
0.0
 40
0.0
 40
0.0
 40
0.1666666666666667
 40
0.1666666666666667
 40
0.1666666666666667
 40
0.1666666666666667
 40
0.3333333333333333
 40
0.3333333333333333
 40
0.3333333333333333
 40
0.3333333333333333
 40
0.5
 40
0.5
 40
0.5
 40
0.5
 40
0.6666666666666666
 40
0.6666666666666666
 40
0.6666666666666666
 40
0.6666666666666666
 40
1.0
 40
1.0
 40
1.0
 40
1.0
 10
-6.05073
 20
-2.41788
 30
0.0
 10
-6.05073
 20
-2.41788
 30
0.0
 10
-5.4532
 20
-2.41788
 30
0.0
 10
-5.4532
 20
-2.41788
 30
0.0
 10
-5.4532
 20
-2.41788
 30
0.0
 10
-5.4532
 20
-2.41788
 30
0.0
 10
-5.4532
 20
-1.74327
 30
0.0
 10
-5.4532
 20
-1.74327
 30
0.0
 10
-5.4532
 20
-1.74327
 30
0.0
 10
-5.4532
 20
-1.74327
 30
0.0
 10
-6.17764
 20
-0.94405
 30
0.0
 10
-6.17764
 20
-0.94405
 30
0.0
 10
-6.17764
 20
-0.94405
 30
0.0
 10
-6.17764
 20
-0.94405
 30
0.0
 10
-6.77023
 20
-1.62409
 30
0.0
 10
-6.77023
 20
-1.62409
 30
0.0
 10
-6.77023
 20
-1.62409
 30
0.0
 10
-6.77023
 20
-1.62409
 30
0.0
 10
-6.05073
 20
-2.41788
 30
0.0
 10
-6.05073
 20
-2.41788
 30
0.0
  0
SPLINE
  5
74
330
1F
100
AcDbEntity
  8
Layer 1
 62
    15
100
AcDbSpline
210
0.0
220
0.0
230
1.0
 70
    11
 71
     3
 72
    16
 73
    12
 74
     0
 42
0.0000000001
 43
0.0000000001
 12
1.0
 22
0.0
 32
0.0
 13
1.0
 23
0.0
 33
0.0
 40
0.0
 40
0.0
 40
0.0
 40
0.0
 40
0.25
 40
0.25
 40
0.25
 40
0.25
 40
0.5
 40
0.5
 40
0.5
 40
0.5
 40
1.0
 40
1.0
 40
1.0
 40
1.0
 10
-5.08641
 20
-2.41788
 30
0.0
 10
-5.08641
 20
-2.41788
 30
0.0
 10
-4.62709
 20
-2.41788
 30
0.0
 10
-4.62709
 20
-2.41788
 30
0.0
 10
-4.62709
 20
-2.41788
 30
0.0
 10
-4.62709
 20
-2.41788
 30
0.0
 10
-5.08641
 20
-1.91113
 30
0.0
 10
-5.08641
 20
-1.91113
 30
0.0
 10
-5.08641
 20
-1.91113
 30
0.0
 10
-5.08641
 20
-1.91113
 30
0.0
 10
-5.08641
 20
-2.41788
 30
0.0
 10
-5.08641
 20
-2.41788
 30
0.0
  0
SPLINE
  5
75
330
1F
100
AcDbEntity
  8
Layer 1
 62
    15
100
AcDbSpline
210
0.0
220
0.0
230
1.0
 70
    11
 71
     3
 72
    16
 73
    12
 74
     0
 42
0.0000000001
 43
0.0000000001
 12
1.0
 22
0.0
 32
0.0
 13
1.0
 23
0.0
 33
0.0
 40
0.0
 40
0.0
 40
0.0
 40
0.0
 40
0.25
 40
0.25
 40
0.25
 40
0.25
 40
0.5
 40
0.5
 40
0.5
 40
0.5
 40
1.0
 40
1.0
 40
1.0
 40
1.0
 10
-4.1904
 20
-2.41788
 30
0.0
 10
-4.1904
 20
-2.41788
 30
0.0
 10
-3.13209
 20
-2.41788
 30
0.0
 10
-3.13209
 20
-2.41788
 30
0.0
 10
-3.13209
 20
-2.41788
 30
0.0
 10
-3.13209
 20
-2.41788
 30
0.0
 10
-3.66806
 20
-1.82658
 30
0.0
 10
-3.66806
 20
-1.82658
 30
0.0
 10
-3.66806
 20
-1.82658
 30
0.0
 10
-3.66806
 20
-1.82658
 30
0.0
 10
-4.1904
 20
-2.41788
 30
0.0
 10
-4.1904
 20
-2.41788
 30
0.0
  0
SPLINE
  5
76
330
1F
100
AcDbEntity
  8
Layer 1
 62
    15
100
AcDbSpline
210
0.0
220
0.0
230
1.0
 70
    11
 71
     3
 72
    16
 73
    12
 74
     0
 42
0.0000000001
 43
0.0000000001
 12
1.0
 22
0.0
 32
0.0
 13
1.0
 23
0.0
 33
0.0
 40
0.0
 40
0.0
 40
0.0
 40
0.0
 40
0.25
 40
0.25
 40
0.25
 40
0.25
 40
0.5
 40
0.5
 40
0.5
 40
0.5
 40
1.0
 40
1.0
 40
1.0
 40
1.0
 10
-2.64989
 20
-2.41788
 30
0.0
 10
-2.64989
 20
-2.41788
 30
0.0
 10
-1.63716
 20
-2.41788
 30
0.0
 10
-1.63716
 20
-2.41788
 30
0.0
 10
-1.63716
 20
-2.41788
 30
0.0
 10
-1.63716
 20
-2.41788
 30
0.0
 10
-2.15005
 20
-1.85206
 30
0.0
 10
-2.15005
 20
-1.85206
 30
0.0
 10
-2.15005
 20
-1.85206
 30
0.0
 10
-2.15005
 20
-1.85206
 30
0.0
 10
-2.64989
 20
-2.41788
 30
0.0
 10
-2.64989
 20
-2.41788
 30
0.0
  0
SPLINE
  5
77
330
1F
100
AcDbEntity
  8
Layer 1
 62
    15
100
AcDbSpline
210
0.0
220
0.0
230
1.0
 70
    11
 71
     3
 72
    16
 73
    12
 74
     0
 42
0.0000000001
 43
0.0000000001
 12
1.0
 22
0.0
 32
0.0
 13
1.0
 23
0.0
 33
0.0
 40
0.0
 40
0.0
 40
0.0
 40
0.0
 40
0.25
 40
0.25
 40
0.25
 40
0.25
 40
0.5
 40
0.5
 40
0.5
 40
0.5
 40
1.0
 40
1.0
 40
1.0
 40
1.0
 10
-1.10928
 20
-2.41788
 30
0.0
 10
-1.10928
 20
-2.41788
 30
0.0
 10
-0.08539
 20
-2.41788
 30
0.0
 10
-0.08539
 20
-2.41788
 30
0.0
 10
-0.08539
 20
-2.41788
 30
0.0
 10
-0.08539
 20
-2.41788
 30
0.0
 10
-0.60392
 20
-1.84582
 30
0.0
 10
-0.60392
 20
-1.84582
 30
0.0
 10
-0.60392
 20
-1.84582
 30
0.0
 10
-0.60392
 20
-1.84582
 30
0.0
 10
-1.10928
 20
-2.41788
 30
0.0
 10
-1.10928
 20
-2.41788
 30
0.0
  0
SPLINE
  5
78
330
1F
100
AcDbEntity
  8
Layer 1
 62
    15
100
AcDbSpline
210
0.0
220
0.0
230
1.0
 70
    11
 71
     3
 72
    16
 73
    12
 74
     0
 42
0.0000000001
 43
0.0000000001
 12
1.0
 22
0.0
 32
0.0
 13
1.0
 23
0.0
 33
0.0
 40
0.0
 40
0.0
 40
0.0
 40
0.0
 40
0.25
 40
0.25
 40
0.25
 40
0.25
 40
0.5
 40
0.5
 40
0.5
 40
0.5
 40
1.0
 40
1.0
 40
1.0
 40
1.0
 10
0.43136
 20
-2.41788
 30
0.0
 10
0.43136
 20
-2.41788
 30
0.0
 10
1.47451
 20
-2.41788
 30
0.0
 10
1.47451
 20
-2.41788
 30
0.0
 10
1.47451
 20
-2.41788
 30
0.0
 10
1.47451
 20
-2.41788
 30
0.0
 10
0.94622
 20
-1.83506
 30
0.0
 10
0.94622
 20
-1.83506
 30
0.0
 10
0.94622
 20
-1.83506
 30
0.0
 10
0.94622
 20
-1.83506
 30
0.0
 10
0.43136
 20
-2.41788
 30
0.0
 10
0.43136
 20
-2.41788
 30
0.0
  0
SPLINE
  5
79
330
1F
100
AcDbEntity
  8
Layer 1
 62
    15
100
AcDbSpline
210
0.0
220
0.0
230
1.0
 70
    11
 71
     3
 72
    16
 73
    12
 74
     0
 42
0.0000000001
 43
0.0000000001
 12
1.0
 22
0.0
 32
0.0
 13
1.0
 23
0.0
 33
0.0
 40
0.0
 40
0.0
 40
0.0
 40
0.0
 40
0.25
 40
0.25
 40
0.25
 40
0.25
 40
0.5
 40
0.5
 40
0.5
 40
0.5
 40
1.0
 40
1.0
 40
1.0
 40
1.0
 10
1.90961
 20
-2.41788
 30
0.0
 10
1.90961
 20
-2.41788
 30
0.0
 10
3.03445
 20
-2.41788
 30
0.0
 10
3.03445
 20
-2.41788
 30
0.0
 10
3.03445
 20
-2.41788
 30
0.0
 10
3.03445
 20
-2.41788
 30
0.0
 10
2.46096
 20
-1.78518
 30
0.0
 10
2.46096
 20
-1.78518
 30
0.0
 10
2.46096
 20
-1.78518
 30
0.0
 10
2.46096
 20
-1.78518
 30
0.0
 10
1.90961
 20
-2.41788
 30
0.0
 10
1.90961
 20
-2.41788
 30
0.0
  0
SPLINE
  5
7A
330
1F
100
AcDbEntity
  8
Layer 1
 62
    15
100
AcDbSpline
210
0.0
220
0.0
230
1.0
 70
    11
 71
     3
 72
    24
 73
    20
 74
     0
 42
0.0000000001
 43
0.0000000001
 12
1.0
 22
0.0
 32
0.0
 13
1.0
 23
0.0
 33
0.0
 40
0.0
 40
0.0
 40
0.0
 40
0.0
 40
0.1666666666666667
 40
0.1666666666666667
 40
0.1666666666666667
 40
0.1666666666666667
 40
0.3333333333333333
 40
0.3333333333333333
 40
0.3333333333333333
 40
0.3333333333333333
 40
0.5
 40
0.5
 40
0.5
 40
0.5
 40
0.6666666666666666
 40
0.6666666666666666
 40
0.6666666666666666
 40
0.6666666666666666
 40
1.0
 40
1.0
 40
1.0
 40
1.0
 10
3.38544
 20
-2.41788
 30
0.0
 10
3.38544
 20
-2.41788
 30
0.0
 10
3.95515
 20
-2.41788
 30
0.0
 10
3.95515
 20
-2.41788
 30
0.0
 10
3.95515
 20
-2.41788
 30
0.0
 10
3.95515
 20
-2.41788
 30
0.0
 10
3.95515
 20
-1.71258
 30
0.0
 10
3.95515
 20
-1.71258
 30
0.0
 10
3.95515
 20
-1.71258
 30
0.0
 10
3.95515
 20
-1.71258
 30
0.0
 10
3.2256
 20
-0.90772
 30
0.0
 10
3.2256
 20
-0.90772
 30
0.0
 10
3.2256
 20
-0.90772
 30
0.0
 10
3.2256
 20
-0.90772
 30
0.0
 10
2.633
 20
-1.58775
 30
0.0
 10
2.633
 20
-1.58775
 30
0.0
 10
2.633
 20
-1.58775
 30
0.0
 10
2.633
 20
-1.58775
 30
0.0
 10
3.38544
 20
-2.41788
 30
0.0
 10
3.38544
 20
-2.41788
 30
0.0
  0
SPLINE
  5
7B
330
1F
100
AcDbEntity
  8
Layer 1
 62
    15
100
AcDbSpline
210
0.0
220
0.0
230
1.0
 70
    11
 71
     3
 72
    16
 73
    12
 74
     0
 42
0.0000000001
 43
0.0000000001
 12
1.0
 22
0.0
 32
0.0
 13
1.0
 23
0.0
 33
0.0
 40
0.0
 40
0.0
 40
0.0
 40
0.0
 40
0.25
 40
0.25
 40
0.25
 40
0.25
 40
0.5
 40
0.5
 40
0.5
 40
0.5
 40
1.0
 40
1.0
 40
1.0
 40
1.0
 10
4.32194
 20
-2.41788
 30
0.0
 10
4.32194
 20
-2.41788
 30
0.0
 10
4.74489
 20
-2.41788
 30
0.0
 10
4.74489
 20
-2.41788
 30
0.0
 10
4.74489
 20
-2.41788
 30
0.0
 10
4.74489
 20
-2.41788
 30
0.0
 10
4.32194
 20
-1.95127
 30
0.0
 10
4.32194
 20
-1.95127
 30
0.0
 10
4.32194
 20
-1.95127
 30
0.0
 10
4.32194
 20
-1.95127
 30
0.0
 10
4.32194
 20
-2.41788
 30
0.0
 10
4.32194
 20
-2.41788
 30
0.0
  0
SPLINE
  5
7C
330
1F
100
AcDbEntity
  8
Layer 1
 62
    15
100
AcDbSpline
210
0.0
220
0.0
230
1.0
 70
    11
 71
     3
 72
    16
 73
    12
 74
     0
 42
0.0000000001
 43
0.0000000001
 12
1.0
 22
0.0
 32
0.0
 13
1.0
 23
0.0
 33
0.0
 40
0.0
 40
0.0
 40
0.0
 40
0.0
 40
0.25
 40
0.25
 40
0.25
 40
0.25
 40
0.5
 40
0.5
 40
0.5
 40
0.5
 40
1.0
 40
1.0
 40
1.0
 40
1.0
 10
5.18157
 20
-2.41788
 30
0.0
 10
5.18157
 20
-2.41788
 30
0.0
 10
6.23989
 20
-2.41788
 30
0.0
 10
6.23989
 20
-2.41788
 30
0.0
 10
6.23989
 20
-2.41788
 30
0.0
 10
6.23989
 20
-2.41788
 30
0.0
 10
5.70392
 20
-1.82658
 30
0.0
 10
5.70392
 20
-1.82658
 30
0.0
 10
5.70392
 20
-1.82658
 30
0.0
 10
5.70392
 20
-1.82658
 30
0.0
 10
5.18157
 20
-2.41788
 30
0.0
 10
5.18157
 20
-2.41788
 30
0.0
  0
SPLINE
  5
7D
330
1F
100
AcDbEntity
  8
Layer 1
 62
    15
100
AcDbSpline
210
0.0
220
0.0
230
1.0
 70
    11
 71
     3
 72
    16
 73
    12
 74
     0
 42
0.0000000001
 43
0.0000000001
 12
1.0
 22
0.0
 32
0.0
 13
1.0
 23
0.0
 33
0.0
 40
0.0
 40
0.0
 40
0.0
 40
0.0
 40
0.25
 40
0.25
 40
0.25
 40
0.25
 40
0.5
 40
0.5
 40
0.5
 40
0.5
 40
1.0
 40
1.0
 40
1.0
 40
1.0
 10
6.72209
 20
-2.41788
 30
0.0
 10
6.72209
 20
-2.41788
 30
0.0
 10
7.73481
 20
-2.41788
 30
0.0
 10
7.73481
 20
-2.41788
 30
0.0
 10
7.73481
 20
-2.41788
 30
0.0
 10
7.73481
 20
-2.41788
 30
0.0
 10
7.22193
 20
-1.85206
 30
0.0
 10
7.22193
 20
-1.85206
 30
0.0
 10
7.22193
 20
-1.85206
 30
0.0
 10
7.22193
 20
-1.85206
 30
0.0
 10
6.72209
 20
-2.41788
 30
0.0
 10
6.72209
 20
-2.41788
 30
0.0
  0
SPLINE
  5
7E
330
1F
100
AcDbEntity
  8
Layer 1
 62
    15
100
AcDbSpline
210
0.0
220
0.0
230
1.0
 70
    11
 71
     3
 72
    16
 73
    12
 74
     0
 42
0.0000000001
 43
0.0000000001
 12
1.0
 22
0.0
 32
0.0
 13
1.0
 23
0.0
 33
0.0
 40
0.0
 40
0.0
 40
0.0
 40
0.0
 40
0.25
 40
0.25
 40
0.25
 40
0.25
 40
0.5
 40
0.5
 40
0.5
 40
0.5
 40
1.0
 40
1.0
 40
1.0
 40
1.0
 10
8.2627
 20
-2.41788
 30
0.0
 10
8.2627
 20
-2.41788
 30
0.0
 10
9.28659
 20
-2.41788
 30
0.0
 10
9.28659
 20
-2.41788
 30
0.0
 10
9.28659
 20
-2.41788
 30
0.0
 10
9.28659
 20
-2.41788
 30
0.0
 10
8.76805
 20
-1.84582
 30
0.0
 10
8.76805
 20
-1.84582
 30
0.0
 10
8.76805
 20
-1.84582
 30
0.0
 10
8.76805
 20
-1.84582
 30
0.0
 10
8.2627
 20
-2.41788
 30
0.0
 10
8.2627
 20
-2.41788
 30
0.0
  0
SPLINE
  5
7F
330
1F
100
AcDbEntity
  8
Layer 1
 62
    15
100
AcDbSpline
210
0.0
220
0.0
230
1.0
 70
    11
 71
     3
 72
    16
 73
    12
 74
     0
 42
0.0000000001
 43
0.0000000001
 12
1.0
 22
0.0
 32
0.0
 13
1.0
 23
0.0
 33
0.0
 40
0.0
 40
0.0
 40
0.0
 40
0.0
 40
0.25
 40
0.25
 40
0.25
 40
0.25
 40
0.5
 40
0.5
 40
0.5
 40
0.5
 40
1.0
 40
1.0
 40
1.0
 40
1.0
 10
9.80334
 20
-2.41788
 30
0.0
 10
9.80334
 20
-2.41788
 30
0.0
 10
10.84648
 20
-2.41788
 30
0.0
 10
10.84648
 20
-2.41788
 30
0.0
 10
10.84648
 20
-2.41788
 30
0.0
 10
10.84648
 20
-2.41788
 30
0.0
 10
10.31819
 20
-1.83506
 30
0.0
 10
10.31819
 20
-1.83506
 30
0.0
 10
10.31819
 20
-1.83506
 30
0.0
 10
10.31819
 20
-1.83506
 30
0.0
 10
9.80334
 20
-2.41788
 30
0.0
 10
9.80334
 20
-2.41788
 30
0.0
  0
SPLINE
  5
80
330
1F
100
AcDbEntity
  8
Layer 1
 62
    15
100
AcDbSpline
210
0.0
220
0.0
230
1.0
 70
    11
 71
     3
 72
    16
 73
    12
 74
     0
 42
0.0000000001
 43
0.0000000001
 12
1.0
 22
0.0
 32
0.0
 13
1.0
 23
0.0
 33
0.0
 40
0.0
 40
0.0
 40
0.0
 40
0.0
 40
0.25
 40
0.25
 40
0.25
 40
0.25
 40
0.5
 40
0.5
 40
0.5
 40
0.5
 40
1.0
 40
1.0
 40
1.0
 40
1.0
 10
11.28118
 20
-2.41788
 30
0.0
 10
11.28118
 20
-2.41788
 30
0.0
 10
12.40643
 20
-2.41788
 30
0.0
 10
12.40643
 20
-2.41788
 30
0.0
 10
12.40643
 20
-2.41788
 30
0.0
 10
12.40643
 20
-2.41788
 30
0.0
 10
11.83272
 20
-1.78495
 30
0.0
 10
11.83272
 20
-1.78495
 30
0.0
 10
11.83272
 20
-1.78495
 30
0.0
 10
11.83272
 20
-1.78495
 30
0.0
 10
11.28118
 20
-2.41788
 30
0.0
 10
11.28118
 20
-2.41788
 30
0.0
  0
SPLINE
  5
81
330
1F
100
AcDbEntity
  8
Layer 1
 62
    15
100
AcDbSpline
210
0.0
220
0.0
230
1.0
 70
    11
 71
     3
 72
    24
 73
    20
 74
     0
 42
0.0000000001
 43
0.0000000001
 12
1.0
 22
0.0
 32
0.0
 13
1.0
 23
0.0
 33
0.0
 40
0.0
 40
0.0
 40
0.0
 40
0.0
 40
0.1666666666666667
 40
0.1666666666666667
 40
0.1666666666666667
 40
0.1666666666666667
 40
0.3333333333333333
 40
0.3333333333333333
 40
0.3333333333333333
 40
0.3333333333333333
 40
0.5
 40
0.5
 40
0.5
 40
0.5
 40
0.6666666666666666
 40
0.6666666666666666
 40
0.6666666666666666
 40
0.6666666666666666
 40
1.0
 40
1.0
 40
1.0
 40
1.0
 10
12.75742
 20
-2.41788
 30
0.0
 10
12.75742
 20
-2.41788
 30
0.0
 10
13.36481
 20
-2.41788
 30
0.0
 10
13.36481
 20
-2.41788
 30
0.0
 10
13.36481
 20
-2.41788
 30
0.0
 10
13.36481
 20
-2.41788
 30
0.0
 10
13.36481
 20
-1.75416
 30
0.0
 10
13.36481
 20
-1.75416
 30
0.0
 10
13.36481
 20
-1.75416
 30
0.0
 10
13.36481
 20
-1.75416
 30
0.0
 10
12.59737
 20
-0.90748
 30
0.0
 10
12.59737
 20
-0.90748
 30
0.0
 10
12.59737
 20
-0.90748
 30
0.0
 10
12.59737
 20
-0.90748
 30
0.0
 10
12.00477
 20
-1.58753
 30
0.0
 10
12.00477
 20
-1.58753
 30
0.0
 10
12.00477
 20
-1.58753
 30
0.0
 10
12.00477
 20
-1.58753
 30
0.0
 10
12.75742
 20
-2.41788
 30
0.0
 10
12.75742
 20
-2.41788
 30
0.0
  0
SPLINE
  5
82
330
1F
100
AcDbEntity
  8
Layer 1
 62
    15
100
AcDbSpline
210
0.0
220
0.0
230
1.0
 70
    11
 71
     3
 72
    20
 73
    16
 74
     0
 42
0.0000000001
 43
0.0000000001
 12
1.0
 22
0.0
 32
0.0
 13
1.0
 23
0.0
 33
0.0
 40
0.0
 40
0.0
 40
0.0
 40
0.0
 40
0.2
 40
0.2
 40
0.2
 40
0.2
 40
0.4
 40
0.4
 40
0.4
 40
0.4
 40
0.6
 40
0.6
 40
0.6
 40
0.6
 40
1.0
 40
1.0
 40
1.0
 40
1.0
 10
12.4386
 20
-0.73232
 30
0.0
 10
12.4386
 20
-0.73232
 30
0.0
 10
11.85811
 20
-0.09192
 30
0.0
 10
11.85811
 20
-0.09192
 30
0.0
 10
11.85811
 20
-0.09192
 30
0.0
 10
11.85811
 20
-0.09192
 30
0.0
 10
11.26138
 20
-0.7674
 30
0.0
 10
11.26138
 20
-0.7674
 30
0.0
 10
11.26138
 20
-0.7674
 30
0.0
 10
11.26138
 20
-0.7674
 30
0.0
 10
11.846
 20
-1.41236
 30
0.0
 10
11.846
 20
-1.41236
 30
0.0
 10
11.846
 20
-1.41236
 30
0.0
 10
11.846
 20
-1.41236
 30
0.0
 10
12.4386
 20
-0.73232
 30
0.0
 10
12.4386
 20
-0.73232
 30
0.0
  0
SPLINE
  5
83
330
1F
100
AcDbEntity
  8
Layer 1
 62
    15
100
AcDbSpline
210
0.0
220
0.0
230
1.0
 70
    11
 71
     3
 72
    20
 73
    16
 74
     0
 42
0.0000000001
 43
0.0000000001
 12
1.0
 22
0.0
 32
0.0
 13
1.0
 23
0.0
 33
0.0
 40
0.0
 40
0.0
 40
0.0
 40
0.0
 40
0.2
 40
0.2
 40
0.2
 40
0.2
 40
0.4
 40
0.4
 40
0.4
 40
0.4
 40
0.6
 40
0.6
 40
0.6
 40
0.6
 40
1.0
 40
1.0
 40
1.0
 40
1.0
 10
11.67397
 20
-1.60979
 30
0.0
 10
11.67397
 20
-1.60979
 30
0.0
 10
11.08814
 20
-0.9635
 30
0.0
 10
11.08814
 20
-0.9635
 30
0.0
 10
11.08814
 20
-0.9635
 30
0.0
 10
11.08814
 20
-0.9635
 30
0.0
 10
10.49143
 20
-1.63897
 30
0.0
 10
10.49143
 20
-1.63897
 30
0.0
 10
10.49143
 20
-1.63897
 30
0.0
 10
10.49143
 20
-1.63897
 30
0.0
 10
11.08139
 20
-2.28982
 30
0.0
 10
11.08139
 20
-2.28982
 30
0.0
 10
11.08139
 20
-2.28982
 30
0.0
 10
11.08139
 20
-2.28982
 30
0.0
 10
11.67397
 20
-1.60979
 30
0.0
 10
11.67397
 20
-1.60979
 30
0.0
  0
SPLINE
  5
84
330
1F
100
AcDbEntity
  8
Layer 1
 62
    15
100
AcDbSpline
210
0.0
220
0.0
230
1.0
 70
    11
 71
     3
 72
    20
 73
    16
 74
     0
 42
0.0000000001
 43
0.0000000001
 12
1.0
 22
0.0
 32
0.0
 13
1.0
 23
0.0
 33
0.0
 40
0.0
 40
0.0
 40
0.0
 40
0.0
 40
0.2
 40
0.2
 40
0.2
 40
0.2
 40
0.4
 40
0.4
 40
0.4
 40
0.4
 40
0.6
 40
0.6
 40
0.6
 40
0.6
 40
1.0
 40
1.0
 40
1.0
 40
1.0
 10
13.27762
 20
-0.12684
 30
0.0
 10
13.27762
 20
-0.12684
 30
0.0
 10
12.7694
 20
-0.71006
 30
0.0
 10
12.7694
 20
-0.71006
 30
0.0
 10
12.7694
 20
-0.71006
 30
0.0
 10
12.7694
 20
-0.71006
 30
0.0
 10
13.36481
 20
-1.36694
 30
0.0
 10
13.36481
 20
-1.36694
 30
0.0
 10
13.36481
 20
-1.36694
 30
0.0
 10
13.36481
 20
-1.36694
 30
0.0
 10
13.36481
 20
-0.22303
 30
0.0
 10
13.36481
 20
-0.22303
 30
0.0
 10
13.36481
 20
-0.22303
 30
0.0
 10
13.36481
 20
-0.22303
 30
0.0
 10
13.27762
 20
-0.12684
 30
0.0
 10
13.27762
 20
-0.12684
 30
0.0
  0
SPLINE
  5
85
330
1F
100
AcDbEntity
  8
Layer 1
 62
    15
100
AcDbSpline
210
0.0
220
0.0
230
1.0
 70
    11
 71
     3
 72
    20
 73
    16
 74
     0
 42
0.0000000001
 43
0.0000000001
 12
1.0
 22
0.0
 32
0.0
 13
1.0
 23
0.0
 33
0.0
 40
0.0
 40
0.0
 40
0.0
 40
0.0
 40
0.2
 40
0.2
 40
0.2
 40
0.2
 40
0.4
 40
0.4
 40
0.4
 40
0.4
 40
0.6
 40
0.6
 40
0.6
 40
0.6
 40
1.0
 40
1.0
 40
1.0
 40
1.0
 10
12.61063
 20
-0.53491
 30
0.0
 10
12.61063
 20
-0.53491
 30
0.0
 10
13.11886
 20
0.04831
 30
0.0
 10
13.11886
 20
0.04831
 30
0.0
 10
13.11886
 20
0.04831
 30
0.0
 10
13.11886
 20
0.04831
 30
0.0
 10
12.54311
 20
0.68349
 30
0.0
 10
12.54311
 20
0.68349
 30
0.0
 10
12.54311
 20
0.68349
 30
0.0
 10
12.54311
 20
0.68349
 30
0.0
 10
12.03134
 20
0.10418
 30
0.0
 10
12.03134
 20
0.10418
 30
0.0
 10
12.03134
 20
0.10418
 30
0.0
 10
12.03134
 20
0.10418
 30
0.0
 10
12.61063
 20
-0.53491
 30
0.0
 10
12.61063
 20
-0.53491
 30
0.0
  0
SPLINE
  5
86
330
1F
100
AcDbEntity
  8
Layer 1
 62
    15
100
AcDbSpline
210
0.0
220
0.0
230
1.0
 70
    11
 71
     3
 72
    20
 73
    16
 74
     0
 42
0.0000000001
 43
0.0000000001
 12
1.0
 22
0.0
 32
0.0
 13
1.0
 23
0.0
 33
0.0
 40
0.0
 40
0.0
 40
0.0
 40
0.0
 40
0.2
 40
0.2
 40
0.2
 40
0.2
 40
0.4
 40
0.4
 40
0.4
 40
0.4
 40
0.6
 40
0.6
 40
0.6
 40
0.6
 40
1.0
 40
1.0
 40
1.0
 40
1.0
 10
3.06682
 20
-0.73257
 30
0.0
 10
3.06682
 20
-0.73257
 30
0.0
 10
2.48613
 20
-0.09192
 30
0.0
 10
2.48613
 20
-0.09192
 30
0.0
 10
2.48613
 20
-0.09192
 30
0.0
 10
2.48613
 20
-0.09192
 30
0.0
 10
1.88941
 20
-0.7674
 30
0.0
 10
1.88941
 20
-0.7674
 30
0.0
 10
1.88941
 20
-0.7674
 30
0.0
 10
1.88941
 20
-0.7674
 30
0.0
 10
2.47424
 20
-1.41261
 30
0.0
 10
2.47424
 20
-1.41261
 30
0.0
 10
2.47424
 20
-1.41261
 30
0.0
 10
2.47424
 20
-1.41261
 30
0.0
 10
3.06682
 20
-0.73257
 30
0.0
 10
3.06682
 20
-0.73257
 30
0.0
  0
SPLINE
  5
87
330
1F
100
AcDbEntity
  8
Layer 1
 62
    15
100
AcDbSpline
210
0.0
220
0.0
230
1.0
 70
    11
 71
     3
 72
    20
 73
    16
 74
     0
 42
0.0000000001
 43
0.0000000001
 12
1.0
 22
0.0
 32
0.0
 13
1.0
 23
0.0
 33
0.0
 40
0.0
 40
0.0
 40
0.0
 40
0.0
 40
0.2
 40
0.2
 40
0.2
 40
0.2
 40
0.4
 40
0.4
 40
0.4
 40
0.4
 40
0.6
 40
0.6
 40
0.6
 40
0.6
 40
1.0
 40
1.0
 40
1.0
 40
1.0
 10
2.3022
 20
-1.61003
 30
0.0
 10
2.3022
 20
-1.61003
 30
0.0
 10
1.71617
 20
-0.9635
 30
0.0
 10
1.71617
 20
-0.9635
 30
0.0
 10
1.71617
 20
-0.9635
 30
0.0
 10
1.71617
 20
-0.9635
 30
0.0
 10
1.11946
 20
-1.63897
 30
0.0
 10
1.11946
 20
-1.63897
 30
0.0
 10
1.11946
 20
-1.63897
 30
0.0
 10
1.11946
 20
-1.63897
 30
0.0
 10
1.70962
 20
-2.29005
 30
0.0
 10
1.70962
 20
-2.29005
 30
0.0
 10
1.70962
 20
-2.29005
 30
0.0
 10
1.70962
 20
-2.29005
 30
0.0
 10
2.3022
 20
-1.61003
 30
0.0
 10
2.3022
 20
-1.61003
 30
0.0
  0
SPLINE
  5
88
330
1F
100
AcDbEntity
  8
Layer 1
 62
    15
100
AcDbSpline
210
0.0
220
0.0
230
1.0
 70
    11
 71
     3
 72
    20
 73
    16
 74
     0
 42
0.0000000001
 43
0.0000000001
 12
1.0
 22
0.0
 32
0.0
 13
1.0
 23
0.0
 33
0.0
 40
0.0
 40
0.0
 40
0.0
 40
0.0
 40
0.2
 40
0.2
 40
0.2
 40
0.2
 40
0.4
 40
0.4
 40
0.4
 40
0.4
 40
0.6
 40
0.6
 40
0.6
 40
0.6
 40
1.0
 40
1.0
 40
1.0
 40
1.0
 10
3.90586
 20
-0.12707
 30
0.0
 10
3.90586
 20
-0.12707
 30
0.0
 10
3.39763
 20
-0.71029
 30
0.0
 10
3.39763
 20
-0.71029
 30
0.0
 10
3.39763
 20
-0.71029
 30
0.0
 10
3.39763
 20
-0.71029
 30
0.0
 10
3.95515
 20
-1.32538
 30
0.0
 10
3.95515
 20
-1.32538
 30
0.0
 10
3.95515
 20
-1.32538
 30
0.0
 10
3.95515
 20
-1.32538
 30
0.0
 10
3.95515
 20
-0.18145
 30
0.0
 10
3.95515
 20
-0.18145
 30
0.0
 10
3.95515
 20
-0.18145
 30
0.0
 10
3.95515
 20
-0.18145
 30
0.0
 10
3.90586
 20
-0.12707
 30
0.0
 10
3.90586
 20
-0.12707
 30
0.0
  0
SPLINE
  5
89
330
1F
100
AcDbEntity
  8
Layer 1
 62
    15
100
AcDbSpline
210
0.0
220
0.0
230
1.0
 70
    11
 71
     3
 72
    20
 73
    16
 74
     0
 42
0.0000000001
 43
0.0000000001
 12
1.0
 22
0.0
 32
0.0
 13
1.0
 23
0.0
 33
0.0
 40
0.0
 40
0.0
 40
0.0
 40
0.0
 40
0.2
 40
0.2
 40
0.2
 40
0.2
 40
0.4
 40
0.4
 40
0.4
 40
0.4
 40
0.6
 40
0.6
 40
0.6
 40
0.6
 40
1.0
 40
1.0
 40
1.0
 40
1.0
 10
3.23886
 20
-0.53514
 30
0.0
 10
3.23886
 20
-0.53514
 30
0.0
 10
3.74708
 20
0.04808
 30
0.0
 10
3.74708
 20
0.04808
 30
0.0
 10
3.74708
 20
0.04808
 30
0.0
 10
3.74708
 20
0.04808
 30
0.0
 10
3.17114
 20
0.68349
 30
0.0
 10
3.17114
 20
0.68349
 30
0.0
 10
3.17114
 20
0.68349
 30
0.0
 10
3.17114
 20
0.68349
 30
0.0
 10
2.65937
 20
0.10418
 30
0.0
 10
2.65937
 20
0.10418
 30
0.0
 10
2.65937
 20
0.10418
 30
0.0
 10
2.65937
 20
0.10418
 30
0.0
 10
3.23886
 20
-0.53514
 30
0.0
 10
3.23886
 20
-0.53514
 30
0.0
  0
SPLINE
  5
8A
330
1F
100
AcDbEntity
  8
Layer 1
 62
    15
100
AcDbSpline
210
0.0
220
0.0
230
1.0
 70
    11
 71
     3
 72
    20
 73
    16
 74
     0
 42
0.0000000001
 43
0.0000000001
 12
1.0
 22
0.0
 32
0.0
 13
1.0
 23
0.0
 33
0.0
 40
0.0
 40
0.0
 40
0.0
 40
0.0
 40
0.2
 40
0.2
 40
0.2
 40
0.2
 40
0.4
 40
0.4
 40
0.4
 40
0.4
 40
0.6
 40
0.6
 40
0.6
 40
0.6
 40
1.0
 40
1.0
 40
1.0
 40
1.0
 10
-6.3364
 20
-0.7689
 30
0.0
 10
-6.3364
 20
-0.7689
 30
0.0
 10
-6.95004
 20
-0.09192
 30
0.0
 10
-6.95004
 20
-0.09192
 30
0.0
 10
-6.95004
 20
-0.09192
 30
0.0
 10
-6.95004
 20
-0.09192
 30
0.0
 10
-7.54677
 20
-0.7674
 30
0.0
 10
-7.54677
 20
-0.7674
 30
0.0
 10
-7.54677
 20
-0.7674
 30
0.0
 10
-7.54677
 20
-0.7674
 30
0.0
 10
-6.929
 20
-1.44894
 30
0.0
 10
-6.929
 20
-1.44894
 30
0.0
 10
-6.929
 20
-1.44894
 30
0.0
 10
-6.929
 20
-1.44894
 30
0.0
 10
-6.3364
 20
-0.7689
 30
0.0
 10
-6.3364
 20
-0.7689
 30
0.0
  0
SPLINE
  5
8B
330
1F
100
AcDbEntity
  8
Layer 1
 62
    15
100
AcDbSpline
210
0.0
220
0.0
230
1.0
 70
    11
 71
     3
 72
    20
 73
    16
 74
     0
 42
0.0000000001
 43
0.0000000001
 12
1.0
 22
0.0
 32
0.0
 13
1.0
 23
0.0
 33
0.0
 40
0.0
 40
0.0
 40
0.0
 40
0.0
 40
0.2
 40
0.2
 40
0.2
 40
0.2
 40
0.4
 40
0.4
 40
0.4
 40
0.4
 40
0.6
 40
0.6
 40
0.6
 40
0.6
 40
1.0
 40
1.0
 40
1.0
 40
1.0
 10
-7.10103
 20
-1.64637
 30
0.0
 10
-7.10103
 20
-1.64637
 30
0.0
 10
-7.72001
 20
-0.9635
 30
0.0
 10
-7.72001
 20
-0.9635
 30
0.0
 10
-7.72001
 20
-0.9635
 30
0.0
 10
-7.72001
 20
-0.9635
 30
0.0
 10
-8.31672
 20
-1.63897
 30
0.0
 10
-8.31672
 20
-1.63897
 30
0.0
 10
-8.31672
 20
-1.63897
 30
0.0
 10
-8.31672
 20
-1.63897
 30
0.0
 10
-7.69362
 20
-2.32639
 30
0.0
 10
-7.69362
 20
-2.32639
 30
0.0
 10
-7.69362
 20
-2.32639
 30
0.0
 10
-7.69362
 20
-2.32639
 30
0.0
 10
-7.10103
 20
-1.64637
 30
0.0
 10
-7.10103
 20
-1.64637
 30
0.0
  0
SPLINE
  5
8C
330
1F
100
AcDbEntity
  8
Layer 1
 62
    15
100
AcDbSpline
210
0.0
220
0.0
230
1.0
 70
    11
 71
     3
 72
    20
 73
    16
 74
     0
 42
0.0000000001
 43
0.0000000001
 12
1.0
 22
0.0
 32
0.0
 13
1.0
 23
0.0
 33
0.0
 40
0.0
 40
0.0
 40
0.0
 40
0.0
 40
0.2
 40
0.2
 40
0.2
 40
0.2
 40
0.4
 40
0.4
 40
0.4
 40
0.4
 40
0.6
 40
0.6
 40
0.6
 40
0.6
 40
1.0
 40
1.0
 40
1.0
 40
1.0
 10
-5.49737
 20
-0.16341
 30
0.0
 10
-5.49737
 20
-0.16341
 30
0.0
 10
-6.00561
 20
-0.74664
 30
0.0
 10
-6.00561
 20
-0.74664
 30
0.0
 10
-6.00561
 20
-0.74664
 30
0.0
 10
-6.00561
 20
-0.74664
 30
0.0
 10
-5.4532
 20
-1.35606
 30
0.0
 10
-5.4532
 20
-1.35606
 30
0.0
 10
-5.4532
 20
-1.35606
 30
0.0
 10
-5.4532
 20
-1.35606
 30
0.0
 10
-5.4532
 20
-0.21214
 30
0.0
 10
-5.4532
 20
-0.21214
 30
0.0
 10
-5.4532
 20
-0.21214
 30
0.0
 10
-5.4532
 20
-0.21214
 30
0.0
 10
-5.49737
 20
-0.16341
 30
0.0
 10
-5.49737
 20
-0.16341
 30
0.0
  0
SPLINE
  5
8D
330
1F
100
AcDbEntity
  8
Layer 1
 62
    15
100
AcDbSpline
210
0.0
220
0.0
230
1.0
 70
    11
 71
     3
 72
    20
 73
    16
 74
     0
 42
0.0000000001
 43
0.0000000001
 12
1.0
 22
0.0
 32
0.0
 13
1.0
 23
0.0
 33
0.0
 40
0.0
 40
0.0
 40
0.0
 40
0.0
 40
0.2
 40
0.2
 40
0.2
 40
0.2
 40
0.4
 40
0.4
 40
0.4
 40
0.4
 40
0.6
 40
0.6
 40
0.6
 40
0.6
 40
1.0
 40
1.0
 40
1.0
 40
1.0
 10
-6.16437
 20
-0.57148
 30
0.0
 10
-6.16437
 20
-0.57148
 30
0.0
 10
-5.65614
 20
0.01174
 30
0.0
 10
-5.65614
 20
0.01174
 30
0.0
 10
-5.65614
 20
0.01174
 30
0.0
 10
-5.65614
 20
0.01174
 30
0.0
 10
-6.26504
 20
0.68349
 30
0.0
 10
-6.26504
 20
0.68349
 30
0.0
 10
-6.26504
 20
0.68349
 30
0.0
 10
-6.26504
 20
0.68349
 30
0.0
 10
-6.77681
 20
0.10418
 30
0.0
 10
-6.77681
 20
0.10418
 30
0.0
 10
-6.77681
 20
0.10418
 30
0.0
 10
-6.77681
 20
0.10418
 30
0.0
 10
-6.16437
 20
-0.57148
 30
0.0
 10
-6.16437
 20
-0.57148
 30
0.0
  0
SPLINE
  5
8E
330
1F
100
AcDbEntity
  8
Layer 1
 62
    15
100
AcDbSpline
210
0.0
220
0.0
230
1.0
 70
    11
 71
     3
 72
    20
 73
    16
 74
     0
 42
0.0000000001
 43
0.0000000001
 12
1.0
 22
0.0
 32
0.0
 13
1.0
 23
0.0
 33
0.0
 40
0.0
 40
0.0
 40
0.0
 40
0.0
 40
0.2
 40
0.2
 40
0.2
 40
0.2
 40
0.4
 40
0.4
 40
0.4
 40
0.4
 40
0.6
 40
0.6
 40
0.6
 40
0.6
 40
1.0
 40
1.0
 40
1.0
 40
1.0
 10
3.95515
 20
0.20577
 30
0.0
 10
3.95515
 20
0.20577
 30
0.0
 10
3.95515
 20
1.46786
 30
0.0
 10
3.95515
 20
1.46786
 30
0.0
 10
3.95515
 20
1.46786
 30
0.0
 10
3.95515
 20
1.46786
 30
0.0
 10
3.90901
 20
1.51876
 30
0.0
 10
3.90901
 20
1.51876
 30
0.0
 10
3.90901
 20
1.51876
 30
0.0
 10
3.90901
 20
1.51876
 30
0.0
 10
3.34437
 20
0.8796
 30
0.0
 10
3.34437
 20
0.8796
 30
0.0
 10
3.34437
 20
0.8796
 30
0.0
 10
3.34437
 20
0.8796
 30
0.0
 10
3.95515
 20
0.20577
 30
0.0
 10
3.95515
 20
0.20577
 30
0.0
  0
SPLINE
  5
8F
330
1F
100
AcDbEntity
  8
Layer 1
 62
    15
100
AcDbSpline
210
0.0
220
0.0
230
1.0
 70
    11
 71
     3
 72
    20
 73
    16
 74
     0
 42
0.0000000001
 43
0.0000000001
 12
1.0
 22
0.0
 32
0.0
 13
1.0
 23
0.0
 33
0.0
 40
0.0
 40
0.0
 40
0.0
 40
0.0
 40
0.2
 40
0.2
 40
0.2
 40
0.2
 40
0.4
 40
0.4
 40
0.4
 40
0.4
 40
0.6
 40
0.6
 40
0.6
 40
0.6
 40
1.0
 40
1.0
 40
1.0
 40
1.0
 10
3.95515
 20
1.96338
 30
0.0
 10
3.95515
 20
1.96338
 30
0.0
 10
3.95515
 20
3.31496
 30
0.0
 10
3.95515
 20
3.31496
 30
0.0
 10
3.95515
 20
3.31496
 30
0.0
 10
3.95515
 20
3.31496
 30
0.0
 10
3.30203
 20
2.57565
 30
0.0
 10
3.30203
 20
2.57565
 30
0.0
 10
3.30203
 20
2.57565
 30
0.0
 10
3.30203
 20
2.57565
 30
0.0
 10
3.90672
 20
1.90855
 30
0.0
 10
3.90672
 20
1.90855
 30
0.0
 10
3.90672
 20
1.90855
 30
0.0
 10
3.90672
 20
1.90855
 30
0.0
 10
3.95515
 20
1.96338
 30
0.0
 10
3.95515
 20
1.96338
 30
0.0
  0
SPLINE
  5
90
330
1F
100
AcDbEntity
  8
Layer 1
 62
    15
100
AcDbSpline
210
0.0
220
0.0
230
1.0
 70
    11
 71
     3
 72
    16
 73
    12
 74
     0
 42
0.0000000001
 43
0.0000000001
 12
1.0
 22
0.0
 32
0.0
 13
1.0
 23
0.0
 33
0.0
 40
0.0
 40
0.0
 40
0.0
 40
0.0
 40
0.25
 40
0.25
 40
0.25
 40
0.25
 40
0.5
 40
0.5
 40
0.5
 40
0.5
 40
1.0
 40
1.0
 40
1.0
 40
1.0
 10
-5.08641
 20
-1.30499
 30
0.0
 10
-5.08641
 20
-1.30499
 30
0.0
 10
-4.61971
 20
-0.77668
 30
0.0
 10
-4.61971
 20
-0.77668
 30
0.0
 10
-4.61971
 20
-0.77668
 30
0.0
 10
-4.61971
 20
-0.77668
 30
0.0
 10
-5.08641
 20
-0.26181
 30
0.0
 10
-5.08641
 20
-0.26181
 30
0.0
 10
-5.08641
 20
-0.26181
 30
0.0
 10
-5.08641
 20
-0.26181
 30
0.0
 10
-5.08641
 20
-1.30499
 30
0.0
 10
-5.08641
 20
-1.30499
 30
0.0
  0
SPLINE
  5
91
330
1F
100
AcDbEntity
  8
Layer 1
 62
    15
100
AcDbSpline
210
0.0
220
0.0
230
1.0
 70
    11
 71
     3
 72
    16
 73
    12
 74
     0
 42
0.0000000001
 43
0.0000000001
 12
1.0
 22
0.0
 32
0.0
 13
1.0
 23
0.0
 33
0.0
 40
0.0
 40
0.0
 40
0.0
 40
0.0
 40
0.25
 40
0.25
 40
0.25
 40
0.25
 40
0.5
 40
0.5
 40
0.5
 40
0.5
 40
1.0
 40
1.0
 40
1.0
 40
1.0
 10
-5.08641
 20
0.36625
 30
0.0
 10
-5.08641
 20
0.36625
 30
0.0
 10
-4.62955
 20
0.88341
 30
0.0
 10
-4.62955
 20
0.88341
 30
0.0
 10
-4.62955
 20
0.88341
 30
0.0
 10
-4.62955
 20
0.88341
 30
0.0
 10
-5.08641
 20
1.38744
 30
0.0
 10
-5.08641
 20
1.38744
 30
0.0
 10
-5.08641
 20
1.38744
 30
0.0
 10
-5.08641
 20
1.38744
 30
0.0
 10
-5.08641
 20
0.36625
 30
0.0
 10
-5.08641
 20
0.36625
 30
0.0
  0
SPLINE
  5
92
330
1F
100
AcDbEntity
  8
Layer 1
 62
    15
100
AcDbSpline
210
0.0
220
0.0
230
1.0
 70
    11
 71
     3
 72
    16
 73
    12
 74
     0
 42
0.0000000001
 43
0.0000000001
 12
1.0
 22
0.0
 32
0.0
 13
1.0
 23
0.0
 33
0.0
 40
0.0
 40
0.0
 40
0.0
 40
0.0
 40
0.25
 40
0.25
 40
0.25
 40
0.25
 40
0.5
 40
0.5
 40
0.5
 40
0.5
 40
1.0
 40
1.0
 40
1.0
 40
1.0
 10
-5.08641
 20
2.03758
 30
0.0
 10
-5.08641
 20
2.03758
 30
0.0
 10
-4.61137
 20
2.57533
 30
0.0
 10
-4.61137
 20
2.57533
 30
0.0
 10
-4.61137
 20
2.57533
 30
0.0
 10
-4.61137
 20
2.57533
 30
0.0
 10
-5.08641
 20
3.0994
 30
0.0
 10
-5.08641
 20
3.0994
 30
0.0
 10
-5.08641
 20
3.0994
 30
0.0
 10
-5.08641
 20
3.0994
 30
0.0
 10
-5.08641
 20
2.03758
 30
0.0
 10
-5.08641
 20
2.03758
 30
0.0
  0
SPLINE
  5
93
330
1F
100
AcDbEntity
  8
Layer 1
 62
    15
100
AcDbSpline
210
0.0
220
0.0
230
1.0
 70
    11
 71
     3
 72
    20
 73
    16
 74
     0
 42
0.0000000001
 43
0.0000000001
 12
1.0
 22
0.0
 32
0.0
 13
1.0
 23
0.0
 33
0.0
 40
0.0
 40
0.0
 40
0.0
 40
0.0
 40
0.2
 40
0.2
 40
0.2
 40
0.2
 40
0.4
 40
0.4
 40
0.4
 40
0.4
 40
0.6
 40
0.6
 40
0.6
 40
0.6
 40
1.0
 40
1.0
 40
1.0
 40
1.0
 10
2.31057
 20
0.10176
 30
0.0
 10
2.31057
 20
0.10176
 30
0.0
 10
1.7059
 20
0.76885
 30
0.0
 10
1.7059
 20
0.76885
 30
0.0
 10
1.7059
 20
0.76885
 30
0.0
 10
1.7059
 20
0.76885
 30
0.0
 10
1.10918
 20
0.09337
 30
0.0
 10
1.10918
 20
0.09337
 30
0.0
 10
1.10918
 20
0.09337
 30
0.0
 10
1.10918
 20
0.09337
 30
0.0
 10
1.71385
 20
-0.57372
 30
0.0
 10
1.71385
 20
-0.57372
 30
0.0
 10
1.71385
 20
-0.57372
 30
0.0
 10
1.71385
 20
-0.57372
 30
0.0
 10
2.31057
 20
0.10176
 30
0.0
 10
2.31057
 20
0.10176
 30
0.0
  0
SPLINE
  5
94
330
1F
100
AcDbEntity
  8
Layer 1
 62
    15
100
AcDbSpline
210
0.0
220
0.0
230
1.0
 70
    11
 71
     3
 72
    20
 73
    16
 74
     0
 42
0.0000000001
 43
0.0000000001
 12
1.0
 22
0.0
 32
0.0
 13
1.0
 23
0.0
 33
0.0
 40
0.0
 40
0.0
 40
0.0
 40
0.0
 40
0.2
 40
0.2
 40
0.2
 40
0.2
 40
0.4
 40
0.4
 40
0.4
 40
0.4
 40
0.6
 40
0.6
 40
0.6
 40
0.6
 40
1.0
 40
1.0
 40
1.0
 40
1.0
 10
1.53034
 20
0.96252
 30
0.0
 10
1.53034
 20
0.96252
 30
0.0
 10
0.92569
 20
1.62961
 30
0.0
 10
0.92569
 20
1.62961
 30
0.0
 10
0.92569
 20
1.62961
 30
0.0
 10
0.92569
 20
1.62961
 30
0.0
 10
0.32896
 20
0.95414
 30
0.0
 10
0.32896
 20
0.95414
 30
0.0
 10
0.32896
 20
0.95414
 30
0.0
 10
0.32896
 20
0.95414
 30
0.0
 10
0.93363
 20
0.28705
 30
0.0
 10
0.93363
 20
0.28705
 30
0.0
 10
0.93363
 20
0.28705
 30
0.0
 10
0.93363
 20
0.28705
 30
0.0
 10
1.53034
 20
0.96252
 30
0.0
 10
1.53034
 20
0.96252
 30
0.0
  0
SPLINE
  5
95
330
1F
100
AcDbEntity
  8
Layer 1
 62
    15
100
AcDbSpline
210
0.0
220
0.0
230
1.0
 70
    11
 71
     3
 72
    20
 73
    16
 74
     0
 42
0.0000000001
 43
0.0000000001
 12
1.0
 22
0.0
 32
0.0
 13
1.0
 23
0.0
 33
0.0
 40
0.0
 40
0.0
 40
0.0
 40
0.0
 40
0.2
 40
0.2
 40
0.2
 40
0.2
 40
0.4
 40
0.4
 40
0.4
 40
0.4
 40
0.6
 40
0.6
 40
0.6
 40
0.6
 40
1.0
 40
1.0
 40
1.0
 40
1.0
 10
0.75016
 20
1.82327
 30
0.0
 10
0.75016
 20
1.82327
 30
0.0
 10
0.14551
 20
2.49034
 30
0.0
 10
0.14551
 20
2.49034
 30
0.0
 10
0.14551
 20
2.49034
 30
0.0
 10
0.14551
 20
2.49034
 30
0.0
 10
-0.45122
 20
1.81485
 30
0.0
 10
-0.45122
 20
1.81485
 30
0.0
 10
-0.45122
 20
1.81485
 30
0.0
 10
-0.45122
 20
1.81485
 30
0.0
 10
0.15343
 20
1.1478
 30
0.0
 10
0.15343
 20
1.1478
 30
0.0
 10
0.15343
 20
1.1478
 30
0.0
 10
0.15343
 20
1.1478
 30
0.0
 10
0.75016
 20
1.82327
 30
0.0
 10
0.75016
 20
1.82327
 30
0.0
  0
SPLINE
  5
96
330
1F
100
AcDbEntity
  8
Layer 1
 62
    15
100
AcDbSpline
210
0.0
220
0.0
230
1.0
 70
    11
 71
     3
 72
    20
 73
    16
 74
     0
 42
0.0000000001
 43
0.0000000001
 12
1.0
 22
0.0
 32
0.0
 13
1.0
 23
0.0
 33
0.0
 40
0.0
 40
0.0
 40
0.0
 40
0.0
 40
0.2
 40
0.2
 40
0.2
 40
0.2
 40
0.4
 40
0.4
 40
0.4
 40
0.4
 40
0.6
 40
0.6
 40
0.6
 40
0.6
 40
1.0
 40
1.0
 40
1.0
 40
1.0
 10
-0.03003
 20
2.68398
 30
0.0
 10
-0.03003
 20
2.68398
 30
0.0
 10
-0.6306
 20
3.34656
 30
0.0
 10
-0.6306
 20
3.34656
 30
0.0
 10
-0.6306
 20
3.34656
 30
0.0
 10
-0.6306
 20
3.34656
 30
0.0
 10
-1.22732
 20
2.67107
 30
0.0
 10
-1.22732
 20
2.67107
 30
0.0
 10
-1.22732
 20
2.67107
 30
0.0
 10
-1.22732
 20
2.67107
 30
0.0
 10
-0.62675
 20
2.00851
 30
0.0
 10
-0.62675
 20
2.00851
 30
0.0
 10
-0.62675
 20
2.00851
 30
0.0
 10
-0.62675
 20
2.00851
 30
0.0
 10
-0.03003
 20
2.68398
 30
0.0
 10
-0.03003
 20
2.68398
 30
0.0
  0
SPLINE
  5
97
330
1F
100
AcDbEntity
  8
Layer 1
 62
    15
100
AcDbSpline
210
0.0
220
0.0
230
1.0
 70
    11
 71
     3
 72
    20
 73
    16
 74
     0
 42
0.0000000001
 43
0.0000000001
 12
1.0
 22
0.0
 32
0.0
 13
1.0
 23
0.0
 33
0.0
 40
0.0
 40
0.0
 40
0.0
 40
0.0
 40
0.2
 40
0.2
 40
0.2
 40
0.2
 40
0.4
 40
0.4
 40
0.4
 40
0.4
 40
0.6
 40
0.6
 40
0.6
 40
0.6
 40
1.0
 40
1.0
 40
1.0
 40
1.0
 10
-0.80615
 20
3.54023
 30
0.0
 10
-0.80615
 20
3.54023
 30
0.0
 10
-1.37827
 20
4.17143
 30
0.0
 10
-1.37827
 20
4.17143
 30
0.0
 10
-1.37827
 20
4.17143
 30
0.0
 10
-1.37827
 20
4.17143
 30
0.0
 10
-1.975
 20
3.49595
 30
0.0
 10
-1.975
 20
3.49595
 30
0.0
 10
-1.975
 20
3.49595
 30
0.0
 10
-1.975
 20
3.49595
 30
0.0
 10
-1.40286
 20
2.86475
 30
0.0
 10
-1.40286
 20
2.86475
 30
0.0
 10
-1.40286
 20
2.86475
 30
0.0
 10
-1.40286
 20
2.86475
 30
0.0
 10
-0.80615
 20
3.54023
 30
0.0
 10
-0.80615
 20
3.54023
 30
0.0
  0
SPLINE
  5
98
330
1F
100
AcDbEntity
  8
Layer 1
 62
    15
100
AcDbSpline
210
0.0
220
0.0
230
1.0
 70
    11
 71
     3
 72
    20
 73
    16
 74
     0
 42
0.0000000001
 43
0.0000000001
 12
1.0
 22
0.0
 32
0.0
 13
1.0
 23
0.0
 33
0.0
 40
0.0
 40
0.0
 40
0.0
 40
0.0
 40
0.2
 40
0.2
 40
0.2
 40
0.2
 40
0.4
 40
0.4
 40
0.4
 40
0.4
 40
0.6
 40
0.6
 40
0.6
 40
0.6
 40
1.0
 40
1.0
 40
1.0
 40
1.0
 10
-0.45736
 20
3.54266
 30
0.0
 10
-0.45736
 20
3.54266
 30
0.0
 10
0.14321
 20
2.8801
 30
0.0
 10
0.14321
 20
2.8801
 30
0.0
 10
0.14321
 20
2.8801
 30
0.0
 10
0.14321
 20
2.8801
 30
0.0
 10
0.65498
 20
3.4594
 30
0.0
 10
0.65498
 20
3.4594
 30
0.0
 10
0.65498
 20
3.4594
 30
0.0
 10
0.65498
 20
3.4594
 30
0.0
 10
0.05441
 20
4.12197
 30
0.0
 10
0.05441
 20
4.12197
 30
0.0
 10
0.05441
 20
4.12197
 30
0.0
 10
0.05441
 20
4.12197
 30
0.0
 10
-0.45736
 20
3.54266
 30
0.0
 10
-0.45736
 20
3.54266
 30
0.0
  0
SPLINE
  5
99
330
1F
100
AcDbEntity
  8
Layer 1
 62
    15
100
AcDbSpline
210
0.0
220
0.0
230
1.0
 70
    11
 71
     3
 72
    20
 73
    16
 74
     0
 42
0.0000000001
 43
0.0000000001
 12
1.0
 22
0.0
 32
0.0
 13
1.0
 23
0.0
 33
0.0
 40
0.0
 40
0.0
 40
0.0
 40
0.0
 40
0.2
 40
0.2
 40
0.2
 40
0.2
 40
0.4
 40
0.4
 40
0.4
 40
0.4
 40
0.6
 40
0.6
 40
0.6
 40
0.6
 40
1.0
 40
1.0
 40
1.0
 40
1.0
 10
0.31874
 20
2.68644
 30
0.0
 10
0.31874
 20
2.68644
 30
0.0
 10
0.92339
 20
2.01937
 30
0.0
 10
0.92339
 20
2.01937
 30
0.0
 10
0.92339
 20
2.01937
 30
0.0
 10
0.92339
 20
2.01937
 30
0.0
 10
1.43516
 20
2.59868
 30
0.0
 10
1.43516
 20
2.59868
 30
0.0
 10
1.43516
 20
2.59868
 30
0.0
 10
1.43516
 20
2.59868
 30
0.0
 10
0.83051
 20
3.26575
 30
0.0
 10
0.83051
 20
3.26575
 30
0.0
 10
0.83051
 20
3.26575
 30
0.0
 10
0.83051
 20
3.26575
 30
0.0
 10
0.31874
 20
2.68644
 30
0.0
 10
0.31874
 20
2.68644
 30
0.0
  0
SPLINE
  5
9A
330
1F
100
AcDbEntity
  8
Layer 1
 62
    15
100
AcDbSpline
210
0.0
220
0.0
230
1.0
 70
    11
 71
     3
 72
    20
 73
    16
 74
     0
 42
0.0000000001
 43
0.0000000001
 12
1.0
 22
0.0
 32
0.0
 13
1.0
 23
0.0
 33
0.0
 40
0.0
 40
0.0
 40
0.0
 40
0.0
 40
0.2
 40
0.2
 40
0.2
 40
0.2
 40
0.4
 40
0.4
 40
0.4
 40
0.4
 40
0.6
 40
0.6
 40
0.6
 40
0.6
 40
1.0
 40
1.0
 40
1.0
 40
1.0
 10
1.09892
 20
1.82572
 30
0.0
 10
1.09892
 20
1.82572
 30
0.0
 10
1.70359
 20
1.15863
 30
0.0
 10
1.70359
 20
1.15863
 30
0.0
 10
1.70359
 20
1.15863
 30
0.0
 10
1.70359
 20
1.15863
 30
0.0
 10
2.21536
 20
1.73794
 30
0.0
 10
2.21536
 20
1.73794
 30
0.0
 10
2.21536
 20
1.73794
 30
0.0
 10
2.21536
 20
1.73794
 30
0.0
 10
1.61069
 20
2.40503
 30
0.0
 10
1.61069
 20
2.40503
 30
0.0
 10
1.61069
 20
2.40503
 30
0.0
 10
1.61069
 20
2.40503
 30
0.0
 10
1.09892
 20
1.82572
 30
0.0
 10
1.09892
 20
1.82572
 30
0.0
  0
SPLINE
  5
9B
330
1F
100
AcDbEntity
  8
Layer 1
 62
    15
100
AcDbSpline
210
0.0
220
0.0
230
1.0
 70
    11
 71
     3
 72
    20
 73
    16
 74
     0
 42
0.0000000001
 43
0.0000000001
 12
1.0
 22
0.0
 32
0.0
 13
1.0
 23
0.0
 33
0.0
 40
0.0
 40
0.0
 40
0.0
 40
0.0
 40
0.2
 40
0.2
 40
0.2
 40
0.2
 40
0.4
 40
0.4
 40
0.4
 40
0.4
 40
0.6
 40
0.6
 40
0.6
 40
0.6
 40
1.0
 40
1.0
 40
1.0
 40
1.0
 10
1.87913
 20
0.96496
 30
0.0
 10
1.87913
 20
0.96496
 30
0.0
 10
2.48381
 20
0.29785
 30
0.0
 10
2.48381
 20
0.29785
 30
0.0
 10
2.48381
 20
0.29785
 30
0.0
 10
2.48381
 20
0.29785
 30
0.0
 10
2.99558
 20
0.87717
 30
0.0
 10
2.99558
 20
0.87717
 30
0.0
 10
2.99558
 20
0.87717
 30
0.0
 10
2.99558
 20
0.87717
 30
0.0
 10
2.3909
 20
1.54427
 30
0.0
 10
2.3909
 20
1.54427
 30
0.0
 10
2.3909
 20
1.54427
 30
0.0
 10
2.3909
 20
1.54427
 30
0.0
 10
1.87913
 20
0.96496
 30
0.0
 10
1.87913
 20
0.96496
 30
0.0
  0
SPLINE
  5
9C
330
1F
100
AcDbEntity
  8
Layer 1
 62
    15
100
AcDbSpline
210
0.0
220
0.0
230
1.0
 70
    11
 71
     3
 72
    20
 73
    16
 74
     0
 42
0.0000000001
 43
0.0000000001
 12
1.0
 22
0.0
 32
0.0
 13
1.0
 23
0.0
 33
0.0
 40
0.0
 40
0.0
 40
0.0
 40
0.0
 40
0.2
 40
0.2
 40
0.2
 40
0.2
 40
0.4
 40
0.4
 40
0.4
 40
0.4
 40
0.6
 40
0.6
 40
0.6
 40
0.6
 40
1.0
 40
1.0
 40
1.0
 40
1.0
 10
1.56838
 20
4.10102
 30
0.0
 10
1.56838
 20
4.10102
 30
0.0
 10
1.00374
 20
3.46186
 30
0.0
 10
1.00374
 20
3.46186
 30
0.0
 10
1.00374
 20
3.46186
 30
0.0
 10
1.00374
 20
3.46186
 30
0.0
 10
1.6084
 20
2.79479
 30
0.0
 10
1.6084
 20
2.79479
 30
0.0
 10
1.6084
 20
2.79479
 30
0.0
 10
1.6084
 20
2.79479
 30
0.0
 10
2.17303
 20
3.43395
 30
0.0
 10
2.17303
 20
3.43395
 30
0.0
 10
2.17303
 20
3.43395
 30
0.0
 10
2.17303
 20
3.43395
 30
0.0
 10
1.56838
 20
4.10102
 30
0.0
 10
1.56838
 20
4.10102
 30
0.0
  0
SPLINE
  5
9D
330
1F
100
AcDbEntity
  8
Layer 1
 62
    15
100
AcDbSpline
210
0.0
220
0.0
230
1.0
 70
    11
 71
     3
 72
    20
 73
    16
 74
     0
 42
0.0000000001
 43
0.0000000001
 12
1.0
 22
0.0
 32
0.0
 13
1.0
 23
0.0
 33
0.0
 40
0.0
 40
0.0
 40
0.0
 40
0.0
 40
0.2
 40
0.2
 40
0.2
 40
0.2
 40
0.4
 40
0.4
 40
0.4
 40
0.4
 40
0.6
 40
0.6
 40
0.6
 40
0.6
 40
1.0
 40
1.0
 40
1.0
 40
1.0
 10
2.34856
 20
3.2403
 30
0.0
 10
2.34856
 20
3.2403
 30
0.0
 10
1.78393
 20
2.60113
 30
0.0
 10
1.78393
 20
2.60113
 30
0.0
 10
1.78393
 20
2.60113
 30
0.0
 10
1.78393
 20
2.60113
 30
0.0
 10
2.3886
 20
1.93405
 30
0.0
 10
2.3886
 20
1.93405
 30
0.0
 10
2.3886
 20
1.93405
 30
0.0
 10
2.3886
 20
1.93405
 30
0.0
 10
2.95323
 20
2.57322
 30
0.0
 10
2.95323
 20
2.57322
 30
0.0
 10
2.95323
 20
2.57322
 30
0.0
 10
2.95323
 20
2.57322
 30
0.0
 10
2.34856
 20
3.2403
 30
0.0
 10
2.34856
 20
3.2403
 30
0.0
  0
SPLINE
  5
9E
330
1F
100
AcDbEntity
  8
Layer 1
 62
    15
100
AcDbSpline
210
0.0
220
0.0
230
1.0
 70
    11
 71
     3
 72
    20
 73
    16
 74
     0
 42
0.0000000001
 43
0.0000000001
 12
1.0
 22
0.0
 32
0.0
 13
1.0
 23
0.0
 33
0.0
 40
0.0
 40
0.0
 40
0.0
 40
0.0
 40
0.2
 40
0.2
 40
0.2
 40
0.2
 40
0.4
 40
0.4
 40
0.4
 40
0.4
 40
0.6
 40
0.6
 40
0.6
 40
0.6
 40
1.0
 40
1.0
 40
1.0
 40
1.0
 10
3.12878
 20
2.37954
 30
0.0
 10
3.12878
 20
2.37954
 30
0.0
 10
2.56414
 20
1.74038
 30
0.0
 10
2.56414
 20
1.74038
 30
0.0
 10
2.56414
 20
1.74038
 30
0.0
 10
2.56414
 20
1.74038
 30
0.0
 10
3.16882
 20
1.07327
 30
0.0
 10
3.16882
 20
1.07327
 30
0.0
 10
3.16882
 20
1.07327
 30
0.0
 10
3.16882
 20
1.07327
 30
0.0
 10
3.73346
 20
1.71243
 30
0.0
 10
3.73346
 20
1.71243
 30
0.0
 10
3.73346
 20
1.71243
 30
0.0
 10
3.73346
 20
1.71243
 30
0.0
 10
3.12878
 20
2.37954
 30
0.0
 10
3.12878
 20
2.37954
 30
0.0
  0
SPLINE
  5
9F
330
1F
100
AcDbEntity
  8
Layer 1
 62
    15
100
AcDbSpline
210
0.0
220
0.0
230
1.0
 70
    11
 71
     3
 72
    20
 73
    16
 74
     0
 42
0.0000000001
 43
0.0000000001
 12
1.0
 22
0.0
 32
0.0
 13
1.0
 23
0.0
 33
0.0
 40
0.0
 40
0.0
 40
0.0
 40
0.0
 40
0.2
 40
0.2
 40
0.2
 40
0.2
 40
0.4
 40
0.4
 40
0.4
 40
0.4
 40
0.6
 40
0.6
 40
0.6
 40
0.6
 40
1.0
 40
1.0
 40
1.0
 40
1.0
 10
-2.89596
 20
4.12476
 30
0.0
 10
-2.89596
 20
4.12476
 30
0.0
 10
-3.49267
 20
3.44929
 30
0.0
 10
-3.49267
 20
3.44929
 30
0.0
 10
-3.49267
 20
3.44929
 30
0.0
 10
-3.49267
 20
3.44929
 30
0.0
 10
-2.92049
 20
2.81803
 30
0.0
 10
-2.92049
 20
2.81803
 30
0.0
 10
-2.92049
 20
2.81803
 30
0.0
 10
-2.92049
 20
2.81803
 30
0.0
 10
-2.32378
 20
3.49351
 30
0.0
 10
-2.32378
 20
3.49351
 30
0.0
 10
-2.32378
 20
3.49351
 30
0.0
 10
-2.32378
 20
3.49351
 30
0.0
 10
-2.89596
 20
4.12476
 30
0.0
 10
-2.89596
 20
4.12476
 30
0.0
  0
SPLINE
  5
A0
330
1F
100
AcDbEntity
  8
Layer 1
 62
    15
100
AcDbSpline
210
0.0
220
0.0
230
1.0
 70
    11
 71
     3
 72
    20
 73
    16
 74
     0
 42
0.0000000001
 43
0.0000000001
 12
1.0
 22
0.0
 32
0.0
 13
1.0
 23
0.0
 33
0.0
 40
0.0
 40
0.0
 40
0.0
 40
0.0
 40
0.2
 40
0.2
 40
0.2
 40
0.2
 40
0.4
 40
0.4
 40
0.4
 40
0.4
 40
0.6
 40
0.6
 40
0.6
 40
0.6
 40
1.0
 40
1.0
 40
1.0
 40
1.0
 10
-2.14823
 20
3.29983
 30
0.0
 10
-2.14823
 20
3.29983
 30
0.0
 10
-2.74494
 20
2.62437
 30
0.0
 10
-2.74494
 20
2.62437
 30
0.0
 10
-2.74494
 20
2.62437
 30
0.0
 10
-2.74494
 20
2.62437
 30
0.0
 10
-2.17281
 20
1.99317
 30
0.0
 10
-2.17281
 20
1.99317
 30
0.0
 10
-2.17281
 20
1.99317
 30
0.0
 10
-2.17281
 20
1.99317
 30
0.0
 10
-1.5761
 20
2.66864
 30
0.0
 10
-1.5761
 20
2.66864
 30
0.0
 10
-1.5761
 20
2.66864
 30
0.0
 10
-1.5761
 20
2.66864
 30
0.0
 10
-2.14823
 20
3.29983
 30
0.0
 10
-2.14823
 20
3.29983
 30
0.0
  0
SPLINE
  5
A1
330
1F
100
AcDbEntity
  8
Layer 1
 62
    15
100
AcDbSpline
210
0.0
220
0.0
230
1.0
 70
    11
 71
     3
 72
    20
 73
    16
 74
     0
 42
0.0000000001
 43
0.0000000001
 12
1.0
 22
0.0
 32
0.0
 13
1.0
 23
0.0
 33
0.0
 40
0.0
 40
0.0
 40
0.0
 40
0.0
 40
0.2
 40
0.2
 40
0.2
 40
0.2
 40
0.4
 40
0.4
 40
0.4
 40
0.4
 40
0.6
 40
0.6
 40
0.6
 40
0.6
 40
1.0
 40
1.0
 40
1.0
 40
1.0
 10
-1.40056
 20
2.47497
 30
0.0
 10
-1.40056
 20
2.47497
 30
0.0
 10
-1.99727
 20
1.7995
 30
0.0
 10
-1.99727
 20
1.7995
 30
0.0
 10
-1.99727
 20
1.7995
 30
0.0
 10
-1.99727
 20
1.7995
 30
0.0
 10
-1.3967
 20
1.13694
 30
0.0
 10
-1.3967
 20
1.13694
 30
0.0
 10
-1.3967
 20
1.13694
 30
0.0
 10
-1.3967
 20
1.13694
 30
0.0
 10
-0.79999
 20
1.81241
 30
0.0
 10
-0.79999
 20
1.81241
 30
0.0
 10
-0.79999
 20
1.81241
 30
0.0
 10
-0.79999
 20
1.81241
 30
0.0
 10
-1.40056
 20
2.47497
 30
0.0
 10
-1.40056
 20
2.47497
 30
0.0
  0
SPLINE
  5
A2
330
1F
100
AcDbEntity
  8
Layer 1
 62
    15
100
AcDbSpline
210
0.0
220
0.0
230
1.0
 70
    11
 71
     3
 72
    20
 73
    16
 74
     0
 42
0.0000000001
 43
0.0000000001
 12
1.0
 22
0.0
 32
0.0
 13
1.0
 23
0.0
 33
0.0
 40
0.0
 40
0.0
 40
0.0
 40
0.0
 40
0.2
 40
0.2
 40
0.2
 40
0.2
 40
0.4
 40
0.4
 40
0.4
 40
0.4
 40
0.6
 40
0.6
 40
0.6
 40
0.6
 40
1.0
 40
1.0
 40
1.0
 40
1.0
 10
-0.62444
 20
1.61875
 30
0.0
 10
-0.62444
 20
1.61875
 30
0.0
 10
-1.22117
 20
0.94328
 30
0.0
 10
-1.22117
 20
0.94328
 30
0.0
 10
-1.22117
 20
0.94328
 30
0.0
 10
-1.22117
 20
0.94328
 30
0.0
 10
-0.61652
 20
0.27622
 30
0.0
 10
-0.61652
 20
0.27622
 30
0.0
 10
-0.61652
 20
0.27622
 30
0.0
 10
-0.61652
 20
0.27622
 30
0.0
 10
-0.01981
 20
0.95168
 30
0.0
 10
-0.01981
 20
0.95168
 30
0.0
 10
-0.01981
 20
0.95168
 30
0.0
 10
-0.01981
 20
0.95168
 30
0.0
 10
-0.62444
 20
1.61875
 30
0.0
 10
-0.62444
 20
1.61875
 30
0.0
  0
SPLINE
  5
A3
330
1F
100
AcDbEntity
  8
Layer 1
 62
    15
100
AcDbSpline
210
0.0
220
0.0
230
1.0
 70
    11
 71
     3
 72
    20
 73
    16
 74
     0
 42
0.0000000001
 43
0.0000000001
 12
1.0
 22
0.0
 32
0.0
 13
1.0
 23
0.0
 33
0.0
 40
0.0
 40
0.0
 40
0.0
 40
0.0
 40
0.2
 40
0.2
 40
0.2
 40
0.2
 40
0.4
 40
0.4
 40
0.4
 40
0.4
 40
0.6
 40
0.6
 40
0.6
 40
0.6
 40
1.0
 40
1.0
 40
1.0
 40
1.0
 10
0.15572
 20
0.75805
 30
0.0
 10
0.15572
 20
0.75805
 30
0.0
 10
-0.44099
 20
0.08257
 30
0.0
 10
-0.44099
 20
0.08257
 30
0.0
 10
-0.44099
 20
0.08257
 30
0.0
 10
-0.44099
 20
0.08257
 30
0.0
 10
0.16368
 20
-0.58452
 30
0.0
 10
0.16368
 20
-0.58452
 30
0.0
 10
0.16368
 20
-0.58452
 30
0.0
 10
0.16368
 20
-0.58452
 30
0.0
 10
0.76039
 20
0.09095
 30
0.0
 10
0.76039
 20
0.09095
 30
0.0
 10
0.76039
 20
0.09095
 30
0.0
 10
0.76039
 20
0.09095
 30
0.0
 10
0.15572
 20
0.75805
 30
0.0
 10
0.15572
 20
0.75805
 30
0.0
  0
SPLINE
  5
A4
330
1F
100
AcDbEntity
  8
Layer 1
 62
    15
100
AcDbSpline
210
0.0
220
0.0
230
1.0
 70
    11
 71
     3
 72
    20
 73
    16
 74
     0
 42
0.0000000001
 43
0.0000000001
 12
1.0
 22
0.0
 32
0.0
 13
1.0
 23
0.0
 33
0.0
 40
0.0
 40
0.0
 40
0.0
 40
0.0
 40
0.2
 40
0.2
 40
0.2
 40
0.2
 40
0.4
 40
0.4
 40
0.4
 40
0.4
 40
0.6
 40
0.6
 40
0.6
 40
0.6
 40
1.0
 40
1.0
 40
1.0
 40
1.0
 10
0.93594
 20
-0.10272
 30
0.0
 10
0.93594
 20
-0.10272
 30
0.0
 10
0.33923
 20
-0.77819
 30
0.0
 10
0.33923
 20
-0.77819
 30
0.0
 10
0.33923
 20
-0.77819
 30
0.0
 10
0.33923
 20
-0.77819
 30
0.0
 10
0.9439
 20
-1.4453
 30
0.0
 10
0.9439
 20
-1.4453
 30
0.0
 10
0.9439
 20
-1.4453
 30
0.0
 10
0.9439
 20
-1.4453
 30
0.0
 10
1.54061
 20
-0.76983
 30
0.0
 10
1.54061
 20
-0.76983
 30
0.0
 10
1.54061
 20
-0.76983
 30
0.0
 10
1.54061
 20
-0.76983
 30
0.0
 10
0.93594
 20
-0.10272
 30
0.0
 10
0.93594
 20
-0.10272
 30
0.0
  0
SPLINE
  5
A5
330
1F
100
AcDbEntity
  8
Layer 1
 62
    15
100
AcDbSpline
210
0.0
220
0.0
230
1.0
 70
    11
 71
     3
 72
    20
 73
    16
 74
     0
 42
0.0000000001
 43
0.0000000001
 12
1.0
 22
0.0
 32
0.0
 13
1.0
 23
0.0
 33
0.0
 40
0.0
 40
0.0
 40
0.0
 40
0.0
 40
0.2
 40
0.2
 40
0.2
 40
0.2
 40
0.4
 40
0.4
 40
0.4
 40
0.4
 40
0.6
 40
0.6
 40
0.6
 40
0.6
 40
1.0
 40
1.0
 40
1.0
 40
1.0
 10
-3.66591
 20
3.2532
 30
0.0
 10
-3.66591
 20
3.2532
 30
0.0
 10
-4.2626
 20
2.57774
 30
0.0
 10
-4.2626
 20
2.57774
 30
0.0
 10
-4.2626
 20
2.57774
 30
0.0
 10
-4.2626
 20
2.57774
 30
0.0
 10
-3.69042
 20
1.9465
 30
0.0
 10
-3.69042
 20
1.9465
 30
0.0
 10
-3.69042
 20
1.9465
 30
0.0
 10
-3.69042
 20
1.9465
 30
0.0
 10
-3.09373
 20
2.62195
 30
0.0
 10
-3.09373
 20
2.62195
 30
0.0
 10
-3.09373
 20
2.62195
 30
0.0
 10
-3.09373
 20
2.62195
 30
0.0
 10
-3.66591
 20
3.2532
 30
0.0
 10
-3.66591
 20
3.2532
 30
0.0
  0
SPLINE
  5
A6
330
1F
100
AcDbEntity
  8
Layer 1
 62
    15
100
AcDbSpline
210
0.0
220
0.0
230
1.0
 70
    11
 71
     3
 72
    20
 73
    16
 74
     0
 42
0.0000000001
 43
0.0000000001
 12
1.0
 22
0.0
 32
0.0
 13
1.0
 23
0.0
 33
0.0
 40
0.0
 40
0.0
 40
0.0
 40
0.0
 40
0.2
 40
0.2
 40
0.2
 40
0.2
 40
0.4
 40
0.4
 40
0.4
 40
0.4
 40
0.6
 40
0.6
 40
0.6
 40
0.6
 40
1.0
 40
1.0
 40
1.0
 40
1.0
 10
-2.91818
 20
2.42827
 30
0.0
 10
-2.91818
 20
2.42827
 30
0.0
 10
-3.51487
 20
1.75283
 30
0.0
 10
-3.51487
 20
1.75283
 30
0.0
 10
-3.51487
 20
1.75283
 30
0.0
 10
-3.51487
 20
1.75283
 30
0.0
 10
-2.94274
 20
1.12163
 30
0.0
 10
-2.94274
 20
1.12163
 30
0.0
 10
-2.94274
 20
1.12163
 30
0.0
 10
-2.94274
 20
1.12163
 30
0.0
 10
-2.34605
 20
1.79707
 30
0.0
 10
-2.34605
 20
1.79707
 30
0.0
 10
-2.34605
 20
1.79707
 30
0.0
 10
-2.34605
 20
1.79707
 30
0.0
 10
-2.91818
 20
2.42827
 30
0.0
 10
-2.91818
 20
2.42827
 30
0.0
  0
SPLINE
  5
A7
330
1F
100
AcDbEntity
  8
Layer 1
 62
    15
100
AcDbSpline
210
0.0
220
0.0
230
1.0
 70
    11
 71
     3
 72
    20
 73
    16
 74
     0
 42
0.0000000001
 43
0.0000000001
 12
1.0
 22
0.0
 32
0.0
 13
1.0
 23
0.0
 33
0.0
 40
0.0
 40
0.0
 40
0.0
 40
0.0
 40
0.2
 40
0.2
 40
0.2
 40
0.2
 40
0.4
 40
0.4
 40
0.4
 40
0.4
 40
0.6
 40
0.6
 40
0.6
 40
0.6
 40
1.0
 40
1.0
 40
1.0
 40
1.0
 10
-2.1705
 20
1.6034
 30
0.0
 10
-2.1705
 20
1.6034
 30
0.0
 10
-2.76719
 20
0.92796
 30
0.0
 10
-2.76719
 20
0.92796
 30
0.0
 10
-2.76719
 20
0.92796
 30
0.0
 10
-2.76719
 20
0.92796
 30
0.0
 10
-2.16662
 20
0.2654
 30
0.0
 10
-2.16662
 20
0.2654
 30
0.0
 10
-2.16662
 20
0.2654
 30
0.0
 10
-2.16662
 20
0.2654
 30
0.0
 10
-1.56993
 20
0.94084
 30
0.0
 10
-1.56993
 20
0.94084
 30
0.0
 10
-1.56993
 20
0.94084
 30
0.0
 10
-1.56993
 20
0.94084
 30
0.0
 10
-2.1705
 20
1.6034
 30
0.0
 10
-2.1705
 20
1.6034
 30
0.0
  0
SPLINE
  5
A8
330
1F
100
AcDbEntity
  8
Layer 1
 62
    15
100
AcDbSpline
210
0.0
220
0.0
230
1.0
 70
    11
 71
     3
 72
    20
 73
    16
 74
     0
 42
0.0000000001
 43
0.0000000001
 12
1.0
 22
0.0
 32
0.0
 13
1.0
 23
0.0
 33
0.0
 40
0.0
 40
0.0
 40
0.0
 40
0.0
 40
0.2
 40
0.2
 40
0.2
 40
0.2
 40
0.4
 40
0.4
 40
0.4
 40
0.4
 40
0.6
 40
0.6
 40
0.6
 40
0.6
 40
1.0
 40
1.0
 40
1.0
 40
1.0
 10
-1.39439
 20
0.74718
 30
0.0
 10
-1.39439
 20
0.74718
 30
0.0
 10
-1.99108
 20
0.07174
 30
0.0
 10
-1.99108
 20
0.07174
 30
0.0
 10
-1.99108
 20
0.07174
 30
0.0
 10
-1.99108
 20
0.07174
 30
0.0
 10
-1.38644
 20
-0.59532
 30
0.0
 10
-1.38644
 20
-0.59532
 30
0.0
 10
-1.38644
 20
-0.59532
 30
0.0
 10
-1.38644
 20
-0.59532
 30
0.0
 10
-0.78976
 20
0.08012
 30
0.0
 10
-0.78976
 20
0.08012
 30
0.0
 10
-0.78976
 20
0.08012
 30
0.0
 10
-0.78976
 20
0.08012
 30
0.0
 10
-1.39439
 20
0.74718
 30
0.0
 10
-1.39439
 20
0.74718
 30
0.0
  0
SPLINE
  5
A9
330
1F
100
AcDbEntity
  8
Layer 1
 62
    15
100
AcDbSpline
210
0.0
220
0.0
230
1.0
 70
    11
 71
     3
 72
    20
 73
    16
 74
     0
 42
0.0000000001
 43
0.0000000001
 12
1.0
 22
0.0
 32
0.0
 13
1.0
 23
0.0
 33
0.0
 40
0.0
 40
0.0
 40
0.0
 40
0.0
 40
0.2
 40
0.2
 40
0.2
 40
0.2
 40
0.4
 40
0.4
 40
0.4
 40
0.4
 40
0.6
 40
0.6
 40
0.6
 40
0.6
 40
1.0
 40
1.0
 40
1.0
 40
1.0
 10
-0.61422
 20
-0.11353
 30
0.0
 10
-0.61422
 20
-0.11353
 30
0.0
 10
-1.21091
 20
-0.78897
 30
0.0
 10
-1.21091
 20
-0.78897
 30
0.0
 10
-1.21091
 20
-0.78897
 30
0.0
 10
-1.21091
 20
-0.78897
 30
0.0
 10
-0.60624
 20
-1.45606
 30
0.0
 10
-0.60624
 20
-1.45606
 30
0.0
 10
-0.60624
 20
-1.45606
 30
0.0
 10
-0.60624
 20
-1.45606
 30
0.0
 10
-0.00955
 20
-0.78062
 30
0.0
 10
-0.00955
 20
-0.78062
 30
0.0
 10
-0.00955
 20
-0.78062
 30
0.0
 10
-0.00955
 20
-0.78062
 30
0.0
 10
-0.61422
 20
-0.11353
 30
0.0
 10
-0.61422
 20
-0.11353
 30
0.0
  0
SPLINE
  5
AA
330
1F
100
AcDbEntity
  8
Layer 1
 62
    15
100
AcDbSpline
210
0.0
220
0.0
230
1.0
 70
    11
 71
     3
 72
    20
 73
    16
 74
     0
 42
0.0000000001
 43
0.0000000001
 12
1.0
 22
0.0
 32
0.0
 13
1.0
 23
0.0
 33
0.0
 40
0.0
 40
0.0
 40
0.0
 40
0.0
 40
0.2
 40
0.2
 40
0.2
 40
0.2
 40
0.4
 40
0.4
 40
0.4
 40
0.4
 40
0.6
 40
0.6
 40
0.6
 40
0.6
 40
1.0
 40
1.0
 40
1.0
 40
1.0
 10
0.16599
 20
-0.97429
 30
0.0
 10
0.16599
 20
-0.97429
 30
0.0
 10
-0.43069
 20
-1.64973
 30
0.0
 10
-0.43069
 20
-1.64973
 30
0.0
 10
-0.43069
 20
-1.64973
 30
0.0
 10
-0.43069
 20
-1.64973
 30
0.0
 10
0.17399
 20
-2.31683
 30
0.0
 10
0.17399
 20
-2.31683
 30
0.0
 10
0.17399
 20
-2.31683
 30
0.0
 10
0.17399
 20
-2.31683
 30
0.0
 10
0.77067
 20
-1.64139
 30
0.0
 10
0.77067
 20
-1.64139
 30
0.0
 10
0.77067
 20
-1.64139
 30
0.0
 10
0.77067
 20
-1.64139
 30
0.0
 10
0.16599
 20
-0.97429
 30
0.0
 10
0.16599
 20
-0.97429
 30
0.0
  0
SPLINE
  5
AB
330
1F
100
AcDbEntity
  8
Layer 1
 62
    15
100
AcDbSpline
210
0.0
220
0.0
230
1.0
 70
    11
 71
     3
 72
    20
 73
    16
 74
     0
 42
0.0000000001
 43
0.0000000001
 12
1.0
 22
0.0
 32
0.0
 13
1.0
 23
0.0
 33
0.0
 40
0.0
 40
0.0
 40
0.0
 40
0.0
 40
0.2
 40
0.2
 40
0.2
 40
0.2
 40
0.4
 40
0.4
 40
0.4
 40
0.4
 40
0.6
 40
0.6
 40
0.6
 40
0.6
 40
1.0
 40
1.0
 40
1.0
 40
1.0
 10
-4.43582
 20
2.38165
 30
0.0
 10
-4.43582
 20
2.38165
 30
0.0
 10
-5.02849
 20
1.71077
 30
0.0
 10
-5.02849
 20
1.71077
 30
0.0
 10
-5.02849
 20
1.71077
 30
0.0
 10
-5.02849
 20
1.71077
 30
0.0
 10
-4.45631
 20
1.07952
 30
0.0
 10
-4.45631
 20
1.07952
 30
0.0
 10
-4.45631
 20
1.07952
 30
0.0
 10
-4.45631
 20
1.07952
 30
0.0
 10
-3.86365
 20
1.7504
 30
0.0
 10
-3.86365
 20
1.7504
 30
0.0
 10
-3.86365
 20
1.7504
 30
0.0
 10
-3.86365
 20
1.7504
 30
0.0
 10
-4.43582
 20
2.38165
 30
0.0
 10
-4.43582
 20
2.38165
 30
0.0
  0
SPLINE
  5
AC
330
1F
100
AcDbEntity
  8
Layer 1
 62
    15
100
AcDbSpline
210
0.0
220
0.0
230
1.0
 70
    11
 71
     3
 72
    20
 73
    16
 74
     0
 42
0.0000000001
 43
0.0000000001
 12
1.0
 22
0.0
 32
0.0
 13
1.0
 23
0.0
 33
0.0
 40
0.0
 40
0.0
 40
0.0
 40
0.0
 40
0.2
 40
0.2
 40
0.2
 40
0.2
 40
0.4
 40
0.4
 40
0.4
 40
0.4
 40
0.6
 40
0.6
 40
0.6
 40
0.6
 40
1.0
 40
1.0
 40
1.0
 40
1.0
 10
-3.68809
 20
1.55672
 30
0.0
 10
-3.68809
 20
1.55672
 30
0.0
 10
-4.28076
 20
0.88585
 30
0.0
 10
-4.28076
 20
0.88585
 30
0.0
 10
-4.28076
 20
0.88585
 30
0.0
 10
-4.28076
 20
0.88585
 30
0.0
 10
-3.70862
 20
0.25466
 30
0.0
 10
-3.70862
 20
0.25466
 30
0.0
 10
-3.70862
 20
0.25466
 30
0.0
 10
-3.70862
 20
0.25466
 30
0.0
 10
-3.11597
 20
0.92554
 30
0.0
 10
-3.11597
 20
0.92554
 30
0.0
 10
-3.11597
 20
0.92554
 30
0.0
 10
-3.11597
 20
0.92554
 30
0.0
 10
-3.68809
 20
1.55672
 30
0.0
 10
-3.68809
 20
1.55672
 30
0.0
  0
SPLINE
  5
AD
330
1F
100
AcDbEntity
  8
Layer 1
 62
    15
100
AcDbSpline
210
0.0
220
0.0
230
1.0
 70
    11
 71
     3
 72
    20
 73
    16
 74
     0
 42
0.0000000001
 43
0.0000000001
 12
1.0
 22
0.0
 32
0.0
 13
1.0
 23
0.0
 33
0.0
 40
0.0
 40
0.0
 40
0.0
 40
0.0
 40
0.2
 40
0.2
 40
0.2
 40
0.2
 40
0.4
 40
0.4
 40
0.4
 40
0.4
 40
0.6
 40
0.6
 40
0.6
 40
0.6
 40
1.0
 40
1.0
 40
1.0
 40
1.0
 10
-2.94042
 20
0.73187
 30
0.0
 10
-2.94042
 20
0.73187
 30
0.0
 10
-3.53308
 20
0.06099
 30
0.0
 10
-3.53308
 20
0.06099
 30
0.0
 10
-3.53308
 20
0.06099
 30
0.0
 10
-3.53308
 20
0.06099
 30
0.0
 10
-2.93251
 20
-0.60157
 30
0.0
 10
-2.93251
 20
-0.60157
 30
0.0
 10
-2.93251
 20
-0.60157
 30
0.0
 10
-2.93251
 20
-0.60157
 30
0.0
 10
-2.33985
 20
0.06931
 30
0.0
 10
-2.33985
 20
0.06931
 30
0.0
 10
-2.33985
 20
0.06931
 30
0.0
 10
-2.33985
 20
0.06931
 30
0.0
 10
-2.94042
 20
0.73187
 30
0.0
 10
-2.94042
 20
0.73187
 30
0.0
  0
SPLINE
  5
AE
330
1F
100
AcDbEntity
  8
Layer 1
 62
    15
100
AcDbSpline
210
0.0
220
0.0
230
1.0
 70
    11
 71
     3
 72
    20
 73
    16
 74
     0
 42
0.0000000001
 43
0.0000000001
 12
1.0
 22
0.0
 32
0.0
 13
1.0
 23
0.0
 33
0.0
 40
0.0
 40
0.0
 40
0.0
 40
0.0
 40
0.2
 40
0.2
 40
0.2
 40
0.2
 40
0.4
 40
0.4
 40
0.4
 40
0.4
 40
0.6
 40
0.6
 40
0.6
 40
0.6
 40
1.0
 40
1.0
 40
1.0
 40
1.0
 10
-2.16431
 20
-0.12436
 30
0.0
 10
-2.16431
 20
-0.12436
 30
0.0
 10
-2.75697
 20
-0.79524
 30
0.0
 10
-2.75697
 20
-0.79524
 30
0.0
 10
-2.75697
 20
-0.79524
 30
0.0
 10
-2.75697
 20
-0.79524
 30
0.0
 10
-2.15234
 20
-1.4623
 30
0.0
 10
-2.15234
 20
-1.4623
 30
0.0
 10
-2.15234
 20
-1.4623
 30
0.0
 10
-2.15234
 20
-1.4623
 30
0.0
 10
-1.55968
 20
-0.79141
 30
0.0
 10
-1.55968
 20
-0.79141
 30
0.0
 10
-1.55968
 20
-0.79141
 30
0.0
 10
-1.55968
 20
-0.79141
 30
0.0
 10
-2.16431
 20
-0.12436
 30
0.0
 10
-2.16431
 20
-0.12436
 30
0.0
  0
SPLINE
  5
AF
330
1F
100
AcDbEntity
  8
Layer 1
 62
    15
100
AcDbSpline
210
0.0
220
0.0
230
1.0
 70
    11
 71
     3
 72
    20
 73
    16
 74
     0
 42
0.0000000001
 43
0.0000000001
 12
1.0
 22
0.0
 32
0.0
 13
1.0
 23
0.0
 33
0.0
 40
0.0
 40
0.0
 40
0.0
 40
0.0
 40
0.2
 40
0.2
 40
0.2
 40
0.2
 40
0.4
 40
0.4
 40
0.4
 40
0.4
 40
0.6
 40
0.6
 40
0.6
 40
0.6
 40
1.0
 40
1.0
 40
1.0
 40
1.0
 10
-1.38414
 20
-0.98506
 30
0.0
 10
-1.38414
 20
-0.98506
 30
0.0
 10
-1.9768
 20
-1.65595
 30
0.0
 10
-1.9768
 20
-1.65595
 30
0.0
 10
-1.9768
 20
-1.65595
 30
0.0
 10
-1.9768
 20
-1.65595
 30
0.0
 10
-1.37214
 20
-2.32304
 30
0.0
 10
-1.37214
 20
-2.32304
 30
0.0
 10
-1.37214
 20
-2.32304
 30
0.0
 10
-1.37214
 20
-2.32304
 30
0.0
 10
-0.77947
 20
-1.65214
 30
0.0
 10
-0.77947
 20
-1.65214
 30
0.0
 10
-0.77947
 20
-1.65214
 30
0.0
 10
-0.77947
 20
-1.65214
 30
0.0
 10
-1.38414
 20
-0.98506
 30
0.0
 10
-1.38414
 20
-0.98506
 30
0.0
  0
SPLINE
  5
B0
330
1F
100
AcDbEntity
  8
Layer 1
 62
    15
100
AcDbSpline
210
0.0
220
0.0
230
1.0
 70
    11
 71
     3
 72
    20
 73
    16
 74
     0
 42
0.0000000001
 43
0.0000000001
 12
1.0
 22
0.0
 32
0.0
 13
1.0
 23
0.0
 33
0.0
 40
0.0
 40
0.0
 40
0.0
 40
0.0
 40
0.2
 40
0.2
 40
0.2
 40
0.2
 40
0.4
 40
0.4
 40
0.4
 40
0.4
 40
0.6
 40
0.6
 40
0.6
 40
0.6
 40
1.0
 40
1.0
 40
1.0
 40
1.0
 10
-4.45399
 20
0.68974
 30
0.0
 10
-4.45399
 20
0.68974
 30
0.0
 10
-5.0186
 20
0.05061
 30
0.0
 10
-5.0186
 20
0.05061
 30
0.0
 10
-5.0186
 20
0.05061
 30
0.0
 10
-5.0186
 20
0.05061
 30
0.0
 10
-4.44648
 20
-0.58058
 30
0.0
 10
-4.44648
 20
-0.58058
 30
0.0
 10
-4.44648
 20
-0.58058
 30
0.0
 10
-4.44648
 20
-0.58058
 30
0.0
 10
-3.88187
 20
0.05855
 30
0.0
 10
-3.88187
 20
0.05855
 30
0.0
 10
-3.88187
 20
0.05855
 30
0.0
 10
-3.88187
 20
0.05855
 30
0.0
 10
-4.45399
 20
0.68974
 30
0.0
 10
-4.45399
 20
0.68974
 30
0.0
  0
SPLINE
  5
B1
330
1F
100
AcDbEntity
  8
Layer 1
 62
    15
100
AcDbSpline
210
0.0
220
0.0
230
1.0
 70
    11
 71
     3
 72
    20
 73
    16
 74
     0
 42
0.0000000001
 43
0.0000000001
 12
1.0
 22
0.0
 32
0.0
 13
1.0
 23
0.0
 33
0.0
 40
0.0
 40
0.0
 40
0.0
 40
0.0
 40
0.2
 40
0.2
 40
0.2
 40
0.2
 40
0.4
 40
0.4
 40
0.4
 40
0.4
 40
0.6
 40
0.6
 40
0.6
 40
0.6
 40
1.0
 40
1.0
 40
1.0
 40
1.0
 10
-3.70633
 20
-0.13513
 30
0.0
 10
-3.70633
 20
-0.13513
 30
0.0
 10
-4.27092
 20
-0.77424
 30
0.0
 10
-4.27092
 20
-0.77424
 30
0.0
 10
-4.27092
 20
-0.77424
 30
0.0
 10
-4.27092
 20
-0.77424
 30
0.0
 10
-3.67036
 20
-1.4368
 30
0.0
 10
-3.67036
 20
-1.4368
 30
0.0
 10
-3.67036
 20
-1.4368
 30
0.0
 10
-3.67036
 20
-1.4368
 30
0.0
 10
-3.10576
 20
-0.79769
 30
0.0
 10
-3.10576
 20
-0.79769
 30
0.0
 10
-3.10576
 20
-0.79769
 30
0.0
 10
-3.10576
 20
-0.79769
 30
0.0
 10
-3.70633
 20
-0.13513
 30
0.0
 10
-3.70633
 20
-0.13513
 30
0.0
  0
SPLINE
  5
B2
330
1F
100
AcDbEntity
  8
Layer 1
 62
    15
100
AcDbSpline
210
0.0
220
0.0
230
1.0
 70
    11
 71
     3
 72
    20
 73
    16
 74
     0
 42
0.0000000001
 43
0.0000000001
 12
1.0
 22
0.0
 32
0.0
 13
1.0
 23
0.0
 33
0.0
 40
0.0
 40
0.0
 40
0.0
 40
0.0
 40
0.2
 40
0.2
 40
0.2
 40
0.2
 40
0.4
 40
0.4
 40
0.4
 40
0.4
 40
0.6
 40
0.6
 40
0.6
 40
0.6
 40
1.0
 40
1.0
 40
1.0
 40
1.0
 10
-2.93021
 20
-0.99136
 30
0.0
 10
-2.93021
 20
-0.99136
 30
0.0
 10
-3.49481
 20
-1.63047
 30
0.0
 10
-3.49481
 20
-1.63047
 30
0.0
 10
-3.49481
 20
-1.63047
 30
0.0
 10
-3.49481
 20
-1.63047
 30
0.0
 10
-2.89017
 20
-2.29752
 30
0.0
 10
-2.89017
 20
-2.29752
 30
0.0
 10
-2.89017
 20
-2.29752
 30
0.0
 10
-2.89017
 20
-2.29752
 30
0.0
 10
-2.32558
 20
-1.6584
 30
0.0
 10
-2.32558
 20
-1.6584
 30
0.0
 10
-2.32558
 20
-1.6584
 30
0.0
 10
-2.32558
 20
-1.6584
 30
0.0
 10
-2.93021
 20
-0.99136
 30
0.0
 10
-2.93021
 20
-0.99136
 30
0.0
  0
SPLINE
  5
B3
330
1F
100
AcDbEntity
  8
Layer 1
 62
    15
100
AcDbSpline
210
0.0
220
0.0
230
1.0
 70
    11
 71
     3
 72
    20
 73
    16
 74
     0
 42
0.0000000001
 43
0.0000000001
 12
1.0
 22
0.0
 32
0.0
 13
1.0
 23
0.0
 33
0.0
 40
0.0
 40
0.0
 40
0.0
 40
0.0
 40
0.2
 40
0.2
 40
0.2
 40
0.2
 40
0.4
 40
0.4
 40
0.4
 40
0.4
 40
0.6
 40
0.6
 40
0.6
 40
0.6
 40
1.0
 40
1.0
 40
1.0
 40
1.0
 10
-3.8436
 20
-1.63292
 30
0.0
 10
-3.8436
 20
-1.63292
 30
0.0
 10
-4.44417
 20
-0.97035
 30
0.0
 10
-4.44417
 20
-0.97035
 30
0.0
 10
-4.44417
 20
-0.97035
 30
0.0
 10
-4.44417
 20
-0.97035
 30
0.0
 10
-5.00881
 20
-1.60952
 30
0.0
 10
-5.00881
 20
-1.60952
 30
0.0
 10
-5.00881
 20
-1.60952
 30
0.0
 10
-5.00881
 20
-1.60952
 30
0.0
 10
-4.40824
 20
-2.27209
 30
0.0
 10
-4.40824
 20
-2.27209
 30
0.0
 10
-4.40824
 20
-2.27209
 30
0.0
 10
-4.40824
 20
-2.27209
 30
0.0
 10
-3.8436
 20
-1.63292
 30
0.0
 10
-3.8436
 20
-1.63292
 30
0.0
  0
SPLINE
  5
B4
330
1F
100
AcDbEntity
  8
Layer 1
 62
    15
100
AcDbSpline
210
0.0
220
0.0
230
1.0
 70
    11
 71
     3
 72
    20
 73
    16
 74
     0
 42
0.0000000001
 43
0.0000000001
 12
1.0
 22
0.0
 32
0.0
 13
1.0
 23
0.0
 33
0.0
 40
0.0
 40
0.0
 40
0.0
 40
0.0
 40
0.2
 40
0.2
 40
0.2
 40
0.2
 40
0.4
 40
0.4
 40
0.4
 40
0.4
 40
0.6
 40
0.6
 40
0.6
 40
0.6
 40
1.0
 40
1.0
 40
1.0
 40
1.0
 10
13.36481
 20
0.16419
 30
0.0
 10
13.36481
 20
0.16419
 30
0.0
 10
13.36481
 20
1.4263
 30
0.0
 10
13.36481
 20
1.4263
 30
0.0
 10
13.36481
 20
1.4263
 30
0.0
 10
13.36481
 20
1.4263
 30
0.0
 10
13.28099
 20
1.51876
 30
0.0
 10
13.28099
 20
1.51876
 30
0.0
 10
13.28099
 20
1.51876
 30
0.0
 10
13.28099
 20
1.51876
 30
0.0
 10
12.71635
 20
0.8796
 30
0.0
 10
12.71635
 20
0.8796
 30
0.0
 10
12.71635
 20
0.8796
 30
0.0
 10
12.71635
 20
0.8796
 30
0.0
 10
13.36481
 20
0.16419
 30
0.0
 10
13.36481
 20
0.16419
 30
0.0
  0
SPLINE
  5
B5
330
1F
100
AcDbEntity
  8
Layer 1
 62
    15
100
AcDbSpline
210
0.0
220
0.0
230
1.0
 70
    11
 71
     3
 72
    20
 73
    16
 74
     0
 42
0.0000000001
 43
0.0000000001
 12
1.0
 22
0.0
 32
0.0
 13
1.0
 23
0.0
 33
0.0
 40
0.0
 40
0.0
 40
0.0
 40
0.0
 40
0.2
 40
0.2
 40
0.2
 40
0.2
 40
0.4
 40
0.4
 40
0.4
 40
0.4
 40
0.6
 40
0.6
 40
0.6
 40
0.6
 40
1.0
 40
1.0
 40
1.0
 40
1.0
 10
13.36481
 20
2.00604
 30
0.0
 10
13.36481
 20
2.00604
 30
0.0
 10
13.36481
 20
3.35763
 30
0.0
 10
13.36481
 20
3.35763
 30
0.0
 10
13.36481
 20
3.35763
 30
0.0
 10
13.36481
 20
3.35763
 30
0.0
 10
12.67401
 20
2.57565
 30
0.0
 10
12.67401
 20
2.57565
 30
0.0
 10
12.67401
 20
2.57565
 30
0.0
 10
12.67401
 20
2.57565
 30
0.0
 10
13.27868
 20
1.90855
 30
0.0
 10
13.27868
 20
1.90855
 30
0.0
 10
13.27868
 20
1.90855
 30
0.0
 10
13.27868
 20
1.90855
 30
0.0
 10
13.36481
 20
2.00604
 30
0.0
 10
13.36481
 20
2.00604
 30
0.0
  0
SPLINE
  5
B6
330
1F
100
AcDbEntity
  8
Layer 1
 62
    15
100
AcDbSpline
210
0.0
220
0.0
230
1.0
 70
    11
 71
     3
 72
    16
 73
    12
 74
     0
 42
0.0000000001
 43
0.0000000001
 12
1.0
 22
0.0
 32
0.0
 13
1.0
 23
0.0
 33
0.0
 40
0.0
 40
0.0
 40
0.0
 40
0.0
 40
0.25
 40
0.25
 40
0.25
 40
0.25
 40
0.5
 40
0.5
 40
0.5
 40
0.5
 40
1.0
 40
1.0
 40
1.0
 40
1.0
 10
4.32194
 20
-1.26381
 30
0.0
 10
4.32194
 20
-1.26381
 30
0.0
 10
4.75226
 20
-0.77668
 30
0.0
 10
4.75226
 20
-0.77668
 30
0.0
 10
4.75226
 20
-0.77668
 30
0.0
 10
4.75226
 20
-0.77668
 30
0.0
 10
4.32194
 20
-0.30194
 30
0.0
 10
4.32194
 20
-0.30194
 30
0.0
 10
4.32194
 20
-0.30194
 30
0.0
 10
4.32194
 20
-0.30194
 30
0.0
 10
4.32194
 20
-1.26381
 30
0.0
 10
4.32194
 20
-1.26381
 30
0.0
  0
SPLINE
  5
B7
330
1F
100
AcDbEntity
  8
Layer 1
 62
    15
100
AcDbSpline
210
0.0
220
0.0
230
1.0
 70
    11
 71
     3
 72
    16
 73
    12
 74
     0
 42
0.0000000001
 43
0.0000000001
 12
1.0
 22
0.0
 32
0.0
 13
1.0
 23
0.0
 33
0.0
 40
0.0
 40
0.0
 40
0.0
 40
0.0
 40
0.25
 40
0.25
 40
0.25
 40
0.25
 40
0.5
 40
0.5
 40
0.5
 40
0.5
 40
1.0
 40
1.0
 40
1.0
 40
1.0
 10
4.32194
 20
0.40743
 30
0.0
 10
4.32194
 20
0.40743
 30
0.0
 10
4.74242
 20
0.88341
 30
0.0
 10
4.74242
 20
0.88341
 30
0.0
 10
4.74242
 20
0.88341
 30
0.0
 10
4.74242
 20
0.88341
 30
0.0
 10
4.32194
 20
1.3473
 30
0.0
 10
4.32194
 20
1.3473
 30
0.0
 10
4.32194
 20
1.3473
 30
0.0
 10
4.32194
 20
1.3473
 30
0.0
 10
4.32194
 20
0.40743
 30
0.0
 10
4.32194
 20
0.40743
 30
0.0
  0
SPLINE
  5
B8
330
1F
100
AcDbEntity
  8
Layer 1
 62
    15
100
AcDbSpline
210
0.0
220
0.0
230
1.0
 70
    11
 71
     3
 72
    16
 73
    12
 74
     0
 42
0.0000000001
 43
0.0000000001
 12
1.0
 22
0.0
 32
0.0
 13
1.0
 23
0.0
 33
0.0
 40
0.0
 40
0.0
 40
0.0
 40
0.0
 40
0.25
 40
0.25
 40
0.25
 40
0.25
 40
0.5
 40
0.5
 40
0.5
 40
0.5
 40
1.0
 40
1.0
 40
1.0
 40
1.0
 10
4.32194
 20
2.07875
 30
0.0
 10
4.32194
 20
2.07875
 30
0.0
 10
4.7606
 20
2.57533
 30
0.0
 10
4.7606
 20
2.57533
 30
0.0
 10
4.7606
 20
2.57533
 30
0.0
 10
4.7606
 20
2.57533
 30
0.0
 10
4.32194
 20
3.05927
 30
0.0
 10
4.32194
 20
3.05927
 30
0.0
 10
4.32194
 20
3.05927
 30
0.0
 10
4.32194
 20
3.05927
 30
0.0
 10
4.32194
 20
2.07875
 30
0.0
 10
4.32194
 20
2.07875
 30
0.0
  0
SPLINE
  5
B9
330
1F
100
AcDbEntity
  8
Layer 1
 62
    15
100
AcDbSpline
210
0.0
220
0.0
230
1.0
 70
    11
 71
     3
 72
    20
 73
    16
 74
     0
 42
0.0000000001
 43
0.0000000001
 12
1.0
 22
0.0
 32
0.0
 13
1.0
 23
0.0
 33
0.0
 40
0.0
 40
0.0
 40
0.0
 40
0.0
 40
0.2
 40
0.2
 40
0.2
 40
0.2
 40
0.4
 40
0.4
 40
0.4
 40
0.4
 40
0.6
 40
0.6
 40
0.6
 40
0.6
 40
1.0
 40
1.0
 40
1.0
 40
1.0
 10
11.68256
 20
0.10176
 30
0.0
 10
11.68256
 20
0.10176
 30
0.0
 10
11.07788
 20
0.76885
 30
0.0
 10
11.07788
 20
0.76885
 30
0.0
 10
11.07788
 20
0.76885
 30
0.0
 10
11.07788
 20
0.76885
 30
0.0
 10
10.48115
 20
0.09337
 30
0.0
 10
10.48115
 20
0.09337
 30
0.0
 10
10.48115
 20
0.09337
 30
0.0
 10
10.48115
 20
0.09337
 30
0.0
 10
11.08583
 20
-0.57372
 30
0.0
 10
11.08583
 20
-0.57372
 30
0.0
 10
11.08583
 20
-0.57372
 30
0.0
 10
11.08583
 20
-0.57372
 30
0.0
 10
11.68256
 20
0.10176
 30
0.0
 10
11.68256
 20
0.10176
 30
0.0
  0
SPLINE
  5
BA
330
1F
100
AcDbEntity
  8
Layer 1
 62
    15
100
AcDbSpline
210
0.0
220
0.0
230
1.0
 70
    11
 71
     3
 72
    20
 73
    16
 74
     0
 42
0.0000000001
 43
0.0000000001
 12
1.0
 22
0.0
 32
0.0
 13
1.0
 23
0.0
 33
0.0
 40
0.0
 40
0.0
 40
0.0
 40
0.0
 40
0.2
 40
0.2
 40
0.2
 40
0.2
 40
0.4
 40
0.4
 40
0.4
 40
0.4
 40
0.6
 40
0.6
 40
0.6
 40
0.6
 40
1.0
 40
1.0
 40
1.0
 40
1.0
 10
10.90233
 20
0.96252
 30
0.0
 10
10.90233
 20
0.96252
 30
0.0
 10
10.29767
 20
1.62961
 30
0.0
 10
10.29767
 20
1.62961
 30
0.0
 10
10.29767
 20
1.62961
 30
0.0
 10
10.29767
 20
1.62961
 30
0.0
 10
9.70093
 20
0.95414
 30
0.0
 10
9.70093
 20
0.95414
 30
0.0
 10
9.70093
 20
0.95414
 30
0.0
 10
9.70093
 20
0.95414
 30
0.0
 10
10.3056
 20
0.28705
 30
0.0
 10
10.3056
 20
0.28705
 30
0.0
 10
10.3056
 20
0.28705
 30
0.0
 10
10.3056
 20
0.28705
 30
0.0
 10
10.90233
 20
0.96252
 30
0.0
 10
10.90233
 20
0.96252
 30
0.0
  0
SPLINE
  5
BB
330
1F
100
AcDbEntity
  8
Layer 1
 62
    15
100
AcDbSpline
210
0.0
220
0.0
230
1.0
 70
    11
 71
     3
 72
    20
 73
    16
 74
     0
 42
0.0000000001
 43
0.0000000001
 12
1.0
 22
0.0
 32
0.0
 13
1.0
 23
0.0
 33
0.0
 40
0.0
 40
0.0
 40
0.0
 40
0.0
 40
0.2
 40
0.2
 40
0.2
 40
0.2
 40
0.4
 40
0.4
 40
0.4
 40
0.4
 40
0.6
 40
0.6
 40
0.6
 40
0.6
 40
1.0
 40
1.0
 40
1.0
 40
1.0
 10
10.12213
 20
1.82327
 30
0.0
 10
10.12213
 20
1.82327
 30
0.0
 10
9.51748
 20
2.49034
 30
0.0
 10
9.51748
 20
2.49034
 30
0.0
 10
9.51748
 20
2.49034
 30
0.0
 10
9.51748
 20
2.49034
 30
0.0
 10
8.92076
 20
1.81485
 30
0.0
 10
8.92076
 20
1.81485
 30
0.0
 10
8.92076
 20
1.81485
 30
0.0
 10
8.92076
 20
1.81485
 30
0.0
 10
9.5254
 20
1.1478
 30
0.0
 10
9.5254
 20
1.1478
 30
0.0
 10
9.5254
 20
1.1478
 30
0.0
 10
9.5254
 20
1.1478
 30
0.0
 10
10.12213
 20
1.82327
 30
0.0
 10
10.12213
 20
1.82327
 30
0.0
  0
SPLINE
  5
BC
330
1F
100
AcDbEntity
  8
Layer 1
 62
    15
100
AcDbSpline
210
0.0
220
0.0
230
1.0
 70
    11
 71
     3
 72
    20
 73
    16
 74
     0
 42
0.0000000001
 43
0.0000000001
 12
1.0
 22
0.0
 32
0.0
 13
1.0
 23
0.0
 33
0.0
 40
0.0
 40
0.0
 40
0.0
 40
0.0
 40
0.2
 40
0.2
 40
0.2
 40
0.2
 40
0.4
 40
0.4
 40
0.4
 40
0.4
 40
0.6
 40
0.6
 40
0.6
 40
0.6
 40
1.0
 40
1.0
 40
1.0
 40
1.0
 10
9.34196
 20
2.68398
 30
0.0
 10
9.34196
 20
2.68398
 30
0.0
 10
8.74138
 20
3.34656
 30
0.0
 10
8.74138
 20
3.34656
 30
0.0
 10
8.74138
 20
3.34656
 30
0.0
 10
8.74138
 20
3.34656
 30
0.0
 10
8.14466
 20
2.67107
 30
0.0
 10
8.14466
 20
2.67107
 30
0.0
 10
8.14466
 20
2.67107
 30
0.0
 10
8.14466
 20
2.67107
 30
0.0
 10
8.74523
 20
2.00851
 30
0.0
 10
8.74523
 20
2.00851
 30
0.0
 10
8.74523
 20
2.00851
 30
0.0
 10
8.74523
 20
2.00851
 30
0.0
 10
9.34196
 20
2.68398
 30
0.0
 10
9.34196
 20
2.68398
 30
0.0
  0
SPLINE
  5
BD
330
1F
100
AcDbEntity
  8
Layer 1
 62
    15
100
AcDbSpline
210
0.0
220
0.0
230
1.0
 70
    11
 71
     3
 72
    20
 73
    16
 74
     0
 42
0.0000000001
 43
0.0000000001
 12
1.0
 22
0.0
 32
0.0
 13
1.0
 23
0.0
 33
0.0
 40
0.0
 40
0.0
 40
0.0
 40
0.0
 40
0.2
 40
0.2
 40
0.2
 40
0.2
 40
0.4
 40
0.4
 40
0.4
 40
0.4
 40
0.6
 40
0.6
 40
0.6
 40
0.6
 40
1.0
 40
1.0
 40
1.0
 40
1.0
 10
8.56583
 20
3.54023
 30
0.0
 10
8.56583
 20
3.54023
 30
0.0
 10
7.9937
 20
4.17143
 30
0.0
 10
7.9937
 20
4.17143
 30
0.0
 10
7.9937
 20
4.17143
 30
0.0
 10
7.9937
 20
4.17143
 30
0.0
 10
7.39699
 20
3.49595
 30
0.0
 10
7.39699
 20
3.49595
 30
0.0
 10
7.39699
 20
3.49595
 30
0.0
 10
7.39699
 20
3.49595
 30
0.0
 10
7.96911
 20
2.86475
 30
0.0
 10
7.96911
 20
2.86475
 30
0.0
 10
7.96911
 20
2.86475
 30
0.0
 10
7.96911
 20
2.86475
 30
0.0
 10
8.56583
 20
3.54023
 30
0.0
 10
8.56583
 20
3.54023
 30
0.0
  0
SPLINE
  5
BE
330
1F
100
AcDbEntity
  8
Layer 1
 62
    15
100
AcDbSpline
210
0.0
220
0.0
230
1.0
 70
    11
 71
     3
 72
    20
 73
    16
 74
     0
 42
0.0000000001
 43
0.0000000001
 12
1.0
 22
0.0
 32
0.0
 13
1.0
 23
0.0
 33
0.0
 40
0.0
 40
0.0
 40
0.0
 40
0.0
 40
0.2
 40
0.2
 40
0.2
 40
0.2
 40
0.4
 40
0.4
 40
0.4
 40
0.4
 40
0.6
 40
0.6
 40
0.6
 40
0.6
 40
1.0
 40
1.0
 40
1.0
 40
1.0
 10
8.91462
 20
3.54266
 30
0.0
 10
8.91462
 20
3.54266
 30
0.0
 10
9.51519
 20
2.8801
 30
0.0
 10
9.51519
 20
2.8801
 30
0.0
 10
9.51519
 20
2.8801
 30
0.0
 10
9.51519
 20
2.8801
 30
0.0
 10
10.02695
 20
3.4594
 30
0.0
 10
10.02695
 20
3.4594
 30
0.0
 10
10.02695
 20
3.4594
 30
0.0
 10
10.02695
 20
3.4594
 30
0.0
 10
9.42639
 20
4.12197
 30
0.0
 10
9.42639
 20
4.12197
 30
0.0
 10
9.42639
 20
4.12197
 30
0.0
 10
9.42639
 20
4.12197
 30
0.0
 10
8.91462
 20
3.54266
 30
0.0
 10
8.91462
 20
3.54266
 30
0.0
  0
SPLINE
  5
BF
330
1F
100
AcDbEntity
  8
Layer 1
 62
    15
100
AcDbSpline
210
0.0
220
0.0
230
1.0
 70
    11
 71
     3
 72
    20
 73
    16
 74
     0
 42
0.0000000001
 43
0.0000000001
 12
1.0
 22
0.0
 32
0.0
 13
1.0
 23
0.0
 33
0.0
 40
0.0
 40
0.0
 40
0.0
 40
0.0
 40
0.2
 40
0.2
 40
0.2
 40
0.2
 40
0.4
 40
0.4
 40
0.4
 40
0.4
 40
0.6
 40
0.6
 40
0.6
 40
0.6
 40
1.0
 40
1.0
 40
1.0
 40
1.0
 10
9.69072
 20
2.68644
 30
0.0
 10
9.69072
 20
2.68644
 30
0.0
 10
10.29536
 20
2.01937
 30
0.0
 10
10.29536
 20
2.01937
 30
0.0
 10
10.29536
 20
2.01937
 30
0.0
 10
10.29536
 20
2.01937
 30
0.0
 10
10.80714
 20
2.59868
 30
0.0
 10
10.80714
 20
2.59868
 30
0.0
 10
10.80714
 20
2.59868
 30
0.0
 10
10.80714
 20
2.59868
 30
0.0
 10
10.20249
 20
3.26575
 30
0.0
 10
10.20249
 20
3.26575
 30
0.0
 10
10.20249
 20
3.26575
 30
0.0
 10
10.20249
 20
3.26575
 30
0.0
 10
9.69072
 20
2.68644
 30
0.0
 10
9.69072
 20
2.68644
 30
0.0
  0
SPLINE
  5
C0
330
1F
100
AcDbEntity
  8
Layer 1
 62
    15
100
AcDbSpline
210
0.0
220
0.0
230
1.0
 70
    11
 71
     3
 72
    20
 73
    16
 74
     0
 42
0.0000000001
 43
0.0000000001
 12
1.0
 22
0.0
 32
0.0
 13
1.0
 23
0.0
 33
0.0
 40
0.0
 40
0.0
 40
0.0
 40
0.0
 40
0.2
 40
0.2
 40
0.2
 40
0.2
 40
0.4
 40
0.4
 40
0.4
 40
0.4
 40
0.6
 40
0.6
 40
0.6
 40
0.6
 40
1.0
 40
1.0
 40
1.0
 40
1.0
 10
10.47089
 20
1.82572
 30
0.0
 10
10.47089
 20
1.82572
 30
0.0
 10
11.07556
 20
1.15863
 30
0.0
 10
11.07556
 20
1.15863
 30
0.0
 10
11.07556
 20
1.15863
 30
0.0
 10
11.07556
 20
1.15863
 30
0.0
 10
11.58733
 20
1.73794
 30
0.0
 10
11.58733
 20
1.73794
 30
0.0
 10
11.58733
 20
1.73794
 30
0.0
 10
11.58733
 20
1.73794
 30
0.0
 10
10.98266
 20
2.40503
 30
0.0
 10
10.98266
 20
2.40503
 30
0.0
 10
10.98266
 20
2.40503
 30
0.0
 10
10.98266
 20
2.40503
 30
0.0
 10
10.47089
 20
1.82572
 30
0.0
 10
10.47089
 20
1.82572
 30
0.0
  0
SPLINE
  5
C1
330
1F
100
AcDbEntity
  8
Layer 1
 62
    15
100
AcDbSpline
210
0.0
220
0.0
230
1.0
 70
    11
 71
     3
 72
    20
 73
    16
 74
     0
 42
0.0000000001
 43
0.0000000001
 12
1.0
 22
0.0
 32
0.0
 13
1.0
 23
0.0
 33
0.0
 40
0.0
 40
0.0
 40
0.0
 40
0.0
 40
0.2
 40
0.2
 40
0.2
 40
0.2
 40
0.4
 40
0.4
 40
0.4
 40
0.4
 40
0.6
 40
0.6
 40
0.6
 40
0.6
 40
1.0
 40
1.0
 40
1.0
 40
1.0
 10
11.25111
 20
0.96496
 30
0.0
 10
11.25111
 20
0.96496
 30
0.0
 10
11.8558
 20
0.29785
 30
0.0
 10
11.8558
 20
0.29785
 30
0.0
 10
11.8558
 20
0.29785
 30
0.0
 10
11.8558
 20
0.29785
 30
0.0
 10
12.36756
 20
0.87717
 30
0.0
 10
12.36756
 20
0.87717
 30
0.0
 10
12.36756
 20
0.87717
 30
0.0
 10
12.36756
 20
0.87717
 30
0.0
 10
11.76289
 20
1.54427
 30
0.0
 10
11.76289
 20
1.54427
 30
0.0
 10
11.76289
 20
1.54427
 30
0.0
 10
11.76289
 20
1.54427
 30
0.0
 10
11.25111
 20
0.96496
 30
0.0
 10
11.25111
 20
0.96496
 30
0.0
  0
SPLINE
  5
C2
330
1F
100
AcDbEntity
  8
Layer 1
 62
    15
100
AcDbSpline
210
0.0
220
0.0
230
1.0
 70
    11
 71
     3
 72
    20
 73
    16
 74
     0
 42
0.0000000001
 43
0.0000000001
 12
1.0
 22
0.0
 32
0.0
 13
1.0
 23
0.0
 33
0.0
 40
0.0
 40
0.0
 40
0.0
 40
0.0
 40
0.2
 40
0.2
 40
0.2
 40
0.2
 40
0.4
 40
0.4
 40
0.4
 40
0.4
 40
0.6
 40
0.6
 40
0.6
 40
0.6
 40
1.0
 40
1.0
 40
1.0
 40
1.0
 10
10.94036
 20
4.10102
 30
0.0
 10
10.94036
 20
4.10102
 30
0.0
 10
10.37572
 20
3.46186
 30
0.0
 10
10.37572
 20
3.46186
 30
0.0
 10
10.37572
 20
3.46186
 30
0.0
 10
10.37572
 20
3.46186
 30
0.0
 10
10.98037
 20
2.79479
 30
0.0
 10
10.98037
 20
2.79479
 30
0.0
 10
10.98037
 20
2.79479
 30
0.0
 10
10.98037
 20
2.79479
 30
0.0
 10
11.54501
 20
3.43395
 30
0.0
 10
11.54501
 20
3.43395
 30
0.0
 10
11.54501
 20
3.43395
 30
0.0
 10
11.54501
 20
3.43395
 30
0.0
 10
10.94036
 20
4.10102
 30
0.0
 10
10.94036
 20
4.10102
 30
0.0
  0
SPLINE
  5
C3
330
1F
100
AcDbEntity
  8
Layer 1
 62
    15
100
AcDbSpline
210
0.0
220
0.0
230
1.0
 70
    11
 71
     3
 72
    20
 73
    16
 74
     0
 42
0.0000000001
 43
0.0000000001
 12
1.0
 22
0.0
 32
0.0
 13
1.0
 23
0.0
 33
0.0
 40
0.0
 40
0.0
 40
0.0
 40
0.0
 40
0.2
 40
0.2
 40
0.2
 40
0.2
 40
0.4
 40
0.4
 40
0.4
 40
0.4
 40
0.6
 40
0.6
 40
0.6
 40
0.6
 40
1.0
 40
1.0
 40
1.0
 40
1.0
 10
11.72055
 20
3.2403
 30
0.0
 10
11.72055
 20
3.2403
 30
0.0
 10
11.1559
 20
2.60113
 30
0.0
 10
11.1559
 20
2.60113
 30
0.0
 10
11.1559
 20
2.60113
 30
0.0
 10
11.1559
 20
2.60113
 30
0.0
 10
11.76057
 20
1.93405
 30
0.0
 10
11.76057
 20
1.93405
 30
0.0
 10
11.76057
 20
1.93405
 30
0.0
 10
11.76057
 20
1.93405
 30
0.0
 10
12.32521
 20
2.57322
 30
0.0
 10
12.32521
 20
2.57322
 30
0.0
 10
12.32521
 20
2.57322
 30
0.0
 10
12.32521
 20
2.57322
 30
0.0
 10
11.72055
 20
3.2403
 30
0.0
 10
11.72055
 20
3.2403
 30
0.0
  0
SPLINE
  5
C4
330
1F
100
AcDbEntity
  8
Layer 1
 62
    15
100
AcDbSpline
210
0.0
220
0.0
230
1.0
 70
    11
 71
     3
 72
    20
 73
    16
 74
     0
 42
0.0000000001
 43
0.0000000001
 12
1.0
 22
0.0
 32
0.0
 13
1.0
 23
0.0
 33
0.0
 40
0.0
 40
0.0
 40
0.0
 40
0.0
 40
0.2
 40
0.2
 40
0.2
 40
0.2
 40
0.4
 40
0.4
 40
0.4
 40
0.4
 40
0.6
 40
0.6
 40
0.6
 40
0.6
 40
1.0
 40
1.0
 40
1.0
 40
1.0
 10
12.50076
 20
2.37954
 30
0.0
 10
12.50076
 20
2.37954
 30
0.0
 10
11.93612
 20
1.74038
 30
0.0
 10
11.93612
 20
1.74038
 30
0.0
 10
11.93612
 20
1.74038
 30
0.0
 10
11.93612
 20
1.74038
 30
0.0
 10
12.5408
 20
1.07327
 30
0.0
 10
12.5408
 20
1.07327
 30
0.0
 10
12.5408
 20
1.07327
 30
0.0
 10
12.5408
 20
1.07327
 30
0.0
 10
13.10543
 20
1.71243
 30
0.0
 10
13.10543
 20
1.71243
 30
0.0
 10
13.10543
 20
1.71243
 30
0.0
 10
13.10543
 20
1.71243
 30
0.0
 10
12.50076
 20
2.37954
 30
0.0
 10
12.50076
 20
2.37954
 30
0.0
  0
SPLINE
  5
C5
330
1F
100
AcDbEntity
  8
Layer 1
 62
    15
100
AcDbSpline
210
0.0
220
0.0
230
1.0
 70
    11
 71
     3
 72
    20
 73
    16
 74
     0
 42
0.0000000001
 43
0.0000000001
 12
1.0
 22
0.0
 32
0.0
 13
1.0
 23
0.0
 33
0.0
 40
0.0
 40
0.0
 40
0.0
 40
0.0
 40
0.2
 40
0.2
 40
0.2
 40
0.2
 40
0.4
 40
0.4
 40
0.4
 40
0.4
 40
0.6
 40
0.6
 40
0.6
 40
0.6
 40
1.0
 40
1.0
 40
1.0
 40
1.0
 10
6.47602
 20
4.12476
 30
0.0
 10
6.47602
 20
4.12476
 30
0.0
 10
5.87931
 20
3.44929
 30
0.0
 10
5.87931
 20
3.44929
 30
0.0
 10
5.87931
 20
3.44929
 30
0.0
 10
5.87931
 20
3.44929
 30
0.0
 10
6.45148
 20
2.81803
 30
0.0
 10
6.45148
 20
2.81803
 30
0.0
 10
6.45148
 20
2.81803
 30
0.0
 10
6.45148
 20
2.81803
 30
0.0
 10
7.04819
 20
3.49351
 30
0.0
 10
7.04819
 20
3.49351
 30
0.0
 10
7.04819
 20
3.49351
 30
0.0
 10
7.04819
 20
3.49351
 30
0.0
 10
6.47602
 20
4.12476
 30
0.0
 10
6.47602
 20
4.12476
 30
0.0
  0
SPLINE
  5
C6
330
1F
100
AcDbEntity
  8
Layer 1
 62
    15
100
AcDbSpline
210
0.0
220
0.0
230
1.0
 70
    11
 71
     3
 72
    20
 73
    16
 74
     0
 42
0.0000000001
 43
0.0000000001
 12
1.0
 22
0.0
 32
0.0
 13
1.0
 23
0.0
 33
0.0
 40
0.0
 40
0.0
 40
0.0
 40
0.0
 40
0.2
 40
0.2
 40
0.2
 40
0.2
 40
0.4
 40
0.4
 40
0.4
 40
0.4
 40
0.6
 40
0.6
 40
0.6
 40
0.6
 40
1.0
 40
1.0
 40
1.0
 40
1.0
 10
7.22375
 20
3.29983
 30
0.0
 10
7.22375
 20
3.29983
 30
0.0
 10
6.62703
 20
2.62437
 30
0.0
 10
6.62703
 20
2.62437
 30
0.0
 10
6.62703
 20
2.62437
 30
0.0
 10
6.62703
 20
2.62437
 30
0.0
 10
7.19916
 20
1.99317
 30
0.0
 10
7.19916
 20
1.99317
 30
0.0
 10
7.19916
 20
1.99317
 30
0.0
 10
7.19916
 20
1.99317
 30
0.0
 10
7.79587
 20
2.66864
 30
0.0
 10
7.79587
 20
2.66864
 30
0.0
 10
7.79587
 20
2.66864
 30
0.0
 10
7.79587
 20
2.66864
 30
0.0
 10
7.22375
 20
3.29983
 30
0.0
 10
7.22375
 20
3.29983
 30
0.0
  0
SPLINE
  5
C7
330
1F
100
AcDbEntity
  8
Layer 1
 62
    15
100
AcDbSpline
210
0.0
220
0.0
230
1.0
 70
    11
 71
     3
 72
    20
 73
    16
 74
     0
 42
0.0000000001
 43
0.0000000001
 12
1.0
 22
0.0
 32
0.0
 13
1.0
 23
0.0
 33
0.0
 40
0.0
 40
0.0
 40
0.0
 40
0.0
 40
0.2
 40
0.2
 40
0.2
 40
0.2
 40
0.4
 40
0.4
 40
0.4
 40
0.4
 40
0.6
 40
0.6
 40
0.6
 40
0.6
 40
1.0
 40
1.0
 40
1.0
 40
1.0
 10
7.97142
 20
2.47497
 30
0.0
 10
7.97142
 20
2.47497
 30
0.0
 10
7.37471
 20
1.7995
 30
0.0
 10
7.37471
 20
1.7995
 30
0.0
 10
7.37471
 20
1.7995
 30
0.0
 10
7.37471
 20
1.7995
 30
0.0
 10
7.97527
 20
1.13694
 30
0.0
 10
7.97527
 20
1.13694
 30
0.0
 10
7.97527
 20
1.13694
 30
0.0
 10
7.97527
 20
1.13694
 30
0.0
 10
8.57199
 20
1.81241
 30
0.0
 10
8.57199
 20
1.81241
 30
0.0
 10
8.57199
 20
1.81241
 30
0.0
 10
8.57199
 20
1.81241
 30
0.0
 10
7.97142
 20
2.47497
 30
0.0
 10
7.97142
 20
2.47497
 30
0.0
  0
SPLINE
  5
C8
330
1F
100
AcDbEntity
  8
Layer 1
 62
    15
100
AcDbSpline
210
0.0
220
0.0
230
1.0
 70
    11
 71
     3
 72
    20
 73
    16
 74
     0
 42
0.0000000001
 43
0.0000000001
 12
1.0
 22
0.0
 32
0.0
 13
1.0
 23
0.0
 33
0.0
 40
0.0
 40
0.0
 40
0.0
 40
0.0
 40
0.2
 40
0.2
 40
0.2
 40
0.2
 40
0.4
 40
0.4
 40
0.4
 40
0.4
 40
0.6
 40
0.6
 40
0.6
 40
0.6
 40
1.0
 40
1.0
 40
1.0
 40
1.0
 10
8.74752
 20
1.61875
 30
0.0
 10
8.74752
 20
1.61875
 30
0.0
 10
8.15081
 20
0.94328
 30
0.0
 10
8.15081
 20
0.94328
 30
0.0
 10
8.15081
 20
0.94328
 30
0.0
 10
8.15081
 20
0.94328
 30
0.0
 10
8.75545
 20
0.27622
 30
0.0
 10
8.75545
 20
0.27622
 30
0.0
 10
8.75545
 20
0.27622
 30
0.0
 10
8.75545
 20
0.27622
 30
0.0
 10
9.35217
 20
0.95168
 30
0.0
 10
9.35217
 20
0.95168
 30
0.0
 10
9.35217
 20
0.95168
 30
0.0
 10
9.35217
 20
0.95168
 30
0.0
 10
8.74752
 20
1.61875
 30
0.0
 10
8.74752
 20
1.61875
 30
0.0
  0
SPLINE
  5
C9
330
1F
100
AcDbEntity
  8
Layer 1
 62
    15
100
AcDbSpline
210
0.0
220
0.0
230
1.0
 70
    11
 71
     3
 72
    20
 73
    16
 74
     0
 42
0.0000000001
 43
0.0000000001
 12
1.0
 22
0.0
 32
0.0
 13
1.0
 23
0.0
 33
0.0
 40
0.0
 40
0.0
 40
0.0
 40
0.0
 40
0.2
 40
0.2
 40
0.2
 40
0.2
 40
0.4
 40
0.4
 40
0.4
 40
0.4
 40
0.6
 40
0.6
 40
0.6
 40
0.6
 40
1.0
 40
1.0
 40
1.0
 40
1.0
 10
9.5277
 20
0.75805
 30
0.0
 10
9.5277
 20
0.75805
 30
0.0
 10
8.93098
 20
0.08257
 30
0.0
 10
8.93098
 20
0.08257
 30
0.0
 10
8.93098
 20
0.08257
 30
0.0
 10
8.93098
 20
0.08257
 30
0.0
 10
9.53565
 20
-0.58452
 30
0.0
 10
9.53565
 20
-0.58452
 30
0.0
 10
9.53565
 20
-0.58452
 30
0.0
 10
9.53565
 20
-0.58452
 30
0.0
 10
10.13237
 20
0.09095
 30
0.0
 10
10.13237
 20
0.09095
 30
0.0
 10
10.13237
 20
0.09095
 30
0.0
 10
10.13237
 20
0.09095
 30
0.0
 10
9.5277
 20
0.75805
 30
0.0
 10
9.5277
 20
0.75805
 30
0.0
  0
SPLINE
  5
CA
330
1F
100
AcDbEntity
  8
Layer 1
 62
    15
100
AcDbSpline
210
0.0
220
0.0
230
1.0
 70
    11
 71
     3
 72
    20
 73
    16
 74
     0
 42
0.0000000001
 43
0.0000000001
 12
1.0
 22
0.0
 32
0.0
 13
1.0
 23
0.0
 33
0.0
 40
0.0
 40
0.0
 40
0.0
 40
0.0
 40
0.2
 40
0.2
 40
0.2
 40
0.2
 40
0.4
 40
0.4
 40
0.4
 40
0.4
 40
0.6
 40
0.6
 40
0.6
 40
0.6
 40
1.0
 40
1.0
 40
1.0
 40
1.0
 10
10.30791
 20
-0.10272
 30
0.0
 10
10.30791
 20
-0.10272
 30
0.0
 10
9.7112
 20
-0.77819
 30
0.0
 10
9.7112
 20
-0.77819
 30
0.0
 10
9.7112
 20
-0.77819
 30
0.0
 10
9.7112
 20
-0.77819
 30
0.0
 10
10.31589
 20
-1.4453
 30
0.0
 10
10.31589
 20
-1.4453
 30
0.0
 10
10.31589
 20
-1.4453
 30
0.0
 10
10.31589
 20
-1.4453
 30
0.0
 10
10.9126
 20
-0.76983
 30
0.0
 10
10.9126
 20
-0.76983
 30
0.0
 10
10.9126
 20
-0.76983
 30
0.0
 10
10.9126
 20
-0.76983
 30
0.0
 10
10.30791
 20
-0.10272
 30
0.0
 10
10.30791
 20
-0.10272
 30
0.0
  0
SPLINE
  5
CB
330
1F
100
AcDbEntity
  8
Layer 1
 62
    15
100
AcDbSpline
210
0.0
220
0.0
230
1.0
 70
    11
 71
     3
 72
    20
 73
    16
 74
     0
 42
0.0000000001
 43
0.0000000001
 12
1.0
 22
0.0
 32
0.0
 13
1.0
 23
0.0
 33
0.0
 40
0.0
 40
0.0
 40
0.0
 40
0.0
 40
0.2
 40
0.2
 40
0.2
 40
0.2
 40
0.4
 40
0.4
 40
0.4
 40
0.4
 40
0.6
 40
0.6
 40
0.6
 40
0.6
 40
1.0
 40
1.0
 40
1.0
 40
1.0
 10
5.70607
 20
3.2532
 30
0.0
 10
5.70607
 20
3.2532
 30
0.0
 10
5.10938
 20
2.57774
 30
0.0
 10
5.10938
 20
2.57774
 30
0.0
 10
5.10938
 20
2.57774
 30
0.0
 10
5.10938
 20
2.57774
 30
0.0
 10
5.68156
 20
1.9465
 30
0.0
 10
5.68156
 20
1.9465
 30
0.0
 10
5.68156
 20
1.9465
 30
0.0
 10
5.68156
 20
1.9465
 30
0.0
 10
6.27824
 20
2.62195
 30
0.0
 10
6.27824
 20
2.62195
 30
0.0
 10
6.27824
 20
2.62195
 30
0.0
 10
6.27824
 20
2.62195
 30
0.0
 10
5.70607
 20
3.2532
 30
0.0
 10
5.70607
 20
3.2532
 30
0.0
  0
SPLINE
  5
CC
330
1F
100
AcDbEntity
  8
Layer 1
 62
    15
100
AcDbSpline
210
0.0
220
0.0
230
1.0
 70
    11
 71
     3
 72
    20
 73
    16
 74
     0
 42
0.0000000001
 43
0.0000000001
 12
1.0
 22
0.0
 32
0.0
 13
1.0
 23
0.0
 33
0.0
 40
0.0
 40
0.0
 40
0.0
 40
0.0
 40
0.2
 40
0.2
 40
0.2
 40
0.2
 40
0.4
 40
0.4
 40
0.4
 40
0.4
 40
0.6
 40
0.6
 40
0.6
 40
0.6
 40
1.0
 40
1.0
 40
1.0
 40
1.0
 10
6.4538
 20
2.42827
 30
0.0
 10
6.4538
 20
2.42827
 30
0.0
 10
5.85711
 20
1.75283
 30
0.0
 10
5.85711
 20
1.75283
 30
0.0
 10
5.85711
 20
1.75283
 30
0.0
 10
5.85711
 20
1.75283
 30
0.0
 10
6.42924
 20
1.12163
 30
0.0
 10
6.42924
 20
1.12163
 30
0.0
 10
6.42924
 20
1.12163
 30
0.0
 10
6.42924
 20
1.12163
 30
0.0
 10
7.02593
 20
1.79707
 30
0.0
 10
7.02593
 20
1.79707
 30
0.0
 10
7.02593
 20
1.79707
 30
0.0
 10
7.02593
 20
1.79707
 30
0.0
 10
6.4538
 20
2.42827
 30
0.0
 10
6.4538
 20
2.42827
 30
0.0
  0
SPLINE
  5
CD
330
1F
100
AcDbEntity
  8
Layer 1
 62
    15
100
AcDbSpline
210
0.0
220
0.0
230
1.0
 70
    11
 71
     3
 72
    20
 73
    16
 74
     0
 42
0.0000000001
 43
0.0000000001
 12
1.0
 22
0.0
 32
0.0
 13
1.0
 23
0.0
 33
0.0
 40
0.0
 40
0.0
 40
0.0
 40
0.0
 40
0.2
 40
0.2
 40
0.2
 40
0.2
 40
0.4
 40
0.4
 40
0.4
 40
0.4
 40
0.6
 40
0.6
 40
0.6
 40
0.6
 40
1.0
 40
1.0
 40
1.0
 40
1.0
 10
7.20148
 20
1.6034
 30
0.0
 10
7.20148
 20
1.6034
 30
0.0
 10
6.60479
 20
0.92796
 30
0.0
 10
6.60479
 20
0.92796
 30
0.0
 10
6.60479
 20
0.92796
 30
0.0
 10
6.60479
 20
0.92796
 30
0.0
 10
7.20536
 20
0.2654
 30
0.0
 10
7.20536
 20
0.2654
 30
0.0
 10
7.20536
 20
0.2654
 30
0.0
 10
7.20536
 20
0.2654
 30
0.0
 10
7.80205
 20
0.94084
 30
0.0
 10
7.80205
 20
0.94084
 30
0.0
 10
7.80205
 20
0.94084
 30
0.0
 10
7.80205
 20
0.94084
 30
0.0
 10
7.20148
 20
1.6034
 30
0.0
 10
7.20148
 20
1.6034
 30
0.0
  0
SPLINE
  5
CE
330
1F
100
AcDbEntity
  8
Layer 1
 62
    15
100
AcDbSpline
210
0.0
220
0.0
230
1.0
 70
    11
 71
     3
 72
    20
 73
    16
 74
     0
 42
0.0000000001
 43
0.0000000001
 12
1.0
 22
0.0
 32
0.0
 13
1.0
 23
0.0
 33
0.0
 40
0.0
 40
0.0
 40
0.0
 40
0.0
 40
0.2
 40
0.2
 40
0.2
 40
0.2
 40
0.4
 40
0.4
 40
0.4
 40
0.4
 40
0.6
 40
0.6
 40
0.6
 40
0.6
 40
1.0
 40
1.0
 40
1.0
 40
1.0
 10
7.97758
 20
0.74718
 30
0.0
 10
7.97758
 20
0.74718
 30
0.0
 10
7.3809
 20
0.07174
 30
0.0
 10
7.3809
 20
0.07174
 30
0.0
 10
7.3809
 20
0.07174
 30
0.0
 10
7.3809
 20
0.07174
 30
0.0
 10
7.98554
 20
-0.59532
 30
0.0
 10
7.98554
 20
-0.59532
 30
0.0
 10
7.98554
 20
-0.59532
 30
0.0
 10
7.98554
 20
-0.59532
 30
0.0
 10
8.58222
 20
0.08012
 30
0.0
 10
8.58222
 20
0.08012
 30
0.0
 10
8.58222
 20
0.08012
 30
0.0
 10
8.58222
 20
0.08012
 30
0.0
 10
7.97758
 20
0.74718
 30
0.0
 10
7.97758
 20
0.74718
 30
0.0
  0
SPLINE
  5
CF
330
1F
100
AcDbEntity
  8
Layer 1
 62
    15
100
AcDbSpline
210
0.0
220
0.0
230
1.0
 70
    11
 71
     3
 72
    20
 73
    16
 74
     0
 42
0.0000000001
 43
0.0000000001
 12
1.0
 22
0.0
 32
0.0
 13
1.0
 23
0.0
 33
0.0
 40
0.0
 40
0.0
 40
0.0
 40
0.0
 40
0.2
 40
0.2
 40
0.2
 40
0.2
 40
0.4
 40
0.4
 40
0.4
 40
0.4
 40
0.6
 40
0.6
 40
0.6
 40
0.6
 40
1.0
 40
1.0
 40
1.0
 40
1.0
 10
8.75776
 20
-0.11353
 30
0.0
 10
8.75776
 20
-0.11353
 30
0.0
 10
8.16107
 20
-0.78897
 30
0.0
 10
8.16107
 20
-0.78897
 30
0.0
 10
8.16107
 20
-0.78897
 30
0.0
 10
8.16107
 20
-0.78897
 30
0.0
 10
8.76573
 20
-1.45606
 30
0.0
 10
8.76573
 20
-1.45606
 30
0.0
 10
8.76573
 20
-1.45606
 30
0.0
 10
8.76573
 20
-1.45606
 30
0.0
 10
9.36242
 20
-0.78062
 30
0.0
 10
9.36242
 20
-0.78062
 30
0.0
 10
9.36242
 20
-0.78062
 30
0.0
 10
9.36242
 20
-0.78062
 30
0.0
 10
8.75776
 20
-0.11353
 30
0.0
 10
8.75776
 20
-0.11353
 30
0.0
  0
SPLINE
  5
D0
330
1F
100
AcDbEntity
  8
Layer 1
 62
    15
100
AcDbSpline
210
0.0
220
0.0
230
1.0
 70
    11
 71
     3
 72
    20
 73
    16
 74
     0
 42
0.0000000001
 43
0.0000000001
 12
1.0
 22
0.0
 32
0.0
 13
1.0
 23
0.0
 33
0.0
 40
0.0
 40
0.0
 40
0.0
 40
0.0
 40
0.2
 40
0.2
 40
0.2
 40
0.2
 40
0.4
 40
0.4
 40
0.4
 40
0.4
 40
0.6
 40
0.6
 40
0.6
 40
0.6
 40
1.0
 40
1.0
 40
1.0
 40
1.0
 10
9.53798
 20
-0.97429
 30
0.0
 10
9.53798
 20
-0.97429
 30
0.0
 10
8.94128
 20
-1.64973
 30
0.0
 10
8.94128
 20
-1.64973
 30
0.0
 10
8.94128
 20
-1.64973
 30
0.0
 10
8.94128
 20
-1.64973
 30
0.0
 10
9.54596
 20
-2.31683
 30
0.0
 10
9.54596
 20
-2.31683
 30
0.0
 10
9.54596
 20
-2.31683
 30
0.0
 10
9.54596
 20
-2.31683
 30
0.0
 10
10.14265
 20
-1.64139
 30
0.0
 10
10.14265
 20
-1.64139
 30
0.0
 10
10.14265
 20
-1.64139
 30
0.0
 10
10.14265
 20
-1.64139
 30
0.0
 10
9.53798
 20
-0.97429
 30
0.0
 10
9.53798
 20
-0.97429
 30
0.0
  0
SPLINE
  5
D1
330
1F
100
AcDbEntity
  8
Layer 1
 62
    15
100
AcDbSpline
210
0.0
220
0.0
230
1.0
 70
    11
 71
     3
 72
    20
 73
    16
 74
     0
 42
0.0000000001
 43
0.0000000001
 12
1.0
 22
0.0
 32
0.0
 13
1.0
 23
0.0
 33
0.0
 40
0.0
 40
0.0
 40
0.0
 40
0.0
 40
0.2
 40
0.2
 40
0.2
 40
0.2
 40
0.4
 40
0.4
 40
0.4
 40
0.4
 40
0.6
 40
0.6
 40
0.6
 40
0.6
 40
1.0
 40
1.0
 40
1.0
 40
1.0
 10
4.93615
 20
2.38165
 30
0.0
 10
4.93615
 20
2.38165
 30
0.0
 10
4.34349
 20
1.71077
 30
0.0
 10
4.34349
 20
1.71077
 30
0.0
 10
4.34349
 20
1.71077
 30
0.0
 10
4.34349
 20
1.71077
 30
0.0
 10
4.91566
 20
1.07952
 30
0.0
 10
4.91566
 20
1.07952
 30
0.0
 10
4.91566
 20
1.07952
 30
0.0
 10
4.91566
 20
1.07952
 30
0.0
 10
5.50833
 20
1.7504
 30
0.0
 10
5.50833
 20
1.7504
 30
0.0
 10
5.50833
 20
1.7504
 30
0.0
 10
5.50833
 20
1.7504
 30
0.0
 10
4.93615
 20
2.38165
 30
0.0
 10
4.93615
 20
2.38165
 30
0.0
  0
SPLINE
  5
D2
330
1F
100
AcDbEntity
  8
Layer 1
 62
    15
100
AcDbSpline
210
0.0
220
0.0
230
1.0
 70
    11
 71
     3
 72
    20
 73
    16
 74
     0
 42
0.0000000001
 43
0.0000000001
 12
1.0
 22
0.0
 32
0.0
 13
1.0
 23
0.0
 33
0.0
 40
0.0
 40
0.0
 40
0.0
 40
0.0
 40
0.2
 40
0.2
 40
0.2
 40
0.2
 40
0.4
 40
0.4
 40
0.4
 40
0.4
 40
0.6
 40
0.6
 40
0.6
 40
0.6
 40
1.0
 40
1.0
 40
1.0
 40
1.0
 10
5.68389
 20
1.55672
 30
0.0
 10
5.68389
 20
1.55672
 30
0.0
 10
5.09122
 20
0.88585
 30
0.0
 10
5.09122
 20
0.88585
 30
0.0
 10
5.09122
 20
0.88585
 30
0.0
 10
5.09122
 20
0.88585
 30
0.0
 10
5.66335
 20
0.25466
 30
0.0
 10
5.66335
 20
0.25466
 30
0.0
 10
5.66335
 20
0.25466
 30
0.0
 10
5.66335
 20
0.25466
 30
0.0
 10
6.25601
 20
0.92554
 30
0.0
 10
6.25601
 20
0.92554
 30
0.0
 10
6.25601
 20
0.92554
 30
0.0
 10
6.25601
 20
0.92554
 30
0.0
 10
5.68389
 20
1.55672
 30
0.0
 10
5.68389
 20
1.55672
 30
0.0
  0
SPLINE
  5
D3
330
1F
100
AcDbEntity
  8
Layer 1
 62
    15
100
AcDbSpline
210
0.0
220
0.0
230
1.0
 70
    11
 71
     3
 72
    20
 73
    16
 74
     0
 42
0.0000000001
 43
0.0000000001
 12
1.0
 22
0.0
 32
0.0
 13
1.0
 23
0.0
 33
0.0
 40
0.0
 40
0.0
 40
0.0
 40
0.0
 40
0.2
 40
0.2
 40
0.2
 40
0.2
 40
0.4
 40
0.4
 40
0.4
 40
0.4
 40
0.6
 40
0.6
 40
0.6
 40
0.6
 40
1.0
 40
1.0
 40
1.0
 40
1.0
 10
6.43156
 20
0.73187
 30
0.0
 10
6.43156
 20
0.73187
 30
0.0
 10
5.8389
 20
0.06099
 30
0.0
 10
5.8389
 20
0.06099
 30
0.0
 10
5.8389
 20
0.06099
 30
0.0
 10
5.8389
 20
0.06099
 30
0.0
 10
6.43947
 20
-0.60157
 30
0.0
 10
6.43947
 20
-0.60157
 30
0.0
 10
6.43947
 20
-0.60157
 30
0.0
 10
6.43947
 20
-0.60157
 30
0.0
 10
7.03213
 20
0.06931
 30
0.0
 10
7.03213
 20
0.06931
 30
0.0
 10
7.03213
 20
0.06931
 30
0.0
 10
7.03213
 20
0.06931
 30
0.0
 10
6.43156
 20
0.73187
 30
0.0
 10
6.43156
 20
0.73187
 30
0.0
  0
SPLINE
  5
D4
330
1F
100
AcDbEntity
  8
Layer 1
 62
    15
100
AcDbSpline
210
0.0
220
0.0
230
1.0
 70
    11
 71
     3
 72
    20
 73
    16
 74
     0
 42
0.0000000001
 43
0.0000000001
 12
1.0
 22
0.0
 32
0.0
 13
1.0
 23
0.0
 33
0.0
 40
0.0
 40
0.0
 40
0.0
 40
0.0
 40
0.2
 40
0.2
 40
0.2
 40
0.2
 40
0.4
 40
0.4
 40
0.4
 40
0.4
 40
0.6
 40
0.6
 40
0.6
 40
0.6
 40
1.0
 40
1.0
 40
1.0
 40
1.0
 10
7.20766
 20
-0.12436
 30
0.0
 10
7.20766
 20
-0.12436
 30
0.0
 10
6.61501
 20
-0.79524
 30
0.0
 10
6.61501
 20
-0.79524
 30
0.0
 10
6.61501
 20
-0.79524
 30
0.0
 10
6.61501
 20
-0.79524
 30
0.0
 10
7.21964
 20
-1.4623
 30
0.0
 10
7.21964
 20
-1.4623
 30
0.0
 10
7.21964
 20
-1.4623
 30
0.0
 10
7.21964
 20
-1.4623
 30
0.0
 10
7.8123
 20
-0.79141
 30
0.0
 10
7.8123
 20
-0.79141
 30
0.0
 10
7.8123
 20
-0.79141
 30
0.0
 10
7.8123
 20
-0.79141
 30
0.0
 10
7.20766
 20
-0.12436
 30
0.0
 10
7.20766
 20
-0.12436
 30
0.0
  0
SPLINE
  5
D5
330
1F
100
AcDbEntity
  8
Layer 1
 62
    15
100
AcDbSpline
210
0.0
220
0.0
230
1.0
 70
    11
 71
     3
 72
    20
 73
    16
 74
     0
 42
0.0000000001
 43
0.0000000001
 12
1.0
 22
0.0
 32
0.0
 13
1.0
 23
0.0
 33
0.0
 40
0.0
 40
0.0
 40
0.0
 40
0.0
 40
0.2
 40
0.2
 40
0.2
 40
0.2
 40
0.4
 40
0.4
 40
0.4
 40
0.4
 40
0.6
 40
0.6
 40
0.6
 40
0.6
 40
1.0
 40
1.0
 40
1.0
 40
1.0
 10
7.98785
 20
-0.98506
 30
0.0
 10
7.98785
 20
-0.98506
 30
0.0
 10
7.39517
 20
-1.65595
 30
0.0
 10
7.39517
 20
-1.65595
 30
0.0
 10
7.39517
 20
-1.65595
 30
0.0
 10
7.39517
 20
-1.65595
 30
0.0
 10
7.99984
 20
-2.32304
 30
0.0
 10
7.99984
 20
-2.32304
 30
0.0
 10
7.99984
 20
-2.32304
 30
0.0
 10
7.99984
 20
-2.32304
 30
0.0
 10
8.5925
 20
-1.65214
 30
0.0
 10
8.5925
 20
-1.65214
 30
0.0
 10
8.5925
 20
-1.65214
 30
0.0
 10
8.5925
 20
-1.65214
 30
0.0
 10
7.98785
 20
-0.98506
 30
0.0
 10
7.98785
 20
-0.98506
 30
0.0
  0
SPLINE
  5
D6
330
1F
100
AcDbEntity
  8
Layer 1
 62
    15
100
AcDbSpline
210
0.0
220
0.0
230
1.0
 70
    11
 71
     3
 72
    20
 73
    16
 74
     0
 42
0.0000000001
 43
0.0000000001
 12
1.0
 22
0.0
 32
0.0
 13
1.0
 23
0.0
 33
0.0
 40
0.0
 40
0.0
 40
0.0
 40
0.0
 40
0.2
 40
0.2
 40
0.2
 40
0.2
 40
0.4
 40
0.4
 40
0.4
 40
0.4
 40
0.6
 40
0.6
 40
0.6
 40
0.6
 40
1.0
 40
1.0
 40
1.0
 40
1.0
 10
4.91798
 20
0.68974
 30
0.0
 10
4.91798
 20
0.68974
 30
0.0
 10
4.35338
 20
0.05061
 30
0.0
 10
4.35338
 20
0.05061
 30
0.0
 10
4.35338
 20
0.05061
 30
0.0
 10
4.35338
 20
0.05061
 30
0.0
 10
4.92551
 20
-0.58058
 30
0.0
 10
4.92551
 20
-0.58058
 30
0.0
 10
4.92551
 20
-0.58058
 30
0.0
 10
4.92551
 20
-0.58058
 30
0.0
 10
5.49011
 20
0.05855
 30
0.0
 10
5.49011
 20
0.05855
 30
0.0
 10
5.49011
 20
0.05855
 30
0.0
 10
5.49011
 20
0.05855
 30
0.0
 10
4.91798
 20
0.68974
 30
0.0
 10
4.91798
 20
0.68974
 30
0.0
  0
SPLINE
  5
D7
330
1F
100
AcDbEntity
  8
Layer 1
 62
    15
100
AcDbSpline
210
0.0
220
0.0
230
1.0
 70
    11
 71
     3
 72
    20
 73
    16
 74
     0
 42
0.0000000001
 43
0.0000000001
 12
1.0
 22
0.0
 32
0.0
 13
1.0
 23
0.0
 33
0.0
 40
0.0
 40
0.0
 40
0.0
 40
0.0
 40
0.2
 40
0.2
 40
0.2
 40
0.2
 40
0.4
 40
0.4
 40
0.4
 40
0.4
 40
0.6
 40
0.6
 40
0.6
 40
0.6
 40
1.0
 40
1.0
 40
1.0
 40
1.0
 10
5.66566
 20
-0.13513
 30
0.0
 10
5.66566
 20
-0.13513
 30
0.0
 10
5.10105
 20
-0.77424
 30
0.0
 10
5.10105
 20
-0.77424
 30
0.0
 10
5.10105
 20
-0.77424
 30
0.0
 10
5.10105
 20
-0.77424
 30
0.0
 10
5.70162
 20
-1.4368
 30
0.0
 10
5.70162
 20
-1.4368
 30
0.0
 10
5.70162
 20
-1.4368
 30
0.0
 10
5.70162
 20
-1.4368
 30
0.0
 10
6.26622
 20
-0.79769
 30
0.0
 10
6.26622
 20
-0.79769
 30
0.0
 10
6.26622
 20
-0.79769
 30
0.0
 10
6.26622
 20
-0.79769
 30
0.0
 10
5.66566
 20
-0.13513
 30
0.0
 10
5.66566
 20
-0.13513
 30
0.0
  0
SPLINE
  5
D8
330
1F
100
AcDbEntity
  8
Layer 1
 62
    15
100
AcDbSpline
210
0.0
220
0.0
230
1.0
 70
    11
 71
     3
 72
    20
 73
    16
 74
     0
 42
0.0000000001
 43
0.0000000001
 12
1.0
 22
0.0
 32
0.0
 13
1.0
 23
0.0
 33
0.0
 40
0.0
 40
0.0
 40
0.0
 40
0.0
 40
0.2
 40
0.2
 40
0.2
 40
0.2
 40
0.4
 40
0.4
 40
0.4
 40
0.4
 40
0.6
 40
0.6
 40
0.6
 40
0.6
 40
1.0
 40
1.0
 40
1.0
 40
1.0
 10
6.44176
 20
-0.99136
 30
0.0
 10
6.44176
 20
-0.99136
 30
0.0
 10
5.87717
 20
-1.63047
 30
0.0
 10
5.87717
 20
-1.63047
 30
0.0
 10
5.87717
 20
-1.63047
 30
0.0
 10
5.87717
 20
-1.63047
 30
0.0
 10
6.4818
 20
-2.29752
 30
0.0
 10
6.4818
 20
-2.29752
 30
0.0
 10
6.4818
 20
-2.29752
 30
0.0
 10
6.4818
 20
-2.29752
 30
0.0
 10
7.0464
 20
-1.6584
 30
0.0
 10
7.0464
 20
-1.6584
 30
0.0
 10
7.0464
 20
-1.6584
 30
0.0
 10
7.0464
 20
-1.6584
 30
0.0
 10
6.44176
 20
-0.99136
 30
0.0
 10
6.44176
 20
-0.99136
 30
0.0
  0
SPLINE
  5
D9
330
1F
100
AcDbEntity
  8
Layer 1
 62
    15
100
AcDbSpline
210
0.0
220
0.0
230
1.0
 70
    11
 71
     3
 72
    20
 73
    16
 74
     0
 42
0.0000000001
 43
0.0000000001
 12
1.0
 22
0.0
 32
0.0
 13
1.0
 23
0.0
 33
0.0
 40
0.0
 40
0.0
 40
0.0
 40
0.0
 40
0.2
 40
0.2
 40
0.2
 40
0.2
 40
0.4
 40
0.4
 40
0.4
 40
0.4
 40
0.6
 40
0.6
 40
0.6
 40
0.6
 40
1.0
 40
1.0
 40
1.0
 40
1.0
 10
5.52838
 20
-1.63292
 30
0.0
 10
5.52838
 20
-1.63292
 30
0.0
 10
4.9278
 20
-0.97035
 30
0.0
 10
4.9278
 20
-0.97035
 30
0.0
 10
4.9278
 20
-0.97035
 30
0.0
 10
4.9278
 20
-0.97035
 30
0.0
 10
4.36316
 20
-1.60952
 30
0.0
 10
4.36316
 20
-1.60952
 30
0.0
 10
4.36316
 20
-1.60952
 30
0.0
 10
4.36316
 20
-1.60952
 30
0.0
 10
4.96373
 20
-2.27209
 30
0.0
 10
4.96373
 20
-2.27209
 30
0.0
 10
4.96373
 20
-2.27209
 30
0.0
 10
4.96373
 20
-2.27209
 30
0.0
 10
5.52838
 20
-1.63292
 30
0.0
 10
5.52838
 20
-1.63292
 30
0.0
  0
SPLINE
  5
DA
330
1F
100
AcDbEntity
  8
Layer 1
 62
    15
100
AcDbSpline
210
0.0
220
0.0
230
1.0
 70
    11
 71
     3
 72
    20
 73
    16
 74
     0
 42
0.0000000001
 43
0.0000000001
 12
1.0
 22
0.0
 32
0.0
 13
1.0
 23
0.0
 33
0.0
 40
0.0
 40
0.0
 40
0.0
 40
0.0
 40
0.2
 40
0.2
 40
0.2
 40
0.2
 40
0.4
 40
0.4
 40
0.4
 40
0.4
 40
0.6
 40
0.6
 40
0.6
 40
0.6
 40
1.0
 40
1.0
 40
1.0
 40
1.0
 10
-5.4532
 20
0.17508
 30
0.0
 10
-5.4532
 20
0.17508
 30
0.0
 10
-5.4532
 20
1.43718
 30
0.0
 10
-5.4532
 20
1.43718
 30
0.0
 10
-5.4532
 20
1.43718
 30
0.0
 10
-5.4532
 20
1.43718
 30
0.0
 10
-5.52715
 20
1.51876
 30
0.0
 10
-5.52715
 20
1.51876
 30
0.0
 10
-5.52715
 20
1.51876
 30
0.0
 10
-5.52715
 20
1.51876
 30
0.0
 10
-6.0918
 20
0.8796
 30
0.0
 10
-6.0918
 20
0.8796
 30
0.0
 10
-6.0918
 20
0.8796
 30
0.0
 10
-6.0918
 20
0.8796
 30
0.0
 10
-5.4532
 20
0.17508
 30
0.0
 10
-5.4532
 20
0.17508
 30
0.0
  0
SPLINE
  5
DB
330
1F
100
AcDbEntity
  8
Layer 1
 62
    15
100
AcDbSpline
210
0.0
220
0.0
230
1.0
 70
    11
 71
     3
 72
    20
 73
    16
 74
     0
 42
0.0000000001
 43
0.0000000001
 12
1.0
 22
0.0
 32
0.0
 13
1.0
 23
0.0
 33
0.0
 40
0.0
 40
0.0
 40
0.0
 40
0.0
 40
0.2
 40
0.2
 40
0.2
 40
0.2
 40
0.4
 40
0.4
 40
0.4
 40
0.4
 40
0.6
 40
0.6
 40
0.6
 40
0.6
 40
1.0
 40
1.0
 40
1.0
 40
1.0
 10
-5.4532
 20
1.99486
 30
0.0
 10
-5.4532
 20
1.99486
 30
0.0
 10
-5.4532
 20
3.34645
 30
0.0
 10
-5.4532
 20
3.34645
 30
0.0
 10
-5.4532
 20
3.34645
 30
0.0
 10
-5.4532
 20
3.34645
 30
0.0
 10
-6.13414
 20
2.57565
 30
0.0
 10
-6.13414
 20
2.57565
 30
0.0
 10
-6.13414
 20
2.57565
 30
0.0
 10
-6.13414
 20
2.57565
 30
0.0
 10
-5.52946
 20
1.90855
 30
0.0
 10
-5.52946
 20
1.90855
 30
0.0
 10
-5.52946
 20
1.90855
 30
0.0
 10
-5.52946
 20
1.90855
 30
0.0
 10
-5.4532
 20
1.99486
 30
0.0
 10
-5.4532
 20
1.99486
 30
0.0
  0
SPLINE
  5
DC
330
1F
100
AcDbEntity
  8
Layer 1
 62
    15
100
AcDbSpline
210
0.0
220
0.0
230
1.0
 70
    11
 71
     3
 72
    16
 73
    12
 74
     0
 42
0.0000000001
 43
0.0000000001
 12
1.0
 22
0.0
 32
0.0
 13
1.0
 23
0.0
 33
0.0
 40
0.0
 40
0.0
 40
0.0
 40
0.0
 40
0.25
 40
0.25
 40
0.25
 40
0.25
 40
0.5
 40
0.5
 40
0.5
 40
0.5
 40
1.0
 40
1.0
 40
1.0
 40
1.0
 10
-14.48581
 20
-1.26337
 30
0.0
 10
-14.48581
 20
-1.26337
 30
0.0
 10
-14.05588
 20
-0.77668
 30
0.0
 10
-14.05588
 20
-0.77668
 30
0.0
 10
-14.05588
 20
-0.77668
 30
0.0
 10
-14.05588
 20
-0.77668
 30
0.0
 10
-14.48581
 20
-0.30237
 30
0.0
 10
-14.48581
 20
-0.30237
 30
0.0
 10
-14.48581
 20
-0.30237
 30
0.0
 10
-14.48581
 20
-0.30237
 30
0.0
 10
-14.48581
 20
-1.26337
 30
0.0
 10
-14.48581
 20
-1.26337
 30
0.0
  0
SPLINE
  5
DD
330
1F
100
AcDbEntity
  8
Layer 1
 62
    15
100
AcDbSpline
210
0.0
220
0.0
230
1.0
 70
    11
 71
     3
 72
    16
 73
    12
 74
     0
 42
0.0000000001
 43
0.0000000001
 12
1.0
 22
0.0
 32
0.0
 13
1.0
 23
0.0
 33
0.0
 40
0.0
 40
0.0
 40
0.0
 40
0.0
 40
0.25
 40
0.25
 40
0.25
 40
0.25
 40
0.5
 40
0.5
 40
0.5
 40
0.5
 40
1.0
 40
1.0
 40
1.0
 40
1.0
 10
-14.48581
 20
0.40788
 30
0.0
 10
-14.48581
 20
0.40788
 30
0.0
 10
-14.06573
 20
0.88341
 30
0.0
 10
-14.06573
 20
0.88341
 30
0.0
 10
-14.06573
 20
0.88341
 30
0.0
 10
-14.06573
 20
0.88341
 30
0.0
 10
-14.48581
 20
1.34688
 30
0.0
 10
-14.48581
 20
1.34688
 30
0.0
 10
-14.48581
 20
1.34688
 30
0.0
 10
-14.48581
 20
1.34688
 30
0.0
 10
-14.48581
 20
0.40788
 30
0.0
 10
-14.48581
 20
0.40788
 30
0.0
  0
SPLINE
  5
DE
330
1F
100
AcDbEntity
  8
Layer 1
 62
    15
100
AcDbSpline
210
0.0
220
0.0
230
1.0
 70
    11
 71
     3
 72
    16
 73
    12
 74
     0
 42
0.0000000001
 43
0.0000000001
 12
1.0
 22
0.0
 32
0.0
 13
1.0
 23
0.0
 33
0.0
 40
0.0
 40
0.0
 40
0.0
 40
0.0
 40
0.25
 40
0.25
 40
0.25
 40
0.25
 40
0.5
 40
0.5
 40
0.5
 40
0.5
 40
1.0
 40
1.0
 40
1.0
 40
1.0
 10
-14.48581
 20
2.0792
 30
0.0
 10
-14.48581
 20
2.0792
 30
0.0
 10
-14.04755
 20
2.57533
 30
0.0
 10
-14.04755
 20
2.57533
 30
0.0
 10
-14.04755
 20
2.57533
 30
0.0
 10
-14.04755
 20
2.57533
 30
0.0
 10
-14.48581
 20
3.05884
 30
0.0
 10
-14.48581
 20
3.05884
 30
0.0
 10
-14.48581
 20
3.05884
 30
0.0
 10
-14.48581
 20
3.05884
 30
0.0
 10
-14.48581
 20
2.0792
 30
0.0
 10
-14.48581
 20
2.0792
 30
0.0
  0
SPLINE
  5
DF
330
1F
100
AcDbEntity
  8
Layer 1
 62
    15
100
AcDbSpline
210
0.0
220
0.0
230
1.0
 70
    11
 71
     3
 72
    20
 73
    16
 74
     0
 42
0.0000000001
 43
0.0000000001
 12
1.0
 22
0.0
 32
0.0
 13
1.0
 23
0.0
 33
0.0
 40
0.0
 40
0.0
 40
0.0
 40
0.0
 40
0.2
 40
0.2
 40
0.2
 40
0.2
 40
0.4
 40
0.4
 40
0.4
 40
0.4
 40
0.6
 40
0.6
 40
0.6
 40
0.6
 40
1.0
 40
1.0
 40
1.0
 40
1.0
 10
-7.12559
 20
0.10176
 30
0.0
 10
-7.12559
 20
0.10176
 30
0.0
 10
-7.73027
 20
0.76885
 30
0.0
 10
-7.73027
 20
0.76885
 30
0.0
 10
-7.73027
 20
0.76885
 30
0.0
 10
-7.73027
 20
0.76885
 30
0.0
 10
-8.32699
 20
0.09337
 30
0.0
 10
-8.32699
 20
0.09337
 30
0.0
 10
-8.32699
 20
0.09337
 30
0.0
 10
-8.32699
 20
0.09337
 30
0.0
 10
-7.72231
 20
-0.57372
 30
0.0
 10
-7.72231
 20
-0.57372
 30
0.0
 10
-7.72231
 20
-0.57372
 30
0.0
 10
-7.72231
 20
-0.57372
 30
0.0
 10
-7.12559
 20
0.10176
 30
0.0
 10
-7.12559
 20
0.10176
 30
0.0
  0
SPLINE
  5
E0
330
1F
100
AcDbEntity
  8
Layer 1
 62
    15
100
AcDbSpline
210
0.0
220
0.0
230
1.0
 70
    11
 71
     3
 72
    20
 73
    16
 74
     0
 42
0.0000000001
 43
0.0000000001
 12
1.0
 22
0.0
 32
0.0
 13
1.0
 23
0.0
 33
0.0
 40
0.0
 40
0.0
 40
0.0
 40
0.0
 40
0.2
 40
0.2
 40
0.2
 40
0.2
 40
0.4
 40
0.4
 40
0.4
 40
0.4
 40
0.6
 40
0.6
 40
0.6
 40
0.6
 40
1.0
 40
1.0
 40
1.0
 40
1.0
 10
-7.90582
 20
0.96252
 30
0.0
 10
-7.90582
 20
0.96252
 30
0.0
 10
-8.51048
 20
1.62961
 30
0.0
 10
-8.51048
 20
1.62961
 30
0.0
 10
-8.51048
 20
1.62961
 30
0.0
 10
-8.51048
 20
1.62961
 30
0.0
 10
-9.10721
 20
0.95414
 30
0.0
 10
-9.10721
 20
0.95414
 30
0.0
 10
-9.10721
 20
0.95414
 30
0.0
 10
-9.10721
 20
0.95414
 30
0.0
 10
-8.50255
 20
0.28705
 30
0.0
 10
-8.50255
 20
0.28705
 30
0.0
 10
-8.50255
 20
0.28705
 30
0.0
 10
-8.50255
 20
0.28705
 30
0.0
 10
-7.90582
 20
0.96252
 30
0.0
 10
-7.90582
 20
0.96252
 30
0.0
  0
SPLINE
  5
E1
330
1F
100
AcDbEntity
  8
Layer 1
 62
    15
100
AcDbSpline
210
0.0
220
0.0
230
1.0
 70
    11
 71
     3
 72
    20
 73
    16
 74
     0
 42
0.0000000001
 43
0.0000000001
 12
1.0
 22
0.0
 32
0.0
 13
1.0
 23
0.0
 33
0.0
 40
0.0
 40
0.0
 40
0.0
 40
0.0
 40
0.2
 40
0.2
 40
0.2
 40
0.2
 40
0.4
 40
0.4
 40
0.4
 40
0.4
 40
0.6
 40
0.6
 40
0.6
 40
0.6
 40
1.0
 40
1.0
 40
1.0
 40
1.0
 10
-8.68602
 20
1.82327
 30
0.0
 10
-8.68602
 20
1.82327
 30
0.0
 10
-9.29066
 20
2.49034
 30
0.0
 10
-9.29066
 20
2.49034
 30
0.0
 10
-9.29066
 20
2.49034
 30
0.0
 10
-9.29066
 20
2.49034
 30
0.0
 10
-9.88738
 20
1.81485
 30
0.0
 10
-9.88738
 20
1.81485
 30
0.0
 10
-9.88738
 20
1.81485
 30
0.0
 10
-9.88738
 20
1.81485
 30
0.0
 10
-9.28274
 20
1.1478
 30
0.0
 10
-9.28274
 20
1.1478
 30
0.0
 10
-9.28274
 20
1.1478
 30
0.0
 10
-9.28274
 20
1.1478
 30
0.0
 10
-8.68602
 20
1.82327
 30
0.0
 10
-8.68602
 20
1.82327
 30
0.0
  0
SPLINE
  5
E2
330
1F
100
AcDbEntity
  8
Layer 1
 62
    15
100
AcDbSpline
210
0.0
220
0.0
230
1.0
 70
    11
 71
     3
 72
    20
 73
    16
 74
     0
 42
0.0000000001
 43
0.0000000001
 12
1.0
 22
0.0
 32
0.0
 13
1.0
 23
0.0
 33
0.0
 40
0.0
 40
0.0
 40
0.0
 40
0.0
 40
0.2
 40
0.2
 40
0.2
 40
0.2
 40
0.4
 40
0.4
 40
0.4
 40
0.4
 40
0.6
 40
0.6
 40
0.6
 40
0.6
 40
1.0
 40
1.0
 40
1.0
 40
1.0
 10
-9.46619
 20
2.68398
 30
0.0
 10
-9.46619
 20
2.68398
 30
0.0
 10
-10.06676
 20
3.34656
 30
0.0
 10
-10.06676
 20
3.34656
 30
0.0
 10
-10.06676
 20
3.34656
 30
0.0
 10
-10.06676
 20
3.34656
 30
0.0
 10
-10.66349
 20
2.67107
 30
0.0
 10
-10.66349
 20
2.67107
 30
0.0
 10
-10.66349
 20
2.67107
 30
0.0
 10
-10.66349
 20
2.67107
 30
0.0
 10
-10.06291
 20
2.00851
 30
0.0
 10
-10.06291
 20
2.00851
 30
0.0
 10
-10.06291
 20
2.00851
 30
0.0
 10
-10.06291
 20
2.00851
 30
0.0
 10
-9.46619
 20
2.68398
 30
0.0
 10
-9.46619
 20
2.68398
 30
0.0
  0
SPLINE
  5
E3
330
1F
100
AcDbEntity
  8
Layer 1
 62
    15
100
AcDbSpline
210
0.0
220
0.0
230
1.0
 70
    11
 71
     3
 72
    20
 73
    16
 74
     0
 42
0.0000000001
 43
0.0000000001
 12
1.0
 22
0.0
 32
0.0
 13
1.0
 23
0.0
 33
0.0
 40
0.0
 40
0.0
 40
0.0
 40
0.0
 40
0.2
 40
0.2
 40
0.2
 40
0.2
 40
0.4
 40
0.4
 40
0.4
 40
0.4
 40
0.6
 40
0.6
 40
0.6
 40
0.6
 40
1.0
 40
1.0
 40
1.0
 40
1.0
 10
-10.24231
 20
3.54023
 30
0.0
 10
-10.24231
 20
3.54023
 30
0.0
 10
-10.81445
 20
4.17143
 30
0.0
 10
-10.81445
 20
4.17143
 30
0.0
 10
-10.81445
 20
4.17143
 30
0.0
 10
-10.81445
 20
4.17143
 30
0.0
 10
-11.41116
 20
3.49595
 30
0.0
 10
-11.41116
 20
3.49595
 30
0.0
 10
-11.41116
 20
3.49595
 30
0.0
 10
-11.41116
 20
3.49595
 30
0.0
 10
-10.83904
 20
2.86475
 30
0.0
 10
-10.83904
 20
2.86475
 30
0.0
 10
-10.83904
 20
2.86475
 30
0.0
 10
-10.83904
 20
2.86475
 30
0.0
 10
-10.24231
 20
3.54023
 30
0.0
 10
-10.24231
 20
3.54023
 30
0.0
  0
SPLINE
  5
E4
330
1F
100
AcDbEntity
  8
Layer 1
 62
    15
100
AcDbSpline
210
0.0
220
0.0
230
1.0
 70
    11
 71
     3
 72
    20
 73
    16
 74
     0
 42
0.0000000001
 43
0.0000000001
 12
1.0
 22
0.0
 32
0.0
 13
1.0
 23
0.0
 33
0.0
 40
0.0
 40
0.0
 40
0.0
 40
0.0
 40
0.2
 40
0.2
 40
0.2
 40
0.2
 40
0.4
 40
0.4
 40
0.4
 40
0.4
 40
0.6
 40
0.6
 40
0.6
 40
0.6
 40
1.0
 40
1.0
 40
1.0
 40
1.0
 10
-9.89353
 20
3.54266
 30
0.0
 10
-9.89353
 20
3.54266
 30
0.0
 10
-9.29295
 20
2.8801
 30
0.0
 10
-9.29295
 20
2.8801
 30
0.0
 10
-9.29295
 20
2.8801
 30
0.0
 10
-9.29295
 20
2.8801
 30
0.0
 10
-8.78119
 20
3.4594
 30
0.0
 10
-8.78119
 20
3.4594
 30
0.0
 10
-8.78119
 20
3.4594
 30
0.0
 10
-8.78119
 20
3.4594
 30
0.0
 10
-9.38175
 20
4.12197
 30
0.0
 10
-9.38175
 20
4.12197
 30
0.0
 10
-9.38175
 20
4.12197
 30
0.0
 10
-9.38175
 20
4.12197
 30
0.0
 10
-9.89353
 20
3.54266
 30
0.0
 10
-9.89353
 20
3.54266
 30
0.0
  0
SPLINE
  5
E5
330
1F
100
AcDbEntity
  8
Layer 1
 62
    15
100
AcDbSpline
210
0.0
220
0.0
230
1.0
 70
    11
 71
     3
 72
    20
 73
    16
 74
     0
 42
0.0000000001
 43
0.0000000001
 12
1.0
 22
0.0
 32
0.0
 13
1.0
 23
0.0
 33
0.0
 40
0.0
 40
0.0
 40
0.0
 40
0.0
 40
0.2
 40
0.2
 40
0.2
 40
0.2
 40
0.4
 40
0.4
 40
0.4
 40
0.4
 40
0.6
 40
0.6
 40
0.6
 40
0.6
 40
1.0
 40
1.0
 40
1.0
 40
1.0
 10
-9.11742
 20
2.68644
 30
0.0
 10
-9.11742
 20
2.68644
 30
0.0
 10
-8.51278
 20
2.01937
 30
0.0
 10
-8.51278
 20
2.01937
 30
0.0
 10
-8.51278
 20
2.01937
 30
0.0
 10
-8.51278
 20
2.01937
 30
0.0
 10
-8.00101
 20
2.59868
 30
0.0
 10
-8.00101
 20
2.59868
 30
0.0
 10
-8.00101
 20
2.59868
 30
0.0
 10
-8.00101
 20
2.59868
 30
0.0
 10
-8.60566
 20
3.26575
 30
0.0
 10
-8.60566
 20
3.26575
 30
0.0
 10
-8.60566
 20
3.26575
 30
0.0
 10
-8.60566
 20
3.26575
 30
0.0
 10
-9.11742
 20
2.68644
 30
0.0
 10
-9.11742
 20
2.68644
 30
0.0
  0
SPLINE
  5
E6
330
1F
100
AcDbEntity
  8
Layer 1
 62
    15
100
AcDbSpline
210
0.0
220
0.0
230
1.0
 70
    11
 71
     3
 72
    20
 73
    16
 74
     0
 42
0.0000000001
 43
0.0000000001
 12
1.0
 22
0.0
 32
0.0
 13
1.0
 23
0.0
 33
0.0
 40
0.0
 40
0.0
 40
0.0
 40
0.0
 40
0.2
 40
0.2
 40
0.2
 40
0.2
 40
0.4
 40
0.4
 40
0.4
 40
0.4
 40
0.6
 40
0.6
 40
0.6
 40
0.6
 40
1.0
 40
1.0
 40
1.0
 40
1.0
 10
-8.33725
 20
1.82572
 30
0.0
 10
-8.33725
 20
1.82572
 30
0.0
 10
-7.73258
 20
1.15863
 30
0.0
 10
-7.73258
 20
1.15863
 30
0.0
 10
-7.73258
 20
1.15863
 30
0.0
 10
-7.73258
 20
1.15863
 30
0.0
 10
-7.22082
 20
1.73794
 30
0.0
 10
-7.22082
 20
1.73794
 30
0.0
 10
-7.22082
 20
1.73794
 30
0.0
 10
-7.22082
 20
1.73794
 30
0.0
 10
-7.82548
 20
2.40503
 30
0.0
 10
-7.82548
 20
2.40503
 30
0.0
 10
-7.82548
 20
2.40503
 30
0.0
 10
-7.82548
 20
2.40503
 30
0.0
 10
-8.33725
 20
1.82572
 30
0.0
 10
-8.33725
 20
1.82572
 30
0.0
  0
SPLINE
  5
E7
330
1F
100
AcDbEntity
  8
Layer 1
 62
    15
100
AcDbSpline
210
0.0
220
0.0
230
1.0
 70
    11
 71
     3
 72
    20
 73
    16
 74
     0
 42
0.0000000001
 43
0.0000000001
 12
1.0
 22
0.0
 32
0.0
 13
1.0
 23
0.0
 33
0.0
 40
0.0
 40
0.0
 40
0.0
 40
0.0
 40
0.2
 40
0.2
 40
0.2
 40
0.2
 40
0.4
 40
0.4
 40
0.4
 40
0.4
 40
0.6
 40
0.6
 40
0.6
 40
0.6
 40
1.0
 40
1.0
 40
1.0
 40
1.0
 10
-7.55703
 20
0.96496
 30
0.0
 10
-7.55703
 20
0.96496
 30
0.0
 10
-6.95235
 20
0.29785
 30
0.0
 10
-6.95235
 20
0.29785
 30
0.0
 10
-6.95235
 20
0.29785
 30
0.0
 10
-6.95235
 20
0.29785
 30
0.0
 10
-6.44059
 20
0.87717
 30
0.0
 10
-6.44059
 20
0.87717
 30
0.0
 10
-6.44059
 20
0.87717
 30
0.0
 10
-6.44059
 20
0.87717
 30
0.0
 10
-7.04526
 20
1.54427
 30
0.0
 10
-7.04526
 20
1.54427
 30
0.0
 10
-7.04526
 20
1.54427
 30
0.0
 10
-7.04526
 20
1.54427
 30
0.0
 10
-7.55703
 20
0.96496
 30
0.0
 10
-7.55703
 20
0.96496
 30
0.0
  0
SPLINE
  5
E8
330
1F
100
AcDbEntity
  8
Layer 1
 62
    15
100
AcDbSpline
210
0.0
220
0.0
230
1.0
 70
    11
 71
     3
 72
    20
 73
    16
 74
     0
 42
0.0000000001
 43
0.0000000001
 12
1.0
 22
0.0
 32
0.0
 13
1.0
 23
0.0
 33
0.0
 40
0.0
 40
0.0
 40
0.0
 40
0.0
 40
0.2
 40
0.2
 40
0.2
 40
0.2
 40
0.4
 40
0.4
 40
0.4
 40
0.4
 40
0.6
 40
0.6
 40
0.6
 40
0.6
 40
1.0
 40
1.0
 40
1.0
 40
1.0
 10
-7.86779
 20
4.10102
 30
0.0
 10
-7.86779
 20
4.10102
 30
0.0
 10
-8.43242
 20
3.46186
 30
0.0
 10
-8.43242
 20
3.46186
 30
0.0
 10
-8.43242
 20
3.46186
 30
0.0
 10
-8.43242
 20
3.46186
 30
0.0
 10
-7.82777
 20
2.79479
 30
0.0
 10
-7.82777
 20
2.79479
 30
0.0
 10
-7.82777
 20
2.79479
 30
0.0
 10
-7.82777
 20
2.79479
 30
0.0
 10
-7.26313
 20
3.43395
 30
0.0
 10
-7.26313
 20
3.43395
 30
0.0
 10
-7.26313
 20
3.43395
 30
0.0
 10
-7.26313
 20
3.43395
 30
0.0
 10
-7.86779
 20
4.10102
 30
0.0
 10
-7.86779
 20
4.10102
 30
0.0
  0
SPLINE
  5
E9
330
1F
100
AcDbEntity
  8
Layer 1
 62
    15
100
AcDbSpline
210
0.0
220
0.0
230
1.0
 70
    11
 71
     3
 72
    20
 73
    16
 74
     0
 42
0.0000000001
 43
0.0000000001
 12
1.0
 22
0.0
 32
0.0
 13
1.0
 23
0.0
 33
0.0
 40
0.0
 40
0.0
 40
0.0
 40
0.0
 40
0.2
 40
0.2
 40
0.2
 40
0.2
 40
0.4
 40
0.4
 40
0.4
 40
0.4
 40
0.6
 40
0.6
 40
0.6
 40
0.6
 40
1.0
 40
1.0
 40
1.0
 40
1.0
 10
-7.0876
 20
3.2403
 30
0.0
 10
-7.0876
 20
3.2403
 30
0.0
 10
-7.65224
 20
2.60113
 30
0.0
 10
-7.65224
 20
2.60113
 30
0.0
 10
-7.65224
 20
2.60113
 30
0.0
 10
-7.65224
 20
2.60113
 30
0.0
 10
-7.04758
 20
1.93405
 30
0.0
 10
-7.04758
 20
1.93405
 30
0.0
 10
-7.04758
 20
1.93405
 30
0.0
 10
-7.04758
 20
1.93405
 30
0.0
 10
-6.48293
 20
2.57322
 30
0.0
 10
-6.48293
 20
2.57322
 30
0.0
 10
-6.48293
 20
2.57322
 30
0.0
 10
-6.48293
 20
2.57322
 30
0.0
 10
-7.0876
 20
3.2403
 30
0.0
 10
-7.0876
 20
3.2403
 30
0.0
  0
SPLINE
  5
EA
330
1F
100
AcDbEntity
  8
Layer 1
 62
    15
100
AcDbSpline
210
0.0
220
0.0
230
1.0
 70
    11
 71
     3
 72
    20
 73
    16
 74
     0
 42
0.0000000001
 43
0.0000000001
 12
1.0
 22
0.0
 32
0.0
 13
1.0
 23
0.0
 33
0.0
 40
0.0
 40
0.0
 40
0.0
 40
0.0
 40
0.2
 40
0.2
 40
0.2
 40
0.2
 40
0.4
 40
0.4
 40
0.4
 40
0.4
 40
0.6
 40
0.6
 40
0.6
 40
0.6
 40
1.0
 40
1.0
 40
1.0
 40
1.0
 10
-6.30739
 20
2.37954
 30
0.0
 10
-6.30739
 20
2.37954
 30
0.0
 10
-6.87202
 20
1.74038
 30
0.0
 10
-6.87202
 20
1.74038
 30
0.0
 10
-6.87202
 20
1.74038
 30
0.0
 10
-6.87202
 20
1.74038
 30
0.0
 10
-6.26735
 20
1.07327
 30
0.0
 10
-6.26735
 20
1.07327
 30
0.0
 10
-6.26735
 20
1.07327
 30
0.0
 10
-6.26735
 20
1.07327
 30
0.0
 10
-5.70271
 20
1.71243
 30
0.0
 10
-5.70271
 20
1.71243
 30
0.0
 10
-5.70271
 20
1.71243
 30
0.0
 10
-5.70271
 20
1.71243
 30
0.0
 10
-6.30739
 20
2.37954
 30
0.0
 10
-6.30739
 20
2.37954
 30
0.0
  0
SPLINE
  5
EB
330
1F
100
AcDbEntity
  8
Layer 1
 62
    15
100
AcDbSpline
210
0.0
220
0.0
230
1.0
 70
    11
 71
     3
 72
    20
 73
    16
 74
     0
 42
0.0000000001
 43
0.0000000001
 12
1.0
 22
0.0
 32
0.0
 13
1.0
 23
0.0
 33
0.0
 40
0.0
 40
0.0
 40
0.0
 40
0.0
 40
0.2
 40
0.2
 40
0.2
 40
0.2
 40
0.4
 40
0.4
 40
0.4
 40
0.4
 40
0.6
 40
0.6
 40
0.6
 40
0.6
 40
1.0
 40
1.0
 40
1.0
 40
1.0
 10
-12.33212
 20
4.12476
 30
0.0
 10
-12.33212
 20
4.12476
 30
0.0
 10
-12.92883
 20
3.44929
 30
0.0
 10
-12.92883
 20
3.44929
 30
0.0
 10
-12.92883
 20
3.44929
 30
0.0
 10
-12.92883
 20
3.44929
 30
0.0
 10
-12.35667
 20
2.81803
 30
0.0
 10
-12.35667
 20
2.81803
 30
0.0
 10
-12.35667
 20
2.81803
 30
0.0
 10
-12.35667
 20
2.81803
 30
0.0
 10
-11.75996
 20
3.49351
 30
0.0
 10
-11.75996
 20
3.49351
 30
0.0
 10
-11.75996
 20
3.49351
 30
0.0
 10
-11.75996
 20
3.49351
 30
0.0
 10
-12.33212
 20
4.12476
 30
0.0
 10
-12.33212
 20
4.12476
 30
0.0
  0
SPLINE
  5
EC
330
1F
100
AcDbEntity
  8
Layer 1
 62
    15
100
AcDbSpline
210
0.0
220
0.0
230
1.0
 70
    11
 71
     3
 72
    20
 73
    16
 74
     0
 42
0.0000000001
 43
0.0000000001
 12
1.0
 22
0.0
 32
0.0
 13
1.0
 23
0.0
 33
0.0
 40
0.0
 40
0.0
 40
0.0
 40
0.0
 40
0.2
 40
0.2
 40
0.2
 40
0.2
 40
0.4
 40
0.4
 40
0.4
 40
0.4
 40
0.6
 40
0.6
 40
0.6
 40
0.6
 40
1.0
 40
1.0
 40
1.0
 40
1.0
 10
-11.5844
 20
3.29983
 30
0.0
 10
-11.5844
 20
3.29983
 30
0.0
 10
-12.18111
 20
2.62437
 30
0.0
 10
-12.18111
 20
2.62437
 30
0.0
 10
-12.18111
 20
2.62437
 30
0.0
 10
-12.18111
 20
2.62437
 30
0.0
 10
-11.60898
 20
1.99317
 30
0.0
 10
-11.60898
 20
1.99317
 30
0.0
 10
-11.60898
 20
1.99317
 30
0.0
 10
-11.60898
 20
1.99317
 30
0.0
 10
-11.01227
 20
2.66864
 30
0.0
 10
-11.01227
 20
2.66864
 30
0.0
 10
-11.01227
 20
2.66864
 30
0.0
 10
-11.01227
 20
2.66864
 30
0.0
 10
-11.5844
 20
3.29983
 30
0.0
 10
-11.5844
 20
3.29983
 30
0.0
  0
SPLINE
  5
ED
330
1F
100
AcDbEntity
  8
Layer 1
 62
    15
100
AcDbSpline
210
0.0
220
0.0
230
1.0
 70
    11
 71
     3
 72
    20
 73
    16
 74
     0
 42
0.0000000001
 43
0.0000000001
 12
1.0
 22
0.0
 32
0.0
 13
1.0
 23
0.0
 33
0.0
 40
0.0
 40
0.0
 40
0.0
 40
0.0
 40
0.2
 40
0.2
 40
0.2
 40
0.2
 40
0.4
 40
0.4
 40
0.4
 40
0.4
 40
0.6
 40
0.6
 40
0.6
 40
0.6
 40
1.0
 40
1.0
 40
1.0
 40
1.0
 10
-10.83672
 20
2.47497
 30
0.0
 10
-10.83672
 20
2.47497
 30
0.0
 10
-11.43344
 20
1.7995
 30
0.0
 10
-11.43344
 20
1.7995
 30
0.0
 10
-11.43344
 20
1.7995
 30
0.0
 10
-11.43344
 20
1.7995
 30
0.0
 10
-10.83287
 20
1.13694
 30
0.0
 10
-10.83287
 20
1.13694
 30
0.0
 10
-10.83287
 20
1.13694
 30
0.0
 10
-10.83287
 20
1.13694
 30
0.0
 10
-10.23615
 20
1.81241
 30
0.0
 10
-10.23615
 20
1.81241
 30
0.0
 10
-10.23615
 20
1.81241
 30
0.0
 10
-10.23615
 20
1.81241
 30
0.0
 10
-10.83672
 20
2.47497
 30
0.0
 10
-10.83672
 20
2.47497
 30
0.0
  0
SPLINE
  5
EE
330
1F
100
AcDbEntity
  8
Layer 1
 62
    15
100
AcDbSpline
210
0.0
220
0.0
230
1.0
 70
    11
 71
     3
 72
    20
 73
    16
 74
     0
 42
0.0000000001
 43
0.0000000001
 12
1.0
 22
0.0
 32
0.0
 13
1.0
 23
0.0
 33
0.0
 40
0.0
 40
0.0
 40
0.0
 40
0.0
 40
0.2
 40
0.2
 40
0.2
 40
0.2
 40
0.4
 40
0.4
 40
0.4
 40
0.4
 40
0.6
 40
0.6
 40
0.6
 40
0.6
 40
1.0
 40
1.0
 40
1.0
 40
1.0
 10
-10.06062
 20
1.61875
 30
0.0
 10
-10.06062
 20
1.61875
 30
0.0
 10
-10.65733
 20
0.94328
 30
0.0
 10
-10.65733
 20
0.94328
 30
0.0
 10
-10.65733
 20
0.94328
 30
0.0
 10
-10.65733
 20
0.94328
 30
0.0
 10
-10.05269
 20
0.27622
 30
0.0
 10
-10.05269
 20
0.27622
 30
0.0
 10
-10.05269
 20
0.27622
 30
0.0
 10
-10.05269
 20
0.27622
 30
0.0
 10
-9.45598
 20
0.95168
 30
0.0
 10
-9.45598
 20
0.95168
 30
0.0
 10
-9.45598
 20
0.95168
 30
0.0
 10
-9.45598
 20
0.95168
 30
0.0
 10
-10.06062
 20
1.61875
 30
0.0
 10
-10.06062
 20
1.61875
 30
0.0
  0
SPLINE
  5
EF
330
1F
100
AcDbEntity
  8
Layer 1
 62
    15
100
AcDbSpline
210
0.0
220
0.0
230
1.0
 70
    11
 71
     3
 72
    20
 73
    16
 74
     0
 42
0.0000000001
 43
0.0000000001
 12
1.0
 22
0.0
 32
0.0
 13
1.0
 23
0.0
 33
0.0
 40
0.0
 40
0.0
 40
0.0
 40
0.0
 40
0.2
 40
0.2
 40
0.2
 40
0.2
 40
0.4
 40
0.4
 40
0.4
 40
0.4
 40
0.6
 40
0.6
 40
0.6
 40
0.6
 40
1.0
 40
1.0
 40
1.0
 40
1.0
 10
-9.28044
 20
0.75805
 30
0.0
 10
-9.28044
 20
0.75805
 30
0.0
 10
-9.87716
 20
0.08257
 30
0.0
 10
-9.87716
 20
0.08257
 30
0.0
 10
-9.87716
 20
0.08257
 30
0.0
 10
-9.87716
 20
0.08257
 30
0.0
 10
-9.27249
 20
-0.58452
 30
0.0
 10
-9.27249
 20
-0.58452
 30
0.0
 10
-9.27249
 20
-0.58452
 30
0.0
 10
-9.27249
 20
-0.58452
 30
0.0
 10
-8.67578
 20
0.09095
 30
0.0
 10
-8.67578
 20
0.09095
 30
0.0
 10
-8.67578
 20
0.09095
 30
0.0
 10
-8.67578
 20
0.09095
 30
0.0
 10
-9.28044
 20
0.75805
 30
0.0
 10
-9.28044
 20
0.75805
 30
0.0
  0
SPLINE
  5
F0
330
1F
100
AcDbEntity
  8
Layer 1
 62
    15
100
AcDbSpline
210
0.0
220
0.0
230
1.0
 70
    11
 71
     3
 72
    20
 73
    16
 74
     0
 42
0.0000000001
 43
0.0000000001
 12
1.0
 22
0.0
 32
0.0
 13
1.0
 23
0.0
 33
0.0
 40
0.0
 40
0.0
 40
0.0
 40
0.0
 40
0.2
 40
0.2
 40
0.2
 40
0.2
 40
0.4
 40
0.4
 40
0.4
 40
0.4
 40
0.6
 40
0.6
 40
0.6
 40
0.6
 40
1.0
 40
1.0
 40
1.0
 40
1.0
 10
-8.50023
 20
-0.10272
 30
0.0
 10
-8.50023
 20
-0.10272
 30
0.0
 10
-9.09694
 20
-0.77819
 30
0.0
 10
-9.09694
 20
-0.77819
 30
0.0
 10
-9.09694
 20
-0.77819
 30
0.0
 10
-9.09694
 20
-0.77819
 30
0.0
 10
-8.49226
 20
-1.4453
 30
0.0
 10
-8.49226
 20
-1.4453
 30
0.0
 10
-8.49226
 20
-1.4453
 30
0.0
 10
-8.49226
 20
-1.4453
 30
0.0
 10
-7.89555
 20
-0.76983
 30
0.0
 10
-7.89555
 20
-0.76983
 30
0.0
 10
-7.89555
 20
-0.76983
 30
0.0
 10
-7.89555
 20
-0.76983
 30
0.0
 10
-8.50023
 20
-0.10272
 30
0.0
 10
-8.50023
 20
-0.10272
 30
0.0
  0
SPLINE
  5
F1
330
1F
100
AcDbEntity
  8
Layer 1
 62
    15
100
AcDbSpline
210
0.0
220
0.0
230
1.0
 70
    11
 71
     3
 72
    20
 73
    16
 74
     0
 42
0.0000000001
 43
0.0000000001
 12
1.0
 22
0.0
 32
0.0
 13
1.0
 23
0.0
 33
0.0
 40
0.0
 40
0.0
 40
0.0
 40
0.0
 40
0.2
 40
0.2
 40
0.2
 40
0.2
 40
0.4
 40
0.4
 40
0.4
 40
0.4
 40
0.6
 40
0.6
 40
0.6
 40
0.6
 40
1.0
 40
1.0
 40
1.0
 40
1.0
 10
-13.10207
 20
3.2532
 30
0.0
 10
-13.10207
 20
3.2532
 30
0.0
 10
-13.69877
 20
2.57774
 30
0.0
 10
-13.69877
 20
2.57774
 30
0.0
 10
-13.69877
 20
2.57774
 30
0.0
 10
-13.69877
 20
2.57774
 30
0.0
 10
-13.12659
 20
1.9465
 30
0.0
 10
-13.12659
 20
1.9465
 30
0.0
 10
-13.12659
 20
1.9465
 30
0.0
 10
-13.12659
 20
1.9465
 30
0.0
 10
-12.5299
 20
2.62195
 30
0.0
 10
-12.5299
 20
2.62195
 30
0.0
 10
-12.5299
 20
2.62195
 30
0.0
 10
-12.5299
 20
2.62195
 30
0.0
 10
-13.10207
 20
3.2532
 30
0.0
 10
-13.10207
 20
3.2532
 30
0.0
  0
SPLINE
  5
F2
330
1F
100
AcDbEntity
  8
Layer 1
 62
    15
100
AcDbSpline
210
0.0
220
0.0
230
1.0
 70
    11
 71
     3
 72
    20
 73
    16
 74
     0
 42
0.0000000001
 43
0.0000000001
 12
1.0
 22
0.0
 32
0.0
 13
1.0
 23
0.0
 33
0.0
 40
0.0
 40
0.0
 40
0.0
 40
0.0
 40
0.2
 40
0.2
 40
0.2
 40
0.2
 40
0.4
 40
0.4
 40
0.4
 40
0.4
 40
0.6
 40
0.6
 40
0.6
 40
0.6
 40
1.0
 40
1.0
 40
1.0
 40
1.0
 10
-12.35435
 20
2.42827
 30
0.0
 10
-12.35435
 20
2.42827
 30
0.0
 10
-12.95104
 20
1.75283
 30
0.0
 10
-12.95104
 20
1.75283
 30
0.0
 10
-12.95104
 20
1.75283
 30
0.0
 10
-12.95104
 20
1.75283
 30
0.0
 10
-12.37891
 20
1.12163
 30
0.0
 10
-12.37891
 20
1.12163
 30
0.0
 10
-12.37891
 20
1.12163
 30
0.0
 10
-12.37891
 20
1.12163
 30
0.0
 10
-11.78222
 20
1.79707
 30
0.0
 10
-11.78222
 20
1.79707
 30
0.0
 10
-11.78222
 20
1.79707
 30
0.0
 10
-11.78222
 20
1.79707
 30
0.0
 10
-12.35435
 20
2.42827
 30
0.0
 10
-12.35435
 20
2.42827
 30
0.0
  0
SPLINE
  5
F3
330
1F
100
AcDbEntity
  8
Layer 1
 62
    15
100
AcDbSpline
210
0.0
220
0.0
230
1.0
 70
    11
 71
     3
 72
    20
 73
    16
 74
     0
 42
0.0000000001
 43
0.0000000001
 12
1.0
 22
0.0
 32
0.0
 13
1.0
 23
0.0
 33
0.0
 40
0.0
 40
0.0
 40
0.0
 40
0.0
 40
0.2
 40
0.2
 40
0.2
 40
0.2
 40
0.4
 40
0.4
 40
0.4
 40
0.4
 40
0.6
 40
0.6
 40
0.6
 40
0.6
 40
1.0
 40
1.0
 40
1.0
 40
1.0
 10
-11.60666
 20
1.6034
 30
0.0
 10
-11.60666
 20
1.6034
 30
0.0
 10
-12.20335
 20
0.92796
 30
0.0
 10
-12.20335
 20
0.92796
 30
0.0
 10
-12.20335
 20
0.92796
 30
0.0
 10
-12.20335
 20
0.92796
 30
0.0
 10
-11.60278
 20
0.2654
 30
0.0
 10
-11.60278
 20
0.2654
 30
0.0
 10
-11.60278
 20
0.2654
 30
0.0
 10
-11.60278
 20
0.2654
 30
0.0
 10
-11.0061
 20
0.94084
 30
0.0
 10
-11.0061
 20
0.94084
 30
0.0
 10
-11.0061
 20
0.94084
 30
0.0
 10
-11.0061
 20
0.94084
 30
0.0
 10
-11.60666
 20
1.6034
 30
0.0
 10
-11.60666
 20
1.6034
 30
0.0
  0
SPLINE
  5
F4
330
1F
100
AcDbEntity
  8
Layer 1
 62
    15
100
AcDbSpline
210
0.0
220
0.0
230
1.0
 70
    11
 71
     3
 72
    20
 73
    16
 74
     0
 42
0.0000000001
 43
0.0000000001
 12
1.0
 22
0.0
 32
0.0
 13
1.0
 23
0.0
 33
0.0
 40
0.0
 40
0.0
 40
0.0
 40
0.0
 40
0.2
 40
0.2
 40
0.2
 40
0.2
 40
0.4
 40
0.4
 40
0.4
 40
0.4
 40
0.6
 40
0.6
 40
0.6
 40
0.6
 40
1.0
 40
1.0
 40
1.0
 40
1.0
 10
-10.83056
 20
0.74718
 30
0.0
 10
-10.83056
 20
0.74718
 30
0.0
 10
-11.42725
 20
0.07174
 30
0.0
 10
-11.42725
 20
0.07174
 30
0.0
 10
-11.42725
 20
0.07174
 30
0.0
 10
-11.42725
 20
0.07174
 30
0.0
 10
-10.82261
 20
-0.59532
 30
0.0
 10
-10.82261
 20
-0.59532
 30
0.0
 10
-10.82261
 20
-0.59532
 30
0.0
 10
-10.82261
 20
-0.59532
 30
0.0
 10
-10.22593
 20
0.08012
 30
0.0
 10
-10.22593
 20
0.08012
 30
0.0
 10
-10.22593
 20
0.08012
 30
0.0
 10
-10.22593
 20
0.08012
 30
0.0
 10
-10.83056
 20
0.74718
 30
0.0
 10
-10.83056
 20
0.74718
 30
0.0
  0
SPLINE
  5
F5
330
1F
100
AcDbEntity
  8
Layer 1
 62
    15
100
AcDbSpline
210
0.0
220
0.0
230
1.0
 70
    11
 71
     3
 72
    20
 73
    16
 74
     0
 42
0.0000000001
 43
0.0000000001
 12
1.0
 22
0.0
 32
0.0
 13
1.0
 23
0.0
 33
0.0
 40
0.0
 40
0.0
 40
0.0
 40
0.0
 40
0.2
 40
0.2
 40
0.2
 40
0.2
 40
0.4
 40
0.4
 40
0.4
 40
0.4
 40
0.6
 40
0.6
 40
0.6
 40
0.6
 40
1.0
 40
1.0
 40
1.0
 40
1.0
 10
-10.05039
 20
-0.11353
 30
0.0
 10
-10.05039
 20
-0.11353
 30
0.0
 10
-10.64708
 20
-0.78897
 30
0.0
 10
-10.64708
 20
-0.78897
 30
0.0
 10
-10.64708
 20
-0.78897
 30
0.0
 10
-10.64708
 20
-0.78897
 30
0.0
 10
-10.04241
 20
-1.45606
 30
0.0
 10
-10.04241
 20
-1.45606
 30
0.0
 10
-10.04241
 20
-1.45606
 30
0.0
 10
-10.04241
 20
-1.45606
 30
0.0
 10
-9.44573
 20
-0.78062
 30
0.0
 10
-9.44573
 20
-0.78062
 30
0.0
 10
-9.44573
 20
-0.78062
 30
0.0
 10
-9.44573
 20
-0.78062
 30
0.0
 10
-10.05039
 20
-0.11353
 30
0.0
 10
-10.05039
 20
-0.11353
 30
0.0
  0
SPLINE
  5
F6
330
1F
100
AcDbEntity
  8
Layer 1
 62
    15
100
AcDbSpline
210
0.0
220
0.0
230
1.0
 70
    11
 71
     3
 72
    20
 73
    16
 74
     0
 42
0.0000000001
 43
0.0000000001
 12
1.0
 22
0.0
 32
0.0
 13
1.0
 23
0.0
 33
0.0
 40
0.0
 40
0.0
 40
0.0
 40
0.0
 40
0.2
 40
0.2
 40
0.2
 40
0.2
 40
0.4
 40
0.4
 40
0.4
 40
0.4
 40
0.6
 40
0.6
 40
0.6
 40
0.6
 40
1.0
 40
1.0
 40
1.0
 40
1.0
 10
-9.27017
 20
-0.97429
 30
0.0
 10
-9.27017
 20
-0.97429
 30
0.0
 10
-9.86686
 20
-1.64973
 30
0.0
 10
-9.86686
 20
-1.64973
 30
0.0
 10
-9.86686
 20
-1.64973
 30
0.0
 10
-9.86686
 20
-1.64973
 30
0.0
 10
-9.26218
 20
-2.31683
 30
0.0
 10
-9.26218
 20
-2.31683
 30
0.0
 10
-9.26218
 20
-2.31683
 30
0.0
 10
-9.26218
 20
-2.31683
 30
0.0
 10
-8.6655
 20
-1.64139
 30
0.0
 10
-8.6655
 20
-1.64139
 30
0.0
 10
-8.6655
 20
-1.64139
 30
0.0
 10
-8.6655
 20
-1.64139
 30
0.0
 10
-9.27017
 20
-0.97429
 30
0.0
 10
-9.27017
 20
-0.97429
 30
0.0
  0
SPLINE
  5
F7
330
1F
100
AcDbEntity
  8
Layer 1
 62
    15
100
AcDbSpline
210
0.0
220
0.0
230
1.0
 70
    11
 71
     3
 72
    20
 73
    16
 74
     0
 42
0.0000000001
 43
0.0000000001
 12
1.0
 22
0.0
 32
0.0
 13
1.0
 23
0.0
 33
0.0
 40
0.0
 40
0.0
 40
0.0
 40
0.0
 40
0.2
 40
0.2
 40
0.2
 40
0.2
 40
0.4
 40
0.4
 40
0.4
 40
0.4
 40
0.6
 40
0.6
 40
0.6
 40
0.6
 40
1.0
 40
1.0
 40
1.0
 40
1.0
 10
-13.87199
 20
2.38165
 30
0.0
 10
-13.87199
 20
2.38165
 30
0.0
 10
-14.46466
 20
1.71077
 30
0.0
 10
-14.46466
 20
1.71077
 30
0.0
 10
-14.46466
 20
1.71077
 30
0.0
 10
-14.46466
 20
1.71077
 30
0.0
 10
-13.89248
 20
1.07952
 30
0.0
 10
-13.89248
 20
1.07952
 30
0.0
 10
-13.89248
 20
1.07952
 30
0.0
 10
-13.89248
 20
1.07952
 30
0.0
 10
-13.29982
 20
1.7504
 30
0.0
 10
-13.29982
 20
1.7504
 30
0.0
 10
-13.29982
 20
1.7504
 30
0.0
 10
-13.29982
 20
1.7504
 30
0.0
 10
-13.87199
 20
2.38165
 30
0.0
 10
-13.87199
 20
2.38165
 30
0.0
  0
SPLINE
  5
F8
330
1F
100
AcDbEntity
  8
Layer 1
 62
    15
100
AcDbSpline
210
0.0
220
0.0
230
1.0
 70
    11
 71
     3
 72
    20
 73
    16
 74
     0
 42
0.0000000001
 43
0.0000000001
 12
1.0
 22
0.0
 32
0.0
 13
1.0
 23
0.0
 33
0.0
 40
0.0
 40
0.0
 40
0.0
 40
0.0
 40
0.2
 40
0.2
 40
0.2
 40
0.2
 40
0.4
 40
0.4
 40
0.4
 40
0.4
 40
0.6
 40
0.6
 40
0.6
 40
0.6
 40
1.0
 40
1.0
 40
1.0
 40
1.0
 10
-13.12426
 20
1.55672
 30
0.0
 10
-13.12426
 20
1.55672
 30
0.0
 10
-13.71692
 20
0.88585
 30
0.0
 10
-13.71692
 20
0.88585
 30
0.0
 10
-13.71692
 20
0.88585
 30
0.0
 10
-13.71692
 20
0.88585
 30
0.0
 10
-13.1448
 20
0.25466
 30
0.0
 10
-13.1448
 20
0.25466
 30
0.0
 10
-13.1448
 20
0.25466
 30
0.0
 10
-13.1448
 20
0.25466
 30
0.0
 10
-12.55214
 20
0.92554
 30
0.0
 10
-12.55214
 20
0.92554
 30
0.0
 10
-12.55214
 20
0.92554
 30
0.0
 10
-12.55214
 20
0.92554
 30
0.0
 10
-13.12426
 20
1.55672
 30
0.0
 10
-13.12426
 20
1.55672
 30
0.0
  0
SPLINE
  5
F9
330
1F
100
AcDbEntity
  8
Layer 1
 62
    15
100
AcDbSpline
210
0.0
220
0.0
230
1.0
 70
    11
 71
     3
 72
    20
 73
    16
 74
     0
 42
0.0000000001
 43
0.0000000001
 12
1.0
 22
0.0
 32
0.0
 13
1.0
 23
0.0
 33
0.0
 40
0.0
 40
0.0
 40
0.0
 40
0.0
 40
0.2
 40
0.2
 40
0.2
 40
0.2
 40
0.4
 40
0.4
 40
0.4
 40
0.4
 40
0.6
 40
0.6
 40
0.6
 40
0.6
 40
1.0
 40
1.0
 40
1.0
 40
1.0
 10
-12.37658
 20
0.73187
 30
0.0
 10
-12.37658
 20
0.73187
 30
0.0
 10
-12.96925
 20
0.06099
 30
0.0
 10
-12.96925
 20
0.06099
 30
0.0
 10
-12.96925
 20
0.06099
 30
0.0
 10
-12.96925
 20
0.06099
 30
0.0
 10
-12.36868
 20
-0.60157
 30
0.0
 10
-12.36868
 20
-0.60157
 30
0.0
 10
-12.36868
 20
-0.60157
 30
0.0
 10
-12.36868
 20
-0.60157
 30
0.0
 10
-11.77602
 20
0.06931
 30
0.0
 10
-11.77602
 20
0.06931
 30
0.0
 10
-11.77602
 20
0.06931
 30
0.0
 10
-11.77602
 20
0.06931
 30
0.0
 10
-12.37658
 20
0.73187
 30
0.0
 10
-12.37658
 20
0.73187
 30
0.0
  0
SPLINE
  5
FA
330
1F
100
AcDbEntity
  8
Layer 1
 62
    15
100
AcDbSpline
210
0.0
220
0.0
230
1.0
 70
    11
 71
     3
 72
    20
 73
    16
 74
     0
 42
0.0000000001
 43
0.0000000001
 12
1.0
 22
0.0
 32
0.0
 13
1.0
 23
0.0
 33
0.0
 40
0.0
 40
0.0
 40
0.0
 40
0.0
 40
0.2
 40
0.2
 40
0.2
 40
0.2
 40
0.4
 40
0.4
 40
0.4
 40
0.4
 40
0.6
 40
0.6
 40
0.6
 40
0.6
 40
1.0
 40
1.0
 40
1.0
 40
1.0
 10
-11.60048
 20
-0.12436
 30
0.0
 10
-11.60048
 20
-0.12436
 30
0.0
 10
-12.19314
 20
-0.79524
 30
0.0
 10
-12.19314
 20
-0.79524
 30
0.0
 10
-12.19314
 20
-0.79524
 30
0.0
 10
-12.19314
 20
-0.79524
 30
0.0
 10
-11.58851
 20
-1.4623
 30
0.0
 10
-11.58851
 20
-1.4623
 30
0.0
 10
-11.58851
 20
-1.4623
 30
0.0
 10
-11.58851
 20
-1.4623
 30
0.0
 10
-10.99585
 20
-0.79141
 30
0.0
 10
-10.99585
 20
-0.79141
 30
0.0
 10
-10.99585
 20
-0.79141
 30
0.0
 10
-10.99585
 20
-0.79141
 30
0.0
 10
-11.60048
 20
-0.12436
 30
0.0
 10
-11.60048
 20
-0.12436
 30
0.0
  0
SPLINE
  5
FB
330
1F
100
AcDbEntity
  8
Layer 1
 62
    15
100
AcDbSpline
210
0.0
220
0.0
230
1.0
 70
    11
 71
     3
 72
    20
 73
    16
 74
     0
 42
0.0000000001
 43
0.0000000001
 12
1.0
 22
0.0
 32
0.0
 13
1.0
 23
0.0
 33
0.0
 40
0.0
 40
0.0
 40
0.0
 40
0.0
 40
0.2
 40
0.2
 40
0.2
 40
0.2
 40
0.4
 40
0.4
 40
0.4
 40
0.4
 40
0.6
 40
0.6
 40
0.6
 40
0.6
 40
1.0
 40
1.0
 40
1.0
 40
1.0
 10
-10.8203
 20
-0.98506
 30
0.0
 10
-10.8203
 20
-0.98506
 30
0.0
 10
-11.41298
 20
-1.65595
 30
0.0
 10
-11.41298
 20
-1.65595
 30
0.0
 10
-11.41298
 20
-1.65595
 30
0.0
 10
-11.41298
 20
-1.65595
 30
0.0
 10
-10.80831
 20
-2.32304
 30
0.0
 10
-10.80831
 20
-2.32304
 30
0.0
 10
-10.80831
 20
-2.32304
 30
0.0
 10
-10.80831
 20
-2.32304
 30
0.0
 10
-10.21565
 20
-1.65214
 30
0.0
 10
-10.21565
 20
-1.65214
 30
0.0
 10
-10.21565
 20
-1.65214
 30
0.0
 10
-10.21565
 20
-1.65214
 30
0.0
 10
-10.8203
 20
-0.98506
 30
0.0
 10
-10.8203
 20
-0.98506
 30
0.0
  0
SPLINE
  5
FC
330
1F
100
AcDbEntity
  8
Layer 1
 62
    15
100
AcDbSpline
210
0.0
220
0.0
230
1.0
 70
    11
 71
     3
 72
    20
 73
    16
 74
     0
 42
0.0000000001
 43
0.0000000001
 12
1.0
 22
0.0
 32
0.0
 13
1.0
 23
0.0
 33
0.0
 40
0.0
 40
0.0
 40
0.0
 40
0.0
 40
0.2
 40
0.2
 40
0.2
 40
0.2
 40
0.4
 40
0.4
 40
0.4
 40
0.4
 40
0.6
 40
0.6
 40
0.6
 40
0.6
 40
1.0
 40
1.0
 40
1.0
 40
1.0
 10
-13.89017
 20
0.68974
 30
0.0
 10
-13.89017
 20
0.68974
 30
0.0
 10
-14.45477
 20
0.05061
 30
0.0
 10
-14.45477
 20
0.05061
 30
0.0
 10
-14.45477
 20
0.05061
 30
0.0
 10
-14.45477
 20
0.05061
 30
0.0
 10
-13.88264
 20
-0.58058
 30
0.0
 10
-13.88264
 20
-0.58058
 30
0.0
 10
-13.88264
 20
-0.58058
 30
0.0
 10
-13.88264
 20
-0.58058
 30
0.0
 10
-13.31804
 20
0.05855
 30
0.0
 10
-13.31804
 20
0.05855
 30
0.0
 10
-13.31804
 20
0.05855
 30
0.0
 10
-13.31804
 20
0.05855
 30
0.0
 10
-13.89017
 20
0.68974
 30
0.0
 10
-13.89017
 20
0.68974
 30
0.0
  0
SPLINE
  5
FD
330
1F
100
AcDbEntity
  8
Layer 1
 62
    15
100
AcDbSpline
210
0.0
220
0.0
230
1.0
 70
    11
 71
     3
 72
    20
 73
    16
 74
     0
 42
0.0000000001
 43
0.0000000001
 12
1.0
 22
0.0
 32
0.0
 13
1.0
 23
0.0
 33
0.0
 40
0.0
 40
0.0
 40
0.0
 40
0.0
 40
0.2
 40
0.2
 40
0.2
 40
0.2
 40
0.4
 40
0.4
 40
0.4
 40
0.4
 40
0.6
 40
0.6
 40
0.6
 40
0.6
 40
1.0
 40
1.0
 40
1.0
 40
1.0
 10
-13.14249
 20
-0.13513
 30
0.0
 10
-13.14249
 20
-0.13513
 30
0.0
 10
-13.70709
 20
-0.77424
 30
0.0
 10
-13.70709
 20
-0.77424
 30
0.0
 10
-13.70709
 20
-0.77424
 30
0.0
 10
-13.70709
 20
-0.77424
 30
0.0
 10
-13.10652
 20
-1.4368
 30
0.0
 10
-13.10652
 20
-1.4368
 30
0.0
 10
-13.10652
 20
-1.4368
 30
0.0
 10
-13.10652
 20
-1.4368
 30
0.0
 10
-12.54192
 20
-0.79769
 30
0.0
 10
-12.54192
 20
-0.79769
 30
0.0
 10
-12.54192
 20
-0.79769
 30
0.0
 10
-12.54192
 20
-0.79769
 30
0.0
 10
-13.14249
 20
-0.13513
 30
0.0
 10
-13.14249
 20
-0.13513
 30
0.0
  0
SPLINE
  5
FE
330
1F
100
AcDbEntity
  8
Layer 1
 62
    15
100
AcDbSpline
210
0.0
220
0.0
230
1.0
 70
    11
 71
     3
 72
    20
 73
    16
 74
     0
 42
0.0000000001
 43
0.0000000001
 12
1.0
 22
0.0
 32
0.0
 13
1.0
 23
0.0
 33
0.0
 40
0.0
 40
0.0
 40
0.0
 40
0.0
 40
0.2
 40
0.2
 40
0.2
 40
0.2
 40
0.4
 40
0.4
 40
0.4
 40
0.4
 40
0.6
 40
0.6
 40
0.6
 40
0.6
 40
1.0
 40
1.0
 40
1.0
 40
1.0
 10
-12.36638
 20
-0.99136
 30
0.0
 10
-12.36638
 20
-0.99136
 30
0.0
 10
-12.93097
 20
-1.63047
 30
0.0
 10
-12.93097
 20
-1.63047
 30
0.0
 10
-12.93097
 20
-1.63047
 30
0.0
 10
-12.93097
 20
-1.63047
 30
0.0
 10
-12.32635
 20
-2.29752
 30
0.0
 10
-12.32635
 20
-2.29752
 30
0.0
 10
-12.32635
 20
-2.29752
 30
0.0
 10
-12.32635
 20
-2.29752
 30
0.0
 10
-11.76174
 20
-1.6584
 30
0.0
 10
-11.76174
 20
-1.6584
 30
0.0
 10
-11.76174
 20
-1.6584
 30
0.0
 10
-11.76174
 20
-1.6584
 30
0.0
 10
-12.36638
 20
-0.99136
 30
0.0
 10
-12.36638
 20
-0.99136
 30
0.0
  0
SPLINE
  5
FF
330
1F
100
AcDbEntity
  8
Layer 1
 62
    15
100
AcDbSpline
210
0.0
220
0.0
230
1.0
 70
    11
 71
     3
 72
    20
 73
    16
 74
     0
 42
0.0000000001
 43
0.0000000001
 12
1.0
 22
0.0
 32
0.0
 13
1.0
 23
0.0
 33
0.0
 40
0.0
 40
0.0
 40
0.0
 40
0.0
 40
0.2
 40
0.2
 40
0.2
 40
0.2
 40
0.4
 40
0.4
 40
0.4
 40
0.4
 40
0.6
 40
0.6
 40
0.6
 40
0.6
 40
1.0
 40
1.0
 40
1.0
 40
1.0
 10
-13.27977
 20
-1.63292
 30
0.0
 10
-13.27977
 20
-1.63292
 30
0.0
 10
-13.88034
 20
-0.97035
 30
0.0
 10
-13.88034
 20
-0.97035
 30
0.0
 10
-13.88034
 20
-0.97035
 30
0.0
 10
-13.88034
 20
-0.97035
 30
0.0
 10
-14.44498
 20
-1.60952
 30
0.0
 10
-14.44498
 20
-1.60952
 30
0.0
 10
-14.44498
 20
-1.60952
 30
0.0
 10
-14.44498
 20
-1.60952
 30
0.0
 10
-13.84442
 20
-2.27209
 30
0.0
 10
-13.84442
 20
-2.27209
 30
0.0
 10
-13.84442
 20
-2.27209
 30
0.0
 10
-13.84442
 20
-2.27209
 30
0.0
 10
-13.27977
 20
-1.63292
 30
0.0
 10
-13.27977
 20
-1.63292
 30
0.0
  0
ENDSEC
  0
SECTION
  2
OBJECTS
  0
DICTIONARY
  5
C
330
0
100
AcDbDictionary
281
     1
  3
ACAD_GROUP
350
D
  3
ACAD_LAYOUT
350
1A
  3
ACAD_MATERIAL
350
3B
  3
ACAD_MLEADERSTYLE
350
102
  3
ACAD_MLINESTYLE
350
17
  3
ACAD_PLOTSETTINGS
350
19
  3
ACAD_PLOTSTYLENAME
350
E
  3
ACAD_VISUALSTYLE
350
2A
  3
AcDbVariableDictionary
350
100
  0
DICTIONARY
  5
D
102
{ACAD_REACTORS
330
C
102
}
330
C
100
AcDbDictionary
281
     1
  0
DICTIONARY
  5
1A
102
{ACAD_REACTORS
330
C
102
}
330
C
100
AcDbDictionary
281
     1
  3
Layout1
350
1E
  3
Layout2
350
26
  3
Model
350
22
  0
DICTIONARY
  5
3B
102
{ACAD_REACTORS
330
C
102
}
330
C
100
AcDbDictionary
281
     1
  3
ByBlock
350
3D
  3
ByLayer
350
3C
  3
Global
350
3E
  0
DICTIONARY
  5
102
102
{ACAD_REACTORS
330
C
102
}
330
C
100
AcDbDictionary
281
     1
  0
DICTIONARY
  5
17
102
{ACAD_REACTORS
330
C
102
}
330
C
100
AcDbDictionary
281
     1
  3
Standard
350
18
  0
DICTIONARY
  5
19
102
{ACAD_REACTORS
330
C
102
}
330
C
100
AcDbDictionary
281
     1
  0
ACDBDICTIONARYWDFLT
  5
E
102
{ACAD_REACTORS
330
C
102
}
330
C
100
AcDbDictionary
281
     1
  3
Normal
350
F
100
AcDbDictionaryWithDefault
340
F
  0
DICTIONARY
  5
2A
102
{ACAD_REACTORS
330
C
102
}
330
C
100
AcDbDictionary
281
     1
  3
2dWireframe
350
2F
  3
3D Hidden
350
31
  3
3dWireframe
350
30
  3
Basic
350
32
  3
Brighten
350
36
  3
ColorChange
350
3A
  3
Conceptual
350
34
  3
Dim
350
35
  3
Facepattern
350
39
  3
Flat
350
2B
  3
FlatWithEdges
350
2C
  3
Gouraud
350
2D
  3
GouraudWithEdges
350
2E
  3
Linepattern
350
38
  3
Realistic
350
33
  3
Thicken
350
37
  0
DICTIONARY
  5
100
102
{ACAD_REACTORS
330
C
102
}
330
C
100
AcDbDictionary
281
     1
  3
DIMASSOC
350
103
  3
HIDETEXT
350
104
  0
LAYOUT
  5
1E
102
{ACAD_REACTORS
330
1A
102
}
330
1A
100
AcDbPlotSettings
  1

  2
none_device
  4

  6

 40
0.0
 41
0.0
 42
0.0
 43
0.0
 44
0.0
 45
0.0
 46
0.0
 47
0.0
 48
0.0
 49
0.0
140
0.0
141
0.0
142
1.0
143
1.0
 70
   688
 72
     0
 73
     0
 74
     5
  7

 75
    16
147
1.0
148
0.0
149
0.0
100
AcDbLayout
  1
Layout1
 70
     1
 71
     1
 10
0.0
 20
0.0
 11
12.0
 21
9.0
 12
0.0
 22
0.0
 32
0.0
 14
1.000000000000000E+20
 24
1.000000000000000E+20
 34
1.000000000000000E+20
 15
-1.000000000000000E+20
 25
-1.000000000000000E+20
 35
-1.000000000000000E+20
146
0.0
 13
0.0
 23
0.0
 33
0.0
 16
1.0
 26
0.0
 36
0.0
 17
0.0
 27
1.0
 37
0.0
 76
     0
330
1B
  0
LAYOUT
  5
26
102
{ACAD_REACTORS
330
1A
102
}
330
1A
100
AcDbPlotSettings
  1

  2
none_device
  4

  6

 40
0.0
 41
0.0
 42
0.0
 43
0.0
 44
0.0
 45
0.0
 46
0.0
 47
0.0
 48
0.0
 49
0.0
140
0.0
141
0.0
142
1.0
143
1.0
 70
   688
 72
     0
 73
     0
 74
     5
  7

 75
    16
147
1.0
148
0.0
149
0.0
100
AcDbLayout
  1
Layout2
 70
     1
 71
     2
 10
0.0
 20
0.0
 11
0.0
 21
0.0
 12
0.0
 22
0.0
 32
0.0
 14
0.0
 24
0.0
 34
0.0
 15
0.0
 25
0.0
 35
0.0
146
0.0
 13
0.0
 23
0.0
 33
0.0
 16
1.0
 26
0.0
 36
0.0
 17
0.0
 27
1.0
 37
0.0
 76
     0
330
23
  0
LAYOUT
  5
22
102
{ACAD_REACTORS
330
1A
102
}
330
1A
100
AcDbPlotSettings
  1

  2
none_device
  4

  6

 40
0.0
 41
0.0
 42
0.0
 43
0.0
 44
0.0
 45
0.0
 46
0.0
 47
0.0
 48
0.0
 49
0.0
140
0.0
141
0.0
142
1.0
143
1.0
 70
  1712
 72
     0
 73
     0
 74
     0
  7

 75
     0
147
1.0
148
0.0
149
0.0
100
AcDbLayout
  1
Model
 70
     1
 71
     0
 10
0.0
 20
0.0
 11
12.0
 21
9.0
 12
0.0
 22
0.0
 32
0.0
 14
-23.41494
 24
-9.38215
 34
0.0
 15
22.40167
 25
11.04795
 35
0.0
146
0.0
 13
0.0
 23
0.0
 33
0.0
 16
1.0
 26
0.0
 36
0.0
 17
0.0
 27
1.0
 37
0.0
 76
     0
330
1F
331
29
  0
MATERIAL
  5
3D
102
{ACAD_REACTORS
330
3B
102
}
102
{ACAD_XDICTIONARY
360
127
102
}
330
3B
100
AcDbMaterial
  1
ByBlock
  0
MATERIAL
  5
3C
102
{ACAD_REACTORS
330
3B
102
}
102
{ACAD_XDICTIONARY
360
125
102
}
330
3B
100
AcDbMaterial
  1
ByLayer
  0
MATERIAL
  5
3E
102
{ACAD_REACTORS
330
3B
102
}
102
{ACAD_XDICTIONARY
360
129
102
}
330
3B
100
AcDbMaterial
  1
Global
  0
MLINESTYLE
  5
18
102
{ACAD_REACTORS
330
17
102
}
330
17
100
AcDbMlineStyle
  2
Standard
 70
     0
  3

 62
   256
 51
90.0
 52
90.0
 71
     2
 49
0.5
 62
   256
  6
BYLAYER
 49
-0.5
 62
   256
  6
BYLAYER
  0
ACDBPLACEHOLDER
  5
F
102
{ACAD_REACTORS
330
E
102
}
330
E
  0
VISUALSTYLE
  5
2F
102
{ACAD_REACTORS
330
2A
102
}
102
{ACAD_XDICTIONARY
360
10D
102
}
330
2A
100
AcDbVisualStyle
  2
2dWireframe
 70
     4
 71
     0
 72
     2
 73
     0
 90
        0
 40
-0.6
 41
-30.0
 62
     5
 63
     7
 74
     1
 91
        4
 64
     7
 65
   257
 75
     1
175
     1
 42
1.0
 92
        0
 66
   257
 43
1.0
 76
     1
 77
     6
 78
     2
 67
     7
 79
     5
170
     0
171
     0
290
     0
174
     0
 93
        1
 44
0.0
173
     0
291
     0
 45
0.0
1001
ACAD
1000
AcDbSavedByObjectVersion
1070
     0
  0
VISUALSTYLE
  5
31
102
{ACAD_REACTORS
330
2A
102
}
102
{ACAD_XDICTIONARY
360
111
102
}
330
2A
100
AcDbVisualStyle
  2
3D Hidden
 70
     6
 71
     1
 72
     2
 73
     2
 90
        0
 40
-0.6
 41
-30.0
 62
     5
 63
     7
 74
     2
 91
        2
 64
     7
 65
   257
 75
     2
175
     1
 42
40.0
 92
        0
 66
   257
 43
1.0
 76
     1
 77
     6
 78
     2
 67
     7
 79
     3
170
     0
171
     0
290
     0
174
     0
 93
        1
 44
0.0
173
     0
291
     0
 45
0.0
1001
ACAD
1000
AcDbSavedByObjectVersion
1070
     0
  0
VISUALSTYLE
  5
30
102
{ACAD_REACTORS
330
2A
102
}
102
{ACAD_XDICTIONARY
360
10F
102
}
330
2A
100
AcDbVisualStyle
  2
3dWireframe
 70
     5
 71
     0
 72
     2
 73
     0
 90
        0
 40
-0.6
 41
-30.0
 62
     5
 63
     7
 74
     1
 91
        4
 64
     7
 65
   257
 75
     1
175
     1
 42
1.0
 92
        0
 66
   257
 43
1.0
 76
     1
 77
     6
 78
     2
 67
     7
 79
     5
170
     0
171
     0
290
     0
174
     0
 93
        1
 44
0.0
173
     0
291
     0
 45
0.0
1001
ACAD
1000
AcDbSavedByObjectVersion
1070
     0
  0
VISUALSTYLE
  5
32
102
{ACAD_REACTORS
330
2A
102
}
102
{ACAD_XDICTIONARY
360
113
102
}
330
2A
100
AcDbVisualStyle
  2
Basic
 70
     7
 71
     1
 72
     0
 73
     1
 90
        0
 40
-0.6
 41
-30.0
 62
     5
 63
     7
 74
     0
 91
        4
 64
     7
 65
   257
 75
     1
175
     1
 42
1.0
 92
        8
 66
     7
 43
1.0
 76
     1
 77
     6
 78
     2
 67
     7
 79
     5
170
     0
171
     0
290
     0
174
     0
 93
        1
 44
0.0
173
     0
291
     1
 45
0.0
1001
ACAD
1000
AcDbSavedByObjectVersion
1070
     0
  0
VISUALSTYLE
  5
36
102
{ACAD_REACTORS
330
2A
102
}
102
{ACAD_XDICTIONARY
360
11B
102
}
330
2A
100
AcDbVisualStyle
  2
Brighten
 70
    12
 71
     2
 72
     2
 73
     0
 90
        0
 40
-0.6
 41
-30.0
 62
     5
 63
     7
 74
     1
 91
        4
 64
     7
 65
   257
 75
     1
175
     1
 42
1.0
 92
        8
 66
     7
 43
1.0
 76
     1
 77
     6
 78
     2
 67
     7
 79
     5
170
     0
171
     0
290
     0
174
     0
 93
        1
 44
50.0
173
     0
291
     1
 45
0.0
1001
ACAD
1000
AcDbSavedByObjectVersion
1070
     0
  0
VISUALSTYLE
  5
3A
102
{ACAD_REACTORS
330
2A
102
}
102
{ACAD_XDICTIONARY
360
123
102
}
330
2A
100
AcDbVisualStyle
  2
ColorChange
 70
    16
 71
     2
 72
     2
 73
     3
 90
        0
 40
-0.6
 41
-30.0
 62
     5
 63
     8
 74
     1
 91
        4
 64
     7
 65
   257
 75
     1
175
     1
 42
1.0
 92
        8
 66
     8
 43
1.0
 76
     1
 77
     6
 78
     2
 67
     7
 79
     5
170
     0
171
     0
290
     0
174
     0
 93
        1
 44
0.0
173
     0
291
     1
 45
0.0
1001
ACAD
1000
AcDbSavedByObjectVersion
1070
     0
  0
VISUALSTYLE
  5
34
102
{ACAD_REACTORS
330
2A
102
}
102
{ACAD_XDICTIONARY
360
117
102
}
330
2A
100
AcDbVisualStyle
  2
Conceptual
 70
     9
 71
     3
 72
     2
 73
     0
 90
        0
 40
-0.6
 41
-30.0
 62
     5
 63
     7
 74
     2
 91
        2
 64
     7
 65
   257
 75
     1
175
     1
 42
40.0
 92
        8
 66
     7
 43
1.0
 76
     1
 77
     6
 78
     2
 67
     7
 79
     3
170
     0
171
     0
290
     0
174
     0
 93
        1
 44
0.0
173
     0
291
     0
 45
0.0
1001
ACAD
1000
AcDbSavedByObjectVersion
1070
     0
  0
VISUALSTYLE
  5
35
102
{ACAD_REACTORS
330
2A
102
}
102
{ACAD_XDICTIONARY
360
119
102
}
330
2A
100
AcDbVisualStyle
  2
Dim
 70
    11
 71
     2
 72
     2
 73
     0
 90
        0
 40
-0.6
 41
-30.0
 62
     5
 63
     7
 74
     1
 91
        4
 64
     7
 65
   257
 75
     1
175
     1
 42
1.0
 92
        8
 66
     7
 43
1.0
 76
     1
 77
     6
 78
     2
 67
     7
 79
     5
170
     0
171
     0
290
     0
174
     0
 93
        1
 44
-50.0
173
     0
291
     1
 45
0.0
1001
ACAD
1000
AcDbSavedByObjectVersion
1070
     0
  0
VISUALSTYLE
  5
39
102
{ACAD_REACTORS
330
2A
102
}
102
{ACAD_XDICTIONARY
360
121
102
}
330
2A
100
AcDbVisualStyle
  2
Facepattern
 70
    15
 71
     2
 72
     2
 73
     0
 90
        0
 40
-0.6
 41
-30.0
 62
     5
 63
     7
 74
     1
 91
        4
 64
     7
 65
   257
 75
     1
175
     1
 42
1.0
 92
        8
 66
     7
 43
1.0
 76
     1
 77
     6
 78
     2
 67
     7
 79
     5
170
     0
171
     0
290
     0
174
     0
 93
        1
 44
0.0
173
     0
291
     1
 45
0.0
1001
ACAD
1000
AcDbSavedByObjectVersion
1070
     0
  0
VISUALSTYLE
  5
2B
102
{ACAD_REACTORS
330
2A
102
}
102
{ACAD_XDICTIONARY
360
105
102
}
330
2A
100
AcDbVisualStyle
  2
Flat
 70
     0
 71
     2
 72
     1
 73
     1
 90
        2
 40
-0.6
 41
30.0
 62
     5
 63
     7
 74
     0
 91
        4
 64
     7
 65
   257
 75
     1
175
     1
 42
1.0
 92
        8
 66
     7
 43
1.0
 76
     1
 77
     6
 78
     2
 67
     7
 79
     5
170
     0
171
     0
290
     0
174
     0
 93
       13
 44
0.0
173
     0
291
     1
 45
0.0
1001
ACAD
1000
AcDbSavedByObjectVersion
1070
     0
  0
VISUALSTYLE
  5
2C
102
{ACAD_REACTORS
330
2A
102
}
102
{ACAD_XDICTIONARY
360
107
102
}
330
2A
100
AcDbVisualStyle
  2
FlatWithEdges
 70
     1
 71
     2
 72
     1
 73
     1
 90
        2
 40
-0.6
 41
30.0
 62
     5
 63
     7
 74
     1
 91
        4
 64
     7
 65
   257
 75
     1
175
     1
 42
1.0
 92
        0
 66
   257
 43
1.0
 76
     1
 77
     6
 78
     2
 67
     7
 79
     5
170
     0
171
     0
290
     0
174
     0
 93
       13
 44
0.0
173
     0
291
     1
 45
0.0
1001
ACAD
1000
AcDbSavedByObjectVersion
1070
     0
  0
VISUALSTYLE
  5
2D
102
{ACAD_REACTORS
330
2A
102
}
102
{ACAD_XDICTIONARY
360
109
102
}
330
2A
100
AcDbVisualStyle
  2
Gouraud
 70
     2
 71
     2
 72
     2
 73
     1
 90
        2
 40
-0.6
 41
30.0
 62
     5
 63
     7
 74
     0
 91
        4
 64
     7
 65
   257
 75
     1
175
     1
 42
1.0
 92
        0
 66
     7
 43
1.0
 76
     1
 77
     6
 78
     2
 67
     7
 79
     5
170
     0
171
     0
290
     0
174
     0
 93
       13
 44
0.0
173
     0
291
     1
 45
0.0
1001
ACAD
1000
AcDbSavedByObjectVersion
1070
     0
  0
VISUALSTYLE
  5
2E
102
{ACAD_REACTORS
330
2A
102
}
102
{ACAD_XDICTIONARY
360
10B
102
}
330
2A
100
AcDbVisualStyle
  2
GouraudWithEdges
 70
     3
 71
     2
 72
     2
 73
     1
 90
        2
 40
-0.6
 41
30.0
 62
     5
 63
     7
 74
     1
 91
        4
 64
     7
 65
   257
 75
     1
175
     1
 42
1.0
 92
        0
 66
   257
 43
1.0
 76
     1
 77
     6
 78
     2
 67
     7
 79
     5
170
     0
171
     0
290
     0
174
     0
 93
       13
 44
0.0
173
     0
291
     1
 45
0.0
1001
ACAD
1000
AcDbSavedByObjectVersion
1070
     0
  0
VISUALSTYLE
  5
38
102
{ACAD_REACTORS
330
2A
102
}
102
{ACAD_XDICTIONARY
360
11F
102
}
330
2A
100
AcDbVisualStyle
  2
Linepattern
 70
    14
 71
     2
 72
     2
 73
     0
 90
        0
 40
-0.6
 41
-30.0
 62
     5
 63
     7
 74
     1
 91
        4
 64
     7
 65
   257
 75
     7
175
     7
 42
1.0
 92
        8
 66
     7
 43
1.0
 76
     1
 77
     6
 78
     2
 67
     7
 79
     5
170
     0
171
     0
290
     0
174
     0
 93
        1
 44
0.0
173
     0
291
     1
 45
0.0
1001
ACAD
1000
AcDbSavedByObjectVersion
1070
     0
  0
VISUALSTYLE
  5
33
102
{ACAD_REACTORS
330
2A
102
}
102
{ACAD_XDICTIONARY
360
115
102
}
330
2A
100
AcDbVisualStyle
  2
Realistic
 70
     8
 71
     2
 72
     2
 73
     0
 90
        0
 40
-0.6
 41
-30.0
 62
     5
 63
     7
 74
     1
 91
        0
 64
     7
 65
   257
 75
     1
175
     1
 42
1.0
 92
        8
 66
     8
 43
1.0
 76
     1
 77
     6
 78
     2
 67
     7
 79
     5
170
     0
171
     0
290
     0
174
     0
 93
       13
 44
0.0
173
     0
291
     0
 45
0.0
1001
ACAD
1000
AcDbSavedByObjectVersion
1070
     0
  0
VISUALSTYLE
  5
37
102
{ACAD_REACTORS
330
2A
102
}
102
{ACAD_XDICTIONARY
360
11D
102
}
330
2A
100
AcDbVisualStyle
  2
Thicken
 70
    13
 71
     2
 72
     2
 73
     0
 90
        0
 40
-0.6
 41
-30.0
 62
     5
 63
     7
 74
     1
 91
        4
 64
     7
 65
   257
 75
     1
175
     1
 42
1.0
 92
       12
 66
     7
 43
1.0
 76
     1
 77
     6
 78
     2
 67
     7
 79
     5
170
     0
171
     0
290
     0
174
     0
 93
        1
 44
0.0
173
     0
291
     1
 45
0.0
1001
ACAD
1000
AcDbSavedByObjectVersion
1070
     0
  0
DICTIONARYVAR
  5
103
102
{ACAD_REACTORS
330
100
102
}
330
100
100
DictionaryVariables
280
     0
  1
2
  0
DICTIONARYVAR
  5
104
102
{ACAD_REACTORS
330
100
102
}
330
100
100
DictionaryVariables
280
     0
  1
1
  0
DICTIONARY
  5
127
330
3D
100
AcDbDictionary
280
     1
281
     1
  3
ACAD_XREC_ROUNDTRIP
360
128
  0
DICTIONARY
  5
125
330
3C
100
AcDbDictionary
280
     1
281
     1
  3
ACAD_XREC_ROUNDTRIP
360
126
  0
DICTIONARY
  5
129
330
3E
100
AcDbDictionary
280
     1
281
     1
  3
ACAD_XREC_ROUNDTRIP
360
12A
  0
DICTIONARY
  5
10D
330
2F
100
AcDbDictionary
280
     1
281
     1
  3
ACAD_XREC_ROUNDTRIP
360
10E
  0
DICTIONARY
  5
111
330
31
100
AcDbDictionary
280
     1
281
     1
  3
ACAD_XREC_ROUNDTRIP
360
112
  0
DICTIONARY
  5
10F
330
30
100
AcDbDictionary
280
     1
281
     1
  3
ACAD_XREC_ROUNDTRIP
360
110
  0
DICTIONARY
  5
113
330
32
100
AcDbDictionary
280
     1
281
     1
  3
ACAD_XREC_ROUNDTRIP
360
114
  0
DICTIONARY
  5
11B
330
36
100
AcDbDictionary
280
     1
281
     1
  3
ACAD_XREC_ROUNDTRIP
360
11C
  0
DICTIONARY
  5
123
330
3A
100
AcDbDictionary
280
     1
281
     1
  3
ACAD_XREC_ROUNDTRIP
360
124
  0
DICTIONARY
  5
117
330
34
100
AcDbDictionary
280
     1
281
     1
  3
ACAD_XREC_ROUNDTRIP
360
118
  0
DICTIONARY
  5
119
330
35
100
AcDbDictionary
280
     1
281
     1
  3
ACAD_XREC_ROUNDTRIP
360
11A
  0
DICTIONARY
  5
121
330
39
100
AcDbDictionary
280
     1
281
     1
  3
ACAD_XREC_ROUNDTRIP
360
122
  0
DICTIONARY
  5
105
330
2B
100
AcDbDictionary
280
     1
281
     1
  3
ACAD_XREC_ROUNDTRIP
360
106
  0
DICTIONARY
  5
107
330
2C
100
AcDbDictionary
280
     1
281
     1
  3
ACAD_XREC_ROUNDTRIP
360
108
  0
DICTIONARY
  5
109
330
2D
100
AcDbDictionary
280
     1
281
     1
  3
ACAD_XREC_ROUNDTRIP
360
10A
  0
DICTIONARY
  5
10B
330
2E
100
AcDbDictionary
280
     1
281
     1
  3
ACAD_XREC_ROUNDTRIP
360
10C
  0
DICTIONARY
  5
11F
330
38
100
AcDbDictionary
280
     1
281
     1
  3
ACAD_XREC_ROUNDTRIP
360
120
  0
DICTIONARY
  5
115
330
33
100
AcDbDictionary
280
     1
281
     1
  3
ACAD_XREC_ROUNDTRIP
360
116
  0
DICTIONARY
  5
11D
330
37
100
AcDbDictionary
280
     1
281
     1
  3
ACAD_XREC_ROUNDTRIP
360
11E
  0
XRECORD
  5
128
102
{ACAD_REACTORS
330
127
102
}
330
127
100
AcDbXrecord
280
     1
102
MATERIAL
148
0.0
149
0.0
149
0.0
 93
        0
 94
      127
282
     0
 72
     1
 77
     1
171
     1
175
     1
179
     1
273
     0
  0
XRECORD
  5
126
102
{ACAD_REACTORS
330
125
102
}
330
125
100
AcDbXrecord
280
     1
102
MATERIAL
148
0.0
149
0.0
149
0.0
 93
        0
 94
      127
282
     0
 72
     1
 77
     1
171
     1
175
     1
179
     1
273
     0
  0
XRECORD
  5
12A
102
{ACAD_REACTORS
330
129
102
}
330
129
100
AcDbXrecord
280
     1
102
MATERIAL
148
0.0
149
0.0
149
0.0
 93
        0
 94
      127
282
     0
 72
     1
 77
     1
171
     1
175
     1
179
     1
273
     0
  0
XRECORD
  5
10E
102
{ACAD_REACTORS
330
10D
102
}
330
10D
100
AcDbXrecord
280
     1
102
RTVSPropertyOp0
 70
     1
102
RTVSPropertyOp1
 70
     1
102
RTVSPropertyOp2
 70
     1
102
RTVSPropertyOp3
 70
     1
102
RTVSPropertyOp4
 70
     1
102
RTVSPropertyOp5
 70
     1
102
RTVSPropertyOp6
 70
     1
102
RTVSPropertyOp7
 70
     1
102
RTVSPropertyOp8
 70
     1
102
RTVSPropertyOp9
 70
     1
102
RTVSPropertyOp10
 70
     1
102
RTVSPropertyOp11
 70
     1
102
RTVSPropertyOp12
 70
     1
102
RTVSPropertyOp13
 70
     1
102
RTVSPropertyOp14
 70
     1
102
RTVSPropertyOp15
 70
     1
102
RTVSPropertyOp16
 70
     1
102
RTVSPropertyOp17
 70
     1
102
RTVSPropertyOp18
 70
     1
102
RTVSPropertyOp19
 70
     1
102
RTVSPropertyOp20
 70
     1
102
RTVSPropertyOp21
 70
     1
102
RTVSPropertyOp22
 70
     1
102
RTVSPropertyOp23
 70
     1
102
RTVSPropertyOp24
 70
     1
102
RTVSPropertyOp25
 70
     1
102
RTVSPropertyOp26
 70
     1
102
RTVSPropertyOp27
 70
     1
102
RTVSPropertyOp28
 70
     1
102
RTVSPropertyOp29
 70
     1
102
RTVSPropertyOp30
 70
     1
102
RTVSPropertyOp31
 70
     1
102
RTVSPropertyOp32
 70
     1
  0
XRECORD
  5
112
102
{ACAD_REACTORS
330
111
102
}
330
111
100
AcDbXrecord
280
     1
102
RTVSPropertyOp0
 70
     1
102
RTVSPropertyOp1
 70
     1
102
RTVSPropertyOp2
 70
     1
102
RTVSPropertyOp3
 70
     1
102
RTVSPropertyOp4
 70
     1
102
RTVSPropertyOp5
 70
     1
102
RTVSPropertyOp6
 70
     1
102
RTVSPropertyOp7
 70
     1
102
RTVSPropertyOp8
 70
     1
102
RTVSPropertyOp9
 70
     1
102
RTVSPropertyOp10
 70
     1
102
RTVSPropertyOp11
 70
     1
102
RTVSPropertyOp12
 70
     1
102
RTVSPropertyOp13
 70
     1
102
RTVSPropertyOp14
 70
     1
102
RTVSPropertyOp15
 70
     1
102
RTVSPropertyOp16
 70
     1
102
RTVSPropertyOp17
 70
     1
102
RTVSPropertyOp18
 70
     1
102
RTVSPropertyOp19
 70
     1
102
RTVSPropertyOp20
 70
     1
102
RTVSPropertyOp21
 70
     1
102
RTVSPropertyOp22
 70
     1
102
RTVSPropertyOp23
 70
     1
102
RTVSPropertyOp24
 70
     1
102
RTVSPropertyOp25
 70
     1
102
RTVSPropertyOp26
 70
     1
102
RTVSPropertyOp27
 70
     1
102
RTVSPropertyOp28
 70
     1
102
RTVSPropertyOp29
 70
     1
102
RTVSPropertyOp30
 70
     1
102
RTVSPropertyOp31
 70
     1
102
RTVSPropertyOp32
 70
     1
  0
XRECORD
  5
110
102
{ACAD_REACTORS
330
10F
102
}
330
10F
100
AcDbXrecord
280
     1
102
RTVSPropertyOp0
 70
     1
102
RTVSPropertyOp1
 70
     1
102
RTVSPropertyOp2
 70
     1
102
RTVSPropertyOp3
 70
     1
102
RTVSPropertyOp4
 70
     1
102
RTVSPropertyOp5
 70
     1
102
RTVSPropertyOp6
 70
     1
102
RTVSPropertyOp7
 70
     1
102
RTVSPropertyOp8
 70
     1
102
RTVSPropertyOp9
 70
     1
102
RTVSPropertyOp10
 70
     1
102
RTVSPropertyOp11
 70
     1
102
RTVSPropertyOp12
 70
     1
102
RTVSPropertyOp13
 70
     1
102
RTVSPropertyOp14
 70
     1
102
RTVSPropertyOp15
 70
     1
102
RTVSPropertyOp16
 70
     1
102
RTVSPropertyOp17
 70
     1
102
RTVSPropertyOp18
 70
     1
102
RTVSPropertyOp19
 70
     1
102
RTVSPropertyOp20
 70
     1
102
RTVSPropertyOp21
 70
     1
102
RTVSPropertyOp22
 70
     1
102
RTVSPropertyOp23
 70
     1
102
RTVSPropertyOp24
 70
     1
102
RTVSPropertyOp25
 70
     1
102
RTVSPropertyOp26
 70
     1
102
RTVSPropertyOp27
 70
     1
102
RTVSPropertyOp28
 70
     1
102
RTVSPropertyOp29
 70
     1
102
RTVSPropertyOp30
 70
     1
102
RTVSPropertyOp31
 70
     1
102
RTVSPropertyOp32
 70
     1
  0
XRECORD
  5
114
102
{ACAD_REACTORS
330
113
102
}
330
113
100
AcDbXrecord
280
     1
102
RTVSPropertyOp0
 70
     1
102
RTVSPropertyOp1
 70
     1
102
RTVSPropertyOp2
 70
     1
102
RTVSPropertyOp3
 70
     1
102
RTVSPropertyOp4
 70
     1
102
RTVSPropertyOp5
 70
     1
102
RTVSPropertyOp6
 70
     1
102
RTVSPropertyOp7
 70
     1
102
RTVSPropertyOp8
 70
     1
102
RTVSPropertyOp9
 70
     1
102
RTVSPropertyOp10
 70
     1
102
RTVSPropertyOp11
 70
     1
102
RTVSPropertyOp12
 70
     1
102
RTVSPropertyOp13
 70
     1
102
RTVSPropertyOp14
 70
     1
102
RTVSPropertyOp15
 70
     1
102
RTVSPropertyOp16
 70
     1
102
RTVSPropertyOp17
 70
     1
102
RTVSPropertyOp18
 70
     1
102
RTVSPropertyOp19
 70
     1
102
RTVSPropertyOp20
 70
     1
102
RTVSPropertyOp21
 70
     1
102
RTVSPropertyOp22
 70
     1
102
RTVSPropertyOp23
 70
     1
102
RTVSPropertyOp24
 70
     1
102
RTVSPropertyOp25
 70
     1
102
RTVSPropertyOp26
 70
     1
102
RTVSPropertyOp27
 70
     1
102
RTVSPropertyOp28
 70
     1
102
RTVSPropertyOp29
 70
     1
102
RTVSPropertyOp30
 70
     1
102
RTVSPropertyOp31
 70
     1
102
RTVSPropertyOp32
 70
     1
  0
XRECORD
  5
11C
102
{ACAD_REACTORS
330
11B
102
}
330
11B
100
AcDbXrecord
280
     1
102
RTVSPropertyOp0
 70
     1
102
RTVSPropertyOp1
 70
     1
102
RTVSPropertyOp2
 70
     1
102
RTVSPropertyOp3
 70
     1
102
RTVSPropertyOp4
 70
     1
102
RTVSPropertyOp5
 70
     1
102
RTVSPropertyOp6
 70
     1
102
RTVSPropertyOp7
 70
     1
102
RTVSPropertyOp8
 70
     1
102
RTVSPropertyOp9
 70
     1
102
RTVSPropertyOp10
 70
     1
102
RTVSPropertyOp11
 70
     1
102
RTVSPropertyOp12
 70
     1
102
RTVSPropertyOp13
 70
     1
102
RTVSPropertyOp14
 70
     1
102
RTVSPropertyOp15
 70
     1
102
RTVSPropertyOp16
 70
     1
102
RTVSPropertyOp17
 70
     1
102
RTVSPropertyOp18
 70
     1
102
RTVSPropertyOp19
 70
     1
102
RTVSPropertyOp20
 70
     1
102
RTVSPropertyOp21
 70
     1
102
RTVSPropertyOp22
 70
     1
102
RTVSPropertyOp23
 70
     1
102
RTVSPropertyOp24
 70
     1
102
RTVSPropertyOp25
 70
     1
102
RTVSPropertyOp26
 70
     1
102
RTVSPropertyOp27
 70
     1
102
RTVSPropertyOp28
 70
     1
102
RTVSPropertyOp29
 70
     1
102
RTVSPropertyOp30
 70
     1
102
RTVSPropertyOp31
 70
     1
102
RTVSPropertyOp32
 70
     1
  0
XRECORD
  5
124
102
{ACAD_REACTORS
330
123
102
}
330
123
100
AcDbXrecord
280
     1
102
RTVSPropertyOp0
 70
     1
102
RTVSPropertyOp1
 70
     1
102
RTVSPropertyOp2
 70
     1
102
RTVSPropertyOp3
 70
     1
102
RTVSPropertyOp4
 70
     1
102
RTVSPropertyOp5
 70
     1
102
RTVSPropertyOp6
 70
     1
102
RTVSPropertyOp7
 70
     1
102
RTVSPropertyOp8
 70
     1
102
RTVSPropertyOp9
 70
     1
102
RTVSPropertyOp10
 70
     1
102
RTVSPropertyOp11
 70
     1
102
RTVSPropertyOp12
 70
     1
102
RTVSPropertyOp13
 70
     1
102
RTVSPropertyOp14
 70
     1
102
RTVSPropertyOp15
 70
     1
102
RTVSPropertyOp16
 70
     1
102
RTVSPropertyOp17
 70
     1
102
RTVSPropertyOp18
 70
     1
102
RTVSPropertyOp19
 70
     1
102
RTVSPropertyOp20
 70
     1
102
RTVSPropertyOp21
 70
     1
102
RTVSPropertyOp22
 70
     1
102
RTVSPropertyOp23
 70
     1
102
RTVSPropertyOp24
 70
     1
102
RTVSPropertyOp25
 70
     1
102
RTVSPropertyOp26
 70
     1
102
RTVSPropertyOp27
 70
     1
102
RTVSPropertyOp28
 70
     1
102
RTVSPropertyOp29
 70
     1
102
RTVSPropertyOp30
 70
     1
102
RTVSPropertyOp31
 70
     1
102
RTVSPropertyOp32
 70
     1
  0
XRECORD
  5
118
102
{ACAD_REACTORS
330
117
102
}
330
117
100
AcDbXrecord
280
     1
102
RTVSPropertyOp0
 70
     1
102
RTVSPropertyOp1
 70
     1
102
RTVSPropertyOp2
 70
     1
102
RTVSPropertyOp3
 70
     1
102
RTVSPropertyOp4
 70
     1
102
RTVSPropertyOp5
 70
     1
102
RTVSPropertyOp6
 70
     1
102
RTVSPropertyOp7
 70
     1
102
RTVSPropertyOp8
 70
     1
102
RTVSPropertyOp9
 70
     1
102
RTVSPropertyOp10
 70
     1
102
RTVSPropertyOp11
 70
     1
102
RTVSPropertyOp12
 70
     1
102
RTVSPropertyOp13
 70
     1
102
RTVSPropertyOp14
 70
     1
102
RTVSPropertyOp15
 70
     1
102
RTVSPropertyOp16
 70
     1
102
RTVSPropertyOp17
 70
     1
102
RTVSPropertyOp18
 70
     1
102
RTVSPropertyOp19
 70
     1
102
RTVSPropertyOp20
 70
     1
102
RTVSPropertyOp21
 70
     1
102
RTVSPropertyOp22
 70
     1
102
RTVSPropertyOp23
 70
     1
102
RTVSPropertyOp24
 70
     1
102
RTVSPropertyOp25
 70
     1
102
RTVSPropertyOp26
 70
     1
102
RTVSPropertyOp27
 70
     1
102
RTVSPropertyOp28
 70
     1
102
RTVSPropertyOp29
 70
     1
102
RTVSPropertyOp30
 70
     1
102
RTVSPropertyOp31
 70
     1
102
RTVSPropertyOp32
 70
     1
  0
XRECORD
  5
11A
102
{ACAD_REACTORS
330
119
102
}
330
119
100
AcDbXrecord
280
     1
102
RTVSPropertyOp0
 70
     1
102
RTVSPropertyOp1
 70
     1
102
RTVSPropertyOp2
 70
     1
102
RTVSPropertyOp3
 70
     1
102
RTVSPropertyOp4
 70
     1
102
RTVSPropertyOp5
 70
     1
102
RTVSPropertyOp6
 70
     1
102
RTVSPropertyOp7
 70
     1
102
RTVSPropertyOp8
 70
     1
102
RTVSPropertyOp9
 70
     1
102
RTVSPropertyOp10
 70
     1
102
RTVSPropertyOp11
 70
     1
102
RTVSPropertyOp12
 70
     1
102
RTVSPropertyOp13
 70
     1
102
RTVSPropertyOp14
 70
     1
102
RTVSPropertyOp15
 70
     1
102
RTVSPropertyOp16
 70
     1
102
RTVSPropertyOp17
 70
     1
102
RTVSPropertyOp18
 70
     1
102
RTVSPropertyOp19
 70
     1
102
RTVSPropertyOp20
 70
     1
102
RTVSPropertyOp21
 70
     1
102
RTVSPropertyOp22
 70
     1
102
RTVSPropertyOp23
 70
     1
102
RTVSPropertyOp24
 70
     1
102
RTVSPropertyOp25
 70
     1
102
RTVSPropertyOp26
 70
     1
102
RTVSPropertyOp27
 70
     1
102
RTVSPropertyOp28
 70
     1
102
RTVSPropertyOp29
 70
     1
102
RTVSPropertyOp30
 70
     1
102
RTVSPropertyOp31
 70
     1
102
RTVSPropertyOp32
 70
     1
  0
XRECORD
  5
122
102
{ACAD_REACTORS
330
121
102
}
330
121
100
AcDbXrecord
280
     1
102
RTVSPropertyOp0
 70
     1
102
RTVSPropertyOp1
 70
     1
102
RTVSPropertyOp2
 70
     1
102
RTVSPropertyOp3
 70
     1
102
RTVSPropertyOp4
 70
     1
102
RTVSPropertyOp5
 70
     1
102
RTVSPropertyOp6
 70
     1
102
RTVSPropertyOp7
 70
     1
102
RTVSPropertyOp8
 70
     1
102
RTVSPropertyOp9
 70
     1
102
RTVSPropertyOp10
 70
     1
102
RTVSPropertyOp11
 70
     1
102
RTVSPropertyOp12
 70
     1
102
RTVSPropertyOp13
 70
     1
102
RTVSPropertyOp14
 70
     1
102
RTVSPropertyOp15
 70
     1
102
RTVSPropertyOp16
 70
     1
102
RTVSPropertyOp17
 70
     1
102
RTVSPropertyOp18
 70
     1
102
RTVSPropertyOp19
 70
     1
102
RTVSPropertyOp20
 70
     1
102
RTVSPropertyOp21
 70
     1
102
RTVSPropertyOp22
 70
     1
102
RTVSPropertyOp23
 70
     1
102
RTVSPropertyOp24
 70
     1
102
RTVSPropertyOp25
 70
     1
102
RTVSPropertyOp26
 70
     1
102
RTVSPropertyOp27
 70
     1
102
RTVSPropertyOp28
 70
     1
102
RTVSPropertyOp29
 70
     1
102
RTVSPropertyOp30
 70
     1
102
RTVSPropertyOp31
 70
     1
102
RTVSPropertyOp32
 70
     1
  0
XRECORD
  5
106
102
{ACAD_REACTORS
330
105
102
}
330
105
100
AcDbXrecord
280
     1
102
RTVSPropertyOp0
 70
     1
102
RTVSPropertyOp1
 70
     1
102
RTVSPropertyOp2
 70
     1
102
RTVSPropertyOp3
 70
     1
102
RTVSPropertyOp4
 70
     1
102
RTVSPropertyOp5
 70
     1
102
RTVSPropertyOp6
 70
     1
102
RTVSPropertyOp7
 70
     1
102
RTVSPropertyOp8
 70
     1
102
RTVSPropertyOp9
 70
     1
102
RTVSPropertyOp10
 70
     1
102
RTVSPropertyOp11
 70
     1
102
RTVSPropertyOp12
 70
     1
102
RTVSPropertyOp13
 70
     1
102
RTVSPropertyOp14
 70
     1
102
RTVSPropertyOp15
 70
     1
102
RTVSPropertyOp16
 70
     1
102
RTVSPropertyOp17
 70
     1
102
RTVSPropertyOp18
 70
     1
102
RTVSPropertyOp19
 70
     1
102
RTVSPropertyOp20
 70
     1
102
RTVSPropertyOp21
 70
     1
102
RTVSPropertyOp22
 70
     1
102
RTVSPropertyOp23
 70
     1
102
RTVSPropertyOp24
 70
     1
102
RTVSPropertyOp25
 70
     1
102
RTVSPropertyOp26
 70
     1
102
RTVSPropertyOp27
 70
     1
102
RTVSPropertyOp28
 70
     1
102
RTVSPropertyOp29
 70
     1
102
RTVSPropertyOp30
 70
     1
102
RTVSPropertyOp31
 70
     1
102
RTVSPropertyOp32
 70
     1
  0
XRECORD
  5
108
102
{ACAD_REACTORS
330
107
102
}
330
107
100
AcDbXrecord
280
     1
102
RTVSPropertyOp0
 70
     1
102
RTVSPropertyOp1
 70
     1
102
RTVSPropertyOp2
 70
     1
102
RTVSPropertyOp3
 70
     1
102
RTVSPropertyOp4
 70
     1
102
RTVSPropertyOp5
 70
     1
102
RTVSPropertyOp6
 70
     1
102
RTVSPropertyOp7
 70
     1
102
RTVSPropertyOp8
 70
     1
102
RTVSPropertyOp9
 70
     1
102
RTVSPropertyOp10
 70
     1
102
RTVSPropertyOp11
 70
     1
102
RTVSPropertyOp12
 70
     1
102
RTVSPropertyOp13
 70
     1
102
RTVSPropertyOp14
 70
     1
102
RTVSPropertyOp15
 70
     1
102
RTVSPropertyOp16
 70
     1
102
RTVSPropertyOp17
 70
     1
102
RTVSPropertyOp18
 70
     1
102
RTVSPropertyOp19
 70
     1
102
RTVSPropertyOp20
 70
     1
102
RTVSPropertyOp21
 70
     1
102
RTVSPropertyOp22
 70
     1
102
RTVSPropertyOp23
 70
     1
102
RTVSPropertyOp24
 70
     1
102
RTVSPropertyOp25
 70
     1
102
RTVSPropertyOp26
 70
     1
102
RTVSPropertyOp27
 70
     1
102
RTVSPropertyOp28
 70
     1
102
RTVSPropertyOp29
 70
     1
102
RTVSPropertyOp30
 70
     1
102
RTVSPropertyOp31
 70
     1
102
RTVSPropertyOp32
 70
     1
  0
XRECORD
  5
10A
102
{ACAD_REACTORS
330
109
102
}
330
109
100
AcDbXrecord
280
     1
102
RTVSPropertyOp0
 70
     1
102
RTVSPropertyOp1
 70
     1
102
RTVSPropertyOp2
 70
     1
102
RTVSPropertyOp3
 70
     1
102
RTVSPropertyOp4
 70
     1
102
RTVSPropertyOp5
 70
     1
102
RTVSPropertyOp6
 70
     1
102
RTVSPropertyOp7
 70
     1
102
RTVSPropertyOp8
 70
     1
102
RTVSPropertyOp9
 70
     1
102
RTVSPropertyOp10
 70
     1
102
RTVSPropertyOp11
 70
     1
102
RTVSPropertyOp12
 70
     1
102
RTVSPropertyOp13
 70
     1
102
RTVSPropertyOp14
 70
     1
102
RTVSPropertyOp15
 70
     1
102
RTVSPropertyOp16
 70
     1
102
RTVSPropertyOp17
 70
     1
102
RTVSPropertyOp18
 70
     1
102
RTVSPropertyOp19
 70
     1
102
RTVSPropertyOp20
 70
     1
102
RTVSPropertyOp21
 70
     1
102
RTVSPropertyOp22
 70
     1
102
RTVSPropertyOp23
 70
     1
102
RTVSPropertyOp24
 70
     1
102
RTVSPropertyOp25
 70
     1
102
RTVSPropertyOp26
 70
     1
102
RTVSPropertyOp27
 70
     1
102
RTVSPropertyOp28
 70
     1
102
RTVSPropertyOp29
 70
     1
102
RTVSPropertyOp30
 70
     1
102
RTVSPropertyOp31
 70
     1
102
RTVSPropertyOp32
 70
     1
  0
XRECORD
  5
10C
102
{ACAD_REACTORS
330
10B
102
}
330
10B
100
AcDbXrecord
280
     1
102
RTVSPropertyOp0
 70
     1
102
RTVSPropertyOp1
 70
     1
102
RTVSPropertyOp2
 70
     1
102
RTVSPropertyOp3
 70
     1
102
RTVSPropertyOp4
 70
     1
102
RTVSPropertyOp5
 70
     1
102
RTVSPropertyOp6
 70
     1
102
RTVSPropertyOp7
 70
     1
102
RTVSPropertyOp8
 70
     1
102
RTVSPropertyOp9
 70
     1
102
RTVSPropertyOp10
 70
     1
102
RTVSPropertyOp11
 70
     1
102
RTVSPropertyOp12
 70
     1
102
RTVSPropertyOp13
 70
     1
102
RTVSPropertyOp14
 70
     1
102
RTVSPropertyOp15
 70
     1
102
RTVSPropertyOp16
 70
     1
102
RTVSPropertyOp17
 70
     1
102
RTVSPropertyOp18
 70
     1
102
RTVSPropertyOp19
 70
     1
102
RTVSPropertyOp20
 70
     1
102
RTVSPropertyOp21
 70
     1
102
RTVSPropertyOp22
 70
     1
102
RTVSPropertyOp23
 70
     1
102
RTVSPropertyOp24
 70
     1
102
RTVSPropertyOp25
 70
     1
102
RTVSPropertyOp26
 70
     1
102
RTVSPropertyOp27
 70
     1
102
RTVSPropertyOp28
 70
     1
102
RTVSPropertyOp29
 70
     1
102
RTVSPropertyOp30
 70
     1
102
RTVSPropertyOp31
 70
     1
102
RTVSPropertyOp32
 70
     1
  0
XRECORD
  5
120
102
{ACAD_REACTORS
330
11F
102
}
330
11F
100
AcDbXrecord
280
     1
102
RTVSPropertyOp0
 70
     1
102
RTVSPropertyOp1
 70
     1
102
RTVSPropertyOp2
 70
     1
102
RTVSPropertyOp3
 70
     1
102
RTVSPropertyOp4
 70
     1
102
RTVSPropertyOp5
 70
     1
102
RTVSPropertyOp6
 70
     1
102
RTVSPropertyOp7
 70
     1
102
RTVSPropertyOp8
 70
     1
102
RTVSPropertyOp9
 70
     1
102
RTVSPropertyOp10
 70
     1
102
RTVSPropertyOp11
 70
     1
102
RTVSPropertyOp12
 70
     1
102
RTVSPropertyOp13
 70
     1
102
RTVSPropertyOp14
 70
     1
102
RTVSPropertyOp15
 70
     1
102
RTVSPropertyOp16
 70
     1
102
RTVSPropertyOp17
 70
     1
102
RTVSPropertyOp18
 70
     1
102
RTVSPropertyOp19
 70
     1
102
RTVSPropertyOp20
 70
     1
102
RTVSPropertyOp21
 70
     1
102
RTVSPropertyOp22
 70
     1
102
RTVSPropertyOp23
 70
     1
102
RTVSPropertyOp24
 70
     1
102
RTVSPropertyOp25
 70
     1
102
RTVSPropertyOp26
 70
     1
102
RTVSPropertyOp27
 70
     1
102
RTVSPropertyOp28
 70
     1
102
RTVSPropertyOp29
 70
     1
102
RTVSPropertyOp30
 70
     1
102
RTVSPropertyOp31
 70
     1
102
RTVSPropertyOp32
 70
     1
  0
XRECORD
  5
116
102
{ACAD_REACTORS
330
115
102
}
330
115
100
AcDbXrecord
280
     1
102
RTVSPropertyOp0
 70
     1
102
RTVSPropertyOp1
 70
     1
102
RTVSPropertyOp2
 70
     1
102
RTVSPropertyOp3
 70
     1
102
RTVSPropertyOp4
 70
     1
102
RTVSPropertyOp5
 70
     1
102
RTVSPropertyOp6
 70
     1
102
RTVSPropertyOp7
 70
     1
102
RTVSPropertyOp8
 70
     1
102
RTVSPropertyOp9
 70
     1
102
RTVSPropertyOp10
 70
     1
102
RTVSPropertyOp11
 70
     1
102
RTVSPropertyOp12
 70
     1
102
RTVSPropertyOp13
 70
     1
102
RTVSPropertyOp14
 70
     1
102
RTVSPropertyOp15
 70
     1
102
RTVSPropertyOp16
 70
     1
102
RTVSPropertyOp17
 70
     1
102
RTVSPropertyOp18
 70
     1
102
RTVSPropertyOp19
 70
     1
102
RTVSPropertyOp20
 70
     1
102
RTVSPropertyOp21
 70
     1
102
RTVSPropertyOp22
 70
     1
102
RTVSPropertyOp23
 70
     1
102
RTVSPropertyOp24
 70
     1
102
RTVSPropertyOp25
 70
     1
102
RTVSPropertyOp26
 70
     1
102
RTVSPropertyOp27
 70
     1
102
RTVSPropertyOp28
 70
     1
102
RTVSPropertyOp29
 70
     1
102
RTVSPropertyOp30
 70
     1
102
RTVSPropertyOp31
 70
     1
102
RTVSPropertyOp32
 70
     1
  0
XRECORD
  5
11E
102
{ACAD_REACTORS
330
11D
102
}
330
11D
100
AcDbXrecord
280
     1
102
RTVSPropertyOp0
 70
     1
102
RTVSPropertyOp1
 70
     1
102
RTVSPropertyOp2
 70
     1
102
RTVSPropertyOp3
 70
     1
102
RTVSPropertyOp4
 70
     1
102
RTVSPropertyOp5
 70
     1
102
RTVSPropertyOp6
 70
     1
102
RTVSPropertyOp7
 70
     1
102
RTVSPropertyOp8
 70
     1
102
RTVSPropertyOp9
 70
     1
102
RTVSPropertyOp10
 70
     1
102
RTVSPropertyOp11
 70
     1
102
RTVSPropertyOp12
 70
     1
102
RTVSPropertyOp13
 70
     1
102
RTVSPropertyOp14
 70
     1
102
RTVSPropertyOp15
 70
     1
102
RTVSPropertyOp16
 70
     1
102
RTVSPropertyOp17
 70
     1
102
RTVSPropertyOp18
 70
     1
102
RTVSPropertyOp19
 70
     1
102
RTVSPropertyOp20
 70
     1
102
RTVSPropertyOp21
 70
     1
102
RTVSPropertyOp22
 70
     1
102
RTVSPropertyOp23
 70
     1
102
RTVSPropertyOp24
 70
     1
102
RTVSPropertyOp25
 70
     1
102
RTVSPropertyOp26
 70
     1
102
RTVSPropertyOp27
 70
     1
102
RTVSPropertyOp28
 70
     1
102
RTVSPropertyOp29
 70
     1
102
RTVSPropertyOp30
 70
     1
102
RTVSPropertyOp31
 70
     1
102
RTVSPropertyOp32
 70
     1
  0
ENDSEC
  0
EOF
