  0
SECTION
  2
HEADER
  9
$ACADVER
  1
AC1018
  9
$ACADMAINTVER
 70
     0
  9
$DWGCODEPAGE
  3
ANSI_1252
  9
$INSBASE
 10
0.0
 20
0.0
 30
0.0
  9
$EXTMIN
 10
1.000000000000000E+20
 20
1.000000000000000E+20
 30
1.000000000000000E+20
  9
$EXTMAX
 10
-1.000000000000000E+20
 20
-1.000000000000000E+20
 30
-1.000000000000000E+20
  9
$LIMMIN
 10
0.0
 20
0.0
  9
$LIMMAX
 10
12.0
 20
9.0
  9
$ORTHOMODE
 70
     0
  9
$REGENMODE
 70
     1
  9
$FILLMODE
 70
     1
  9
$QTEXTMODE
 70
     0
  9
$MIRRTEXT
 70
     1
  9
$LTSCALE
 40
1.0
  9
$ATTMODE
 70
     1
  9
$TEXTSIZE
 40
0.2
  9
$TRACEWID
 40
0.05
  9
$TEXTSTYLE
  7
Standard
  9
$CLAYER
  8
0
  9
$CELTYPE
  6
ByLayer
  9
$CECOLOR
 62
   256
  9
$CELTSCALE
 40
1.0
  9
$DISPSILH
 70
     0
  9
$DIMSCALE
 40
1.0
  9
$DIMASZ
 40
0.18
  9
$DIMEXO
 40
0.0625
  9
$DIMDLI
 40
0.38
  9
$DIMRND
 40
0.0
  9
$DIMDLE
 40
0.0
  9
$DIMEXE
 40
0.18
  9
$DIMTP
 40
0.0
  9
$DIMTM
 40
0.0
  9
$DIMTXT
 40
0.18
  9
$DIMCEN
 40
0.09
  9
$DIMTSZ
 40
0.0
  9
$DIMTOL
 70
     0
  9
$DIMLIM
 70
     0
  9
$DIMTIH
 70
     1
  9
$DIMTOH
 70
     1
  9
$DIMSE1
 70
     0
  9
$DIMSE2
 70
     0
  9
$DIMTAD
 70
     0
  9
$DIMZIN
 70
     0
  9
$DIMBLK
  1

  9
$DIMASO
 70
     1
  9
$DIMSHO
 70
     1
  9
$DIMPOST
  1

  9
$DIMAPOST
  1

  9
$DIMALT
 70
     0
  9
$DIMALTD
 70
     2
  9
$DIMALTF
 40
25.4
  9
$DIMLFAC
 40
1.0
  9
$DIMTOFL
 70
     0
  9
$DIMTVP
 40
0.0
  9
$DIMTIX
 70
     0
  9
$DIMSOXD
 70
     0
  9
$DIMSAH
 70
     0
  9
$DIMBLK1
  1

  9
$DIMBLK2
  1

  9
$DIMSTYLE
  2
Standard
  9
$DIMCLRD
 70
     0
  9
$DIMCLRE
 70
     0
  9
$DIMCLRT
 70
     0
  9
$DIMTFAC
 40
1.0
  9
$DIMGAP
 40
0.09
  9
$DIMJUST
 70
     0
  9
$DIMSD1
 70
     0
  9
$DIMSD2
 70
     0
  9
$DIMTOLJ
 70
     1
  9
$DIMTZIN
 70
     0
  9
$DIMALTZ
 70
     0
  9
$DIMALTTZ
 70
     0
  9
$DIMUPT
 70
     0
  9
$DIMDEC
 70
     4
  9
$DIMTDEC
 70
     4
  9
$DIMALTU
 70
     2
  9
$DIMALTTD
 70
     2
  9
$DIMTXSTY
  7
Standard
  9
$DIMAUNIT
 70
     0
  9
$DIMADEC
 70
     0
  9
$DIMALTRND
 40
0.0
  9
$DIMAZIN
 70
     0
  9
$DIMDSEP
 70
    46
  9
$DIMATFIT
 70
     3
  9
$DIMFRAC
 70
     0
  9
$DIMLDRBLK
  1

  9
$DIMLUNIT
 70
     2
  9
$DIMLWD
 70
    -2
  9
$DIMLWE
 70
    -2
  9
$DIMTMOVE
 70
     0
  9
$LUNITS
 70
     2
  9
$LUPREC
 70
     4
  9
$SKETCHINC
 40
0.1
  9
$FILLETRAD
 40
0.5
  9
$AUNITS
 70
     0
  9
$AUPREC
 70
     0
  9
$MENU
  1
.
  9
$ELEVATION
 40
0.0
  9
$PELEVATION
 40
0.0
  9
$THICKNESS
 40
0.0
  9
$LIMCHECK
 70
     0
  9
$CHAMFERA
 40
0.5
  9
$CHAMFERB
 40
0.5
  9
$CHAMFERC
 40
1.0
  9
$CHAMFERD
 40
0.0
  9
$SKPOLY
 70
     0
  9
$TDCREATE
 40
2455737.138079421
  9
$TDUCREATE
 40
2455737.388079421
  9
$TDUPDATE
 40
2455737.138079433
  9
$TDUUPDATE
 40
2455737.388079433
  9
$TDINDWG
 40
0.0000000116
  9
$TDUSRTIMER
 40
0.0000000116
  9
$USRTIMER
 70
     1
  9
$ANGBASE
 50
0.0
  9
$ANGDIR
 70
     0
  9
$PDMODE
 70
     0
  9
$PDSIZE
 40
0.0
  9
$PLINEWID
 40
0.0
  9
$SPLFRAME
 70
     0
  9
$SPLINETYPE
 70
     6
  9
$SPLINESEGS
 70
     8
  9
$HANDSEED
  5
57
  9
$SURFTAB1
 70
     6
  9
$SURFTAB2
 70
     6
  9
$SURFTYPE
 70
     6
  9
$SURFU
 70
     6
  9
$SURFV
 70
     6
  9
$UCSBASE
  2

  9
$UCSNAME
  2

  9
$UCSORG
 10
0.0
 20
0.0
 30
0.0
  9
$UCSXDIR
 10
1.0
 20
0.0
 30
0.0
  9
$UCSYDIR
 10
0.0
 20
1.0
 30
0.0
  9
$UCSORTHOREF
  2

  9
$UCSORTHOVIEW
 70
     0
  9
$UCSORGTOP
 10
0.0
 20
0.0
 30
0.0
  9
$UCSORGBOTTOM
 10
0.0
 20
0.0
 30
0.0
  9
$UCSORGLEFT
 10
0.0
 20
0.0
 30
0.0
  9
$UCSORGRIGHT
 10
0.0
 20
0.0
 30
0.0
  9
$UCSORGFRONT
 10
0.0
 20
0.0
 30
0.0
  9
$UCSORGBACK
 10
0.0
 20
0.0
 30
0.0
  9
$PUCSBASE
  2

  9
$PUCSNAME
  2

  9
$PUCSORG
 10
0.0
 20
0.0
 30
0.0
  9
$PUCSXDIR
 10
1.0
 20
0.0
 30
0.0
  9
$PUCSYDIR
 10
0.0
 20
1.0
 30
0.0
  9
$PUCSORTHOREF
  2

  9
$PUCSORTHOVIEW
 70
     0
  9
$PUCSORGTOP
 10
0.0
 20
0.0
 30
0.0
  9
$PUCSORGBOTTOM
 10
0.0
 20
0.0
 30
0.0
  9
$PUCSORGLEFT
 10
0.0
 20
0.0
 30
0.0
  9
$PUCSORGRIGHT
 10
0.0
 20
0.0
 30
0.0
  9
$PUCSORGFRONT
 10
0.0
 20
0.0
 30
0.0
  9
$PUCSORGBACK
 10
0.0
 20
0.0
 30
0.0
  9
$USERI1
 70
     0
  9
$USERI2
 70
     0
  9
$USERI3
 70
     0
  9
$USERI4
 70
     0
  9
$USERI5
 70
     0
  9
$USERR1
 40
0.0
  9
$USERR2
 40
0.0
  9
$USERR3
 40
0.0
  9
$USERR4
 40
0.0
  9
$USERR5
 40
0.0
  9
$WORLDVIEW
 70
     1
  9
$SHADEDGE
 70
     3
  9
$SHADEDIF
 70
    70
  9
$TILEMODE
 70
     1
  9
$MAXACTVP
 70
    64
  9
$PINSBASE
 10
0.0
 20
0.0
 30
0.0
  9
$PLIMCHECK
 70
     0
  9
$PEXTMIN
 10
1.000000000000000E+20
 20
1.000000000000000E+20
 30
1.000000000000000E+20
  9
$PEXTMAX
 10
-1.000000000000000E+20
 20
-1.000000000000000E+20
 30
-1.000000000000000E+20
  9
$PLIMMIN
 10
0.0
 20
0.0
  9
$PLIMMAX
 10
12.0
 20
9.0
  9
$UNITMODE
 70
     0
  9
$VISRETAIN
 70
     1
  9
$PLINEGEN
 70
     0
  9
$PSLTSCALE
 70
     1
  9
$TREEDEPTH
 70
  3020
  9
$CMLSTYLE
  2
Standard
  9
$CMLJUST
 70
     0
  9
$CMLSCALE
 40
1.0
  9
$PROXYGRAPHICS
 70
     1
  9
$MEASUREMENT
 70
     0
  9
$CELWEIGHT
370
    -1
  9
$ENDCAPS
280
     0
  9
$JOINSTYLE
280
     0
  9
$LWDISPLAY
290
     1
  9
$INSUNITS
 70
     1
  9
$HYPERLINKBASE
  1

  9
$STYLESHEET
  1

  9
$XEDIT
290
     1
  9
$CEPSNTYPE
380
     0
  9
$PSTYLEMODE
290
     1
  9
$FINGERPRINTGUID
  2
{C326E425-60E3-4DAF-A68D-1CCCE0C037D5}
  9
$VERSIONGUID
  2
{FAEB1C32-E019-11D5-929B-00C0DF256EC4}
  9
$EXTNAMES
290
     1
  9
$PSVPSCALE
 40
0.0
  9
$OLESTARTUP
290
     0
  9
$SORTENTS
280
   127
  9
$INDEXCTL
280
     0
  9
$HIDETEXT
280
     1
  9
$XCLIPFRAME
290
     0
  9
$HALOGAP
280
     0
  9
$OBSCOLOR
 70
   257
  9
$OBSLTYPE
280
     0
  9
$INTERSECTIONDISPLAY
280
     0
  9
$INTERSECTIONCOLOR
 70
   257
  9
$DIMASSOC
280
     2
  9
$PROJECTNAME
  1

  0
ENDSEC
  0
SECTION
  2
CLASSES
  0
CLASS
  1
ACDBDICTIONARYWDFLT
  2
AcDbDictionaryWithDefault
  3
ObjectDBX Classes
 90
        0
 91
        3
280
     0
281
     0
  0
CLASS
  1
VISUALSTYLE
  2
AcDbVisualStyle
  3
ObjectDBX Classes
 90
     4095
 91
        3
280
     0
281
     0
  0
ENDSEC
  0
SECTION
  2
TABLES
  0
TABLE
  2
VPORT
  5
8
330
0
100
AcDbSymbolTable
 70
     1
  0
VPORT
  5
29
330
8
100
AcDbSymbolTableRecord
100
AcDbViewportTableRecord
  2
*Active
 70
     0
 10
0.0
 20
0.0
 11
1.0
 21
1.0
 12
0.0
 22
0.0
 13
0.0
 23
0.0
 14
0.5
 24
0.5
 15
0.5
 25
0.5
 16
0.0
 26
0.0
 36
1.0
 17
49.75096841204142
 27
50.7999999873
 37
0.0
 40
101.5999999746
 41
0.9793497721354165
 42
50.0
 43
0.0
 44
0.0
 50
0.0
 51
0.0
 71
     0
 72
   100
 73
     1
 74
     3
 75
     0
 76
     0
 77
     0
 78
     0
281
     0
 65
     1
110
0.0
120
0.0
130
0.0
111
1.0
121
0.0
131
0.0
112
0.0
122
1.0
132
0.0
 79
     0
146
0.0
  0
ENDTAB
  0
TABLE
  2
LTYPE
  5
5
330
0
100
AcDbSymbolTable
 70
     1
  0
LTYPE
  5
14
330
5
100
AcDbSymbolTableRecord
100
AcDbLinetypeTableRecord
  2
ByBlock
 70
     0
  3

 72
    65
 73
     0
 40
0.0
  0
LTYPE
  5
15
330
5
100
AcDbSymbolTableRecord
100
AcDbLinetypeTableRecord
  2
ByLayer
 70
     0
  3

 72
    65
 73
     0
 40
0.0
  0
LTYPE
  5
16
330
5
100
AcDbSymbolTableRecord
100
AcDbLinetypeTableRecord
  2
Continuous
 70
     0
  3
Solid line
 72
    65
 73
     0
 40
0.0
  0
ENDTAB
  0
TABLE
  2
LAYER
  5
2
330
0
100
AcDbSymbolTable
 70
     2
  0
LAYER
  5
10
330
2
100
AcDbSymbolTableRecord
100
AcDbLayerTableRecord
  2
0
 70
     0
 62
     7
  6
Continuous
370
    -3
390
F
  0
LAYER
  5
3B
330
2
100
AcDbSymbolTableRecord
100
AcDbLayerTableRecord
  2
Layer 1
 70
     0
 62
     7
  6
Continuous
370
    -3
390
F
  0
ENDTAB
  0
TABLE
  2
STYLE
  5
3
330
0
100
AcDbSymbolTable
 70
     1
  0
STYLE
  5
11
330
3
100
AcDbSymbolTableRecord
100
AcDbTextStyleTableRecord
  2
Standard
 70
     0
 40
0.0
 41
1.0
 50
0.0
 71
     0
 42
0.2
  3
txt
  4

  0
ENDTAB
  0
TABLE
  2
VIEW
  5
6
330
0
100
AcDbSymbolTable
 70
     0
  0
ENDTAB
  0
TABLE
  2
UCS
  5
7
330
0
100
AcDbSymbolTable
 70
     0
  0
ENDTAB
  0
TABLE
  2
APPID
  5
9
330
0
100
AcDbSymbolTable
 70
     1
  0
APPID
  5
12
330
9
100
AcDbSymbolTableRecord
100
AcDbRegAppTableRecord
  2
ACAD
 70
     0
  0
ENDTAB
  0
TABLE
  2
DIMSTYLE
  5
A
330
0
100
AcDbSymbolTable
 70
     1
100
AcDbDimStyleTable
  0
DIMSTYLE
105
27
330
A
100
AcDbSymbolTableRecord
100
AcDbDimStyleTableRecord
  2
Standard
 70
     0
340
11
  0
ENDTAB
  0
TABLE
  2
BLOCK_RECORD
  5
1
330
0
100
AcDbSymbolTable
 70
     1
  0
BLOCK_RECORD
  5
1F
330
1
100
AcDbSymbolTableRecord
100
AcDbBlockTableRecord
  2
*Model_Space
340
22
  0
BLOCK_RECORD
  5
1B
330
1
100
AcDbSymbolTableRecord
100
AcDbBlockTableRecord
  2
*Paper_Space
340
1E
  0
BLOCK_RECORD
  5
23
330
1
100
AcDbSymbolTableRecord
100
AcDbBlockTableRecord
  2
*Paper_Space0
340
26
  0
ENDTAB
  0
ENDSEC
  0
SECTION
  2
BLOCKS
  0
BLOCK
  5
20
330
1F
100
AcDbEntity
  8
0
100
AcDbBlockBegin
  2
*Model_Space
 70
     0
 71
     0
 10
0.0
 20
0.0
 30
0.0
  3
*Model_Space
  1

  0
ENDBLK
  5
21
330
1F
100
AcDbEntity
  8
0
100
AcDbBlockEnd
  0
BLOCK
  5
1C
330
1B
100
AcDbEntity
 67
     1
  8
0
100
AcDbBlockBegin
  2
*Paper_Space
 70
     0
 71
     0
 10
0.0
 20
0.0
 30
0.0
  3
*Paper_Space
  1

  0
ENDBLK
  5
1D
330
1B
100
AcDbEntity
 67
     1
  8
0
100
AcDbBlockEnd
  0
BLOCK
  5
24
330
23
100
AcDbEntity
  8
0
100
AcDbBlockBegin
  2
*Paper_Space0
 70
     0
 71
     0
 10
0.0
 20
0.0
 30
0.0
  3
*Paper_Space0
  1

  0
ENDBLK
  5
25
330
23
100
AcDbEntity
  8
0
100
AcDbBlockEnd
  0
ENDSEC
  0
SECTION
  2
ENTITIES
  0
SPLINE
  5
3C
330
1F
100
AcDbEntity
  8
Layer 1
370
     0
100
AcDbSpline
210
0.0
220
0.0
230
1.0
 70
    11
 71
     3
 72
    53
 73
    49
 74
     0
 42
0.0000000001
 43
0.0000000001
 40
0.0
 40
0.0
 40
0.0
 40
0.0
 40
1.0
 40
1.0
 40
1.0
 40
2.0
 40
2.0
 40
2.0
 40
3.0
 40
3.0
 40
3.0
 40
4.0
 40
4.0
 40
4.0
 40
5.0
 40
5.0
 40
5.0
 40
6.0
 40
6.0
 40
6.0
 40
7.0
 40
7.0
 40
7.0
 40
8.0
 40
8.0
 40
8.0
 40
9.0
 40
9.0
 40
9.0
 40
10.0
 40
10.0
 40
10.0
 40
11.0
 40
11.0
 40
11.0
 40
12.0
 40
12.0
 40
12.0
 40
13.0
 40
13.0
 40
13.0
 40
14.0
 40
14.0
 40
14.0
 40
15.0
 40
15.0
 40
15.0
 40
16.0
 40
16.0
 40
16.0
 40
16.0
 10
43.43903671874094
 20
11.22102050500725
 30
0.0
 10
45.03359916408883
 20
7.224020723020384
 30
0.0
 10
47.21021049166967
 20
3.657313367141227
 30
0.0
 10
51.16862520422173
 20
1.642277017818597
 30
0.0
 10
55.39713540281738
 20
-0.5105631509140259
 30
0.0
 10
60.4827853581432
 20
-0.4830023870320272
 30
0.0
 10
64.81843802633011
 20
1.350821939766461
 30
0.0
 10
73.53142901807549
 20
5.035696070789688
 30
0.0
 10
77.65968693805036
 20
13.7521321580203
 30
0.0
 10
77.00339624811026
 20
22.84925129637102
 30
0.0
 10
84.6459960725885
 20
21.80710991208295
 30
0.0
 10
95.67925887364963
 20
21.67791883138608
 30
0.0
 10
98.75572914197774
 20
30.55524087777786
 30
0.0
 10
101.8570040977996
 20
39.50490992935988
 30
0.0
 10
94.72290036694427
 20
47.98087835172006
 30
0.0
 10
87.83580998238133
 20
52.68756780366839
 30
0.0
 10
94.59060870031068
 20
57.97923446901214
 30
0.0
 10
101.6206705475115
 20
67.36470809947826
 30
0.0
 10
94.30466577503495
 20
75.24536402198727
 30
0.0
 10
86.25451115465165
 20
83.9158080844898
 30
0.0
 10
72.13134221286994
 20
83.04678274833553
 30
0.0
 10
62.20671113896221
 20
78.65531953328757
 30
0.0
 10
61.45705836137185
 20
84.86992727912974
 30
0.0
 10
60.72532008030478
 20
91.8758734579338
 30
0.0
 10
56.529538288819
 20
96.85472545321687
 30
0.0
 10
52.50325519520752
 20
101.6337619103555
 30
0.0
 10
46.07505152927985
 20
102.5341376154255
 30
0.0
 10
40.32053628549279
 20
100.7506116827117
 30
0.0
 10
27.43329534904446
 20
96.75619572233873
 30
0.0
 10
26.04612765190861
 20
81.26222328697611
 30
0.0
 10
27.26345214162164
 20
69.88824054242377
 30
0.0
 10
18.42282036214777
 20
70.81910534253828
 30
0.0
 10
7.652762856159726
 20
69.30240205515705
 30
0.0
 10
2.997577581715884
 20
60.70998940539542
 30
0.0
 10
0.3414089625882589
 20
55.80796303943343
 30
0.0
 10
-1.074697536623687
 20
49.81298013077593
 30
0.0
 10
0.9811631941991537
 20
44.43863117378618
 30
0.0
 10
2.949690754470911
 20
39.29338106656554
 30
0.0
 10
7.89288601148164
 20
35.78592935303269
 30
0.0
 10
12.54462619044023
 20
33.21898870697303
 30
0.0
 10
7.962649195057949
 20
27.19144964597992
 30
0.0
 10
6.305902776201302
 20
18.74028591111354
 30
0.0
 10
11.7429524710226
 20
12.68415255759285
 30
0.0
 10
17.83457030804136
 20
5.899036999393297
 30
0.0
 10
26.15550943356529
 20
7.295678709113581
 30
0.0
 10
34.23046874144239
 20
8.57312011504422
 30
0.0
 10
37.855225956248
 20
9.147073022886843
 30
0.0
 10
40.91205918031018
 20
10.02384982388293
 30
0.0
 10
43.43903671874094
 20
11.22102050500725
 30
0.0
  0
SPLINE
  5
3D
330
1F
100
AcDbEntity
  8
Layer 1
370
     0
100
AcDbSpline
210
0.0
220
0.0
230
1.0
 70
    11
 71
     3
 72
    17
 73
    13
 74
     0
 42
0.0000000001
 43
0.0000000001
 40
0.0
 40
0.0
 40
0.0
 40
0.0
 40
1.0
 40
1.0
 40
1.0
 40
2.0
 40
2.0
 40
2.0
 40
3.0
 40
3.0
 40
3.0
 40
4.0
 40
4.0
 40
4.0
 40
4.0
 10
42.89574516071704
 20
16.93092176226033
 30
0.0
 10
41.54854057121009
 20
16.05965711404064
 30
0.0
 10
39.99755858375061
 20
15.40715602913432
 30
0.0
 10
38.40936956505044
 20
14.91002875061277
 30
0.0
 10
38.40936956505044
 20
14.91002875061277
 30
0.0
 10
44.79278698966986
 20
30.71681585603607
 30
0.0
 10
44.79278698966986
 20
30.71681585603607
 30
0.0
 10
44.87012938331372
 20
30.68925509215408
 30
0.0
 10
44.94867756037742
 20
30.66410589511175
 30
0.0
 10
45.02688122789259
 20
30.6372341503268
 30
0.0
 10
45.02688122789259
 20
30.6372341503268
 30
0.0
 10
42.89574516071704
 20
16.93092176226033
 30
0.0
 10
42.89574516071704
 20
16.93092176226033
 30
0.0
  0
SPLINE
  5
3E
330
1F
100
AcDbEntity
  8
Layer 1
370
     0
100
AcDbSpline
210
0.0
220
0.0
230
1.0
 70
    11
 71
     3
 72
    17
 73
    13
 74
     0
 42
0.0000000001
 43
0.0000000001
 40
0.0
 40
0.0
 40
0.0
 40
0.0
 40
1.0
 40
1.0
 40
1.0
 40
2.0
 40
2.0
 40
2.0
 40
3.0
 40
3.0
 40
3.0
 40
4.0
 40
4.0
 40
4.0
 40
4.0
 10
49.19114039568833
 20
11.15900878627275
 30
0.0
 10
48.13297931739384
 20
13.40176594717039
 30
0.0
 10
47.43207464091976
 20
15.91875270869392
 30
0.0
 10
46.12690021633286
 20
17.88934732625683
 30
0.0
 10
46.12690021633286
 20
17.88934732625683
 30
0.0
 10
47.99758706482352
 20
29.92168781804041
 30
0.0
 10
47.99758706482352
 20
29.92168781804041
 30
0.0
 10
48.39101696923905
 20
29.86449923298527
 30
0.0
 10
48.7894422621082
 20
29.82350259671079
 30
0.0
 10
49.19114039568833
 20
29.79456379463469
 30
0.0
 10
49.19114039568833
 20
29.79456379463469
 30
0.0
 10
49.19114039568833
 20
11.15900878627275
 30
0.0
 10
49.19114039568833
 20
11.15900878627275
 30
0.0
  0
SPLINE
  5
3F
330
1F
100
AcDbEntity
  8
Layer 1
370
     0
100
AcDbSpline
210
0.0
220
0.0
230
1.0
 70
    11
 71
     3
 72
    20
 73
    16
 74
     0
 42
0.0000000001
 43
0.0000000001
 40
0.0
 40
0.0
 40
0.0
 40
0.0
 40
1.0
 40
1.0
 40
1.0
 40
2.0
 40
2.0
 40
2.0
 40
3.0
 40
3.0
 40
3.0
 40
4.0
 40
4.0
 40
4.0
 40
5.0
 40
5.0
 40
5.0
 40
5.0
 10
58.12358396984411
 20
5.259282767782402
 30
0.0
 10
56.02035317609908
 20
5.267206487398476
 30
0.0
 10
53.92745766880981
 20
5.892491317971322
 30
0.0
 10
52.23694931419771
 20
7.158563908800637
 30
0.0
 10
52.23694931419771
 20
7.158563908800637
 30
0.0
 10
52.23694931419771
 20
29.84141709323409
 30
0.0
 10
52.23694931419771
 20
29.84141709323409
 30
0.0
 10
52.97902288172052
 20
29.92065428939484
 30
0.0
 10
53.70559351955971
 20
30.05018987964023
 30
0.0
 10
54.41562769906971
 20
30.22278916345125
 30
0.0
 10
54.41562769906971
 20
30.22278916345125
 30
0.0
 10
64.492876502974
 20
7.11102159110419
 30
0.0
 10
64.492876502974
 20
7.11102159110419
 30
0.0
 10
62.62046710674072
 20
5.913850909979871
 30
0.0
 10
60.35359427744633
 20
5.223798284284328
 30
0.0
 10
58.12358396984411
 20
5.259282767782402
 30
0.0
  0
SPLINE
  5
40
330
1F
100
AcDbEntity
  8
Layer 1
370
     0
100
AcDbSpline
210
0.0
220
0.0
230
1.0
 70
    11
 71
     3
 72
    20
 73
    16
 74
     0
 42
0.0000000001
 43
0.0000000001
 40
0.0
 40
0.0
 40
0.0
 40
0.0
 40
1.0
 40
1.0
 40
1.0
 40
2.0
 40
2.0
 40
2.0
 40
3.0
 40
3.0
 40
3.0
 40
4.0
 40
4.0
 40
4.0
 40
5.0
 40
5.0
 40
5.0
 40
5.0
 10
66.98781465339194
 20
9.009613713025376
 30
0.0
 10
66.98781465339194
 20
9.009613713025376
 30
0.0
 10
57.3057183016458
 20
31.21428764410615
 30
0.0
 10
57.3057183016458
 20
31.21428764410615
 30
0.0
 10
57.64471569739438
 20
31.3665608645542
 30
0.0
 10
57.97888995946361
 20
31.52813584281241
 30
0.0
 10
58.3054850114653
 20
31.701768655269
 30
0.0
 10
58.3054850114653
 20
31.701768655269
 30
0.0
 10
71.51914874514105
 20
18.39164224800626
 30
0.0
 10
71.51914874514105
 20
18.39164224800626
 30
0.0
 10
71.51914874514105
 20
18.39164224800626
 30
0.0
 10
71.74411348032787
 20
18.61488443545045
 30
0.0
 10
71.74411348032787
 20
18.61488443545045
 30
0.0
 10
71.43198782936423
 20
15.06057942331819
 30
0.0
 10
70.13077526458537
 20
11.83114691544499
 30
0.0
 10
66.98781465339194
 20
9.009613713025376
 30
0.0
  0
SPLINE
  5
41
330
1F
100
AcDbEntity
  8
Layer 1
370
     0
100
AcDbSpline
210
0.0
220
0.0
230
1.0
 70
    11
 71
     3
 72
    17
 73
    13
 74
     0
 42
0.0000000001
 43
0.0000000001
 40
0.0
 40
0.0
 40
0.0
 40
0.0
 40
1.0
 40
1.0
 40
1.0
 40
2.0
 40
2.0
 40
2.0
 40
3.0
 40
3.0
 40
3.0
 40
4.0
 40
4.0
 40
4.0
 40
4.0
 10
60.90274249779515
 20
33.40846895866177
 30
0.0
 10
61.15251192047577
 20
33.60793998725774
 30
0.0
 10
61.3971136999285
 20
33.81257865908158
 30
0.0
 10
61.63482528841074
 20
34.02514105052149
 30
0.0
 10
61.63482528841074
 20
34.02514105052149
 30
0.0
 10
71.19083114539674
 20
26.86003146029888
 30
0.0
 10
71.19083114539674
 20
26.86003146029888
 30
0.0
 10
71.44197860627145
 20
25.36382649105488
 30
0.0
 10
71.64007159667332
 20
23.90551757214862
 30
0.0
 10
71.74411348032787
 20
22.48820528951684
 30
0.0
 10
71.74411348032787
 20
22.48820528951684
 30
0.0
 10
60.90274249779515
 20
33.40846895866177
 30
0.0
 10
60.90274249779515
 20
33.40846895866177
 30
0.0
  0
SPLINE
  5
42
330
1F
100
AcDbEntity
  8
Layer 1
370
     0
100
AcDbSpline
210
0.0
220
0.0
230
1.0
 70
    11
 71
     3
 72
    17
 73
    13
 74
     0
 42
0.0000000001
 43
0.0000000001
 40
0.0
 40
0.0
 40
0.0
 40
0.0
 40
1.0
 40
1.0
 40
1.0
 40
2.0
 40
2.0
 40
2.0
 40
3.0
 40
3.0
 40
3.0
 40
4.0
 40
4.0
 40
4.0
 40
4.0
 10
73.82047252928794
 20
28.69488931574294
 30
0.0
 10
73.82047252928794
 20
28.69488931574294
 30
0.0
 10
63.72117511427804
 20
36.26789821141914
 30
0.0
 10
63.72117511427804
 20
36.26789821141914
 30
0.0
 10
64.07395289196762
 20
36.72265081547211
 30
0.0
 10
64.40399303945456
 20
37.1953179160484
 30
0.0
 10
64.70922849944769
 20
37.68589951314797
 30
0.0
 10
64.70922849944769
 20
37.68589951314797
 30
0.0
 10
83.7330457689973
 20
27.6034830660158
 30
0.0
 10
83.7330457689973
 20
27.6034830660158
 30
0.0
 10
80.40439451114891
 20
27.6034830660158
 30
0.0
 10
77.08883461614447
 20
28.1068115164108
 30
0.0
 10
73.82047252928794
 20
28.69488931574294
 30
0.0
  0
SPLINE
  5
43
330
1F
100
AcDbEntity
  8
Layer 1
370
     0
100
AcDbSpline
210
0.0
220
0.0
230
1.0
 70
    11
 71
     3
 72
    23
 73
    19
 74
     0
 42
0.0000000001
 43
0.0000000001
 40
0.0
 40
0.0
 40
0.0
 40
0.0
 40
1.0
 40
1.0
 40
1.0
 40
2.0
 40
2.0
 40
2.0
 40
3.0
 40
3.0
 40
3.0
 40
4.0
 40
4.0
 40
4.0
 40
5.0
 40
5.0
 40
5.0
 40
6.0
 40
6.0
 40
6.0
 40
6.0
 10
92.76815318861352
 20
30.47807073890826
 30
0.0
 10
91.59303111859481
 20
29.07384981912043
 30
0.0
 10
89.76954207825206
 20
28.32281900333596
 30
0.0
 10
88.0090982852894
 20
27.98451062668443
 30
0.0
 10
88.0090982852894
 20
27.98451062668443
 30
0.0
 10
88.0090982852894
 20
27.98451062668443
 30
0.0
 10
88.0090982852894
 20
27.98451062668443
 30
0.0
 10
88.0090982852894
 20
27.98451062668443
 30
0.0
 10
66.07520885934926
 20
40.40855847514091
 30
0.0
 10
66.07520885934926
 20
40.40855847514091
 30
0.0
 10
66.1365315589867
 20
40.56462130062273
 30
0.0
 10
66.19750974907562
 20
40.72033961655602
 30
0.0
 10
66.25469833413078
 20
40.87812498978047
 30
0.0
 10
66.25469833413078
 20
40.87812498978047
 30
0.0
 10
94.04593910409268
 20
33.33818901076268
 30
0.0
 10
94.04593910409268
 20
33.33818901076268
 30
0.0
 10
93.87402883937872
 20
32.2932915500864
 30
0.0
 10
93.44993758514447
 20
31.2921468020728
 30
0.0
 10
92.76815318861352
 20
30.47807073890826
 30
0.0
  0
SPLINE
  5
44
330
1F
100
AcDbEntity
  8
Layer 1
370
     0
100
AcDbSpline
210
0.0
220
0.0
230
1.0
 70
    11
 71
     3
 72
    17
 73
    13
 74
     0
 42
0.0000000001
 43
0.0000000001
 40
0.0
 40
0.0
 40
0.0
 40
0.0
 40
1.0
 40
1.0
 40
1.0
 40
2.0
 40
2.0
 40
2.0
 40
3.0
 40
3.0
 40
3.0
 40
4.0
 40
4.0
 40
4.0
 40
4.0
 10
90.31834578905236
 20
43.59630532764259
 30
0.0
 10
92.20177949083845
 20
41.4493218212349
 30
0.0
 10
93.58946395229708
 20
39.04257811523936
 30
0.0
 10
94.02354598343857
 20
36.49975313757646
 30
0.0
 10
94.02354598343857
 20
36.49975313757646
 30
0.0
 10
67.01537541727394
 20
43.82747123470286
 30
0.0
 10
67.01537541727394
 20
43.82747123470286
 30
0.0
 10
67.07600909781434
 20
44.20057507575542
 30
0.0
 10
67.12492945370488
 20
44.5767795027447
 30
0.0
 10
67.16075844675149
 20
44.95711804431627
 30
0.0
 10
67.16075844675149
 20
44.95711804431627
 30
0.0
 10
90.31834578905236
 20
43.59630532764259
 30
0.0
 10
90.31834578905236
 20
43.59630532764259
 30
0.0
  0
SPLINE
  5
45
330
1F
100
AcDbEntity
  8
Layer 1
370
     0
100
AcDbSpline
210
0.0
220
0.0
230
1.0
 70
    11
 71
     3
 72
    17
 73
    13
 74
     0
 42
0.0000000001
 43
0.0000000001
 40
0.0
 40
0.0
 40
0.0
 40
0.0
 40
1.0
 40
1.0
 40
1.0
 40
2.0
 40
2.0
 40
2.0
 40
3.0
 40
3.0
 40
3.0
 40
4.0
 40
4.0
 40
4.0
 40
4.0
 10
66.8134928218383
 20
50.29425997006533
 30
0.0
 10
66.8134928218383
 20
50.29425997006533
 30
0.0
 10
79.71882050958419
 20
51.23890515212083
 30
0.0
 10
79.71882050958419
 20
51.23890515212083
 30
0.0
 10
82.0411593761911
 20
50.19021808641078
 30
0.0
 10
84.58329533475695
 20
48.68505586890512
 30
0.0
 10
86.87945147567598
 20
46.84916448481549
 30
0.0
 10
86.87945147567598
 20
46.84916448481549
 30
0.0
 10
67.17040471411018
 20
48.00740558695649
 30
0.0
 10
67.17040471411018
 20
48.00740558695649
 30
0.0
 10
67.10356986169633
 20
48.78634167617147
 30
0.0
 10
66.98333602926111
 20
49.54943032615431
 30
0.0
 10
66.8134928218383
 20
50.29425997006533
 30
0.0
  0
SPLINE
  5
46
330
1F
100
AcDbEntity
  8
Layer 1
370
     0
100
AcDbSpline
210
0.0
220
0.0
230
1.0
 70
    11
 71
     3
 72
    17
 73
    13
 74
     0
 42
0.0000000001
 43
0.0000000001
 40
0.0
 40
0.0
 40
0.0
 40
0.0
 40
1.0
 40
1.0
 40
1.0
 40
2.0
 40
2.0
 40
2.0
 40
3.0
 40
3.0
 40
3.0
 40
4.0
 40
4.0
 40
4.0
 40
4.0
 10
81.22915037031771
 20
54.40339761009707
 30
0.0
 10
81.22915037031771
 20
54.40339761009707
 30
0.0
 10
65.83301864673619
 20
53.27633462209759
 30
0.0
 10
65.83301864673619
 20
53.27633462209759
 30
0.0
 10
65.7048610946849
 20
53.57002901221514
 30
0.0
 10
65.5670572752749
 20
53.85890026865334
 30
0.0
 10
65.42236326489441
 20
54.14380966528349
 30
0.0
 10
65.42236326489441
 20
54.14380966528349
 30
0.0
 10
90.63288300685568
 20
63.00821260360559
 30
0.0
 10
90.63288300685568
 20
63.00821260360559
 30
0.0
 10
88.49830184419487
 20
59.72520886093675
 30
0.0
 10
84.55539006132643
 20
56.64202065641241
 30
0.0
 10
81.22915037031771
 20
54.40339761009707
 30
0.0
  0
SPLINE
  5
47
330
1F
100
AcDbEntity
  8
Layer 1
370
     0
100
AcDbSpline
210
0.0
220
0.0
230
1.0
 70
    11
 71
     3
 72
    14
 73
    10
 74
     0
 42
0.0000000001
 43
0.0000000001
 40
0.0
 40
0.0
 40
0.0
 40
0.0
 40
1.0
 40
1.0
 40
1.0
 40
2.0
 40
2.0
 40
2.0
 40
3.0
 40
3.0
 40
3.0
 40
3.0
 10
92.14355737713772
 20
66.768017561433
 30
0.0
 10
92.14355737713772
 20
66.768017561433
 30
0.0
 10
66.42902016568442
 20
57.7263644603948
 30
0.0
 10
66.42902016568442
 20
57.7263644603948
 30
0.0
 10
66.42902016568442
 20
57.7263644603948
 30
0.0
 10
89.9907172084051
 20
72.1135999711209
 30
0.0
 10
89.9907172084051
 20
72.1135999711209
 30
0.0
 10
91.79215763764225
 20
70.41602917076405
 30
0.0
 10
92.3774793605862
 20
68.59874130229477
 30
0.0
 10
92.14355737713772
 20
66.768017561433
 30
0.0
  0
SPLINE
  5
48
330
1F
100
AcDbEntity
  8
Layer 1
370
     0
100
AcDbSpline
210
0.0
220
0.0
230
1.0
 70
    11
 71
     3
 72
    20
 73
    16
 74
     0
 42
0.0000000001
 43
0.0000000001
 40
0.0
 40
0.0
 40
0.0
 40
0.0
 40
1.0
 40
1.0
 40
1.0
 40
2.0
 40
2.0
 40
2.0
 40
3.0
 40
3.0
 40
3.0
 40
4.0
 40
4.0
 40
4.0
 40
5.0
 40
5.0
 40
5.0
 40
5.0
 10
77.66209850489004
 20
76.62701956634672
 30
0.0
 10
81.01762150752337
 20
76.52728405204874
 30
0.0
 10
84.37486705789934
 20
75.7076958361078
 30
0.0
 10
87.30354272991023
 20
74.04199216898951
 30
0.0
 10
78.90026582228883
 20
68.90845538641872
 30
0.0
 10
70.49492185737627
 20
63.77836369933319
 30
0.0
 10
62.09095593065782
 20
58.64654946450503
 30
0.0
 10
61.8990641121294
 20
58.83137883728869
 30
0.0
 10
61.70234915992164
 20
59.01207409549004
 30
0.0
 10
61.50184460268009
 20
59.18794622001204
 30
0.0
 10
61.50184460268009
 20
59.18794622001204
 30
0.0
 10
73.35779620561888
 20
76.40084904774007
 30
0.0
 10
73.35779620561888
 20
76.40084904774007
 30
0.0
 10
74.78406573651232
 20
76.58636743962077
 30
0.0
 10
76.22377113979823
 20
76.67215031720349
 30
0.0
 10
77.66209850489004
 20
76.62701956634672
 30
0.0
  0
SPLINE
  5
49
330
1F
100
AcDbEntity
  8
Layer 1
370
     0
100
AcDbSpline
210
0.0
220
0.0
230
1.0
 70
    11
 71
     3
 72
    20
 73
    16
 74
     0
 42
0.0000000001
 43
0.0000000001
 40
0.0
 40
0.0
 40
0.0
 40
0.0
 40
1.0
 40
1.0
 40
1.0
 40
2.0
 40
2.0
 40
2.0
 40
3.0
 40
3.0
 40
3.0
 40
4.0
 40
4.0
 40
4.0
 40
5.0
 40
5.0
 40
5.0
 40
5.0
 10
62.35243867798828
 20
72.87720538542654
 30
0.0
 10
64.48736435019761
 20
73.98342554574026
 30
0.0
 10
66.73425562567755
 20
74.87243243570897
 30
0.0
 10
69.05073782995954
 20
75.51666529145069
 30
0.0
 10
69.05073782995954
 20
75.51666529145069
 30
0.0
 10
59.03997936892056
 20
60.98301322260147
 30
0.0
 10
59.03997936892056
 20
60.98301322260147
 30
0.0
 10
58.44949000274874
 20
61.33544649074253
 30
0.0
 10
57.83557398727722
 20
61.65136174673994
 30
0.0
 10
57.20133190844273
 20
61.9307589905937
 30
0.0
 10
57.20133190844273
 20
61.9307589905937
 30
0.0
 10
60.77837455077763
 20
72.00318466081865
 30
0.0
 10
60.77837455077763
 20
72.00318466081865
 30
0.0
 10
61.29720593085626
 20
72.30583629919785
 30
0.0
 10
61.81913789687161
 20
72.60039196318671
 30
0.0
 10
62.35243867798828
 20
72.87720538542654
 30
0.0
  0
SPLINE
  5
4A
330
1F
100
AcDbEntity
  8
Layer 1
370
     0
100
AcDbSpline
210
0.0
220
0.0
230
1.0
 70
    11
 71
     3
 72
    17
 73
    13
 74
     0
 42
0.0000000001
 43
0.0000000001
 40
0.0
 40
0.0
 40
0.0
 40
0.0
 40
1.0
 40
1.0
 40
1.0
 40
2.0
 40
2.0
 40
2.0
 40
3.0
 40
3.0
 40
3.0
 40
4.0
 40
4.0
 40
4.0
 40
4.0
 10
55.65896265969637
 20
86.32892521713305
 30
0.0
 10
56.72694226012382
 20
81.79001191531638
 30
0.0
 10
56.88748370973646
 20
77.1143283227353
 30
0.0
 10
57.7373887659476
 20
72.54096406606615
 30
0.0
 10
56.5943060839417
 20
69.3273789974251
 30
0.0
 10
55.45466849742106
 20
66.11293265491274
 30
0.0
 10
54.31330836315779
 20
62.89883082194891
 30
0.0
 10
54.12107203508084
 20
62.9443060823542
 30
0.0
 10
53.92883570700391
 20
62.98926457843672
 30
0.0
 10
53.73384330253877
 20
63.02802190264578
 30
0.0
 10
54.37532008189228
 20
70.79498967414153
 30
0.0
 10
55.01817489943991
 20
78.56195744563729
 30
0.0
 10
55.65896265969637
 20
86.32892521713305
 30
0.0
  0
SPLINE
  5
4B
330
1F
100
AcDbEntity
  8
Layer 1
370
     0
100
AcDbSpline
210
0.0
220
0.0
230
1.0
 70
    11
 71
     3
 72
    23
 73
    19
 74
     0
 42
0.0000000001
 43
0.0000000001
 40
0.0
 40
0.0
 40
0.0
 40
0.0
 40
1.0
 40
1.0
 40
1.0
 40
2.0
 40
2.0
 40
2.0
 40
3.0
 40
3.0
 40
3.0
 40
4.0
 40
4.0
 40
4.0
 40
5.0
 40
5.0
 40
5.0
 40
6.0
 40
6.0
 40
6.0
 40
6.0
 10
44.64361435515854
 20
96.28404538608524
 30
0.0
 10
48.04065075838915
 20
96.65146481958713
 30
0.0
 10
51.15518933182926
 20
95.5035590039019
 30
0.0
 10
53.12475042074659
 20
92.64223494862765
 30
0.0
 10
53.12475042074659
 20
92.64223494862765
 30
0.0
 10
53.12440591119807
 20
92.64137367475632
 30
0.0
 10
53.12440591119807
 20
92.64137367475632
 30
0.0
 10
53.12440591119807
 20
92.64137367475632
 30
0.0
 10
50.70388182326153
 20
63.34738225412843
 30
0.0
 10
50.70388182326153
 20
63.34738225412843
 30
0.0
 10
50.13096244406449
 20
63.35616724761582
 30
0.0
 10
49.56183266990121
 20
63.33721922244695
 30
0.0
 10
48.99029132889827
 20
63.28847112133067
 30
0.0
 10
48.99029132889827
 20
63.28847112133067
 30
0.0
 10
43.67347546651219
 20
96.14572480235246
 30
0.0
 10
43.67347546651219
 20
96.14572480235246
 30
0.0
 10
43.99559189438305
 20
96.20153534921351
 30
0.0
 10
44.31874185089949
 20
96.24804413826438
 30
0.0
 10
44.64361435515854
 20
96.28404538608524
 30
0.0
  0
SPLINE
  5
4C
330
1F
100
AcDbEntity
  8
Layer 1
370
     0
100
AcDbSpline
210
0.0
220
0.0
230
1.0
 70
    11
 71
     3
 72
    17
 73
    13
 74
     0
 42
0.0000000001
 43
0.0000000001
 40
0.0
 40
0.0
 40
0.0
 40
0.0
 40
1.0
 40
1.0
 40
1.0
 40
2.0
 40
2.0
 40
2.0
 40
3.0
 40
3.0
 40
3.0
 40
4.0
 40
4.0
 40
4.0
 40
4.0
 10
40.72447373113832
 20
95.30322670143461
 30
0.0
 10
40.72447373113832
 20
95.30322670143461
 30
0.0
 10
45.99099119943975
 20
62.75654837840809
 30
0.0
 10
45.99099119943975
 20
62.75654837840809
 30
0.0
 10
45.29025877773994
 20
62.56482881465394
 30
0.0
 10
44.60692408824063
 20
62.33194035985105
 30
0.0
 10
43.94615477416971
 20
62.05529919238548
 30
0.0
 10
43.94615477416971
 20
62.05529919238548
 30
0.0
 10
33.3922770098811
 20
86.2295342123836
 30
0.0
 10
33.3922770098811
 20
86.2295342123836
 30
0.0
 10
34.53604871098405
 20
90.2492716245731
 30
0.0
 10
36.70542533804587
 20
93.63666176044501
 30
0.0
 10
40.72447373113832
 20
95.30322670143461
 30
0.0
  0
SPLINE
  5
4D
330
1F
100
AcDbEntity
  8
Layer 1
370
     0
100
AcDbSpline
210
0.0
220
0.0
230
1.0
 70
    11
 71
     3
 72
    17
 73
    13
 74
     0
 42
0.0000000001
 43
0.0000000001
 40
0.0
 40
0.0
 40
0.0
 40
0.0
 40
1.0
 40
1.0
 40
1.0
 40
2.0
 40
2.0
 40
2.0
 40
3.0
 40
3.0
 40
3.0
 40
4.0
 40
4.0
 40
4.0
 40
4.0
 10
32.42317164988032
 20
80.83675399454776
 30
0.0
 10
32.42317164988032
 20
80.83675399454776
 30
0.0
 10
41.24916177354188
 20
60.62041692277893
 30
0.0
 10
41.24916177354188
 20
60.62041692277893
 30
0.0
 10
40.61423067561034
 20
60.20511066203206
 30
0.0
 10
40.00978867272325
 20
59.7479464911394
 30
0.0
 10
39.4382473317203
 20
59.25271401513474
 30
0.0
 10
39.4382473317203
 20
59.25271401513474
 30
0.0
 10
32.90307345097562
 20
67.42086315588784
 30
0.0
 10
32.90307345097562
 20
67.42086315588784
 30
0.0
 10
32.21577690166828
 20
71.86262476502046
 30
0.0
 10
31.98581677802785
 20
76.35744084462593
 30
0.0
 10
32.42317164988032
 20
80.83675399454776
 30
0.0
  0
SPLINE
  5
4E
330
1F
100
AcDbEntity
  8
Layer 1
370
     0
100
AcDbSpline
210
0.0
220
0.0
230
1.0
 70
    11
 71
     3
 72
    20
 73
    16
 74
     0
 42
0.0000000001
 43
0.0000000001
 40
0.0
 40
0.0
 40
0.0
 40
0.0
 40
1.0
 40
1.0
 40
1.0
 40
2.0
 40
2.0
 40
2.0
 40
3.0
 40
3.0
 40
3.0
 40
4.0
 40
4.0
 40
4.0
 40
5.0
 40
5.0
 40
5.0
 40
5.0
 10
23.46850720984468
 20
64.86012368170164
 30
0.0
 10
26.30709363491628
 20
64.796044905676
 30
0.0
 10
29.14447427656805
 20
64.41363930681327
 30
0.0
 10
31.91191947986924
 20
63.7847371259809
 30
0.0
 10
33.71094834226671
 20
61.53664006708112
 30
0.0
 10
35.50963269511565
 20
59.28785398908429
 30
0.0
 10
37.30831704796459
 20
57.03941242063598
 30
0.0
 10
37.03736028804969
 20
56.70110404398445
 30
0.0
 10
36.77725557891333
 20
56.353666164297
 30
0.0
 10
36.53282605423485
 20
55.99451495995971
 30
0.0
 10
36.53282605423485
 20
55.99451495995971
 30
0.0
 10
20.80717094748918
 20
64.82136635749258
 30
0.0
 10
20.80717094748918
 20
64.82136635749258
 30
0.0
 10
21.69324950629544
 20
64.86976994906034
 30
0.0
 10
22.58122286761859
 20
64.88200003803297
 30
0.0
 10
23.46850720984468
 20
64.86012368170164
 30
0.0
  0
SPLINE
  5
4F
330
1F
100
AcDbEntity
  8
Layer 1
370
     0
100
AcDbSpline
210
0.0
220
0.0
230
1.0
 70
    11
 71
     3
 72
    17
 73
    13
 74
     0
 42
0.0000000001
 43
0.0000000001
 40
0.0
 40
0.0
 40
0.0
 40
0.0
 40
1.0
 40
1.0
 40
1.0
 40
2.0
 40
2.0
 40
2.0
 40
3.0
 40
3.0
 40
3.0
 40
4.0
 40
4.0
 40
4.0
 40
4.0
 10
15.88740233977815
 20
64.09031709552256
 30
0.0
 10
15.88740233977815
 20
64.09031709552256
 30
0.0
 10
35.05677489357956
 20
53.33025036644175
 30
0.0
 10
35.05677489357956
 20
53.33025036644175
 30
0.0
 10
34.79511989147483
 20
52.73872747162435
 30
0.0
 10
34.56429849396309
 20
52.13084037325201
 30
0.0
 10
34.37154540156337
 20
51.50572779745343
 30
0.0
 10
34.37154540156337
 20
51.50572779745343
 30
0.0
 10
8.274085826924534
 20
59.22773707286668
 30
0.0
 10
8.274085826924534
 20
59.22773707286668
 30
0.0
 10
10.0496880400223
 20
61.76401636910761
 30
0.0
 10
12.77510307840345
 20
63.28054740171459
 30
0.0
 10
15.88740233977815
 20
64.09031709552256
 30
0.0
  0
SPLINE
  5
50
330
1F
100
AcDbEntity
  8
Layer 1
370
     0
100
AcDbSpline
210
0.0
220
0.0
230
1.0
 70
    11
 71
     3
 72
    20
 73
    16
 74
     0
 42
0.0000000001
 43
0.0000000001
 40
0.0
 40
0.0
 40
0.0
 40
0.0
 40
1.0
 40
1.0
 40
1.0
 40
2.0
 40
2.0
 40
2.0
 40
3.0
 40
3.0
 40
3.0
 40
4.0
 40
4.0
 40
4.0
 40
5.0
 40
5.0
 40
5.0
 40
5.0
 10
35.59662135611821
 20
38.65397134450318
 30
0.0
 10
35.59662135611821
 20
38.65397134450318
 30
0.0
 10
13.7796929219023
 20
24.04607746794682
 30
0.0
 10
13.7796929219023
 20
24.04607746794682
 30
0.0
 10
13.82000053907972
 20
24.21971028040341
 30
0.0
 10
13.86444227083945
 20
24.39230956421443
 30
0.0
 10
13.91164007898737
 20
24.56421982892839
 30
0.0
 10
14.86041937562517
 20
27.99415689404313
 30
0.0
 10
17.18758137591144
 20
31.05615776133319
 30
0.0
 10
19.84822861916989
 20
33.36023762186827
 30
0.0
 10
19.84822861916989
 20
33.36023762186827
 30
0.0
 10
35.0069932638177
 20
39.87801377041244
 30
0.0
 10
35.0069932638177
 20
39.87801377041244
 30
0.0
 10
35.18751626724479
 20
39.46081270714869
 30
0.0
 10
35.3840589646783
 20
39.05291340169511
 30
0.0
 10
35.59662135611821
 20
38.65397134450318
 30
0.0
  0
SPLINE
  5
51
330
1F
100
AcDbEntity
  8
Layer 1
370
     0
100
AcDbSpline
210
0.0
220
0.0
230
1.0
 70
    11
 71
     3
 72
    17
 73
    13
 74
     0
 42
0.0000000001
 43
0.0000000001
 40
0.0
 40
0.0
 40
0.0
 40
0.0
 40
1.0
 40
1.0
 40
1.0
 40
2.0
 40
2.0
 40
2.0
 40
3.0
 40
3.0
 40
3.0
 40
4.0
 40
4.0
 40
4.0
 40
4.0
 10
7.049009872369692
 20
56.41412759006314
 30
0.0
 10
7.049009872369692
 20
56.41412759006314
 30
0.0
 10
33.745916061442
 20
48.51452364238526
 30
0.0
 10
33.745916061442
 20
48.51452364238526
 30
0.0
 10
33.65651583359976
 20
47.74798989691717
 30
0.0
 10
33.61965331190759
 20
46.98007811325498
 30
0.0
 10
33.63618977023679
 20
46.20872123410754
 30
0.0
 10
33.63618977023679
 20
46.20872123410754
 30
0.0
 10
5.655124239037608
 20
47.04243434153801
 30
0.0
 10
5.655124239037608
 20
47.04243434153801
 30
0.0
 10
4.619184026622982
 20
50.58502602902041
 30
0.0
 10
7.049009872369692
 20
56.41412759006314
 30
0.0
 10
7.049009872369692
 20
56.41412759006314
 30
0.0
  0
SPLINE
  5
52
330
1F
100
AcDbEntity
  8
Layer 1
370
     0
100
AcDbSpline
210
0.0
220
0.0
230
1.0
 70
    11
 71
     3
 72
    20
 73
    16
 74
     0
 42
0.0000000001
 43
0.0000000001
 40
0.0
 40
0.0
 40
0.0
 40
0.0
 40
1.0
 40
1.0
 40
1.0
 40
2.0
 40
2.0
 40
2.0
 40
3.0
 40
3.0
 40
3.0
 40
4.0
 40
4.0
 40
4.0
 40
5.0
 40
5.0
 40
5.0
 40
5.0
 10
8.077026365168244
 20
42.95482854828907
 30
0.0
 10
7.772996688594946
 20
43.26867674699533
 30
0.0
 10
7.489465330158884
 20
43.60043944222489
 30
0.0
 10
7.225226506440221
 20
43.94839408623513
 30
0.0
 10
7.225226506440221
 20
43.94839408623513
 30
0.0
 10
33.97139756095159
 20
43.15119899094832
 30
0.0
 10
33.97139756095159
 20
43.15119899094832
 30
0.0
 10
33.99689126754244
 20
43.02786457257637
 30
0.0
 10
34.02789712690969
 20
42.90728623059263
 30
0.0
 10
34.05614690988875
 20
42.78464083131773
 30
0.0
 10
28.92192110822091
 20
40.57702364436963
 30
0.0
 10
23.78786756132734
 20
38.36940645742154
 30
0.0
 10
18.65346950488524
 20
36.16213378002197
 30
0.0
 10
14.82889675193514
 20
37.58116861039638
 30
0.0
 10
10.91371798772296
 20
40.00100367923586
 30
0.0
 10
8.077026365168244
 20
42.95482854828907
 30
0.0
  0
SPLINE
  5
53
330
1F
100
AcDbEntity
  8
Layer 1
370
     0
100
AcDbSpline
210
0.0
220
0.0
230
1.0
 70
    11
 71
     3
 72
    17
 73
    13
 74
     0
 42
0.0000000001
 43
0.0000000001
 40
0.0
 40
0.0
 40
0.0
 40
0.0
 40
1.0
 40
1.0
 40
1.0
 40
2.0
 40
2.0
 40
2.0
 40
3.0
 40
3.0
 40
3.0
 40
4.0
 40
4.0
 40
4.0
 40
4.0
 10
13.63689371403869
 20
20.28541123624809
 30
0.0
 10
13.63689371403869
 20
20.28541123624809
 30
0.0
 10
37.26904295943274
 20
36.1087348000006
 30
0.0
 10
37.26904295943274
 20
36.1087348000006
 30
0.0
 10
37.73309732129589
 20
35.52444660570222
 30
0.0
 10
38.23453096917401
 20
34.9725423089652
 30
0.0
 10
38.77058782667888
 20
34.45508896708068
 30
0.0
 10
38.77058782667888
 20
34.45508896708068
 30
0.0
 10
17.40324435328808
 20
14.64578992689411
 30
0.0
 10
17.40324435328808
 20
14.64578992689411
 30
0.0
 10
15.50017360723607
 20
16.00729166266484
 30
0.0
 10
14.04944389839736
 20
17.9523925736369
 30
0.0
 10
13.63689371403869
 20
20.28541123624809
 30
0.0
  0
SPLINE
  5
54
330
1F
100
AcDbEntity
  8
Layer 1
370
     0
100
AcDbSpline
210
0.0
220
0.0
230
1.0
 70
    11
 71
     3
 72
    20
 73
    16
 74
     0
 42
0.0000000001
 43
0.0000000001
 40
0.0
 40
0.0
 40
0.0
 40
0.0
 40
1.0
 40
1.0
 40
1.0
 40
2.0
 40
2.0
 40
2.0
 40
3.0
 40
3.0
 40
3.0
 40
4.0
 40
4.0
 40
4.0
 40
5.0
 40
5.0
 40
5.0
 40
5.0
 10
23.98630506127773
 20
12.61938476247015
 30
0.0
 10
22.72729491619318
 20
12.6255859343436
 30
0.0
 10
21.44503037658319
 20
12.7372070280657
 30
0.0
 10
20.23993597584279
 20
13.12271321286516
 30
0.0
 10
20.23993597584279
 20
13.12271321286516
 30
0.0
 10
41.17147487034949
 20
32.52790255263191
 30
0.0
 10
41.17147487034949
 20
32.52790255263191
 30
0.0
 10
41.45035534988047
 20
32.34324543462252
 30
0.0
 10
41.73595376560768
 20
32.16823458397183
 30
0.0
 10
42.02603080546572
 20
32.00011392429164
 30
0.0
 10
42.02603080546572
 20
32.00011392429164
 30
0.0
 10
34.7622192295907
 20
14.01223686715666
 30
0.0
 10
34.7622192295907
 20
14.01223686715666
 30
0.0
 10
31.23461370746913
 20
13.34285481437262
 30
0.0
 10
27.58901366497775
 20
12.61938476247015
 30
0.0
 10
23.98630506127773
 20
12.61938476247015
 30
0.0
  0
HATCH
  5
55
330
1F
100
AcDbEntity
  8
Layer 1
 62
   223
420
 14693039
100
AcDbHatch
 10
0.0
 20
0.0
 30
0.0
210
0.0
220
0.0
230
1.0
  2
SOLID
 70
     1
 71
     0
 91
       25
 92
        1
 93
        1
 72
     4
 94
        3
 73
     0
 74
     1
 95
       53
 96
       49
 40
0.0
 40
0.0
 40
0.0
 40
0.0
 40
1.0
 40
1.0
 40
1.0
 40
2.0
 40
2.0
 40
2.0
 40
3.0
 40
3.0
 40
3.0
 40
4.0
 40
4.0
 40
4.0
 40
5.0
 40
5.0
 40
5.0
 40
6.0
 40
6.0
 40
6.0
 40
7.0
 40
7.0
 40
7.0
 40
8.0
 40
8.0
 40
8.0
 40
9.0
 40
9.0
 40
9.0
 40
10.0
 40
10.0
 40
10.0
 40
11.0
 40
11.0
 40
11.0
 40
12.0
 40
12.0
 40
12.0
 40
13.0
 40
13.0
 40
13.0
 40
14.0
 40
14.0
 40
14.0
 40
15.0
 40
15.0
 40
15.0
 40
16.0
 40
16.0
 40
16.0
 40
16.0
 10
43.43903671874094
 20
11.22102050500725
 10
45.03359916408883
 20
7.224020723020384
 10
47.21021049166967
 20
3.657313367141227
 10
51.16862520422173
 20
1.642277017818597
 10
55.39713540281738
 20
-0.5105631509140259
 10
60.4827853581432
 20
-0.4830023870320272
 10
64.81843802633011
 20
1.350821939766461
 10
73.53142901807549
 20
5.035696070789688
 10
77.65968693805036
 20
13.7521321580203
 10
77.00339624811026
 20
22.84925129637102
 10
84.6459960725885
 20
21.80710991208295
 10
95.67925887364963
 20
21.67791883138608
 10
98.75572914197774
 20
30.55524087777786
 10
101.8570040977996
 20
39.50490992935988
 10
94.72290036694427
 20
47.98087835172006
 10
87.83580998238133
 20
52.68756780366839
 10
94.59060870031068
 20
57.97923446901214
 10
101.6206705475115
 20
67.36470809947826
 10
94.30466577503495
 20
75.24536402198727
 10
86.25451115465165
 20
83.9158080844898
 10
72.13134221286994
 20
83.04678274833553
 10
62.20671113896221
 20
78.65531953328757
 10
61.45705836137185
 20
84.86992727912974
 10
60.72532008030478
 20
91.8758734579338
 10
56.529538288819
 20
96.85472545321687
 10
52.50325519520752
 20
101.6337619103555
 10
46.07505152927985
 20
102.5341376154255
 10
40.32053628549279
 20
100.7506116827117
 10
27.43329534904446
 20
96.75619572233873
 10
26.04612765190861
 20
81.26222328697611
 10
27.26345214162164
 20
69.88824054242377
 10
18.42282036214777
 20
70.81910534253828
 10
7.652762856159726
 20
69.30240205515705
 10
2.997577581715884
 20
60.70998940539542
 10
0.3414089625882589
 20
55.80796303943343
 10
-1.074697536623687
 20
49.81298013077593
 10
0.9811631941991537
 20
44.43863117378618
 10
2.949690754470911
 20
39.29338106656554
 10
7.89288601148164
 20
35.78592935303269
 10
12.54462619044023
 20
33.21898870697303
 10
7.962649195057949
 20
27.19144964597992
 10
6.305902776201302
 20
18.74028591111354
 10
11.7429524710226
 20
12.68415255759285
 10
17.83457030804136
 20
5.899036999393297
 10
26.15550943356529
 20
7.295678709113581
 10
34.23046874144239
 20
8.57312011504422
 10
37.855225956248
 20
9.147073022886843
 10
40.91205918031018
 20
10.02384982388293
 10
43.43903671874094
 20
11.22102050500725
 97
        0
 92
        1
 93
        1
 72
     4
 94
        3
 73
     0
 74
     1
 95
       17
 96
       13
 40
0.0
 40
0.0
 40
0.0
 40
0.0
 40
1.0
 40
1.0
 40
1.0
 40
2.0
 40
2.0
 40
2.0
 40
3.0
 40
3.0
 40
3.0
 40
4.0
 40
4.0
 40
4.0
 40
4.0
 10
42.89574516071704
 20
16.93092176226033
 10
41.54854057121009
 20
16.05965711404064
 10
39.99755858375061
 20
15.40715602913432
 10
38.40936956505044
 20
14.91002875061277
 10
38.40936956505044
 20
14.91002875061277
 10
44.79278698966986
 20
30.71681585603607
 10
44.79278698966986
 20
30.71681585603607
 10
44.87012938331372
 20
30.68925509215408
 10
44.94867756037742
 20
30.66410589511175
 10
45.02688122789259
 20
30.6372341503268
 10
45.02688122789259
 20
30.6372341503268
 10
42.89574516071704
 20
16.93092176226033
 10
42.89574516071704
 20
16.93092176226033
 97
        0
 92
        1
 93
        1
 72
     4
 94
        3
 73
     0
 74
     1
 95
       17
 96
       13
 40
0.0
 40
0.0
 40
0.0
 40
0.0
 40
1.0
 40
1.0
 40
1.0
 40
2.0
 40
2.0
 40
2.0
 40
3.0
 40
3.0
 40
3.0
 40
4.0
 40
4.0
 40
4.0
 40
4.0
 10
49.19114039568833
 20
11.15900878627275
 10
48.13297931739384
 20
13.40176594717039
 10
47.43207464091976
 20
15.91875270869392
 10
46.12690021633286
 20
17.88934732625683
 10
46.12690021633286
 20
17.88934732625683
 10
47.99758706482352
 20
29.92168781804041
 10
47.99758706482352
 20
29.92168781804041
 10
48.39101696923905
 20
29.86449923298527
 10
48.7894422621082
 20
29.82350259671079
 10
49.19114039568833
 20
29.79456379463469
 10
49.19114039568833
 20
29.79456379463469
 10
49.19114039568833
 20
11.15900878627275
 10
49.19114039568833
 20
11.15900878627275
 97
        0
 92
        1
 93
        1
 72
     4
 94
        3
 73
     0
 74
     1
 95
       20
 96
       16
 40
0.0
 40
0.0
 40
0.0
 40
0.0
 40
1.0
 40
1.0
 40
1.0
 40
2.0
 40
2.0
 40
2.0
 40
3.0
 40
3.0
 40
3.0
 40
4.0
 40
4.0
 40
4.0
 40
5.0
 40
5.0
 40
5.0
 40
5.0
 10
58.12358396984411
 20
5.259282767782402
 10
56.02035317609908
 20
5.267206487398476
 10
53.92745766880981
 20
5.892491317971322
 10
52.23694931419771
 20
7.158563908800637
 10
52.23694931419771
 20
7.158563908800637
 10
52.23694931419771
 20
29.84141709323409
 10
52.23694931419771
 20
29.84141709323409
 10
52.97902288172052
 20
29.92065428939484
 10
53.70559351955971
 20
30.05018987964023
 10
54.41562769906971
 20
30.22278916345125
 10
54.41562769906971
 20
30.22278916345125
 10
64.492876502974
 20
7.11102159110419
 10
64.492876502974
 20
7.11102159110419
 10
62.62046710674072
 20
5.913850909979871
 10
60.35359427744633
 20
5.223798284284328
 10
58.12358396984411
 20
5.259282767782402
 97
        0
 92
        1
 93
        1
 72
     4
 94
        3
 73
     0
 74
     1
 95
       20
 96
       16
 40
0.0
 40
0.0
 40
0.0
 40
0.0
 40
1.0
 40
1.0
 40
1.0
 40
2.0
 40
2.0
 40
2.0
 40
3.0
 40
3.0
 40
3.0
 40
4.0
 40
4.0
 40
4.0
 40
5.0
 40
5.0
 40
5.0
 40
5.0
 10
66.98781465339194
 20
9.009613713025376
 10
66.98781465339194
 20
9.009613713025376
 10
57.3057183016458
 20
31.21428764410615
 10
57.3057183016458
 20
31.21428764410615
 10
57.64471569739438
 20
31.3665608645542
 10
57.97888995946361
 20
31.52813584281241
 10
58.3054850114653
 20
31.701768655269
 10
58.3054850114653
 20
31.701768655269
 10
71.51914874514105
 20
18.39164224800626
 10
71.51914874514105
 20
18.39164224800626
 10
71.51914874514105
 20
18.39164224800626
 10
71.74411348032787
 20
18.61488443545045
 10
71.74411348032787
 20
18.61488443545045
 10
71.43198782936423
 20
15.06057942331819
 10
70.13077526458537
 20
11.83114691544499
 10
66.98781465339194
 20
9.009613713025376
 97
        0
 92
        1
 93
        1
 72
     4
 94
        3
 73
     0
 74
     1
 95
       17
 96
       13
 40
0.0
 40
0.0
 40
0.0
 40
0.0
 40
1.0
 40
1.0
 40
1.0
 40
2.0
 40
2.0
 40
2.0
 40
3.0
 40
3.0
 40
3.0
 40
4.0
 40
4.0
 40
4.0
 40
4.0
 10
60.90274249779515
 20
33.40846895866177
 10
61.15251192047577
 20
33.60793998725774
 10
61.3971136999285
 20
33.81257865908158
 10
61.63482528841074
 20
34.02514105052149
 10
61.63482528841074
 20
34.02514105052149
 10
71.19083114539674
 20
26.86003146029888
 10
71.19083114539674
 20
26.86003146029888
 10
71.44197860627145
 20
25.36382649105488
 10
71.64007159667332
 20
23.90551757214862
 10
71.74411348032787
 20
22.48820528951684
 10
71.74411348032787
 20
22.48820528951684
 10
60.90274249779515
 20
33.40846895866177
 10
60.90274249779515
 20
33.40846895866177
 97
        0
 92
        1
 93
        1
 72
     4
 94
        3
 73
     0
 74
     1
 95
       17
 96
       13
 40
0.0
 40
0.0
 40
0.0
 40
0.0
 40
1.0
 40
1.0
 40
1.0
 40
2.0
 40
2.0
 40
2.0
 40
3.0
 40
3.0
 40
3.0
 40
4.0
 40
4.0
 40
4.0
 40
4.0
 10
73.82047252928794
 20
28.69488931574294
 10
73.82047252928794
 20
28.69488931574294
 10
63.72117511427804
 20
36.26789821141914
 10
63.72117511427804
 20
36.26789821141914
 10
64.07395289196762
 20
36.72265081547211
 10
64.40399303945456
 20
37.1953179160484
 10
64.70922849944769
 20
37.68589951314797
 10
64.70922849944769
 20
37.68589951314797
 10
83.7330457689973
 20
27.6034830660158
 10
83.7330457689973
 20
27.6034830660158
 10
80.40439451114891
 20
27.6034830660158
 10
77.08883461614447
 20
28.1068115164108
 10
73.82047252928794
 20
28.69488931574294
 97
        0
 92
        1
 93
        1
 72
     4
 94
        3
 73
     0
 74
     1
 95
       23
 96
       19
 40
0.0
 40
0.0
 40
0.0
 40
0.0
 40
1.0
 40
1.0
 40
1.0
 40
2.0
 40
2.0
 40
2.0
 40
3.0
 40
3.0
 40
3.0
 40
4.0
 40
4.0
 40
4.0
 40
5.0
 40
5.0
 40
5.0
 40
6.0
 40
6.0
 40
6.0
 40
6.0
 10
92.76815318861352
 20
30.47807073890826
 10
91.59303111859481
 20
29.07384981912043
 10
89.76954207825206
 20
28.32281900333596
 10
88.0090982852894
 20
27.98451062668443
 10
88.0090982852894
 20
27.98451062668443
 10
88.0090982852894
 20
27.98451062668443
 10
88.0090982852894
 20
27.98451062668443
 10
88.0090982852894
 20
27.98451062668443
 10
66.07520885934926
 20
40.40855847514091
 10
66.07520885934926
 20
40.40855847514091
 10
66.1365315589867
 20
40.56462130062273
 10
66.19750974907562
 20
40.72033961655602
 10
66.25469833413078
 20
40.87812498978047
 10
66.25469833413078
 20
40.87812498978047
 10
94.04593910409268
 20
33.33818901076268
 10
94.04593910409268
 20
33.33818901076268
 10
93.87402883937872
 20
32.2932915500864
 10
93.44993758514447
 20
31.2921468020728
 10
92.76815318861352
 20
30.47807073890826
 97
        0
 92
        1
 93
        1
 72
     4
 94
        3
 73
     0
 74
     1
 95
       17
 96
       13
 40
0.0
 40
0.0
 40
0.0
 40
0.0
 40
1.0
 40
1.0
 40
1.0
 40
2.0
 40
2.0
 40
2.0
 40
3.0
 40
3.0
 40
3.0
 40
4.0
 40
4.0
 40
4.0
 40
4.0
 10
90.31834578905236
 20
43.59630532764259
 10
92.20177949083845
 20
41.4493218212349
 10
93.58946395229708
 20
39.04257811523936
 10
94.02354598343857
 20
36.49975313757646
 10
94.02354598343857
 20
36.49975313757646
 10
67.01537541727394
 20
43.82747123470286
 10
67.01537541727394
 20
43.82747123470286
 10
67.07600909781434
 20
44.20057507575542
 10
67.12492945370488
 20
44.5767795027447
 10
67.16075844675149
 20
44.95711804431627
 10
67.16075844675149
 20
44.95711804431627
 10
90.31834578905236
 20
43.59630532764259
 10
90.31834578905236
 20
43.59630532764259
 97
        0
 92
        1
 93
        1
 72
     4
 94
        3
 73
     0
 74
     1
 95
       17
 96
       13
 40
0.0
 40
0.0
 40
0.0
 40
0.0
 40
1.0
 40
1.0
 40
1.0
 40
2.0
 40
2.0
 40
2.0
 40
3.0
 40
3.0
 40
3.0
 40
4.0
 40
4.0
 40
4.0
 40
4.0
 10
66.8134928218383
 20
50.29425997006533
 10
66.8134928218383
 20
50.29425997006533
 10
79.71882050958419
 20
51.23890515212083
 10
79.71882050958419
 20
51.23890515212083
 10
82.0411593761911
 20
50.19021808641078
 10
84.58329533475695
 20
48.68505586890512
 10
86.87945147567598
 20
46.84916448481549
 10
86.87945147567598
 20
46.84916448481549
 10
67.17040471411018
 20
48.00740558695649
 10
67.17040471411018
 20
48.00740558695649
 10
67.10356986169633
 20
48.78634167617147
 10
66.98333602926111
 20
49.54943032615431
 10
66.8134928218383
 20
50.29425997006533
 97
        0
 92
        1
 93
        1
 72
     4
 94
        3
 73
     0
 74
     1
 95
       17
 96
       13
 40
0.0
 40
0.0
 40
0.0
 40
0.0
 40
1.0
 40
1.0
 40
1.0
 40
2.0
 40
2.0
 40
2.0
 40
3.0
 40
3.0
 40
3.0
 40
4.0
 40
4.0
 40
4.0
 40
4.0
 10
81.22915037031771
 20
54.40339761009707
 10
81.22915037031771
 20
54.40339761009707
 10
65.83301864673619
 20
53.27633462209759
 10
65.83301864673619
 20
53.27633462209759
 10
65.7048610946849
 20
53.57002901221514
 10
65.5670572752749
 20
53.85890026865334
 10
65.42236326489441
 20
54.14380966528349
 10
65.42236326489441
 20
54.14380966528349
 10
90.63288300685568
 20
63.00821260360559
 10
90.63288300685568
 20
63.00821260360559
 10
88.49830184419487
 20
59.72520886093675
 10
84.55539006132643
 20
56.64202065641241
 10
81.22915037031771
 20
54.40339761009707
 97
        0
 92
        1
 93
        1
 72
     4
 94
        3
 73
     0
 74
     1
 95
       14
 96
       10
 40
0.0
 40
0.0
 40
0.0
 40
0.0
 40
1.0
 40
1.0
 40
1.0
 40
2.0
 40
2.0
 40
2.0
 40
3.0
 40
3.0
 40
3.0
 40
3.0
 10
92.14355737713772
 20
66.768017561433
 10
92.14355737713772
 20
66.768017561433
 10
66.42902016568442
 20
57.7263644603948
 10
66.42902016568442
 20
57.7263644603948
 10
66.42902016568442
 20
57.7263644603948
 10
89.9907172084051
 20
72.1135999711209
 10
89.9907172084051
 20
72.1135999711209
 10
91.79215763764225
 20
70.41602917076405
 10
92.3774793605862
 20
68.59874130229477
 10
92.14355737713772
 20
66.768017561433
 97
        0
 92
        1
 93
        1
 72
     4
 94
        3
 73
     0
 74
     1
 95
       20
 96
       16
 40
0.0
 40
0.0
 40
0.0
 40
0.0
 40
1.0
 40
1.0
 40
1.0
 40
2.0
 40
2.0
 40
2.0
 40
3.0
 40
3.0
 40
3.0
 40
4.0
 40
4.0
 40
4.0
 40
5.0
 40
5.0
 40
5.0
 40
5.0
 10
77.66209850489004
 20
76.62701956634672
 10
81.01762150752337
 20
76.52728405204874
 10
84.37486705789934
 20
75.7076958361078
 10
87.30354272991023
 20
74.04199216898951
 10
78.90026582228883
 20
68.90845538641872
 10
70.49492185737627
 20
63.77836369933319
 10
62.09095593065782
 20
58.64654946450503
 10
61.8990641121294
 20
58.83137883728869
 10
61.70234915992164
 20
59.01207409549004
 10
61.50184460268009
 20
59.18794622001204
 10
61.50184460268009
 20
59.18794622001204
 10
73.35779620561888
 20
76.40084904774007
 10
73.35779620561888
 20
76.40084904774007
 10
74.78406573651232
 20
76.58636743962077
 10
76.22377113979823
 20
76.67215031720349
 10
77.66209850489004
 20
76.62701956634672
 97
        0
 92
        1
 93
        1
 72
     4
 94
        3
 73
     0
 74
     1
 95
       20
 96
       16
 40
0.0
 40
0.0
 40
0.0
 40
0.0
 40
1.0
 40
1.0
 40
1.0
 40
2.0
 40
2.0
 40
2.0
 40
3.0
 40
3.0
 40
3.0
 40
4.0
 40
4.0
 40
4.0
 40
5.0
 40
5.0
 40
5.0
 40
5.0
 10
62.35243867798828
 20
72.87720538542654
 10
64.48736435019761
 20
73.98342554574026
 10
66.73425562567755
 20
74.87243243570897
 10
69.05073782995954
 20
75.51666529145069
 10
69.05073782995954
 20
75.51666529145069
 10
59.03997936892056
 20
60.98301322260147
 10
59.03997936892056
 20
60.98301322260147
 10
58.44949000274874
 20
61.33544649074253
 10
57.83557398727722
 20
61.65136174673994
 10
57.20133190844273
 20
61.9307589905937
 10
57.20133190844273
 20
61.9307589905937
 10
60.77837455077763
 20
72.00318466081865
 10
60.77837455077763
 20
72.00318466081865
 10
61.29720593085626
 20
72.30583629919785
 10
61.81913789687161
 20
72.60039196318671
 10
62.35243867798828
 20
72.87720538542654
 97
        0
 92
        1
 93
        1
 72
     4
 94
        3
 73
     0
 74
     1
 95
       17
 96
       13
 40
0.0
 40
0.0
 40
0.0
 40
0.0
 40
1.0
 40
1.0
 40
1.0
 40
2.0
 40
2.0
 40
2.0
 40
3.0
 40
3.0
 40
3.0
 40
4.0
 40
4.0
 40
4.0
 40
4.0
 10
55.65896265969637
 20
86.32892521713305
 10
56.72694226012382
 20
81.79001191531638
 10
56.88748370973646
 20
77.1143283227353
 10
57.7373887659476
 20
72.54096406606615
 10
56.5943060839417
 20
69.3273789974251
 10
55.45466849742106
 20
66.11293265491274
 10
54.31330836315779
 20
62.89883082194891
 10
54.12107203508084
 20
62.9443060823542
 10
53.92883570700391
 20
62.98926457843672
 10
53.73384330253877
 20
63.02802190264578
 10
54.37532008189228
 20
70.79498967414153
 10
55.01817489943991
 20
78.56195744563729
 10
55.65896265969637
 20
86.32892521713305
 97
        0
 92
        1
 93
        1
 72
     4
 94
        3
 73
     0
 74
     1
 95
       23
 96
       19
 40
0.0
 40
0.0
 40
0.0
 40
0.0
 40
1.0
 40
1.0
 40
1.0
 40
2.0
 40
2.0
 40
2.0
 40
3.0
 40
3.0
 40
3.0
 40
4.0
 40
4.0
 40
4.0
 40
5.0
 40
5.0
 40
5.0
 40
6.0
 40
6.0
 40
6.0
 40
6.0
 10
44.64361435515854
 20
96.28404538608524
 10
48.04065075838915
 20
96.65146481958713
 10
51.15518933182926
 20
95.5035590039019
 10
53.12475042074659
 20
92.64223494862765
 10
53.12475042074659
 20
92.64223494862765
 10
53.12440591119807
 20
92.64137367475632
 10
53.12440591119807
 20
92.64137367475632
 10
53.12440591119807
 20
92.64137367475632
 10
50.70388182326153
 20
63.34738225412843
 10
50.70388182326153
 20
63.34738225412843
 10
50.13096244406449
 20
63.35616724761582
 10
49.56183266990121
 20
63.33721922244695
 10
48.99029132889827
 20
63.28847112133067
 10
48.99029132889827
 20
63.28847112133067
 10
43.67347546651219
 20
96.14572480235246
 10
43.67347546651219
 20
96.14572480235246
 10
43.99559189438305
 20
96.20153534921351
 10
44.31874185089949
 20
96.24804413826438
 10
44.64361435515854
 20
96.28404538608524
 97
        0
 92
        1
 93
        1
 72
     4
 94
        3
 73
     0
 74
     1
 95
       17
 96
       13
 40
0.0
 40
0.0
 40
0.0
 40
0.0
 40
1.0
 40
1.0
 40
1.0
 40
2.0
 40
2.0
 40
2.0
 40
3.0
 40
3.0
 40
3.0
 40
4.0
 40
4.0
 40
4.0
 40
4.0
 10
40.72447373113832
 20
95.30322670143461
 10
40.72447373113832
 20
95.30322670143461
 10
45.99099119943975
 20
62.75654837840809
 10
45.99099119943975
 20
62.75654837840809
 10
45.29025877773994
 20
62.56482881465394
 10
44.60692408824063
 20
62.33194035985105
 10
43.94615477416971
 20
62.05529919238548
 10
43.94615477416971
 20
62.05529919238548
 10
33.3922770098811
 20
86.2295342123836
 10
33.3922770098811
 20
86.2295342123836
 10
34.53604871098405
 20
90.2492716245731
 10
36.70542533804587
 20
93.63666176044501
 10
40.72447373113832
 20
95.30322670143461
 97
        0
 92
        1
 93
        1
 72
     4
 94
        3
 73
     0
 74
     1
 95
       17
 96
       13
 40
0.0
 40
0.0
 40
0.0
 40
0.0
 40
1.0
 40
1.0
 40
1.0
 40
2.0
 40
2.0
 40
2.0
 40
3.0
 40
3.0
 40
3.0
 40
4.0
 40
4.0
 40
4.0
 40
4.0
 10
32.42317164988032
 20
80.83675399454776
 10
32.42317164988032
 20
80.83675399454776
 10
41.24916177354188
 20
60.62041692277893
 10
41.24916177354188
 20
60.62041692277893
 10
40.61423067561034
 20
60.20511066203206
 10
40.00978867272325
 20
59.7479464911394
 10
39.4382473317203
 20
59.25271401513474
 10
39.4382473317203
 20
59.25271401513474
 10
32.90307345097562
 20
67.42086315588784
 10
32.90307345097562
 20
67.42086315588784
 10
32.21577690166828
 20
71.86262476502046
 10
31.98581677802785
 20
76.35744084462593
 10
32.42317164988032
 20
80.83675399454776
 97
        0
 92
        1
 93
        1
 72
     4
 94
        3
 73
     0
 74
     1
 95
       20
 96
       16
 40
0.0
 40
0.0
 40
0.0
 40
0.0
 40
1.0
 40
1.0
 40
1.0
 40
2.0
 40
2.0
 40
2.0
 40
3.0
 40
3.0
 40
3.0
 40
4.0
 40
4.0
 40
4.0
 40
5.0
 40
5.0
 40
5.0
 40
5.0
 10
23.46850720984468
 20
64.86012368170164
 10
26.30709363491628
 20
64.796044905676
 10
29.14447427656805
 20
64.41363930681327
 10
31.91191947986924
 20
63.7847371259809
 10
33.71094834226671
 20
61.53664006708112
 10
35.50963269511565
 20
59.28785398908429
 10
37.30831704796459
 20
57.03941242063598
 10
37.03736028804969
 20
56.70110404398445
 10
36.77725557891333
 20
56.353666164297
 10
36.53282605423485
 20
55.99451495995971
 10
36.53282605423485
 20
55.99451495995971
 10
20.80717094748918
 20
64.82136635749258
 10
20.80717094748918
 20
64.82136635749258
 10
21.69324950629544
 20
64.86976994906034
 10
22.58122286761859
 20
64.88200003803297
 10
23.46850720984468
 20
64.86012368170164
 97
        0
 92
        1
 93
        1
 72
     4
 94
        3
 73
     0
 74
     1
 95
       17
 96
       13
 40
0.0
 40
0.0
 40
0.0
 40
0.0
 40
1.0
 40
1.0
 40
1.0
 40
2.0
 40
2.0
 40
2.0
 40
3.0
 40
3.0
 40
3.0
 40
4.0
 40
4.0
 40
4.0
 40
4.0
 10
15.88740233977815
 20
64.09031709552256
 10
15.88740233977815
 20
64.09031709552256
 10
35.05677489357956
 20
53.33025036644175
 10
35.05677489357956
 20
53.33025036644175
 10
34.79511989147483
 20
52.73872747162435
 10
34.56429849396309
 20
52.13084037325201
 10
34.37154540156337
 20
51.50572779745343
 10
34.37154540156337
 20
51.50572779745343
 10
8.274085826924534
 20
59.22773707286668
 10
8.274085826924534
 20
59.22773707286668
 10
10.0496880400223
 20
61.76401636910761
 10
12.77510307840345
 20
63.28054740171459
 10
15.88740233977815
 20
64.09031709552256
 97
        0
 92
        1
 93
        1
 72
     4
 94
        3
 73
     0
 74
     1
 95
       20
 96
       16
 40
0.0
 40
0.0
 40
0.0
 40
0.0
 40
1.0
 40
1.0
 40
1.0
 40
2.0
 40
2.0
 40
2.0
 40
3.0
 40
3.0
 40
3.0
 40
4.0
 40
4.0
 40
4.0
 40
5.0
 40
5.0
 40
5.0
 40
5.0
 10
35.59662135611821
 20
38.65397134450318
 10
35.59662135611821
 20
38.65397134450318
 10
13.7796929219023
 20
24.04607746794682
 10
13.7796929219023
 20
24.04607746794682
 10
13.82000053907972
 20
24.21971028040341
 10
13.86444227083945
 20
24.39230956421443
 10
13.91164007898737
 20
24.56421982892839
 10
14.86041937562517
 20
27.99415689404313
 10
17.18758137591144
 20
31.05615776133319
 10
19.84822861916989
 20
33.36023762186827
 10
19.84822861916989
 20
33.36023762186827
 10
35.0069932638177
 20
39.87801377041244
 10
35.0069932638177
 20
39.87801377041244
 10
35.18751626724479
 20
39.46081270714869
 10
35.3840589646783
 20
39.05291340169511
 10
35.59662135611821
 20
38.65397134450318
 97
        0
 92
        1
 93
        1
 72
     4
 94
        3
 73
     0
 74
     1
 95
       17
 96
       13
 40
0.0
 40
0.0
 40
0.0
 40
0.0
 40
1.0
 40
1.0
 40
1.0
 40
2.0
 40
2.0
 40
2.0
 40
3.0
 40
3.0
 40
3.0
 40
4.0
 40
4.0
 40
4.0
 40
4.0
 10
7.049009872369692
 20
56.41412759006314
 10
7.049009872369692
 20
56.41412759006314
 10
33.745916061442
 20
48.51452364238526
 10
33.745916061442
 20
48.51452364238526
 10
33.65651583359976
 20
47.74798989691717
 10
33.61965331190759
 20
46.98007811325498
 10
33.63618977023679
 20
46.20872123410754
 10
33.63618977023679
 20
46.20872123410754
 10
5.655124239037608
 20
47.04243434153801
 10
5.655124239037608
 20
47.04243434153801
 10
4.619184026622982
 20
50.58502602902041
 10
7.049009872369692
 20
56.41412759006314
 10
7.049009872369692
 20
56.41412759006314
 97
        0
 92
        1
 93
        1
 72
     4
 94
        3
 73
     0
 74
     1
 95
       20
 96
       16
 40
0.0
 40
0.0
 40
0.0
 40
0.0
 40
1.0
 40
1.0
 40
1.0
 40
2.0
 40
2.0
 40
2.0
 40
3.0
 40
3.0
 40
3.0
 40
4.0
 40
4.0
 40
4.0
 40
5.0
 40
5.0
 40
5.0
 40
5.0
 10
8.077026365168244
 20
42.95482854828907
 10
7.772996688594946
 20
43.26867674699533
 10
7.489465330158884
 20
43.60043944222489
 10
7.225226506440221
 20
43.94839408623513
 10
7.225226506440221
 20
43.94839408623513
 10
33.97139756095159
 20
43.15119899094832
 10
33.97139756095159
 20
43.15119899094832
 10
33.99689126754244
 20
43.02786457257637
 10
34.02789712690969
 20
42.90728623059263
 10
34.05614690988875
 20
42.78464083131773
 10
28.92192110822091
 20
40.57702364436963
 10
23.78786756132734
 20
38.36940645742154
 10
18.65346950488524
 20
36.16213378002197
 10
14.82889675193514
 20
37.58116861039638
 10
10.91371798772296
 20
40.00100367923586
 10
8.077026365168244
 20
42.95482854828907
 97
        0
 92
        1
 93
        1
 72
     4
 94
        3
 73
     0
 74
     1
 95
       17
 96
       13
 40
0.0
 40
0.0
 40
0.0
 40
0.0
 40
1.0
 40
1.0
 40
1.0
 40
2.0
 40
2.0
 40
2.0
 40
3.0
 40
3.0
 40
3.0
 40
4.0
 40
4.0
 40
4.0
 40
4.0
 10
13.63689371403869
 20
20.28541123624809
 10
13.63689371403869
 20
20.28541123624809
 10
37.26904295943274
 20
36.1087348000006
 10
37.26904295943274
 20
36.1087348000006
 10
37.73309732129589
 20
35.52444660570222
 10
38.23453096917401
 20
34.9725423089652
 10
38.77058782667888
 20
34.45508896708068
 10
38.77058782667888
 20
34.45508896708068
 10
17.40324435328808
 20
14.64578992689411
 10
17.40324435328808
 20
14.64578992689411
 10
15.50017360723607
 20
16.00729166266484
 10
14.04944389839736
 20
17.9523925736369
 10
13.63689371403869
 20
20.28541123624809
 97
        0
 92
        1
 93
        1
 72
     4
 94
        3
 73
     0
 74
     1
 95
       20
 96
       16
 40
0.0
 40
0.0
 40
0.0
 40
0.0
 40
1.0
 40
1.0
 40
1.0
 40
2.0
 40
2.0
 40
2.0
 40
3.0
 40
3.0
 40
3.0
 40
4.0
 40
4.0
 40
4.0
 40
5.0
 40
5.0
 40
5.0
 40
5.0
 10
23.98630506127773
 20
12.61938476247015
 10
22.72729491619318
 20
12.6255859343436
 10
21.44503037658319
 20
12.7372070280657
 10
20.23993597584279
 20
13.12271321286516
 10
20.23993597584279
 20
13.12271321286516
 10
41.17147487034949
 20
32.52790255263191
 10
41.17147487034949
 20
32.52790255263191
 10
41.45035534988047
 20
32.34324543462252
 10
41.73595376560768
 20
32.16823458397183
 10
42.02603080546572
 20
32.00011392429164
 10
42.02603080546572
 20
32.00011392429164
 10
34.7622192295907
 20
14.01223686715666
 10
34.7622192295907
 20
14.01223686715666
 10
31.23461370746913
 20
13.34285481437262
 10
27.58901366497775
 20
12.61938476247015
 10
23.98630506127773
 20
12.61938476247015
 97
        0
 75
     2
 76
     1
 98
        0
  0
ENDSEC
  0
SECTION
  2
OBJECTS
  0
DICTIONARY
  5
C
330
0
100
AcDbDictionary
281
     1
  3
ACAD_GROUP
350
D
  3
ACAD_LAYOUT
350
1A
  3
ACAD_MLINESTYLE
350
17
  3
ACAD_PLOTSETTINGS
350
19
  3
ACAD_PLOTSTYLENAME
350
E
  3
ACAD_TABLESTYLE
350
56
  3
ACAD_VISUALSTYLE
350
2A
  0
DICTIONARY
  5
D
102
{ACAD_REACTORS
330
C
102
}
330
C
100
AcDbDictionary
281
     1
  0
DICTIONARY
  5
1A
102
{ACAD_REACTORS
330
C
102
}
330
C
100
AcDbDictionary
281
     1
  3
Layout1
350
1E
  3
Layout2
350
26
  3
Model
350
22
  0
DICTIONARY
  5
17
102
{ACAD_REACTORS
330
C
102
}
330
C
100
AcDbDictionary
281
     1
  3
Standard
350
18
  0
DICTIONARY
  5
19
102
{ACAD_REACTORS
330
C
102
}
330
C
100
AcDbDictionary
281
     1
  0
ACDBDICTIONARYWDFLT
  5
E
102
{ACAD_REACTORS
330
C
102
}
330
C
100
AcDbDictionary
281
     1
  3
Normal
350
F
100
AcDbDictionaryWithDefault
340
F
  0
DICTIONARY
  5
56
102
{ACAD_REACTORS
330
C
102
}
330
C
100
AcDbDictionary
281
     1
  0
DICTIONARY
  5
2A
102
{ACAD_REACTORS
330
C
102
}
330
C
100
AcDbDictionary
281
     1
  3
2dWireframe
350
2F
  3
3D Hidden
350
31
  3
3dWireframe
350
30
  3
Basic
350
32
  3
Brighten
350
36
  3
ColorChange
350
3A
  3
Conceptual
350
34
  3
Dim
350
35
  3
Facepattern
350
39
  3
Flat
350
2B
  3
FlatWithEdges
350
2C
  3
Gouraud
350
2D
  3
GouraudWithEdges
350
2E
  3
Linepattern
350
38
  3
Realistic
350
33
  3
Thicken
350
37
  0
LAYOUT
  5
1E
102
{ACAD_REACTORS
330
1A
102
}
330
1A
100
AcDbPlotSettings
  1

  2
none_device
  4

  6

 40
0.0
 41
0.0
 42
0.0
 43
0.0
 44
0.0
 45
0.0
 46
0.0
 47
0.0
 48
0.0
 49
0.0
140
0.0
141
0.0
142
1.0
143
1.0
 70
   688
 72
     0
 73
     0
 74
     5
  7

 75
    16
 76
     0
 77
     2
 78
   300
147
1.0
148
0.0
149
0.0
100
AcDbLayout
  1
Layout1
 70
     1
 71
     1
 10
0.0
 20
0.0
 11
12.0
 21
9.0
 12
0.0
 22
0.0
 32
0.0
 14
1.000000000000000E+20
 24
1.000000000000000E+20
 34
1.000000000000000E+20
 15
-1.000000000000000E+20
 25
-1.000000000000000E+20
 35
-1.000000000000000E+20
146
0.0
 13
0.0
 23
0.0
 33
0.0
 16
1.0
 26
0.0
 36
0.0
 17
0.0
 27
1.0
 37
0.0
 76
     0
330
1B
  0
LAYOUT
  5
26
102
{ACAD_REACTORS
330
1A
102
}
330
1A
100
AcDbPlotSettings
  1

  2
none_device
  4

  6

 40
0.0
 41
0.0
 42
0.0
 43
0.0
 44
0.0
 45
0.0
 46
0.0
 47
0.0
 48
0.0
 49
0.0
140
0.0
141
0.0
142
1.0
143
1.0
 70
   688
 72
     0
 73
     0
 74
     5
  7

 75
    16
 76
     0
 77
     2
 78
   300
147
1.0
148
0.0
149
0.0
100
AcDbLayout
  1
Layout2
 70
     1
 71
     2
 10
0.0
 20
0.0
 11
0.0
 21
0.0
 12
0.0
 22
0.0
 32
0.0
 14
0.0
 24
0.0
 34
0.0
 15
0.0
 25
0.0
 35
0.0
146
0.0
 13
0.0
 23
0.0
 33
0.0
 16
1.0
 26
0.0
 36
0.0
 17
0.0
 27
1.0
 37
0.0
 76
     0
330
23
  0
LAYOUT
  5
22
102
{ACAD_REACTORS
330
1A
102
}
330
1A
100
AcDbPlotSettings
  1

  2
none_device
  4

  6

 40
0.0
 41
0.0
 42
0.0
 43
0.0
 44
0.0
 45
0.0
 46
0.0
 47
0.0
 48
0.0
 49
0.0
140
0.0
141
0.0
142
1.0
143
1.0
 70
  1712
 72
     0
 73
     0
 74
     0
  7

 75
     0
 76
     0
 77
     2
 78
   300
147
1.0
148
0.0
149
0.0
100
AcDbLayout
  1
Model
 70
     1
 71
     0
 10
0.0
 20
0.0
 11
12.0
 21
9.0
 12
0.0
 22
0.0
 32
0.0
 14
1.000000000000000E+20
 24
1.000000000000000E+20
 34
1.000000000000000E+20
 15
-1.000000000000000E+20
 25
-1.000000000000000E+20
 35
-1.000000000000000E+20
146
0.0
 13
0.0
 23
0.0
 33
0.0
 16
1.0
 26
0.0
 36
0.0
 17
0.0
 27
1.0
 37
0.0
 76
     0
330
1F
331
29
  0
MLINESTYLE
  5
18
102
{ACAD_REACTORS
330
17
102
}
330
17
100
AcDbMlineStyle
  2
Standard
 70
     0
  3

 62
   256
 51
90.0
 52
90.0
 71
     2
 49
0.5
 62
   256
  6
BYLAYER
 49
-0.5
 62
   256
  6
BYLAYER
  0
ACDBPLACEHOLDER
  5
F
102
{ACAD_REACTORS
330
E
102
}
330
E
  0
VISUALSTYLE
  5
2F
102
{ACAD_REACTORS
330
2A
102
}
330
2A
100
AcDbVisualStyle
  2
2dWireframe
 70
     4
 71
     0
 72
     2
 73
     0
 90
        0
 40
-0.6
 41
-30.0
 62
     5
 63
     7
421
 16777215
 74
     1
 91
        4
 64
     7
 65
   257
 75
     1
175
     1
 42
1.0
 92
        0
 66
   257
 43
1.0
 76
     1
 77
     6
 78
     2
 67
     7
 79
     5
170
     0
171
     0
290
     0
174
     0
 93
        1
 44
0.0
173
     0
291
     0
 45
0.0
1001
ACAD
1000
AcDbSavedByObjectVersion
1070
     0
  0
VISUALSTYLE
  5
31
102
{ACAD_REACTORS
330
2A
102
}
330
2A
100
AcDbVisualStyle
  2
3D Hidden
 70
     6
 71
     1
 72
     2
 73
     2
 90
        0
 40
-0.6
 41
-30.0
 62
     5
 63
     7
421
 16777215
 74
     2
 91
        2
 64
     7
 65
   257
 75
     2
175
     1
 42
40.0
 92
        0
 66
   257
 43
1.0
 76
     1
 77
     6
 78
     2
 67
     7
 79
     3
170
     0
171
     0
290
     0
174
     0
 93
        1
 44
0.0
173
     0
291
     0
 45
0.0
1001
ACAD
1000
AcDbSavedByObjectVersion
1070
     0
  0
VISUALSTYLE
  5
30
102
{ACAD_REACTORS
330
2A
102
}
330
2A
100
AcDbVisualStyle
  2
3dWireframe
 70
     5
 71
     0
 72
     2
 73
     0
 90
        0
 40
-0.6
 41
-30.0
 62
     5
 63
     7
421
 16777215
 74
     1
 91
        4
 64
     7
 65
   257
 75
     1
175
     1
 42
1.0
 92
        0
 66
   257
 43
1.0
 76
     1
 77
     6
 78
     2
 67
     7
 79
     5
170
     0
171
     0
290
     0
174
     0
 93
        1
 44
0.0
173
     0
291
     0
 45
0.0
1001
ACAD
1000
AcDbSavedByObjectVersion
1070
     0
  0
VISUALSTYLE
  5
32
102
{ACAD_REACTORS
330
2A
102
}
330
2A
100
AcDbVisualStyle
  2
Basic
 70
     7
 71
     1
 72
     0
 73
     1
 90
        0
 40
-0.6
 41
-30.0
 62
     5
 63
     7
421
 16777215
 74
     0
 91
        4
 64
     7
 65
   257
 75
     1
175
     1
 42
1.0
 92
        8
 66
     7
 43
1.0
 76
     1
 77
     6
 78
     2
 67
     7
 79
     5
170
     0
171
     0
290
     0
174
     0
 93
        1
 44
0.0
173
     0
291
     1
 45
0.0
1001
ACAD
1000
AcDbSavedByObjectVersion
1070
     0
  0
VISUALSTYLE
  5
36
102
{ACAD_REACTORS
330
2A
102
}
330
2A
100
AcDbVisualStyle
  2
Brighten
 70
    12
 71
     2
 72
     2
 73
     0
 90
        0
 40
-0.6
 41
-30.0
 62
     5
 63
     7
421
 16777215
 74
     1
 91
        4
 64
     7
 65
   257
 75
     1
175
     1
 42
1.0
 92
        8
 66
     7
 43
1.0
 76
     1
 77
     6
 78
     2
 67
     7
 79
     5
170
     0
171
     0
290
     0
174
     0
 93
        1
 44
50.0
173
     0
291
     1
 45
0.0
1001
ACAD
1000
AcDbSavedByObjectVersion
1070
     0
  0
VISUALSTYLE
  5
3A
102
{ACAD_REACTORS
330
2A
102
}
330
2A
100
AcDbVisualStyle
  2
ColorChange
 70
    16
 71
     2
 72
     2
 73
     3
 90
        0
 40
-0.6
 41
-30.0
 62
     5
 63
     8
421
  8421504
 74
     1
 91
        4
 64
     7
 65
   257
 75
     1
175
     1
 42
1.0
 92
        8
 66
     8
424
  8421504
 43
1.0
 76
     1
 77
     6
 78
     2
 67
     7
 79
     5
170
     0
171
     0
290
     0
174
     0
 93
        1
 44
0.0
173
     0
291
     1
 45
0.0
1001
ACAD
1000
AcDbSavedByObjectVersion
1070
     0
  0
VISUALSTYLE
  5
34
102
{ACAD_REACTORS
330
2A
102
}
330
2A
100
AcDbVisualStyle
  2
Conceptual
 70
     9
 71
     3
 72
     2
 73
     0
 90
        0
 40
-0.6
 41
-30.0
 62
     5
 63
     7
421
 16777215
 74
     2
 91
        2
 64
     7
 65
   257
 75
     1
175
     1
 42
40.0
 92
        8
 66
     7
 43
1.0
 76
     1
 77
     6
 78
     2
 67
     7
 79
     3
170
     0
171
     0
290
     0
174
     0
 93
        1
 44
0.0
173
     0
291
     0
 45
0.0
1001
ACAD
1000
AcDbSavedByObjectVersion
1070
     0
  0
VISUALSTYLE
  5
35
102
{ACAD_REACTORS
330
2A
102
}
330
2A
100
AcDbVisualStyle
  2
Dim
 70
    11
 71
     2
 72
     2
 73
     0
 90
        0
 40
-0.6
 41
-30.0
 62
     5
 63
     7
421
 16777215
 74
     1
 91
        4
 64
     7
 65
   257
 75
     1
175
     1
 42
1.0
 92
        8
 66
     7
 43
1.0
 76
     1
 77
     6
 78
     2
 67
     7
 79
     5
170
     0
171
     0
290
     0
174
     0
 93
        1
 44
-50.0
173
     0
291
     1
 45
0.0
1001
ACAD
1000
AcDbSavedByObjectVersion
1070
     0
  0
VISUALSTYLE
  5
39
102
{ACAD_REACTORS
330
2A
102
}
330
2A
100
AcDbVisualStyle
  2
Facepattern
 70
    15
 71
     2
 72
     2
 73
     0
 90
        0
 40
-0.6
 41
-30.0
 62
     5
 63
     7
421
 16777215
 74
     1
 91
        4
 64
     7
 65
   257
 75
     1
175
     1
 42
1.0
 92
        8
 66
     7
 43
1.0
 76
     1
 77
     6
 78
     2
 67
     7
 79
     5
170
     0
171
     0
290
     0
174
     0
 93
        1
 44
0.0
173
     0
291
     1
 45
0.0
1001
ACAD
1000
AcDbSavedByObjectVersion
1070
     0
  0
VISUALSTYLE
  5
2B
102
{ACAD_REACTORS
330
2A
102
}
330
2A
100
AcDbVisualStyle
  2
Flat
 70
     0
 71
     2
 72
     1
 73
     1
 90
        2
 40
-0.6
 41
30.0
 62
     5
 63
     7
421
 16777215
 74
     0
 91
        4
 64
     7
 65
   257
 75
     1
175
     1
 42
1.0
 92
        8
 66
     7
 43
1.0
 76
     1
 77
     6
 78
     2
 67
     7
 79
     5
170
     0
171
     0
290
     0
174
     0
 93
       13
 44
0.0
173
     0
291
     1
 45
0.0
1001
ACAD
1000
AcDbSavedByObjectVersion
1070
     0
  0
VISUALSTYLE
  5
2C
102
{ACAD_REACTORS
330
2A
102
}
330
2A
100
AcDbVisualStyle
  2
FlatWithEdges
 70
     1
 71
     2
 72
     1
 73
     1
 90
        2
 40
-0.6
 41
30.0
 62
     5
 63
     7
421
 16777215
 74
     1
 91
        4
 64
     7
 65
   257
 75
     1
175
     1
 42
1.0
 92
        0
 66
   257
 43
1.0
 76
     1
 77
     6
 78
     2
 67
     7
 79
     5
170
     0
171
     0
290
     0
174
     0
 93
       13
 44
0.0
173
     0
291
     1
 45
0.0
1001
ACAD
1000
AcDbSavedByObjectVersion
1070
     0
  0
VISUALSTYLE
  5
2D
102
{ACAD_REACTORS
330
2A
102
}
330
2A
100
AcDbVisualStyle
  2
Gouraud
 70
     2
 71
     2
 72
     2
 73
     1
 90
        2
 40
-0.6
 41
30.0
 62
     5
 63
     7
421
 16777215
 74
     0
 91
        4
 64
     7
 65
   257
 75
     1
175
     1
 42
1.0
 92
        0
 66
     7
 43
1.0
 76
     1
 77
     6
 78
     2
 67
     7
 79
     5
170
     0
171
     0
290
     0
174
     0
 93
       13
 44
0.0
173
     0
291
     1
 45
0.0
1001
ACAD
1000
AcDbSavedByObjectVersion
1070
     0
  0
VISUALSTYLE
  5
2E
102
{ACAD_REACTORS
330
2A
102
}
330
2A
100
AcDbVisualStyle
  2
GouraudWithEdges
 70
     3
 71
     2
 72
     2
 73
     1
 90
        2
 40
-0.6
 41
30.0
 62
     5
 63
     7
421
 16777215
 74
     1
 91
        4
 64
     7
 65
   257
 75
     1
175
     1
 42
1.0
 92
        0
 66
   257
 43
1.0
 76
     1
 77
     6
 78
     2
 67
     7
 79
     5
170
     0
171
     0
290
     0
174
     0
 93
       13
 44
0.0
173
     0
291
     1
 45
0.0
1001
ACAD
1000
AcDbSavedByObjectVersion
1070
     0
  0
VISUALSTYLE
  5
38
102
{ACAD_REACTORS
330
2A
102
}
330
2A
100
AcDbVisualStyle
  2
Linepattern
 70
    14
 71
     2
 72
     2
 73
     0
 90
        0
 40
-0.6
 41
-30.0
 62
     5
 63
     7
421
 16777215
 74
     1
 91
        4
 64
     7
 65
   257
 75
     7
175
     7
 42
1.0
 92
        8
 66
     7
 43
1.0
 76
     1
 77
     6
 78
     2
 67
     7
 79
     5
170
     0
171
     0
290
     0
174
     0
 93
        1
 44
0.0
173
     0
291
     1
 45
0.0
1001
ACAD
1000
AcDbSavedByObjectVersion
1070
     0
  0
VISUALSTYLE
  5
33
102
{ACAD_REACTORS
330
2A
102
}
330
2A
100
AcDbVisualStyle
  2
Realistic
 70
     8
 71
     2
 72
     2
 73
     0
 90
        0
 40
-0.6
 41
-30.0
 62
     5
 63
     7
421
 16777215
 74
     1
 91
        0
 64
     7
 65
   257
 75
     1
175
     1
 42
1.0
 92
        8
 66
     8
424
  7895160
 43
1.0
 76
     1
 77
     6
 78
     2
 67
     7
 79
     5
170
     0
171
     0
290
     0
174
     0
 93
       13
 44
0.0
173
     0
291
     0
 45
0.0
1001
ACAD
1000
AcDbSavedByObjectVersion
1070
     0
  0
VISUALSTYLE
  5
37
102
{ACAD_REACTORS
330
2A
102
}
330
2A
100
AcDbVisualStyle
  2
Thicken
 70
    13
 71
     2
 72
     2
 73
     0
 90
        0
 40
-0.6
 41
-30.0
 62
     5
 63
     7
421
 16777215
 74
     1
 91
        4
 64
     7
 65
   257
 75
     1
175
     1
 42
1.0
 92
       12
 66
     7
 43
1.0
 76
     1
 77
     6
 78
     2
 67
     7
 79
     5
170
     0
171
     0
290
     0
174
     0
 93
        1
 44
0.0
173
     0
291
     1
 45
0.0
1001
ACAD
1000
AcDbSavedByObjectVersion
1070
     0
  0
ENDSEC
  0
EOF
