   0
SECTION
   2
ENTITIES
  0
LINE
  8
CAPA_1
  6
CONTINUOUS
 62
3
 10
31.42973819
 20
15.50980870
 30
0.00000000
 11
31.41549016
 21
13.88530082
 31
0.00000000
  0
ARC
  8
CAPA_1
  6
CONTINUOUS
 62
3
 10
31.33862848
 20
13.87144282
 30
0.00000000
 40
0.07810097
 50
287.56647229
 51
10.22051030
  0
ARC
  8
CAPA_1
  6
CONTINUOUS
 62
3
 10
31.41663701
 20
13.98693140
 30
0.00000000
 40
0.19759406
 50
570.95336749
 51
254.00832225
  0
ARC
  8
CAPA_1
  6
CONTINUOUS
 62
3
 10
16.73789570
 20
2.82005485
 30
0.00000000
 40
18.25905312
 50
397.37918165
 51
43.92496591
  0
ARC
  8
CAPA_1
  6
CONTINUOUS
 62
3
 10
33.69999983
 20
19.21956819
 30
0.00000000
 40
5.33506863
 50
562.35265770
 51
224.08206332
  0
LINE
  8
CAPA_1
  6
CONTINUOUS
 62
3
 10
28.76580512
 20
17.19060791
 30
0.00000000
 11
28.72401772
 21
17.26791106
 31
0.00000000
  0
LINE
  8
CAPA_1
  6
CONTINUOUS
 62
3
 10
28.72401772
 20
17.26791106
 30
0.00000000
 11
29.60039567
 21
17.73103704
 31
0.00000000
  0
LINE
  8
CAPA_1
  6
CONTINUOUS
 62
3
 10
29.60039567
 20
17.73103704
 30
0.00000000
 11
29.52913976
 21
17.86641106
 31
0.00000000
  0
LINE
  8
CAPA_1
  6
CONTINUOUS
 62
3
 10
29.52913976
 20
17.86641106
 30
0.00000000
 11
28.67413976
 21
17.46740712
 31
0.00000000
  0
LINE
  8
CAPA_1
  6
CONTINUOUS
 62
3
 10
28.67413976
 20
17.46740712
 30
0.00000000
 11
28.48533268
 21
17.79160004
 31
0.00000000
  0
LINE
  8
CAPA_1
  6
CONTINUOUS
 62
3
 10
28.48533268
 20
17.79160004
 30
0.00000000
 11
29.37595472
 21
18.21197799
 31
0.00000000
  0
LINE
  8
CAPA_1
  6
CONTINUOUS
 62
3
 10
29.37595472
 20
18.21197799
 30
0.00000000
 11
29.29045472
 21
18.37584807
 31
0.00000000
  0
LINE
  8
CAPA_1
  6
CONTINUOUS
 62
3
 10
29.29045472
 20
18.37584807
 30
0.00000000
 11
28.40339567
 21
17.96616303
 31
0.00000000
  0
LINE
  8
CAPA_1
  6
CONTINUOUS
 62
3
 10
28.40339567
 20
17.96616303
 30
0.00000000
 11
28.06139567
 21
18.32241500
 31
0.00000000
  0
LINE
  8
CAPA_1
  6
CONTINUOUS
 62
3
 10
28.06139567
 20
18.32241500
 30
0.00000000
 11
27.83695472
 21
18.32241500
 31
0.00000000
  0
ARC
  8
CAPA_1
  6
CONTINUOUS
 62
3
 10
27.49350377
 20
18.62233284
 30
0.00000000
 40
0.45597069
 50
628.61574584
 51
318.87097995
  0
ARC
  8
CAPA_1
  6
CONTINUOUS
 62
3
 10
27.57315570
 20
18.77130294
 30
0.00000000
 40
0.61156594
 50
580.28581673
 51
261.47425025
  0
LINE
  8
CAPA_1
  6
CONTINUOUS
 62
3
 10
27.10663583
 20
18.37586382
 30
0.00000000
 11
26.64707677
 21
18.37586382
 31
0.00000000
  0
ARC
  8
CAPA_1
  6
CONTINUOUS
 62
3
 10
26.40629582
 20
16.01611576
 30
0.00000000
 40
2.37200050
 50
84.17389026
 51
110.36095409
  0
ARC
  8
CAPA_1
  6
CONTINUOUS
 62
3
 10
26.24160649
 20
16.58291251
 30
0.00000000
 40
1.78383043
 50
111.73605830
 51
143.43726546
  0
ARC
  8
CAPA_1
  6
CONTINUOUS
 62
3
 10
24.61512046
 20
18.00702248
 30
0.00000000
 40
0.41010658
 50
579.65692664
 51
298.18544321
  0
LINE
  8
CAPA_1
  6
CONTINUOUS
 62
3
 10
24.29938780
 20
17.74529689
 30
0.00000000
 11
24.01795079
 21
17.74529689
 31
0.00000000
  0
ARC
  8
CAPA_1
  6
CONTINUOUS
 62
3
 10
24.13160677
 20
18.03173633
 30
0.00000000
 40
0.30816430
 50
561.64262617
 51
248.35737383
  0
LINE
  8
CAPA_1
  6
CONTINUOUS
 62
3
 10
23.84516732
 20
17.91808035
 30
0.00000000
 11
23.84338386
 21
18.51835594
 31
0.00000000
  0
LINE
  8
CAPA_1
  6
CONTINUOUS
 62
3
 10
23.84338386
 20
18.51835594
 30
0.00000000
 11
23.90038386
 21
18.51835594
 31
0.00000000
  0
LINE
  8
CAPA_1
  6
CONTINUOUS
 62
3
 10
23.90038386
 20
18.51835594
 30
0.00000000
 11
24.14263189
 21
18.03741500
 31
0.00000000
  0
LINE
  8
CAPA_1
  6
CONTINUOUS
 62
3
 10
24.14263189
 20
18.03741500
 30
0.00000000
 11
24.28157283
 21
18.13360004
 31
0.00000000
  0
LINE
  8
CAPA_1
  6
CONTINUOUS
 62
3
 10
24.28157283
 20
18.13360004
 30
0.00000000
 11
23.93957283
 21
18.85679689
 31
0.00000000
  0
LINE
  8
CAPA_1
  6
CONTINUOUS
 62
3
 10
23.93957283
 20
18.85679689
 30
0.00000000
 11
24.17113583
 21
19.22730082
 31
0.00000000
  0
LINE
  8
CAPA_1
  6
CONTINUOUS
 62
3
 10
24.17113583
 20
19.22730082
 30
0.00000000
 11
24.64138780
 21
18.27966303
 31
0.00000000
  0
LINE
  8
CAPA_1
  6
CONTINUOUS
 62
3
 10
24.64138780
 20
18.27966303
 30
0.00000000
 11
24.77319882
 21
18.39366697
 31
0.00000000
  0
LINE
  8
CAPA_1
  6
CONTINUOUS
 62
3
 10
24.77319882
 20
18.39366697
 30
0.00000000
 11
24.31363189
 21
19.31992287
 31
0.00000000
  0
LINE
  8
CAPA_1
  6
CONTINUOUS
 62
3
 10
24.31363189
 20
19.31992287
 30
0.00000000
 11
24.64138780
 21
19.55504886
 31
0.00000000
  0
LINE
  8
CAPA_1
  6
CONTINUOUS
 62
3
 10
24.64138780
 20
19.55504886
 30
0.00000000
 11
25.11163583
 21
18.50766697
 31
0.00000000
  0
LINE
  8
CAPA_1
  6
CONTINUOUS
 62
3
 10
25.11163583
 20
18.50766697
 30
0.00000000
 11
25.28975787
 21
18.60029689
 31
0.00000000
  0
LINE
  8
CAPA_1
  6
CONTINUOUS
 62
3
 10
25.28975787
 20
18.60029689
 30
0.00000000
 11
24.79457283
 21
19.61561185
 31
0.00000000
  0
LINE
  8
CAPA_1
  6
CONTINUOUS
 62
3
 10
24.79457283
 20
19.61561185
 30
0.00000000
 11
25.10450591
 21
19.82223783
 31
0.00000000
  0
LINE
  8
CAPA_1
  6
CONTINUOUS
 62
3
 10
25.10450591
 20
19.82223783
 30
0.00000000
 11
25.61038386
 21
18.72498586
 31
0.00000000
  0
LINE
  8
CAPA_1
  6
CONTINUOUS
 62
3
 10
25.61038386
 20
18.72498586
 30
0.00000000
 11
25.76357283
 21
18.84254492
 31
0.00000000
  0
LINE
  8
CAPA_1
  6
CONTINUOUS
 62
3
 10
25.76357283
 20
18.84254492
 30
0.00000000
 11
25.26126181
 21
19.90417878
 31
0.00000000
  0
LINE
  8
CAPA_1
  6
CONTINUOUS
 62
3
 10
25.26126181
 20
19.90417878
 30
0.00000000
 11
25.56407283
 21
20.12148980
 31
0.00000000
  0
LINE
  8
CAPA_1
  6
CONTINUOUS
 62
3
 10
25.56407283
 20
20.12148980
 30
0.00000000
 11
25.94882480
 21
19.31280082
 31
0.00000000
  0
LINE
  8
CAPA_1
  6
CONTINUOUS
 62
3
 10
25.94882480
 20
19.31280082
 30
0.00000000
 11
26.10913189
 21
19.41611578
 31
0.00000000
  0
LINE
  8
CAPA_1
  6
CONTINUOUS
 62
3
 10
26.10913189
 20
19.41611578
 30
0.00000000
 11
25.71013583
 21
20.23192681
 31
0.00000000
  0
LINE
  8
CAPA_1
  6
CONTINUOUS
 62
3
 10
25.71013583
 20
20.23192681
 30
0.00000000
 11
25.97732087
 21
20.59174571
 31
0.00000000
  0
LINE
  8
CAPA_1
  6
CONTINUOUS
 62
3
 10
25.97732087
 20
20.59174571
 30
0.00000000
 11
26.40125787
 21
19.66192287
 31
0.00000000
  0
LINE
  8
CAPA_1
  6
CONTINUOUS
 62
3
 10
26.40125787
 20
19.66192287
 30
0.00000000
 11
26.55444685
 21
19.78305279
 31
0.00000000
  0
LINE
  8
CAPA_1
  6
CONTINUOUS
 62
3
 10
26.55444685
 20
19.78305279
 30
0.00000000
 11
26.04500591
 21
20.78768271
 31
0.00000000
  0
LINE
  8
CAPA_1
  6
CONTINUOUS
 62
3
 10
26.04500591
 20
20.78768271
 30
0.00000000
 11
26.33357283
 21
21.08693468
 31
0.00000000
  0
LINE
  8
CAPA_1
  6
CONTINUOUS
 62
3
 10
26.33357283
 20
21.08693468
 30
0.00000000
 11
26.86082480
 21
19.94336775
 31
0.00000000
  0
LINE
  8
CAPA_1
  6
CONTINUOUS
 62
3
 10
26.86082480
 20
19.94336775
 30
0.00000000
 11
27.02113583
 21
20.05380476
 31
0.00000000
  0
LINE
  8
CAPA_1
  6
CONTINUOUS
 62
3
 10
27.02113583
 20
20.05380476
 30
0.00000000
 11
26.47250591
 21
21.19380870
 31
0.00000000
  0
LINE
  8
CAPA_1
  6
CONTINUOUS
 62
3
 10
26.47250591
 20
21.19380870
 30
0.00000000
 11
26.78957283
 21
21.41468665
 31
0.00000000
  0
LINE
  8
CAPA_1
  6
CONTINUOUS
 62
3
 10
26.78957283
 20
21.41468665
 30
0.00000000
 11
27.29544685
 21
20.33167878
 31
0.00000000
  0
LINE
  8
CAPA_1
  6
CONTINUOUS
 62
3
 10
27.29544685
 20
20.33167878
 30
0.00000000
 11
27.44507283
 21
20.42430870
 31
0.00000000
  0
LINE
  8
CAPA_1
  6
CONTINUOUS
 62
3
 10
27.44507283
 20
20.42430870
 30
0.00000000
 11
26.94275787
 21
21.50374964
 31
0.00000000
  0
ARC
  8
CAPA_1
  6
CONTINUOUS
 62
3
 10
28.18785749
 20
21.41786035
 30
0.00000000
 40
0.36824890
 50
36.58768279
 51
80.67677055
  0
ARC
  8
CAPA_1
  6
CONTINUOUS
 62
3
 10
28.09256634
 20
20.81321078
 30
0.00000000
 40
0.98035650
 50
80.90605923
 51
103.71661490
  0
ARC
  8
CAPA_1
  6
CONTINUOUS
 62
3
 10
28.59354440
 20
16.75554474
 30
0.00000000
 40
5.06346396
 50
98.32856237
 51
105.10666231
  0
ARC
  8
CAPA_1
  6
CONTINUOUS
 62
3
 10
27.52703386
 20
20.58544739
 30
0.00000000
 40
1.08841970
 50
103.44730651
 51
122.46683226
  0
LINE
  8
CAPA_1
  6
CONTINUOUS
 62
3
 10
31.42973819
 20
15.50980870
 30
0.00000000
 11
30.84369882
 21
15.28715909
 31
0.00000000
  0
LINE
  8
CAPA_1
  6
CONTINUOUS
 62
3
 10
30.84369882
 20
15.28715909
 30
0.00000000
 11
30.80094685
 21
15.44034413
 31
0.00000000
  0
LINE
  8
CAPA_1
  6
CONTINUOUS
 62
3
 10
30.80094685
 20
15.44034413
 30
0.00000000
 11
31.43175787
 21
15.73962760
 31
0.00000000
  0
LINE
  8
CAPA_1
  6
CONTINUOUS
 62
3
 10
31.43175787
 20
15.73962760
 30
0.00000000
 11
31.43175787
 21
16.14215909
 31
0.00000000
  0
LINE
  8
CAPA_1
  6
CONTINUOUS
 62
3
 10
31.43175787
 20
16.14215909
 30
0.00000000
 11
30.65488386
 21
15.81084019
 31
0.00000000
  0
LINE
  8
CAPA_1
  6
CONTINUOUS
 62
3
 10
30.65488386
 20
15.81084019
 30
0.00000000
 11
30.60501378
 21
15.96403311
 31
0.00000000
  0
LINE
  8
CAPA_1
  6
CONTINUOUS
 62
3
 10
30.60501378
 20
15.96403311
 30
0.00000000
 11
31.42973819
 21
16.35134413
 31
0.00000000
  0
LINE
  8
CAPA_1
  6
CONTINUOUS
 62
3
 10
31.42973819
 20
16.35134413
 30
0.00000000
 11
31.42973819
 21
16.75847012
 31
0.00000000
  0
LINE
  8
CAPA_1
  6
CONTINUOUS
 62
3
 10
31.42973819
 20
16.75847012
 30
0.00000000
 11
30.46963976
 21
16.31671815
 31
0.00000000
  0
LINE
  8
CAPA_1
  6
CONTINUOUS
 62
3
 10
30.46963976
 20
16.31671815
 30
0.00000000
 11
30.41976181
 21
16.48415909
 31
0.00000000
  0
LINE
  8
CAPA_1
  6
CONTINUOUS
 62
3
 10
30.41976181
 20
16.48415909
 30
0.00000000
 11
31.42973819
 21
16.95440712
 31
0.00000000
  0
LINE
  8
CAPA_1
  6
CONTINUOUS
 62
3
 10
31.42973819
 20
16.95440712
 30
0.00000000
 11
31.42973819
 21
17.34628114
 31
0.00000000
  0
LINE
  8
CAPA_1
  6
CONTINUOUS
 62
3
 10
31.42973819
 20
17.34628114
 30
0.00000000
 11
30.31288386
 21
16.85109216
 31
0.00000000
  0
LINE
  8
CAPA_1
  6
CONTINUOUS
 62
3
 10
30.31288386
 20
16.85109216
 30
0.00000000
 11
30.26301378
 21
17.00428114
 31
0.00000000
  0
LINE
  8
CAPA_1
  6
CONTINUOUS
 62
3
 10
30.26301378
 20
17.00428114
 30
0.00000000
 11
31.42973819
 21
17.56359216
 31
0.00000000
  0
LINE
  8
CAPA_1
  6
CONTINUOUS
 62
3
 10
31.42973819
 20
17.56359216
 30
0.00000000
 11
31.42973819
 21
17.97327720
 31
0.00000000
  0
LINE
  8
CAPA_1
  6
CONTINUOUS
 62
3
 10
31.42973819
 20
17.97327720
 30
0.00000000
 11
30.19176575
 21
17.38547012
 31
0.00000000
  0
LINE
  8
CAPA_1
  6
CONTINUOUS
 62
3
 10
30.19176575
 20
17.38547012
 30
0.00000000
 11
30.13832480
 21
17.55290712
 31
0.00000000
  0
LINE
  8
CAPA_1
  6
CONTINUOUS
 62
3
 10
30.13832480
 20
17.55290712
 30
0.00000000
 11
31.42973819
 21
18.16921421
 31
0.00000000
  0
LINE
  8
CAPA_1
  6
CONTINUOUS
 62
3
 10
31.42973819
 20
18.16921421
 30
0.00000000
 11
31.42438386
 21
18.94583626
 31
0.00000000
  0
LINE
  8
CAPA_1
  6
CONTINUOUS
 62
3
 10
31.42438386
 20
18.94583626
 30
0.00000000
 11
31.71651378
 21
18.94583626
 31
0.00000000
  0
LINE
  8
CAPA_1
  6
CONTINUOUS
 62
3
 10
31.71651378
 20
18.94583626
 30
0.00000000
 11
31.71651378
 21
18.30459216
 31
0.00000000
  0
LINE
  8
CAPA_1
  6
CONTINUOUS
 62
3
 10
31.95163583
 20
18.41147012
 30
0.00000000
 11
31.95163583
 21
20.00746618
 31
0.00000000
  0
LINE
  8
CAPA_1
  6
CONTINUOUS
 62
3
 10
31.95163583
 20
20.00746618
 30
0.00000000
 11
29.74465157
 21
19.00110397
 31
0.00000000
  0
LINE
  8
CAPA_1
  6
CONTINUOUS
 62
3
 10
29.74465157
 20
19.00110397
 30
0.00000000
 11
29.69477362
 21
19.15785201
 31
0.00000000
  0
LINE
  8
CAPA_1
  6
CONTINUOUS
 62
3
 10
29.69477362
 20
19.15785201
 30
0.00000000
 11
31.42972244
 21
19.97723783
 31
0.00000000
  0
LINE
  8
CAPA_1
  6
CONTINUOUS
 62
3
 10
31.42972244
 20
19.97723783
 30
0.00000000
 11
31.42972244
 21
20.21948586
 31
0.00000000
  0
ARC
  8
CAPA_1
  6
CONTINUOUS
 62
3
 10
31.30251932
 20
20.17544605
 30
0.00000000
 40
0.13461106
 50
19.09669379
 51
75.91213698
  0
ARC
  8
CAPA_1
  6
CONTINUOUS
 62
3
 10
31.30580347
 20
20.06472385
 30
0.00000000
 40
0.24307909
 50
83.03382002
 51
121.07153984
  0
LINE
  8
CAPA_1
  6
CONTINUOUS
 62
3
 10
31.18034843
 20
20.27292681
 30
0.00000000
 11
29.92990748
 21
19.68154098
 31
0.00000000
  0
LINE
  8
CAPA_1
  6
CONTINUOUS
 62
3
 10
29.92990748
 20
19.68154098
 30
0.00000000
 11
29.85865157
 21
19.82760397
 31
0.00000000
  0
LINE
  8
CAPA_1
  6
CONTINUOUS
 62
3
 10
29.85865157
 20
19.82760397
 30
0.00000000
 11
31.03072244
 21
20.39761578
 31
0.00000000
  0
LINE
  8
CAPA_1
  6
CONTINUOUS
 62
3
 10
31.03072244
 20
20.39761578
 30
0.00000000
 11
30.60322244
 21
20.61136382
 31
0.00000000
  0
LINE
  8
CAPA_1
  6
CONTINUOUS
 62
3
 10
30.60322244
 20
20.61136382
 30
0.00000000
 11
29.50595866
 21
20.08767484
 31
0.00000000
  0
LINE
  8
CAPA_1
  6
CONTINUOUS
 62
3
 10
29.50595866
 20
20.08767484
 30
0.00000000
 11
29.43115157
 21
20.23373783
 31
0.00000000
  0
LINE
  8
CAPA_1
  6
CONTINUOUS
 62
3
 10
29.43115157
 20
20.23373783
 30
0.00000000
 11
30.40371850
 21
20.69686382
 31
0.00000000
  0
LINE
  8
CAPA_1
  6
CONTINUOUS
 62
3
 10
30.40371850
 20
20.69686382
 30
0.00000000
 11
30.00471457
 21
20.96405673
 31
0.00000000
  0
LINE
  8
CAPA_1
  6
CONTINUOUS
 62
3
 10
30.00471457
 20
20.96405673
 30
0.00000000
 11
29.06776969
 21
20.49735988
 31
0.00000000
  0
LINE
  8
CAPA_1
  6
CONTINUOUS
 62
3
 10
29.06776969
 20
20.49735988
 30
0.00000000
 11
29.01077362
 21
20.63273783
 31
0.00000000
  0
LINE
  8
CAPA_1
  6
CONTINUOUS
 62
3
 10
29.01077362
 20
20.63273783
 30
0.00000000
 11
29.81946260
 21
21.04955673
 31
0.00000000
  0
LINE
  8
CAPA_1
  6
CONTINUOUS
 62
3
 10
29.81946260
 20
21.04955673
 30
0.00000000
 11
29.38839961
 21
21.27042681
 31
0.00000000
  0
LINE
  8
CAPA_1
  6
CONTINUOUS
 62
3
 10
29.38839961
 20
21.27042681
 30
0.00000000
 11
28.68301772
 21
20.89992287
 31
0.00000000
  0
LINE
  8
CAPA_1
  6
CONTINUOUS
 62
3
 10
28.68301772
 20
20.89992287
 30
0.00000000
 11
28.60108071
 21
21.05311578
 31
0.00000000
  0
LINE
  8
CAPA_1
  6
CONTINUOUS
 62
3
 10
28.60108071
 20
21.05311578
 30
0.00000000
 11
29.12476969
 21
21.31673783
 31
0.00000000
  0
LINE
  8
CAPA_1
  6
CONTINUOUS
 62
3
 10
29.12476969
 20
21.31673783
 30
0.00000000
 11
28.69014370
 21
21.55543075
 31
0.00000000
  0
LINE
  8
CAPA_1
  6
CONTINUOUS
 62
3
 10
28.69014370
 20
21.55543075
 30
0.00000000
 11
28.23058465
 21
21.32030870
 31
0.00000000
  0
LINE
  8
CAPA_1
  6
CONTINUOUS
 62
3
 10
28.23058465
 20
21.32030870
 30
0.00000000
 11
28.14864370
 21
21.44142681
 31
0.00000000
  0
LINE
  8
CAPA_1
  6
CONTINUOUS
 62
3
 10
28.14864370
 20
21.44142681
 30
0.00000000
 11
28.48354134
 21
21.63735594
 31
0.00000000
  0
ARC
  8
CAPA_1
  6
CONTINUOUS
 62
3
 10
31.81164847
 20
18.42522761
 30
0.00000000
 40
0.14066176
 50
657.48105528
 51
354.38718575
  0
ARC
  8
CAPA_1
  6
CONTINUOUS
 62
3
 10
31.80213055
 20
18.51804460
 30
0.00000000
 40
0.22998299
 50
608.14404886
 51
288.88197213
  0
ARC
  8
CAPA_1
  6
CONTINUOUS
 62
3
 10
31.81164847
 20
18.42522761
 30
0.00000000
 40
0.14066176
 50
657.48105528
 51
354.38718575
  0
ARC
  8
CAPA_1
  6
CONTINUOUS
 62
3
 10
31.80213055
 20
18.51804460
 30
0.00000000
 40
0.22998299
 50
608.14404886
 51
288.88197213
  0
LINE
  8
CAPA_1
  6
CONTINUOUS
 62
3
 10
28.35981693
 20
16.91537956
 30
0.00000000
 11
26.38975787
 21
16.91537956
 31
0.00000000
  0
LINE
  8
CAPA_1
  6
CONTINUOUS
 62
3
 10
26.38975787
 20
16.91537956
 30
0.00000000
 11
26.38975787
 21
17.06144256
 31
0.00000000
  0
LINE
  8
CAPA_1
  6
CONTINUOUS
 62
3
 10
26.38975787
 20
17.06144256
 30
0.00000000
 11
28.21019488
 21
17.06144256
 31
0.00000000
  0
LINE
  8
CAPA_1
  6
CONTINUOUS
 62
3
 10
26.80656496
 20
17.77750949
 30
0.00000000
 11
26.80656496
 21
17.41769452
 31
0.00000000
  0
LINE
  8
CAPA_1
  6
CONTINUOUS
 62
3
 10
26.80656496
 20
17.41769452
 30
0.00000000
 11
26.66050984
 21
17.41769452
 31
0.00000000
  0
LINE
  8
CAPA_1
  6
CONTINUOUS
 62
3
 10
26.66050984
 20
17.41769452
 30
0.00000000
 11
26.66050984
 21
17.42482445
 31
0.00000000
  0
LINE
  8
CAPA_1
  6
CONTINUOUS
 62
3
 10
26.66050984
 20
17.42482445
 30
0.00000000
 11
26.66050984
 21
17.77750949
 31
0.00000000
  0
LINE
  8
CAPA_1
  6
CONTINUOUS
 62
3
 10
25.05025394
 20
17.36782051
 30
0.00000000
 11
25.47419488
 21
17.25381657
 31
0.00000000
  0
LINE
  8
CAPA_1
  6
CONTINUOUS
 62
3
 10
25.47419488
 20
17.25381657
 30
0.00000000
 11
25.50982087
 21
17.38563547
 31
0.00000000
  0
LINE
  8
CAPA_1
  6
CONTINUOUS
 62
3
 10
25.50982087
 20
17.38563547
 30
0.00000000
 11
25.11081693
 21
17.52456854
 31
0.00000000
  0
ARC
  8
CAPA_1
  6
CONTINUOUS
 62
3
 10
25.92479263
 20
16.49893298
 30
0.00000000
 40
1.30938335
 50
457.67840093
 51
128.43658942
  0
ARC
  8
CAPA_1
  6
CONTINUOUS
 62
3
 10
26.14503570
 20
14.91456192
 30
0.00000000
 40
2.90898305
 50
439.79324296
 51
97.80792979
  0
ARC
  8
CAPA_1
  6
CONTINUOUS
 62
3
 10
27.19803082
 20
14.96075585
 30
0.00000000
 40
2.84382605
 50
445.77685629
 51
97.91215312
  0
ARC
  8
CAPA_1
  6
CONTINUOUS
 62
3
 10
27.37824694
 20
16.81692849
 30
0.00000000
 40
0.98036702
 50
410.91746032
 51
88.29284485
  0
ARC
  8
CAPA_1
  6
CONTINUOUS
 62
3
 10
27.50472031
 20
17.07182163
 30
0.00000000
 40
0.70555092
 50
359.15711500
 51
45.83362847
  0
LINE
  8
CAPA_1
  6
CONTINUOUS
 62
3
 10
28.35981693
 20
16.50734807
 30
0.00000000
 11
26.38975787
 21
16.50734807
 31
0.00000000
  0
LINE
  8
CAPA_1
  6
CONTINUOUS
 62
3
 10
26.38975787
 20
16.50734807
 30
0.00000000
 11
26.38975787
 21
16.36128508
 31
0.00000000
  0
LINE
  8
CAPA_1
  6
CONTINUOUS
 62
3
 10
26.38975787
 20
16.36128508
 30
0.00000000
 11
28.21019488
 21
16.36128508
 31
0.00000000
  0
LINE
  8
CAPA_1
  6
CONTINUOUS
 62
3
 10
26.80656496
 20
15.64521815
 30
0.00000000
 11
26.80656496
 21
16.00503311
 31
0.00000000
  0
LINE
  8
CAPA_1
  6
CONTINUOUS
 62
3
 10
26.80656496
 20
16.00503311
 30
0.00000000
 11
26.66050984
 21
16.00503311
 31
0.00000000
  0
LINE
  8
CAPA_1
  6
CONTINUOUS
 62
3
 10
26.66050984
 20
16.00503311
 30
0.00000000
 11
26.66050984
 21
15.99790319
 31
0.00000000
  0
LINE
  8
CAPA_1
  6
CONTINUOUS
 62
3
 10
26.66050984
 20
15.99790319
 30
0.00000000
 11
26.66050984
 21
15.64521815
 31
0.00000000
  0
LINE
  8
CAPA_1
  6
CONTINUOUS
 62
3
 10
25.05025394
 20
16.05490712
 30
0.00000000
 11
25.47419488
 21
16.16891106
 31
0.00000000
  0
LINE
  8
CAPA_1
  6
CONTINUOUS
 62
3
 10
25.47419488
 20
16.16891106
 30
0.00000000
 11
25.50982087
 21
16.03709216
 31
0.00000000
  0
LINE
  8
CAPA_1
  6
CONTINUOUS
 62
3
 10
25.50982087
 20
16.03709216
 30
0.00000000
 11
25.11081693
 21
15.89815909
 31
0.00000000
  0
ARC
  8
CAPA_1
  6
CONTINUOUS
 62
3
 10
25.92479263
 20
16.92379466
 30
0.00000000
 40
1.30938335
 50
231.56341058
 51
262.32159907
  0
ARC
  8
CAPA_1
  6
CONTINUOUS
 62
3
 10
26.14503570
 20
18.50816572
 30
0.00000000
 40
2.90898305
 50
262.19207021
 51
280.20675704
  0
ARC
  8
CAPA_1
  6
CONTINUOUS
 62
3
 10
27.19803082
 20
18.46197179
 30
0.00000000
 40
2.84382605
 50
262.08784688
 51
274.22314371
  0
ARC
  8
CAPA_1
  6
CONTINUOUS
 62
3
 10
27.37824694
 20
16.60579914
 30
0.00000000
 40
0.98036702
 50
271.70715515
 51
309.08253968
  0
ARC
  8
CAPA_1
  6
CONTINUOUS
 62
3
 10
27.50472031
 20
16.35090601
 30
0.00000000
 40
0.70555092
 50
314.16637153
 51
360.84288500
  0
ARC
  8
CAPA_1
  6
CONTINUOUS
 62
3
 10
22.34847435
 20
16.71136382
 30
0.00000000
 40
2.78038637
 50
346.34336868
 51
13.65663132
  0
ARC
  8
CAPA_1
  6
CONTINUOUS
 62
3
 10
28.19170440
 20
16.71136382
 30
0.00000000
 40
0.26435629
 50
309.48911761
 51
50.51088239
  0
LINE
  8
CAPA_1
  6
CONTINUOUS
 62
3
 10
24.57240354
 20
20.44419452
 30
0.00000000
 11
23.09396654
 21
20.44419452
 31
0.00000000
  0
LINE
  8
CAPA_1
  6
CONTINUOUS
 62
3
 10
23.09396654
 20
20.44419452
 30
0.00000000
 11
23.09396654
 21
20.59382051
 31
0.00000000
  0
LINE
  8
CAPA_1
  6
CONTINUOUS
 62
3
 10
23.09396654
 20
20.59382051
 30
0.00000000
 11
24.50471850
 21
20.59382051
 31
0.00000000
  0
LINE
  8
CAPA_1
  6
CONTINUOUS
 62
3
 10
23.45022244
 20
21.21369452
 30
0.00000000
 11
23.45022244
 21
20.88237956
 31
0.00000000
  0
LINE
  8
CAPA_1
  6
CONTINUOUS
 62
3
 10
23.45022244
 20
20.88237956
 30
0.00000000
 11
23.30059646
 21
20.88237956
 31
0.00000000
  0
LINE
  8
CAPA_1
  6
CONTINUOUS
 62
3
 10
23.30059646
 20
20.88237956
 30
0.00000000
 11
23.30415551
 21
21.21369452
 31
0.00000000
  0
LINE
  8
CAPA_1
  6
CONTINUOUS
 62
3
 10
23.30415551
 20
21.21369452
 30
0.00000000
 11
23.30059646
 21
21.21369452
 31
0.00000000
  0
ARC
  8
CAPA_1
  6
CONTINUOUS
 62
3
 10
22.77050912
 20
21.24425097
 30
0.00000000
 40
0.52303677
 50
190.82611558
 51
229.41748404
  0
ARC
  8
CAPA_1
  6
CONTINUOUS
 62
3
 10
22.54434169
 20
21.04285521
 30
0.00000000
 40
0.22664484
 50
239.77562213
 51
308.12950015
  0
LINE
  8
CAPA_1
  6
CONTINUOUS
 62
3
 10
22.68428150
 20
20.86457248
 30
0.00000000
 11
22.68428150
 21
21.18163547
 31
0.00000000
  0
LINE
  8
CAPA_1
  6
CONTINUOUS
 62
3
 10
22.68428150
 20
21.18163547
 30
0.00000000
 11
22.73415551
 21
21.18163547
 31
0.00000000
  0
LINE
  8
CAPA_1
  6
CONTINUOUS
 62
3
 10
22.73415551
 20
21.18163547
 30
0.00000000
 11
22.73415551
 21
21.27425752
 31
0.00000000
  0
LINE
  8
CAPA_1
  6
CONTINUOUS
 62
3
 10
22.73415551
 20
21.27425752
 30
0.00000000
 11
22.87665551
 21
21.27425752
 31
0.00000000
  0
ARC
  8
CAPA_1
  6
CONTINUOUS
 62
3
 10
23.16684077
 20
21.78351460
 30
0.00000000
 40
0.58613161
 50
240.32461227
 51
283.54876608
  0
ARC
  8
CAPA_1
  6
CONTINUOUS
 62
3
 10
23.61138349
 20
20.07279637
 30
0.00000000
 40
1.15222458
 50
422.59871460
 51
98.04029327
  0
ARC
  8
CAPA_1
  6
CONTINUOUS
 62
3
 10
23.71640261
 20
20.40587696
 30
0.00000000
 40
0.81041022
 50
373.40964333
 51
58.34903647
  0
ARC
  8
CAPA_1
  6
CONTINUOUS
 62
3
 10
23.62123541
 20
20.05930824
 30
0.00000000
 40
1.74702512
 50
502.20472947
 51
167.63218643
  0
LINE
  8
CAPA_1
  6
CONTINUOUS
 62
3
 10
24.57240354
 20
20.02380476
 30
0.00000000
 11
23.09396654
 21
20.02380476
 31
0.00000000
  0
LINE
  8
CAPA_1
  6
CONTINUOUS
 62
3
 10
23.09396654
 20
20.02380476
 30
0.00000000
 11
23.09396654
 21
19.87417878
 31
0.00000000
  0
LINE
  8
CAPA_1
  6
CONTINUOUS
 62
3
 10
23.09396654
 20
19.87417878
 30
0.00000000
 11
24.50471850
 21
19.87417878
 31
0.00000000
  0
LINE
  8
CAPA_1
  6
CONTINUOUS
 62
3
 10
23.45022244
 20
19.25430476
 30
0.00000000
 11
23.45022244
 21
19.58561972
 31
0.00000000
  0
LINE
  8
CAPA_1
  6
CONTINUOUS
 62
3
 10
23.45022244
 20
19.58561972
 30
0.00000000
 11
23.30059646
 21
19.58561972
 31
0.00000000
  0
LINE
  8
CAPA_1
  6
CONTINUOUS
 62
3
 10
23.30059646
 20
19.58561972
 30
0.00000000
 11
23.30415551
 21
19.25430476
 31
0.00000000
  0
LINE
  8
CAPA_1
  6
CONTINUOUS
 62
3
 10
23.30415551
 20
19.25430476
 30
0.00000000
 11
23.30059646
 21
19.25430476
 31
0.00000000
  0
ARC
  8
CAPA_1
  6
CONTINUOUS
 62
3
 10
22.77050912
 20
19.22374831
 30
0.00000000
 40
0.52303677
 50
490.58251596
 51
169.17388442
  0
ARC
  8
CAPA_1
  6
CONTINUOUS
 62
3
 10
22.54434169
 20
19.42514407
 30
0.00000000
 40
0.22664484
 50
411.87049985
 51
120.22437787
  0
LINE
  8
CAPA_1
  6
CONTINUOUS
 62
3
 10
22.68428150
 20
19.60342681
 30
0.00000000
 11
22.68428150
 21
19.28636382
 31
0.00000000
  0
LINE
  8
CAPA_1
  6
CONTINUOUS
 62
3
 10
22.68428150
 20
19.28636382
 30
0.00000000
 11
22.73415551
 21
19.28636382
 31
0.00000000
  0
LINE
  8
CAPA_1
  6
CONTINUOUS
 62
3
 10
22.73415551
 20
19.28636382
 30
0.00000000
 11
22.73415551
 21
19.19374177
 31
0.00000000
  0
LINE
  8
CAPA_1
  6
CONTINUOUS
 62
3
 10
22.73415551
 20
19.19374177
 30
0.00000000
 11
22.87665551
 21
19.19374177
 31
0.00000000
  0
ARC
  8
CAPA_1
  6
CONTINUOUS
 62
3
 10
23.16683781
 20
18.68450553
 30
0.00000000
 40
0.58611203
 50
436.45047569
 51
119.67614596
  0
ARC
  8
CAPA_1
  6
CONTINUOUS
 62
3
 10
23.61138198
 20
20.39519893
 30
0.00000000
 40
1.15222043
 50
261.95975308
 51
297.40147681
  0
ARC
  8
CAPA_1
  6
CONTINUOUS
 62
3
 10
23.71639995
 20
20.06212629
 30
0.00000000
 40
0.81041373
 50
301.65103196
 51
346.59012818
  0
ARC
  8
CAPA_1
  6
CONTINUOUS
 62
3
 10
23.62123541
 20
20.40869105
 30
0.00000000
 40
1.74702512
 50
192.36781357
 51
217.79527053
  0
LINE
  8
CAPA_1
  6
CONTINUOUS
 62
3
 10
21.91475394
 20
20.43349767
 30
0.00000000
 11
21.91478937
 21
20.01791893
 31
0.00000000
  0
LINE
  8
CAPA_1
  6
CONTINUOUS
 62
3
 10
21.91478937
 20
20.01791893
 30
0.00000000
 11
21.91478937
 21
20.03807641
 31
0.00000000
  0
LINE
  8
CAPA_1
  6
CONTINUOUS
 62
3
 10
21.91478937
 20
20.03807641
 30
0.00000000
 11
21.91475394
 21
20.03450161
 31
0.00000000
  0
ARC
  8
CAPA_1
  6
CONTINUOUS
 62
3
 10
24.44456290
 20
20.21653583
 30
0.00000000
 40
0.26109713
 50
365.85016383
 51
60.68382149
  0
ARC
  8
CAPA_1
  6
CONTINUOUS
 62
3
 10
24.39649498
 20
20.27891094
 30
0.00000000
 40
0.30987576
 50
664.58821983
 51
353.37283369
  0
LINE
  8
CAPA_1
  6
CONTINUOUS
 62
3
 10
24.81774213
 20
15.67058035
 30
0.00000000
 11
23.59936417
 21
15.67058035
 31
0.00000000
  0
LINE
  8
CAPA_1
  6
CONTINUOUS
 62
3
 10
23.59936417
 20
15.67058035
 30
0.00000000
 11
23.59936417
 21
15.82021027
 31
0.00000000
  0
LINE
  8
CAPA_1
  6
CONTINUOUS
 62
3
 10
23.59936417
 20
15.82021027
 30
0.00000000
 11
24.68593110
 21
15.82021027
 31
0.00000000
  0
ARC
  8
CAPA_1
  6
CONTINUOUS
 62
3
 10
23.26502712
 20
15.46139089
 30
0.00000000
 40
0.72263388
 50
467.24982906
 51
166.39324819
  0
LINE
  8
CAPA_1
  6
CONTINUOUS
 62
3
 10
23.05073819
 20
16.15152130
 30
0.00000000
 11
23.66705315
 21
16.25127326
 31
0.00000000
  0
LINE
  8
CAPA_1
  6
CONTINUOUS
 62
3
 10
23.66705315
 20
16.25127326
 30
0.00000000
 11
23.66705315
 21
16.02326933
 31
0.00000000
  0
LINE
  8
CAPA_1
  6
CONTINUOUS
 62
3
 10
23.66705315
 20
16.02326933
 30
0.00000000
 11
23.82736024
 21
16.02326933
 31
0.00000000
  0
LINE
  8
CAPA_1
  6
CONTINUOUS
 62
3
 10
23.82736024
 20
16.02326933
 30
0.00000000
 11
23.82736024
 21
16.25127326
 31
0.00000000
  0
ARC
  8
CAPA_1
  6
CONTINUOUS
 62
3
 10
23.92116437
 20
15.27627769
 30
0.00000000
 40
0.97949761
 50
424.83025823
 51
95.49550127
  0
ARC
  8
CAPA_1
  6
CONTINUOUS
 62
3
 10
23.95787973
 20
15.42844256
 30
0.00000000
 40
0.82676522
 50
388.28489447
 51
62.64767147
  0
LINE
  8
CAPA_1
  6
CONTINUOUS
 62
3
 10
24.81774213
 20
15.25741893
 30
0.00000000
 11
23.59936417
 21
15.25741893
 31
0.00000000
  0
LINE
  8
CAPA_1
  6
CONTINUOUS
 62
3
 10
23.59936417
 20
15.25741893
 30
0.00000000
 11
23.59936417
 21
15.10778508
 31
0.00000000
  0
LINE
  8
CAPA_1
  6
CONTINUOUS
 62
3
 10
23.59936417
 20
15.10778508
 30
0.00000000
 11
24.68593110
 21
15.10778508
 31
0.00000000
  0
ARC
  8
CAPA_1
  6
CONTINUOUS
 62
3
 10
23.26501567
 20
15.46659894
 30
0.00000000
 40
0.72262145
 50
193.60653977
 51
252.75081580
  0
LINE
  8
CAPA_1
  6
CONTINUOUS
 62
3
 10
23.05073819
 20
14.77647799
 30
0.00000000
 11
23.66705315
 21
14.67672602
 31
0.00000000
  0
LINE
  8
CAPA_1
  6
CONTINUOUS
 62
3
 10
23.66705315
 20
14.67672602
 30
0.00000000
 11
23.66705315
 21
14.90472602
 31
0.00000000
  0
LINE
  8
CAPA_1
  6
CONTINUOUS
 62
3
 10
23.66705315
 20
14.90472602
 30
0.00000000
 11
23.82736024
 21
14.90472602
 31
0.00000000
  0
LINE
  8
CAPA_1
  6
CONTINUOUS
 62
3
 10
23.82736024
 20
14.90472602
 30
0.00000000
 11
23.82736024
 21
14.67672602
 31
0.00000000
  0
ARC
  8
CAPA_1
  6
CONTINUOUS
 62
3
 10
23.92117302
 20
15.65170621
 30
0.00000000
 40
0.97948313
 50
264.50390891
 51
295.16958073
  0
ARC
  8
CAPA_1
  6
CONTINUOUS
 62
3
 10
23.95788311
 20
15.49955041
 30
0.00000000
 40
0.82676112
 50
297.35221197
 51
331.71513979
  0
LINE
  8
CAPA_1
  6
CONTINUOUS
 62
3
 10
24.81922244
 20
15.66966303
 30
0.00000000
 11
24.82130906
 21
15.25733232
 31
0.00000000
  0
LINE
  8
CAPA_1
  6
CONTINUOUS
 62
3
 10
24.82130906
 20
15.25733232
 30
0.00000000
 11
24.81774213
 21
15.25741893
 31
0.00000000
  0
ARC
  8
CAPA_1
  6
CONTINUOUS
 62
3
 10
20.67999702
 20
15.43044712
 30
0.00000000
 40
1.89337193
 50
356.48401611
 51
6.09241550
  0
LINE
  8
CAPA_1
  6
CONTINUOUS
 62
3
 10
22.56980512
 20
15.31433232
 30
0.00000000
 11
22.56267520
 21
15.29660004
 31
0.00000000
  0
LINE
  8
CAPA_1
  6
CONTINUOUS
 62
3
 10
21.90144291
 20
15.46721421
 30
0.00000000
 11
21.34569094
 21
15.46721421
 31
0.00000000
  0
LINE
  8
CAPA_1
  6
CONTINUOUS
 62
3
 10
21.34569094
 20
15.46721421
 30
0.00000000
 11
21.34569094
 21
15.61327720
 31
0.00000000
  0
LINE
  8
CAPA_1
  6
CONTINUOUS
 62
3
 10
21.34569094
 20
15.61327720
 30
0.00000000
 11
21.79812795
 21
15.61327720
 31
0.00000000
  0
ARC
  8
CAPA_1
  6
CONTINUOUS
 62
3
 10
20.84031672
 20
14.96644816
 30
0.00000000
 40
0.90674760
 50
473.41444093
 51
155.24878799
  0
LINE
  8
CAPA_1
  6
CONTINUOUS
 62
3
 10
20.47999409
 20
15.79852917
 30
0.00000000
 11
20.87899803
 21
15.79852917
 31
0.00000000
  0
LINE
  8
CAPA_1
  6
CONTINUOUS
 62
3
 10
20.87899803
 20
15.79852917
 30
0.00000000
 11
20.87899803
 21
15.87333626
 31
0.00000000
  0
LINE
  8
CAPA_1
  6
CONTINUOUS
 62
3
 10
20.87899803
 20
15.87333626
 30
0.00000000
 11
21.03931299
 21
15.87333626
 31
0.00000000
  0
LINE
  8
CAPA_1
  6
CONTINUOUS
 62
3
 10
21.03931299
 20
15.87333626
 30
0.00000000
 11
21.03931299
 21
15.75221027
 31
0.00000000
  0
LINE
  8
CAPA_1
  6
CONTINUOUS
 62
3
 10
21.03931299
 20
15.75221027
 30
0.00000000
 11
21.21031299
 21
15.75221027
 31
0.00000000
  0
LINE
  8
CAPA_1
  6
CONTINUOUS
 62
3
 10
21.21031299
 20
15.75221027
 30
0.00000000
 11
21.21031299
 21
15.87333626
 31
0.00000000
  0
ARC
  8
CAPA_1
  6
CONTINUOUS
 62
3
 10
21.32684192
 20
14.98943924
 30
0.00000000
 40
0.89154525
 50
430.31848418
 51
97.51030131
  0
ARC
  8
CAPA_1
  6
CONTINUOUS
 62
3
 10
21.52880194
 20
15.57529514
 30
0.00000000
 40
0.27199106
 50
368.02727698
 51
68.81215536
  0
LINE
  8
CAPA_1
  6
CONTINUOUS
 62
3
 10
21.90144291
 20
15.03895830
 30
0.00000000
 11
21.34569094
 21
15.03895830
 31
0.00000000
  0
LINE
  8
CAPA_1
  6
CONTINUOUS
 62
3
 10
21.34569094
 20
15.03895830
 30
0.00000000
 11
21.34569094
 21
14.89289531
 31
0.00000000
  0
LINE
  8
CAPA_1
  6
CONTINUOUS
 62
3
 10
21.34569094
 20
14.89289531
 30
0.00000000
 11
21.79812795
 21
14.89289531
 31
0.00000000
  0
ARC
  8
CAPA_1
  6
CONTINUOUS
 62
3
 10
20.84030824
 20
15.53971898
 30
0.00000000
 40
0.90673929
 50
204.75135362
 51
246.58591589
  0
LINE
  8
CAPA_1
  6
CONTINUOUS
 62
3
 10
20.47999409
 20
14.70764334
 30
0.00000000
 11
20.87899803
 21
14.70764334
 31
0.00000000
  0
LINE
  8
CAPA_1
  6
CONTINUOUS
 62
3
 10
20.87899803
 20
14.70764334
 30
0.00000000
 11
20.87899803
 21
14.63283232
 31
0.00000000
  0
LINE
  8
CAPA_1
  6
CONTINUOUS
 62
3
 10
20.87899803
 20
14.63283232
 30
0.00000000
 11
21.03931299
 21
14.63283232
 31
0.00000000
  0
LINE
  8
CAPA_1
  6
CONTINUOUS
 62
3
 10
21.03931299
 20
14.63283232
 30
0.00000000
 11
21.03931299
 21
14.75396224
 31
0.00000000
  0
LINE
  8
CAPA_1
  6
CONTINUOUS
 62
3
 10
21.03931299
 20
14.75396224
 30
0.00000000
 11
21.21031299
 21
14.75396224
 31
0.00000000
  0
LINE
  8
CAPA_1
  6
CONTINUOUS
 62
3
 10
21.21031299
 20
14.75396224
 30
0.00000000
 11
21.21031299
 21
14.63283232
 31
0.00000000
  0
ARC
  8
CAPA_1
  6
CONTINUOUS
 62
3
 10
21.32683346
 20
15.51674356
 30
0.00000000
 40
0.89155824
 50
262.49035682
 51
289.68179417
  0
ARC
  8
CAPA_1
  6
CONTINUOUS
 62
3
 10
21.52880059
 20
14.93087787
 30
0.00000000
 40
0.27199247
 50
291.18803521
 51
351.97265978
  0
ARC
  8
CAPA_1
  6
CONTINUOUS
 62
3
 10
21.67598479
 20
15.25308626
 30
0.00000000
 40
0.31093753
 50
316.47645090
 51
43.52354910
  0
LINE
  8
CAPA_1
  6
CONTINUOUS
 62
3
 10
20.01686811
 20
15.34608429
 30
0.00000000
 11
20.01686811
 21
15.16008429
 31
0.00000000
  0
LINE
  8
CAPA_1
  6
CONTINUOUS
 62
3
 10
22.73407283
 20
17.83715515
 30
0.00000000
 11
22.35644685
 21
17.83715515
 31
0.00000000
  0
LINE
  8
CAPA_1
  6
CONTINUOUS
 62
3
 10
22.35644685
 20
17.83715515
 30
0.00000000
 11
22.35644685
 21
17.71958823
 31
0.00000000
  0
LINE
  8
CAPA_1
  6
CONTINUOUS
 62
3
 10
22.35644685
 20
17.71958823
 30
0.00000000
 11
22.20682087
 21
17.71958823
 31
0.00000000
  0
LINE
  8
CAPA_1
  6
CONTINUOUS
 62
3
 10
22.20682087
 20
17.71958823
 30
0.00000000
 11
22.20682087
 21
17.83715515
 31
0.00000000
  0
LINE
  8
CAPA_1
  6
CONTINUOUS
 62
3
 10
22.20682087
 20
17.83715515
 30
0.00000000
 11
22.06075787
 21
17.83715515
 31
0.00000000
  0
LINE
  8
CAPA_1
  6
CONTINUOUS
 62
3
 10
22.06075787
 20
17.83715515
 30
0.00000000
 11
22.06075787
 21
17.87990319
 31
0.00000000
  0
LINE
  8
CAPA_1
  6
CONTINUOUS
 62
3
 10
22.06075787
 20
17.87990319
 30
0.00000000
 11
21.76863583
 21
17.87990319
 31
0.00000000
  0
LINE
  8
CAPA_1
  6
CONTINUOUS
 62
3
 10
21.76863583
 20
17.87990319
 30
0.00000000
 11
21.76863583
 21
17.84071421
 31
0.00000000
  0
ARC
  8
CAPA_1
  6
CONTINUOUS
 62
3
 10
22.53471638
 20
17.55746105
 30
0.00000000
 40
0.34347022
 50
390.95529815
 51
54.52002018
  0
ARC
  8
CAPA_1
  6
CONTINUOUS
 62
3
 10
22.73797199
 20
17.67933938
 30
0.00000000
 40
0.10647409
 50
339.02055852
 51
30.97109324
  0
LINE
  8
CAPA_1
  6
CONTINUOUS
 62
3
 10
22.83738780
 20
17.64121815
 30
0.00000000
 11
22.49182087
 21
17.64121815
 31
0.00000000
  0
LINE
  8
CAPA_1
  6
CONTINUOUS
 62
3
 10
22.49182087
 20
17.64121815
 30
0.00000000
 11
22.49182087
 21
17.49515515
 31
0.00000000
  0
LINE
  8
CAPA_1
  6
CONTINUOUS
 62
3
 10
22.49182087
 20
17.49515515
 30
0.00000000
 11
23.04400984
 21
17.49515515
 31
0.00000000
  0
ARC
  8
CAPA_1
  6
CONTINUOUS
 62
3
 10
21.86506148
 20
17.24835976
 30
0.00000000
 40
0.60015139
 50
99.24572239
 51
130.67242473
  0
ARC
  8
CAPA_1
  6
CONTINUOUS
 62
3
 10
22.30134949
 20
16.74255915
 30
0.00000000
 40
1.26811902
 50
130.72911081
 51
149.76304120
  0
LINE
  8
CAPA_1
  6
CONTINUOUS
 62
3
 10
22.73407283
 20
16.71424964
 30
0.00000000
 11
22.35644685
 21
16.71424964
 31
0.00000000
  0
LINE
  8
CAPA_1
  6
CONTINUOUS
 62
3
 10
22.35644685
 20
16.71424964
 30
0.00000000
 11
22.35644685
 21
16.83181657
 31
0.00000000
  0
LINE
  8
CAPA_1
  6
CONTINUOUS
 62
3
 10
22.35644685
 20
16.83181657
 30
0.00000000
 11
22.20682087
 21
16.83181657
 31
0.00000000
  0
LINE
  8
CAPA_1
  6
CONTINUOUS
 62
3
 10
22.20682087
 20
16.83181657
 30
0.00000000
 11
22.20682087
 21
16.71424964
 31
0.00000000
  0
LINE
  8
CAPA_1
  6
CONTINUOUS
 62
3
 10
22.20682087
 20
16.71424964
 30
0.00000000
 11
22.06075787
 21
16.71424964
 31
0.00000000
  0
LINE
  8
CAPA_1
  6
CONTINUOUS
 62
3
 10
22.06075787
 20
16.71424964
 30
0.00000000
 11
22.06075787
 21
16.67149767
 31
0.00000000
  0
LINE
  8
CAPA_1
  6
CONTINUOUS
 62
3
 10
22.06075787
 20
16.67149767
 30
0.00000000
 11
21.76863583
 21
16.67149767
 31
0.00000000
  0
LINE
  8
CAPA_1
  6
CONTINUOUS
 62
3
 10
21.76863583
 20
16.67149767
 30
0.00000000
 11
21.76863583
 21
16.71068665
 31
0.00000000
  0
ARC
  8
CAPA_1
  6
CONTINUOUS
 62
3
 10
22.53474142
 20
16.99392315
 30
0.00000000
 40
0.34343891
 50
305.47857344
 51
329.04528971
  0
ARC
  8
CAPA_1
  6
CONTINUOUS
 62
3
 10
22.73796870
 20
16.87206484
 30
0.00000000
 40
0.10647736
 50
329.02940532
 51
380.97910088
  0
LINE
  8
CAPA_1
  6
CONTINUOUS
 62
3
 10
22.83738780
 20
16.91018665
 30
0.00000000
 11
22.49182087
 21
16.91018665
 31
0.00000000
  0
LINE
  8
CAPA_1
  6
CONTINUOUS
 62
3
 10
22.49182087
 20
16.91018665
 30
0.00000000
 11
22.49182087
 21
17.05624964
 31
0.00000000
  0
LINE
  8
CAPA_1
  6
CONTINUOUS
 62
3
 10
22.49182087
 20
17.05624964
 30
0.00000000
 11
23.04400984
 21
17.05624964
 31
0.00000000
  0
ARC
  8
CAPA_1
  6
CONTINUOUS
 62
3
 10
21.86507591
 20
17.30306232
 30
0.00000000
 40
0.60017466
 50
589.32766646
 51
260.75324276
  0
ARC
  8
CAPA_1
  6
CONTINUOUS
 62
3
 10
22.30135834
 20
17.80885788
 30
0.00000000
 40
1.26813481
 50
570.23738841
 51
229.27097557
  0
LINE
  8
CAPA_1
  6
CONTINUOUS
 62
3
 10
21.20575787
 20
17.38115515
 30
0.00000000
 11
21.20575787
 21
17.17024571
 31
0.00000000
  0
ARC
  8
CAPA_1
  6
CONTINUOUS
 62
3
 10
22.84184771
 20
17.27570240
 30
0.00000000
 40
0.29837734
 50
312.65158916
 51
47.34841084
  0
LINE
  8
CAPA_1
  6
CONTINUOUS
 62
3
 10
21.22995866
 20
19.35712760
 30
0.00000000
 11
21.22995866
 21
19.20037169
 31
0.00000000
  0
LINE
  8
CAPA_1
  6
CONTINUOUS
 62
3
 10
21.22995866
 20
19.20037169
 30
0.00000000
 11
21.05895079
 21
19.20037169
 31
0.00000000
  0
LINE
  8
CAPA_1
  6
CONTINUOUS
 62
3
 10
21.05895079
 20
19.20037169
 30
0.00000000
 11
21.05895079
 21
19.20750161
 31
0.00000000
  0
LINE
  8
CAPA_1
  6
CONTINUOUS
 62
3
 10
21.05895079
 20
19.20750161
 30
0.00000000
 11
21.05895079
 21
19.35712760
 31
0.00000000
  0
LINE
  8
CAPA_1
  6
CONTINUOUS
 62
3
 10
21.05895079
 20
19.35712760
 30
0.00000000
 11
20.62076969
 21
19.35712760
 31
0.00000000
  0
LINE
  8
CAPA_1
  6
CONTINUOUS
 62
3
 10
21.22995866
 20
19.35712760
 30
0.00000000
 11
21.51139567
 21
19.35712760
 31
0.00000000
  0
LINE
  8
CAPA_1
  6
CONTINUOUS
 62
3
 10
21.91039567
 20
19.07212366
 30
0.00000000
 11
21.36889173
 21
19.07212366
 31
0.00000000
  0
LINE
  8
CAPA_1
  6
CONTINUOUS
 62
3
 10
21.36889173
 20
19.07212366
 30
0.00000000
 11
21.36889173
 21
18.92249767
 31
0.00000000
  0
LINE
  8
CAPA_1
  6
CONTINUOUS
 62
3
 10
21.36889173
 20
18.92249767
 30
0.00000000
 11
21.99945866
 21
18.92249767
 31
0.00000000
  0
ARC
  8
CAPA_1
  6
CONTINUOUS
 62
3
 10
20.98367248
 20
18.67167703
 30
0.00000000
 40
0.77559069
 50
477.89839424
 51
163.61692656
  0
ARC
  8
CAPA_1
  6
CONTINUOUS
 62
3
 10
21.41747788
 20
18.73608430
 30
0.00000000
 40
0.62810455
 50
416.12989573
 51
81.40055718
  0
ARC
  8
CAPA_1
  6
CONTINUOUS
 62
3
 10
21.54058058
 20
18.93502909
 30
0.00000000
 40
0.39440857
 50
380.34030326
 51
54.87150152
  0
LINE
  8
CAPA_1
  6
CONTINUOUS
 62
3
 10
21.22995866
 20
18.08674571
 30
0.00000000
 11
21.22995866
 21
18.24350161
 31
0.00000000
  0
LINE
  8
CAPA_1
  6
CONTINUOUS
 62
3
 10
21.22995866
 20
18.24350161
 30
0.00000000
 11
21.05895079
 21
18.24350161
 31
0.00000000
  0
LINE
  8
CAPA_1
  6
CONTINUOUS
 62
3
 10
21.05895079
 20
18.24350161
 30
0.00000000
 11
21.05895079
 21
18.23637169
 31
0.00000000
  0
LINE
  8
CAPA_1
  6
CONTINUOUS
 62
3
 10
21.05895079
 20
18.23637169
 30
0.00000000
 11
21.05895079
 21
18.08674571
 31
0.00000000
  0
LINE
  8
CAPA_1
  6
CONTINUOUS
 62
3
 10
21.05895079
 20
18.08674571
 30
0.00000000
 11
20.62076969
 21
18.08674571
 31
0.00000000
  0
LINE
  8
CAPA_1
  6
CONTINUOUS
 62
3
 10
21.22995866
 20
18.08674571
 30
0.00000000
 11
21.51139567
 21
18.08674571
 31
0.00000000
  0
LINE
  8
CAPA_1
  6
CONTINUOUS
 62
3
 10
21.91039567
 20
18.37174964
 30
0.00000000
 11
21.36889173
 21
18.37174964
 31
0.00000000
  0
LINE
  8
CAPA_1
  6
CONTINUOUS
 62
3
 10
21.36889173
 20
18.37174964
 30
0.00000000
 11
21.36889173
 21
18.52137563
 31
0.00000000
  0
LINE
  8
CAPA_1
  6
CONTINUOUS
 62
3
 10
21.36889173
 20
18.52137563
 30
0.00000000
 11
21.99945866
 21
18.52137563
 31
0.00000000
  0
ARC
  8
CAPA_1
  6
CONTINUOUS
 62
3
 10
20.98367248
 20
18.77219627
 30
0.00000000
 40
0.77559069
 50
196.38307344
 51
242.10160576
  0
ARC
  8
CAPA_1
  6
CONTINUOUS
 62
3
 10
21.41747788
 20
18.70778900
 30
0.00000000
 40
0.62810455
 50
278.59944282
 51
303.87010427
  0
ARC
  8
CAPA_1
  6
CONTINUOUS
 62
3
 10
21.54058058
 20
18.50884421
 30
0.00000000
 40
0.39440857
 50
305.12849848
 51
339.65969674
  0
ARC
  8
CAPA_1
  6
CONTINUOUS
 62
3
 10
21.76296586
 20
18.71125949
 30
0.00000000
 40
0.32308979
 50
324.00516350
 51
35.99483650
  0
LINE
  8
CAPA_1
  6
CONTINUOUS
 62
3
 10
20.23957283
 20
18.89043862
 30
0.00000000
 11
20.23957283
 21
18.55343468
 31
0.00000000
  0
LINE
  8
CAPA_1
  6
CONTINUOUS
 62
3
 10
20.76769488
 20
20.85429295
 30
0.00000000
 11
20.86744685
 21
20.85429295
 31
0.00000000
  0
LINE
  8
CAPA_1
  6
CONTINUOUS
 62
3
 10
20.86744685
 20
20.85429295
 30
0.00000000
 11
20.86744685
 21
20.73316697
 31
0.00000000
  0
LINE
  8
CAPA_1
  6
CONTINUOUS
 62
3
 10
20.86744685
 20
20.73316697
 30
0.00000000
 11
21.01350984
 21
20.73316697
 31
0.00000000
  0
LINE
  8
CAPA_1
  6
CONTINUOUS
 62
3
 10
21.01350984
 20
20.73316697
 30
0.00000000
 11
21.01350984
 21
20.85429295
 31
0.00000000
  0
LINE
  8
CAPA_1
  6
CONTINUOUS
 62
3
 10
21.01350984
 20
20.85429295
 30
0.00000000
 11
21.42319488
 21
20.85429295
 31
0.00000000
  0
ARC
  8
CAPA_1
  6
CONTINUOUS
 62
3
 10
21.26757211
 20
20.58296598
 30
0.00000000
 40
0.31278870
 50
372.60586374
 51
60.16306725
  0
LINE
  8
CAPA_1
  6
CONTINUOUS
 62
3
 10
21.57282087
 20
20.65122996
 30
0.00000000
 11
21.15244291
 21
20.65122996
 31
0.00000000
  0
LINE
  8
CAPA_1
  6
CONTINUOUS
 62
3
 10
21.15244291
 20
20.65122996
 30
0.00000000
 11
21.15244291
 21
20.44816697
 31
0.00000000
  0
LINE
  8
CAPA_1
  6
CONTINUOUS
 62
3
 10
21.15244291
 20
20.44816697
 30
0.00000000
 11
21.65119882
 21
20.44816697
 31
0.00000000
  0
LINE
  8
CAPA_1
  6
CONTINUOUS
 62
3
 10
20.33663189
 20
20.42322602
 30
0.00000000
 11
20.76769488
 21
20.85429295
 31
0.00000000
  0
LINE
  8
CAPA_1
  6
CONTINUOUS
 62
3
 10
20.76769488
 20
19.67937563
 30
0.00000000
 11
20.86744685
 21
19.67937563
 31
0.00000000
  0
LINE
  8
CAPA_1
  6
CONTINUOUS
 62
3
 10
20.86744685
 20
19.67937563
 30
0.00000000
 11
20.86744685
 21
19.80050161
 31
0.00000000
  0
LINE
  8
CAPA_1
  6
CONTINUOUS
 62
3
 10
20.86744685
 20
19.80050161
 30
0.00000000
 11
21.01350984
 21
19.80050161
 31
0.00000000
  0
LINE
  8
CAPA_1
  6
CONTINUOUS
 62
3
 10
21.01350984
 20
19.80050161
 30
0.00000000
 11
21.01350984
 21
19.67937563
 31
0.00000000
  0
LINE
  8
CAPA_1
  6
CONTINUOUS
 62
3
 10
21.01350984
 20
19.67937563
 30
0.00000000
 11
21.42319488
 21
19.67937563
 31
0.00000000
  0
ARC
  8
CAPA_1
  6
CONTINUOUS
 62
3
 10
21.26757379
 20
19.95070004
 30
0.00000000
 40
0.31278565
 50
299.83689981
 51
347.39523019
  0
LINE
  8
CAPA_1
  6
CONTINUOUS
 62
3
 10
21.57282087
 20
19.88244256
 30
0.00000000
 11
21.15244291
 21
19.88244256
 31
0.00000000
  0
LINE
  8
CAPA_1
  6
CONTINUOUS
 62
3
 10
21.15244291
 20
19.88244256
 30
0.00000000
 11
21.15244291
 21
20.08550161
 31
0.00000000
  0
LINE
  8
CAPA_1
  6
CONTINUOUS
 62
3
 10
21.15244291
 20
20.08550161
 30
0.00000000
 11
21.65119882
 21
20.08550161
 31
0.00000000
  0
LINE
  8
CAPA_1
  6
CONTINUOUS
 62
3
 10
20.33663189
 20
20.11044256
 30
0.00000000
 11
20.76769488
 21
19.67937563
 31
0.00000000
  0
ARC
  8
CAPA_1
  6
CONTINUOUS
 62
3
 10
21.41899900
 20
20.26683429
 30
0.00000000
 40
0.29461551
 50
322.01252145
 51
37.98747855
  0
ARC
  8
CAPA_1
  6
CONTINUOUS
 62
3
 10
20.64421853
 20
20.26683429
 30
0.00000000
 40
0.34506219
 50
153.04904255
 51
206.95095745
   0
ENDSEC
   0
EOF
