  0
SECTION
  2
HEADER
  9
$ACADVER
  1
AC1021
  9
$ACADMAINTVER
 70
    25
  9
$DWGCODEPAGE
  3
ANSI_1251
  9
$INSBASE
 10
0.0
 20
0.0
 30
0.0
  9
$EXTMIN
 10
-13.77531
 20
-1.32635
 30
0.0
  9
$EXTMAX
 10
13.96487
 20
9.20812
 30
0.0
  9
$LIMMIN
 10
0.0
 20
0.0
  9
$LIMMAX
 10
12.0
 20
9.0
  9
$ORTHOMODE
 70
     0
  9
$REGENMODE
 70
     1
  9
$FILLMODE
 70
     1
  9
$QTEXTMODE
 70
     0
  9
$MIRRTEXT
 70
     1
  9
$LTSCALE
 40
1.0
  9
$ATTMODE
 70
     1
  9
$TEXTSIZE
 40
0.2
  9
$TRACEWID
 40
0.05
  9
$TEXTSTYLE
  7
Standard
  9
$CLAYER
  8
0
  9
$CELTYPE
  6
ByLayer
  9
$CECOLOR
 62
   256
  9
$CELTSCALE
 40
1.0
  9
$DISPSILH
 70
     0
  9
$DIMSCALE
 40
1.0
  9
$DIMASZ
 40
0.18
  9
$DIMEXO
 40
0.0625
  9
$DIMDLI
 40
0.38
  9
$DIMRND
 40
0.0
  9
$DIMDLE
 40
0.0
  9
$DIMEXE
 40
0.18
  9
$DIMTP
 40
0.0
  9
$DIMTM
 40
0.0
  9
$DIMTXT
 40
0.18
  9
$DIMCEN
 40
0.09
  9
$DIMTSZ
 40
0.0
  9
$DIMTOL
 70
     0
  9
$DIMLIM
 70
     0
  9
$DIMTIH
 70
     1
  9
$DIMTOH
 70
     1
  9
$DIMSE1
 70
     0
  9
$DIMSE2
 70
     0
  9
$DIMTAD
 70
     0
  9
$DIMZIN
 70
     0
  9
$DIMBLK
  1

  9
$DIMASO
 70
     1
  9
$DIMSHO
 70
     1
  9
$DIMPOST
  1

  9
$DIMAPOST
  1

  9
$DIMALT
 70
     0
  9
$DIMALTD
 70
     2
  9
$DIMALTF
 40
25.4
  9
$DIMLFAC
 40
1.0
  9
$DIMTOFL
 70
     0
  9
$DIMTVP
 40
0.0
  9
$DIMTIX
 70
     0
  9
$DIMSOXD
 70
     0
  9
$DIMSAH
 70
     0
  9
$DIMBLK1
  1

  9
$DIMBLK2
  1

  9
$DIMSTYLE
  2
Standard
  9
$DIMCLRD
 70
     0
  9
$DIMCLRE
 70
     0
  9
$DIMCLRT
 70
     0
  9
$DIMTFAC
 40
1.0
  9
$DIMGAP
 40
0.09
  9
$DIMJUST
 70
     0
  9
$DIMSD1
 70
     0
  9
$DIMSD2
 70
     0
  9
$DIMTOLJ
 70
     1
  9
$DIMTZIN
 70
     0
  9
$DIMALTZ
 70
     0
  9
$DIMALTTZ
 70
     0
  9
$DIMUPT
 70
     0
  9
$DIMDEC
 70
     4
  9
$DIMTDEC
 70
     4
  9
$DIMALTU
 70
     2
  9
$DIMALTTD
 70
     2
  9
$DIMTXSTY
  7
Standard
  9
$DIMAUNIT
 70
     0
  9
$DIMADEC
 70
     0
  9
$DIMALTRND
 40
0.0
  9
$DIMAZIN
 70
     0
  9
$DIMDSEP
 70
    46
  9
$DIMATFIT
 70
     3
  9
$DIMFRAC
 70
     0
  9
$DIMLDRBLK
  1

  9
$DIMLUNIT
 70
     2
  9
$DIMLWD
 70
    -2
  9
$DIMLWE
 70
    -2
  9
$DIMTMOVE
 70
     0
  9
$DIMFXL
 40
1.0
  9
$DIMFXLON
 70
     0
  9
$DIMJOGANG
 40
0.7853981633974483
  9
$DIMTFILL
 70
     0
  9
$DIMTFILLCLR
 70
     0
  9
$DIMARCSYM
 70
     0
  9
$DIMLTYPE
  6

  9
$DIMLTEX1
  6

  9
$DIMLTEX2
  6

  9
$LUNITS
 70
     2
  9
$LUPREC
 70
     4
  9
$SKETCHINC
 40
0.1
  9
$FILLETRAD
 40
0.5
  9
$AUNITS
 70
     0
  9
$AUPREC
 70
     0
  9
$MENU
  1
.
  9
$ELEVATION
 40
0.0
  9
$PELEVATION
 40
0.0
  9
$THICKNESS
 40
0.0
  9
$LIMCHECK
 70
     0
  9
$CHAMFERA
 40
0.5
  9
$CHAMFERB
 40
0.5
  9
$CHAMFERC
 40
1.0
  9
$CHAMFERD
 40
0.0
  9
$SKPOLY
 70
     0
  9
$TDCREATE
 40
2456014.639811204
  9
$TDUCREATE
 40
2456014.473144537
  9
$TDUPDATE
 40
2456014.639811215
  9
$TDUUPDATE
 40
2456014.473144548
  9
$TDINDWG
 40
0.0000000116
  9
$TDUSRTIMER
 40
0.0000000116
  9
$USRTIMER
 70
     1
  9
$ANGBASE
 50
0.0
  9
$ANGDIR
 70
     0
  9
$PDMODE
 70
     0
  9
$PDSIZE
 40
0.0
  9
$PLINEWID
 40
0.0
  9
$SPLFRAME
 70
     0
  9
$SPLINETYPE
 70
     6
  9
$SPLINESEGS
 70
     8
  9
$HANDSEED
  5
7F
  9
$SURFTAB1
 70
     6
  9
$SURFTAB2
 70
     6
  9
$SURFTYPE
 70
     6
  9
$SURFU
 70
     6
  9
$SURFV
 70
     6
  9
$UCSBASE
  2

  9
$UCSNAME
  2

  9
$UCSORG
 10
0.0
 20
0.0
 30
0.0
  9
$UCSXDIR
 10
1.0
 20
0.0
 30
0.0
  9
$UCSYDIR
 10
0.0
 20
1.0
 30
0.0
  9
$UCSORTHOREF
  2

  9
$UCSORTHOVIEW
 70
     0
  9
$UCSORGTOP
 10
0.0
 20
0.0
 30
0.0
  9
$UCSORGBOTTOM
 10
0.0
 20
0.0
 30
0.0
  9
$UCSORGLEFT
 10
0.0
 20
0.0
 30
0.0
  9
$UCSORGRIGHT
 10
0.0
 20
0.0
 30
0.0
  9
$UCSORGFRONT
 10
0.0
 20
0.0
 30
0.0
  9
$UCSORGBACK
 10
0.0
 20
0.0
 30
0.0
  9
$PUCSBASE
  2

  9
$PUCSNAME
  2

  9
$PUCSORG
 10
0.0
 20
0.0
 30
0.0
  9
$PUCSXDIR
 10
1.0
 20
0.0
 30
0.0
  9
$PUCSYDIR
 10
0.0
 20
1.0
 30
0.0
  9
$PUCSORTHOREF
  2

  9
$PUCSORTHOVIEW
 70
     0
  9
$PUCSORGTOP
 10
0.0
 20
0.0
 30
0.0
  9
$PUCSORGBOTTOM
 10
0.0
 20
0.0
 30
0.0
  9
$PUCSORGLEFT
 10
0.0
 20
0.0
 30
0.0
  9
$PUCSORGRIGHT
 10
0.0
 20
0.0
 30
0.0
  9
$PUCSORGFRONT
 10
0.0
 20
0.0
 30
0.0
  9
$PUCSORGBACK
 10
0.0
 20
0.0
 30
0.0
  9
$USERI1
 70
     0
  9
$USERI2
 70
     0
  9
$USERI3
 70
     0
  9
$USERI4
 70
     0
  9
$USERI5
 70
     0
  9
$USERR1
 40
0.0
  9
$USERR2
 40
0.0
  9
$USERR3
 40
0.0
  9
$USERR4
 40
0.0
  9
$USERR5
 40
0.0
  9
$WORLDVIEW
 70
     1
  9
$SHADEDGE
 70
     3
  9
$SHADEDIF
 70
    70
  9
$TILEMODE
 70
     1
  9
$MAXACTVP
 70
    64
  9
$PINSBASE
 10
0.0
 20
0.0
 30
0.0
  9
$PLIMCHECK
 70
     0
  9
$PEXTMIN
 10
1.000000000000000E 20
 20
1.000000000000000E 20
 30
1.000000000000000E 20
  9
$PEXTMAX
 10
-1.000000000000000E 20
 20
-1.000000000000000E 20
 30
-1.000000000000000E 20
  9
$PLIMMIN
 10
0.0
 20
0.0
  9
$PLIMMAX
 10
12.0
 20
9.0
  9
$UNITMODE
 70
     0
  9
$VISRETAIN
 70
     1
  9
$PLINEGEN
 70
     0
  9
$PSLTSCALE
 70
     1
  9
$TREEDEPTH
 70
  3020
  9
$CMLSTYLE
  2
Standard
  9
$CMLJUST
 70
     0
  9
$CMLSCALE
 40
1.0
  9
$PROXYGRAPHICS
 70
     1
  9
$MEASUREMENT
 70
     0
  9
$CELWEIGHT
370
    -1
  9
$ENDCAPS
280
     0
  9
$JOINSTYLE
280
     0
  9
$LWDISPLAY
290
     0
  9
$INSUNITS
 70
     5
  9
$HYPERLINKBASE
  1

  9
$STYLESHEET
  1

  9
$XEDIT
290
     1
  9
$CEPSNTYPE
380
     0
  9
$PSTYLEMODE
290
     1
  9
$FINGERPRINTGUID
  2
{CF598DB4-269C-453B-ABC3-39ECF69BF45F}
  9
$VERSIONGUID
  2
{FAEB1C32-E019-11D5-929B-00C0DF256EC4}
  9
$EXTNAMES
290
     1
  9
$PSVPSCALE
 40
0.0
  9
$OLESTARTUP
290
     0
  9
$SORTENTS
280
   127
  9
$INDEXCTL
280
     0
  9
$HIDETEXT
280
     1
  9
$XCLIPFRAME
290
     0
  9
$HALOGAP
280
     0
  9
$OBSCOLOR
 70
   257
  9
$OBSLTYPE
280
     0
  9
$INTERSECTIONDISPLAY
280
     0
  9
$INTERSECTIONCOLOR
 70
   257
  9
$DIMASSOC
280
     2
  9
$PROJECTNAME
  1

  9
$CAMERADISPLAY
290
     0
  9
$LENSLENGTH
 40
50.0
  9
$CAMERAHEIGHT
 40
0.0
  9
$STEPSPERSEC
 40
2.0
  9
$STEPSIZE
 40
6.0
  9
$3DDWFPREC
 40
2.0
  9
$PSOLWIDTH
 40
0.25
  9
$PSOLHEIGHT
 40
4.0
  9
$LOFTANG1
 40
1.570796326794897
  9
$LOFTANG2
 40
1.570796326794897
  9
$LOFTMAG1
 40
0.0
  9
$LOFTMAG2
 40
0.0
  9
$LOFTPARAM
 70
     7
  9
$LOFTNORMALS
280
     1
  9
$LATITUDE
 40
37.795
  9
$LONGITUDE
 40
-122.394
  9
$NORTHDIRECTION
 40
0.0
  9
$TIMEZONE
 70
 -8000
  9
$LIGHTGLYPHDISPLAY
280
     1
  9
$TILEMODELIGHTSYNCH
280
     1
  9
$SOLIDHIST
280
     1
  9
$SHOWHIST
280
     1
  9
$DWFFRAME
280
     2
  9
$DGNFRAME
280
     2
  9
$REALWORLDSCALE
290
     1
  9
$INTERFERECOLOR
 62
   256
  9
$CSHADOW
280
     0
  9
$SHADOWPLANELOCATION
 40
0.0
  0
ENDSEC
  0
SECTION
  2
CLASSES
  0
CLASS
  1
ACDBDICTIONARYWDFLT
  2
AcDbDictionaryWithDefault
  3
ObjectDBX Classes
 90
        0
 91
        4
280
     0
281
     0
  0
CLASS
  1
VISUALSTYLE
  2
AcDbVisualStyle
  3
ObjectDBX Classes
 90
     4095
 91
        4
280
     0
281
     0
  0
CLASS
  1
MATERIAL
  2
AcDbMaterial
  3
ObjectDBX Classes
 90
     1153
 91
        4
280
     0
281
     0
  0
ENDSEC
  0
SECTION
  2
TABLES
  0
TABLE
  2
VPORT
  5
8
330
0
100
AcDbSymbolTable
 70
     1
  0
VPORT
  5
29
330
8
100
AcDbSymbolTableRecord
100
AcDbViewportTableRecord
  2
*Active
 70
     0
 10
0.0
 20
0.0
 11
1.0
 21
1.0
 12
10.42990654205607
 22
4.5
 13
0.0
 23
0.0
 14
0.5
 24
0.5
 15
0.5
 25
0.5
 16
0.0
 26
0.0
 36
1.0
 17
0.0
 27
0.0
 37
0.0
 40
9.0
 41
1.972972972850329
 42
50.0
 43
0.0
 44
0.0
 50
0.0
 51
0.0
 71
     0
 72
   100
 73
     1
 74
     3
 75
     0
 76
     0
 77
     0
 78
     0
281
     0
 65
     1
110
0.0
120
0.0
130
0.0
111
1.0
121
0.0
131
0.0
112
0.0
122
1.0
132
0.0
 79
     0
146
0.0
 60
     3
 61
     5
292
     1
282
     1
141
0.0
142
0.0
 63
   250
  0
ENDTAB
  0
TABLE
  2
LTYPE
  5
5
330
0
100
AcDbSymbolTable
 70
     1
  0
LTYPE
  5
14
330
5
100
AcDbSymbolTableRecord
100
AcDbLinetypeTableRecord
  2
ByBlock
 70
     0
  3

 72
    65
 73
     0
 40
0.0
  0
LTYPE
  5
15
330
5
100
AcDbSymbolTableRecord
100
AcDbLinetypeTableRecord
  2
ByLayer
 70
     0
  3

 72
    65
 73
     0
 40
0.0
  0
LTYPE
  5
16
330
5
100
AcDbSymbolTableRecord
100
AcDbLinetypeTableRecord
  2
Continuous
 70
     0
  3
Solid line
 72
    65
 73
     0
 40
0.0
  0
ENDTAB
  0
TABLE
  2
LAYER
  5
2
330
0
100
AcDbSymbolTable
 70
     2
  0
LAYER
  5
10
330
2
100
AcDbSymbolTableRecord
100
AcDbLayerTableRecord
  2
0
 70
     0
 62
     7
  6
Continuous
370
    -3
390
F
347
3E
  0
LAYER
  5
40
330
2
100
AcDbSymbolTableRecord
100
AcDbLayerTableRecord
  2
layer 1
 70
     0
 62
     7
  6
Continuous
370
    -3
390
F
347
3E
  0
ENDTAB
  0
TABLE
  2
STYLE
  5
3
330
0
100
AcDbSymbolTable
 70
     1
  0
STYLE
  5
11
330
3
100
AcDbSymbolTableRecord
100
AcDbTextStyleTableRecord
  2
Standard
 70
     0
 40
0.0
 41
1.0
 50
0.0
 71
     0
 42
0.2
  3
txt
  4

  0
ENDTAB
  0
TABLE
  2
VIEW
  5
6
330
0
100
AcDbSymbolTable
 70
     0
  0
ENDTAB
  0
TABLE
  2
UCS
  5
7
330
0
100
AcDbSymbolTable
 70
     0
  0
ENDTAB
  0
TABLE
  2
APPID
  5
9
330
0
100
AcDbSymbolTable
 70
     2
  0
APPID
  5
12
330
9
100
AcDbSymbolTableRecord
100
AcDbRegAppTableRecord
  2
ACAD
 70
     0
  0
APPID
  5
3F
330
9
100
AcDbSymbolTableRecord
100
AcDbRegAppTableRecord
  2
ODA
 70
     0
  0
ENDTAB
  0
TABLE
  2
DIMSTYLE
  5
A
330
0
100
AcDbSymbolTable
 70
     1
100
AcDbDimStyleTable
  0
DIMSTYLE
105
27
330
A
100
AcDbSymbolTableRecord
100
AcDbDimStyleTableRecord
  2
Standard
 70
     0
178
     0
340
11
  0
ENDTAB
  0
TABLE
  2
BLOCK_RECORD
  5
1
330
0
100
AcDbSymbolTable
 70
     1
  0
BLOCK_RECORD
  5
1F
330
1
100
AcDbSymbolTableRecord
100
AcDbBlockTableRecord
  2
*Model_Space
340
22
 70
     0
280
     1
281
     0
  0
BLOCK_RECORD
  5
1B
330
1
100
AcDbSymbolTableRecord
100
AcDbBlockTableRecord
  2
*Paper_Space
340
1E
 70
     0
280
     1
281
     0
  0
BLOCK_RECORD
  5
23
330
1
100
AcDbSymbolTableRecord
100
AcDbBlockTableRecord
  2
*Paper_Space0
340
26
 70
     0
280
     1
281
     0
  0
ENDTAB
  0
ENDSEC
  0
SECTION
  2
BLOCKS
  0
BLOCK
  5
20
330
1F
100
AcDbEntity
  8
0
100
AcDbBlockBegin
  2
*Model_Space
 70
     0
 10
0.0
 20
0.0
 30
0.0
  3
*Model_Space
  1

  0
ENDBLK
  5
21
330
1F
100
AcDbEntity
  8
0
100
AcDbBlockEnd
  0
BLOCK
  5
1C
330
1B
100
AcDbEntity
 67
     1
  8
0
100
AcDbBlockBegin
  2
*Paper_Space
 70
     0
 10
0.0
 20
0.0
 30
0.0
  3
*Paper_Space
  1

  0
ENDBLK
  5
1D
330
1B
100
AcDbEntity
 67
     1
  8
0
100
AcDbBlockEnd
  0
BLOCK
  5
24
330
23
100
AcDbEntity
  8
0
100
AcDbBlockBegin
  2
*Paper_Space0
 70
     0
 10
0.0
 20
0.0
 30
0.0
  3
*Paper_Space0
  1

  0
ENDBLK
  5
25
330
23
100
AcDbEntity
  8
0
100
AcDbBlockEnd
  0
ENDSEC
  0
SECTION
  2
ENTITIES
  0
SPLINE
  5
41
330
1F
100
AcDbEntity
  8
layer 1
 62
   250
370
     9
100
AcDbSpline
210
0.0
220
0.0
230
1.0
 70
    11
 71
     3
 72
    28
 73
    24
 74
     0
 42
0.0000000001
 43
0.0000000001
 40
0.0
 40
0.0
 40
0.0
 40
0.0
 40
0.1428571428571428
 40
0.1428571428571428
 40
0.1428571428571428
 40
0.1428571428571428
 40
0.2857142857142857
 40
0.2857142857142857
 40
0.2857142857142857
 40
0.2857142857142857
 40
0.4285714285714285
 40
0.4285714285714285
 40
0.4285714285714285
 40
0.4285714285714285
 40
0.5714285714285714
 40
0.5714285714285714
 40
0.5714285714285714
 40
0.5714285714285714
 40
0.7142857142857143
 40
0.7142857142857143
 40
0.7142857142857143
 40
0.7142857142857143
 40
1.0
 40
1.0
 40
1.0
 40
1.0
 10
0.09478
 20
3.29976
 30
0.0
 10
-0.18922
 20
3.29317
 30
0.0
 10
-0.81292
 20
3.76704
 30
0.0
 10
-0.91757
 20
4.56127
 30
0.0
 10
-0.91757
 20
4.56127
 30
0.0
 10
-0.71832
 20
4.67196
 30
0.0
 10
-0.51138
 20
4.69193
 30
0.0
 10
-0.35689
 20
4.5482
 30
0.0
 10
-0.35689
 20
4.5482
 30
0.0
 10
-0.29798
 20
4.72562
 30
0.0
 10
-0.13435
 20
4.88991
 30
0.0
 10
0.09478
 20
4.88991
 30
0.0
 10
0.09478
 20
4.88991
 30
0.0
 10
0.32391
 20
4.88991
 30
0.0
 10
0.48754
 20
4.72562
 30
0.0
 10
0.54645
 20
4.5482
 30
0.0
 10
0.54645
 20
4.5482
 30
0.0
 10
0.70094
 20
4.69193
 30
0.0
 10
0.90788
 20
4.67196
 30
0.0
 10
1.10713
 20
4.56127
 30
0.0
 10
1.10713
 20
4.56127
 30
0.0
 10
1.00248
 20
3.76704
 30
0.0
 10
0.37878
 20
3.29317
 30
0.0
 10
0.09478
 20
3.29976
 30
0.0
  0
SPLINE
  5
42
330
1F
100
AcDbEntity
  8
layer 1
 62
   250
370
     9
100
AcDbSpline
210
0.0
220
0.0
230
1.0
 70
    11
 71
     3
 72
    12
 73
     8
 74
     0
 42
0.0000000001
 43
0.0000000001
 40
0.0
 40
0.0
 40
0.0
 40
0.0
 40
0.3333333333333333
 40
0.3333333333333333
 40
0.3333333333333333
 40
0.3333333333333333
 40
1.0
 40
1.0
 40
1.0
 40
1.0
 10
-4.1973
 20
1.04376
 30
0.0
 10
-4.56313
 20
1.72317
 30
0.0
 10
-5.67384
 20
2.7031
 30
0.0
 10
-5.94822
 20
2.35033
 30
0.0
 10
-5.94822
 20
2.35033
 30
0.0
 10
-6.2226
 20
1.99755
 30
0.0
 10
-4.9943
 20
1.16135
 30
0.0
 10
-4.1973
 20
1.04376
 30
0.0
  0
SPLINE
  5
43
330
1F
100
AcDbEntity
  8
layer 1
 62
   250
370
     9
100
AcDbSpline
210
0.0
220
0.0
230
1.0
 70
    11
 71
     3
 72
    24
 73
    20
 74
     0
 42
0.0000000001
 43
0.0000000001
 40
0.0
 40
0.0
 40
0.0
 40
0.0
 40
0.1666666666666667
 40
0.1666666666666667
 40
0.1666666666666667
 40
0.1666666666666667
 40
0.3333333333333333
 40
0.3333333333333333
 40
0.3333333333333333
 40
0.3333333333333333
 40
0.5
 40
0.5
 40
0.5
 40
0.5
 40
0.6666666666666666
 40
0.6666666666666666
 40
0.6666666666666666
 40
0.6666666666666666
 40
1.0
 40
1.0
 40
1.0
 40
1.0
 10
-6.58584
 20
2.17007
 30
0.0
 10
-6.69937
 20
2.36381
 30
0.0
 10
-6.88229
 20
2.71659
 30
0.0
 10
-7.1828
 20
2.86031
 30
0.0
 10
-7.1828
 20
2.86031
 30
0.0
 10
-6.68546
 20
3.00161
 30
0.0
 10
-6.46365
 20
3.34761
 30
0.0
 10
-6.41792
 20
3.85131
 30
0.0
 10
-6.41792
 20
3.85131
 30
0.0
 10
-6.05184
 20
3.63584
 30
0.0
 10
-6.02685
 20
3.23782
 30
0.0
 10
-5.97145
 20
2.97373
 30
0.0
 10
-5.97145
 20
2.97373
 30
0.0
 10
-6.14959
 20
2.93695
 30
0.0
 10
-6.30849
 20
2.83769
 30
0.0
 10
-6.43643
 20
2.66033
 30
0.0
 10
-6.43643
 20
2.66033
 30
0.0
 10
-6.54694
 20
2.50717
 30
0.0
 10
-6.5911
 20
2.32704
 30
0.0
 10
-6.58584
 20
2.17007
 30
0.0
  0
SPLINE
  5
44
330
1F
100
AcDbEntity
  8
layer 1
 62
   250
370
     9
100
AcDbSpline
210
0.0
220
0.0
230
1.0
 70
    11
 71
     3
 72
   260
 73
   256
 74
     0
 42
0.0000000001
 43
0.0000000001
 40
0.0
 40
0.0
 40
0.0
 40
0.0
 40
0.0153846153846154
 40
0.0153846153846154
 40
0.0153846153846154
 40
0.0153846153846154
 40
0.0307692307692308
 40
0.0307692307692308
 40
0.0307692307692308
 40
0.0307692307692308
 40
0.0461538461538462
 40
0.0461538461538462
 40
0.0461538461538462
 40
0.0461538461538462
 40
0.0615384615384615
 40
0.0615384615384615
 40
0.0615384615384615
 40
0.0615384615384615
 40
0.0769230769230769
 40
0.0769230769230769
 40
0.0769230769230769
 40
0.0769230769230769
 40
0.0923076923076923
 40
0.0923076923076923
 40
0.0923076923076923
 40
0.0923076923076923
 40
0.1076923076923077
 40
0.1076923076923077
 40
0.1076923076923077
 40
0.1076923076923077
 40
0.1230769230769231
 40
0.1230769230769231
 40
0.1230769230769231
 40
0.1230769230769231
 40
0.1384615384615385
 40
0.1384615384615385
 40
0.1384615384615385
 40
0.1384615384615385
 40
0.1538461538461539
 40
0.1538461538461539
 40
0.1538461538461539
 40
0.1538461538461539
 40
0.1692307692307692
 40
0.1692307692307692
 40
0.1692307692307692
 40
0.1692307692307692
 40
0.1846153846153846
 40
0.1846153846153846
 40
0.1846153846153846
 40
0.1846153846153846
 40
0.2
 40
0.2
 40
0.2
 40
0.2
 40
0.2153846153846154
 40
0.2153846153846154
 40
0.2153846153846154
 40
0.2153846153846154
 40
0.2307692307692308
 40
0.2307692307692308
 40
0.2307692307692308
 40
0.2307692307692308
 40
0.2461538461538462
 40
0.2461538461538462
 40
0.2461538461538462
 40
0.2461538461538462
 40
0.2615384615384616
 40
0.2615384615384616
 40
0.2615384615384616
 40
0.2615384615384616
 40
0.2769230769230769
 40
0.2769230769230769
 40
0.2769230769230769
 40
0.2769230769230769
 40
0.2923076923076923
 40
0.2923076923076923
 40
0.2923076923076923
 40
0.2923076923076923
 40
0.3076923076923077
 40
0.3076923076923077
 40
0.3076923076923077
 40
0.3076923076923077
 40
0.3230769230769231
 40
0.3230769230769231
 40
0.3230769230769231
 40
0.3230769230769231
 40
0.3384615384615385
 40
0.3384615384615385
 40
0.3384615384615385
 40
0.3384615384615385
 40
0.3538461538461539
 40
0.3538461538461539
 40
0.3538461538461539
 40
0.3538461538461539
 40
0.3692307692307693
 40
0.3692307692307693
 40
0.3692307692307693
 40
0.3692307692307693
 40
0.3846153846153846
 40
0.3846153846153846
 40
0.3846153846153846
 40
0.3846153846153846
 40
0.4
 40
0.4
 40
0.4
 40
0.4
 40
0.4153846153846154
 40
0.4153846153846154
 40
0.4153846153846154
 40
0.4153846153846154
 40
0.4307692307692308
 40
0.4307692307692308
 40
0.4307692307692308
 40
0.4307692307692308
 40
0.4461538461538462
 40
0.4461538461538462
 40
0.4461538461538462
 40
0.4461538461538462
 40
0.4615384615384616
 40
0.4615384615384616
 40
0.4615384615384616
 40
0.4615384615384616
 40
0.4769230769230769
 40
0.4769230769230769
 40
0.4769230769230769
 40
0.4769230769230769
 40
0.4923076923076923
 40
0.4923076923076923
 40
0.4923076923076923
 40
0.4923076923076923
 40
0.5076923076923077
 40
0.5076923076923077
 40
0.5076923076923077
 40
0.5076923076923077
 40
0.5230769230769231
 40
0.5230769230769231
 40
0.5230769230769231
 40
0.5230769230769231
 40
0.5384615384615384
 40
0.5384615384615384
 40
0.5384615384615384
 40
0.5384615384615384
 40
0.5538461538461539
 40
0.5538461538461539
 40
0.5538461538461539
 40
0.5538461538461539
 40
0.5692307692307692
 40
0.5692307692307692
 40
0.5692307692307692
 40
0.5692307692307692
 40
0.5846153846153846
 40
0.5846153846153846
 40
0.5846153846153846
 40
0.5846153846153846
 40
0.6
 40
0.6
 40
0.6
 40
0.6
 40
0.6153846153846154
 40
0.6153846153846154
 40
0.6153846153846154
 40
0.6153846153846154
 40
0.6307692307692307
 40
0.6307692307692307
 40
0.6307692307692307
 40
0.6307692307692307
 40
0.6461538461538462
 40
0.6461538461538462
 40
0.6461538461538462
 40
0.6461538461538462
 40
0.6615384615384615
 40
0.6615384615384615
 40
0.6615384615384615
 40
0.6615384615384615
 40
0.676923076923077
 40
0.676923076923077
 40
0.676923076923077
 40
0.676923076923077
 40
0.6923076923076923
 40
0.6923076923076923
 40
0.6923076923076923
 40
0.6923076923076923
 40
0.7076923076923077
 40
0.7076923076923077
 40
0.7076923076923077
 40
0.7076923076923077
 40
0.7230769230769231
 40
0.7230769230769231
 40
0.7230769230769231
 40
0.7230769230769231
 40
0.7384615384615385
 40
0.7384615384615385
 40
0.7384615384615385
 40
0.7384615384615385
 40
0.7538461538461538
 40
0.7538461538461538
 40
0.7538461538461538
 40
0.7538461538461538
 40
0.7692307692307693
 40
0.7692307692307693
 40
0.7692307692307693
 40
0.7692307692307693
 40
0.7846153846153846
 40
0.7846153846153846
 40
0.7846153846153846
 40
0.7846153846153846
 40
0.8
 40
0.8
 40
0.8
 40
0.8
 40
0.8153846153846154
 40
0.8153846153846154
 40
0.8153846153846154
 40
0.8153846153846154
 40
0.8307692307692308
 40
0.8307692307692308
 40
0.8307692307692308
 40
0.8307692307692308
 40
0.8461538461538461
 40
0.8461538461538461
 40
0.8461538461538461
 40
0.8461538461538461
 40
0.8615384615384616
 40
0.8615384615384616
 40
0.8615384615384616
 40
0.8615384615384616
 40
0.8769230769230769
 40
0.8769230769230769
 40
0.8769230769230769
 40
0.8769230769230769
 40
0.8923076923076924
 40
0.8923076923076924
 40
0.8923076923076924
 40
0.8923076923076924
 40
0.9076923076923077
 40
0.9076923076923077
 40
0.9076923076923077
 40
0.9076923076923077
 40
0.9230769230769231
 40
0.9230769230769231
 40
0.9230769230769231
 40
0.9230769230769231
 40
0.9384615384615385
 40
0.9384615384615385
 40
0.9384615384615385
 40
0.9384615384615385
 40
0.9538461538461539
 40
0.9538461538461539
 40
0.9538461538461539
 40
0.9538461538461539
 40
0.9692307692307692
 40
0.9692307692307692
 40
0.9692307692307692
 40
0.9692307692307692
 40
1.0
 40
1.0
 40
1.0
 40
1.0
 10
0.09478
 20
-1.31635
 30
0.0
 10
0.09478
 20
-1.31635
 30
0.0
 10
-0.10732
 20
-1.31635
 30
0.0
 10
-0.10732
 20
-1.31635
 30
0.0
 10
-0.10732
 20
-1.31635
 30
0.0
 10
-0.35605
 20
-0.9934
 30
0.0
 10
-0.5674
 20
-1.31635
 30
0.0
 10
-0.75891
 20
-0.87871
 30
0.0
 10
-0.75891
 20
-0.87871
 30
0.0
 10
-0.53261
 20
-0.67281
 30
0.0
 10
-0.51834
 20
-0.58824
 30
0.0
 10
-0.53872
 20
-0.32058
 30
0.0
 10
-0.53872
 20
-0.32058
 30
0.0
 10
-1.17894
 20
-0.93466
 30
0.0
 10
-2.30931
 20
-1.16392
 30
0.0
 10
-3.48522
 20
-0.31465
 30
0.0
 10
-3.48522
 20
-0.31465
 30
0.0
 10
-7.65117
 20
-2.0735
 30
0.0
 10
-9.90597
 20
-1.10924
 30
0.0
 10
-10.25415
 20
0.04278
 30
0.0
 10
-10.25415
 20
0.04278
 30
0.0
 10
-10.78845
 20
0.33041
 30
0.0
 10
-12.27497
 20
0.67985
 30
0.0
 10
-12.0563
 20
-0.31465
 30
0.0
 10
-12.0563
 20
-0.31465
 30
0.0
 10
-11.34102
 20
-0.17111
 30
0.0
 10
-11.36273
 20
-0.9934
 30
0.0
 10
-11.7994
 20
-1.1869
 30
0.0
 10
-11.7994
 20
-1.1869
 30
0.0
 10
-12.22428
 20
-1.37515
 30
0.0
 10
-12.83649
 20
-1.31635
 30
0.0
 10
-12.76185
 20
-0.62823
 30
0.0
 10
-12.76185
 20
-0.62823
 30
0.0
 10
-13.04929
 20
-1.09296
 30
0.0
 10
-13.44828
 20
-0.82439
 30
0.0
 10
-13.75484
 20
-0.60209
 30
0.0
 10
-13.75484
 20
-0.60209
 30
0.0
 10
-12.40315
 20
-0.05745
 30
0.0
 10
-12.69507
 20
1.59633
 30
0.0
 10
-10.43616
 20
0.75674
 30
0.0
 10
-10.43616
 20
0.75674
 30
0.0
 10
-10.51455
 20
1.35776
 30
0.0
 10
-10.23158
 20
3.07166
 30
0.0
 10
-8.63309
 20
3.29148
 30
0.0
 10
-8.63309
 20
3.29148
 30
0.0
 10
-7.0346
 20
3.5113
 30
0.0
 10
-6.8039
 20
3.396
 30
0.0
 10
-6.77777
 20
3.86637
 30
0.0
 10
-6.77777
 20
3.86637
 30
0.0
 10
-7.50842
 20
3.91216
 30
0.0
 10
-7.19587
 20
4.99002
 30
0.0
 10
-6.45113
 20
4.66337
 30
0.0
 10
-6.45113
 20
4.66337
 30
0.0
 10
-5.70638
 20
4.33673
 30
0.0
 10
-5.69035
 20
3.43671
 30
0.0
 10
-5.65321
 20
2.97929
 30
0.0
 10
-5.65321
 20
2.97929
 30
0.0
 10
-5.54233
 20
2.9632
 30
0.0
 10
-5.42722
 20
2.92999
 30
0.0
 10
-5.31024
 20
2.88269
 30
0.0
 10
-5.31024
 20
2.88269
 30
0.0
 10
-5.51947
 20
3.12429
 30
0.0
 10
-5.41228
 20
3.76916
 30
0.0
 10
-4.68726
 20
3.57892
 30
0.0
 10
-4.68726
 20
3.57892
 30
0.0
 10
-4.55793
 20
3.5511
 30
0.0
 10
-4.48287
 20
3.71841
 30
0.0
 10
-4.52037
 20
3.82203
 30
0.0
 10
-4.52037
 20
3.82203
 30
0.0
 10
-4.62356
 20
4.09726
 30
0.0
 10
-4.65441
 20
4.24219
 30
0.0
 10
-4.66113
 20
4.53272
 30
0.0
 10
-4.66113
 20
4.53272
 30
0.0
 10
-4.84405
 20
4.3106
 30
0.0
 10
-5.06616
 20
4.06235
 30
0.0
 10
-5.35361
 20
4.07542
 30
0.0
 10
-5.35361
 20
4.07542
 30
0.0
 10
-5.64105
 20
4.08848
 30
0.0
 10
-5.95463
 20
4.61111
 30
0.0
 10
-5.45813
 20
5.01615
 30
0.0
 10
-5.45813
 20
5.01615
 30
0.0
 10
-5.481
 20
4.74171
 30
0.0
 10
-5.03035
 20
4.62853
 30
0.0
 10
-4.92589
 20
4.99697
 30
0.0
 10
-4.92589
 20
4.99697
 30
0.0
 10
-4.63119
 20
6.03606
 30
0.0
 10
-3.88898
 20
6.40807
 30
0.0
 10
-3.07359
 20
6.48954
 30
0.0
 10
-3.07359
 20
6.48954
 30
0.0
 10
-3.20424
 20
6.82925
 30
0.0
 10
-3.06034
 20
7.23078
 30
0.0
 10
-2.54388
 20
7.31468
 30
0.0
 10
-2.54388
 20
7.31468
 30
0.0
 10
-2.56366
 20
7.02723
 30
0.0
 10
-2.36707
 20
6.59008
 30
0.0
 10
-2.05422
 20
6.5637
 30
0.0
 10
-2.05422
 20
6.5637
 30
0.0
 10
-1.53117
 20
6.54417
 30
0.0
 10
-0.82145
 20
6.19738
 30
0.0
 10
-0.44261
 20
5.4902
 30
0.0
 10
-0.44261
 20
5.4902
 30
0.0
 10
-0.44261
 20
5.4902
 30
0.0
 10
-0.43136
 20
6.30185
 30
0.0
 10
-0.43136
 20
6.30185
 30
0.0
 10
-0.43136
 20
6.30185
 30
0.0
 10
-0.48338
 20
6.62879
 30
0.0
 10
-0.76689
 20
7.08101
 30
0.0
 10
-1.30325
 20
7.10666
 30
0.0
 10
-1.30325
 20
7.10666
 30
0.0
 10
-0.89803
 20
7.59257
 30
0.0
 10
-0.64325
 20
7.3151
 30
0.0
 10
-0.54544
 20
7.53782
 30
0.0
 10
-0.54544
 20
7.53782
 30
0.0
 10
-0.74142
 20
7.55089
 30
0.0
 10
-0.84595
 20
7.66848
 30
0.0
 10
-0.96354
 20
7.82527
 30
0.0
 10
-0.96354
 20
7.82527
 30
0.0
 10
-0.58445
 20
7.85793
 30
0.0
 10
-0.49263
 20
7.98369
 30
0.0
 10
-0.33639
 20
8.11271
 30
0.0
 10
-0.33639
 20
8.11271
 30
0.0
 10
-0.7283
 20
8.13243
 30
0.0
 10
-0.72394
 20
8.48684
 30
0.0
 10
-0.49257
 20
8.64974
 30
0.0
 10
-0.49257
 20
8.64974
 30
0.0
 10
-0.2612
 20
8.81263
 30
0.0
 10
-0.04834
 20
8.97946
 30
0.0
 10
0.09478
 20
9.19039
 30
0.0
 10
0.09478
 20
9.19039
 30
0.0
 10
0.2379
 20
8.97946
 30
0.0
 10
0.45076
 20
8.81263
 30
0.0
 10
0.68213
 20
8.64974
 30
0.0
 10
0.68213
 20
8.64974
 30
0.0
 10
0.9135
 20
8.48684
 30
0.0
 10
0.91786
 20
8.13243
 30
0.0
 10
0.52595
 20
8.11271
 30
0.0
 10
0.52595
 20
8.11271
 30
0.0
 10
0.68219
 20
7.98369
 30
0.0
 10
0.77401
 20
7.85793
 30
0.0
 10
1.1531
 20
7.82527
 30
0.0
 10
1.1531
 20
7.82527
 30
0.0
 10
1.03551
 20
7.66848
 30
0.0
 10
0.93098
 20
7.55089
 30
0.0
 10
0.735
 20
7.53782
 30
0.0
 10
0.735
 20
7.53782
 30
0.0
 10
0.83281
 20
7.3151
 30
0.0
 10
1.08759
 20
7.59257
 30
0.0
 10
1.49281
 20
7.10666
 30
0.0
 10
1.49281
 20
7.10666
 30
0.0
 10
0.95645
 20
7.08101
 30
0.0
 10
0.67294
 20
6.62879
 30
0.0
 10
0.62092
 20
6.30185
 30
0.0
 10
0.62092
 20
6.30185
 30
0.0
 10
0.62092
 20
6.30185
 30
0.0
 10
0.63217
 20
5.4902
 30
0.0
 10
0.63217
 20
5.4902
 30
0.0
 10
0.63217
 20
5.4902
 30
0.0
 10
1.01101
 20
6.19738
 30
0.0
 10
1.72073
 20
6.54417
 30
0.0
 10
2.24378
 20
6.5637
 30
0.0
 10
2.24378
 20
6.5637
 30
0.0
 10
2.55663
 20
6.59008
 30
0.0
 10
2.75322
 20
7.02723
 30
0.0
 10
2.73344
 20
7.31468
 30
0.0
 10
2.73344
 20
7.31468
 30
0.0
 10
3.2499
 20
7.23078
 30
0.0
 10
3.3938
 20
6.82925
 30
0.0
 10
3.26315
 20
6.48954
 30
0.0
 10
3.26315
 20
6.48954
 30
0.0
 10
4.07854
 20
6.40807
 30
0.0
 10
4.82074
 20
6.03606
 30
0.0
 10
5.11545
 20
4.99697
 30
0.0
 10
5.11545
 20
4.99697
 30
0.0
 10
5.21991
 20
4.62853
 30
0.0
 10
5.67056
 20
4.74171
 30
0.0
 10
5.64769
 20
5.01615
 30
0.0
 10
5.64769
 20
5.01615
 30
0.0
 10
6.14419
 20
4.61111
 30
0.0
 10
5.83061
 20
4.08848
 30
0.0
 10
5.54317
 20
4.07542
 30
0.0
 10
5.54317
 20
4.07542
 30
0.0
 10
5.25572
 20
4.06235
 30
0.0
 10
5.03361
 20
4.3106
 30
0.0
 10
4.85069
 20
4.53272
 30
0.0
 10
4.85069
 20
4.53272
 30
0.0
 10
4.84397
 20
4.24219
 30
0.0
 10
4.81312
 20
4.09726
 30
0.0
 10
4.70993
 20
3.82203
 30
0.0
 10
4.70993
 20
3.82203
 30
0.0
 10
4.67242
 20
3.71841
 30
0.0
 10
4.74749
 20
3.5511
 30
0.0
 10
4.87682
 20
3.57892
 30
0.0
 10
4.87682
 20
3.57892
 30
0.0
 10
5.60184
 20
3.76916
 30
0.0
 10
5.70903
 20
3.12429
 30
0.0
 10
5.4998
 20
2.88269
 30
0.0
 10
5.4998
 20
2.88269
 30
0.0
 10
5.61678
 20
2.92999
 30
0.0
 10
5.73189
 20
2.9632
 30
0.0
 10
5.84277
 20
2.97929
 30
0.0
 10
5.84277
 20
2.97929
 30
0.0
 10
5.87991
 20
3.43671
 30
0.0
 10
5.89594
 20
4.33673
 30
0.0
 10
6.64068
 20
4.66337
 30
0.0
 10
6.64068
 20
4.66337
 30
0.0
 10
7.38543
 20
4.99002
 30
0.0
 10
7.69798
 20
3.91216
 30
0.0
 10
6.96733
 20
3.86637
 30
0.0
 10
6.96733
 20
3.86637
 30
0.0
 10
6.99346
 20
3.396
 30
0.0
 10
7.22416
 20
3.5113
 30
0.0
 10
8.82265
 20
3.29148
 30
0.0
 10
8.82265
 20
3.29148
 30
0.0
 10
10.42114
 20
3.07166
 30
0.0
 10
10.70411
 20
1.35776
 30
0.0
 10
10.62572
 20
0.75674
 30
0.0
 10
10.62572
 20
0.75674
 30
0.0
 10
12.88463
 20
1.59633
 30
0.0
 10
12.59271
 20
-0.05745
 30
0.0
 10
13.9444
 20
-0.60209
 30
0.0
 10
13.9444
 20
-0.60209
 30
0.0
 10
13.63784
 20
-0.82439
 30
0.0
 10
13.23885
 20
-1.09296
 30
0.0
 10
12.95141
 20
-0.62823
 30
0.0
 10
12.95141
 20
-0.62823
 30
0.0
 10
13.02605
 20
-1.31635
 30
0.0
 10
12.41384
 20
-1.37515
 30
0.0
 10
11.98896
 20
-1.1869
 30
0.0
 10
11.98896
 20
-1.1869
 30
0.0
 10
11.55229
 20
-0.9934
 30
0.0
 10
11.53058
 20
-0.17111
 30
0.0
 10
12.24586
 20
-0.31465
 30
0.0
 10
12.24586
 20
-0.31465
 30
0.0
 10
12.46453
 20
0.67985
 30
0.0
 10
10.97801
 20
0.33041
 30
0.0
 10
10.4437
 20
0.04278
 30
0.0
 10
10.4437
 20
0.04278
 30
0.0
 10
10.09553
 20
-1.10924
 30
0.0
 10
7.84073
 20
-2.0735
 30
0.0
 10
3.67478
 20
-0.31465
 30
0.0
 10
3.67478
 20
-0.31465
 30
0.0
 10
2.49886
 20
-1.16392
 30
0.0
 10
1.3685
 20
-0.93466
 30
0.0
 10
0.72828
 20
-0.32058
 30
0.0
 10
0.72828
 20
-0.32058
 30
0.0
 10
0.7079
 20
-0.58824
 30
0.0
 10
0.72217
 20
-0.67281
 30
0.0
 10
0.94846
 20
-0.87871
 30
0.0
 10
0.94846
 20
-0.87871
 30
0.0
 10
0.75696
 20
-1.31635
 30
0.0
 10
0.54561
 20
-0.9934
 30
0.0
 10
0.29687
 20
-1.31635
 30
0.0
 10
0.29687
 20
-1.31635
 30
0.0
 10
0.29687
 20
-1.31635
 30
0.0
 10
0.09478
 20
-1.31635
 30
0.0
 10
0.09478
 20
-1.31635
 30
0.0
  0
SPLINE
  5
45
330
1F
100
AcDbEntity
  8
layer 1
 62
   250
370
     9
100
AcDbSpline
210
0.0
220
0.0
230
1.0
 70
    11
 71
     3
 72
    16
 73
    12
 74
     0
 42
0.0000000001
 43
0.0000000001
 40
0.0
 40
0.0
 40
0.0
 40
0.0
 40
0.25
 40
0.25
 40
0.25
 40
0.25
 40
0.5
 40
0.5
 40
0.5
 40
0.5
 40
1.0
 40
1.0
 40
1.0
 40
1.0
 10
-3.81863
 20
3.8282
 30
0.0
 10
-3.42666
 20
3.56689
 30
0.0
 10
-2.93646
 20
3.42213
 30
0.0
 10
-2.54449
 20
3.68345
 30
0.0
 10
-2.54449
 20
3.68345
 30
0.0
 10
-2.4696
 20
2.61757
 30
0.0
 10
-3.13656
 20
2.39654
 30
0.0
 10
-3.25421
 20
2.70697
 30
0.0
 10
-3.25421
 20
2.70697
 30
0.0
 10
-3.40652
 20
3.10886
 30
0.0
 10
-3.83829
 20
3.40272
 30
0.0
 10
-3.81863
 20
3.8282
 30
0.0
  0
SPLINE
  5
46
330
1F
100
AcDbEntity
  8
layer 1
 62
   250
370
     9
100
AcDbSpline
210
0.0
220
0.0
230
1.0
 70
    11
 71
     3
 72
    24
 73
    20
 74
     0
 42
0.0000000001
 43
0.0000000001
 40
0.0
 40
0.0
 40
0.0
 40
0.0
 40
0.1666666666666667
 40
0.1666666666666667
 40
0.1666666666666667
 40
0.1666666666666667
 40
0.3333333333333333
 40
0.3333333333333333
 40
0.3333333333333333
 40
0.3333333333333333
 40
0.5
 40
0.5
 40
0.5
 40
0.5
 40
0.6666666666666666
 40
0.6666666666666666
 40
0.6666666666666666
 40
0.6666666666666666
 40
1.0
 40
1.0
 40
1.0
 40
1.0
 10
-6.28841
 20
1.52314
 30
0.0
 10
-5.77371
 20
0.89235
 30
0.0
 10
-4.72537
 20
0.39876
 30
0.0
 10
-4.30823
 20
0.38551
 30
0.0
 10
-4.30823
 20
0.38551
 30
0.0
 10
-9.13649
 20
-1.84339
 30
0.0
 10
-9.88794
 20
2.82002
 30
0.0
 10
-7.91878
 20
2.47366
 30
0.0
 10
-7.91878
 20
2.47366
 30
0.0
 10
-7.72382
 20
2.43937
 30
0.0
 10
-7.59286
 20
2.32637
 30
0.0
 10
-7.46323
 20
2.16136
 30
0.0
 10
-7.46323
 20
2.16136
 30
0.0
 10
-8.542
 20
1.94009
 30
0.0
 10
-8.4117
 20
0.85781
 30
0.0
 10
-7.85925
 20
0.49318
 30
0.0
 10
-7.85925
 20
0.49318
 30
0.0
 10
-7.32985
 20
0.14386
 30
0.0
 10
-6.01421
 20
0.47117
 30
0.0
 10
-6.28841
 20
1.52314
 30
0.0
  0
SPLINE
  5
47
330
1F
100
AcDbEntity
  8
layer 1
 62
   250
370
     9
100
AcDbSpline
210
0.0
220
0.0
230
1.0
 70
    11
 71
     3
 72
    44
 73
    40
 74
     0
 42
0.0000000001
 43
0.0000000001
 40
0.0
 40
0.0
 40
0.0
 40
0.0
 40
0.0909090909090909
 40
0.0909090909090909
 40
0.0909090909090909
 40
0.0909090909090909
 40
0.1818181818181818
 40
0.1818181818181818
 40
0.1818181818181818
 40
0.1818181818181818
 40
0.2727272727272727
 40
0.2727272727272727
 40
0.2727272727272727
 40
0.2727272727272727
 40
0.3636363636363636
 40
0.3636363636363636
 40
0.3636363636363636
 40
0.3636363636363636
 40
0.4545454545454545
 40
0.4545454545454545
 40
0.4545454545454545
 40
0.4545454545454545
 40
0.5454545454545454
 40
0.5454545454545454
 40
0.5454545454545454
 40
0.5454545454545454
 40
0.6363636363636364
 40
0.6363636363636364
 40
0.6363636363636364
 40
0.6363636363636364
 40
0.7272727272727273
 40
0.7272727272727273
 40
0.7272727272727273
 40
0.7272727272727273
 40
0.8181818181818182
 40
0.8181818181818182
 40
0.8181818181818182
 40
0.8181818181818182
 40
1.0
 40
1.0
 40
1.0
 40
1.0
 10
-4.92123
 20
2.67999
 30
0.0
 10
-4.52926
 20
2.62059
 30
0.0
 10
-4.34634
 20
2.82498
 30
0.0
 10
-4.25168
 20
3.44663
 30
0.0
 10
-4.25168
 20
3.44663
 30
0.0
 10
-4.09174
 20
3.11364
 30
0.0
 10
-3.43943
 20
2.77756
 30
0.0
 10
-3.48522
 20
1.82812
 30
0.0
 10
-3.48522
 20
1.82812
 30
0.0
 10
-3.17164
 20
1.80199
 30
0.0
 10
-2.85806
 20
2.08944
 30
0.0
 10
-2.8058
 20
2.37688
 30
0.0
 10
-2.8058
 20
2.37688
 30
0.0
 10
-2.25704
 20
2.49447
 30
0.0
 10
-2.23091
 20
3.00403
 30
0.0
 10
-2.23091
 20
3.28591
 30
0.0
 10
-2.23091
 20
3.28591
 30
0.0
 10
-1.78668
 20
3.50246
 30
0.0
 10
-1.95653
 20
3.94476
 30
0.0
 10
-2.07412
 20
4.15381
 30
0.0
 10
-2.07412
 20
4.15381
 30
0.0
 10
-1.62989
 20
4.57191
 30
0.0
 10
-2.08066
 20
5.0424
 30
0.0
 10
-2.41698
 20
5.07833
 30
0.0
 10
-2.41698
 20
5.07833
 30
0.0
 10
-2.7533
 20
5.11426
 30
0.0
 10
-2.81227
 20
4.80365
 30
0.0
 10
-3.2239
 20
4.85936
 30
0.0
 10
-3.2239
 20
4.85936
 30
0.0
 10
-2.845
 20
6.1398
 30
0.0
 10
-1.13339
 20
5.69556
 30
0.0
 10
-1.21179
 20
4.17994
 30
0.0
 10
-1.21179
 20
4.17994
 30
0.0
 10
-1.29018
 20
2.66433
 30
0.0
 10
-2.86472
 20
1.35758
 30
0.0
 10
-3.33508
 20
0.93947
 30
0.0
 10
-3.33508
 20
0.93947
 30
0.0
 10
-3.63487
 20
1.53941
 30
0.0
 10
-4.2746
 20
2.27278
 30
0.0
 10
-4.92123
 20
2.67999
 30
0.0
  0
SPLINE
  5
48
330
1F
100
AcDbEntity
  8
layer 1
 62
   250
370
     9
100
AcDbSpline
210
0.0
220
0.0
230
1.0
 70
    11
 71
     3
 72
    32
 73
    28
 74
     0
 42
0.0000000001
 43
0.0000000001
 40
0.0
 40
0.0
 40
0.0
 40
0.0
 40
0.125
 40
0.125
 40
0.125
 40
0.125
 40
0.25
 40
0.25
 40
0.25
 40
0.25
 40
0.375
 40
0.375
 40
0.375
 40
0.375
 40
0.5
 40
0.5
 40
0.5
 40
0.5
 40
0.625
 40
0.625
 40
0.625
 40
0.625
 40
0.75
 40
0.75
 40
0.75
 40
0.75
 40
1.0
 40
1.0
 40
1.0
 40
1.0
 10
-2.58387
 20
0.11694
 30
0.0
 10
-1.99591
 20
0.69183
 30
0.0
 10
-0.87208
 20
2.05024
 30
0.0
 10
-0.53237
 20
2.74272
 30
0.0
 10
-0.53237
 20
2.74272
 30
0.0
 10
-0.47182
 20
2.85275
 30
0.0
 10
-0.40637
 20
2.83478
 30
0.0
 10
-0.40172
 20
2.599
 30
0.0
 10
-0.40172
 20
2.599
 30
0.0
 10
-0.40172
 20
2.599
 30
0.0
 10
-0.40172
 20
0.49542
 30
0.0
 10
-0.40172
 20
0.49542
 30
0.0
 10
-0.40172
 20
0.49542
 30
0.0
 10
-0.64996
 20
0.58688
 30
0.0
 10
-0.8523
 20
0.92665
 30
0.0
 10
-0.8523
 20
1.14877
 30
0.0
 10
-0.8523
 20
1.14877
 30
0.0
 10
-1.05506
 20
0.99978
 30
0.0
 10
-1.12033
 20
0.87433
 30
0.0
 10
-1.055
 20
0.63915
 30
0.0
 10
-1.055
 20
0.63915
 30
0.0
 10
-1.41745
 20
0.76297
 30
0.0
 10
-1.99585
 20
0.30234
 30
0.0
 10
-1.42084
 20
-0.28852
 30
0.0
 10
-1.42084
 20
-0.28852
 30
0.0
 10
-1.77385
 20
-0.32753
 30
0.0
 10
-2.25722
 20
-0.22246
 30
0.0
 10
-2.58387
 20
0.11694
 30
0.0
  0
SPLINE
  5
49
330
1F
100
AcDbEntity
  8
layer 1
 62
   250
370
     9
100
AcDbSpline
210
0.0
220
0.0
230
1.0
 70
    11
 71
     3
 72
    12
 73
     8
 74
     0
 42
0.0000000001
 43
0.0000000001
 40
0.0
 40
0.0
 40
0.0
 40
0.0
 40
0.3333333333333333
 40
0.3333333333333333
 40
0.3333333333333333
 40
0.3333333333333333
 40
1.0
 40
1.0
 40
1.0
 40
1.0
 10
4.38686
 20
1.04376
 30
0.0
 10
4.75269
 20
1.72317
 30
0.0
 10
5.8634
 20
2.7031
 30
0.0
 10
6.13778
 20
2.35033
 30
0.0
 10
6.13778
 20
2.35033
 30
0.0
 10
6.41216
 20
1.99755
 30
0.0
 10
5.18386
 20
1.16135
 30
0.0
 10
4.38686
 20
1.04376
 30
0.0
  0
SPLINE
  5
4A
330
1F
100
AcDbEntity
  8
layer 1
 62
   250
370
     9
100
AcDbSpline
210
0.0
220
0.0
230
1.0
 70
    11
 71
     3
 72
    24
 73
    20
 74
     0
 42
0.0000000001
 43
0.0000000001
 40
0.0
 40
0.0
 40
0.0
 40
0.0
 40
0.1666666666666667
 40
0.1666666666666667
 40
0.1666666666666667
 40
0.1666666666666667
 40
0.3333333333333333
 40
0.3333333333333333
 40
0.3333333333333333
 40
0.3333333333333333
 40
0.5
 40
0.5
 40
0.5
 40
0.5
 40
0.6666666666666666
 40
0.6666666666666666
 40
0.6666666666666666
 40
0.6666666666666666
 40
1.0
 40
1.0
 40
1.0
 40
1.0
 10
6.77539
 20
2.17007
 30
0.0
 10
6.88893
 20
2.36381
 30
0.0
 10
7.07185
 20
2.71659
 30
0.0
 10
7.37236
 20
2.86031
 30
0.0
 10
7.37236
 20
2.86031
 30
0.0
 10
6.87502
 20
3.00161
 30
0.0
 10
6.65321
 20
3.34761
 30
0.0
 10
6.60748
 20
3.85131
 30
0.0
 10
6.60748
 20
3.85131
 30
0.0
 10
6.2414
 20
3.63584
 30
0.0
 10
6.21641
 20
3.23782
 30
0.0
 10
6.161
 20
2.97373
 30
0.0
 10
6.161
 20
2.97373
 30
0.0
 10
6.33915
 20
2.93695
 30
0.0
 10
6.49805
 20
2.83769
 30
0.0
 10
6.62599
 20
2.66033
 30
0.0
 10
6.62599
 20
2.66033
 30
0.0
 10
6.7365
 20
2.50717
 30
0.0
 10
6.78066
 20
2.32704
 30
0.0
 10
6.77539
 20
2.17007
 30
0.0
  0
SPLINE
  5
4B
330
1F
100
AcDbEntity
  8
layer 1
 62
   250
370
     9
100
AcDbSpline
210
0.0
220
0.0
230
1.0
 70
    11
 71
     3
 72
    16
 73
    12
 74
     0
 42
0.0000000001
 43
0.0000000001
 40
0.0
 40
0.0
 40
0.0
 40
0.0
 40
0.25
 40
0.25
 40
0.25
 40
0.25
 40
0.5
 40
0.5
 40
0.5
 40
0.5
 40
1.0
 40
1.0
 40
1.0
 40
1.0
 10
4.00819
 20
3.8282
 30
0.0
 10
3.61622
 20
3.56689
 30
0.0
 10
3.12602
 20
3.42213
 30
0.0
 10
2.73405
 20
3.68345
 30
0.0
 10
2.73405
 20
3.68345
 30
0.0
 10
2.65916
 20
2.61757
 30
0.0
 10
3.32612
 20
2.39654
 30
0.0
 10
3.44377
 20
2.70697
 30
0.0
 10
3.44377
 20
2.70697
 30
0.0
 10
3.59608
 20
3.10886
 30
0.0
 10
4.02785
 20
3.40272
 30
0.0
 10
4.00819
 20
3.8282
 30
0.0
  0
SPLINE
  5
4C
330
1F
100
AcDbEntity
  8
layer 1
 62
   250
370
     9
100
AcDbSpline
210
0.0
220
0.0
230
1.0
 70
    11
 71
     3
 72
    24
 73
    20
 74
     0
 42
0.0000000001
 43
0.0000000001
 40
0.0
 40
0.0
 40
0.0
 40
0.0
 40
0.1666666666666667
 40
0.1666666666666667
 40
0.1666666666666667
 40
0.1666666666666667
 40
0.3333333333333333
 40
0.3333333333333333
 40
0.3333333333333333
 40
0.3333333333333333
 40
0.5
 40
0.5
 40
0.5
 40
0.5
 40
0.6666666666666666
 40
0.6666666666666666
 40
0.6666666666666666
 40
0.6666666666666666
 40
1.0
 40
1.0
 40
1.0
 40
1.0
 10
6.47797
 20
1.52314
 30
0.0
 10
5.96327
 20
0.89235
 30
0.0
 10
4.91493
 20
0.39876
 30
0.0
 10
4.49779
 20
0.38551
 30
0.0
 10
4.49779
 20
0.38551
 30
0.0
 10
9.32604
 20
-1.84339
 30
0.0
 10
10.0775
 20
2.82002
 30
0.0
 10
8.10834
 20
2.47366
 30
0.0
 10
8.10834
 20
2.47366
 30
0.0
 10
7.91338
 20
2.43937
 30
0.0
 10
7.78242
 20
2.32637
 30
0.0
 10
7.65279
 20
2.16136
 30
0.0
 10
7.65279
 20
2.16136
 30
0.0
 10
8.73156
 20
1.94009
 30
0.0
 10
8.60126
 20
0.85781
 30
0.0
 10
8.04881
 20
0.49318
 30
0.0
 10
8.04881
 20
0.49318
 30
0.0
 10
7.51941
 20
0.14386
 30
0.0
 10
6.20377
 20
0.47117
 30
0.0
 10
6.47797
 20
1.52314
 30
0.0
  0
SPLINE
  5
4D
330
1F
100
AcDbEntity
  8
layer 1
 62
   250
370
     9
100
AcDbSpline
210
0.0
220
0.0
230
1.0
 70
    11
 71
     3
 72
    44
 73
    40
 74
     0
 42
0.0000000001
 43
0.0000000001
 40
0.0
 40
0.0
 40
0.0
 40
0.0
 40
0.0909090909090909
 40
0.0909090909090909
 40
0.0909090909090909
 40
0.0909090909090909
 40
0.1818181818181818
 40
0.1818181818181818
 40
0.1818181818181818
 40
0.1818181818181818
 40
0.2727272727272727
 40
0.2727272727272727
 40
0.2727272727272727
 40
0.2727272727272727
 40
0.3636363636363636
 40
0.3636363636363636
 40
0.3636363636363636
 40
0.3636363636363636
 40
0.4545454545454545
 40
0.4545454545454545
 40
0.4545454545454545
 40
0.4545454545454545
 40
0.5454545454545454
 40
0.5454545454545454
 40
0.5454545454545454
 40
0.5454545454545454
 40
0.6363636363636364
 40
0.6363636363636364
 40
0.6363636363636364
 40
0.6363636363636364
 40
0.7272727272727273
 40
0.7272727272727273
 40
0.7272727272727273
 40
0.7272727272727273
 40
0.8181818181818182
 40
0.8181818181818182
 40
0.8181818181818182
 40
0.8181818181818182
 40
1.0
 40
1.0
 40
1.0
 40
1.0
 10
5.11079
 20
2.67999
 30
0.0
 10
4.71882
 20
2.62059
 30
0.0
 10
4.5359
 20
2.82498
 30
0.0
 10
4.44123
 20
3.44663
 30
0.0
 10
4.44123
 20
3.44663
 30
0.0
 10
4.2813
 20
3.11364
 30
0.0
 10
3.62899
 20
2.77756
 30
0.0
 10
3.67478
 20
1.82812
 30
0.0
 10
3.67478
 20
1.82812
 30
0.0
 10
3.3612
 20
1.80199
 30
0.0
 10
3.04762
 20
2.08944
 30
0.0
 10
2.99536
 20
2.37688
 30
0.0
 10
2.99536
 20
2.37688
 30
0.0
 10
2.4466
 20
2.49447
 30
0.0
 10
2.42047
 20
3.00403
 30
0.0
 10
2.42047
 20
3.28591
 30
0.0
 10
2.42047
 20
3.28591
 30
0.0
 10
1.97624
 20
3.50246
 30
0.0
 10
2.14609
 20
3.94476
 30
0.0
 10
2.26368
 20
4.15381
 30
0.0
 10
2.26368
 20
4.15381
 30
0.0
 10
1.81945
 20
4.57191
 30
0.0
 10
2.27022
 20
5.0424
 30
0.0
 10
2.60654
 20
5.07833
 30
0.0
 10
2.60654
 20
5.07833
 30
0.0
 10
2.94286
 20
5.11426
 30
0.0
 10
3.00183
 20
4.80365
 30
0.0
 10
3.41346
 20
4.85936
 30
0.0
 10
3.41346
 20
4.85936
 30
0.0
 10
3.03456
 20
6.1398
 30
0.0
 10
1.32295
 20
5.69556
 30
0.0
 10
1.40135
 20
4.17994
 30
0.0
 10
1.40135
 20
4.17994
 30
0.0
 10
1.47974
 20
2.66433
 30
0.0
 10
3.05428
 20
1.35758
 30
0.0
 10
3.52464
 20
0.93947
 30
0.0
 10
3.52464
 20
0.93947
 30
0.0
 10
3.82443
 20
1.53941
 30
0.0
 10
4.46416
 20
2.27278
 30
0.0
 10
5.11079
 20
2.67999
 30
0.0
  0
SPLINE
  5
4E
330
1F
100
AcDbEntity
  8
layer 1
 62
   250
370
     9
100
AcDbSpline
210
0.0
220
0.0
230
1.0
 70
    11
 71
     3
 72
    32
 73
    28
 74
     0
 42
0.0000000001
 43
0.0000000001
 40
0.0
 40
0.0
 40
0.0
 40
0.0
 40
0.125
 40
0.125
 40
0.125
 40
0.125
 40
0.25
 40
0.25
 40
0.25
 40
0.25
 40
0.375
 40
0.375
 40
0.375
 40
0.375
 40
0.5
 40
0.5
 40
0.5
 40
0.5
 40
0.625
 40
0.625
 40
0.625
 40
0.625
 40
0.75
 40
0.75
 40
0.75
 40
0.75
 40
1.0
 40
1.0
 40
1.0
 40
1.0
 10
2.77343
 20
0.11694
 30
0.0
 10
2.18547
 20
0.69183
 30
0.0
 10
1.06164
 20
2.05024
 30
0.0
 10
0.72193
 20
2.74272
 30
0.0
 10
0.72193
 20
2.74272
 30
0.0
 10
0.66138
 20
2.85275
 30
0.0
 10
0.59593
 20
2.83478
 30
0.0
 10
0.59128
 20
2.599
 30
0.0
 10
0.59128
 20
2.599
 30
0.0
 10
0.59128
 20
2.599
 30
0.0
 10
0.59128
 20
0.49542
 30
0.0
 10
0.59128
 20
0.49542
 30
0.0
 10
0.59128
 20
0.49542
 30
0.0
 10
0.83952
 20
0.58688
 30
0.0
 10
1.04186
 20
0.92665
 30
0.0
 10
1.04186
 20
1.14877
 30
0.0
 10
1.04186
 20
1.14877
 30
0.0
 10
1.24462
 20
0.99978
 30
0.0
 10
1.30989
 20
0.87433
 30
0.0
 10
1.24456
 20
0.63915
 30
0.0
 10
1.24456
 20
0.63915
 30
0.0
 10
1.60701
 20
0.76297
 30
0.0
 10
2.18541
 20
0.30234
 30
0.0
 10
1.6104
 20
-0.28852
 30
0.0
 10
1.6104
 20
-0.28852
 30
0.0
 10
1.96341
 20
-0.32753
 30
0.0
 10
2.44678
 20
-0.22246
 30
0.0
 10
2.77343
 20
0.11694
 30
0.0
  0
SPLINE
  5
4F
330
1F
100
AcDbEntity
  8
layer 1
 62
   254
370
    20
100
AcDbSpline
210
0.0
220
0.0
230
1.0
 70
    11
 71
     3
 72
    28
 73
    24
 74
     0
 42
0.0000000001
 43
0.0000000001
 40
0.0
 40
0.0
 40
0.0
 40
0.0
 40
0.1428571428571428
 40
0.1428571428571428
 40
0.1428571428571428
 40
0.1428571428571428
 40
0.2857142857142857
 40
0.2857142857142857
 40
0.2857142857142857
 40
0.2857142857142857
 40
0.4285714285714285
 40
0.4285714285714285
 40
0.4285714285714285
 40
0.4285714285714285
 40
0.5714285714285714
 40
0.5714285714285714
 40
0.5714285714285714
 40
0.5714285714285714
 40
0.7142857142857143
 40
0.7142857142857143
 40
0.7142857142857143
 40
0.7142857142857143
 40
1.0
 40
1.0
 40
1.0
 40
1.0
 10
0.09478
 20
3.29976
 30
0.0
 10
-0.18922
 20
3.29317
 30
0.0
 10
-0.81292
 20
3.76704
 30
0.0
 10
-0.91757
 20
4.56127
 30
0.0
 10
-0.91757
 20
4.56127
 30
0.0
 10
-0.71832
 20
4.67196
 30
0.0
 10
-0.51138
 20
4.69193
 30
0.0
 10
-0.35689
 20
4.5482
 30
0.0
 10
-0.35689
 20
4.5482
 30
0.0
 10
-0.29798
 20
4.72562
 30
0.0
 10
-0.13435
 20
4.88991
 30
0.0
 10
0.09478
 20
4.88991
 30
0.0
 10
0.09478
 20
4.88991
 30
0.0
 10
0.32391
 20
4.88991
 30
0.0
 10
0.48754
 20
4.72562
 30
0.0
 10
0.54645
 20
4.5482
 30
0.0
 10
0.54645
 20
4.5482
 30
0.0
 10
0.70094
 20
4.69193
 30
0.0
 10
0.90788
 20
4.67196
 30
0.0
 10
1.10713
 20
4.56127
 30
0.0
 10
1.10713
 20
4.56127
 30
0.0
 10
1.00248
 20
3.76704
 30
0.0
 10
0.37878
 20
3.29317
 30
0.0
 10
0.09478
 20
3.29976
 30
0.0
  0
SPLINE
  5
50
330
1F
100
AcDbEntity
  8
layer 1
 62
   254
370
    20
100
AcDbSpline
210
0.0
220
0.0
230
1.0
 70
    11
 71
     3
 72
    44
 73
    40
 74
     0
 42
0.0000000001
 43
0.0000000001
 40
0.0
 40
0.0
 40
0.0
 40
0.0
 40
0.0909090909090909
 40
0.0909090909090909
 40
0.0909090909090909
 40
0.0909090909090909
 40
0.1818181818181818
 40
0.1818181818181818
 40
0.1818181818181818
 40
0.1818181818181818
 40
0.2727272727272727
 40
0.2727272727272727
 40
0.2727272727272727
 40
0.2727272727272727
 40
0.3636363636363636
 40
0.3636363636363636
 40
0.3636363636363636
 40
0.3636363636363636
 40
0.4545454545454545
 40
0.4545454545454545
 40
0.4545454545454545
 40
0.4545454545454545
 40
0.5454545454545454
 40
0.5454545454545454
 40
0.5454545454545454
 40
0.5454545454545454
 40
0.6363636363636364
 40
0.6363636363636364
 40
0.6363636363636364
 40
0.6363636363636364
 40
0.7272727272727273
 40
0.7272727272727273
 40
0.7272727272727273
 40
0.7272727272727273
 40
0.8181818181818182
 40
0.8181818181818182
 40
0.8181818181818182
 40
0.8181818181818182
 40
1.0
 40
1.0
 40
1.0
 40
1.0
 10
-1.21179
 20
4.17994
 30
0.0
 10
-1.29018
 20
2.66433
 30
0.0
 10
-2.86472
 20
1.35758
 30
0.0
 10
-3.33508
 20
0.93947
 30
0.0
 10
-3.33508
 20
0.93947
 30
0.0
 10
-3.63487
 20
1.53941
 30
0.0
 10
-4.2746
 20
2.27278
 30
0.0
 10
-4.92123
 20
2.67999
 30
0.0
 10
-4.92123
 20
2.67999
 30
0.0
 10
-4.52926
 20
2.62059
 30
0.0
 10
-4.34634
 20
2.82498
 30
0.0
 10
-4.25168
 20
3.44663
 30
0.0
 10
-4.25168
 20
3.44663
 30
0.0
 10
-4.09174
 20
3.11364
 30
0.0
 10
-3.43943
 20
2.77756
 30
0.0
 10
-3.48522
 20
1.82812
 30
0.0
 10
-3.48522
 20
1.82812
 30
0.0
 10
-3.17164
 20
1.80199
 30
0.0
 10
-2.85806
 20
2.08944
 30
0.0
 10
-2.8058
 20
2.37688
 30
0.0
 10
-2.8058
 20
2.37688
 30
0.0
 10
-2.25704
 20
2.49447
 30
0.0
 10
-2.23091
 20
3.00403
 30
0.0
 10
-2.23091
 20
3.28591
 30
0.0
 10
-2.23091
 20
3.28591
 30
0.0
 10
-1.78668
 20
3.50246
 30
0.0
 10
-1.95653
 20
3.94476
 30
0.0
 10
-2.07412
 20
4.15381
 30
0.0
 10
-2.07412
 20
4.15381
 30
0.0
 10
-1.62989
 20
4.57191
 30
0.0
 10
-2.08066
 20
5.0424
 30
0.0
 10
-2.41698
 20
5.07833
 30
0.0
 10
-2.41698
 20
5.07833
 30
0.0
 10
-2.7533
 20
5.11426
 30
0.0
 10
-2.81227
 20
4.80365
 30
0.0
 10
-3.2239
 20
4.85936
 30
0.0
 10
-3.2239
 20
4.85936
 30
0.0
 10
-2.845
 20
6.1398
 30
0.0
 10
-1.13339
 20
5.69556
 30
0.0
 10
-1.21179
 20
4.17994
 30
0.0
  0
SPLINE
  5
51
330
1F
100
AcDbEntity
  8
layer 1
 62
   254
370
    20
100
AcDbSpline
210
0.0
220
0.0
230
1.0
 70
    11
 71
     3
 72
    12
 73
     8
 74
     0
 42
0.0000000001
 43
0.0000000001
 40
0.0
 40
0.0
 40
0.0
 40
0.0
 40
0.3333333333333333
 40
0.3333333333333333
 40
0.3333333333333333
 40
0.3333333333333333
 40
1.0
 40
1.0
 40
1.0
 40
1.0
 10
-5.94822
 20
2.35033
 30
0.0
 10
-5.67384
 20
2.7031
 30
0.0
 10
-4.56313
 20
1.72317
 30
0.0
 10
-4.1973
 20
1.04376
 30
0.0
 10
-4.1973
 20
1.04376
 30
0.0
 10
-4.9943
 20
1.16135
 30
0.0
 10
-6.2226
 20
1.99755
 30
0.0
 10
-5.94822
 20
2.35033
 30
0.0
  0
SPLINE
  5
52
330
1F
100
AcDbEntity
  8
layer 1
 62
   254
370
    20
100
AcDbSpline
210
0.0
220
0.0
230
1.0
 70
    11
 71
     3
 72
    24
 73
    20
 74
     0
 42
0.0000000001
 43
0.0000000001
 40
0.0
 40
0.0
 40
0.0
 40
0.0
 40
0.1666666666666667
 40
0.1666666666666667
 40
0.1666666666666667
 40
0.1666666666666667
 40
0.3333333333333333
 40
0.3333333333333333
 40
0.3333333333333333
 40
0.3333333333333333
 40
0.5
 40
0.5
 40
0.5
 40
0.5
 40
0.6666666666666666
 40
0.6666666666666666
 40
0.6666666666666666
 40
0.6666666666666666
 40
1.0
 40
1.0
 40
1.0
 40
1.0
 10
-6.43643
 20
2.66033
 30
0.0
 10
-6.54694
 20
2.50717
 30
0.0
 10
-6.5911
 20
2.32704
 30
0.0
 10
-6.58584
 20
2.17007
 30
0.0
 10
-6.58584
 20
2.17007
 30
0.0
 10
-6.69937
 20
2.36381
 30
0.0
 10
-6.88229
 20
2.71659
 30
0.0
 10
-7.1828
 20
2.86031
 30
0.0
 10
-7.1828
 20
2.86031
 30
0.0
 10
-6.68546
 20
3.00161
 30
0.0
 10
-6.46365
 20
3.34761
 30
0.0
 10
-6.41792
 20
3.85131
 30
0.0
 10
-6.41792
 20
3.85131
 30
0.0
 10
-6.05184
 20
3.63584
 30
0.0
 10
-6.02685
 20
3.23782
 30
0.0
 10
-5.97145
 20
2.97373
 30
0.0
 10
-5.97145
 20
2.97373
 30
0.0
 10
-6.14959
 20
2.93695
 30
0.0
 10
-6.30849
 20
2.83769
 30
0.0
 10
-6.43643
 20
2.66033
 30
0.0
  0
SPLINE
  5
53
330
1F
100
AcDbEntity
  8
layer 1
 62
   254
370
    20
100
AcDbSpline
210
0.0
220
0.0
230
1.0
 70
    11
 71
     3
 72
    32
 73
    28
 74
     0
 42
0.0000000001
 43
0.0000000001
 40
0.0
 40
0.0
 40
0.0
 40
0.0
 40
0.125
 40
0.125
 40
0.125
 40
0.125
 40
0.25
 40
0.25
 40
0.25
 40
0.25
 40
0.375
 40
0.375
 40
0.375
 40
0.375
 40
0.5
 40
0.5
 40
0.5
 40
0.5
 40
0.625
 40
0.625
 40
0.625
 40
0.625
 40
0.75
 40
0.75
 40
0.75
 40
0.75
 40
1.0
 40
1.0
 40
1.0
 40
1.0
 10
-2.58387
 20
0.11694
 30
0.0
 10
-1.99591
 20
0.69183
 30
0.0
 10
-0.87208
 20
2.05024
 30
0.0
 10
-0.53237
 20
2.74272
 30
0.0
 10
-0.53237
 20
2.74272
 30
0.0
 10
-0.47182
 20
2.85275
 30
0.0
 10
-0.40637
 20
2.83478
 30
0.0
 10
-0.40172
 20
2.599
 30
0.0
 10
-0.40172
 20
2.599
 30
0.0
 10
-0.40172
 20
2.599
 30
0.0
 10
-0.40172
 20
0.49542
 30
0.0
 10
-0.40172
 20
0.49542
 30
0.0
 10
-0.40172
 20
0.49542
 30
0.0
 10
-0.64996
 20
0.58688
 30
0.0
 10
-0.8523
 20
0.92665
 30
0.0
 10
-0.8523
 20
1.14877
 30
0.0
 10
-0.8523
 20
1.14877
 30
0.0
 10
-1.05506
 20
0.99978
 30
0.0
 10
-1.12033
 20
0.87433
 30
0.0
 10
-1.055
 20
0.63915
 30
0.0
 10
-1.055
 20
0.63915
 30
0.0
 10
-1.41745
 20
0.76297
 30
0.0
 10
-1.99585
 20
0.30234
 30
0.0
 10
-1.42084
 20
-0.28852
 30
0.0
 10
-1.42084
 20
-0.28852
 30
0.0
 10
-1.77385
 20
-0.32753
 30
0.0
 10
-2.25722
 20
-0.22246
 30
0.0
 10
-2.58387
 20
0.11694
 30
0.0
  0
SPLINE
  5
54
330
1F
100
AcDbEntity
  8
layer 1
 62
   254
370
    20
100
AcDbSpline
210
0.0
220
0.0
230
1.0
 70
    11
 71
     3
 72
   260
 73
   256
 74
     0
 42
0.0000000001
 43
0.0000000001
 40
0.0
 40
0.0
 40
0.0
 40
0.0
 40
0.0153846153846154
 40
0.0153846153846154
 40
0.0153846153846154
 40
0.0153846153846154
 40
0.0307692307692308
 40
0.0307692307692308
 40
0.0307692307692308
 40
0.0307692307692308
 40
0.0461538461538462
 40
0.0461538461538462
 40
0.0461538461538462
 40
0.0461538461538462
 40
0.0615384615384615
 40
0.0615384615384615
 40
0.0615384615384615
 40
0.0615384615384615
 40
0.0769230769230769
 40
0.0769230769230769
 40
0.0769230769230769
 40
0.0769230769230769
 40
0.0923076923076923
 40
0.0923076923076923
 40
0.0923076923076923
 40
0.0923076923076923
 40
0.1076923076923077
 40
0.1076923076923077
 40
0.1076923076923077
 40
0.1076923076923077
 40
0.1230769230769231
 40
0.1230769230769231
 40
0.1230769230769231
 40
0.1230769230769231
 40
0.1384615384615385
 40
0.1384615384615385
 40
0.1384615384615385
 40
0.1384615384615385
 40
0.1538461538461539
 40
0.1538461538461539
 40
0.1538461538461539
 40
0.1538461538461539
 40
0.1692307692307692
 40
0.1692307692307692
 40
0.1692307692307692
 40
0.1692307692307692
 40
0.1846153846153846
 40
0.1846153846153846
 40
0.1846153846153846
 40
0.1846153846153846
 40
0.2
 40
0.2
 40
0.2
 40
0.2
 40
0.2153846153846154
 40
0.2153846153846154
 40
0.2153846153846154
 40
0.2153846153846154
 40
0.2307692307692308
 40
0.2307692307692308
 40
0.2307692307692308
 40
0.2307692307692308
 40
0.2461538461538462
 40
0.2461538461538462
 40
0.2461538461538462
 40
0.2461538461538462
 40
0.2615384615384616
 40
0.2615384615384616
 40
0.2615384615384616
 40
0.2615384615384616
 40
0.2769230769230769
 40
0.2769230769230769
 40
0.2769230769230769
 40
0.2769230769230769
 40
0.2923076923076923
 40
0.2923076923076923
 40
0.2923076923076923
 40
0.2923076923076923
 40
0.3076923076923077
 40
0.3076923076923077
 40
0.3076923076923077
 40
0.3076923076923077
 40
0.3230769230769231
 40
0.3230769230769231
 40
0.3230769230769231
 40
0.3230769230769231
 40
0.3384615384615385
 40
0.3384615384615385
 40
0.3384615384615385
 40
0.3384615384615385
 40
0.3538461538461539
 40
0.3538461538461539
 40
0.3538461538461539
 40
0.3538461538461539
 40
0.3692307692307693
 40
0.3692307692307693
 40
0.3692307692307693
 40
0.3692307692307693
 40
0.3846153846153846
 40
0.3846153846153846
 40
0.3846153846153846
 40
0.3846153846153846
 40
0.4
 40
0.4
 40
0.4
 40
0.4
 40
0.4153846153846154
 40
0.4153846153846154
 40
0.4153846153846154
 40
0.4153846153846154
 40
0.4307692307692308
 40
0.4307692307692308
 40
0.4307692307692308
 40
0.4307692307692308
 40
0.4461538461538462
 40
0.4461538461538462
 40
0.4461538461538462
 40
0.4461538461538462
 40
0.4615384615384616
 40
0.4615384615384616
 40
0.4615384615384616
 40
0.4615384615384616
 40
0.4769230769230769
 40
0.4769230769230769
 40
0.4769230769230769
 40
0.4769230769230769
 40
0.4923076923076923
 40
0.4923076923076923
 40
0.4923076923076923
 40
0.4923076923076923
 40
0.5076923076923077
 40
0.5076923076923077
 40
0.5076923076923077
 40
0.5076923076923077
 40
0.5230769230769231
 40
0.5230769230769231
 40
0.5230769230769231
 40
0.5230769230769231
 40
0.5384615384615384
 40
0.5384615384615384
 40
0.5384615384615384
 40
0.5384615384615384
 40
0.5538461538461539
 40
0.5538461538461539
 40
0.5538461538461539
 40
0.5538461538461539
 40
0.5692307692307692
 40
0.5692307692307692
 40
0.5692307692307692
 40
0.5692307692307692
 40
0.5846153846153846
 40
0.5846153846153846
 40
0.5846153846153846
 40
0.5846153846153846
 40
0.6
 40
0.6
 40
0.6
 40
0.6
 40
0.6153846153846154
 40
0.6153846153846154
 40
0.6153846153846154
 40
0.6153846153846154
 40
0.6307692307692307
 40
0.6307692307692307
 40
0.6307692307692307
 40
0.6307692307692307
 40
0.6461538461538462
 40
0.6461538461538462
 40
0.6461538461538462
 40
0.6461538461538462
 40
0.6615384615384615
 40
0.6615384615384615
 40
0.6615384615384615
 40
0.6615384615384615
 40
0.676923076923077
 40
0.676923076923077
 40
0.676923076923077
 40
0.676923076923077
 40
0.6923076923076923
 40
0.6923076923076923
 40
0.6923076923076923
 40
0.6923076923076923
 40
0.7076923076923077
 40
0.7076923076923077
 40
0.7076923076923077
 40
0.7076923076923077
 40
0.7230769230769231
 40
0.7230769230769231
 40
0.7230769230769231
 40
0.7230769230769231
 40
0.7384615384615385
 40
0.7384615384615385
 40
0.7384615384615385
 40
0.7384615384615385
 40
0.7538461538461538
 40
0.7538461538461538
 40
0.7538461538461538
 40
0.7538461538461538
 40
0.7692307692307693
 40
0.7692307692307693
 40
0.7692307692307693
 40
0.7692307692307693
 40
0.7846153846153846
 40
0.7846153846153846
 40
0.7846153846153846
 40
0.7846153846153846
 40
0.8
 40
0.8
 40
0.8
 40
0.8
 40
0.8153846153846154
 40
0.8153846153846154
 40
0.8153846153846154
 40
0.8153846153846154
 40
0.8307692307692308
 40
0.8307692307692308
 40
0.8307692307692308
 40
0.8307692307692308
 40
0.8461538461538461
 40
0.8461538461538461
 40
0.8461538461538461
 40
0.8461538461538461
 40
0.8615384615384616
 40
0.8615384615384616
 40
0.8615384615384616
 40
0.8615384615384616
 40
0.8769230769230769
 40
0.8769230769230769
 40
0.8769230769230769
 40
0.8769230769230769
 40
0.8923076923076924
 40
0.8923076923076924
 40
0.8923076923076924
 40
0.8923076923076924
 40
0.9076923076923077
 40
0.9076923076923077
 40
0.9076923076923077
 40
0.9076923076923077
 40
0.9230769230769231
 40
0.9230769230769231
 40
0.9230769230769231
 40
0.9230769230769231
 40
0.9384615384615385
 40
0.9384615384615385
 40
0.9384615384615385
 40
0.9384615384615385
 40
0.9538461538461539
 40
0.9538461538461539
 40
0.9538461538461539
 40
0.9538461538461539
 40
0.9692307692307692
 40
0.9692307692307692
 40
0.9692307692307692
 40
0.9692307692307692
 40
1.0
 40
1.0
 40
1.0
 40
1.0
 10
-3.48522
 20
-0.31465
 30
0.0
 10
-2.30931
 20
-1.16392
 30
0.0
 10
-1.17894
 20
-0.93466
 30
0.0
 10
-0.53872
 20
-0.32058
 30
0.0
 10
-0.53872
 20
-0.32058
 30
0.0
 10
-0.51834
 20
-0.58824
 30
0.0
 10
-0.53261
 20
-0.67281
 30
0.0
 10
-0.75891
 20
-0.87871
 30
0.0
 10
-0.75891
 20
-0.87871
 30
0.0
 10
-0.5674
 20
-1.31635
 30
0.0
 10
-0.35605
 20
-0.9934
 30
0.0
 10
-0.10732
 20
-1.31635
 30
0.0
 10
-0.10732
 20
-1.31635
 30
0.0
 10
-0.10732
 20
-1.31635
 30
0.0
 10
0.09478
 20
-1.31635
 30
0.0
 10
0.09478
 20
-1.31635
 30
0.0
 10
0.09478
 20
-1.31635
 30
0.0
 10
0.09478
 20
-1.31635
 30
0.0
 10
0.29687
 20
-1.31635
 30
0.0
 10
0.29687
 20
-1.31635
 30
0.0
 10
0.29687
 20
-1.31635
 30
0.0
 10
0.54561
 20
-0.9934
 30
0.0
 10
0.75696
 20
-1.31635
 30
0.0
 10
0.94846
 20
-0.87871
 30
0.0
 10
0.94846
 20
-0.87871
 30
0.0
 10
0.72217
 20
-0.67281
 30
0.0
 10
0.7079
 20
-0.58824
 30
0.0
 10
0.72828
 20
-0.32058
 30
0.0
 10
0.72828
 20
-0.32058
 30
0.0
 10
1.3685
 20
-0.93466
 30
0.0
 10
2.49886
 20
-1.16392
 30
0.0
 10
3.67478
 20
-0.31465
 30
0.0
 10
3.67478
 20
-0.31465
 30
0.0
 10
7.84073
 20
-2.0735
 30
0.0
 10
10.09553
 20
-1.10924
 30
0.0
 10
10.4437
 20
0.04278
 30
0.0
 10
10.4437
 20
0.04278
 30
0.0
 10
10.97801
 20
0.33041
 30
0.0
 10
12.46453
 20
0.67985
 30
0.0
 10
12.24586
 20
-0.31465
 30
0.0
 10
12.24586
 20
-0.31465
 30
0.0
 10
11.53058
 20
-0.17111
 30
0.0
 10
11.55229
 20
-0.9934
 30
0.0
 10
11.98896
 20
-1.1869
 30
0.0
 10
11.98896
 20
-1.1869
 30
0.0
 10
12.41384
 20
-1.37515
 30
0.0
 10
13.02605
 20
-1.31635
 30
0.0
 10
12.95141
 20
-0.62823
 30
0.0
 10
12.95141
 20
-0.62823
 30
0.0
 10
13.23885
 20
-1.09296
 30
0.0
 10
13.63784
 20
-0.82439
 30
0.0
 10
13.9444
 20
-0.60209
 30
0.0
 10
13.9444
 20
-0.60209
 30
0.0
 10
12.59271
 20
-0.05745
 30
0.0
 10
12.88463
 20
1.59633
 30
0.0
 10
10.62572
 20
0.75674
 30
0.0
 10
10.62572
 20
0.75674
 30
0.0
 10
10.70411
 20
1.35776
 30
0.0
 10
10.42114
 20
3.07166
 30
0.0
 10
8.82265
 20
3.29148
 30
0.0
 10
8.82265
 20
3.29148
 30
0.0
 10
7.22416
 20
3.5113
 30
0.0
 10
6.99346
 20
3.396
 30
0.0
 10
6.96733
 20
3.86637
 30
0.0
 10
6.96733
 20
3.86637
 30
0.0
 10
7.69798
 20
3.91216
 30
0.0
 10
7.38543
 20
4.99002
 30
0.0
 10
6.64068
 20
4.66337
 30
0.0
 10
6.64068
 20
4.66337
 30
0.0
 10
5.89594
 20
4.33673
 30
0.0
 10
5.87991
 20
3.43671
 30
0.0
 10
5.84277
 20
2.97929
 30
0.0
 10
5.84277
 20
2.97929
 30
0.0
 10
5.73189
 20
2.9632
 30
0.0
 10
5.61678
 20
2.92999
 30
0.0
 10
5.4998
 20
2.88269
 30
0.0
 10
5.4998
 20
2.88269
 30
0.0
 10
5.70903
 20
3.12429
 30
0.0
 10
5.60184
 20
3.76916
 30
0.0
 10
4.87682
 20
3.57892
 30
0.0
 10
4.87682
 20
3.57892
 30
0.0
 10
4.74749
 20
3.5511
 30
0.0
 10
4.67242
 20
3.71841
 30
0.0
 10
4.70993
 20
3.82203
 30
0.0
 10
4.70993
 20
3.82203
 30
0.0
 10
4.81312
 20
4.09726
 30
0.0
 10
4.84397
 20
4.24219
 30
0.0
 10
4.85069
 20
4.53272
 30
0.0
 10
4.85069
 20
4.53272
 30
0.0
 10
5.03361
 20
4.3106
 30
0.0
 10
5.25572
 20
4.06235
 30
0.0
 10
5.54317
 20
4.07542
 30
0.0
 10
5.54317
 20
4.07542
 30
0.0
 10
5.83061
 20
4.08848
 30
0.0
 10
6.14419
 20
4.61111
 30
0.0
 10
5.64769
 20
5.01615
 30
0.0
 10
5.64769
 20
5.01615
 30
0.0
 10
5.67056
 20
4.74171
 30
0.0
 10
5.21991
 20
4.62853
 30
0.0
 10
5.11545
 20
4.99697
 30
0.0
 10
5.11545
 20
4.99697
 30
0.0
 10
4.82074
 20
6.03606
 30
0.0
 10
4.07854
 20
6.40807
 30
0.0
 10
3.26315
 20
6.48954
 30
0.0
 10
3.26315
 20
6.48954
 30
0.0
 10
3.3938
 20
6.82925
 30
0.0
 10
3.2499
 20
7.23078
 30
0.0
 10
2.73344
 20
7.31468
 30
0.0
 10
2.73344
 20
7.31468
 30
0.0
 10
2.75322
 20
7.02723
 30
0.0
 10
2.55663
 20
6.59008
 30
0.0
 10
2.24378
 20
6.5637
 30
0.0
 10
2.24378
 20
6.5637
 30
0.0
 10
1.72073
 20
6.54417
 30
0.0
 10
1.01101
 20
6.19738
 30
0.0
 10
0.63217
 20
5.4902
 30
0.0
 10
0.63217
 20
5.4902
 30
0.0
 10
0.63217
 20
5.4902
 30
0.0
 10
0.62092
 20
6.30185
 30
0.0
 10
0.62092
 20
6.30185
 30
0.0
 10
0.62092
 20
6.30185
 30
0.0
 10
0.67294
 20
6.62879
 30
0.0
 10
0.95645
 20
7.08101
 30
0.0
 10
1.49281
 20
7.10666
 30
0.0
 10
1.49281
 20
7.10666
 30
0.0
 10
1.08759
 20
7.59257
 30
0.0
 10
0.83281
 20
7.3151
 30
0.0
 10
0.735
 20
7.53782
 30
0.0
 10
0.735
 20
7.53782
 30
0.0
 10
0.93098
 20
7.55089
 30
0.0
 10
1.03551
 20
7.66848
 30
0.0
 10
1.1531
 20
7.82527
 30
0.0
 10
1.1531
 20
7.82527
 30
0.0
 10
0.77401
 20
7.85793
 30
0.0
 10
0.68219
 20
7.98369
 30
0.0
 10
0.52595
 20
8.11271
 30
0.0
 10
0.52595
 20
8.11271
 30
0.0
 10
0.91786
 20
8.13243
 30
0.0
 10
0.9135
 20
8.48684
 30
0.0
 10
0.68213
 20
8.64974
 30
0.0
 10
0.68213
 20
8.64974
 30
0.0
 10
0.45076
 20
8.81263
 30
0.0
 10
0.2379
 20
8.97946
 30
0.0
 10
0.09478
 20
9.19039
 30
0.0
 10
0.09478
 20
9.19039
 30
0.0
 10
-0.04834
 20
8.97946
 30
0.0
 10
-0.2612
 20
8.81263
 30
0.0
 10
-0.49257
 20
8.64974
 30
0.0
 10
-0.49257
 20
8.64974
 30
0.0
 10
-0.72394
 20
8.48684
 30
0.0
 10
-0.7283
 20
8.13243
 30
0.0
 10
-0.33639
 20
8.11271
 30
0.0
 10
-0.33639
 20
8.11271
 30
0.0
 10
-0.49263
 20
7.98369
 30
0.0
 10
-0.58445
 20
7.85793
 30
0.0
 10
-0.96354
 20
7.82527
 30
0.0
 10
-0.96354
 20
7.82527
 30
0.0
 10
-0.84595
 20
7.66848
 30
0.0
 10
-0.74142
 20
7.55089
 30
0.0
 10
-0.54544
 20
7.53782
 30
0.0
 10
-0.54544
 20
7.53782
 30
0.0
 10
-0.64325
 20
7.3151
 30
0.0
 10
-0.89803
 20
7.59257
 30
0.0
 10
-1.30325
 20
7.10666
 30
0.0
 10
-1.30325
 20
7.10666
 30
0.0
 10
-0.76689
 20
7.08101
 30
0.0
 10
-0.48338
 20
6.62879
 30
0.0
 10
-0.43136
 20
6.30185
 30
0.0
 10
-0.43136
 20
6.30185
 30
0.0
 10
-0.43136
 20
6.30185
 30
0.0
 10
-0.44261
 20
5.4902
 30
0.0
 10
-0.44261
 20
5.4902
 30
0.0
 10
-0.44261
 20
5.4902
 30
0.0
 10
-0.82145
 20
6.19738
 30
0.0
 10
-1.53117
 20
6.54417
 30
0.0
 10
-2.05422
 20
6.5637
 30
0.0
 10
-2.05422
 20
6.5637
 30
0.0
 10
-2.36707
 20
6.59008
 30
0.0
 10
-2.56366
 20
7.02723
 30
0.0
 10
-2.54388
 20
7.31468
 30
0.0
 10
-2.54388
 20
7.31468
 30
0.0
 10
-3.06034
 20
7.23078
 30
0.0
 10
-3.20424
 20
6.82925
 30
0.0
 10
-3.07359
 20
6.48954
 30
0.0
 10
-3.07359
 20
6.48954
 30
0.0
 10
-3.88898
 20
6.40807
 30
0.0
 10
-4.63119
 20
6.03606
 30
0.0
 10
-4.92589
 20
4.99697
 30
0.0
 10
-4.92589
 20
4.99697
 30
0.0
 10
-5.03035
 20
4.62853
 30
0.0
 10
-5.481
 20
4.74171
 30
0.0
 10
-5.45813
 20
5.01615
 30
0.0
 10
-5.45813
 20
5.01615
 30
0.0
 10
-5.95463
 20
4.61111
 30
0.0
 10
-5.64105
 20
4.08848
 30
0.0
 10
-5.35361
 20
4.07542
 30
0.0
 10
-5.35361
 20
4.07542
 30
0.0
 10
-5.06616
 20
4.06235
 30
0.0
 10
-4.84405
 20
4.3106
 30
0.0
 10
-4.66113
 20
4.53272
 30
0.0
 10
-4.66113
 20
4.53272
 30
0.0
 10
-4.65441
 20
4.24219
 30
0.0
 10
-4.62356
 20
4.09726
 30
0.0
 10
-4.52037
 20
3.82203
 30
0.0
 10
-4.52037
 20
3.82203
 30
0.0
 10
-4.48287
 20
3.71841
 30
0.0
 10
-4.55793
 20
3.5511
 30
0.0
 10
-4.68726
 20
3.57892
 30
0.0
 10
-4.68726
 20
3.57892
 30
0.0
 10
-5.41228
 20
3.76916
 30
0.0
 10
-5.51947
 20
3.12429
 30
0.0
 10
-5.31024
 20
2.88269
 30
0.0
 10
-5.31024
 20
2.88269
 30
0.0
 10
-5.42722
 20
2.92999
 30
0.0
 10
-5.54233
 20
2.9632
 30
0.0
 10
-5.65321
 20
2.97929
 30
0.0
 10
-5.65321
 20
2.97929
 30
0.0
 10
-5.69035
 20
3.43671
 30
0.0
 10
-5.70638
 20
4.33673
 30
0.0
 10
-6.45113
 20
4.66337
 30
0.0
 10
-6.45113
 20
4.66337
 30
0.0
 10
-7.19587
 20
4.99002
 30
0.0
 10
-7.50842
 20
3.91216
 30
0.0
 10
-6.77777
 20
3.86637
 30
0.0
 10
-6.77777
 20
3.86637
 30
0.0
 10
-6.8039
 20
3.396
 30
0.0
 10
-7.0346
 20
3.5113
 30
0.0
 10
-8.63309
 20
3.29148
 30
0.0
 10
-8.63309
 20
3.29148
 30
0.0
 10
-10.23158
 20
3.07166
 30
0.0
 10
-10.51455
 20
1.35776
 30
0.0
 10
-10.43616
 20
0.75674
 30
0.0
 10
-10.43616
 20
0.75674
 30
0.0
 10
-12.69507
 20
1.59633
 30
0.0
 10
-12.40315
 20
-0.05745
 30
0.0
 10
-13.75484
 20
-0.60209
 30
0.0
 10
-13.75484
 20
-0.60209
 30
0.0
 10
-13.44828
 20
-0.82439
 30
0.0
 10
-13.04929
 20
-1.09296
 30
0.0
 10
-12.76185
 20
-0.62823
 30
0.0
 10
-12.76185
 20
-0.62823
 30
0.0
 10
-12.83649
 20
-1.31635
 30
0.0
 10
-12.22428
 20
-1.37515
 30
0.0
 10
-11.7994
 20
-1.1869
 30
0.0
 10
-11.7994
 20
-1.1869
 30
0.0
 10
-11.36273
 20
-0.9934
 30
0.0
 10
-11.34102
 20
-0.17111
 30
0.0
 10
-12.0563
 20
-0.31465
 30
0.0
 10
-12.0563
 20
-0.31465
 30
0.0
 10
-12.27497
 20
0.67985
 30
0.0
 10
-10.78845
 20
0.33041
 30
0.0
 10
-10.25415
 20
0.04278
 30
0.0
 10
-10.25415
 20
0.04278
 30
0.0
 10
-9.90597
 20
-1.10924
 30
0.0
 10
-7.65117
 20
-2.0735
 30
0.0
 10
-3.48522
 20
-0.31465
 30
0.0
  0
SPLINE
  5
55
330
1F
100
AcDbEntity
  8
layer 1
 62
   254
370
    20
100
AcDbSpline
210
0.0
220
0.0
230
1.0
 70
    11
 71
     3
 72
    24
 73
    20
 74
     0
 42
0.0000000001
 43
0.0000000001
 40
0.0
 40
0.0
 40
0.0
 40
0.0
 40
0.1666666666666667
 40
0.1666666666666667
 40
0.1666666666666667
 40
0.1666666666666667
 40
0.3333333333333333
 40
0.3333333333333333
 40
0.3333333333333333
 40
0.3333333333333333
 40
0.5
 40
0.5
 40
0.5
 40
0.5
 40
0.6666666666666666
 40
0.6666666666666666
 40
0.6666666666666666
 40
0.6666666666666666
 40
1.0
 40
1.0
 40
1.0
 40
1.0
 10
-7.91878
 20
2.47366
 30
0.0
 10
-7.72382
 20
2.43937
 30
0.0
 10
-7.59286
 20
2.32637
 30
0.0
 10
-7.46323
 20
2.16136
 30
0.0
 10
-7.46323
 20
2.16136
 30
0.0
 10
-8.542
 20
1.94009
 30
0.0
 10
-8.4117
 20
0.85781
 30
0.0
 10
-7.85925
 20
0.49318
 30
0.0
 10
-7.85925
 20
0.49318
 30
0.0
 10
-7.32985
 20
0.14386
 30
0.0
 10
-6.01421
 20
0.47117
 30
0.0
 10
-6.28841
 20
1.52314
 30
0.0
 10
-6.28841
 20
1.52314
 30
0.0
 10
-5.77371
 20
0.89235
 30
0.0
 10
-4.72537
 20
0.39876
 30
0.0
 10
-4.30823
 20
0.38551
 30
0.0
 10
-4.30823
 20
0.38551
 30
0.0
 10
-9.13649
 20
-1.84339
 30
0.0
 10
-9.88794
 20
2.82002
 30
0.0
 10
-7.91878
 20
2.47366
 30
0.0
  0
SPLINE
  5
56
330
1F
100
AcDbEntity
  8
layer 1
 62
   254
370
    20
100
AcDbSpline
210
0.0
220
0.0
230
1.0
 70
    11
 71
     3
 72
    32
 73
    28
 74
     0
 42
0.0000000001
 43
0.0000000001
 40
0.0
 40
0.0
 40
0.0
 40
0.0
 40
0.125
 40
0.125
 40
0.125
 40
0.125
 40
0.25
 40
0.25
 40
0.25
 40
0.25
 40
0.375
 40
0.375
 40
0.375
 40
0.375
 40
0.5
 40
0.5
 40
0.5
 40
0.5
 40
0.625
 40
0.625
 40
0.625
 40
0.625
 40
0.75
 40
0.75
 40
0.75
 40
0.75
 40
1.0
 40
1.0
 40
1.0
 40
1.0
 10
0.59128
 20
0.49542
 30
0.0
 10
0.59128
 20
0.49542
 30
0.0
 10
0.59128
 20
2.599
 30
0.0
 10
0.59128
 20
2.599
 30
0.0
 10
0.59128
 20
2.599
 30
0.0
 10
0.59593
 20
2.83478
 30
0.0
 10
0.66138
 20
2.85275
 30
0.0
 10
0.72193
 20
2.74272
 30
0.0
 10
0.72193
 20
2.74272
 30
0.0
 10
1.06164
 20
2.05024
 30
0.0
 10
2.18547
 20
0.69183
 30
0.0
 10
2.77343
 20
0.11694
 30
0.0
 10
2.77343
 20
0.11694
 30
0.0
 10
2.44678
 20
-0.22246
 30
0.0
 10
1.96341
 20
-0.32753
 30
0.0
 10
1.6104
 20
-0.28852
 30
0.0
 10
1.6104
 20
-0.28852
 30
0.0
 10
2.18541
 20
0.30234
 30
0.0
 10
1.60701
 20
0.76297
 30
0.0
 10
1.24456
 20
0.63915
 30
0.0
 10
1.24456
 20
0.63915
 30
0.0
 10
1.30989
 20
0.87433
 30
0.0
 10
1.24462
 20
0.99978
 30
0.0
 10
1.04186
 20
1.14877
 30
0.0
 10
1.04186
 20
1.14877
 30
0.0
 10
1.04186
 20
0.92665
 30
0.0
 10
0.83952
 20
0.58688
 30
0.0
 10
0.59128
 20
0.49542
 30
0.0
  0
SPLINE
  5
57
330
1F
100
AcDbEntity
  8
layer 1
 62
   254
370
    20
100
AcDbSpline
210
0.0
220
0.0
230
1.0
 70
    11
 71
     3
 72
    44
 73
    40
 74
     0
 42
0.0000000001
 43
0.0000000001
 40
0.0
 40
0.0
 40
0.0
 40
0.0
 40
0.0909090909090909
 40
0.0909090909090909
 40
0.0909090909090909
 40
0.0909090909090909
 40
0.1818181818181818
 40
0.1818181818181818
 40
0.1818181818181818
 40
0.1818181818181818
 40
0.2727272727272727
 40
0.2727272727272727
 40
0.2727272727272727
 40
0.2727272727272727
 40
0.3636363636363636
 40
0.3636363636363636
 40
0.3636363636363636
 40
0.3636363636363636
 40
0.4545454545454545
 40
0.4545454545454545
 40
0.4545454545454545
 40
0.4545454545454545
 40
0.5454545454545454
 40
0.5454545454545454
 40
0.5454545454545454
 40
0.5454545454545454
 40
0.6363636363636364
 40
0.6363636363636364
 40
0.6363636363636364
 40
0.6363636363636364
 40
0.7272727272727273
 40
0.7272727272727273
 40
0.7272727272727273
 40
0.7272727272727273
 40
0.8181818181818182
 40
0.8181818181818182
 40
0.8181818181818182
 40
0.8181818181818182
 40
1.0
 40
1.0
 40
1.0
 40
1.0
 10
3.52464
 20
0.93947
 30
0.0
 10
3.05428
 20
1.35758
 30
0.0
 10
1.47974
 20
2.66433
 30
0.0
 10
1.40135
 20
4.17994
 30
0.0
 10
1.40135
 20
4.17994
 30
0.0
 10
1.32295
 20
5.69556
 30
0.0
 10
3.03456
 20
6.1398
 30
0.0
 10
3.41346
 20
4.85936
 30
0.0
 10
3.41346
 20
4.85936
 30
0.0
 10
3.00183
 20
4.80365
 30
0.0
 10
2.94286
 20
5.11426
 30
0.0
 10
2.60654
 20
5.07833
 30
0.0
 10
2.60654
 20
5.07833
 30
0.0
 10
2.27022
 20
5.0424
 30
0.0
 10
1.81945
 20
4.57191
 30
0.0
 10
2.26368
 20
4.15381
 30
0.0
 10
2.26368
 20
4.15381
 30
0.0
 10
2.14609
 20
3.94476
 30
0.0
 10
1.97624
 20
3.50246
 30
0.0
 10
2.42047
 20
3.28591
 30
0.0
 10
2.42047
 20
3.28591
 30
0.0
 10
2.42047
 20
3.00403
 30
0.0
 10
2.4466
 20
2.49447
 30
0.0
 10
2.99536
 20
2.37688
 30
0.0
 10
2.99536
 20
2.37688
 30
0.0
 10
3.04762
 20
2.08944
 30
0.0
 10
3.3612
 20
1.80199
 30
0.0
 10
3.67478
 20
1.82812
 30
0.0
 10
3.67478
 20
1.82812
 30
0.0
 10
3.62899
 20
2.77756
 30
0.0
 10
4.2813
 20
3.11364
 30
0.0
 10
4.44123
 20
3.44663
 30
0.0
 10
4.44123
 20
3.44663
 30
0.0
 10
4.5359
 20
2.82498
 30
0.0
 10
4.71882
 20
2.62059
 30
0.0
 10
5.11079
 20
2.67999
 30
0.0
 10
5.11079
 20
2.67999
 30
0.0
 10
4.46416
 20
2.27278
 30
0.0
 10
3.82443
 20
1.53941
 30
0.0
 10
3.52464
 20
0.93947
 30
0.0
  0
SPLINE
  5
58
330
1F
100
AcDbEntity
  8
layer 1
 62
   254
370
    20
100
AcDbSpline
210
0.0
220
0.0
230
1.0
 70
    11
 71
     3
 72
    12
 73
     8
 74
     0
 42
0.0000000001
 43
0.0000000001
 40
0.0
 40
0.0
 40
0.0
 40
0.0
 40
0.3333333333333333
 40
0.3333333333333333
 40
0.3333333333333333
 40
0.3333333333333333
 40
1.0
 40
1.0
 40
1.0
 40
1.0
 10
4.38686
 20
1.04376
 30
0.0
 10
4.75269
 20
1.72317
 30
0.0
 10
5.8634
 20
2.7031
 30
0.0
 10
6.13778
 20
2.35033
 30
0.0
 10
6.13778
 20
2.35033
 30
0.0
 10
6.41216
 20
1.99755
 30
0.0
 10
5.18386
 20
1.16135
 30
0.0
 10
4.38686
 20
1.04376
 30
0.0
  0
SPLINE
  5
59
330
1F
100
AcDbEntity
  8
layer 1
 62
   254
370
    20
100
AcDbSpline
210
0.0
220
0.0
230
1.0
 70
    11
 71
     3
 72
    24
 73
    20
 74
     0
 42
0.0000000001
 43
0.0000000001
 40
0.0
 40
0.0
 40
0.0
 40
0.0
 40
0.1666666666666667
 40
0.1666666666666667
 40
0.1666666666666667
 40
0.1666666666666667
 40
0.3333333333333333
 40
0.3333333333333333
 40
0.3333333333333333
 40
0.3333333333333333
 40
0.5
 40
0.5
 40
0.5
 40
0.5
 40
0.6666666666666666
 40
0.6666666666666666
 40
0.6666666666666666
 40
0.6666666666666666
 40
1.0
 40
1.0
 40
1.0
 40
1.0
 10
6.77539
 20
2.17007
 30
0.0
 10
6.78066
 20
2.32704
 30
0.0
 10
6.7365
 20
2.50717
 30
0.0
 10
6.62599
 20
2.66033
 30
0.0
 10
6.62599
 20
2.66033
 30
0.0
 10
6.49805
 20
2.83769
 30
0.0
 10
6.33915
 20
2.93695
 30
0.0
 10
6.161
 20
2.97373
 30
0.0
 10
6.161
 20
2.97373
 30
0.0
 10
6.21641
 20
3.23782
 30
0.0
 10
6.2414
 20
3.63584
 30
0.0
 10
6.60748
 20
3.85131
 30
0.0
 10
6.60748
 20
3.85131
 30
0.0
 10
6.65321
 20
3.34761
 30
0.0
 10
6.87502
 20
3.00161
 30
0.0
 10
7.37236
 20
2.86031
 30
0.0
 10
7.37236
 20
2.86031
 30
0.0
 10
7.07185
 20
2.71659
 30
0.0
 10
6.88893
 20
2.36381
 30
0.0
 10
6.77539
 20
2.17007
 30
0.0
  0
SPLINE
  5
5A
330
1F
100
AcDbEntity
  8
layer 1
 62
   254
370
    20
100
AcDbSpline
210
0.0
220
0.0
230
1.0
 70
    11
 71
     3
 72
    24
 73
    20
 74
     0
 42
0.0000000001
 43
0.0000000001
 40
0.0
 40
0.0
 40
0.0
 40
0.0
 40
0.1666666666666667
 40
0.1666666666666667
 40
0.1666666666666667
 40
0.1666666666666667
 40
0.3333333333333333
 40
0.3333333333333333
 40
0.3333333333333333
 40
0.3333333333333333
 40
0.5
 40
0.5
 40
0.5
 40
0.5
 40
0.6666666666666666
 40
0.6666666666666666
 40
0.6666666666666666
 40
0.6666666666666666
 40
1.0
 40
1.0
 40
1.0
 40
1.0
 10
7.65279
 20
2.16136
 30
0.0
 10
7.78242
 20
2.32637
 30
0.0
 10
7.91338
 20
2.43937
 30
0.0
 10
8.10834
 20
2.47366
 30
0.0
 10
8.10834
 20
2.47366
 30
0.0
 10
10.0775
 20
2.82002
 30
0.0
 10
9.32604
 20
-1.84339
 30
0.0
 10
4.49779
 20
0.38551
 30
0.0
 10
4.49779
 20
0.38551
 30
0.0
 10
4.91493
 20
0.39876
 30
0.0
 10
5.96327
 20
0.89235
 30
0.0
 10
6.47797
 20
1.52314
 30
0.0
 10
6.47797
 20
1.52314
 30
0.0
 10
6.20377
 20
0.47117
 30
0.0
 10
7.51941
 20
0.14386
 30
0.0
 10
8.04881
 20
0.49318
 30
0.0
 10
8.04881
 20
0.49318
 30
0.0
 10
8.60126
 20
0.85781
 30
0.0
 10
8.73156
 20
1.94009
 30
0.0
 10
7.65279
 20
2.16136
 30
0.0
  0
SPLINE
  5
5B
330
1F
100
AcDbEntity
  8
layer 1
 62
   254
370
    20
100
AcDbSpline
210
0.0
220
0.0
230
1.0
 70
    11
 71
     3
 72
    16
 73
    12
 74
     0
 42
0.0000000001
 43
0.0000000001
 40
0.0
 40
0.0
 40
0.0
 40
0.0
 40
0.25
 40
0.25
 40
0.25
 40
0.25
 40
0.5
 40
0.5
 40
0.5
 40
0.5
 40
1.0
 40
1.0
 40
1.0
 40
1.0
 10
-2.54449
 20
3.68345
 30
0.0
 10
-2.4696
 20
2.61757
 30
0.0
 10
-3.13656
 20
2.39654
 30
0.0
 10
-3.25421
 20
2.70697
 30
0.0
 10
-3.25421
 20
2.70697
 30
0.0
 10
-3.40652
 20
3.10886
 30
0.0
 10
-3.83829
 20
3.40272
 30
0.0
 10
-3.81863
 20
3.8282
 30
0.0
 10
-3.81863
 20
3.8282
 30
0.0
 10
-3.42666
 20
3.56689
 30
0.0
 10
-2.93646
 20
3.42213
 30
0.0
 10
-2.54449
 20
3.68345
 30
0.0
  0
SPLINE
  5
5C
330
1F
100
AcDbEntity
  8
layer 1
 62
   254
370
    20
100
AcDbSpline
210
0.0
220
0.0
230
1.0
 70
    11
 71
     3
 72
    16
 73
    12
 74
     0
 42
0.0000000001
 43
0.0000000001
 40
0.0
 40
0.0
 40
0.0
 40
0.0
 40
0.25
 40
0.25
 40
0.25
 40
0.25
 40
0.5
 40
0.5
 40
0.5
 40
0.5
 40
1.0
 40
1.0
 40
1.0
 40
1.0
 10
3.44377
 20
2.70697
 30
0.0
 10
3.32612
 20
2.39654
 30
0.0
 10
2.65916
 20
2.61757
 30
0.0
 10
2.73405
 20
3.68345
 30
0.0
 10
2.73405
 20
3.68345
 30
0.0
 10
3.12602
 20
3.42213
 30
0.0
 10
3.61622
 20
3.56689
 30
0.0
 10
4.00819
 20
3.8282
 30
0.0
 10
4.00819
 20
3.8282
 30
0.0
 10
4.02785
 20
3.40272
 30
0.0
 10
3.59608
 20
3.10886
 30
0.0
 10
3.44377
 20
2.70697
 30
0.0
  0
ENDSEC
  0
SECTION
  2
OBJECTS
  0
DICTIONARY
  5
C
330
0
100
AcDbDictionary
281
     1
  3
ACAD_GROUP
350
D
  3
ACAD_LAYOUT
350
1A
  3
ACAD_MATERIAL
350
3B
  3
ACAD_MLEADERSTYLE
350
7E
  3
ACAD_MLINESTYLE
350
17
  3
ACAD_PLOTSETTINGS
350
19
  3
ACAD_PLOTSTYLENAME
350
E
  3
ACAD_TABLESTYLE
350
7D
  3
ACAD_VISUALSTYLE
350
2A
  0
DICTIONARY
  5
D
102
{ACAD_REACTORS
330
C
102
}
330
C
100
AcDbDictionary
281
     1
  0
DICTIONARY
  5
1A
102
{ACAD_REACTORS
330
C
102
}
330
C
100
AcDbDictionary
281
     1
  3
Layout1
350
1E
  3
Layout2
350
26
  3
Model
350
22
  0
DICTIONARY
  5
3B
102
{ACAD_REACTORS
330
C
102
}
330
C
100
AcDbDictionary
281
     1
  3
ByBlock
350
3D
  3
ByLayer
350
3C
  3
Global
350
3E
  0
DICTIONARY
  5
7E
102
{ACAD_REACTORS
330
C
102
}
330
C
100
AcDbDictionary
281
     1
  0
DICTIONARY
  5
17
102
{ACAD_REACTORS
330
C
102
}
330
C
100
AcDbDictionary
281
     1
  3
Standard
350
18
  0
DICTIONARY
  5
19
102
{ACAD_REACTORS
330
C
102
}
330
C
100
AcDbDictionary
281
     1
  0
ACDBDICTIONARYWDFLT
  5
E
102
{ACAD_REACTORS
330
C
102
}
330
C
100
AcDbDictionary
281
     1
  3
Normal
350
F
100
AcDbDictionaryWithDefault
340
F
  0
DICTIONARY
  5
7D
102
{ACAD_REACTORS
330
C
102
}
330
C
100
AcDbDictionary
281
     1
  0
DICTIONARY
  5
2A
102
{ACAD_REACTORS
330
C
102
}
330
C
100
AcDbDictionary
281
     1
  3
2dWireframe
350
2F
  3
3D Hidden
350
31
  3
3dWireframe
350
30
  3
Basic
350
32
  3
Brighten
350
36
  3
ColorChange
350
3A
  3
Conceptual
350
34
  3
Dim
350
35
  3
Facepattern
350
39
  3
Flat
350
2B
  3
FlatWithEdges
350
2C
  3
Gouraud
350
2D
  3
GouraudWithEdges
350
2E
  3
Linepattern
350
38
  3
Realistic
350
33
  3
Thicken
350
37
  0
LAYOUT
  5
1E
102
{ACAD_REACTORS
330
1A
102
}
330
1A
100
AcDbPlotSettings
  1

  2
none_device
  4

  6

 40
0.0
 41
0.0
 42
0.0
 43
0.0
 44
0.0
 45
0.0
 46
0.0
 47
0.0
 48
0.0
 49
0.0
140
0.0
141
0.0
142
1.0
143
1.0
 70
   688
 72
     0
 73
     0
 74
     5
  7

 75
    16
 76
     0
 77
     2
 78
   300
147
1.0
148
0.0
149
0.0
100
AcDbLayout
  1
Layout1
 70
     1
 71
     1
 10
0.0
 20
0.0
 11
12.0
 21
9.0
 12
0.0
 22
0.0
 32
0.0
 14
1.000000000000000E 20
 24
1.000000000000000E 20
 34
1.000000000000000E 20
 15
-1.000000000000000E 20
 25
-1.000000000000000E 20
 35
-1.000000000000000E 20
146
0.0
 13
0.0
 23
0.0
 33
0.0
 16
1.0
 26
0.0
 36
0.0
 17
0.0
 27
1.0
 37
0.0
 76
     0
330
1B
  0
LAYOUT
  5
26
102
{ACAD_REACTORS
330
1A
102
}
330
1A
100
AcDbPlotSettings
  1

  2
none_device
  4

  6

 40
0.0
 41
0.0
 42
0.0
 43
0.0
 44
0.0
 45
0.0
 46
0.0
 47
0.0
 48
0.0
 49
0.0
140
0.0
141
0.0
142
1.0
143
1.0
 70
   688
 72
     0
 73
     0
 74
     5
  7

 75
    16
 76
     0
 77
     2
 78
   300
147
1.0
148
0.0
149
0.0
100
AcDbLayout
  1
Layout2
 70
     1
 71
     2
 10
0.0
 20
0.0
 11
0.0
 21
0.0
 12
0.0
 22
0.0
 32
0.0
 14
0.0
 24
0.0
 34
0.0
 15
0.0
 25
0.0
 35
0.0
146
0.0
 13
0.0
 23
0.0
 33
0.0
 16
1.0
 26
0.0
 36
0.0
 17
0.0
 27
1.0
 37
0.0
 76
     0
330
23
  0
LAYOUT
  5
22
102
{ACAD_REACTORS
330
1A
102
}
330
1A
100
AcDbPlotSettings
  1

  2
none_device
  4

  6

 40
0.0
 41
0.0
 42
0.0
 43
0.0
 44
0.0
 45
0.0
 46
0.0
 47
0.0
 48
0.0
 49
0.0
140
0.0
141
0.0
142
1.0
143
1.0
 70
  1712
 72
     0
 73
     0
 74
     0
  7

 75
     0
 76
     0
 77
     2
 78
   300
147
1.0
148
0.0
149
0.0
100
AcDbLayout
  1
Model
 70
     1
 71
     0
 10
0.0
 20
0.0
 11
12.0
 21
9.0
 12
0.0
 22
0.0
 32
0.0
 14
-13.77531
 24
-1.32635
 34
0.0
 15
13.96487
 25
9.20812
 35
0.0
146
0.0
 13
0.0
 23
0.0
 33
0.0
 16
1.0
 26
0.0
 36
0.0
 17
0.0
 27
1.0
 37
0.0
 76
     0
330
1F
331
29
  0
MATERIAL
  5
3D
102
{ACAD_REACTORS
330
3B
102
}
330
3B
100
AcDbMaterial
  1
ByBlock
 72
     1
 94
      127
  0
MATERIAL
  5
3C
102
{ACAD_REACTORS
330
3B
102
}
330
3B
100
AcDbMaterial
  1
ByLayer
 72
     1
 94
      127
  0
MATERIAL
  5
3E
102
{ACAD_REACTORS
330
3B
102
}
330
3B
100
AcDbMaterial
  1
Global
 72
     1
 94
      127
  0
MLINESTYLE
  5
18
102
{ACAD_REACTORS
330
17
102
}
330
17
100
AcDbMlineStyle
  2
Standard
 70
     0
  3

 62
   256
 51
90.0
 52
90.0
 71
     2
 49
0.5
 62
   256
  6
BYLAYER
 49
-0.5
 62
   256
  6
BYLAYER
  0
ACDBPLACEHOLDER
  5
F
102
{ACAD_REACTORS
330
E
102
}
330
E
  0
VISUALSTYLE
  5
2F
102
{ACAD_REACTORS
330
2A
102
}
102
{ACAD_XDICTIONARY
360
65
102
}
330
2A
100
AcDbVisualStyle
  2
2dWireframe
 70
     4
 71
     0
 72
     2
 73
     0
 90
        0
 40
-0.6
 41
-30.0
 62
     5
 63
     7
421
 16777215
 74
     1
 91
        4
 64
     7
 65
   257
 75
     1
175
     1
 42
1.0
 92
        0
 66
   257
 43
1.0
 76
     1
 77
     6
 78
     2
 67
     7
 79
     5
170
     0
171
     0
290
     0
174
     0
 93
        1
 44
0.0
173
     0
291
     0
 45
0.0
  0
VISUALSTYLE
  5
31
102
{ACAD_REACTORS
330
2A
102
}
102
{ACAD_XDICTIONARY
360
69
102
}
330
2A
100
AcDbVisualStyle
  2
3D Hidden
 70
     6
 71
     1
 72
     2
 73
     2
 90
        0
 40
-0.6
 41
-30.0
 62
     5
 63
     7
421
 16777215
 74
     2
 91
        2
 64
     7
 65
   257
 75
     2
175
     1
 42
40.0
 92
        0
 66
   257
 43
1.0
 76
     1
 77
     6
 78
     2
 67
     7
 79
     3
170
     0
171
     0
290
     0
174
     0
 93
        1
 44
0.0
173
     0
291
     0
 45
0.0
  0
VISUALSTYLE
  5
30
102
{ACAD_REACTORS
330
2A
102
}
102
{ACAD_XDICTIONARY
360
67
102
}
330
2A
100
AcDbVisualStyle
  2
3dWireframe
 70
     5
 71
     0
 72
     2
 73
     0
 90
        0
 40
-0.6
 41
-30.0
 62
     5
 63
     7
421
 16777215
 74
     1
 91
        4
 64
     7
 65
   257
 75
     1
175
     1
 42
1.0
 92
        0
 66
   257
 43
1.0
 76
     1
 77
     6
 78
     2
 67
     7
 79
     5
170
     0
171
     0
290
     0
174
     0
 93
        1
 44
0.0
173
     0
291
     0
 45
0.0
  0
VISUALSTYLE
  5
32
102
{ACAD_REACTORS
330
2A
102
}
102
{ACAD_XDICTIONARY
360
6B
102
}
330
2A
100
AcDbVisualStyle
  2
Basic
 70
     7
 71
     1
 72
     0
 73
     1
 90
        0
 40
-0.6
 41
-30.0
 62
     5
 63
     7
421
 16777215
 74
     0
 91
        4
 64
     7
 65
   257
 75
     1
175
     1
 42
1.0
 92
        8
 66
     7
 43
1.0
 76
     1
 77
     6
 78
     2
 67
     7
 79
     5
170
     0
171
     0
290
     0
174
     0
 93
        1
 44
0.0
173
     0
291
     1
 45
0.0
  0
VISUALSTYLE
  5
36
102
{ACAD_REACTORS
330
2A
102
}
102
{ACAD_XDICTIONARY
360
73
102
}
330
2A
100
AcDbVisualStyle
  2
Brighten
 70
    12
 71
     2
 72
     2
 73
     0
 90
        0
 40
-0.6
 41
-30.0
 62
     5
 63
     7
421
 16777215
 74
     1
 91
        4
 64
     7
 65
   257
 75
     1
175
     1
 42
1.0
 92
        8
 66
     7
 43
1.0
 76
     1
 77
     6
 78
     2
 67
     7
 79
     5
170
     0
171
     0
290
     0
174
     0
 93
        1
 44
50.0
173
     0
291
     1
 45
0.0
  0
VISUALSTYLE
  5
3A
102
{ACAD_REACTORS
330
2A
102
}
102
{ACAD_XDICTIONARY
360
7B
102
}
330
2A
100
AcDbVisualStyle
  2
ColorChange
 70
    16
 71
     2
 72
     2
 73
     3
 90
        0
 40
-0.6
 41
-30.0
 62
     5
 63
     8
421
  8421504
 74
     1
 91
        4
 64
     7
 65
   257
 75
     1
175
     1
 42
1.0
 92
        8
 66
     8
424
  8421504
 43
1.0
 76
     1
 77
     6
 78
     2
 67
     7
 79
     5
170
     0
171
     0
290
     0
174
     0
 93
        1
 44
0.0
173
     0
291
     1
 45
0.0
  0
VISUALSTYLE
  5
34
102
{ACAD_REACTORS
330
2A
102
}
102
{ACAD_XDICTIONARY
360
6F
102
}
330
2A
100
AcDbVisualStyle
  2
Conceptual
 70
     9
 71
     3
 72
     2
 73
     0
 90
        0
 40
-0.6
 41
-30.0
 62
     5
 63
     7
421
 16777215
 74
     2
 91
        2
 64
     7
 65
   257
 75
     1
175
     1
 42
40.0
 92
        8
 66
     7
 43
1.0
 76
     1
 77
     6
 78
     2
 67
     7
 79
     3
170
     0
171
     0
290
     0
174
     0
 93
        1
 44
0.0
173
     0
291
     0
 45
0.0
  0
VISUALSTYLE
  5
35
102
{ACAD_REACTORS
330
2A
102
}
102
{ACAD_XDICTIONARY
360
71
102
}
330
2A
100
AcDbVisualStyle
  2
Dim
 70
    11
 71
     2
 72
     2
 73
     0
 90
        0
 40
-0.6
 41
-30.0
 62
     5
 63
     7
421
 16777215
 74
     1
 91
        4
 64
     7
 65
   257
 75
     1
175
     1
 42
1.0
 92
        8
 66
     7
 43
1.0
 76
     1
 77
     6
 78
     2
 67
     7
 79
     5
170
     0
171
     0
290
     0
174
     0
 93
        1
 44
-50.0
173
     0
291
     1
 45
0.0
  0
VISUALSTYLE
  5
39
102
{ACAD_REACTORS
330
2A
102
}
102
{ACAD_XDICTIONARY
360
79
102
}
330
2A
100
AcDbVisualStyle
  2
Facepattern
 70
    15
 71
     2
 72
     2
 73
     0
 90
        0
 40
-0.6
 41
-30.0
 62
     5
 63
     7
421
 16777215
 74
     1
 91
        4
 64
     7
 65
   257
 75
     1
175
     1
 42
1.0
 92
        8
 66
     7
 43
1.0
 76
     1
 77
     6
 78
     2
 67
     7
 79
     5
170
     0
171
     0
290
     0
174
     0
 93
        1
 44
0.0
173
     0
291
     1
 45
0.0
  0
VISUALSTYLE
  5
2B
102
{ACAD_REACTORS
330
2A
102
}
102
{ACAD_XDICTIONARY
360
5D
102
}
330
2A
100
AcDbVisualStyle
  2
Flat
 70
     0
 71
     2
 72
     1
 73
     1
 90
        2
 40
-0.6
 41
30.0
 62
     5
 63
     7
421
 16777215
 74
     0
 91
        4
 64
     7
 65
   257
 75
     1
175
     1
 42
1.0
 92
        8
 66
     7
 43
1.0
 76
     1
 77
     6
 78
     2
 67
     7
 79
     5
170
     0
171
     0
290
     0
174
     0
 93
       13
 44
0.0
173
     0
291
     1
 45
0.0
  0
VISUALSTYLE
  5
2C
102
{ACAD_REACTORS
330
2A
102
}
102
{ACAD_XDICTIONARY
360
5F
102
}
330
2A
100
AcDbVisualStyle
  2
FlatWithEdges
 70
     1
 71
     2
 72
     1
 73
     1
 90
        2
 40
-0.6
 41
30.0
 62
     5
 63
     7
421
 16777215
 74
     1
 91
        4
 64
     7
 65
   257
 75
     1
175
     1
 42
1.0
 92
        0
 66
   257
 43
1.0
 76
     1
 77
     6
 78
     2
 67
     7
 79
     5
170
     0
171
     0
290
     0
174
     0
 93
       13
 44
0.0
173
     0
291
     1
 45
0.0
  0
VISUALSTYLE
  5
2D
102
{ACAD_REACTORS
330
2A
102
}
102
{ACAD_XDICTIONARY
360
61
102
}
330
2A
100
AcDbVisualStyle
  2
Gouraud
 70
     2
 71
     2
 72
     2
 73
     1
 90
        2
 40
-0.6
 41
30.0
 62
     5
 63
     7
421
 16777215
 74
     0
 91
        4
 64
     7
 65
   257
 75
     1
175
     1
 42
1.0
 92
        0
 66
     7
 43
1.0
 76
     1
 77
     6
 78
     2
 67
     7
 79
     5
170
     0
171
     0
290
     0
174
     0
 93
       13
 44
0.0
173
     0
291
     1
 45
0.0
  0
VISUALSTYLE
  5
2E
102
{ACAD_REACTORS
330
2A
102
}
102
{ACAD_XDICTIONARY
360
63
102
}
330
2A
100
AcDbVisualStyle
  2
GouraudWithEdges
 70
     3
 71
     2
 72
     2
 73
     1
 90
        2
 40
-0.6
 41
30.0
 62
     5
 63
     7
421
 16777215
 74
     1
 91
        4
 64
     7
 65
   257
 75
     1
175
     1
 42
1.0
 92
        0
 66
   257
 43
1.0
 76
     1
 77
     6
 78
     2
 67
     7
 79
     5
170
     0
171
     0
290
     0
174
     0
 93
       13
 44
0.0
173
     0
291
     1
 45
0.0
  0
VISUALSTYLE
  5
38
102
{ACAD_REACTORS
330
2A
102
}
102
{ACAD_XDICTIONARY
360
77
102
}
330
2A
100
AcDbVisualStyle
  2
Linepattern
 70
    14
 71
     2
 72
     2
 73
     0
 90
        0
 40
-0.6
 41
-30.0
 62
     5
 63
     7
421
 16777215
 74
     1
 91
        4
 64
     7
 65
   257
 75
     7
175
     7
 42
1.0
 92
        8
 66
     7
 43
1.0
 76
     1
 77
     6
 78
     2
 67
     7
 79
     5
170
     0
171
     0
290
     0
174
     0
 93
        1
 44
0.0
173
     0
291
     1
 45
0.0
  0
VISUALSTYLE
  5
33
102
{ACAD_REACTORS
330
2A
102
}
102
{ACAD_XDICTIONARY
360
6D
102
}
330
2A
100
AcDbVisualStyle
  2
Realistic
 70
     8
 71
     2
 72
     2
 73
     0
 90
        0
 40
-0.6
 41
-30.0
 62
     5
 63
     7
421
 16777215
 74
     1
 91
        0
 64
     7
 65
   257
 75
     1
175
     1
 42
1.0
 92
        8
 66
     8
424
  7895160
 43
1.0
 76
     1
 77
     6
 78
     2
 67
     7
 79
     5
170
     0
171
     0
290
     0
174
     0
 93
       13
 44
0.0
173
     0
291
     0
 45
0.0
  0
VISUALSTYLE
  5
37
102
{ACAD_REACTORS
330
2A
102
}
102
{ACAD_XDICTIONARY
360
75
102
}
330
2A
100
AcDbVisualStyle
  2
Thicken
 70
    13
 71
     2
 72
     2
 73
     0
 90
        0
 40
-0.6
 41
-30.0
 62
     5
 63
     7
421
 16777215
 74
     1
 91
        4
 64
     7
 65
   257
 75
     1
175
     1
 42
1.0
 92
       12
 66
     7
 43
1.0
 76
     1
 77
     6
 78
     2
 67
     7
 79
     5
170
     0
171
     0
290
     0
174
     0
 93
        1
 44
0.0
173
     0
291
     1
 45
0.0
  0
DICTIONARY
  5
65
330
2F
100
AcDbDictionary
280
     1
281
     1
  3
ACAD_XREC_ROUNDTRIP
360
66
  0
DICTIONARY
  5
69
330
31
100
AcDbDictionary
280
     1
281
     1
  3
ACAD_XREC_ROUNDTRIP
360
6A
  0
DICTIONARY
  5
67
330
30
100
AcDbDictionary
280
     1
281
     1
  3
ACAD_XREC_ROUNDTRIP
360
68
  0
DICTIONARY
  5
6B
330
32
100
AcDbDictionary
280
     1
281
     1
  3
ACAD_XREC_ROUNDTRIP
360
6C
  0
DICTIONARY
  5
73
330
36
100
AcDbDictionary
280
     1
281
     1
  3
ACAD_XREC_ROUNDTRIP
360
74
  0
DICTIONARY
  5
7B
330
3A
100
AcDbDictionary
280
     1
281
     1
  3
ACAD_XREC_ROUNDTRIP
360
7C
  0
DICTIONARY
  5
6F
330
34
100
AcDbDictionary
280
     1
281
     1
  3
ACAD_XREC_ROUNDTRIP
360
70
  0
DICTIONARY
  5
71
330
35
100
AcDbDictionary
280
     1
281
     1
  3
ACAD_XREC_ROUNDTRIP
360
72
  0
DICTIONARY
  5
79
330
39
100
AcDbDictionary
280
     1
281
     1
  3
ACAD_XREC_ROUNDTRIP
360
7A
  0
DICTIONARY
  5
5D
330
2B
100
AcDbDictionary
280
     1
281
     1
  3
ACAD_XREC_ROUNDTRIP
360
5E
  0
DICTIONARY
  5
5F
330
2C
100
AcDbDictionary
280
     1
281
     1
  3
ACAD_XREC_ROUNDTRIP
360
60
  0
DICTIONARY
  5
61
330
2D
100
AcDbDictionary
280
     1
281
     1
  3
ACAD_XREC_ROUNDTRIP
360
62
  0
DICTIONARY
  5
63
330
2E
100
AcDbDictionary
280
     1
281
     1
  3
ACAD_XREC_ROUNDTRIP
360
64
  0
DICTIONARY
  5
77
330
38
100
AcDbDictionary
280
     1
281
     1
  3
ACAD_XREC_ROUNDTRIP
360
78
  0
DICTIONARY
  5
6D
330
33
100
AcDbDictionary
280
     1
281
     1
  3
ACAD_XREC_ROUNDTRIP
360
6E
  0
DICTIONARY
  5
75
330
37
100
AcDbDictionary
280
     1
281
     1
  3
ACAD_XREC_ROUNDTRIP
360
76
  0
XRECORD
  5
66
102
{ACAD_REACTORS
330
65
102
}
330
65
100
AcDbXrecord
280
     1
102
RTVSPropertyOp0
 70
     1
102
RTVSPropertyOp1
 70
     1
102
RTVSPropertyOp2
 70
     1
102
RTVSPropertyOp3
 70
     1
102
RTVSPropertyOp4
 70
     1
102
RTVSPropertyOp5
 70
     1
102
RTVSPropertyOp6
 70
     1
102
RTVSPropertyOp7
 70
     1
102
RTVSPropertyOp8
 70
     1
102
RTVSPropertyOp9
 70
     1
102
RTVSPropertyOp10
 70
     1
102
RTVSPropertyOp11
 70
     1
102
RTVSPropertyOp12
 70
     1
102
RTVSPropertyOp13
 70
     1
102
RTVSPropertyOp14
 70
     1
102
RTVSPropertyOp15
 70
     1
102
RTVSPropertyOp16
 70
     1
102
RTVSPropertyOp17
 70
     1
102
RTVSPropertyOp18
 70
     1
102
RTVSPropertyOp19
 70
     1
102
RTVSPropertyOp20
 70
     1
102
RTVSPropertyOp21
 70
     1
102
RTVSPropertyOp22
 70
     1
102
RTVSPropertyOp23
 70
     1
102
RTVSPropertyOp24
 70
     1
102
RTVSPropertyOp25
 70
     1
102
RTVSPropertyOp26
 70
     1
102
RTVSPropertyOp27
 70
     1
  0
XRECORD
  5
6A
102
{ACAD_REACTORS
330
69
102
}
330
69
100
AcDbXrecord
280
     1
102
RTVSPropertyOp0
 70
     1
102
RTVSPropertyOp1
 70
     1
102
RTVSPropertyOp2
 70
     1
102
RTVSPropertyOp3
 70
     1
102
RTVSPropertyOp4
 70
     1
102
RTVSPropertyOp5
 70
     1
102
RTVSPropertyOp6
 70
     1
102
RTVSPropertyOp7
 70
     1
102
RTVSPropertyOp8
 70
     1
102
RTVSPropertyOp9
 70
     1
102
RTVSPropertyOp10
 70
     1
102
RTVSPropertyOp11
 70
     1
102
RTVSPropertyOp12
 70
     1
102
RTVSPropertyOp13
 70
     1
102
RTVSPropertyOp14
 70
     1
102
RTVSPropertyOp15
 70
     1
102
RTVSPropertyOp16
 70
     1
102
RTVSPropertyOp17
 70
     1
102
RTVSPropertyOp18
 70
     1
102
RTVSPropertyOp19
 70
     1
102
RTVSPropertyOp20
 70
     1
102
RTVSPropertyOp21
 70
     1
102
RTVSPropertyOp22
 70
     1
102
RTVSPropertyOp23
 70
     1
102
RTVSPropertyOp24
 70
     1
102
RTVSPropertyOp25
 70
     1
102
RTVSPropertyOp26
 70
     1
102
RTVSPropertyOp27
 70
     1
  0
XRECORD
  5
68
102
{ACAD_REACTORS
330
67
102
}
330
67
100
AcDbXrecord
280
     1
102
RTVSPropertyOp0
 70
     1
102
RTVSPropertyOp1
 70
     1
102
RTVSPropertyOp2
 70
     1
102
RTVSPropertyOp3
 70
     1
102
RTVSPropertyOp4
 70
     1
102
RTVSPropertyOp5
 70
     1
102
RTVSPropertyOp6
 70
     1
102
RTVSPropertyOp7
 70
     1
102
RTVSPropertyOp8
 70
     1
102
RTVSPropertyOp9
 70
     1
102
RTVSPropertyOp10
 70
     1
102
RTVSPropertyOp11
 70
     1
102
RTVSPropertyOp12
 70
     1
102
RTVSPropertyOp13
 70
     1
102
RTVSPropertyOp14
 70
     1
102
RTVSPropertyOp15
 70
     1
102
RTVSPropertyOp16
 70
     1
102
RTVSPropertyOp17
 70
     1
102
RTVSPropertyOp18
 70
     1
102
RTVSPropertyOp19
 70
     1
102
RTVSPropertyOp20
 70
     1
102
RTVSPropertyOp21
 70
     1
102
RTVSPropertyOp22
 70
     1
102
RTVSPropertyOp23
 70
     1
102
RTVSPropertyOp24
 70
     1
102
RTVSPropertyOp25
 70
     1
102
RTVSPropertyOp26
 70
     1
102
RTVSPropertyOp27
 70
     1
  0
XRECORD
  5
6C
102
{ACAD_REACTORS
330
6B
102
}
330
6B
100
AcDbXrecord
280
     1
102
RTVSPropertyOp0
 70
     1
102
RTVSPropertyOp1
 70
     1
102
RTVSPropertyOp2
 70
     1
102
RTVSPropertyOp3
 70
     1
102
RTVSPropertyOp4
 70
     1
102
RTVSPropertyOp5
 70
     1
102
RTVSPropertyOp6
 70
     1
102
RTVSPropertyOp7
 70
     1
102
RTVSPropertyOp8
 70
     1
102
RTVSPropertyOp9
 70
     1
102
RTVSPropertyOp10
 70
     1
102
RTVSPropertyOp11
 70
     1
102
RTVSPropertyOp12
 70
     1
102
RTVSPropertyOp13
 70
     1
102
RTVSPropertyOp14
 70
     1
102
RTVSPropertyOp15
 70
     1
102
RTVSPropertyOp16
 70
     1
102
RTVSPropertyOp17
 70
     1
102
RTVSPropertyOp18
 70
     1
102
RTVSPropertyOp19
 70
     1
102
RTVSPropertyOp20
 70
     1
102
RTVSPropertyOp21
 70
     1
102
RTVSPropertyOp22
 70
     1
102
RTVSPropertyOp23
 70
     1
102
RTVSPropertyOp24
 70
     1
102
RTVSPropertyOp25
 70
     1
102
RTVSPropertyOp26
 70
     1
102
RTVSPropertyOp27
 70
     1
  0
XRECORD
  5
74
102
{ACAD_REACTORS
330
73
102
}
330
73
100
AcDbXrecord
280
     1
102
RTVSPropertyOp0
 70
     1
102
RTVSPropertyOp1
 70
     1
102
RTVSPropertyOp2
 70
     1
102
RTVSPropertyOp3
 70
     1
102
RTVSPropertyOp4
 70
     1
102
RTVSPropertyOp5
 70
     1
102
RTVSPropertyOp6
 70
     1
102
RTVSPropertyOp7
 70
     1
102
RTVSPropertyOp8
 70
     1
102
RTVSPropertyOp9
 70
     1
102
RTVSPropertyOp10
 70
     1
102
RTVSPropertyOp11
 70
     1
102
RTVSPropertyOp12
 70
     1
102
RTVSPropertyOp13
 70
     1
102
RTVSPropertyOp14
 70
     1
102
RTVSPropertyOp15
 70
     1
102
RTVSPropertyOp16
 70
     1
102
RTVSPropertyOp17
 70
     1
102
RTVSPropertyOp18
 70
     1
102
RTVSPropertyOp19
 70
     1
102
RTVSPropertyOp20
 70
     1
102
RTVSPropertyOp21
 70
     1
102
RTVSPropertyOp22
 70
     1
102
RTVSPropertyOp23
 70
     1
102
RTVSPropertyOp24
 70
     1
102
RTVSPropertyOp25
 70
     1
102
RTVSPropertyOp26
 70
     1
102
RTVSPropertyOp27
 70
     1
  0
XRECORD
  5
7C
102
{ACAD_REACTORS
330
7B
102
}
330
7B
100
AcDbXrecord
280
     1
102
RTVSPropertyOp0
 70
     1
102
RTVSPropertyOp1
 70
     1
102
RTVSPropertyOp2
 70
     1
102
RTVSPropertyOp3
 70
     1
102
RTVSPropertyOp4
 70
     1
102
RTVSPropertyOp5
 70
     1
102
RTVSPropertyOp6
 70
     1
102
RTVSPropertyOp7
 70
     1
102
RTVSPropertyOp8
 70
     1
102
RTVSPropertyOp9
 70
     1
102
RTVSPropertyOp10
 70
     1
102
RTVSPropertyOp11
 70
     1
102
RTVSPropertyOp12
 70
     1
102
RTVSPropertyOp13
 70
     1
102
RTVSPropertyOp14
 70
     1
102
RTVSPropertyOp15
 70
     1
102
RTVSPropertyOp16
 70
     1
102
RTVSPropertyOp17
 70
     1
102
RTVSPropertyOp18
 70
     1
102
RTVSPropertyOp19
 70
     1
102
RTVSPropertyOp20
 70
     1
102
RTVSPropertyOp21
 70
     1
102
RTVSPropertyOp22
 70
     1
102
RTVSPropertyOp23
 70
     1
102
RTVSPropertyOp24
 70
     1
102
RTVSPropertyOp25
 70
     1
102
RTVSPropertyOp26
 70
     1
102
RTVSPropertyOp27
 70
     1
  0
XRECORD
  5
70
102
{ACAD_REACTORS
330
6F
102
}
330
6F
100
AcDbXrecord
280
     1
102
RTVSPropertyOp0
 70
     1
102
RTVSPropertyOp1
 70
     1
102
RTVSPropertyOp2
 70
     1
102
RTVSPropertyOp3
 70
     1
102
RTVSPropertyOp4
 70
     1
102
RTVSPropertyOp5
 70
     1
102
RTVSPropertyOp6
 70
     1
102
RTVSPropertyOp7
 70
     1
102
RTVSPropertyOp8
 70
     1
102
RTVSPropertyOp9
 70
     1
102
RTVSPropertyOp10
 70
     1
102
RTVSPropertyOp11
 70
     1
102
RTVSPropertyOp12
 70
     1
102
RTVSPropertyOp13
 70
     1
102
RTVSPropertyOp14
 70
     1
102
RTVSPropertyOp15
 70
     1
102
RTVSPropertyOp16
 70
     1
102
RTVSPropertyOp17
 70
     1
102
RTVSPropertyOp18
 70
     1
102
RTVSPropertyOp19
 70
     1
102
RTVSPropertyOp20
 70
     1
102
RTVSPropertyOp21
 70
     1
102
RTVSPropertyOp22
 70
     1
102
RTVSPropertyOp23
 70
     1
102
RTVSPropertyOp24
 70
     1
102
RTVSPropertyOp25
 70
     1
102
RTVSPropertyOp26
 70
     1
102
RTVSPropertyOp27
 70
     1
  0
XRECORD
  5
72
102
{ACAD_REACTORS
330
71
102
}
330
71
100
AcDbXrecord
280
     1
102
RTVSPropertyOp0
 70
     1
102
RTVSPropertyOp1
 70
     1
102
RTVSPropertyOp2
 70
     1
102
RTVSPropertyOp3
 70
     1
102
RTVSPropertyOp4
 70
     1
102
RTVSPropertyOp5
 70
     1
102
RTVSPropertyOp6
 70
     1
102
RTVSPropertyOp7
 70
     1
102
RTVSPropertyOp8
 70
     1
102
RTVSPropertyOp9
 70
     1
102
RTVSPropertyOp10
 70
     1
102
RTVSPropertyOp11
 70
     1
102
RTVSPropertyOp12
 70
     1
102
RTVSPropertyOp13
 70
     1
102
RTVSPropertyOp14
 70
     1
102
RTVSPropertyOp15
 70
     1
102
RTVSPropertyOp16
 70
     1
102
RTVSPropertyOp17
 70
     1
102
RTVSPropertyOp18
 70
     1
102
RTVSPropertyOp19
 70
     1
102
RTVSPropertyOp20
 70
     1
102
RTVSPropertyOp21
 70
     1
102
RTVSPropertyOp22
 70
     1
102
RTVSPropertyOp23
 70
     1
102
RTVSPropertyOp24
 70
     1
102
RTVSPropertyOp25
 70
     1
102
RTVSPropertyOp26
 70
     1
102
RTVSPropertyOp27
 70
     1
  0
XRECORD
  5
7A
102
{ACAD_REACTORS
330
79
102
}
330
79
100
AcDbXrecord
280
     1
102
RTVSPropertyOp0
 70
     1
102
RTVSPropertyOp1
 70
     1
102
RTVSPropertyOp2
 70
     1
102
RTVSPropertyOp3
 70
     1
102
RTVSPropertyOp4
 70
     1
102
RTVSPropertyOp5
 70
     1
102
RTVSPropertyOp6
 70
     1
102
RTVSPropertyOp7
 70
     1
102
RTVSPropertyOp8
 70
     1
102
RTVSPropertyOp9
 70
     1
102
RTVSPropertyOp10
 70
     1
102
RTVSPropertyOp11
 70
     1
102
RTVSPropertyOp12
 70
     1
102
RTVSPropertyOp13
 70
     1
102
RTVSPropertyOp14
 70
     1
102
RTVSPropertyOp15
 70
     1
102
RTVSPropertyOp16
 70
     1
102
RTVSPropertyOp17
 70
     1
102
RTVSPropertyOp18
 70
     1
102
RTVSPropertyOp19
 70
     1
102
RTVSPropertyOp20
 70
     1
102
RTVSPropertyOp21
 70
     1
102
RTVSPropertyOp22
 70
     1
102
RTVSPropertyOp23
 70
     1
102
RTVSPropertyOp24
 70
     1
102
RTVSPropertyOp25
 70
     1
102
RTVSPropertyOp26
 70
     1
102
RTVSPropertyOp27
 70
     1
  0
XRECORD
  5
5E
102
{ACAD_REACTORS
330
5D
102
}
330
5D
100
AcDbXrecord
280
     1
102
RTVSPropertyOp0
 70
     1
102
RTVSPropertyOp1
 70
     1
102
RTVSPropertyOp2
 70
     1
102
RTVSPropertyOp3
 70
     1
102
RTVSPropertyOp4
 70
     1
102
RTVSPropertyOp5
 70
     1
102
RTVSPropertyOp6
 70
     1
102
RTVSPropertyOp7
 70
     1
102
RTVSPropertyOp8
 70
     1
102
RTVSPropertyOp9
 70
     1
102
RTVSPropertyOp10
 70
     1
102
RTVSPropertyOp11
 70
     1
102
RTVSPropertyOp12
 70
     1
102
RTVSPropertyOp13
 70
     1
102
RTVSPropertyOp14
 70
     1
102
RTVSPropertyOp15
 70
     1
102
RTVSPropertyOp16
 70
     1
102
RTVSPropertyOp17
 70
     1
102
RTVSPropertyOp18
 70
     1
102
RTVSPropertyOp19
 70
     1
102
RTVSPropertyOp20
 70
     1
102
RTVSPropertyOp21
 70
     1
102
RTVSPropertyOp22
 70
     1
102
RTVSPropertyOp23
 70
     1
102
RTVSPropertyOp24
 70
     1
102
RTVSPropertyOp25
 70
     1
102
RTVSPropertyOp26
 70
     1
102
RTVSPropertyOp27
 70
     1
  0
XRECORD
  5
60
102
{ACAD_REACTORS
330
5F
102
}
330
5F
100
AcDbXrecord
280
     1
102
RTVSPropertyOp0
 70
     1
102
RTVSPropertyOp1
 70
     1
102
RTVSPropertyOp2
 70
     1
102
RTVSPropertyOp3
 70
     1
102
RTVSPropertyOp4
 70
     1
102
RTVSPropertyOp5
 70
     1
102
RTVSPropertyOp6
 70
     1
102
RTVSPropertyOp7
 70
     1
102
RTVSPropertyOp8
 70
     1
102
RTVSPropertyOp9
 70
     1
102
RTVSPropertyOp10
 70
     1
102
RTVSPropertyOp11
 70
     1
102
RTVSPropertyOp12
 70
     1
102
RTVSPropertyOp13
 70
     1
102
RTVSPropertyOp14
 70
     1
102
RTVSPropertyOp15
 70
     1
102
RTVSPropertyOp16
 70
     1
102
RTVSPropertyOp17
 70
     1
102
RTVSPropertyOp18
 70
     1
102
RTVSPropertyOp19
 70
     1
102
RTVSPropertyOp20
 70
     1
102
RTVSPropertyOp21
 70
     1
102
RTVSPropertyOp22
 70
     1
102
RTVSPropertyOp23
 70
     1
102
RTVSPropertyOp24
 70
     1
102
RTVSPropertyOp25
 70
     1
102
RTVSPropertyOp26
 70
     1
102
RTVSPropertyOp27
 70
     1
  0
XRECORD
  5
62
102
{ACAD_REACTORS
330
61
102
}
330
61
100
AcDbXrecord
280
     1
102
RTVSPropertyOp0
 70
     1
102
RTVSPropertyOp1
 70
     1
102
RTVSPropertyOp2
 70
     1
102
RTVSPropertyOp3
 70
     1
102
RTVSPropertyOp4
 70
     1
102
RTVSPropertyOp5
 70
     1
102
RTVSPropertyOp6
 70
     1
102
RTVSPropertyOp7
 70
     1
102
RTVSPropertyOp8
 70
     1
102
RTVSPropertyOp9
 70
     1
102
RTVSPropertyOp10
 70
     1
102
RTVSPropertyOp11
 70
     1
102
RTVSPropertyOp12
 70
     1
102
RTVSPropertyOp13
 70
     1
102
RTVSPropertyOp14
 70
     1
102
RTVSPropertyOp15
 70
     1
102
RTVSPropertyOp16
 70
     1
102
RTVSPropertyOp17
 70
     1
102
RTVSPropertyOp18
 70
     1
102
RTVSPropertyOp19
 70
     1
102
RTVSPropertyOp20
 70
     1
102
RTVSPropertyOp21
 70
     1
102
RTVSPropertyOp22
 70
     1
102
RTVSPropertyOp23
 70
     1
102
RTVSPropertyOp24
 70
     1
102
RTVSPropertyOp25
 70
     1
102
RTVSPropertyOp26
 70
     1
102
RTVSPropertyOp27
 70
     1
  0
XRECORD
  5
64
102
{ACAD_REACTORS
330
63
102
}
330
63
100
AcDbXrecord
280
     1
102
RTVSPropertyOp0
 70
     1
102
RTVSPropertyOp1
 70
     1
102
RTVSPropertyOp2
 70
     1
102
RTVSPropertyOp3
 70
     1
102
RTVSPropertyOp4
 70
     1
102
RTVSPropertyOp5
 70
     1
102
RTVSPropertyOp6
 70
     1
102
RTVSPropertyOp7
 70
     1
102
RTVSPropertyOp8
 70
     1
102
RTVSPropertyOp9
 70
     1
102
RTVSPropertyOp10
 70
     1
102
RTVSPropertyOp11
 70
     1
102
RTVSPropertyOp12
 70
     1
102
RTVSPropertyOp13
 70
     1
102
RTVSPropertyOp14
 70
     1
102
RTVSPropertyOp15
 70
     1
102
RTVSPropertyOp16
 70
     1
102
RTVSPropertyOp17
 70
     1
102
RTVSPropertyOp18
 70
     1
102
RTVSPropertyOp19
 70
     1
102
RTVSPropertyOp20
 70
     1
102
RTVSPropertyOp21
 70
     1
102
RTVSPropertyOp22
 70
     1
102
RTVSPropertyOp23
 70
     1
102
RTVSPropertyOp24
 70
     1
102
RTVSPropertyOp25
 70
     1
102
RTVSPropertyOp26
 70
     1
102
RTVSPropertyOp27
 70
     1
  0
XRECORD
  5
78
102
{ACAD_REACTORS
330
77
102
}
330
77
100
AcDbXrecord
280
     1
102
RTVSPropertyOp0
 70
     1
102
RTVSPropertyOp1
 70
     1
102
RTVSPropertyOp2
 70
     1
102
RTVSPropertyOp3
 70
     1
102
RTVSPropertyOp4
 70
     1
102
RTVSPropertyOp5
 70
     1
102
RTVSPropertyOp6
 70
     1
102
RTVSPropertyOp7
 70
     1
102
RTVSPropertyOp8
 70
     1
102
RTVSPropertyOp9
 70
     1
102
RTVSPropertyOp10
 70
     1
102
RTVSPropertyOp11
 70
     1
102
RTVSPropertyOp12
 70
     1
102
RTVSPropertyOp13
 70
     1
102
RTVSPropertyOp14
 70
     1
102
RTVSPropertyOp15
 70
     1
102
RTVSPropertyOp16
 70
     1
102
RTVSPropertyOp17
 70
     1
102
RTVSPropertyOp18
 70
     1
102
RTVSPropertyOp19
 70
     1
102
RTVSPropertyOp20
 70
     1
102
RTVSPropertyOp21
 70
     1
102
RTVSPropertyOp22
 70
     1
102
RTVSPropertyOp23
 70
     1
102
RTVSPropertyOp24
 70
     1
102
RTVSPropertyOp25
 70
     1
102
RTVSPropertyOp26
 70
     1
102
RTVSPropertyOp27
 70
     1
  0
XRECORD
  5
6E
102
{ACAD_REACTORS
330
6D
102
}
330
6D
100
AcDbXrecord
280
     1
102
RTVSPropertyOp0
 70
     1
102
RTVSPropertyOp1
 70
     1
102
RTVSPropertyOp2
 70
     1
102
RTVSPropertyOp3
 70
     1
102
RTVSPropertyOp4
 70
     1
102
RTVSPropertyOp5
 70
     1
102
RTVSPropertyOp6
 70
     1
102
RTVSPropertyOp7
 70
     1
102
RTVSPropertyOp8
 70
     1
102
RTVSPropertyOp9
 70
     1
102
RTVSPropertyOp10
 70
     1
102
RTVSPropertyOp11
 70
     1
102
RTVSPropertyOp12
 70
     1
102
RTVSPropertyOp13
 70
     1
102
RTVSPropertyOp14
 70
     1
102
RTVSPropertyOp15
 70
     1
102
RTVSPropertyOp16
 70
     1
102
RTVSPropertyOp17
 70
     1
102
RTVSPropertyOp18
 70
     1
102
RTVSPropertyOp19
 70
     1
102
RTVSPropertyOp20
 70
     1
102
RTVSPropertyOp21
 70
     1
102
RTVSPropertyOp22
 70
     1
102
RTVSPropertyOp23
 70
     1
102
RTVSPropertyOp24
 70
     1
102
RTVSPropertyOp25
 70
     1
102
RTVSPropertyOp26
 70
     1
102
RTVSPropertyOp27
 70
     1
  0
XRECORD
  5
76
102
{ACAD_REACTORS
330
75
102
}
330
75
100
AcDbXrecord
280
     1
102
RTVSPropertyOp0
 70
     1
102
RTVSPropertyOp1
 70
     1
102
RTVSPropertyOp2
 70
     1
102
RTVSPropertyOp3
 70
     1
102
RTVSPropertyOp4
 70
     1
102
RTVSPropertyOp5
 70
     1
102
RTVSPropertyOp6
 70
     1
102
RTVSPropertyOp7
 70
     1
102
RTVSPropertyOp8
 70
     1
102
RTVSPropertyOp9
 70
     1
102
RTVSPropertyOp10
 70
     1
102
RTVSPropertyOp11
 70
     1
102
RTVSPropertyOp12
 70
     1
102
RTVSPropertyOp13
 70
     1
102
RTVSPropertyOp14
 70
     1
102
RTVSPropertyOp15
 70
     1
102
RTVSPropertyOp16
 70
     1
102
RTVSPropertyOp17
 70
     1
102
RTVSPropertyOp18
 70
     1
102
RTVSPropertyOp19
 70
     1
102
RTVSPropertyOp20
 70
     1
102
RTVSPropertyOp21
 70
     1
102
RTVSPropertyOp22
 70
     1
102
RTVSPropertyOp23
 70
     1
102
RTVSPropertyOp24
 70
     1
102
RTVSPropertyOp25
 70
     1
102
RTVSPropertyOp26
 70
     1
102
RTVSPropertyOp27
 70
     1
  0
ENDSEC
  0
EOF
