0
SECTION
2
HEADER
9
$ACADVER
1
AC1003
9
$INSBASE
10
0.0
20
0.0
30
0.0
9
$EXTMIN
10
0.000
20
0.000
30
0.0
9
$EXTMAX
10
1101.000
20
1824.000
30
0.0
9
$LIMMIN
10
0.000
20
0.000
9
$LIMMAX
10
1101.000
20
1824.000
9
$LTSCALE
40
1.0
9
$LUNITS
70
2
9
$LUPREC
70
3
9
$LIMCHECK
70
0
9
$UCSNAME
2

9
$UCSORG
10
0.0
20
0.0
30
0.0
9
$UCSXDIR
10
1.0
20
0.0
30
0.0
9
$UCSYDIR
10
0.0
20
1.0
30
0.0
9
$WORLDVIEW
70
1
9
$UNITMODE
70
0
0
ENDSEC
0
SECTION
2
TABLES
0
TABLE
2
VPORT
70
1
0
VPORT
2
*ACTIVE
70
0
10
0.0
20
0.0
11
1.0
21
1.0
12
550.500
22
912.000
13
0.0
23
0.0
14
1.0
24
1.0
15
0.0
25
0.0
16
0.0
26
0.0
36
1.0
17
0.0
27
0.0
37
0.0
40
500.0
41
1.657
42
50.0
43
0.0
44
0.0
50
0.0
51
0.0
71
0
72
100
73
1
74
1
75
0
76
0
77
0
78
0
0
ENDTAB
0
TABLE
2
LTYPE
70
1
0
LTYPE
2
CONTINUOUS
70
64
3
Solid line
72
65
73
0
40
0.000
0
ENDTAB
0
TABLE
2
LAYER
70
1
0
LAYER
2
0
70
64
62
7
6
CONTINUOUS
0
ENDTAB
0
ENDSEC
0
SECTION
2
BLOCKS
0
ENDSEC
0
SECTION
2
ENTITIES
0
POLYLINE
8
0
6
CONTINUOUS
66
1
62
250
10
0.0
20
0.0
30
0.000000
0
VERTEX
8
0
10
356.000000
20
1690.000000
0
VERTEX
8
0
10
345.000000
20
1690.000000
0
VERTEX
8
0
10
343.000000
20
1692.000000
0
SEQEND
0
POLYLINE
8
0
6
CONTINUOUS
66
1
62
250
10
0.0
20
0.0
30
0.000000
0
VERTEX
8
0
10
370.000000
20
1690.000000
0
VERTEX
8
0
10
381.000000
20
1690.000000
0
SEQEND
0
POLYLINE
8
0
6
CONTINUOUS
66
1
62
250
10
0.0
20
0.0
30
0.000000
0
VERTEX
8
0
10
429.000000
20
1690.000000
0
VERTEX
8
0
10
440.000000
20
1690.000000
0
SEQEND
0
POLYLINE
8
0
6
CONTINUOUS
66
1
62
250
10
0.0
20
0.0
30
0.000000
0
VERTEX
8
0
10
454.000000
20
1690.000000
42
0.293702
0
VERTEX
8
0
10
460.000000
20
1692.000000
0
SEQEND
0
POLYLINE
8
0
6
CONTINUOUS
66
1
62
250
10
0.0
20
0.0
30
0.000000
0
VERTEX
8
0
10
384.000000
20
1691.000000
42
0.515006
0
VERTEX
8
0
10
420.000000
20
1686.000000
0
VERTEX
8
0
10
425.000000
20
1689.000000
0
SEQEND
0
POLYLINE
8
0
6
CONTINUOUS
66
1
62
250
10
0.0
20
0.0
30
0.000000
0
VERTEX
8
0
10
450.000000
20
1528.000000
42
0.382598
0
VERTEX
8
0
10
473.000000
20
1560.000000
42
0.279413
0
VERTEX
8
0
10
451.000000
20
1582.000000
0
VERTEX
8
0
10
350.000000
20
1582.000000
42
0.827149
0
VERTEX
8
0
10
351.004950
20
1528.494951
0
VERTEX
8
0
10
450.000000
20
1528.000000
0
SEQEND
0
POLYLINE
8
0
6
CONTINUOUS
66
1
62
250
10
0.0
20
0.0
30
0.000000
0
VERTEX
8
0
10
285.000000
20
1481.000000
0
VERTEX
8
0
10
285.700000
20
1611.100000
42
-0.089095
0
VERTEX
8
0
10
312.800000
20
1664.100000
0
VERTEX
8
0
10
314.000000
20
1666.000000
0
VERTEX
8
0
10
332.000000
20
1685.000000
0
VERTEX
8
0
10
333.900000
20
1686.200000
42
-0.098879
0
VERTEX
8
0
10
343.000000
20
1692.000000
0
VERTEX
8
0
10
350.000000
20
1699.000000
0
VERTEX
8
0
10
387.100000
20
1733.800000
0
VERTEX
8
0
10
397.000000
20
1739.000000
42
-0.258317
0
VERTEX
8
0
10
422.216814
20
1727.247788
0
VERTEX
8
0
10
444.000000
20
1705.000000
0
VERTEX
8
0
10
451.211765
20
1699.247059
0
VERTEX
8
0
10
460.000000
20
1692.000000
42
-0.147252
0
VERTEX
8
0
10
493.760000
20
1661.820000
42
-0.085015
0
VERTEX
8
0
10
518.503816
20
1611.996241
0
VERTEX
8
0
10
519.000000
20
1481.000000
0
SEQEND
0
POLYLINE
8
0
6
CONTINUOUS
66
1
62
251
10
0.0
20
0.0
30
0.000000
0
VERTEX
8
0
10
311.000000
20
1480.000000
0
VERTEX
8
0
10
323.000000
20
1480.000000
0
SEQEND
0
POLYLINE
8
0
6
CONTINUOUS
66
1
62
251
10
0.0
20
0.0
30
0.000000
0
VERTEX
8
0
10
336.000000
20
1480.000000
0
VERTEX
8
0
10
348.000000
20
1480.000000
0
SEQEND
0
POLYLINE
8
0
6
CONTINUOUS
66
1
62
251
10
0.0
20
0.0
30
0.000000
0
VERTEX
8
0
10
361.000000
20
1480.000000
0
VERTEX
8
0
10
373.000000
20
1480.000000
0
SEQEND
0
POLYLINE
8
0
6
CONTINUOUS
66
1
62
251
10
0.0
20
0.0
30
0.000000
0
VERTEX
8
0
10
386.000000
20
1480.000000
0
VERTEX
8
0
10
398.000000
20
1480.000000
0
SEQEND
0
POLYLINE
8
0
6
CONTINUOUS
66
1
62
251
10
0.0
20
0.0
30
0.000000
0
VERTEX
8
0
10
411.000000
20
1480.000000
0
VERTEX
8
0
10
423.000000
20
1480.000000
0
SEQEND
0
POLYLINE
8
0
6
CONTINUOUS
66
1
62
251
10
0.0
20
0.0
30
0.000000
0
VERTEX
8
0
10
436.000000
20
1480.000000
0
VERTEX
8
0
10
448.000000
20
1480.000000
0
SEQEND
0
POLYLINE
8
0
6
CONTINUOUS
66
1
62
251
10
0.0
20
0.0
30
0.000000
0
VERTEX
8
0
10
461.000000
20
1480.000000
0
VERTEX
8
0
10
473.000000
20
1480.000000
0
SEQEND
0
POLYLINE
8
0
6
CONTINUOUS
66
1
62
251
10
0.0
20
0.0
30
0.000000
0
VERTEX
8
0
10
486.000000
20
1480.000000
0
VERTEX
8
0
10
498.000000
20
1480.000000
0
SEQEND
0
POLYLINE
8
0
6
CONTINUOUS
66
1
62
250
10
0.0
20
0.0
30
0.000000
0
VERTEX
8
0
10
519.000000
20
1476.000000
0
VERTEX
8
0
10
519.000000
20
1479.000000
0
VERTEX
8
0
10
518.000000
20
1480.000000
0
SEQEND
0
POLYLINE
8
0
6
CONTINUOUS
66
1
62
251
10
0.0
20
0.0
30
0.000000
0
VERTEX
8
0
10
984.000000
20
1474.000000
0
VERTEX
8
0
10
985.000000
20
1475.000000
0
VERTEX
8
0
10
985.000000
20
1480.000000
0
SEQEND
0
POLYLINE
8
0
6
CONTINUOUS
66
1
62
250
10
0.0
20
0.0
30
0.000000
0
VERTEX
8
0
10
285.000000
20
1458.000000
0
VERTEX
8
0
10
285.000000
20
1468.000000
0
SEQEND
0
POLYLINE
8
0
6
CONTINUOUS
66
1
62
250
10
0.0
20
0.0
30
0.000000
0
VERTEX
8
0
10
752.000000
20
1457.000000
0
VERTEX
8
0
10
752.000000
20
1468.000000
0
SEQEND
0
POLYLINE
8
0
6
CONTINUOUS
66
1
62
250
10
0.0
20
0.0
30
0.000000
0
VERTEX
8
0
10
519.000000
20
1451.000000
0
VERTEX
8
0
10
519.000000
20
1462.000000
0
SEQEND
0
POLYLINE
8
0
6
CONTINUOUS
66
1
62
252
10
0.0
20
0.0
30
0.000000
0
VERTEX
8
0
10
984.000000
20
1449.000000
0
VERTEX
8
0
10
985.000000
20
1450.000000
0
VERTEX
8
0
10
985.000000
20
1460.000000
0
SEQEND
0
POLYLINE
8
0
6
CONTINUOUS
66
1
62
250
10
0.0
20
0.0
30
0.000000
0
VERTEX
8
0
10
285.000000
20
1433.000000
0
VERTEX
8
0
10
285.000000
20
1443.000000
0
SEQEND
0
POLYLINE
8
0
6
CONTINUOUS
66
1
62
250
10
0.0
20
0.0
30
0.000000
0
VERTEX
8
0
10
752.000000
20
1432.000000
0
VERTEX
8
0
10
752.000000
20
1443.000000
0
SEQEND
0
POLYLINE
8
0
6
CONTINUOUS
66
1
62
250
10
0.0
20
0.0
30
0.000000
0
VERTEX
8
0
10
519.000000
20
1426.000000
0
VERTEX
8
0
10
519.000000
20
1437.000000
0
SEQEND
0
POLYLINE
8
0
6
CONTINUOUS
66
1
62
252
10
0.0
20
0.0
30
0.000000
0
VERTEX
8
0
10
984.000000
20
1424.000000
0
VERTEX
8
0
10
985.000000
20
1425.000000
0
VERTEX
8
0
10
985.000000
20
1435.000000
0
SEQEND
0
POLYLINE
8
0
6
CONTINUOUS
66
1
62
250
10
0.0
20
0.0
30
0.000000
0
VERTEX
8
0
10
285.000000
20
1408.000000
0
VERTEX
8
0
10
285.000000
20
1418.000000
0
SEQEND
0
POLYLINE
8
0
6
CONTINUOUS
66
1
62
250
10
0.0
20
0.0
30
0.000000
0
VERTEX
8
0
10
752.000000
20
1407.000000
0
VERTEX
8
0
10
752.000000
20
1418.000000
0
SEQEND
0
POLYLINE
8
0
6
CONTINUOUS
66
1
62
250
10
0.0
20
0.0
30
0.000000
0
VERTEX
8
0
10
519.000000
20
1401.000000
0
VERTEX
8
0
10
519.000000
20
1412.000000
0
SEQEND
0
POLYLINE
8
0
6
CONTINUOUS
66
1
62
252
10
0.0
20
0.0
30
0.000000
0
VERTEX
8
0
10
984.000000
20
1399.000000
0
VERTEX
8
0
10
985.000000
20
1400.000000
0
VERTEX
8
0
10
985.000000
20
1410.000000
0
SEQEND
0
POLYLINE
8
0
6
CONTINUOUS
66
1
62
250
10
0.0
20
0.0
30
0.000000
0
VERTEX
8
0
10
217.000000
20
1388.000000
42
0.240260
0
VERTEX
8
0
10
239.000000
20
1409.000000
42
0.397842
0
VERTEX
8
0
10
217.000000
20
1442.000000
0
VERTEX
8
0
10
117.000000
20
1442.000000
42
0.515020
0
VERTEX
8
0
10
98.230769
20
1401.153846
42
0.225369
0
VERTEX
8
0
10
117.004901
20
1388.495001
0
VERTEX
8
0
10
217.000000
20
1388.000000
0
SEQEND
0
POLYLINE
8
0
6
CONTINUOUS
66
1
62
250
10
0.0
20
0.0
30
0.000000
0
VERTEX
8
0
10
451.000000
20
1388.000000
42
0.249520
0
VERTEX
8
0
10
473.000000
20
1410.000000
42
0.406778
0
VERTEX
8
0
10
450.000000
20
1442.000000
0
VERTEX
8
0
10
350.000000
20
1442.000000
42
0.808414
0
VERTEX
8
0
10
350.004853
20
1388.495050
0
VERTEX
8
0
10
451.000000
20
1388.000000
0
SEQEND
0
POLYLINE
8
0
6
CONTINUOUS
66
1
62
250
10
0.0
20
0.0
30
0.000000
0
VERTEX
8
0
10
917.000000
20
1388.000000
42
0.240260
0
VERTEX
8
0
10
939.000000
20
1409.000000
42
0.401817
0
VERTEX
8
0
10
917.000000
20
1442.000000
0
VERTEX
8
0
10
817.000000
20
1442.000000
42
0.686483
0
VERTEX
8
0
10
807.900000
20
1391.800000
42
0.086528
0
VERTEX
8
0
10
817.004901
20
1388.495001
0
VERTEX
8
0
10
917.000000
20
1388.000000
0
SEQEND
0
POLYLINE
8
0
6
CONTINUOUS
66
1
62
250
10
0.0
20
0.0
30
0.000000
0
VERTEX
8
0
10
637.000000
20
1387.000000
0
VERTEX
8
0
10
686.990204
20
1388.489804
42
0.499070
0
VERTEX
8
0
10
705.760000
20
1427.820000
42
0.188474
0
VERTEX
8
0
10
687.000000
20
1442.000000
0
VERTEX
8
0
10
586.000000
20
1442.000000
42
0.668054
0
VERTEX
8
0
10
577.100000
20
1392.200000
0
VERTEX
8
0
10
579.900000
20
1390.800000
0
VERTEX
8
0
10
586.009992
20
1388.489592
0
VERTEX
8
0
10
637.000000
20
1387.000000
0
SEQEND
0
POLYLINE
8
0
6
CONTINUOUS
66
1
62
250
10
0.0
20
0.0
30
0.000000
0
VERTEX
8
0
10
285.000000
20
1383.000000
0
VERTEX
8
0
10
285.000000
20
1393.000000
0
SEQEND
0
POLYLINE
8
0
6
CONTINUOUS
66
1
62
250
10
0.0
20
0.0
30
0.000000
0
VERTEX
8
0
10
752.000000
20
1382.000000
0
VERTEX
8
0
10
752.000000
20
1393.000000
0
SEQEND
0
POLYLINE
8
0
6
CONTINUOUS
66
1
62
250
10
0.0
20
0.0
30
0.000000
0
VERTEX
8
0
10
635.000000
20
1379.000000
0
VERTEX
8
0
10
636.000000
20
1387.000000
0
SEQEND
0
POLYLINE
8
0
6
CONTINUOUS
66
1
62
250
10
0.0
20
0.0
30
0.000000
0
VERTEX
8
0
10
519.000000
20
1376.000000
0
VERTEX
8
0
10
519.000000
20
1387.000000
0
SEQEND
0
POLYLINE
8
0
6
CONTINUOUS
66
1
62
252
10
0.0
20
0.0
30
0.000000
0
VERTEX
8
0
10
984.000000
20
1374.000000
0
VERTEX
8
0
10
985.000000
20
1375.000000
0
VERTEX
8
0
10
985.000000
20
1385.000000
0
SEQEND
0
POLYLINE
8
0
6
CONTINUOUS
66
1
62
27
10
0.0
20
0.0
30
0.000000
0
VERTEX
8
0
10
165.000000
20
1370.000000
0
VERTEX
8
0
10
168.000000
20
1380.000000
0
SEQEND
0
POLYLINE
8
0
6
CONTINUOUS
66
1
62
250
10
0.0
20
0.0
30
0.000000
0
VERTEX
8
0
10
174.000000
20
1368.000000
0
VERTEX
8
0
10
171.000000
20
1379.000000
0
SEQEND
0
POLYLINE
8
0
6
CONTINUOUS
66
1
62
250
10
0.0
20
0.0
30
0.000000
0
VERTEX
8
0
10
285.000000
20
1358.000000
0
VERTEX
8
0
10
285.000000
20
1368.000000
0
SEQEND
0
POLYLINE
8
0
6
CONTINUOUS
66
1
62
27
10
0.0
20
0.0
30
0.000000
0
VERTEX
8
0
10
643.000000
20
1358.000000
42
0.103942
0
VERTEX
8
0
10
639.000000
20
1369.000000
0
SEQEND
0
POLYLINE
8
0
6
CONTINUOUS
66
1
62
250
10
0.0
20
0.0
30
0.000000
0
VERTEX
8
0
10
752.000000
20
1357.000000
0
VERTEX
8
0
10
752.000000
20
1368.000000
0
SEQEND
0
POLYLINE
8
0
6
CONTINUOUS
66
1
62
250
10
0.0
20
0.0
30
0.000000
0
VERTEX
8
0
10
629.000000
20
1355.000000
0
VERTEX
8
0
10
631.000000
20
1366.000000
0
SEQEND
0
POLYLINE
8
0
6
CONTINUOUS
66
1
62
250
10
0.0
20
0.0
30
0.000000
0
VERTEX
8
0
10
519.000000
20
1351.000000
0
VERTEX
8
0
10
519.000000
20
1362.000000
0
SEQEND
0
POLYLINE
8
0
6
CONTINUOUS
66
1
62
252
10
0.0
20
0.0
30
0.000000
0
VERTEX
8
0
10
984.000000
20
1349.000000
0
VERTEX
8
0
10
985.000000
20
1350.000000
0
VERTEX
8
0
10
985.000000
20
1360.000000
0
SEQEND
0
POLYLINE
8
0
6
CONTINUOUS
66
1
62
250
10
0.0
20
0.0
30
0.000000
0
VERTEX
8
0
10
160.000000
20
1345.000000
0
VERTEX
8
0
10
162.000000
20
1356.000000
0
SEQEND
0
POLYLINE
8
0
6
CONTINUOUS
66
1
62
250
10
0.0
20
0.0
30
0.000000
0
VERTEX
8
0
10
179.000000
20
1344.000000
0
VERTEX
8
0
10
177.000000
20
1354.000000
0
SEQEND
0
POLYLINE
8
0
6
CONTINUOUS
66
1
62
250
10
0.0
20
0.0
30
0.000000
0
VERTEX
8
0
10
648.000000
20
1334.000000
0
VERTEX
8
0
10
646.000000
20
1344.000000
0
SEQEND
0
POLYLINE
8
0
6
CONTINUOUS
66
1
62
250
10
0.0
20
0.0
30
0.000000
0
VERTEX
8
0
10
285.000000
20
1333.000000
0
VERTEX
8
0
10
285.000000
20
1343.000000
0
SEQEND
0
POLYLINE
8
0
6
CONTINUOUS
66
1
62
250
10
0.0
20
0.0
30
0.000000
0
VERTEX
8
0
10
752.000000
20
1332.000000
0
VERTEX
8
0
10
752.000000
20
1343.000000
0
SEQEND
0
POLYLINE
8
0
6
CONTINUOUS
66
1
62
250
10
0.0
20
0.0
30
0.000000
0
VERTEX
8
0
10
623.000000
20
1331.000000
0
VERTEX
8
0
10
625.000000
20
1341.000000
0
SEQEND
0
POLYLINE
8
0
6
CONTINUOUS
66
1
62
250
10
0.0
20
0.0
30
0.000000
0
VERTEX
8
0
10
519.000000
20
1326.000000
0
VERTEX
8
0
10
519.000000
20
1337.000000
0
SEQEND
0
POLYLINE
8
0
6
CONTINUOUS
66
1
62
252
10
0.0
20
0.0
30
0.000000
0
VERTEX
8
0
10
984.000000
20
1324.000000
0
VERTEX
8
0
10
985.000000
20
1325.000000
0
VERTEX
8
0
10
985.000000
20
1335.000000
0
SEQEND
0
POLYLINE
8
0
6
CONTINUOUS
66
1
62
250
10
0.0
20
0.0
30
0.000000
0
VERTEX
8
0
10
154.000000
20
1321.000000
42
-0.100044
0
VERTEX
8
0
10
157.000000
20
1332.000000
0
SEQEND
0
POLYLINE
8
0
6
CONTINUOUS
66
1
62
250
10
0.0
20
0.0
30
0.000000
0
VERTEX
8
0
10
185.000000
20
1319.000000
0
VERTEX
8
0
10
182.000000
20
1330.000000
0
SEQEND
0
POLYLINE
8
0
6
CONTINUOUS
66
1
62
250
10
0.0
20
0.0
30
0.000000
0
VERTEX
8
0
10
654.000000
20
1309.000000
42
0.084471
0
VERTEX
8
0
10
651.000000
20
1320.000000
0
SEQEND
0
POLYLINE
8
0
6
CONTINUOUS
66
1
62
250
10
0.0
20
0.0
30
0.000000
0
VERTEX
8
0
10
285.000000
20
1308.000000
0
VERTEX
8
0
10
285.000000
20
1318.000000
0
SEQEND
0
POLYLINE
8
0
6
CONTINUOUS
66
1
62
250
10
0.0
20
0.0
30
0.000000
0
VERTEX
8
0
10
752.000000
20
1307.000000
0
VERTEX
8
0
10
752.000000
20
1318.000000
0
SEQEND
0
POLYLINE
8
0
6
CONTINUOUS
66
1
62
250
10
0.0
20
0.0
30
0.000000
0
VERTEX
8
0
10
617.000000
20
1306.000000
0
VERTEX
8
0
10
617.615385
20
1308.076923
42
-0.075753
0
VERTEX
8
0
10
620.000000
20
1317.000000
0
SEQEND
0
POLYLINE
8
0
6
CONTINUOUS
66
1
62
250
10
0.0
20
0.0
30
0.000000
0
VERTEX
8
0
10
519.000000
20
1301.000000
0
VERTEX
8
0
10
519.000000
20
1312.000000
0
SEQEND
0
POLYLINE
8
0
6
CONTINUOUS
66
1
62
252
10
0.0
20
0.0
30
0.000000
0
VERTEX
8
0
10
984.000000
20
1299.000000
0
VERTEX
8
0
10
985.000000
20
1300.000000
0
VERTEX
8
0
10
985.000000
20
1310.000000
0
SEQEND
0
POLYLINE
8
0
6
CONTINUOUS
66
1
62
250
10
0.0
20
0.0
30
0.000000
0
VERTEX
8
0
10
148.000000
20
1296.000000
0
VERTEX
8
0
10
150.000000
20
1307.000000
0
SEQEND
0
POLYLINE
8
0
6
CONTINUOUS
66
1
62
250
10
0.0
20
0.0
30
0.000000
0
VERTEX
8
0
10
191.000000
20
1295.000000
0
VERTEX
8
0
10
188.000000
20
1306.000000
0
SEQEND
0
POLYLINE
8
0
6
CONTINUOUS
66
1
62
250
10
0.0
20
0.0
30
0.000000
0
VERTEX
8
0
10
660.000000
20
1285.000000
0
VERTEX
8
0
10
657.000000
20
1295.000000
0
SEQEND
0
POLYLINE
8
0
6
CONTINUOUS
66
1
62
250
10
0.0
20
0.0
30
0.000000
0
VERTEX
8
0
10
827.000000
20
1284.000000
42
0.065166
0
VERTEX
8
0
10
836.000000
20
1292.000000
42
-0.119352
0
VERTEX
8
0
10
841.100000
20
1290.200000
0
VERTEX
8
0
10
842.000000
20
1290.000000
0
VERTEX
8
0
10
845.000000
20
1292.000000
0
VERTEX
8
0
10
877.000000
20
1292.000000
42
0.120666
0
VERTEX
8
0
10
881.000000
20
1290.000000
42
-0.120666
0
VERTEX
8
0
10
885.000000
20
1292.000000
0
VERTEX
8
0
10
886.000000
20
1293.000000
0
SEQEND
0
POLYLINE
8
0
6
CONTINUOUS
66
1
62
250
10
0.0
20
0.0
30
0.000000
0
VERTEX
8
0
10
285.000000
20
1283.000000
0
VERTEX
8
0
10
285.000000
20
1293.000000
0
SEQEND
0
POLYLINE
8
0
6
CONTINUOUS
66
1
62
250
10
0.0
20
0.0
30
0.000000
0
VERTEX
8
0
10
611.000000
20
1283.000000
0
VERTEX
8
0
10
614.000000
20
1293.000000
0
SEQEND
0
POLYLINE
8
0
6
CONTINUOUS
66
1
62
250
10
0.0
20
0.0
30
0.000000
0
VERTEX
8
0
10
895.000000
20
1283.000000
0
VERTEX
8
0
10
885.000000
20
1292.000000
0
SEQEND
0
POLYLINE
8
0
6
CONTINUOUS
66
1
62
250
10
0.0
20
0.0
30
0.000000
0
VERTEX
8
0
10
752.000000
20
1282.000000
0
VERTEX
8
0
10
752.000000
20
1293.000000
0
SEQEND
0
POLYLINE
8
0
6
CONTINUOUS
66
1
62
250
10
0.0
20
0.0
30
0.000000
0
VERTEX
8
0
10
842.000000
20
1290.000000
0
VERTEX
8
0
10
842.000000
20
1288.000000
0
VERTEX
8
0
10
844.000000
20
1286.000000
0
VERTEX
8
0
10
854.100000
20
1280.300000
0
VERTEX
8
0
10
857.000000
20
1279.000000
42
0.268964
0
VERTEX
8
0
10
881.000000
20
1290.000000
0
SEQEND
0
POLYLINE
8
0
6
CONTINUOUS
66
1
62
250
10
0.0
20
0.0
30
0.000000
0
VERTEX
8
0
10
519.000000
20
1276.000000
0
VERTEX
8
0
10
519.000000
20
1287.000000
0
SEQEND
0
POLYLINE
8
0
6
CONTINUOUS
66
1
62
252
10
0.0
20
0.0
30
0.000000
0
VERTEX
8
0
10
984.000000
20
1274.000000
0
VERTEX
8
0
10
985.000000
20
1275.000000
0
VERTEX
8
0
10
985.000000
20
1285.000000
0
SEQEND
0
POLYLINE
8
0
6
CONTINUOUS
66
1
62
27
10
0.0
20
0.0
30
0.000000
0
VERTEX
8
0
10
142.000000
20
1273.000000
0
VERTEX
8
0
10
145.000000
20
1283.000000
0
SEQEND
0
POLYLINE
8
0
6
CONTINUOUS
66
1
62
247
10
0.0
20
0.0
30
0.000000
0
VERTEX
8
0
10
196.000000
20
1271.000000
42
0.129625
0
VERTEX
8
0
10
192.000000
20
1282.000000
0
SEQEND
0
POLYLINE
8
0
6
CONTINUOUS
66
1
62
250
10
0.0
20
0.0
30
0.000000
0
VERTEX
8
0
10
814.000000
20
1271.000000
42
-0.150174
0
VERTEX
8
0
10
818.000000
20
1274.000000
0
SEQEND
0
POLYLINE
8
0
6
CONTINUOUS
66
1
62
250
10
0.0
20
0.0
30
0.000000
0
VERTEX
8
0
10
910.000000
20
1269.000000
0
VERTEX
8
0
10
905.000000
20
1273.000000
0
SEQEND
0
POLYLINE
8
0
6
CONTINUOUS
66
1
62
250
10
0.0
20
0.0
30
0.000000
0
VERTEX
8
0
10
665.000000
20
1260.000000
0
VERTEX
8
0
10
663.000000
20
1271.000000
0
SEQEND
0
POLYLINE
8
0
6
CONTINUOUS
66
1
62
250
10
0.0
20
0.0
30
0.000000
0
VERTEX
8
0
10
285.000000
20
1258.000000
0
VERTEX
8
0
10
285.000000
20
1268.000000
0
SEQEND
0
POLYLINE
8
0
6
CONTINUOUS
66
1
62
250
10
0.0
20
0.0
30
0.000000
0
VERTEX
8
0
10
606.000000
20
1258.000000
42
-0.072160
0
VERTEX
8
0
10
608.000000
20
1268.000000
0
SEQEND
0
POLYLINE
8
0
6
CONTINUOUS
66
1
62
250
10
0.0
20
0.0
30
0.000000
0
VERTEX
8
0
10
752.000000
20
1257.000000
0
VERTEX
8
0
10
752.000000
20
1268.000000
0
SEQEND
0
POLYLINE
8
0
6
CONTINUOUS
66
1
62
250
10
0.0
20
0.0
30
0.000000
0
VERTEX
8
0
10
519.000000
20
1251.000000
0
VERTEX
8
0
10
519.000000
20
1262.000000
0
SEQEND
0
POLYLINE
8
0
6
CONTINUOUS
66
1
62
252
10
0.0
20
0.0
30
0.000000
0
VERTEX
8
0
10
984.000000
20
1249.000000
0
VERTEX
8
0
10
985.000000
20
1250.000000
0
VERTEX
8
0
10
985.000000
20
1260.000000
0
SEQEND
0
POLYLINE
8
0
6
CONTINUOUS
66
1
62
250
10
0.0
20
0.0
30
0.000000
0
VERTEX
8
0
10
137.000000
20
1248.000000
42
-0.072160
0
VERTEX
8
0
10
139.000000
20
1258.000000
0
SEQEND
0
POLYLINE
8
0
6
CONTINUOUS
66
1
62
250
10
0.0
20
0.0
30
0.000000
0
VERTEX
8
0
10
202.000000
20
1246.000000
0
VERTEX
8
0
10
199.000000
20
1257.000000
0
SEQEND
0
POLYLINE
8
0
6
CONTINUOUS
66
1
62
250
10
0.0
20
0.0
30
0.000000
0
VERTEX
8
0
10
813.000000
20
1267.000000
0
VERTEX
8
0
10
826.226244
20
1255.248869
42
0.071300
0
VERTEX
8
0
10
846.000000
20
1239.000000
0
VERTEX
8
0
10
874.000000
20
1239.000000
0
VERTEX
8
0
10
876.900000
20
1240.300000
0
VERTEX
8
0
10
908.000000
20
1264.000000
0
VERTEX
8
0
10
911.000000
20
1266.000000
0
SEQEND
0
POLYLINE
8
0
6
CONTINUOUS
66
1
62
250
10
0.0
20
0.0
30
0.000000
0
VERTEX
8
0
10
671.000000
20
1236.000000
0
VERTEX
8
0
10
668.000000
20
1247.000000
0
SEQEND
0
POLYLINE
8
0
6
CONTINUOUS
66
1
62
250
10
0.0
20
0.0
30
0.000000
0
VERTEX
8
0
10
600.000000
20
1234.000000
42
-0.100044
0
VERTEX
8
0
10
603.000000
20
1245.000000
0
SEQEND
0
POLYLINE
8
0
6
CONTINUOUS
66
1
62
250
10
0.0
20
0.0
30
0.000000
0
VERTEX
8
0
10
285.000000
20
1233.000000
0
VERTEX
8
0
10
285.000000
20
1243.000000
0
SEQEND
0
POLYLINE
8
0
6
CONTINUOUS
66
1
62
250
10
0.0
20
0.0
30
0.000000
0
VERTEX
8
0
10
752.000000
20
1232.000000
0
VERTEX
8
0
10
752.000000
20
1243.000000
0
SEQEND
0
POLYLINE
8
0
6
CONTINUOUS
66
1
62
250
10
0.0
20
0.0
30
0.000000
0
VERTEX
8
0
10
519.000000
20
1226.000000
0
VERTEX
8
0
10
519.000000
20
1237.000000
0
SEQEND
0
POLYLINE
8
0
6
CONTINUOUS
66
1
62
252
10
0.0
20
0.0
30
0.000000
0
VERTEX
8
0
10
984.000000
20
1224.000000
0
VERTEX
8
0
10
985.000000
20
1225.000000
0
VERTEX
8
0
10
985.000000
20
1235.000000
0
SEQEND
0
POLYLINE
8
0
6
CONTINUOUS
66
1
62
250
10
0.0
20
0.0
30
0.000000
0
VERTEX
8
0
10
131.000000
20
1223.000000
0
VERTEX
8
0
10
133.000000
20
1234.000000
0
SEQEND
0
POLYLINE
8
0
6
CONTINUOUS
66
1
62
250
10
0.0
20
0.0
30
0.000000
0
VERTEX
8
0
10
208.000000
20
1222.000000
42
-0.084895
0
VERTEX
8
0
10
205.000000
20
1232.000000
0
SEQEND
0
POLYLINE
8
0
6
CONTINUOUS
66
1
62
250
10
0.0
20
0.0
30
0.000000
0
VERTEX
8
0
10
677.000000
20
1212.000000
0
VERTEX
8
0
10
674.000000
20
1222.000000
0
SEQEND
0
POLYLINE
8
0
6
CONTINUOUS
66
1
62
250
10
0.0
20
0.0
30
0.000000
0
VERTEX
8
0
10
594.000000
20
1209.000000
0
VERTEX
8
0
10
596.000000
20
1220.000000
0
SEQEND
0
POLYLINE
8
0
6
CONTINUOUS
66
1
62
250
10
0.0
20
0.0
30
0.000000
0
VERTEX
8
0
10
285.000000
20
1208.000000
0
VERTEX
8
0
10
285.000000
20
1218.000000
0
SEQEND
0
POLYLINE
8
0
6
CONTINUOUS
66
1
62
250
10
0.0
20
0.0
30
0.000000
0
VERTEX
8
0
10
752.000000
20
1207.000000
0
VERTEX
8
0
10
752.000000
20
1218.000000
0
SEQEND
0
POLYLINE
8
0
6
CONTINUOUS
66
1
62
250
10
0.0
20
0.0
30
0.000000
0
VERTEX
8
0
10
519.000000
20
1201.000000
0
VERTEX
8
0
10
519.000000
20
1212.000000
0
SEQEND
0
POLYLINE
8
0
6
CONTINUOUS
66
1
62
250
10
0.0
20
0.0
30
0.000000
0
VERTEX
8
0
10
125.000000
20
1199.000000
0
VERTEX
8
0
10
128.000000
20
1210.000000
0
SEQEND
0
POLYLINE
8
0
6
CONTINUOUS
66
1
62
252
10
0.0
20
0.0
30
0.000000
0
VERTEX
8
0
10
984.000000
20
1199.000000
0
VERTEX
8
0
10
985.000000
20
1200.000000
0
VERTEX
8
0
10
985.000000
20
1210.000000
0
SEQEND
0
POLYLINE
8
0
6
CONTINUOUS
66
1
62
247
10
0.0
20
0.0
30
0.000000
0
VERTEX
8
0
10
212.000000
20
1197.000000
0
VERTEX
8
0
10
213.000000
20
1199.000000
42
-0.122524
0
VERTEX
8
0
10
211.000000
20
1208.000000
0
SEQEND
0
POLYLINE
8
0
6
CONTINUOUS
66
1
62
250
10
0.0
20
0.0
30
0.000000
0
VERTEX
8
0
10
682.000000
20
1187.000000
0
VERTEX
8
0
10
680.000000
20
1198.000000
0
SEQEND
0
POLYLINE
8
0
6
CONTINUOUS
66
1
62
250
10
0.0
20
0.0
30
0.000000
0
VERTEX
8
0
10
588.000000
20
1185.000000
0
VERTEX
8
0
10
590.000000
20
1195.000000
0
SEQEND
0
POLYLINE
8
0
6
CONTINUOUS
66
1
62
250
10
0.0
20
0.0
30
0.000000
0
VERTEX
8
0
10
285.000000
20
1183.000000
0
VERTEX
8
0
10
285.000000
20
1193.000000
0
SEQEND
0
POLYLINE
8
0
6
CONTINUOUS
66
1
62
250
10
0.0
20
0.0
30
0.000000
0
VERTEX
8
0
10
752.000000
20
1182.000000
0
VERTEX
8
0
10
752.000000
20
1193.000000
0
SEQEND
0
POLYLINE
8
0
6
CONTINUOUS
66
1
62
250
10
0.0
20
0.0
30
0.000000
0
VERTEX
8
0
10
519.000000
20
1176.000000
0
VERTEX
8
0
10
519.000000
20
1187.000000
0
SEQEND
0
POLYLINE
8
0
6
CONTINUOUS
66
1
62
250
10
0.0
20
0.0
30
0.000000
0
VERTEX
8
0
10
119.000000
20
1175.000000
0
VERTEX
8
0
10
120.384615
20
1179.923077
42
-0.070651
0
VERTEX
8
0
10
122.000000
20
1185.000000
0
SEQEND
0
POLYLINE
8
0
6
CONTINUOUS
66
1
62
252
10
0.0
20
0.0
30
0.000000
0
VERTEX
8
0
10
984.000000
20
1174.000000
0
VERTEX
8
0
10
985.000000
20
1175.000000
0
VERTEX
8
0
10
985.000000
20
1185.000000
0
SEQEND
0
POLYLINE
8
0
6
CONTINUOUS
66
1
62
250
10
0.0
20
0.0
30
0.000000
0
VERTEX
8
0
10
219.000000
20
1173.000000
0
VERTEX
8
0
10
216.000000
20
1184.000000
0
SEQEND
0
POLYLINE
8
0
6
CONTINUOUS
66
1
62
250
10
0.0
20
0.0
30
0.000000
0
VERTEX
8
0
10
688.000000
20
1163.000000
0
VERTEX
8
0
10
685.000000
20
1174.000000
0
SEQEND
0
POLYLINE
8
0
6
CONTINUOUS
66
1
62
250
10
0.0
20
0.0
30
0.000000
0
VERTEX
8
0
10
582.000000
20
1162.000000
0
VERTEX
8
0
10
585.000000
20
1171.000000
0
SEQEND
0
POLYLINE
8
0
6
CONTINUOUS
66
1
62
250
10
0.0
20
0.0
30
0.000000
0
VERTEX
8
0
10
285.000000
20
1158.000000
0
VERTEX
8
0
10
285.000000
20
1168.000000
0
SEQEND
0
POLYLINE
8
0
6
CONTINUOUS
66
1
62
250
10
0.0
20
0.0
30
0.000000
0
VERTEX
8
0
10
752.000000
20
1157.000000
0
VERTEX
8
0
10
752.000000
20
1168.000000
0
SEQEND
0
POLYLINE
8
0
6
CONTINUOUS
66
1
62
250
10
0.0
20
0.0
30
0.000000
0
VERTEX
8
0
10
519.000000
20
1151.000000
0
VERTEX
8
0
10
519.000000
20
1162.000000
0
SEQEND
0
POLYLINE
8
0
6
CONTINUOUS
66
1
62
27
10
0.0
20
0.0
30
0.000000
0
VERTEX
8
0
10
113.000000
20
1150.000000
0
VERTEX
8
0
10
116.000000
20
1161.000000
0
SEQEND
0
POLYLINE
8
0
6
CONTINUOUS
66
1
62
250
10
0.0
20
0.0
30
0.000000
0
VERTEX
8
0
10
224.000000
20
1149.000000
0
VERTEX
8
0
10
222.000000
20
1159.000000
0
SEQEND
0
POLYLINE
8
0
6
CONTINUOUS
66
1
62
252
10
0.0
20
0.0
30
0.000000
0
VERTEX
8
0
10
984.000000
20
1149.000000
0
VERTEX
8
0
10
985.000000
20
1150.000000
0
VERTEX
8
0
10
985.000000
20
1160.000000
0
SEQEND
0
POLYLINE
8
0
6
CONTINUOUS
66
1
62
250
10
0.0
20
0.0
30
0.000000
0
VERTEX
8
0
10
693.000000
20
1138.000000
0
VERTEX
8
0
10
691.000000
20
1149.000000
0
SEQEND
0
POLYLINE
8
0
6
CONTINUOUS
66
1
62
250
10
0.0
20
0.0
30
0.000000
0
VERTEX
8
0
10
576.000000
20
1137.000000
0
VERTEX
8
0
10
579.000000
20
1147.000000
0
SEQEND
0
POLYLINE
8
0
6
CONTINUOUS
66
1
62
250
10
0.0
20
0.0
30
0.000000
0
VERTEX
8
0
10
285.000000
20
1133.000000
0
VERTEX
8
0
10
285.000000
20
1143.000000
0
SEQEND
0
POLYLINE
8
0
6
CONTINUOUS
66
1
62
250
10
0.0
20
0.0
30
0.000000
0
VERTEX
8
0
10
752.000000
20
1132.000000
0
VERTEX
8
0
10
752.000000
20
1143.000000
0
SEQEND
0
POLYLINE
8
0
6
CONTINUOUS
66
1
62
250
10
0.0
20
0.0
30
0.000000
0
VERTEX
8
0
10
108.000000
20
1126.000000
0
VERTEX
8
0
10
110.000000
20
1137.000000
0
SEQEND
0
POLYLINE
8
0
6
CONTINUOUS
66
1
62
250
10
0.0
20
0.0
30
0.000000
0
VERTEX
8
0
10
519.000000
20
1126.000000
0
VERTEX
8
0
10
519.000000
20
1137.000000
0
SEQEND
0
POLYLINE
8
0
6
CONTINUOUS
66
1
62
247
10
0.0
20
0.0
30
0.000000
0
VERTEX
8
0
10
230.000000
20
1124.000000
42
0.099544
0
VERTEX
8
0
10
226.000000
20
1136.000000
0
SEQEND
0
POLYLINE
8
0
6
CONTINUOUS
66
1
62
252
10
0.0
20
0.0
30
0.000000
0
VERTEX
8
0
10
984.000000
20
1124.000000
0
VERTEX
8
0
10
985.000000
20
1125.000000
0
VERTEX
8
0
10
985.000000
20
1135.000000
0
SEQEND
0
POLYLINE
8
0
6
CONTINUOUS
66
1
62
247
10
0.0
20
0.0
30
0.000000
0
VERTEX
8
0
10
699.000000
20
1114.000000
0
VERTEX
8
0
10
696.000000
20
1125.000000
0
SEQEND
0
POLYLINE
8
0
6
CONTINUOUS
66
1
62
250
10
0.0
20
0.0
30
0.000000
0
VERTEX
8
0
10
571.000000
20
1112.000000
0
VERTEX
8
0
10
573.000000
20
1123.000000
0
SEQEND
0
POLYLINE
8
0
6
CONTINUOUS
66
1
62
250
10
0.0
20
0.0
30
0.000000
0
VERTEX
8
0
10
285.000000
20
1108.000000
0
VERTEX
8
0
10
285.000000
20
1118.000000
0
SEQEND
0
POLYLINE
8
0
6
CONTINUOUS
66
1
62
250
10
0.0
20
0.0
30
0.000000
0
VERTEX
8
0
10
752.000000
20
1107.000000
0
VERTEX
8
0
10
752.000000
20
1118.000000
0
SEQEND
0
POLYLINE
8
0
6
CONTINUOUS
66
1
62
250
10
0.0
20
0.0
30
0.000000
0
VERTEX
8
0
10
102.000000
20
1102.000000
0
VERTEX
8
0
10
104.000000
20
1112.000000
0
SEQEND
0
POLYLINE
8
0
6
CONTINUOUS
66
1
62
250
10
0.0
20
0.0
30
0.000000
0
VERTEX
8
0
10
519.000000
20
1101.000000
0
VERTEX
8
0
10
519.000000
20
1112.000000
0
SEQEND
0
POLYLINE
8
0
6
CONTINUOUS
66
1
62
250
10
0.0
20
0.0
30
0.000000
0
VERTEX
8
0
10
236.000000
20
1100.000000
0
VERTEX
8
0
10
233.000000
20
1111.000000
0
SEQEND
0
POLYLINE
8
0
6
CONTINUOUS
66
1
62
252
10
0.0
20
0.0
30
0.000000
0
VERTEX
8
0
10
984.000000
20
1099.000000
0
VERTEX
8
0
10
985.000000
20
1100.000000
0
VERTEX
8
0
10
985.000000
20
1110.000000
0
SEQEND
0
POLYLINE
8
0
6
CONTINUOUS
66
1
62
250
10
0.0
20
0.0
30
0.000000
0
VERTEX
8
0
10
705.000000
20
1090.000000
0
VERTEX
8
0
10
702.000000
20
1100.000000
0
SEQEND
0
POLYLINE
8
0
6
CONTINUOUS
66
1
62
250
10
0.0
20
0.0
30
0.000000
0
VERTEX
8
0
10
565.000000
20
1088.000000
0
VERTEX
8
0
10
567.000000
20
1098.000000
0
SEQEND
0
POLYLINE
8
0
6
CONTINUOUS
66
1
62
250
10
0.0
20
0.0
30
0.000000
0
VERTEX
8
0
10
285.000000
20
1083.000000
0
VERTEX
8
0
10
285.000000
20
1093.000000
0
SEQEND
0
POLYLINE
8
0
6
CONTINUOUS
66
1
62
250
10
0.0
20
0.0
30
0.000000
0
VERTEX
8
0
10
752.000000
20
1082.000000
0
VERTEX
8
0
10
752.000000
20
1093.000000
0
SEQEND
0
POLYLINE
8
0
6
CONTINUOUS
66
1
62
250
10
0.0
20
0.0
30
0.000000
0
VERTEX
8
0
10
96.000000
20
1078.000000
0
VERTEX
8
0
10
99.000000
20
1088.000000
0
SEQEND
0
POLYLINE
8
0
6
CONTINUOUS
66
1
62
250
10
0.0
20
0.0
30
0.000000
0
VERTEX
8
0
10
241.000000
20
1076.000000
0
VERTEX
8
0
10
239.000000
20
1086.000000
0
SEQEND
0
POLYLINE
8
0
6
CONTINUOUS
66
1
62
250
10
0.0
20
0.0
30
0.000000
0
VERTEX
8
0
10
519.000000
20
1076.000000
0
VERTEX
8
0
10
519.000000
20
1087.000000
0
SEQEND
0
POLYLINE
8
0
6
CONTINUOUS
66
1
62
252
10
0.0
20
0.0
30
0.000000
0
VERTEX
8
0
10
984.000000
20
1074.000000
0
VERTEX
8
0
10
985.000000
20
1075.000000
0
VERTEX
8
0
10
985.000000
20
1085.000000
0
SEQEND
0
POLYLINE
8
0
6
CONTINUOUS
66
1
62
250
10
0.0
20
0.0
30
0.000000
0
VERTEX
8
0
10
710.000000
20
1065.000000
0
VERTEX
8
0
10
708.000000
20
1076.000000
0
SEQEND
0
POLYLINE
8
0
6
CONTINUOUS
66
1
62
250
10
0.0
20
0.0
30
0.000000
0
VERTEX
8
0
10
559.000000
20
1063.000000
42
-0.068098
0
VERTEX
8
0
10
562.000000
20
1075.000000
0
SEQEND
0
POLYLINE
8
0
6
CONTINUOUS
66
1
62
250
10
0.0
20
0.0
30
0.000000
0
VERTEX
8
0
10
285.000000
20
1058.000000
0
VERTEX
8
0
10
285.000000
20
1068.000000
0
SEQEND
0
POLYLINE
8
0
6
CONTINUOUS
66
1
62
250
10
0.0
20
0.0
30
0.000000
0
VERTEX
8
0
10
752.000000
20
1057.000000
0
VERTEX
8
0
10
752.000000
20
1068.000000
0
SEQEND
0
POLYLINE
8
0
6
CONTINUOUS
66
1
62
250
10
0.0
20
0.0
30
0.000000
0
VERTEX
8
0
10
91.000000
20
1053.000000
0
VERTEX
8
0
10
93.000000
20
1064.000000
0
SEQEND
0
POLYLINE
8
0
6
CONTINUOUS
66
1
62
250
10
0.0
20
0.0
30
0.000000
0
VERTEX
8
0
10
247.000000
20
1051.000000
0
VERTEX
8
0
10
246.384615
20
1053.076923
42
0.075753
0
VERTEX
8
0
10
244.000000
20
1062.000000
0
SEQEND
0
POLYLINE
8
0
6
CONTINUOUS
66
1
62
250
10
0.0
20
0.0
30
0.000000
0
VERTEX
8
0
10
519.000000
20
1051.000000
0
VERTEX
8
0
10
519.000000
20
1062.000000
0
SEQEND
0
POLYLINE
8
0
6
CONTINUOUS
66
1
62
252
10
0.0
20
0.0
30
0.000000
0
VERTEX
8
0
10
984.000000
20
1049.000000
0
VERTEX
8
0
10
985.000000
20
1050.000000
0
VERTEX
8
0
10
985.000000
20
1060.000000
0
SEQEND
0
POLYLINE
8
0
6
CONTINUOUS
66
1
62
250
10
0.0
20
0.0
30
0.000000
0
VERTEX
8
0
10
716.000000
20
1041.000000
0
VERTEX
8
0
10
713.000000
20
1052.000000
0
SEQEND
0
POLYLINE
8
0
6
CONTINUOUS
66
1
62
250
10
0.0
20
0.0
30
0.000000
0
VERTEX
8
0
10
553.000000
20
1039.000000
0
VERTEX
8
0
10
556.000000
20
1050.000000
0
SEQEND
0
POLYLINE
8
0
6
CONTINUOUS
66
1
62
250
10
0.0
20
0.0
30
0.000000
0
VERTEX
8
0
10
285.000000
20
1032.000000
0
VERTEX
8
0
10
285.000000
20
1042.000000
0
SEQEND
0
POLYLINE
8
0
6
CONTINUOUS
66
1
62
250
10
0.0
20
0.0
30
0.000000
0
VERTEX
8
0
10
752.000000
20
1031.000000
0
VERTEX
8
0
10
752.000000
20
1042.000000
0
SEQEND
0
POLYLINE
8
0
6
CONTINUOUS
66
1
62
250
10
0.0
20
0.0
30
0.000000
0
VERTEX
8
0
10
85.000000
20
1029.000000
42
-0.100044
0
VERTEX
8
0
10
88.000000
20
1040.000000
0
SEQEND
0
POLYLINE
8
0
6
CONTINUOUS
66
1
62
250
10
0.0
20
0.0
30
0.000000
0
VERTEX
8
0
10
253.000000
20
1027.000000
0
VERTEX
8
0
10
250.000000
20
1038.000000
0
SEQEND
0
POLYLINE
8
0
6
CONTINUOUS
66
1
62
250
10
0.0
20
0.0
30
0.000000
0
VERTEX
8
0
10
519.000000
20
1026.000000
0
VERTEX
8
0
10
519.000000
20
1037.000000
0
SEQEND
0
POLYLINE
8
0
6
CONTINUOUS
66
1
62
252
10
0.0
20
0.0
30
0.000000
0
VERTEX
8
0
10
984.000000
20
1024.000000
0
VERTEX
8
0
10
985.000000
20
1025.000000
0
VERTEX
8
0
10
985.000000
20
1035.000000
0
SEQEND
0
POLYLINE
8
0
6
CONTINUOUS
66
1
62
250
10
0.0
20
0.0
30
0.000000
0
VERTEX
8
0
10
721.000000
20
1017.000000
0
VERTEX
8
0
10
719.000000
20
1027.000000
0
SEQEND
0
POLYLINE
8
0
6
CONTINUOUS
66
1
62
250
10
0.0
20
0.0
30
0.000000
0
VERTEX
8
0
10
547.000000
20
1016.000000
0
VERTEX
8
0
10
550.000000
20
1025.000000
0
SEQEND
0
POLYLINE
8
0
6
CONTINUOUS
66
1
62
250
10
0.0
20
0.0
30
0.000000
0
VERTEX
8
0
10
285.000000
20
1007.000000
0
VERTEX
8
0
10
285.000000
20
1017.000000
0
SEQEND
0
POLYLINE
8
0
6
CONTINUOUS
66
1
62
250
10
0.0
20
0.0
30
0.000000
0
VERTEX
8
0
10
752.000000
20
1006.000000
0
VERTEX
8
0
10
752.000000
20
1017.000000
0
SEQEND
0
POLYLINE
8
0
6
CONTINUOUS
66
1
62
250
10
0.0
20
0.0
30
0.000000
0
VERTEX
8
0
10
79.000000
20
1004.000000
0
VERTEX
8
0
10
81.000000
20
1015.000000
0
SEQEND
0
POLYLINE
8
0
6
CONTINUOUS
66
1
62
250
10
0.0
20
0.0
30
0.000000
0
VERTEX
8
0
10
258.000000
20
1003.000000
0
VERTEX
8
0
10
256.000000
20
1013.000000
0
SEQEND
0
POLYLINE
8
0
6
CONTINUOUS
66
1
62
250
10
0.0
20
0.0
30
0.000000
0
VERTEX
8
0
10
519.000000
20
1001.000000
0
VERTEX
8
0
10
519.000000
20
1012.000000
0
SEQEND
0
POLYLINE
8
0
6
CONTINUOUS
66
1
62
252
10
0.0
20
0.0
30
0.000000
0
VERTEX
8
0
10
984.000000
20
999.000000
0
VERTEX
8
0
10
985.000000
20
1000.000000
0
VERTEX
8
0
10
985.000000
20
1010.000000
0
SEQEND
0
POLYLINE
8
0
6
CONTINUOUS
66
1
62
27
10
0.0
20
0.0
30
0.000000
0
VERTEX
8
0
10
727.000000
20
992.000000
0
VERTEX
8
0
10
724.000000
20
1003.000000
0
SEQEND
0
POLYLINE
8
0
6
CONTINUOUS
66
1
62
27
10
0.0
20
0.0
30
0.000000
0
VERTEX
8
0
10
541.000000
20
991.000000
0
VERTEX
8
0
10
544.000000
20
1001.000000
0
SEQEND
0
POLYLINE
8
0
6
CONTINUOUS
66
1
62
250
10
0.0
20
0.0
30
0.000000
0
VERTEX
8
0
10
285.000000
20
982.000000
0
VERTEX
8
0
10
285.000000
20
992.000000
0
SEQEND
0
POLYLINE
8
0
6
CONTINUOUS
66
1
62
27
10
0.0
20
0.0
30
0.000000
0
VERTEX
8
0
10
73.000000
20
981.000000
0
VERTEX
8
0
10
76.000000
20
991.000000
0
SEQEND
0
POLYLINE
8
0
6
CONTINUOUS
66
1
62
250
10
0.0
20
0.0
30
0.000000
0
VERTEX
8
0
10
752.000000
20
981.000000
0
VERTEX
8
0
10
752.000000
20
992.000000
0
SEQEND
0
POLYLINE
8
0
6
CONTINUOUS
66
1
62
27
10
0.0
20
0.0
30
0.000000
0
VERTEX
8
0
10
264.000000
20
978.000000
0
VERTEX
8
0
10
261.000000
20
989.000000
0
SEQEND
0
POLYLINE
8
0
6
CONTINUOUS
66
1
62
250
10
0.0
20
0.0
30
0.000000
0
VERTEX
8
0
10
519.000000
20
976.000000
0
VERTEX
8
0
10
519.000000
20
987.000000
0
SEQEND
0
POLYLINE
8
0
6
CONTINUOUS
66
1
62
252
10
0.0
20
0.0
30
0.000000
0
VERTEX
8
0
10
984.000000
20
974.000000
0
VERTEX
8
0
10
985.000000
20
975.000000
0
VERTEX
8
0
10
985.000000
20
985.000000
0
SEQEND
0
POLYLINE
8
0
6
CONTINUOUS
66
1
62
250
10
0.0
20
0.0
30
0.000000
0
VERTEX
8
0
10
733.000000
20
968.000000
42
-0.084895
0
VERTEX
8
0
10
730.000000
20
978.000000
0
SEQEND
0
POLYLINE
8
0
6
CONTINUOUS
66
1
62
250
10
0.0
20
0.0
30
0.000000
0
VERTEX
8
0
10
536.000000
20
966.000000
0
VERTEX
8
0
10
538.000000
20
977.000000
0
SEQEND
0
POLYLINE
8
0
6
CONTINUOUS
66
1
62
250
10
0.0
20
0.0
30
0.000000
0
VERTEX
8
0
10
285.000000
20
957.000000
0
VERTEX
8
0
10
285.000000
20
967.000000
0
SEQEND
0
POLYLINE
8
0
6
CONTINUOUS
66
1
62
250
10
0.0
20
0.0
30
0.000000
0
VERTEX
8
0
10
68.000000
20
956.000000
42
-0.072160
0
VERTEX
8
0
10
70.000000
20
966.000000
0
SEQEND
0
POLYLINE
8
0
6
CONTINUOUS
66
1
62
250
10
0.0
20
0.0
30
0.000000
0
VERTEX
8
0
10
752.000000
20
956.000000
0
VERTEX
8
0
10
752.000000
20
967.000000
0
SEQEND
0
POLYLINE
8
0
6
CONTINUOUS
66
1
62
250
10
0.0
20
0.0
30
0.000000
0
VERTEX
8
0
10
270.000000
20
954.000000
0
VERTEX
8
0
10
267.000000
20
964.000000
0
SEQEND
0
POLYLINE
8
0
6
CONTINUOUS
66
1
62
250
10
0.0
20
0.0
30
0.000000
0
VERTEX
8
0
10
519.000000
20
951.000000
0
VERTEX
8
0
10
519.000000
20
962.000000
0
SEQEND
0
POLYLINE
8
0
6
CONTINUOUS
66
1
62
252
10
0.0
20
0.0
30
0.000000
0
VERTEX
8
0
10
984.000000
20
949.000000
0
VERTEX
8
0
10
985.000000
20
950.000000
0
VERTEX
8
0
10
985.000000
20
960.000000
0
SEQEND
0
POLYLINE
8
0
6
CONTINUOUS
66
1
62
27
10
0.0
20
0.0
30
0.000000
0
VERTEX
8
0
10
737.000000
20
943.000000
0
VERTEX
8
0
10
738.000000
20
944.000000
0
VERTEX
8
0
10
737.352941
20
946.088235
0
VERTEX
8
0
10
736.647059
20
948.911765
42
0.113815
0
VERTEX
8
0
10
734.000000
20
955.000000
0
SEQEND
0
POLYLINE
8
0
6
CONTINUOUS
66
1
62
250
10
0.0
20
0.0
30
0.000000
0
VERTEX
8
0
10
530.000000
20
942.000000
0
VERTEX
8
0
10
532.000000
20
952.000000
0
SEQEND
0
POLYLINE
8
0
6
CONTINUOUS
66
1
62
250
10
0.0
20
0.0
30
0.000000
0
VERTEX
8
0
10
285.000000
20
932.000000
0
VERTEX
8
0
10
285.000000
20
942.000000
0
SEQEND
0
POLYLINE
8
0
6
CONTINUOUS
66
1
62
250
10
0.0
20
0.0
30
0.000000
0
VERTEX
8
0
10
62.000000
20
931.000000
0
VERTEX
8
0
10
64.000000
20
942.000000
0
SEQEND
0
POLYLINE
8
0
6
CONTINUOUS
66
1
62
250
10
0.0
20
0.0
30
0.000000
0
VERTEX
8
0
10
752.000000
20
931.000000
0
VERTEX
8
0
10
752.000000
20
942.000000
0
SEQEND
0
POLYLINE
8
0
6
CONTINUOUS
66
1
62
250
10
0.0
20
0.0
30
0.000000
0
VERTEX
8
0
10
275.000000
20
930.000000
0
VERTEX
8
0
10
273.000000
20
940.000000
0
SEQEND
0
POLYLINE
8
0
6
CONTINUOUS
66
1
62
250
10
0.0
20
0.0
30
0.000000
0
VERTEX
8
0
10
519.000000
20
926.000000
0
VERTEX
8
0
10
519.000000
20
937.000000
0
SEQEND
0
POLYLINE
8
0
6
CONTINUOUS
66
1
62
252
10
0.0
20
0.0
30
0.000000
0
VERTEX
8
0
10
984.000000
20
924.000000
0
VERTEX
8
0
10
985.000000
20
925.000000
0
VERTEX
8
0
10
985.000000
20
935.000000
0
SEQEND
0
POLYLINE
8
0
6
CONTINUOUS
66
1
62
250
10
0.0
20
0.0
30
0.000000
0
VERTEX
8
0
10
744.000000
20
919.000000
0
VERTEX
8
0
10
741.000000
20
930.000000
0
SEQEND
0
POLYLINE
8
0
6
CONTINUOUS
66
1
62
27
10
0.0
20
0.0
30
0.000000
0
VERTEX
8
0
10
524.000000
20
918.000000
0
VERTEX
8
0
10
527.000000
20
929.000000
0
SEQEND
0
POLYLINE
8
0
6
CONTINUOUS
66
1
62
250
10
0.0
20
0.0
30
0.000000
0
VERTEX
8
0
10
56.000000
20
907.000000
0
VERTEX
8
0
10
58.000000
20
917.000000
0
SEQEND
0
POLYLINE
8
0
6
CONTINUOUS
66
1
62
250
10
0.0
20
0.0
30
0.000000
0
VERTEX
8
0
10
285.000000
20
907.000000
0
VERTEX
8
0
10
285.000000
20
917.000000
0
SEQEND
0
POLYLINE
8
0
6
CONTINUOUS
66
1
62
250
10
0.0
20
0.0
30
0.000000
0
VERTEX
8
0
10
752.000000
20
906.000000
0
VERTEX
8
0
10
752.000000
20
917.000000
0
SEQEND
0
POLYLINE
8
0
6
CONTINUOUS
66
1
62
250
10
0.0
20
0.0
30
0.000000
0
VERTEX
8
0
10
281.000000
20
905.000000
0
VERTEX
8
0
10
278.000000
20
916.000000
0
SEQEND
0
POLYLINE
8
0
6
CONTINUOUS
66
1
62
252
10
0.0
20
0.0
30
0.000000
0
VERTEX
8
0
10
984.000000
20
899.000000
0
VERTEX
8
0
10
985.000000
20
900.000000
0
VERTEX
8
0
10
985.000000
20
910.000000
0
SEQEND
0
POLYLINE
8
0
6
CONTINUOUS
66
1
62
250
10
0.0
20
0.0
30
0.000000
0
VERTEX
8
0
10
749.000000
20
895.000000
0
VERTEX
8
0
10
747.000000
20
905.000000
0
SEQEND
0
POLYLINE
8
0
6
CONTINUOUS
66
1
62
250
10
0.0
20
0.0
30
0.000000
0
VERTEX
8
0
10
518.000000
20
893.000000
42
0.090917
0
VERTEX
8
0
10
519.000000
20
912.000000
0
SEQEND
0
POLYLINE
8
0
6
CONTINUOUS
66
1
62
250
10
0.0
20
0.0
30
0.000000
0
VERTEX
8
0
10
52.000000
20
890.000000
0
VERTEX
8
0
10
59.000000
20
890.000000
0
SEQEND
0
POLYLINE
8
0
6
CONTINUOUS
66
1
62
250
10
0.0
20
0.0
30
0.000000
0
VERTEX
8
0
10
72.000000
20
890.000000
0
VERTEX
8
0
10
84.000000
20
890.000000
0
SEQEND
0
POLYLINE
8
0
6
CONTINUOUS
66
1
62
250
10
0.0
20
0.0
30
0.000000
0
VERTEX
8
0
10
97.000000
20
890.000000
0
VERTEX
8
0
10
109.000000
20
890.000000
0
SEQEND
0
POLYLINE
8
0
6
CONTINUOUS
66
1
62
250
10
0.0
20
0.0
30
0.000000
0
VERTEX
8
0
10
122.000000
20
890.000000
0
VERTEX
8
0
10
134.000000
20
890.000000
0
SEQEND
0
POLYLINE
8
0
6
CONTINUOUS
66
1
62
250
10
0.0
20
0.0
30
0.000000
0
VERTEX
8
0
10
147.000000
20
890.000000
0
VERTEX
8
0
10
159.000000
20
890.000000
0
SEQEND
0
POLYLINE
8
0
6
CONTINUOUS
66
1
62
250
10
0.0
20
0.0
30
0.000000
0
VERTEX
8
0
10
172.000000
20
890.000000
0
VERTEX
8
0
10
184.000000
20
890.000000
0
SEQEND
0
POLYLINE
8
0
6
CONTINUOUS
66
1
62
250
10
0.0
20
0.0
30
0.000000
0
VERTEX
8
0
10
197.000000
20
890.000000
0
VERTEX
8
0
10
209.000000
20
890.000000
0
SEQEND
0
POLYLINE
8
0
6
CONTINUOUS
66
1
62
250
10
0.0
20
0.0
30
0.000000
0
VERTEX
8
0
10
222.000000
20
890.000000
0
VERTEX
8
0
10
234.000000
20
890.000000
0
SEQEND
0
POLYLINE
8
0
6
CONTINUOUS
66
1
62
250
10
0.0
20
0.0
30
0.000000
0
VERTEX
8
0
10
247.000000
20
890.000000
0
VERTEX
8
0
10
259.000000
20
890.000000
0
SEQEND
0
POLYLINE
8
0
6
CONTINUOUS
66
1
62
250
10
0.0
20
0.0
30
0.000000
0
VERTEX
8
0
10
297.000000
20
890.000000
0
VERTEX
8
0
10
309.000000
20
890.000000
0
SEQEND
0
POLYLINE
8
0
6
CONTINUOUS
66
1
62
250
10
0.0
20
0.0
30
0.000000
0
VERTEX
8
0
10
322.000000
20
890.000000
0
VERTEX
8
0
10
334.000000
20
890.000000
0
SEQEND
0
POLYLINE
8
0
6
CONTINUOUS
66
1
62
250
10
0.0
20
0.0
30
0.000000
0
VERTEX
8
0
10
347.000000
20
890.000000
0
VERTEX
8
0
10
359.000000
20
890.000000
0
SEQEND
0
POLYLINE
8
0
6
CONTINUOUS
66
1
62
250
10
0.0
20
0.0
30
0.000000
0
VERTEX
8
0
10
372.000000
20
890.000000
0
VERTEX
8
0
10
384.000000
20
890.000000
0
SEQEND
0
POLYLINE
8
0
6
CONTINUOUS
66
1
62
250
10
0.0
20
0.0
30
0.000000
0
VERTEX
8
0
10
397.000000
20
890.000000
0
VERTEX
8
0
10
409.000000
20
890.000000
0
SEQEND
0
POLYLINE
8
0
6
CONTINUOUS
66
1
62
250
10
0.0
20
0.0
30
0.000000
0
VERTEX
8
0
10
422.000000
20
890.000000
0
VERTEX
8
0
10
434.000000
20
890.000000
0
SEQEND
0
POLYLINE
8
0
6
CONTINUOUS
66
1
62
250
10
0.0
20
0.0
30
0.000000
0
VERTEX
8
0
10
447.000000
20
890.000000
0
VERTEX
8
0
10
459.000000
20
890.000000
0
SEQEND
0
POLYLINE
8
0
6
CONTINUOUS
66
1
62
250
10
0.0
20
0.0
30
0.000000
0
VERTEX
8
0
10
472.000000
20
890.000000
0
VERTEX
8
0
10
484.000000
20
890.000000
0
SEQEND
0
POLYLINE
8
0
6
CONTINUOUS
66
1
62
250
10
0.0
20
0.0
30
0.000000
0
VERTEX
8
0
10
497.000000
20
890.000000
0
VERTEX
8
0
10
509.000000
20
890.000000
0
SEQEND
0
POLYLINE
8
0
6
CONTINUOUS
66
1
62
250
10
0.0
20
0.0
30
0.000000
0
VERTEX
8
0
10
522.000000
20
890.000000
0
VERTEX
8
0
10
534.000000
20
890.000000
0
SEQEND
0
POLYLINE
8
0
6
CONTINUOUS
66
1
62
250
10
0.0
20
0.0
30
0.000000
0
VERTEX
8
0
10
547.000000
20
890.000000
0
VERTEX
8
0
10
559.000000
20
890.000000
0
SEQEND
0
POLYLINE
8
0
6
CONTINUOUS
66
1
62
250
10
0.0
20
0.0
30
0.000000
0
VERTEX
8
0
10
572.000000
20
890.000000
0
VERTEX
8
0
10
584.000000
20
890.000000
0
SEQEND
0
POLYLINE
8
0
6
CONTINUOUS
66
1
62
250
10
0.0
20
0.0
30
0.000000
0
VERTEX
8
0
10
597.000000
20
890.000000
0
VERTEX
8
0
10
609.000000
20
890.000000
0
SEQEND
0
POLYLINE
8
0
6
CONTINUOUS
66
1
62
250
10
0.0
20
0.0
30
0.000000
0
VERTEX
8
0
10
622.000000
20
890.000000
0
VERTEX
8
0
10
634.000000
20
890.000000
0
SEQEND
0
POLYLINE
8
0
6
CONTINUOUS
66
1
62
250
10
0.0
20
0.0
30
0.000000
0
VERTEX
8
0
10
647.000000
20
890.000000
0
VERTEX
8
0
10
659.000000
20
890.000000
0
SEQEND
0
POLYLINE
8
0
6
CONTINUOUS
66
1
62
250
10
0.0
20
0.0
30
0.000000
0
VERTEX
8
0
10
672.000000
20
890.000000
0
VERTEX
8
0
10
685.000000
20
890.000000
0
SEQEND
0
POLYLINE
8
0
6
CONTINUOUS
66
1
62
250
10
0.0
20
0.0
30
0.000000
0
VERTEX
8
0
10
698.000000
20
890.000000
0
VERTEX
8
0
10
710.000000
20
890.000000
0
SEQEND
0
POLYLINE
8
0
6
CONTINUOUS
66
1
62
250
10
0.0
20
0.0
30
0.000000
0
VERTEX
8
0
10
723.000000
20
890.000000
0
VERTEX
8
0
10
735.000000
20
890.000000
0
SEQEND
0
POLYLINE
8
0
6
CONTINUOUS
66
1
62
250
10
0.0
20
0.0
30
0.000000
0
VERTEX
8
0
10
748.000000
20
890.000000
0
VERTEX
8
0
10
760.000000
20
890.000000
0
SEQEND
0
POLYLINE
8
0
6
CONTINUOUS
66
1
62
250
10
0.0
20
0.0
30
0.000000
0
VERTEX
8
0
10
773.000000
20
890.000000
0
VERTEX
8
0
10
785.000000
20
890.000000
0
SEQEND
0
POLYLINE
8
0
6
CONTINUOUS
66
1
62
250
10
0.0
20
0.0
30
0.000000
0
VERTEX
8
0
10
798.000000
20
890.000000
0
VERTEX
8
0
10
810.000000
20
890.000000
0
SEQEND
0
POLYLINE
8
0
6
CONTINUOUS
66
1
62
250
10
0.0
20
0.0
30
0.000000
0
VERTEX
8
0
10
823.000000
20
890.000000
0
VERTEX
8
0
10
835.000000
20
890.000000
0
SEQEND
0
POLYLINE
8
0
6
CONTINUOUS
66
1
62
250
10
0.0
20
0.0
30
0.000000
0
VERTEX
8
0
10
848.000000
20
890.000000
0
VERTEX
8
0
10
860.000000
20
890.000000
0
SEQEND
0
POLYLINE
8
0
6
CONTINUOUS
66
1
62
250
10
0.0
20
0.0
30
0.000000
0
VERTEX
8
0
10
873.000000
20
890.000000
0
VERTEX
8
0
10
885.000000
20
890.000000
0
SEQEND
0
POLYLINE
8
0
6
CONTINUOUS
66
1
62
250
10
0.0
20
0.0
30
0.000000
0
VERTEX
8
0
10
898.000000
20
890.000000
0
VERTEX
8
0
10
910.000000
20
890.000000
0
SEQEND
0
POLYLINE
8
0
6
CONTINUOUS
66
1
62
250
10
0.0
20
0.0
30
0.000000
0
VERTEX
8
0
10
923.000000
20
890.000000
0
VERTEX
8
0
10
935.000000
20
890.000000
0
SEQEND
0
POLYLINE
8
0
6
CONTINUOUS
66
1
62
250
10
0.0
20
0.0
30
0.000000
0
VERTEX
8
0
10
948.000000
20
890.000000
0
VERTEX
8
0
10
960.000000
20
890.000000
0
SEQEND
0
POLYLINE
8
0
6
CONTINUOUS
66
1
62
250
10
0.0
20
0.0
30
0.000000
0
VERTEX
8
0
10
973.000000
20
890.000000
0
VERTEX
8
0
10
988.000000
20
890.000000
0
VERTEX
8
0
10
992.900000
20
893.200000
0
VERTEX
8
0
10
1048.000000
20
915.000000
0
VERTEX
8
0
10
1049.000000
20
917.000000
0
VERTEX
8
0
10
1048.497717
20
1152.002262
0
VERTEX
8
0
10
1048.000000
20
1371.000000
0
VERTEX
8
0
10
1046.000000
20
1373.000000
42
-0.065457
0
VERTEX
8
0
10
1038.100000
20
1376.200000
42
-0.708950
0
VERTEX
8
0
10
1048.000000
20
1452.000000
0
VERTEX
8
0
10
1048.000000
20
1470.000000
0
VERTEX
8
0
10
1046.000000
20
1472.000000
0
VERTEX
8
0
10
1042.076923
20
1472.384615
0
VERTEX
8
0
10
990.998941
20
1479.501064
0
VERTEX
8
0
10
519.000000
20
1481.000000
0
VERTEX
8
0
10
518.000000
20
1480.000000
0
VERTEX
8
0
10
511.000000
20
1480.000000
0
SEQEND
0
POLYLINE
8
0
6
CONTINUOUS
66
1
62
250
10
0.0
20
0.0
30
0.000000
0
VERTEX
8
0
10
285.000000
20
882.000000
0
VERTEX
8
0
10
285.000000
20
889.000000
0
VERTEX
8
0
10
284.000000
20
890.000000
0
VERTEX
8
0
10
272.000000
20
890.000000
0
SEQEND
0
POLYLINE
8
0
6
CONTINUOUS
66
1
62
250
10
0.0
20
0.0
30
0.000000
0
VERTEX
8
0
10
752.000000
20
881.000000
0
VERTEX
8
0
10
752.000000
20
890.000000
0
SEQEND
0
POLYLINE
8
0
6
CONTINUOUS
66
1
62
250
10
0.0
20
0.0
30
0.000000
0
VERTEX
8
0
10
519.000000
20
876.000000
0
VERTEX
8
0
10
519.000000
20
887.000000
0
SEQEND
0
POLYLINE
8
0
6
CONTINUOUS
66
1
62
252
10
0.0
20
0.0
30
0.000000
0
VERTEX
8
0
10
984.000000
20
874.000000
0
VERTEX
8
0
10
985.000000
20
875.000000
0
VERTEX
8
0
10
985.000000
20
885.000000
0
SEQEND
0
POLYLINE
8
0
6
CONTINUOUS
66
1
62
250
10
0.0
20
0.0
30
0.000000
0
VERTEX
8
0
10
285.000000
20
857.000000
0
VERTEX
8
0
10
285.000000
20
867.000000
0
SEQEND
0
POLYLINE
8
0
6
CONTINUOUS
66
1
62
250
10
0.0
20
0.0
30
0.000000
0
VERTEX
8
0
10
752.000000
20
856.000000
0
VERTEX
8
0
10
752.000000
20
867.000000
0
SEQEND
0
POLYLINE
8
0
6
CONTINUOUS
66
1
62
250
10
0.0
20
0.0
30
0.000000
0
VERTEX
8
0
10
519.000000
20
851.000000
0
VERTEX
8
0
10
519.000000
20
862.000000
0
SEQEND
0
POLYLINE
8
0
6
CONTINUOUS
66
1
62
252
10
0.0
20
0.0
30
0.000000
0
VERTEX
8
0
10
984.000000
20
849.000000
0
VERTEX
8
0
10
985.000000
20
850.000000
0
VERTEX
8
0
10
985.000000
20
860.000000
0
SEQEND
0
POLYLINE
8
0
6
CONTINUOUS
66
1
62
250
10
0.0
20
0.0
30
0.000000
0
VERTEX
8
0
10
285.000000
20
832.000000
0
VERTEX
8
0
10
285.000000
20
842.000000
0
SEQEND
0
POLYLINE
8
0
6
CONTINUOUS
66
1
62
250
10
0.0
20
0.0
30
0.000000
0
VERTEX
8
0
10
752.000000
20
831.000000
0
VERTEX
8
0
10
752.000000
20
842.000000
0
SEQEND
0
POLYLINE
8
0
6
CONTINUOUS
66
1
62
250
10
0.0
20
0.0
30
0.000000
0
VERTEX
8
0
10
519.000000
20
826.000000
0
VERTEX
8
0
10
519.000000
20
837.000000
0
SEQEND
0
POLYLINE
8
0
6
CONTINUOUS
66
1
62
252
10
0.0
20
0.0
30
0.000000
0
VERTEX
8
0
10
984.000000
20
824.000000
0
VERTEX
8
0
10
985.000000
20
825.000000
0
VERTEX
8
0
10
985.000000
20
835.000000
0
SEQEND
0
POLYLINE
8
0
6
CONTINUOUS
66
1
62
250
10
0.0
20
0.0
30
0.000000
0
VERTEX
8
0
10
285.000000
20
807.000000
0
VERTEX
8
0
10
285.000000
20
817.000000
0
SEQEND
0
POLYLINE
8
0
6
CONTINUOUS
66
1
62
250
10
0.0
20
0.0
30
0.000000
0
VERTEX
8
0
10
752.000000
20
806.000000
0
VERTEX
8
0
10
752.000000
20
817.000000
0
SEQEND
0
POLYLINE
8
0
6
CONTINUOUS
66
1
62
250
10
0.0
20
0.0
30
0.000000
0
VERTEX
8
0
10
519.000000
20
801.000000
0
VERTEX
8
0
10
519.000000
20
812.000000
0
SEQEND
0
POLYLINE
8
0
6
CONTINUOUS
66
1
62
252
10
0.0
20
0.0
30
0.000000
0
VERTEX
8
0
10
984.000000
20
799.000000
0
VERTEX
8
0
10
985.000000
20
800.000000
0
VERTEX
8
0
10
985.000000
20
810.000000
0
SEQEND
0
POLYLINE
8
0
6
CONTINUOUS
66
1
62
250
10
0.0
20
0.0
30
0.000000
0
VERTEX
8
0
10
285.000000
20
782.000000
0
VERTEX
8
0
10
285.000000
20
792.000000
0
SEQEND
0
POLYLINE
8
0
6
CONTINUOUS
66
1
62
250
10
0.0
20
0.0
30
0.000000
0
VERTEX
8
0
10
752.000000
20
781.000000
0
VERTEX
8
0
10
752.000000
20
792.000000
0
SEQEND
0
POLYLINE
8
0
6
CONTINUOUS
66
1
62
250
10
0.0
20
0.0
30
0.000000
0
VERTEX
8
0
10
519.000000
20
776.000000
0
VERTEX
8
0
10
519.000000
20
787.000000
0
SEQEND
0
POLYLINE
8
0
6
CONTINUOUS
66
1
62
252
10
0.0
20
0.0
30
0.000000
0
VERTEX
8
0
10
984.000000
20
774.000000
0
VERTEX
8
0
10
985.000000
20
775.000000
0
VERTEX
8
0
10
985.000000
20
785.000000
0
SEQEND
0
POLYLINE
8
0
6
CONTINUOUS
66
1
62
250
10
0.0
20
0.0
30
0.000000
0
VERTEX
8
0
10
285.000000
20
757.000000
0
VERTEX
8
0
10
285.000000
20
767.000000
0
SEQEND
0
POLYLINE
8
0
6
CONTINUOUS
66
1
62
250
10
0.0
20
0.0
30
0.000000
0
VERTEX
8
0
10
752.000000
20
756.000000
0
VERTEX
8
0
10
752.000000
20
767.000000
0
SEQEND
0
POLYLINE
8
0
6
CONTINUOUS
66
1
62
250
10
0.0
20
0.0
30
0.000000
0
VERTEX
8
0
10
519.000000
20
751.000000
0
VERTEX
8
0
10
519.000000
20
762.000000
0
SEQEND
0
POLYLINE
8
0
6
CONTINUOUS
66
1
62
252
10
0.0
20
0.0
30
0.000000
0
VERTEX
8
0
10
984.000000
20
749.000000
0
VERTEX
8
0
10
985.000000
20
750.000000
0
VERTEX
8
0
10
985.000000
20
760.000000
0
SEQEND
0
POLYLINE
8
0
6
CONTINUOUS
66
1
62
250
10
0.0
20
0.0
30
0.000000
0
VERTEX
8
0
10
285.000000
20
732.000000
0
VERTEX
8
0
10
285.000000
20
742.000000
0
SEQEND
0
POLYLINE
8
0
6
CONTINUOUS
66
1
62
250
10
0.0
20
0.0
30
0.000000
0
VERTEX
8
0
10
752.000000
20
731.000000
0
VERTEX
8
0
10
752.000000
20
742.000000
0
SEQEND
0
POLYLINE
8
0
6
CONTINUOUS
66
1
62
250
10
0.0
20
0.0
30
0.000000
0
VERTEX
8
0
10
519.000000
20
726.000000
0
VERTEX
8
0
10
519.000000
20
737.000000
0
SEQEND
0
POLYLINE
8
0
6
CONTINUOUS
66
1
62
252
10
0.0
20
0.0
30
0.000000
0
VERTEX
8
0
10
984.000000
20
724.000000
0
VERTEX
8
0
10
985.000000
20
725.000000
0
VERTEX
8
0
10
985.000000
20
735.000000
0
SEQEND
0
POLYLINE
8
0
6
CONTINUOUS
66
1
62
250
10
0.0
20
0.0
30
0.000000
0
VERTEX
8
0
10
285.000000
20
707.000000
0
VERTEX
8
0
10
285.000000
20
717.000000
0
SEQEND
0
POLYLINE
8
0
6
CONTINUOUS
66
1
62
250
10
0.0
20
0.0
30
0.000000
0
VERTEX
8
0
10
752.000000
20
706.000000
0
VERTEX
8
0
10
752.000000
20
717.000000
0
SEQEND
0
POLYLINE
8
0
6
CONTINUOUS
66
1
62
250
10
0.0
20
0.0
30
0.000000
0
VERTEX
8
0
10
519.000000
20
701.000000
0
VERTEX
8
0
10
519.000000
20
712.000000
0
SEQEND
0
POLYLINE
8
0
6
CONTINUOUS
66
1
62
252
10
0.0
20
0.0
30
0.000000
0
VERTEX
8
0
10
984.000000
20
699.000000
0
VERTEX
8
0
10
985.000000
20
700.000000
0
VERTEX
8
0
10
985.000000
20
710.000000
0
SEQEND
0
POLYLINE
8
0
6
CONTINUOUS
66
1
62
250
10
0.0
20
0.0
30
0.000000
0
VERTEX
8
0
10
285.000000
20
682.000000
0
VERTEX
8
0
10
285.000000
20
692.000000
0
SEQEND
0
POLYLINE
8
0
6
CONTINUOUS
66
1
62
250
10
0.0
20
0.0
30
0.000000
0
VERTEX
8
0
10
752.000000
20
681.000000
0
VERTEX
8
0
10
752.000000
20
692.000000
0
SEQEND
0
POLYLINE
8
0
6
CONTINUOUS
66
1
62
250
10
0.0
20
0.0
30
0.000000
0
VERTEX
8
0
10
519.000000
20
676.000000
0
VERTEX
8
0
10
519.000000
20
687.000000
0
SEQEND
0
POLYLINE
8
0
6
CONTINUOUS
66
1
62
252
10
0.0
20
0.0
30
0.000000
0
VERTEX
8
0
10
984.000000
20
674.000000
0
VERTEX
8
0
10
985.000000
20
675.000000
0
VERTEX
8
0
10
985.000000
20
685.000000
0
SEQEND
0
POLYLINE
8
0
6
CONTINUOUS
66
1
62
250
10
0.0
20
0.0
30
0.000000
0
VERTEX
8
0
10
285.000000
20
657.000000
0
VERTEX
8
0
10
285.000000
20
667.000000
0
SEQEND
0
POLYLINE
8
0
6
CONTINUOUS
66
1
62
250
10
0.0
20
0.0
30
0.000000
0
VERTEX
8
0
10
752.000000
20
656.000000
0
VERTEX
8
0
10
752.000000
20
667.000000
0
SEQEND
0
POLYLINE
8
0
6
CONTINUOUS
66
1
62
250
10
0.0
20
0.0
30
0.000000
0
VERTEX
8
0
10
519.000000
20
651.000000
0
VERTEX
8
0
10
519.000000
20
662.000000
0
SEQEND
0
POLYLINE
8
0
6
CONTINUOUS
66
1
62
252
10
0.0
20
0.0
30
0.000000
0
VERTEX
8
0
10
984.000000
20
649.000000
0
VERTEX
8
0
10
985.000000
20
650.000000
0
VERTEX
8
0
10
985.000000
20
660.000000
0
SEQEND
0
POLYLINE
8
0
6
CONTINUOUS
66
1
62
250
10
0.0
20
0.0
30
0.000000
0
VERTEX
8
0
10
285.000000
20
632.000000
0
VERTEX
8
0
10
285.000000
20
642.000000
0
SEQEND
0
POLYLINE
8
0
6
CONTINUOUS
66
1
62
250
10
0.0
20
0.0
30
0.000000
0
VERTEX
8
0
10
752.000000
20
631.000000
0
VERTEX
8
0
10
752.000000
20
642.000000
0
SEQEND
0
POLYLINE
8
0
6
CONTINUOUS
66
1
62
250
10
0.0
20
0.0
30
0.000000
0
VERTEX
8
0
10
519.000000
20
626.000000
0
VERTEX
8
0
10
519.000000
20
637.000000
0
SEQEND
0
POLYLINE
8
0
6
CONTINUOUS
66
1
62
252
10
0.0
20
0.0
30
0.000000
0
VERTEX
8
0
10
984.000000
20
624.000000
0
VERTEX
8
0
10
985.000000
20
625.000000
0
VERTEX
8
0
10
985.000000
20
635.000000
0
SEQEND
0
POLYLINE
8
0
6
CONTINUOUS
66
1
62
250
10
0.0
20
0.0
30
0.000000
0
VERTEX
8
0
10
285.000000
20
607.000000
0
VERTEX
8
0
10
285.000000
20
617.000000
0
SEQEND
0
POLYLINE
8
0
6
CONTINUOUS
66
1
62
250
10
0.0
20
0.0
30
0.000000
0
VERTEX
8
0
10
752.000000
20
606.000000
0
VERTEX
8
0
10
752.000000
20
617.000000
0
SEQEND
0
POLYLINE
8
0
6
CONTINUOUS
66
1
62
250
10
0.0
20
0.0
30
0.000000
0
VERTEX
8
0
10
519.000000
20
601.000000
0
VERTEX
8
0
10
519.000000
20
612.000000
0
SEQEND
0
POLYLINE
8
0
6
CONTINUOUS
66
1
62
252
10
0.0
20
0.0
30
0.000000
0
VERTEX
8
0
10
984.000000
20
599.000000
0
VERTEX
8
0
10
985.000000
20
600.000000
0
VERTEX
8
0
10
985.000000
20
610.000000
0
SEQEND
0
POLYLINE
8
0
6
CONTINUOUS
66
1
62
250
10
0.0
20
0.0
30
0.000000
0
VERTEX
8
0
10
285.000000
20
582.000000
0
VERTEX
8
0
10
285.000000
20
592.000000
0
SEQEND
0
POLYLINE
8
0
6
CONTINUOUS
66
1
62
250
10
0.0
20
0.0
30
0.000000
0
VERTEX
8
0
10
752.000000
20
581.000000
0
VERTEX
8
0
10
752.000000
20
592.000000
0
SEQEND
0
POLYLINE
8
0
6
CONTINUOUS
66
1
62
250
10
0.0
20
0.0
30
0.000000
0
VERTEX
8
0
10
519.000000
20
576.000000
0
VERTEX
8
0
10
519.000000
20
587.000000
0
SEQEND
0
POLYLINE
8
0
6
CONTINUOUS
66
1
62
252
10
0.0
20
0.0
30
0.000000
0
VERTEX
8
0
10
984.000000
20
574.000000
0
VERTEX
8
0
10
985.000000
20
575.000000
0
VERTEX
8
0
10
985.000000
20
585.000000
0
SEQEND
0
POLYLINE
8
0
6
CONTINUOUS
66
1
62
250
10
0.0
20
0.0
30
0.000000
0
VERTEX
8
0
10
285.000000
20
557.000000
0
VERTEX
8
0
10
285.000000
20
567.000000
0
SEQEND
0
POLYLINE
8
0
6
CONTINUOUS
66
1
62
250
10
0.0
20
0.0
30
0.000000
0
VERTEX
8
0
10
752.000000
20
556.000000
0
VERTEX
8
0
10
752.000000
20
567.000000
0
SEQEND
0
POLYLINE
8
0
6
CONTINUOUS
66
1
62
250
10
0.0
20
0.0
30
0.000000
0
VERTEX
8
0
10
519.000000
20
551.000000
0
VERTEX
8
0
10
519.000000
20
562.000000
0
SEQEND
0
POLYLINE
8
0
6
CONTINUOUS
66
1
62
252
10
0.0
20
0.0
30
0.000000
0
VERTEX
8
0
10
984.000000
20
549.000000
0
VERTEX
8
0
10
985.000000
20
550.000000
0
VERTEX
8
0
10
985.000000
20
560.000000
0
SEQEND
0
POLYLINE
8
0
6
CONTINUOUS
66
1
62
250
10
0.0
20
0.0
30
0.000000
0
VERTEX
8
0
10
285.000000
20
532.000000
0
VERTEX
8
0
10
285.000000
20
542.000000
0
SEQEND
0
POLYLINE
8
0
6
CONTINUOUS
66
1
62
250
10
0.0
20
0.0
30
0.000000
0
VERTEX
8
0
10
752.000000
20
531.000000
0
VERTEX
8
0
10
752.000000
20
542.000000
0
SEQEND
0
POLYLINE
8
0
6
CONTINUOUS
66
1
62
250
10
0.0
20
0.0
30
0.000000
0
VERTEX
8
0
10
519.000000
20
526.000000
0
VERTEX
8
0
10
519.000000
20
537.000000
0
SEQEND
0
POLYLINE
8
0
6
CONTINUOUS
66
1
62
252
10
0.0
20
0.0
30
0.000000
0
VERTEX
8
0
10
984.000000
20
524.000000
0
VERTEX
8
0
10
985.000000
20
525.000000
0
VERTEX
8
0
10
985.000000
20
535.000000
0
SEQEND
0
POLYLINE
8
0
6
CONTINUOUS
66
1
62
250
10
0.0
20
0.0
30
0.000000
0
VERTEX
8
0
10
285.000000
20
507.000000
0
VERTEX
8
0
10
285.000000
20
517.000000
0
SEQEND
0
POLYLINE
8
0
6
CONTINUOUS
66
1
62
250
10
0.0
20
0.0
30
0.000000
0
VERTEX
8
0
10
752.000000
20
506.000000
0
VERTEX
8
0
10
752.000000
20
517.000000
0
SEQEND
0
POLYLINE
8
0
6
CONTINUOUS
66
1
62
250
10
0.0
20
0.0
30
0.000000
0
VERTEX
8
0
10
519.000000
20
501.000000
0
VERTEX
8
0
10
519.000000
20
512.000000
0
SEQEND
0
POLYLINE
8
0
6
CONTINUOUS
66
1
62
252
10
0.0
20
0.0
30
0.000000
0
VERTEX
8
0
10
984.000000
20
499.000000
0
VERTEX
8
0
10
985.000000
20
500.000000
0
VERTEX
8
0
10
985.000000
20
510.000000
0
SEQEND
0
POLYLINE
8
0
6
CONTINUOUS
66
1
62
250
10
0.0
20
0.0
30
0.000000
0
VERTEX
8
0
10
285.000000
20
482.000000
0
VERTEX
8
0
10
285.000000
20
492.000000
0
SEQEND
0
POLYLINE
8
0
6
CONTINUOUS
66
1
62
250
10
0.0
20
0.0
30
0.000000
0
VERTEX
8
0
10
752.000000
20
481.000000
0
VERTEX
8
0
10
752.000000
20
492.000000
0
SEQEND
0
POLYLINE
8
0
6
CONTINUOUS
66
1
62
250
10
0.0
20
0.0
30
0.000000
0
VERTEX
8
0
10
519.000000
20
476.000000
0
VERTEX
8
0
10
519.000000
20
487.000000
0
SEQEND
0
POLYLINE
8
0
6
CONTINUOUS
66
1
62
251
10
0.0
20
0.0
30
0.000000
0
VERTEX
8
0
10
985.000000
20
474.000000
0
VERTEX
8
0
10
985.000000
20
485.000000
0
SEQEND
0
POLYLINE
8
0
6
CONTINUOUS
66
1
62
250
10
0.0
20
0.0
30
0.000000
0
VERTEX
8
0
10
285.000000
20
457.000000
0
VERTEX
8
0
10
285.000000
20
467.000000
0
SEQEND
0
POLYLINE
8
0
6
CONTINUOUS
66
1
62
250
10
0.0
20
0.0
30
0.000000
0
VERTEX
8
0
10
752.000000
20
456.000000
0
VERTEX
8
0
10
752.000000
20
467.000000
0
SEQEND
0
POLYLINE
8
0
6
CONTINUOUS
66
1
62
250
10
0.0
20
0.0
30
0.000000
0
VERTEX
8
0
10
519.000000
20
451.000000
0
VERTEX
8
0
10
519.000000
20
462.000000
0
SEQEND
0
POLYLINE
8
0
6
CONTINUOUS
66
1
62
251
10
0.0
20
0.0
30
0.000000
0
VERTEX
8
0
10
985.000000
20
449.000000
0
VERTEX
8
0
10
985.000000
20
460.000000
0
SEQEND
0
POLYLINE
8
0
6
CONTINUOUS
66
1
62
250
10
0.0
20
0.0
30
0.000000
0
VERTEX
8
0
10
285.000000
20
432.000000
0
VERTEX
8
0
10
285.000000
20
442.000000
0
SEQEND
0
POLYLINE
8
0
6
CONTINUOUS
66
1
62
250
10
0.0
20
0.0
30
0.000000
0
VERTEX
8
0
10
752.000000
20
431.000000
0
VERTEX
8
0
10
752.000000
20
442.000000
0
SEQEND
0
POLYLINE
8
0
6
CONTINUOUS
66
1
62
250
10
0.0
20
0.0
30
0.000000
0
VERTEX
8
0
10
519.000000
20
426.000000
0
VERTEX
8
0
10
519.000000
20
437.000000
0
SEQEND
0
POLYLINE
8
0
6
CONTINUOUS
66
1
62
251
10
0.0
20
0.0
30
0.000000
0
VERTEX
8
0
10
985.000000
20
424.000000
0
VERTEX
8
0
10
985.000000
20
435.000000
0
SEQEND
0
POLYLINE
8
0
6
CONTINUOUS
66
1
62
250
10
0.0
20
0.0
30
0.000000
0
VERTEX
8
0
10
285.000000
20
407.000000
0
VERTEX
8
0
10
285.000000
20
417.000000
0
SEQEND
0
POLYLINE
8
0
6
CONTINUOUS
66
1
62
250
10
0.0
20
0.0
30
0.000000
0
VERTEX
8
0
10
752.000000
20
406.000000
0
VERTEX
8
0
10
752.000000
20
417.000000
0
SEQEND
0
POLYLINE
8
0
6
CONTINUOUS
66
1
62
250
10
0.0
20
0.0
30
0.000000
0
VERTEX
8
0
10
519.000000
20
401.000000
0
VERTEX
8
0
10
519.000000
20
412.000000
0
SEQEND
0
POLYLINE
8
0
6
CONTINUOUS
66
1
62
251
10
0.0
20
0.0
30
0.000000
0
VERTEX
8
0
10
985.000000
20
399.000000
0
VERTEX
8
0
10
985.000000
20
410.000000
0
SEQEND
0
POLYLINE
8
0
6
CONTINUOUS
66
1
62
250
10
0.0
20
0.0
30
0.000000
0
VERTEX
8
0
10
285.000000
20
382.000000
0
VERTEX
8
0
10
285.000000
20
392.000000
0
SEQEND
0
POLYLINE
8
0
6
CONTINUOUS
66
1
62
250
10
0.0
20
0.0
30
0.000000
0
VERTEX
8
0
10
752.000000
20
381.000000
0
VERTEX
8
0
10
752.000000
20
392.000000
0
SEQEND
0
POLYLINE
8
0
6
CONTINUOUS
66
1
62
250
10
0.0
20
0.0
30
0.000000
0
VERTEX
8
0
10
519.000000
20
376.000000
0
VERTEX
8
0
10
519.000000
20
387.000000
0
SEQEND
0
POLYLINE
8
0
6
CONTINUOUS
66
1
62
251
10
0.0
20
0.0
30
0.000000
0
VERTEX
8
0
10
985.000000
20
374.000000
0
VERTEX
8
0
10
985.000000
20
385.000000
0
SEQEND
0
POLYLINE
8
0
6
CONTINUOUS
66
1
62
250
10
0.0
20
0.0
30
0.000000
0
VERTEX
8
0
10
285.000000
20
357.000000
0
VERTEX
8
0
10
285.000000
20
367.000000
0
SEQEND
0
POLYLINE
8
0
6
CONTINUOUS
66
1
62
250
10
0.0
20
0.0
30
0.000000
0
VERTEX
8
0
10
752.000000
20
356.000000
0
VERTEX
8
0
10
752.000000
20
367.000000
0
SEQEND
0
POLYLINE
8
0
6
CONTINUOUS
66
1
62
250
10
0.0
20
0.0
30
0.000000
0
VERTEX
8
0
10
519.000000
20
351.000000
0
VERTEX
8
0
10
519.000000
20
362.000000
0
SEQEND
0
POLYLINE
8
0
6
CONTINUOUS
66
1
62
251
10
0.0
20
0.0
30
0.000000
0
VERTEX
8
0
10
985.000000
20
349.000000
0
VERTEX
8
0
10
985.000000
20
360.000000
0
SEQEND
0
POLYLINE
8
0
6
CONTINUOUS
66
1
62
250
10
0.0
20
0.0
30
0.000000
0
VERTEX
8
0
10
77.000000
20
331.000000
0
VERTEX
8
0
10
89.000000
20
331.000000
0
SEQEND
0
POLYLINE
8
0
6
CONTINUOUS
66
1
62
250
10
0.0
20
0.0
30
0.000000
0
VERTEX
8
0
10
102.000000
20
331.000000
0
VERTEX
8
0
10
114.000000
20
331.000000
0
SEQEND
0
POLYLINE
8
0
6
CONTINUOUS
66
1
62
250
10
0.0
20
0.0
30
0.000000
0
VERTEX
8
0
10
127.000000
20
331.000000
0
VERTEX
8
0
10
139.000000
20
331.000000
0
SEQEND
0
POLYLINE
8
0
6
CONTINUOUS
66
1
62
250
10
0.0
20
0.0
30
0.000000
0
VERTEX
8
0
10
152.000000
20
331.000000
0
VERTEX
8
0
10
164.000000
20
331.000000
0
SEQEND
0
POLYLINE
8
0
6
CONTINUOUS
66
1
62
250
10
0.0
20
0.0
30
0.000000
0
VERTEX
8
0
10
177.000000
20
331.000000
0
VERTEX
8
0
10
189.000000
20
331.000000
0
SEQEND
0
POLYLINE
8
0
6
CONTINUOUS
66
1
62
250
10
0.0
20
0.0
30
0.000000
0
VERTEX
8
0
10
202.000000
20
331.000000
0
VERTEX
8
0
10
214.000000
20
331.000000
0
SEQEND
0
POLYLINE
8
0
6
CONTINUOUS
66
1
62
250
10
0.0
20
0.0
30
0.000000
0
VERTEX
8
0
10
227.000000
20
331.000000
0
VERTEX
8
0
10
239.000000
20
331.000000
0
SEQEND
0
POLYLINE
8
0
6
CONTINUOUS
66
1
62
250
10
0.0
20
0.0
30
0.000000
0
VERTEX
8
0
10
252.000000
20
331.000000
0
VERTEX
8
0
10
264.000000
20
331.000000
0
SEQEND
0
POLYLINE
8
0
6
CONTINUOUS
66
1
62
250
10
0.0
20
0.0
30
0.000000
0
VERTEX
8
0
10
302.000000
20
331.000000
0
VERTEX
8
0
10
314.000000
20
331.000000
0
SEQEND
0
POLYLINE
8
0
6
CONTINUOUS
66
1
62
250
10
0.0
20
0.0
30
0.000000
0
VERTEX
8
0
10
327.000000
20
331.000000
0
VERTEX
8
0
10
339.000000
20
331.000000
0
SEQEND
0
POLYLINE
8
0
6
CONTINUOUS
66
1
62
250
10
0.0
20
0.0
30
0.000000
0
VERTEX
8
0
10
352.000000
20
331.000000
0
VERTEX
8
0
10
364.000000
20
331.000000
0
SEQEND
0
POLYLINE
8
0
6
CONTINUOUS
66
1
62
250
10
0.0
20
0.0
30
0.000000
0
VERTEX
8
0
10
377.000000
20
331.000000
0
VERTEX
8
0
10
389.000000
20
331.000000
0
SEQEND
0
POLYLINE
8
0
6
CONTINUOUS
66
1
62
250
10
0.0
20
0.0
30
0.000000
0
VERTEX
8
0
10
402.000000
20
331.000000
0
VERTEX
8
0
10
414.000000
20
331.000000
0
SEQEND
0
POLYLINE
8
0
6
CONTINUOUS
66
1
62
250
10
0.0
20
0.0
30
0.000000
0
VERTEX
8
0
10
427.000000
20
331.000000
0
VERTEX
8
0
10
439.000000
20
331.000000
0
SEQEND
0
POLYLINE
8
0
6
CONTINUOUS
66
1
62
250
10
0.0
20
0.0
30
0.000000
0
VERTEX
8
0
10
452.000000
20
331.000000
0
VERTEX
8
0
10
464.000000
20
331.000000
0
SEQEND
0
POLYLINE
8
0
6
CONTINUOUS
66
1
62
250
10
0.0
20
0.0
30
0.000000
0
VERTEX
8
0
10
477.000000
20
331.000000
0
VERTEX
8
0
10
489.000000
20
331.000000
0
SEQEND
0
POLYLINE
8
0
6
CONTINUOUS
66
1
62
250
10
0.0
20
0.0
30
0.000000
0
VERTEX
8
0
10
502.000000
20
331.000000
0
VERTEX
8
0
10
514.000000
20
331.000000
0
SEQEND
0
POLYLINE
8
0
6
CONTINUOUS
66
1
62
250
10
0.0
20
0.0
30
0.000000
0
VERTEX
8
0
10
527.000000
20
331.000000
0
VERTEX
8
0
10
539.000000
20
331.000000
0
SEQEND
0
POLYLINE
8
0
6
CONTINUOUS
66
1
62
250
10
0.0
20
0.0
30
0.000000
0
VERTEX
8
0
10
552.000000
20
331.000000
0
VERTEX
8
0
10
564.000000
20
331.000000
0
SEQEND
0
POLYLINE
8
0
6
CONTINUOUS
66
1
62
250
10
0.0
20
0.0
30
0.000000
0
VERTEX
8
0
10
577.000000
20
331.000000
0
VERTEX
8
0
10
589.000000
20
331.000000
0
SEQEND
0
POLYLINE
8
0
6
CONTINUOUS
66
1
62
250
10
0.0
20
0.0
30
0.000000
0
VERTEX
8
0
10
602.000000
20
331.000000
0
VERTEX
8
0
10
614.000000
20
331.000000
0
SEQEND
0
POLYLINE
8
0
6
CONTINUOUS
66
1
62
250
10
0.0
20
0.0
30
0.000000
0
VERTEX
8
0
10
627.000000
20
331.000000
0
VERTEX
8
0
10
639.000000
20
331.000000
0
SEQEND
0
POLYLINE
8
0
6
CONTINUOUS
66
1
62
250
10
0.0
20
0.0
30
0.000000
0
VERTEX
8
0
10
652.000000
20
331.000000
0
VERTEX
8
0
10
664.000000
20
331.000000
0
SEQEND
0
POLYLINE
8
0
6
CONTINUOUS
66
1
62
250
10
0.0
20
0.0
30
0.000000
0
VERTEX
8
0
10
677.000000
20
331.000000
0
VERTEX
8
0
10
689.000000
20
331.000000
0
SEQEND
0
POLYLINE
8
0
6
CONTINUOUS
66
1
62
250
10
0.0
20
0.0
30
0.000000
0
VERTEX
8
0
10
702.000000
20
331.000000
0
VERTEX
8
0
10
714.000000
20
331.000000
0
SEQEND
0
POLYLINE
8
0
6
CONTINUOUS
66
1
62
250
10
0.0
20
0.0
30
0.000000
0
VERTEX
8
0
10
751.000000
20
331.000000
0
VERTEX
8
0
10
752.000000
20
342.000000
0
SEQEND
0
POLYLINE
8
0
6
CONTINUOUS
66
1
62
250
10
0.0
20
0.0
30
0.000000
0
VERTEX
8
0
10
777.000000
20
331.000000
0
VERTEX
8
0
10
789.000000
20
331.000000
0
SEQEND
0
POLYLINE
8
0
6
CONTINUOUS
66
1
62
250
10
0.0
20
0.0
30
0.000000
0
VERTEX
8
0
10
802.000000
20
331.000000
0
VERTEX
8
0
10
814.000000
20
331.000000
0
SEQEND
0
POLYLINE
8
0
6
CONTINUOUS
66
1
62
250
10
0.0
20
0.0
30
0.000000
0
VERTEX
8
0
10
827.000000
20
331.000000
0
VERTEX
8
0
10
839.000000
20
331.000000
0
SEQEND
0
POLYLINE
8
0
6
CONTINUOUS
66
1
62
250
10
0.0
20
0.0
30
0.000000
0
VERTEX
8
0
10
852.000000
20
331.000000
0
VERTEX
8
0
10
864.000000
20
331.000000
0
SEQEND
0
POLYLINE
8
0
6
CONTINUOUS
66
1
62
250
10
0.0
20
0.0
30
0.000000
0
VERTEX
8
0
10
877.000000
20
331.000000
0
VERTEX
8
0
10
889.000000
20
331.000000
0
SEQEND
0
POLYLINE
8
0
6
CONTINUOUS
66
1
62
250
10
0.0
20
0.0
30
0.000000
0
VERTEX
8
0
10
902.000000
20
331.000000
0
VERTEX
8
0
10
914.000000
20
331.000000
0
SEQEND
0
POLYLINE
8
0
6
CONTINUOUS
66
1
62
250
10
0.0
20
0.0
30
0.000000
0
VERTEX
8
0
10
927.000000
20
331.000000
0
VERTEX
8
0
10
939.000000
20
331.000000
0
SEQEND
0
POLYLINE
8
0
6
CONTINUOUS
66
1
62
250
10
0.0
20
0.0
30
0.000000
0
VERTEX
8
0
10
952.000000
20
331.000000
0
VERTEX
8
0
10
964.000000
20
331.000000
0
SEQEND
0
POLYLINE
8
0
6
CONTINUOUS
66
1
62
250
10
0.0
20
0.0
30
0.000000
0
VERTEX
8
0
10
977.000000
20
331.000000
0
VERTEX
8
0
10
986.000000
20
331.000000
0
SEQEND
0
POLYLINE
8
0
6
CONTINUOUS
66
1
62
250
10
0.0
20
0.0
30
0.000000
0
VERTEX
8
0
10
727.000000
20
331.000000
0
VERTEX
8
0
10
740.000000
20
331.000000
0
VERTEX
8
0
10
741.000000
20
330.000000
42
-0.075231
0
VERTEX
8
0
10
751.000000
20
331.000000
0
VERTEX
8
0
10
753.000000
20
329.000000
0
VERTEX
8
0
10
754.000000
20
329.000000
0
VERTEX
8
0
10
755.000000
20
330.000000
0
VERTEX
8
0
10
756.000000
20
331.000000
0
VERTEX
8
0
10
764.000000
20
331.000000
0
SEQEND
0
POLYLINE
8
0
6
CONTINUOUS
66
1
62
250
10
0.0
20
0.0
30
0.000000
0
VERTEX
8
0
10
55.000000
20
329.000000
0
VERTEX
8
0
10
55.000000
20
330.000000
0
VERTEX
8
0
10
56.000000
20
331.000000
0
VERTEX
8
0
10
64.000000
20
331.000000
0
SEQEND
0
POLYLINE
8
0
6
CONTINUOUS
66
1
62
250
10
0.0
20
0.0
30
0.000000
0
VERTEX
8
0
10
283.000000
20
329.000000
0
VERTEX
8
0
10
281.000000
20
331.000000
0
VERTEX
8
0
10
277.000000
20
331.000000
0
SEQEND
0
POLYLINE
8
0
6
CONTINUOUS
66
1
62
250
10
0.0
20
0.0
30
0.000000
0
VERTEX
8
0
10
266.000000
20
312.000000
0
VERTEX
8
0
10
267.000000
20
313.000000
0
VERTEX
8
0
10
274.100000
20
319.800000
0
VERTEX
8
0
10
275.000000
20
320.000000
42
-0.071068
0
VERTEX
8
0
10
283.000000
20
329.000000
0
VERTEX
8
0
10
285.000000
20
331.000000
0
VERTEX
8
0
10
285.000000
20
342.000000
0
SEQEND
0
POLYLINE
8
0
6
CONTINUOUS
66
1
62
250
10
0.0
20
0.0
30
0.000000
0
VERTEX
8
0
10
772.000000
20
311.000000
0
VERTEX
8
0
10
764.000000
20
319.000000
0
VERTEX
8
0
10
763.000000
20
319.000000
0
VERTEX
8
0
10
754.000000
20
328.000000
0
VERTEX
8
0
10
754.000000
20
329.000000
0
SEQEND
0
POLYLINE
8
0
6
CONTINUOUS
66
1
62
250
10
0.0
20
0.0
30
0.000000
0
VERTEX
8
0
10
248.000000
20
294.000000
42
-0.071068
0
VERTEX
8
0
10
256.000000
20
301.000000
0
SEQEND
0
POLYLINE
8
0
6
CONTINUOUS
66
1
62
250
10
0.0
20
0.0
30
0.000000
0
VERTEX
8
0
10
790.000000
20
294.000000
0
VERTEX
8
0
10
789.000000
20
294.000000
0
VERTEX
8
0
10
782.000000
20
301.000000
0
SEQEND
0
POLYLINE
8
0
6
CONTINUOUS
66
1
62
250
10
0.0
20
0.0
30
0.000000
0
VERTEX
8
0
10
229.000000
20
276.000000
42
0.071068
0
VERTEX
8
0
10
238.000000
20
284.000000
0
SEQEND
0
POLYLINE
8
0
6
CONTINUOUS
66
1
62
250
10
0.0
20
0.0
30
0.000000
0
VERTEX
8
0
10
807.000000
20
276.000000
0
VERTEX
8
0
10
799.000000
20
284.000000
0
SEQEND
0
POLYLINE
8
0
6
CONTINUOUS
66
1
62
250
10
0.0
20
0.0
30
0.000000
0
VERTEX
8
0
10
213.000000
20
259.000000
42
-0.071068
0
VERTEX
8
0
10
221.000000
20
266.000000
0
SEQEND
0
POLYLINE
8
0
6
CONTINUOUS
66
1
62
250
10
0.0
20
0.0
30
0.000000
0
VERTEX
8
0
10
825.000000
20
258.000000
0
VERTEX
8
0
10
817.000000
20
266.000000
0
SEQEND
0
POLYLINE
8
0
6
CONTINUOUS
66
1
62
250
10
0.0
20
0.0
30
0.000000
0
VERTEX
8
0
10
195.000000
20
241.000000
42
-0.071068
0
VERTEX
8
0
10
203.000000
20
248.000000
0
SEQEND
0
POLYLINE
8
0
6
CONTINUOUS
66
1
62
250
10
0.0
20
0.0
30
0.000000
0
VERTEX
8
0
10
843.000000
20
241.000000
0
VERTEX
8
0
10
842.000000
20
241.000000
0
VERTEX
8
0
10
835.000000
20
248.000000
0
SEQEND
0
POLYLINE
8
0
6
CONTINUOUS
66
1
62
250
10
0.0
20
0.0
30
0.000000
0
VERTEX
8
0
10
517.000000
20
334.000000
42
-0.079147
0
VERTEX
8
0
10
520.000000
20
328.000000
0
VERTEX
8
0
10
520.771698
20
327.750943
0
VERTEX
8
0
10
621.000000
20
231.000000
0
VERTEX
8
0
10
721.000000
20
231.000000
42
0.209867
0
VERTEX
8
0
10
725.615385
20
244.076923
0
VERTEX
8
0
10
741.000000
20
330.000000
0
SEQEND
0
POLYLINE
8
0
6
CONTINUOUS
66
1
62
250
10
0.0
20
0.0
30
0.000000
0
VERTEX
8
0
10
177.000000
20
224.000000
42
-0.071068
0
VERTEX
8
0
10
185.000000
20
231.000000
0
SEQEND
0
POLYLINE
8
0
6
CONTINUOUS
66
1
62
250
10
0.0
20
0.0
30
0.000000
0
VERTEX
8
0
10
861.000000
20
223.000000
0
VERTEX
8
0
10
852.000000
20
231.000000
0
SEQEND
0
POLYLINE
8
0
6
CONTINUOUS
66
1
62
250
10
0.0
20
0.0
30
0.000000
0
VERTEX
8
0
10
298.000000
20
1480.000000
42
-0.096159
0
VERTEX
8
0
10
285.000000
20
1481.000000
0
VERTEX
8
0
10
52.000000
20
1480.000000
0
VERTEX
8
0
10
52.000000
20
890.000000
0
VERTEX
8
0
10
52.000000
20
331.000000
0
VERTEX
8
0
10
54.000000
20
329.000000
0
VERTEX
8
0
10
55.000000
20
329.000000
0
VERTEX
8
0
10
55.000000
20
328.000000
0
VERTEX
8
0
10
213.900000
20
169.800000
0
VERTEX
8
0
10
215.000000
20
169.000000
0
VERTEX
8
0
10
283.000000
20
169.000000
0
VERTEX
8
0
10
285.000000
20
171.000000
0
VERTEX
8
0
10
285.000000
20
308.000000
0
VERTEX
8
0
10
275.491803
20
318.409836
0
VERTEX
8
0
10
275.000000
20
320.000000
0
SEQEND
0
POLYLINE
8
0
6
CONTINUOUS
66
1
62
250
10
0.0
20
0.0
30
0.000000
0
VERTEX
8
0
10
763.000000
20
319.000000
0
VERTEX
8
0
10
761.000000
20
317.000000
0
VERTEX
8
0
10
752.000000
20
308.000000
0
VERTEX
8
0
10
752.000000
20
171.000000
0
VERTEX
8
0
10
754.000000
20
169.000000
0
VERTEX
8
0
10
822.000000
20
169.000000
0
VERTEX
8
0
10
860.000000
20
206.000000
0
VERTEX
8
0
10
864.000000
20
210.000000
0
VERTEX
8
0
10
869.004237
20
214.504310
0
VERTEX
8
0
10
984.982764
20
215.999703
0
VERTEX
8
0
10
985.504424
20
218.004347
0
VERTEX
8
0
10
986.000000
20
331.000000
0
VERTEX
8
0
10
986.000000
20
333.000000
0
VERTEX
8
0
10
986.900000
20
333.200000
0
VERTEX
8
0
10
993.000000
20
339.000000
0
VERTEX
8
0
10
1035.200000
20
381.900000
0
VERTEX
8
0
10
1042.000000
20
389.000000
42
0.064905
0
VERTEX
8
0
10
1049.000000
20
397.000000
0
VERTEX
8
0
10
1049.000000
20
863.000000
0
VERTEX
8
0
10
1046.000000
20
866.000000
0
VERTEX
8
0
10
995.900000
20
885.700000
0
VERTEX
8
0
10
992.900000
20
886.800000
42
-0.085479
0
VERTEX
8
0
10
988.000000
20
890.000000
0
SEQEND
0
POLYLINE
8
0
6
CONTINUOUS
66
1
62
251
10
0.0
20
0.0
30
0.000000
0
VERTEX
8
0
10
297.000000
20
109.000000
0
VERTEX
8
0
10
308.000000
20
109.000000
0
SEQEND
0
POLYLINE
8
0
6
CONTINUOUS
66
1
62
252
10
0.0
20
0.0
30
0.000000
0
VERTEX
8
0
10
333.000000
20
109.000000
0
VERTEX
8
0
10
322.000000
20
109.000000
0
VERTEX
8
0
10
321.000000
20
110.000000
0
SEQEND
0
POLYLINE
8
0
6
CONTINUOUS
66
1
62
252
10
0.0
20
0.0
30
0.000000
0
VERTEX
8
0
10
358.000000
20
109.000000
0
VERTEX
8
0
10
347.000000
20
109.000000
0
VERTEX
8
0
10
346.000000
20
110.000000
0
SEQEND
0
POLYLINE
8
0
6
CONTINUOUS
66
1
62
252
10
0.0
20
0.0
30
0.000000
0
VERTEX
8
0
10
383.000000
20
109.000000
0
VERTEX
8
0
10
372.000000
20
109.000000
0
VERTEX
8
0
10
371.000000
20
110.000000
0
SEQEND
0
POLYLINE
8
0
6
CONTINUOUS
66
1
62
252
10
0.0
20
0.0
30
0.000000
0
VERTEX
8
0
10
408.000000
20
109.000000
0
VERTEX
8
0
10
397.000000
20
109.000000
0
VERTEX
8
0
10
396.000000
20
110.000000
0
SEQEND
0
POLYLINE
8
0
6
CONTINUOUS
66
1
62
252
10
0.0
20
0.0
30
0.000000
0
VERTEX
8
0
10
433.000000
20
109.000000
0
VERTEX
8
0
10
422.000000
20
109.000000
0
VERTEX
8
0
10
421.000000
20
110.000000
0
SEQEND
0
POLYLINE
8
0
6
CONTINUOUS
66
1
62
252
10
0.0
20
0.0
30
0.000000
0
VERTEX
8
0
10
458.000000
20
109.000000
0
VERTEX
8
0
10
447.000000
20
109.000000
0
VERTEX
8
0
10
446.000000
20
110.000000
0
SEQEND
0
POLYLINE
8
0
6
CONTINUOUS
66
1
62
252
10
0.0
20
0.0
30
0.000000
0
VERTEX
8
0
10
483.000000
20
109.000000
0
VERTEX
8
0
10
472.000000
20
109.000000
0
VERTEX
8
0
10
471.000000
20
110.000000
0
SEQEND
0
POLYLINE
8
0
6
CONTINUOUS
66
1
62
252
10
0.0
20
0.0
30
0.000000
0
VERTEX
8
0
10
508.000000
20
109.000000
0
VERTEX
8
0
10
497.000000
20
109.000000
0
VERTEX
8
0
10
496.000000
20
110.000000
0
SEQEND
0
POLYLINE
8
0
6
CONTINUOUS
66
1
62
250
10
0.0
20
0.0
30
0.000000
0
VERTEX
8
0
10
285.000000
20
331.000000
0
VERTEX
8
0
10
292.951220
20
330.560976
42
-0.157188
0
VERTEX
8
0
10
296.000000
20
329.000000
0
VERTEX
8
0
10
297.000000
20
109.000000
0
VERTEX
8
0
10
297.800000
20
106.900000
0
VERTEX
8
0
10
307.000000
20
88.000000
0
VERTEX
8
0
10
310.000000
20
85.000000
0
VERTEX
8
0
10
504.000000
20
85.000000
0
VERTEX
8
0
10
505.100000
20
85.800000
0
VERTEX
8
0
10
508.200000
20
88.900000
0
VERTEX
8
0
10
509.200000
20
90.900000
0
VERTEX
8
0
10
518.502315
20
110.002293
0
VERTEX
8
0
10
520.000000
20
328.000000
0
SEQEND
0
ENDSEC
0
EOF
