0
SECTION
2
HEADER
9
$ACADVER
1
AC1003
9
$INSBASE
10
0.0
20
0.0
30
0.0
9
$EXTMIN
10
0.000
20
0.000
30
0.0
9
$EXTMAX
10
777.000
20
786.000
30
0.0
9
$LIMMIN
10
0.000
20
0.000
9
$LIMMAX
10
777.000
20
786.000
9
$LTSCALE
40
1.0
9
$LUNITS
70
2
9
$LUPREC
70
3
9
$LIMCHECK
70
0
9
$UCSNAME
2

9
$UCSORG
10
0.0
20
0.0
30
0.0
9
$UCSXDIR
10
1.0
20
0.0
30
0.0
9
$UCSYDIR
10
0.0
20
1.0
30
0.0
9
$WORLDVIEW
70
1
9
$UNITMODE
70
0
0
ENDSEC
0
SECTION
2
TABLES
0
TABLE
2
VPORT
70
1
0
VPORT
2
*ACTIVE
70
0
10
0.0
20
0.0
11
1.0
21
1.0
12
388.500
22
393.000
13
0.0
23
0.0
14
1.0
24
1.0
15
0.0
25
0.0
16
0.0
26
0.0
36
1.0
17
0.0
27
0.0
37
0.0
40
500.0
41
1.012
42
50.0
43
0.0
44
0.0
50
0.0
51
0.0
71
0
72
100
73
1
74
1
75
0
76
0
77
0
78
0
0
ENDTAB
0
TABLE
2
LTYPE
70
1
0
LTYPE
2
CONTINUOUS
70
64
3
Solid line
72
65
73
0
40
0.000
0
ENDTAB
0
TABLE
2
LAYER
70
1
0
LAYER
2
0
70
64
62
7
6
CONTINUOUS
0
ENDTAB
0
ENDSEC
0
SECTION
2
BLOCKS
0
ENDSEC
0
SECTION
2
ENTITIES
0
POLYLINE
8
0
6
CONTINUOUS
66
1
62
7
10
0.0
20
0.0
30
0.000000
0
VERTEX
8
0
10
166.000000
20
700.000000
0
VERTEX
8
0
10
188.000000
20
701.000000
0
SEQEND
0
POLYLINE
8
0
6
CONTINUOUS
66
1
62
7
10
0.0
20
0.0
30
0.000000
0
VERTEX
8
0
10
243.000000
20
700.000000
0
VERTEX
8
0
10
188.000000
20
701.000000
0
SEQEND
0
POLYLINE
8
0
6
CONTINUOUS
66
1
62
7
10
0.0
20
0.0
30
0.000000
0
VERTEX
8
0
10
246.000000
20
700.000000
0
VERTEX
8
0
10
243.000000
20
700.000000
0
SEQEND
0
POLYLINE
8
0
6
CONTINUOUS
66
1
62
7
10
0.0
20
0.0
30
0.000000
0
VERTEX
8
0
10
535.000000
20
700.000000
0
VERTEX
8
0
10
534.000000
20
701.000000
0
VERTEX
8
0
10
247.000000
20
701.000000
0
VERTEX
8
0
10
246.000000
20
700.000000
0
SEQEND
0
POLYLINE
8
0
6
CONTINUOUS
66
1
62
7
10
0.0
20
0.0
30
0.000000
0
VERTEX
8
0
10
536.000000
20
700.000000
0
VERTEX
8
0
10
535.000000
20
700.000000
0
SEQEND
0
POLYLINE
8
0
6
CONTINUOUS
66
1
62
7
10
0.0
20
0.0
30
0.000000
0
VERTEX
8
0
10
536.000000
20
700.000000
0
VERTEX
8
0
10
592.000000
20
701.000000
0
SEQEND
0
POLYLINE
8
0
6
CONTINUOUS
66
1
62
7
10
0.0
20
0.0
30
0.000000
0
VERTEX
8
0
10
611.000000
20
700.000000
0
VERTEX
8
0
10
592.000000
20
701.000000
0
SEQEND
0
POLYLINE
8
0
6
CONTINUOUS
66
1
62
7
10
0.0
20
0.0
30
0.000000
0
VERTEX
8
0
10
158.000000
20
696.000000
0
VERTEX
8
0
10
158.000000
20
697.000000
0
VERTEX
8
0
10
161.076923
20
698.615385
0
VERTEX
8
0
10
166.000000
20
700.000000
0
SEQEND
0
POLYLINE
8
0
6
CONTINUOUS
66
1
62
7
10
0.0
20
0.0
30
0.000000
0
VERTEX
8
0
10
156.000000
20
695.000000
0
VERTEX
8
0
10
158.000000
20
696.000000
0
SEQEND
0
POLYLINE
8
0
6
CONTINUOUS
66
1
62
7
10
0.0
20
0.0
30
0.000000
0
VERTEX
8
0
10
210.000000
20
691.000000
0
VERTEX
8
0
10
209.000000
20
691.000000
0
SEQEND
0
POLYLINE
8
0
6
CONTINUOUS
66
1
62
7
10
0.0
20
0.0
30
0.000000
0
VERTEX
8
0
10
210.000000
20
691.000000
0
VERTEX
8
0
10
214.000000
20
696.000000
0
VERTEX
8
0
10
214.000000
20
697.000000
0
VERTEX
8
0
10
212.000000
20
698.000000
0
VERTEX
8
0
10
208.100000
20
695.800000
0
VERTEX
8
0
10
207.000000
20
695.000000
0
VERTEX
8
0
10
200.940000
20
695.580000
0
VERTEX
8
0
10
189.000000
20
698.000000
0
VERTEX
8
0
10
188.000000
20
699.000000
0
VERTEX
8
0
10
188.000000
20
701.000000
0
SEQEND
0
POLYLINE
8
0
6
CONTINUOUS
66
1
62
7
10
0.0
20
0.0
30
0.000000
0
VERTEX
8
0
10
145.000000
20
689.000000
0
VERTEX
8
0
10
149.000000
20
696.000000
0
VERTEX
8
0
10
148.000000
20
698.000000
0
VERTEX
8
0
10
147.000000
20
698.000000
0
VERTEX
8
0
10
144.000000
20
694.000000
0
VERTEX
8
0
10
144.000000
20
690.000000
0
VERTEX
8
0
10
145.000000
20
689.000000
0
SEQEND
0
POLYLINE
8
0
6
CONTINUOUS
66
1
62
7
10
0.0
20
0.0
30
0.000000
0
VERTEX
8
0
10
121.000000
20
688.000000
0
VERTEX
8
0
10
122.769231
20
690.153846
0
VERTEX
8
0
10
122.750000
20
691.750000
0
VERTEX
8
0
10
121.000000
20
692.000000
0
VERTEX
8
0
10
120.000000
20
691.000000
0
VERTEX
8
0
10
120.000000
20
689.000000
0
VERTEX
8
0
10
121.000000
20
688.000000
0
SEQEND
0
POLYLINE
8
0
6
CONTINUOUS
66
1
62
7
10
0.0
20
0.0
30
0.000000
0
VERTEX
8
0
10
659.000000
20
688.000000
0
VERTEX
8
0
10
660.000000
20
689.000000
0
VERTEX
8
0
10
660.000000
20
691.000000
0
VERTEX
8
0
10
659.000000
20
692.000000
0
VERTEX
8
0
10
657.250000
20
691.750000
0
VERTEX
8
0
10
657.000000
20
691.000000
0
VERTEX
8
0
10
659.000000
20
688.000000
0
SEQEND
0
POLYLINE
8
0
6
CONTINUOUS
66
1
62
7
10
0.0
20
0.0
30
0.000000
0
VERTEX
8
0
10
140.000000
20
687.000000
0
VERTEX
8
0
10
140.000000
20
694.000000
0
VERTEX
8
0
10
139.000000
20
695.000000
0
VERTEX
8
0
10
137.000000
20
695.000000
0
VERTEX
8
0
10
136.000000
20
694.000000
0
VERTEX
8
0
10
136.700000
20
691.900000
0
VERTEX
8
0
10
137.300000
20
690.100000
0
VERTEX
8
0
10
139.000000
20
687.000000
0
VERTEX
8
0
10
140.000000
20
687.000000
0
SEQEND
0
POLYLINE
8
0
6
CONTINUOUS
66
1
62
7
10
0.0
20
0.0
30
0.000000
0
VERTEX
8
0
10
144.000000
20
686.000000
0
VERTEX
8
0
10
145.000000
20
689.000000
0
SEQEND
0
POLYLINE
8
0
6
CONTINUOUS
66
1
62
7
10
0.0
20
0.0
30
0.000000
0
VERTEX
8
0
10
636.000000
20
686.000000
0
VERTEX
8
0
10
637.000000
20
687.000000
0
VERTEX
8
0
10
635.000000
20
696.000000
0
VERTEX
8
0
10
633.000000
20
698.000000
0
VERTEX
8
0
10
631.000000
20
696.000000
0
VERTEX
8
0
10
632.200000
20
694.100000
0
VERTEX
8
0
10
636.000000
20
686.000000
0
SEQEND
0
POLYLINE
8
0
6
CONTINUOUS
66
1
62
7
10
0.0
20
0.0
30
0.000000
0
VERTEX
8
0
10
641.000000
20
686.000000
0
VERTEX
8
0
10
644.200000
20
691.900000
0
VERTEX
8
0
10
645.000000
20
693.000000
0
VERTEX
8
0
10
643.000000
20
695.000000
0
VERTEX
8
0
10
642.000000
20
695.000000
0
VERTEX
8
0
10
640.000000
20
692.000000
0
VERTEX
8
0
10
640.000000
20
687.000000
0
VERTEX
8
0
10
641.000000
20
686.000000
0
SEQEND
0
POLYLINE
8
0
6
CONTINUOUS
66
1
62
7
10
0.0
20
0.0
30
0.000000
0
VERTEX
8
0
10
140.000000
20
685.000000
0
VERTEX
8
0
10
140.000000
20
687.000000
0
SEQEND
0
POLYLINE
8
0
6
CONTINUOUS
66
1
62
7
10
0.0
20
0.0
30
0.000000
0
VERTEX
8
0
10
554.000000
20
685.000000
0
VERTEX
8
0
10
549.067568
20
685.405405
0
VERTEX
8
0
10
539.000000
20
688.000000
0
VERTEX
8
0
10
538.000000
20
689.000000
0
VERTEX
8
0
10
538.800000
20
692.100000
0
VERTEX
8
0
10
540.200000
20
694.900000
0
VERTEX
8
0
10
541.000000
20
696.000000
0
VERTEX
8
0
10
536.000000
20
700.000000
0
SEQEND
0
POLYLINE
8
0
6
CONTINUOUS
66
1
62
7
10
0.0
20
0.0
30
0.000000
0
VERTEX
8
0
10
554.000000
20
685.000000
0
VERTEX
8
0
10
556.000000
20
689.000000
0
VERTEX
8
0
10
570.000000
20
690.000000
0
VERTEX
8
0
10
571.000000
20
691.000000
0
VERTEX
8
0
10
566.000000
20
696.000000
0
VERTEX
8
0
10
566.000000
20
698.000000
0
VERTEX
8
0
10
567.000000
20
699.000000
0
VERTEX
8
0
10
574.000000
20
695.000000
0
VERTEX
8
0
10
584.940000
20
696.420000
0
VERTEX
8
0
10
591.750000
20
698.250000
0
VERTEX
8
0
10
592.000000
20
701.000000
0
SEQEND
0
POLYLINE
8
0
6
CONTINUOUS
66
1
62
7
10
0.0
20
0.0
30
0.000000
0
VERTEX
8
0
10
636.000000
20
685.000000
0
VERTEX
8
0
10
636.000000
20
686.000000
0
SEQEND
0
POLYLINE
8
0
6
CONTINUOUS
66
1
62
7
10
0.0
20
0.0
30
0.000000
0
VERTEX
8
0
10
225.000000
20
684.000000
0
VERTEX
8
0
10
221.088235
20
684.352941
0
VERTEX
8
0
10
194.100000
20
692.300000
0
VERTEX
8
0
10
193.000000
20
693.000000
0
VERTEX
8
0
10
191.000000
20
688.000000
0
VERTEX
8
0
10
190.000000
20
687.000000
0
VERTEX
8
0
10
186.250000
20
687.250000
0
VERTEX
8
0
10
186.300000
20
689.900000
0
VERTEX
8
0
10
187.000000
20
691.000000
0
VERTEX
8
0
10
185.000000
20
693.000000
0
VERTEX
8
0
10
177.940000
20
695.580000
0
VERTEX
8
0
10
171.000000
20
697.000000
0
VERTEX
8
0
10
162.000000
20
697.000000
0
VERTEX
8
0
10
158.000000
20
696.000000
0
SEQEND
0
POLYLINE
8
0
6
CONTINUOUS
66
1
62
7
10
0.0
20
0.0
30
0.000000
0
VERTEX
8
0
10
225.000000
20
684.000000
0
VERTEX
8
0
10
224.750000
20
688.750000
0
VERTEX
8
0
10
217.053846
20
689.430769
0
VERTEX
8
0
10
210.000000
20
691.000000
0
SEQEND
0
POLYLINE
8
0
6
CONTINUOUS
66
1
62
7
10
0.0
20
0.0
30
0.000000
0
VERTEX
8
0
10
226.000000
20
684.000000
0
VERTEX
8
0
10
225.000000
20
684.000000
0
SEQEND
0
POLYLINE
8
0
6
CONTINUOUS
66
1
62
7
10
0.0
20
0.0
30
0.000000
0
VERTEX
8
0
10
226.000000
20
684.000000
0
VERTEX
8
0
10
237.900000
20
687.200000
0
VERTEX
8
0
10
242.000000
20
690.000000
0
VERTEX
8
0
10
240.000000
20
694.000000
0
VERTEX
8
0
10
240.800000
20
697.100000
0
VERTEX
8
0
10
243.000000
20
700.000000
0
SEQEND
0
POLYLINE
8
0
6
CONTINUOUS
66
1
62
7
10
0.0
20
0.0
30
0.000000
0
VERTEX
8
0
10
555.000000
20
684.000000
0
VERTEX
8
0
10
554.000000
20
685.000000
0
SEQEND
0
POLYLINE
8
0
6
CONTINUOUS
66
1
62
7
10
0.0
20
0.0
30
0.000000
0
VERTEX
8
0
10
555.000000
20
684.000000
0
VERTEX
8
0
10
566.100000
20
685.700000
0
VERTEX
8
0
10
587.000000
20
692.000000
0
VERTEX
8
0
10
589.000000
20
690.000000
0
VERTEX
8
0
10
589.000000
20
688.000000
0
VERTEX
8
0
10
590.000000
20
687.000000
0
VERTEX
8
0
10
593.000000
20
687.000000
0
VERTEX
8
0
10
594.000000
20
688.000000
0
VERTEX
8
0
10
594.000000
20
691.000000
0
VERTEX
8
0
10
596.000000
20
693.000000
0
VERTEX
8
0
10
602.060000
20
695.580000
0
VERTEX
8
0
10
609.000000
20
697.000000
0
VERTEX
8
0
10
616.000000
20
697.000000
0
VERTEX
8
0
10
622.000000
20
695.000000
0
VERTEX
8
0
10
623.000000
20
696.000000
0
VERTEX
8
0
10
621.000000
20
698.000000
0
VERTEX
8
0
10
611.000000
20
700.000000
0
SEQEND
0
POLYLINE
8
0
6
CONTINUOUS
66
1
62
7
10
0.0
20
0.0
30
0.000000
0
VERTEX
8
0
10
226.000000
20
684.000000
0
VERTEX
8
0
10
227.000000
20
683.000000
0
VERTEX
8
0
10
234.000000
20
683.000000
0
VERTEX
8
0
10
243.900000
20
686.200000
0
VERTEX
8
0
10
246.000000
20
687.000000
0
VERTEX
8
0
10
248.200000
20
689.900000
0
VERTEX
8
0
10
250.000000
20
693.000000
0
VERTEX
8
0
10
248.200000
20
697.100000
0
VERTEX
8
0
10
246.000000
20
700.000000
0
SEQEND
0
POLYLINE
8
0
6
CONTINUOUS
66
1
62
7
10
0.0
20
0.0
30
0.000000
0
VERTEX
8
0
10
535.000000
20
700.000000
0
VERTEX
8
0
10
532.200000
20
695.900000
0
VERTEX
8
0
10
531.000000
20
692.000000
0
VERTEX
8
0
10
535.000000
20
687.000000
0
VERTEX
8
0
10
537.100000
20
686.200000
0
VERTEX
8
0
10
537.900000
20
685.800000
0
VERTEX
8
0
10
547.000000
20
683.000000
0
VERTEX
8
0
10
554.000000
20
683.000000
0
VERTEX
8
0
10
555.000000
20
684.000000
0
SEQEND
0
POLYLINE
8
0
6
CONTINUOUS
66
1
62
7
10
0.0
20
0.0
30
0.000000
0
VERTEX
8
0
10
132.000000
20
679.000000
0
VERTEX
8
0
10
132.300000
20
681.900000
0
VERTEX
8
0
10
133.000000
20
683.000000
0
VERTEX
8
0
10
133.000000
20
690.000000
0
VERTEX
8
0
10
131.000000
20
692.000000
0
VERTEX
8
0
10
130.000000
20
692.000000
0
VERTEX
8
0
10
121.000000
20
684.000000
0
VERTEX
8
0
10
121.000000
20
681.000000
0
VERTEX
8
0
10
128.088235
20
679.352941
0
VERTEX
8
0
10
132.000000
20
679.000000
0
SEQEND
0
POLYLINE
8
0
6
CONTINUOUS
66
1
62
7
10
0.0
20
0.0
30
0.000000
0
VERTEX
8
0
10
634.000000
20
679.000000
0
VERTEX
8
0
10
635.000000
20
680.000000
0
SEQEND
0
POLYLINE
8
0
6
CONTINUOUS
66
1
62
7
10
0.0
20
0.0
30
0.000000
0
VERTEX
8
0
10
653.000000
20
679.000000
0
VERTEX
8
0
10
654.076923
20
679.615385
0
VERTEX
8
0
10
658.000000
20
680.000000
0
VERTEX
8
0
10
660.000000
20
682.000000
0
VERTEX
8
0
10
658.000000
20
685.000000
0
VERTEX
8
0
10
649.000000
20
691.000000
0
VERTEX
8
0
10
648.000000
20
690.000000
0
VERTEX
8
0
10
647.800000
20
689.100000
0
VERTEX
8
0
10
647.000000
20
688.000000
0
VERTEX
8
0
10
647.000000
20
682.000000
0
VERTEX
8
0
10
648.000000
20
680.000000
0
VERTEX
8
0
10
648.250000
20
679.250000
0
VERTEX
8
0
10
653.000000
20
679.000000
0
SEQEND
0
POLYLINE
8
0
6
CONTINUOUS
66
1
62
7
10
0.0
20
0.0
30
0.000000
0
VERTEX
8
0
10
634.000000
20
679.000000
0
VERTEX
8
0
10
635.000000
20
678.000000
0
VERTEX
8
0
10
636.000000
20
679.000000
0
VERTEX
8
0
10
635.000000
20
680.000000
0
SEQEND
0
POLYLINE
8
0
6
CONTINUOUS
66
1
62
7
10
0.0
20
0.0
30
0.000000
0
VERTEX
8
0
10
144.000000
20
677.000000
0
VERTEX
8
0
10
145.000000
20
678.000000
0
SEQEND
0
POLYLINE
8
0
6
CONTINUOUS
66
1
62
7
10
0.0
20
0.0
30
0.000000
0
VERTEX
8
0
10
160.000000
20
675.000000
0
VERTEX
8
0
10
162.000000
20
677.000000
0
VERTEX
8
0
10
160.000000
20
679.000000
0
VERTEX
8
0
10
159.000000
20
679.000000
0
VERTEX
8
0
10
158.000000
20
678.000000
0
VERTEX
8
0
10
158.000000
20
676.000000
0
VERTEX
8
0
10
160.000000
20
675.000000
0
SEQEND
0
POLYLINE
8
0
6
CONTINUOUS
66
1
62
7
10
0.0
20
0.0
30
0.000000
0
VERTEX
8
0
10
145.000000
20
678.000000
0
VERTEX
8
0
10
147.900000
20
679.200000
0
VERTEX
8
0
10
148.700000
20
679.400000
0
VERTEX
8
0
10
152.000000
20
677.000000
0
VERTEX
8
0
10
154.000000
20
679.000000
0
VERTEX
8
0
10
153.000000
20
682.000000
0
VERTEX
8
0
10
158.000000
20
684.000000
0
VERTEX
8
0
10
159.000000
20
686.000000
0
VERTEX
8
0
10
164.900000
20
683.800000
0
VERTEX
8
0
10
168.000000
20
683.000000
0
VERTEX
8
0
10
169.000000
20
682.000000
0
VERTEX
8
0
10
168.615385
20
678.076923
0
VERTEX
8
0
10
168.000000
20
677.000000
0
VERTEX
8
0
10
170.000000
20
675.000000
0
VERTEX
8
0
10
172.000000
20
675.000000
0
VERTEX
8
0
10
174.200000
20
677.900000
0
VERTEX
8
0
10
174.647059
20
679.088235
0
VERTEX
8
0
10
175.000000
20
682.000000
0
VERTEX
8
0
10
177.000000
20
684.000000
0
VERTEX
8
0
10
181.900000
20
681.700000
0
VERTEX
8
0
10
183.088235
20
681.352941
0
VERTEX
8
0
10
193.000000
20
679.000000
0
VERTEX
8
0
10
196.000000
20
680.000000
0
VERTEX
8
0
10
199.000000
20
684.000000
0
VERTEX
8
0
10
199.000000
20
685.000000
0
VERTEX
8
0
10
197.000000
20
688.000000
0
VERTEX
8
0
10
196.000000
20
686.000000
0
VERTEX
8
0
10
191.000000
20
683.000000
0
VERTEX
8
0
10
183.000000
20
684.000000
0
VERTEX
8
0
10
181.000000
20
686.000000
0
VERTEX
8
0
10
181.000000
20
691.000000
0
VERTEX
8
0
10
180.000000
20
692.000000
0
VERTEX
8
0
10
172.000000
20
689.000000
0
VERTEX
8
0
10
163.000000
20
691.000000
0
VERTEX
8
0
10
157.000000
20
691.000000
0
VERTEX
8
0
10
152.100000
20
688.800000
0
VERTEX
8
0
10
149.000000
20
687.000000
0
VERTEX
8
0
10
145.000000
20
679.000000
0
VERTEX
8
0
10
145.000000
20
678.000000
0
SEQEND
0
POLYLINE
8
0
6
CONTINUOUS
66
1
62
7
10
0.0
20
0.0
30
0.000000
0
VERTEX
8
0
10
635.000000
20
680.000000
0
VERTEX
8
0
10
632.000000
20
686.000000
0
VERTEX
8
0
10
627.100000
20
689.200000
0
VERTEX
8
0
10
624.100000
20
690.300000
0
VERTEX
8
0
10
623.000000
20
691.000000
0
VERTEX
8
0
10
609.053846
20
689.569231
0
VERTEX
8
0
10
608.000000
20
689.000000
0
VERTEX
8
0
10
603.900000
20
689.700000
0
VERTEX
8
0
10
602.100000
20
690.300000
0
VERTEX
8
0
10
601.000000
20
691.000000
0
VERTEX
8
0
10
599.000000
20
689.000000
0
VERTEX
8
0
10
599.000000
20
687.000000
0
VERTEX
8
0
10
600.000000
20
686.000000
0
VERTEX
8
0
10
599.000000
20
685.000000
0
VERTEX
8
0
10
593.911765
20
683.352941
0
VERTEX
8
0
10
590.000000
20
682.000000
0
VERTEX
8
0
10
586.180000
20
684.240000
0
VERTEX
8
0
10
583.000000
20
687.000000
0
VERTEX
8
0
10
582.000000
20
686.000000
0
VERTEX
8
0
10
583.000000
20
682.000000
0
VERTEX
8
0
10
588.000000
20
678.000000
0
VERTEX
8
0
10
593.100000
20
679.700000
0
VERTEX
8
0
10
603.000000
20
684.000000
0
VERTEX
8
0
10
605.000000
20
682.000000
0
VERTEX
8
0
10
606.000000
20
677.000000
0
VERTEX
8
0
10
609.000000
20
675.000000
0
VERTEX
8
0
10
610.000000
20
675.000000
0
VERTEX
8
0
10
612.000000
20
677.000000
0
VERTEX
8
0
10
611.250000
20
682.750000
0
VERTEX
8
0
10
622.750000
20
684.750000
0
VERTEX
8
0
10
624.000000
20
683.000000
0
VERTEX
8
0
10
626.000000
20
683.000000
0
VERTEX
8
0
10
627.000000
20
682.000000
0
VERTEX
8
0
10
627.000000
20
677.000000
0
VERTEX
8
0
10
628.000000
20
676.000000
0
VERTEX
8
0
10
632.352941
20
679.411765
0
VERTEX
8
0
10
634.000000
20
679.000000
0
SEQEND
0
POLYLINE
8
0
6
CONTINUOUS
66
1
62
7
10
0.0
20
0.0
30
0.000000
0
VERTEX
8
0
10
621.000000
20
675.000000
0
VERTEX
8
0
10
623.000000
20
677.000000
0
VERTEX
8
0
10
621.000000
20
679.000000
0
VERTEX
8
0
10
620.000000
20
679.000000
0
VERTEX
8
0
10
619.000000
20
678.000000
0
VERTEX
8
0
10
619.000000
20
676.000000
0
VERTEX
8
0
10
620.000000
20
675.000000
0
VERTEX
8
0
10
621.000000
20
675.000000
0
SEQEND
0
POLYLINE
8
0
6
CONTINUOUS
66
1
62
7
10
0.0
20
0.0
30
0.000000
0
VERTEX
8
0
10
123.000000
20
673.000000
0
VERTEX
8
0
10
124.000000
20
674.000000
0
VERTEX
8
0
10
119.000000
20
678.000000
0
VERTEX
8
0
10
118.000000
20
678.000000
0
VERTEX
8
0
10
116.000000
20
676.000000
0
VERTEX
8
0
10
116.000000
20
675.000000
0
VERTEX
8
0
10
119.076923
20
673.384615
0
VERTEX
8
0
10
123.000000
20
673.000000
0
SEQEND
0
POLYLINE
8
0
6
CONTINUOUS
66
1
62
7
10
0.0
20
0.0
30
0.000000
0
VERTEX
8
0
10
658.000000
20
673.000000
0
VERTEX
8
0
10
657.000000
20
674.000000
0
SEQEND
0
POLYLINE
8
0
6
CONTINUOUS
66
1
62
7
10
0.0
20
0.0
30
0.000000
0
VERTEX
8
0
10
658.000000
20
673.000000
0
VERTEX
8
0
10
663.750000
20
674.250000
0
VERTEX
8
0
10
664.000000
20
676.000000
0
VERTEX
8
0
10
662.000000
20
678.000000
0
VERTEX
8
0
10
659.153846
20
675.769231
0
VERTEX
8
0
10
657.000000
20
674.000000
0
SEQEND
0
POLYLINE
8
0
6
CONTINUOUS
66
1
62
7
10
0.0
20
0.0
30
0.000000
0
VERTEX
8
0
10
137.000000
20
672.000000
0
VERTEX
8
0
10
139.000000
20
674.000000
0
VERTEX
8
0
10
139.000000
20
675.000000
0
VERTEX
8
0
10
137.000000
20
676.000000
0
VERTEX
8
0
10
135.000000
20
674.000000
0
VERTEX
8
0
10
137.000000
20
672.000000
0
SEQEND
0
POLYLINE
8
0
6
CONTINUOUS
66
1
62
7
10
0.0
20
0.0
30
0.000000
0
VERTEX
8
0
10
643.000000
20
672.000000
0
VERTEX
8
0
10
645.000000
20
674.000000
0
VERTEX
8
0
10
643.000000
20
676.000000
0
VERTEX
8
0
10
641.000000
20
675.000000
0
VERTEX
8
0
10
641.000000
20
674.000000
0
VERTEX
8
0
10
643.000000
20
672.000000
0
SEQEND
0
POLYLINE
8
0
6
CONTINUOUS
66
1
62
7
10
0.0
20
0.0
30
0.000000
0
VERTEX
8
0
10
657.000000
20
674.000000
0
VERTEX
8
0
10
656.000000
20
673.000000
0
VERTEX
8
0
10
657.000000
20
672.000000
0
VERTEX
8
0
10
658.000000
20
673.000000
0
SEQEND
0
POLYLINE
8
0
6
CONTINUOUS
66
1
62
7
10
0.0
20
0.0
30
0.000000
0
VERTEX
8
0
10
123.000000
20
668.000000
0
VERTEX
8
0
10
126.000000
20
669.000000
0
SEQEND
0
POLYLINE
8
0
6
CONTINUOUS
66
1
62
7
10
0.0
20
0.0
30
0.000000
0
VERTEX
8
0
10
656.000000
20
668.000000
0
VERTEX
8
0
10
655.000000
20
668.000000
0
SEQEND
0
POLYLINE
8
0
6
CONTINUOUS
66
1
62
7
10
0.0
20
0.0
30
0.000000
0
VERTEX
8
0
10
132.000000
20
666.000000
0
VERTEX
8
0
10
131.000000
20
667.000000
0
SEQEND
0
POLYLINE
8
0
6
CONTINUOUS
66
1
62
7
10
0.0
20
0.0
30
0.000000
0
VERTEX
8
0
10
132.000000
20
666.000000
0
VERTEX
8
0
10
133.000000
20
667.000000
0
VERTEX
8
0
10
132.000000
20
668.000000
0
VERTEX
8
0
10
131.000000
20
667.000000
0
SEQEND
0
POLYLINE
8
0
6
CONTINUOUS
66
1
62
7
10
0.0
20
0.0
30
0.000000
0
VERTEX
8
0
10
123.000000
20
668.000000
0
VERTEX
8
0
10
122.000000
20
669.000000
0
VERTEX
8
0
10
115.000000
20
669.000000
0
VERTEX
8
0
10
113.800000
20
667.100000
0
VERTEX
8
0
10
113.000000
20
666.000000
0
VERTEX
8
0
10
115.000000
20
665.000000
0
VERTEX
8
0
10
123.000000
20
668.000000
0
SEQEND
0
POLYLINE
8
0
6
CONTINUOUS
66
1
62
7
10
0.0
20
0.0
30
0.000000
0
VERTEX
8
0
10
656.000000
20
668.000000
0
VERTEX
8
0
10
660.076923
20
666.384615
0
VERTEX
8
0
10
667.000000
20
665.000000
0
VERTEX
8
0
10
668.000000
20
666.000000
0
VERTEX
8
0
10
665.000000
20
669.000000
0
VERTEX
8
0
10
657.000000
20
669.000000
0
VERTEX
8
0
10
656.000000
20
668.000000
0
SEQEND
0
POLYLINE
8
0
6
CONTINUOUS
66
1
62
7
10
0.0
20
0.0
30
0.000000
0
VERTEX
8
0
10
114.000000
20
656.000000
0
VERTEX
8
0
10
115.000000
20
657.000000
0
SEQEND
0
POLYLINE
8
0
6
CONTINUOUS
66
1
62
7
10
0.0
20
0.0
30
0.000000
0
VERTEX
8
0
10
112.000000
20
654.000000
0
VERTEX
8
0
10
112.000000
20
655.000000
0
VERTEX
8
0
10
114.000000
20
656.000000
0
SEQEND
0
POLYLINE
8
0
6
CONTINUOUS
66
1
62
7
10
0.0
20
0.0
30
0.000000
0
VERTEX
8
0
10
113.000000
20
653.000000
0
VERTEX
8
0
10
112.000000
20
654.000000
0
SEQEND
0
POLYLINE
8
0
6
CONTINUOUS
66
1
62
7
10
0.0
20
0.0
30
0.000000
0
VERTEX
8
0
10
113.000000
20
653.000000
0
VERTEX
8
0
10
114.000000
20
656.000000
0
SEQEND
0
POLYLINE
8
0
6
CONTINUOUS
66
1
62
7
10
0.0
20
0.0
30
0.000000
0
VERTEX
8
0
10
667.000000
20
653.000000
0
VERTEX
8
0
10
666.000000
20
655.000000
0
VERTEX
8
0
10
667.000000
20
656.000000
0
VERTEX
8
0
10
668.000000
20
654.000000
0
SEQEND
0
POLYLINE
8
0
6
CONTINUOUS
66
1
62
7
10
0.0
20
0.0
30
0.000000
0
VERTEX
8
0
10
667.000000
20
653.000000
0
VERTEX
8
0
10
668.000000
20
654.000000
0
SEQEND
0
POLYLINE
8
0
6
CONTINUOUS
66
1
62
7
10
0.0
20
0.0
30
0.000000
0
VERTEX
8
0
10
134.000000
20
650.000000
0
VERTEX
8
0
10
134.000000
20
651.000000
0
VERTEX
8
0
10
134.000000
20
652.000000
0
VERTEX
8
0
10
132.000000
20
654.000000
0
VERTEX
8
0
10
130.000000
20
652.000000
0
VERTEX
8
0
10
132.000000
20
650.000000
0
VERTEX
8
0
10
134.000000
20
650.000000
0
SEQEND
0
POLYLINE
8
0
6
CONTINUOUS
66
1
62
7
10
0.0
20
0.0
30
0.000000
0
VERTEX
8
0
10
648.000000
20
649.000000
0
VERTEX
8
0
10
650.000000
20
651.000000
0
VERTEX
8
0
10
648.000000
20
653.000000
0
VERTEX
8
0
10
646.000000
20
651.000000
0
VERTEX
8
0
10
648.000000
20
649.000000
0
SEQEND
0
POLYLINE
8
0
6
CONTINUOUS
66
1
62
7
10
0.0
20
0.0
30
0.000000
0
VERTEX
8
0
10
126.000000
20
644.000000
0
VERTEX
8
0
10
124.647059
20
652.911765
0
VERTEX
8
0
10
124.000000
20
654.000000
0
VERTEX
8
0
10
127.000000
20
656.000000
0
VERTEX
8
0
10
127.000000
20
658.000000
0
VERTEX
8
0
10
128.000000
20
659.000000
0
VERTEX
8
0
10
129.000000
20
658.000000
0
VERTEX
8
0
10
131.000000
20
658.000000
0
VERTEX
8
0
10
132.000000
20
659.000000
0
VERTEX
8
0
10
130.000000
20
663.000000
0
VERTEX
8
0
10
130.000000
20
664.000000
0
VERTEX
8
0
10
132.000000
20
666.000000
0
SEQEND
0
POLYLINE
8
0
6
CONTINUOUS
66
1
62
7
10
0.0
20
0.0
30
0.000000
0
VERTEX
8
0
10
127.000000
20
643.000000
0
VERTEX
8
0
10
126.000000
20
644.000000
0
SEQEND
0
POLYLINE
8
0
6
CONTINUOUS
66
1
62
7
10
0.0
20
0.0
30
0.000000
0
VERTEX
8
0
10
126.000000
20
644.000000
0
VERTEX
8
0
10
125.000000
20
643.000000
0
VERTEX
8
0
10
126.000000
20
642.000000
0
VERTEX
8
0
10
127.000000
20
643.000000
0
SEQEND
0
POLYLINE
8
0
6
CONTINUOUS
66
1
62
7
10
0.0
20
0.0
30
0.000000
0
VERTEX
8
0
10
131.000000
20
667.000000
0
VERTEX
8
0
10
126.100000
20
664.800000
0
VERTEX
8
0
10
122.000000
20
662.000000
0
VERTEX
8
0
10
118.000000
20
653.000000
0
VERTEX
8
0
10
118.000000
20
646.000000
0
VERTEX
8
0
10
119.000000
20
645.000000
0
VERTEX
8
0
10
119.000000
20
637.000000
0
VERTEX
8
0
10
117.000000
20
635.000000
0
VERTEX
8
0
10
116.000000
20
635.000000
0
VERTEX
8
0
10
115.000000
20
633.000000
0
VERTEX
8
0
10
122.000000
20
631.000000
0
VERTEX
8
0
10
124.000000
20
621.000000
0
VERTEX
8
0
10
118.000000
20
615.000000
0
VERTEX
8
0
10
121.000000
20
613.000000
0
VERTEX
8
0
10
122.000000
20
613.000000
0
VERTEX
8
0
10
127.000000
20
617.000000
0
VERTEX
8
0
10
128.000000
20
619.000000
0
VERTEX
8
0
10
127.384615
20
623.076923
0
VERTEX
8
0
10
126.615385
20
626.923077
0
VERTEX
8
0
10
124.000000
20
635.000000
0
VERTEX
8
0
10
132.000000
20
640.000000
0
VERTEX
8
0
10
133.000000
20
643.000000
0
VERTEX
8
0
10
131.000000
20
645.000000
0
VERTEX
8
0
10
127.000000
20
643.000000
0
SEQEND
0
POLYLINE
8
0
6
CONTINUOUS
66
1
62
7
10
0.0
20
0.0
30
0.000000
0
VERTEX
8
0
10
659.000000
20
613.000000
0
VERTEX
8
0
10
662.000000
20
615.000000
0
VERTEX
8
0
10
658.800000
20
617.900000
0
VERTEX
8
0
10
657.800000
20
619.900000
0
VERTEX
8
0
10
657.000000
20
621.000000
0
VERTEX
8
0
10
657.000000
20
628.000000
0
VERTEX
8
0
10
658.000000
20
630.000000
0
VERTEX
8
0
10
660.000000
20
632.000000
0
VERTEX
8
0
10
662.000000
20
631.000000
0
VERTEX
8
0
10
665.000000
20
634.000000
0
VERTEX
8
0
10
663.000000
20
635.000000
0
VERTEX
8
0
10
661.000000
20
637.000000
0
VERTEX
8
0
10
663.000000
20
646.000000
0
VERTEX
8
0
10
663.000000
20
651.000000
0
VERTEX
8
0
10
658.000000
20
662.000000
0
VERTEX
8
0
10
655.153846
20
664.230769
0
VERTEX
8
0
10
652.846154
20
665.769231
0
VERTEX
8
0
10
648.000000
20
668.000000
0
VERTEX
8
0
10
647.000000
20
667.000000
0
VERTEX
8
0
10
647.800000
20
665.900000
0
VERTEX
8
0
10
649.200000
20
661.900000
0
VERTEX
8
0
10
648.800000
20
661.100000
0
VERTEX
8
0
10
648.000000
20
660.000000
0
VERTEX
8
0
10
650.000000
20
658.000000
0
VERTEX
8
0
10
652.000000
20
658.000000
0
VERTEX
8
0
10
653.000000
20
657.000000
0
VERTEX
8
0
10
653.000000
20
655.000000
0
VERTEX
8
0
10
654.000000
20
654.000000
0
VERTEX
8
0
10
655.000000
20
655.000000
0
VERTEX
8
0
10
656.000000
20
654.000000
0
VERTEX
8
0
10
655.000000
20
643.000000
0
VERTEX
8
0
10
654.000000
20
642.000000
0
VERTEX
8
0
10
651.100000
20
643.300000
0
VERTEX
8
0
10
650.000000
20
644.000000
0
VERTEX
8
0
10
649.000000
20
644.000000
0
VERTEX
8
0
10
647.000000
20
642.000000
0
VERTEX
8
0
10
647.800000
20
639.900000
0
VERTEX
8
0
10
648.000000
20
639.000000
0
VERTEX
8
0
10
650.900000
20
637.700000
0
VERTEX
8
0
10
656.000000
20
636.000000
0
VERTEX
8
0
10
655.384615
20
631.923077
0
VERTEX
8
0
10
654.300000
20
626.900000
0
VERTEX
8
0
10
652.000000
20
619.000000
0
VERTEX
8
0
10
653.200000
20
617.100000
0
VERTEX
8
0
10
655.000000
20
614.000000
0
VERTEX
8
0
10
659.000000
20
613.000000
0
SEQEND
0
POLYLINE
8
0
6
CONTINUOUS
66
1
62
7
10
0.0
20
0.0
30
0.000000
0
VERTEX
8
0
10
678.000000
20
572.000000
0
VERTEX
8
0
10
678.000000
20
700.000000
0
VERTEX
8
0
10
677.000000
20
701.000000
0
VERTEX
8
0
10
611.000000
20
700.000000
0
SEQEND
0
POLYLINE
8
0
6
CONTINUOUS
66
1
62
7
10
0.0
20
0.0
30
0.000000
0
VERTEX
8
0
10
102.000000
20
570.000000
0
VERTEX
8
0
10
101.000000
20
700.000000
0
VERTEX
8
0
10
102.000000
20
701.000000
0
VERTEX
8
0
10
166.000000
20
700.000000
0
SEQEND
0
POLYLINE
8
0
6
CONTINUOUS
66
1
62
7
10
0.0
20
0.0
30
0.000000
0
VERTEX
8
0
10
102.000000
20
570.000000
0
VERTEX
8
0
10
104.000000
20
573.000000
0
VERTEX
8
0
10
109.000000
20
573.000000
0
VERTEX
8
0
10
110.900000
20
571.800000
0
VERTEX
8
0
10
112.000000
20
571.000000
0
VERTEX
8
0
10
113.000000
20
571.000000
0
VERTEX
8
0
10
115.000000
20
573.000000
0
VERTEX
8
0
10
118.000000
20
583.000000
0
VERTEX
8
0
10
118.000000
20
587.000000
0
VERTEX
8
0
10
117.000000
20
588.000000
0
VERTEX
8
0
10
116.000000
20
587.000000
0
VERTEX
8
0
10
115.000000
20
588.000000
0
VERTEX
8
0
10
115.000000
20
602.000000
0
VERTEX
8
0
10
114.000000
20
603.000000
0
VERTEX
8
0
10
110.000000
20
599.000000
0
VERTEX
8
0
10
107.000000
20
599.000000
0
VERTEX
8
0
10
106.000000
20
600.000000
0
VERTEX
8
0
10
107.200000
20
601.900000
0
VERTEX
8
0
10
109.200000
20
605.900000
0
VERTEX
8
0
10
110.000000
20
607.000000
0
VERTEX
8
0
10
110.000000
20
619.000000
0
VERTEX
8
0
10
108.353846
20
622.630769
0
VERTEX
8
0
10
105.000000
20
627.000000
0
VERTEX
8
0
10
107.647059
20
641.088235
0
VERTEX
8
0
10
111.200000
20
652.900000
0
VERTEX
8
0
10
112.000000
20
654.000000
0
SEQEND
0
POLYLINE
8
0
6
CONTINUOUS
66
1
62
7
10
0.0
20
0.0
30
0.000000
0
VERTEX
8
0
10
668.000000
20
654.000000
0
VERTEX
8
0
10
669.769231
20
651.846154
0
VERTEX
8
0
10
675.000000
20
630.000000
0
VERTEX
8
0
10
675.000000
20
626.000000
0
VERTEX
8
0
10
673.000000
20
625.000000
0
VERTEX
8
0
10
671.000000
20
623.000000
0
VERTEX
8
0
10
670.000000
20
620.000000
0
VERTEX
8
0
10
670.000000
20
606.000000
0
VERTEX
8
0
10
674.000000
20
600.000000
0
VERTEX
8
0
10
673.000000
20
599.000000
0
VERTEX
8
0
10
670.000000
20
599.000000
0
VERTEX
8
0
10
666.000000
20
603.000000
0
VERTEX
8
0
10
665.000000
20
602.000000
0
VERTEX
8
0
10
665.000000
20
588.000000
0
VERTEX
8
0
10
664.000000
20
587.000000
0
VERTEX
8
0
10
663.000000
20
588.000000
0
VERTEX
8
0
10
662.000000
20
587.000000
0
VERTEX
8
0
10
662.615385
20
580.923077
0
VERTEX
8
0
10
665.000000
20
573.000000
0
VERTEX
8
0
10
668.000000
20
570.000000
0
VERTEX
8
0
10
669.900000
20
571.200000
0
VERTEX
8
0
10
673.000000
20
573.000000
0
VERTEX
8
0
10
678.000000
20
572.000000
0
SEQEND
0
POLYLINE
8
0
6
CONTINUOUS
66
1
62
7
10
0.0
20
0.0
30
0.000000
0
VERTEX
8
0
10
102.000000
20
568.000000
0
VERTEX
8
0
10
102.000000
20
570.000000
0
SEQEND
0
POLYLINE
8
0
6
CONTINUOUS
66
1
62
7
10
0.0
20
0.0
30
0.000000
0
VERTEX
8
0
10
678.000000
20
565.000000
0
VERTEX
8
0
10
678.000000
20
572.000000
0
SEQEND
0
POLYLINE
8
0
6
CONTINUOUS
66
1
62
7
10
0.0
20
0.0
30
0.000000
0
VERTEX
8
0
10
102.000000
20
568.000000
0
VERTEX
8
0
10
103.000000
20
566.000000
0
VERTEX
8
0
10
107.000000
20
563.000000
0
VERTEX
8
0
10
110.000000
20
563.000000
0
VERTEX
8
0
10
113.000000
20
565.000000
0
VERTEX
8
0
10
118.700000
20
573.100000
0
VERTEX
8
0
10
120.384615
20
579.923077
0
VERTEX
8
0
10
121.000000
20
588.000000
0
VERTEX
8
0
10
119.352941
20
597.088235
0
VERTEX
8
0
10
113.000000
20
620.000000
0
VERTEX
8
0
10
120.000000
20
622.000000
0
VERTEX
8
0
10
121.000000
20
623.000000
0
VERTEX
8
0
10
121.000000
20
625.000000
0
VERTEX
8
0
10
119.000000
20
627.000000
0
VERTEX
8
0
10
117.000000
20
627.000000
0
VERTEX
8
0
10
116.000000
20
626.000000
0
VERTEX
8
0
10
114.000000
20
628.000000
0
VERTEX
8
0
10
113.352941
20
630.088235
0
VERTEX
8
0
10
111.000000
20
641.000000
0
VERTEX
8
0
10
111.000000
20
647.000000
0
VERTEX
8
0
10
113.000000
20
653.000000
0
SEQEND
0
POLYLINE
8
0
6
CONTINUOUS
66
1
62
7
10
0.0
20
0.0
30
0.000000
0
VERTEX
8
0
10
667.000000
20
653.000000
0
VERTEX
8
0
10
667.352941
20
650.088235
0
VERTEX
8
0
10
669.000000
20
646.000000
0
VERTEX
8
0
10
669.000000
20
634.000000
0
VERTEX
8
0
10
667.800000
20
632.100000
0
VERTEX
8
0
10
666.000000
20
628.000000
0
VERTEX
8
0
10
664.000000
20
626.000000
0
VERTEX
8
0
10
660.250000
20
625.750000
0
VERTEX
8
0
10
660.000000
20
623.000000
0
VERTEX
8
0
10
662.000000
20
621.000000
0
VERTEX
8
0
10
666.750000
20
620.750000
0
VERTEX
8
0
10
665.700000
20
616.100000
0
VERTEX
8
0
10
661.439024
20
596.951220
0
VERTEX
8
0
10
660.560976
20
589.048780
0
VERTEX
8
0
10
660.000000
20
580.000000
0
VERTEX
8
0
10
662.352941
20
572.088235
0
VERTEX
8
0
10
663.200000
20
570.100000
0
VERTEX
8
0
10
666.000000
20
565.000000
0
VERTEX
8
0
10
670.000000
20
563.000000
0
VERTEX
8
0
10
674.000000
20
563.000000
0
VERTEX
8
0
10
678.000000
20
565.000000
0
SEQEND
0
POLYLINE
8
0
6
CONTINUOUS
66
1
62
7
10
0.0
20
0.0
30
0.000000
0
VERTEX
8
0
10
102.000000
20
223.000000
0
VERTEX
8
0
10
101.000000
20
224.000000
0
VERTEX
8
0
10
101.000000
20
567.000000
0
VERTEX
8
0
10
102.000000
20
568.000000
0
SEQEND
0
POLYLINE
8
0
6
CONTINUOUS
66
1
62
7
10
0.0
20
0.0
30
0.000000
0
VERTEX
8
0
10
678.000000
20
223.000000
0
VERTEX
8
0
10
678.000000
20
565.000000
0
SEQEND
0
POLYLINE
8
0
6
CONTINUOUS
66
1
62
7
10
0.0
20
0.0
30
0.000000
0
VERTEX
8
0
10
101.000000
20
216.000000
0
VERTEX
8
0
10
102.000000
20
223.000000
0
SEQEND
0
POLYLINE
8
0
6
CONTINUOUS
66
1
62
7
10
0.0
20
0.0
30
0.000000
0
VERTEX
8
0
10
678.000000
20
216.000000
0
VERTEX
8
0
10
678.000000
20
223.000000
0
SEQEND
0
POLYLINE
8
0
6
CONTINUOUS
66
1
62
7
10
0.0
20
0.0
30
0.000000
0
VERTEX
8
0
10
622.000000
20
140.000000
0
VERTEX
8
0
10
622.000000
20
647.000000
0
VERTEX
8
0
10
621.000000
20
648.000000
0
VERTEX
8
0
10
158.000000
20
648.000000
0
VERTEX
8
0
10
157.000000
20
647.000000
0
VERTEX
8
0
10
157.250000
20
140.250000
0
VERTEX
8
0
10
621.000000
20
140.000000
0
VERTEX
8
0
10
622.000000
20
140.000000
0
SEQEND
0
POLYLINE
8
0
6
CONTINUOUS
66
1
62
7
10
0.0
20
0.0
30
0.000000
0
VERTEX
8
0
10
131.000000
20
135.000000
0
VERTEX
8
0
10
133.000000
20
137.000000
0
VERTEX
8
0
10
132.000000
20
138.000000
0
VERTEX
8
0
10
130.000000
20
138.000000
0
VERTEX
8
0
10
129.000000
20
136.000000
0
VERTEX
8
0
10
131.000000
20
135.000000
0
SEQEND
0
POLYLINE
8
0
6
CONTINUOUS
66
1
62
7
10
0.0
20
0.0
30
0.000000
0
VERTEX
8
0
10
649.000000
20
135.000000
0
VERTEX
8
0
10
650.000000
20
136.000000
0
VERTEX
8
0
10
649.000000
20
138.000000
0
VERTEX
8
0
10
647.000000
20
138.000000
0
VERTEX
8
0
10
646.000000
20
137.000000
0
VERTEX
8
0
10
648.000000
20
135.000000
0
VERTEX
8
0
10
649.000000
20
135.000000
0
SEQEND
0
POLYLINE
8
0
6
CONTINUOUS
66
1
62
7
10
0.0
20
0.0
30
0.000000
0
VERTEX
8
0
10
101.000000
20
216.000000
0
VERTEX
8
0
10
107.000000
20
215.000000
0
VERTEX
8
0
10
108.900000
20
216.200000
0
VERTEX
8
0
10
110.000000
20
217.000000
0
VERTEX
8
0
10
112.000000
20
217.000000
0
VERTEX
8
0
10
114.000000
20
215.000000
0
VERTEX
8
0
10
117.000000
20
205.000000
0
VERTEX
8
0
10
117.000000
20
202.000000
0
VERTEX
8
0
10
115.000000
20
201.000000
0
VERTEX
8
0
10
114.000000
20
200.000000
0
VERTEX
8
0
10
114.000000
20
186.000000
0
VERTEX
8
0
10
113.000000
20
185.000000
0
VERTEX
8
0
10
109.000000
20
189.000000
0
VERTEX
8
0
10
106.000000
20
189.000000
0
VERTEX
8
0
10
105.000000
20
188.000000
0
VERTEX
8
0
10
108.200000
20
182.100000
0
VERTEX
8
0
10
109.000000
20
181.000000
0
VERTEX
8
0
10
109.000000
20
169.000000
0
VERTEX
8
0
10
108.352941
20
167.911765
0
VERTEX
8
0
10
108.000000
20
165.000000
0
VERTEX
8
0
10
103.000000
20
161.000000
0
VERTEX
8
0
10
108.300000
20
138.100000
0
VERTEX
8
0
10
112.000000
20
131.000000
0
VERTEX
8
0
10
113.000000
20
132.000000
0
VERTEX
8
0
10
113.000000
20
134.000000
0
VERTEX
8
0
10
110.000000
20
141.000000
0
VERTEX
8
0
10
110.000000
20
154.000000
0
VERTEX
8
0
10
114.000000
20
162.000000
0
VERTEX
8
0
10
117.000000
20
161.000000
0
VERTEX
8
0
10
119.000000
20
163.000000
0
VERTEX
8
0
10
119.000000
20
165.000000
0
VERTEX
8
0
10
117.000000
20
167.000000
0
VERTEX
8
0
10
112.250000
20
167.250000
0
VERTEX
8
0
10
117.384615
20
189.923077
0
VERTEX
8
0
10
119.000000
20
200.000000
0
VERTEX
8
0
10
118.384615
20
208.076923
0
VERTEX
8
0
10
117.300000
20
213.100000
0
VERTEX
8
0
10
114.000000
20
221.000000
0
VERTEX
8
0
10
109.000000
20
225.000000
0
VERTEX
8
0
10
105.000000
20
225.000000
0
VERTEX
8
0
10
102.000000
20
223.000000
0
SEQEND
0
POLYLINE
8
0
6
CONTINUOUS
66
1
62
7
10
0.0
20
0.0
30
0.000000
0
VERTEX
8
0
10
678.000000
20
223.000000
0
VERTEX
8
0
10
675.100000
20
224.200000
0
VERTEX
8
0
10
674.000000
20
225.000000
0
VERTEX
8
0
10
668.000000
20
224.000000
0
VERTEX
8
0
10
665.000000
20
221.000000
0
VERTEX
8
0
10
662.300000
20
214.900000
0
VERTEX
8
0
10
660.615385
20
208.076923
0
VERTEX
8
0
10
660.000000
20
207.000000
0
VERTEX
8
0
10
660.000000
20
199.000000
0
VERTEX
8
0
10
661.430769
20
191.053846
0
VERTEX
8
0
10
666.300000
20
170.100000
0
VERTEX
8
0
10
666.750000
20
167.250000
0
VERTEX
8
0
10
666.000000
20
167.000000
0
VERTEX
8
0
10
662.000000
20
167.000000
0
VERTEX
8
0
10
660.000000
20
165.000000
0
VERTEX
8
0
10
660.000000
20
163.000000
0
VERTEX
8
0
10
662.000000
20
161.000000
0
VERTEX
8
0
10
664.000000
20
162.000000
0
VERTEX
8
0
10
666.200000
20
159.100000
0
VERTEX
8
0
10
668.200000
20
155.100000
0
VERTEX
8
0
10
669.000000
20
154.000000
0
VERTEX
8
0
10
669.000000
20
141.000000
0
VERTEX
8
0
10
667.700000
20
138.100000
0
VERTEX
8
0
10
667.300000
20
136.900000
0
VERTEX
8
0
10
666.000000
20
132.000000
0
VERTEX
8
0
10
667.000000
20
131.000000
0
VERTEX
8
0
10
669.200000
20
134.900000
0
VERTEX
8
0
10
676.000000
20
161.000000
0
VERTEX
8
0
10
674.000000
20
162.000000
0
VERTEX
8
0
10
671.000000
20
165.000000
0
VERTEX
8
0
10
670.700000
20
166.900000
0
VERTEX
8
0
10
670.000000
20
168.000000
0
VERTEX
8
0
10
670.000000
20
182.000000
0
VERTEX
8
0
10
674.000000
20
188.000000
0
VERTEX
8
0
10
673.000000
20
189.000000
0
VERTEX
8
0
10
670.000000
20
189.000000
0
VERTEX
8
0
10
666.000000
20
185.000000
0
VERTEX
8
0
10
665.000000
20
186.000000
0
VERTEX
8
0
10
665.000000
20
200.000000
0
VERTEX
8
0
10
662.000000
20
201.000000
0
VERTEX
8
0
10
662.000000
20
206.000000
0
VERTEX
8
0
10
665.000000
20
215.000000
0
VERTEX
8
0
10
667.000000
20
217.000000
0
VERTEX
8
0
10
670.100000
20
216.200000
0
VERTEX
8
0
10
670.900000
20
215.800000
0
VERTEX
8
0
10
672.000000
20
215.000000
0
VERTEX
8
0
10
678.000000
20
216.000000
0
SEQEND
0
POLYLINE
8
0
6
CONTINUOUS
66
1
62
7
10
0.0
20
0.0
30
0.000000
0
VERTEX
8
0
10
131.000000
20
121.000000
0
VERTEX
8
0
10
130.000000
20
121.000000
0
VERTEX
8
0
10
123.000000
20
124.000000
0
VERTEX
8
0
10
121.000000
20
126.000000
0
VERTEX
8
0
10
117.352941
20
133.088235
0
VERTEX
8
0
10
116.000000
20
137.000000
0
VERTEX
8
0
10
117.420000
20
148.940000
0
VERTEX
8
0
10
118.000000
20
151.000000
0
VERTEX
8
0
10
114.000000
20
155.000000
0
VERTEX
8
0
10
115.000000
20
156.000000
0
VERTEX
8
0
10
119.000000
20
156.000000
0
VERTEX
8
0
10
121.200000
20
158.900000
0
VERTEX
8
0
10
122.000000
20
160.000000
0
VERTEX
8
0
10
122.000000
20
167.000000
0
VERTEX
8
0
10
119.760000
20
169.820000
0
VERTEX
8
0
10
117.000000
20
173.000000
0
VERTEX
8
0
10
118.900000
20
174.200000
0
VERTEX
8
0
10
120.000000
20
175.000000
0
VERTEX
8
0
10
122.100000
20
174.200000
0
VERTEX
8
0
10
123.000000
20
174.000000
0
VERTEX
8
0
10
125.200000
20
171.100000
0
VERTEX
8
0
10
127.000000
20
168.000000
0
VERTEX
8
0
10
126.300000
20
165.900000
0
VERTEX
8
0
10
123.000000
20
153.000000
0
VERTEX
8
0
10
131.000000
20
148.000000
0
VERTEX
8
0
10
131.500000
20
146.000000
0
VERTEX
8
0
10
130.000000
20
143.000000
0
VERTEX
8
0
10
128.100000
20
144.200000
0
VERTEX
8
0
10
125.000000
20
146.000000
0
VERTEX
8
0
10
124.000000
20
145.000000
0
VERTEX
8
0
10
123.300000
20
135.900000
0
VERTEX
8
0
10
123.000000
20
134.000000
0
VERTEX
8
0
10
124.000000
20
133.000000
0
VERTEX
8
0
10
125.000000
20
133.000000
0
VERTEX
8
0
10
126.000000
20
131.000000
0
VERTEX
8
0
10
127.000000
20
130.000000
0
VERTEX
8
0
10
130.000000
20
130.000000
0
VERTEX
8
0
10
131.000000
20
129.000000
0
VERTEX
8
0
10
129.000000
20
125.000000
0
VERTEX
8
0
10
129.000000
20
124.000000
0
VERTEX
8
0
10
131.000000
20
122.000000
0
SEQEND
0
POLYLINE
8
0
6
CONTINUOUS
66
1
62
7
10
0.0
20
0.0
30
0.000000
0
VERTEX
8
0
10
131.000000
20
121.000000
0
VERTEX
8
0
10
131.000000
20
122.000000
0
SEQEND
0
POLYLINE
8
0
6
CONTINUOUS
66
1
62
7
10
0.0
20
0.0
30
0.000000
0
VERTEX
8
0
10
649.000000
20
121.000000
0
VERTEX
8
0
10
648.000000
20
122.000000
0
SEQEND
0
POLYLINE
8
0
6
CONTINUOUS
66
1
62
7
10
0.0
20
0.0
30
0.000000
0
VERTEX
8
0
10
649.000000
20
121.000000
0
VERTEX
8
0
10
656.000000
20
124.000000
0
VERTEX
8
0
10
658.000000
20
126.000000
0
VERTEX
8
0
10
661.647059
20
133.088235
0
VERTEX
8
0
10
663.000000
20
137.000000
0
VERTEX
8
0
10
662.405405
20
143.067568
0
VERTEX
8
0
10
661.000000
20
149.000000
0
VERTEX
8
0
10
663.750000
20
155.750000
0
VERTEX
8
0
10
659.000000
20
156.000000
0
VERTEX
8
0
10
657.000000
20
159.000000
0
VERTEX
8
0
10
657.000000
20
167.000000
0
VERTEX
8
0
10
658.243902
20
168.804878
0
VERTEX
8
0
10
662.000000
20
173.000000
0
VERTEX
8
0
10
659.000000
20
175.000000
0
VERTEX
8
0
10
656.000000
20
174.000000
0
VERTEX
8
0
10
653.200000
20
169.900000
0
VERTEX
8
0
10
652.000000
20
167.000000
0
VERTEX
8
0
10
652.647059
20
165.911765
0
VERTEX
8
0
10
656.000000
20
153.000000
0
VERTEX
8
0
10
654.000000
20
151.000000
0
VERTEX
8
0
10
650.900000
20
150.300000
0
VERTEX
8
0
10
648.000000
20
149.000000
0
VERTEX
8
0
10
647.000000
20
146.000000
0
VERTEX
8
0
10
649.000000
20
143.000000
0
VERTEX
8
0
10
652.900000
20
145.200000
0
VERTEX
8
0
10
654.000000
20
146.000000
0
VERTEX
8
0
10
655.000000
20
145.000000
0
VERTEX
8
0
10
655.750000
20
133.250000
0
VERTEX
8
0
10
654.000000
20
133.000000
0
VERTEX
8
0
10
653.000000
20
131.000000
0
VERTEX
8
0
10
648.000000
20
129.000000
0
VERTEX
8
0
10
648.700000
20
126.900000
0
VERTEX
8
0
10
649.300000
20
125.100000
0
VERTEX
8
0
10
648.000000
20
122.000000
0
SEQEND
0
POLYLINE
8
0
6
CONTINUOUS
66
1
62
7
10
0.0
20
0.0
30
0.000000
0
VERTEX
8
0
10
132.000000
20
120.000000
0
VERTEX
8
0
10
131.000000
20
121.000000
0
SEQEND
0
POLYLINE
8
0
6
CONTINUOUS
66
1
62
7
10
0.0
20
0.0
30
0.000000
0
VERTEX
8
0
10
648.000000
20
122.000000
0
VERTEX
8
0
10
647.000000
20
121.000000
0
VERTEX
8
0
10
648.000000
20
120.000000
0
VERTEX
8
0
10
649.000000
20
121.000000
0
SEQEND
0
POLYLINE
8
0
6
CONTINUOUS
66
1
62
7
10
0.0
20
0.0
30
0.000000
0
VERTEX
8
0
10
122.000000
20
119.000000
0
VERTEX
8
0
10
122.000000
20
120.000000
0
VERTEX
8
0
10
120.100000
20
121.200000
0
VERTEX
8
0
10
118.923077
20
121.615385
0
VERTEX
8
0
10
112.000000
20
123.000000
0
VERTEX
8
0
10
111.000000
20
122.000000
0
VERTEX
8
0
10
114.000000
20
119.000000
0
VERTEX
8
0
10
122.000000
20
119.000000
0
SEQEND
0
POLYLINE
8
0
6
CONTINUOUS
66
1
62
7
10
0.0
20
0.0
30
0.000000
0
VERTEX
8
0
10
124.000000
20
119.000000
0
VERTEX
8
0
10
122.000000
20
119.000000
0
SEQEND
0
POLYLINE
8
0
6
CONTINUOUS
66
1
62
7
10
0.0
20
0.0
30
0.000000
0
VERTEX
8
0
10
657.000000
20
119.000000
0
VERTEX
8
0
10
655.000000
20
119.000000
0
SEQEND
0
POLYLINE
8
0
6
CONTINUOUS
66
1
62
7
10
0.0
20
0.0
30
0.000000
0
VERTEX
8
0
10
657.000000
20
119.000000
0
VERTEX
8
0
10
658.000000
20
119.000000
0
VERTEX
8
0
10
665.000000
20
119.000000
0
VERTEX
8
0
10
668.000000
20
122.000000
0
VERTEX
8
0
10
667.000000
20
123.000000
0
VERTEX
8
0
10
658.900000
20
121.200000
0
VERTEX
8
0
10
658.000000
20
121.000000
0
VERTEX
8
0
10
657.000000
20
119.000000
0
SEQEND
0
POLYLINE
8
0
6
CONTINUOUS
66
1
62
7
10
0.0
20
0.0
30
0.000000
0
VERTEX
8
0
10
124.000000
20
115.000000
0
VERTEX
8
0
10
122.000000
20
115.000000
0
SEQEND
0
POLYLINE
8
0
6
CONTINUOUS
66
1
62
7
10
0.0
20
0.0
30
0.000000
0
VERTEX
8
0
10
657.000000
20
115.000000
0
VERTEX
8
0
10
655.000000
20
115.000000
0
SEQEND
0
POLYLINE
8
0
6
CONTINUOUS
66
1
62
7
10
0.0
20
0.0
30
0.000000
0
VERTEX
8
0
10
136.000000
20
112.000000
0
VERTEX
8
0
10
138.000000
20
114.000000
0
VERTEX
8
0
10
138.000000
20
115.000000
0
VERTEX
8
0
10
136.000000
20
116.000000
0
VERTEX
8
0
10
134.000000
20
114.000000
0
VERTEX
8
0
10
136.000000
20
112.000000
0
SEQEND
0
POLYLINE
8
0
6
CONTINUOUS
66
1
62
7
10
0.0
20
0.0
30
0.000000
0
VERTEX
8
0
10
643.000000
20
112.000000
0
VERTEX
8
0
10
645.000000
20
114.000000
0
VERTEX
8
0
10
643.000000
20
116.000000
0
VERTEX
8
0
10
641.000000
20
115.000000
0
VERTEX
8
0
10
641.000000
20
114.000000
0
VERTEX
8
0
10
643.000000
20
112.000000
0
SEQEND
0
POLYLINE
8
0
6
CONTINUOUS
66
1
62
7
10
0.0
20
0.0
30
0.000000
0
VERTEX
8
0
10
657.000000
20
115.000000
0
VERTEX
8
0
10
657.000000
20
114.000000
0
VERTEX
8
0
10
658.846154
20
112.769231
0
VERTEX
8
0
10
661.000000
20
111.000000
0
VERTEX
8
0
10
663.000000
20
111.000000
0
VERTEX
8
0
10
664.000000
20
113.000000
0
VERTEX
8
0
10
662.000000
20
115.000000
0
VERTEX
8
0
10
657.000000
20
115.000000
0
SEQEND
0
POLYLINE
8
0
6
CONTINUOUS
66
1
62
7
10
0.0
20
0.0
30
0.000000
0
VERTEX
8
0
10
122.000000
20
115.000000
0
VERTEX
8
0
10
117.000000
20
115.000000
0
VERTEX
8
0
10
115.000000
20
113.000000
0
VERTEX
8
0
10
115.000000
20
111.000000
0
VERTEX
8
0
10
116.000000
20
110.000000
0
VERTEX
8
0
10
117.846154
20
111.230769
0
VERTEX
8
0
10
122.000000
20
114.000000
0
VERTEX
8
0
10
122.000000
20
115.000000
0
SEQEND
0
POLYLINE
8
0
6
CONTINUOUS
66
1
62
7
10
0.0
20
0.0
30
0.000000
0
VERTEX
8
0
10
158.000000
20
109.000000
0
VERTEX
8
0
10
160.000000
20
111.000000
0
VERTEX
8
0
10
160.000000
20
112.000000
0
VERTEX
8
0
10
158.000000
20
113.000000
0
VERTEX
8
0
10
156.000000
20
111.000000
0
VERTEX
8
0
10
158.000000
20
109.000000
0
SEQEND
0
POLYLINE
8
0
6
CONTINUOUS
66
1
62
7
10
0.0
20
0.0
30
0.000000
0
VERTEX
8
0
10
621.000000
20
109.000000
0
VERTEX
8
0
10
623.000000
20
111.000000
0
VERTEX
8
0
10
621.000000
20
113.000000
0
VERTEX
8
0
10
619.000000
20
112.000000
0
VERTEX
8
0
10
619.000000
20
111.000000
0
VERTEX
8
0
10
621.000000
20
109.000000
0
SEQEND
0
POLYLINE
8
0
6
CONTINUOUS
66
1
62
7
10
0.0
20
0.0
30
0.000000
0
VERTEX
8
0
10
144.000000
20
108.000000
0
VERTEX
8
0
10
143.000000
20
109.000000
0
VERTEX
8
0
10
144.000000
20
110.000000
0
VERTEX
8
0
10
145.000000
20
109.000000
0
SEQEND
0
POLYLINE
8
0
6
CONTINUOUS
66
1
62
7
10
0.0
20
0.0
30
0.000000
0
VERTEX
8
0
10
144.000000
20
108.000000
0
VERTEX
8
0
10
145.000000
20
109.000000
0
SEQEND
0
POLYLINE
8
0
6
CONTINUOUS
66
1
62
7
10
0.0
20
0.0
30
0.000000
0
VERTEX
8
0
10
635.000000
20
108.000000
0
VERTEX
8
0
10
634.000000
20
109.000000
0
SEQEND
0
POLYLINE
8
0
6
CONTINUOUS
66
1
62
7
10
0.0
20
0.0
30
0.000000
0
VERTEX
8
0
10
635.000000
20
108.000000
0
VERTEX
8
0
10
636.000000
20
109.000000
0
VERTEX
8
0
10
635.000000
20
110.000000
0
VERTEX
8
0
10
634.000000
20
109.000000
0
SEQEND
0
POLYLINE
8
0
6
CONTINUOUS
66
1
62
7
10
0.0
20
0.0
30
0.000000
0
VERTEX
8
0
10
225.000000
20
103.000000
0
VERTEX
8
0
10
224.000000
20
104.000000
0
SEQEND
0
POLYLINE
8
0
6
CONTINUOUS
66
1
62
7
10
0.0
20
0.0
30
0.000000
0
VERTEX
8
0
10
554.000000
20
103.000000
0
VERTEX
8
0
10
555.000000
20
104.000000
0
SEQEND
0
POLYLINE
8
0
6
CONTINUOUS
66
1
62
7
10
0.0
20
0.0
30
0.000000
0
VERTEX
8
0
10
196.000000
20
101.000000
0
VERTEX
8
0
10
197.000000
20
102.000000
0
VERTEX
8
0
10
197.000000
20
104.000000
0
VERTEX
8
0
10
194.000000
20
108.000000
0
VERTEX
8
0
10
189.000000
20
109.000000
0
VERTEX
8
0
10
179.100000
20
105.700000
0
VERTEX
8
0
10
176.000000
20
104.000000
0
VERTEX
8
0
10
174.000000
20
106.000000
0
VERTEX
8
0
10
173.000000
20
111.000000
0
VERTEX
8
0
10
171.000000
20
113.000000
0
VERTEX
8
0
10
168.000000
20
113.000000
0
VERTEX
8
0
10
167.000000
20
112.000000
0
VERTEX
8
0
10
167.000000
20
107.000000
0
VERTEX
8
0
10
168.000000
20
106.000000
0
VERTEX
8
0
10
162.100000
20
103.800000
0
VERTEX
8
0
10
157.000000
20
103.000000
0
VERTEX
8
0
10
155.000000
20
105.000000
0
VERTEX
8
0
10
152.000000
20
105.000000
0
VERTEX
8
0
10
151.000000
20
106.000000
0
VERTEX
8
0
10
152.000000
20
107.000000
0
VERTEX
8
0
10
152.000000
20
110.000000
0
VERTEX
8
0
10
150.000000
20
111.000000
0
VERTEX
8
0
10
146.700000
20
108.600000
0
VERTEX
8
0
10
145.000000
20
109.000000
0
SEQEND
0
POLYLINE
8
0
6
CONTINUOUS
66
1
62
7
10
0.0
20
0.0
30
0.000000
0
VERTEX
8
0
10
636.000000
20
101.000000
0
VERTEX
8
0
10
636.000000
20
102.000000
0
SEQEND
0
POLYLINE
8
0
6
CONTINUOUS
66
1
62
7
10
0.0
20
0.0
30
0.000000
0
VERTEX
8
0
10
640.000000
20
101.000000
0
VERTEX
8
0
10
640.000000
20
103.000000
0
SEQEND
0
POLYLINE
8
0
6
CONTINUOUS
66
1
62
7
10
0.0
20
0.0
30
0.000000
0
VERTEX
8
0
10
196.000000
20
100.000000
0
VERTEX
8
0
10
196.000000
20
101.000000
0
SEQEND
0
POLYLINE
8
0
6
CONTINUOUS
66
1
62
7
10
0.0
20
0.0
30
0.000000
0
VERTEX
8
0
10
122.000000
20
96.000000
0
VERTEX
8
0
10
122.000000
20
97.000000
0
VERTEX
8
0
10
122.000000
20
98.000000
0
VERTEX
8
0
10
120.000000
20
100.000000
0
VERTEX
8
0
10
118.000000
20
98.000000
0
VERTEX
8
0
10
120.000000
20
96.000000
0
VERTEX
8
0
10
122.000000
20
96.000000
0
SEQEND
0
POLYLINE
8
0
6
CONTINUOUS
66
1
62
7
10
0.0
20
0.0
30
0.000000
0
VERTEX
8
0
10
129.000000
20
96.000000
0
VERTEX
8
0
10
132.000000
20
101.000000
0
VERTEX
8
0
10
132.000000
20
105.000000
0
VERTEX
8
0
10
130.000000
20
109.000000
0
VERTEX
8
0
10
120.000000
20
108.000000
0
VERTEX
8
0
10
119.000000
20
107.000000
0
VERTEX
8
0
10
119.000000
20
105.000000
0
VERTEX
8
0
10
127.000000
20
98.000000
0
VERTEX
8
0
10
127.000000
20
97.000000
0
VERTEX
8
0
10
129.000000
20
96.000000
0
SEQEND
0
POLYLINE
8
0
6
CONTINUOUS
66
1
62
7
10
0.0
20
0.0
30
0.000000
0
VERTEX
8
0
10
144.000000
20
108.000000
0
VERTEX
8
0
10
145.769231
20
103.846154
0
VERTEX
8
0
10
149.000000
20
100.000000
0
VERTEX
8
0
10
149.900000
20
99.800000
0
VERTEX
8
0
10
156.000000
20
97.000000
0
VERTEX
8
0
10
173.000000
20
99.000000
0
VERTEX
8
0
10
174.900000
20
97.800000
0
VERTEX
8
0
10
178.000000
20
96.000000
0
VERTEX
8
0
10
179.200000
20
97.900000
0
VERTEX
8
0
10
180.000000
20
101.000000
0
VERTEX
8
0
10
179.000000
20
102.000000
0
VERTEX
8
0
10
181.000000
20
104.000000
0
VERTEX
8
0
10
187.000000
20
105.000000
0
VERTEX
8
0
10
191.000000
20
105.000000
0
VERTEX
8
0
10
196.000000
20
101.000000
0
SEQEND
0
POLYLINE
8
0
6
CONTINUOUS
66
1
62
7
10
0.0
20
0.0
30
0.000000
0
VERTEX
8
0
10
634.000000
20
109.000000
0
VERTEX
8
0
10
633.100000
20
108.800000
0
VERTEX
8
0
10
628.000000
20
111.000000
0
VERTEX
8
0
10
627.000000
20
110.000000
0
VERTEX
8
0
10
627.000000
20
106.000000
0
VERTEX
8
0
10
622.000000
20
103.000000
0
VERTEX
8
0
10
612.000000
20
105.000000
0
VERTEX
8
0
10
611.250000
20
105.250000
0
VERTEX
8
0
10
612.000000
20
112.000000
0
VERTEX
8
0
10
611.000000
20
113.000000
0
VERTEX
8
0
10
608.000000
20
113.000000
0
VERTEX
8
0
10
606.000000
20
111.000000
0
VERTEX
8
0
10
605.352941
20
108.911765
0
VERTEX
8
0
10
605.000000
20
106.000000
0
VERTEX
8
0
10
603.000000
20
104.000000
0
VERTEX
8
0
10
601.100000
20
105.200000
0
VERTEX
8
0
10
590.000000
20
109.000000
0
VERTEX
8
0
10
587.000000
20
109.000000
0
VERTEX
8
0
10
585.000000
20
108.000000
0
VERTEX
8
0
10
582.000000
20
104.000000
0
VERTEX
8
0
10
582.000000
20
102.000000
0
VERTEX
8
0
10
583.000000
20
101.000000
0
VERTEX
8
0
10
588.000000
20
105.000000
0
VERTEX
8
0
10
598.000000
20
104.000000
0
VERTEX
8
0
10
600.000000
20
102.000000
0
VERTEX
8
0
10
599.000000
20
101.000000
0
VERTEX
8
0
10
599.000000
20
98.000000
0
VERTEX
8
0
10
601.000000
20
96.000000
0
VERTEX
8
0
10
604.900000
20
98.200000
0
VERTEX
8
0
10
606.000000
20
99.000000
0
VERTEX
8
0
10
618.000000
20
97.000000
0
VERTEX
8
0
10
623.000000
20
97.000000
0
VERTEX
8
0
10
627.900000
20
99.300000
0
VERTEX
8
0
10
630.000000
20
100.000000
0
VERTEX
8
0
10
632.240000
20
102.820000
0
VERTEX
8
0
10
635.000000
20
108.000000
0
SEQEND
0
POLYLINE
8
0
6
CONTINUOUS
66
1
62
7
10
0.0
20
0.0
30
0.000000
0
VERTEX
8
0
10
651.000000
20
96.000000
0
VERTEX
8
0
10
660.000000
20
106.000000
0
VERTEX
8
0
10
658.000000
20
108.000000
0
VERTEX
8
0
10
648.250000
20
108.750000
0
VERTEX
8
0
10
647.000000
20
106.000000
0
VERTEX
8
0
10
647.000000
20
100.000000
0
VERTEX
8
0
10
650.000000
20
96.000000
0
VERTEX
8
0
10
651.000000
20
96.000000
0
SEQEND
0
POLYLINE
8
0
6
CONTINUOUS
66
1
62
7
10
0.0
20
0.0
30
0.000000
0
VERTEX
8
0
10
659.000000
20
96.000000
0
VERTEX
8
0
10
661.000000
20
98.000000
0
VERTEX
8
0
10
659.000000
20
100.000000
0
VERTEX
8
0
10
657.000000
20
98.000000
0
VERTEX
8
0
10
657.250000
20
96.250000
0
VERTEX
8
0
10
659.000000
20
96.000000
0
SEQEND
0
POLYLINE
8
0
6
CONTINUOUS
66
1
62
7
10
0.0
20
0.0
30
0.000000
0
VERTEX
8
0
10
138.000000
20
93.000000
0
VERTEX
8
0
10
138.000000
20
94.000000
0
VERTEX
8
0
10
139.000000
20
100.000000
0
VERTEX
8
0
10
138.000000
20
101.000000
0
VERTEX
8
0
10
134.800000
20
96.100000
0
VERTEX
8
0
10
134.000000
20
95.000000
0
VERTEX
8
0
10
136.000000
20
93.000000
0
VERTEX
8
0
10
138.000000
20
93.000000
0
SEQEND
0
POLYLINE
8
0
6
CONTINUOUS
66
1
62
7
10
0.0
20
0.0
30
0.000000
0
VERTEX
8
0
10
640.000000
20
101.000000
0
VERTEX
8
0
10
640.000000
20
95.000000
0
VERTEX
8
0
10
642.000000
20
93.000000
0
VERTEX
8
0
10
643.000000
20
93.000000
0
VERTEX
8
0
10
645.000000
20
95.000000
0
VERTEX
8
0
10
643.769231
20
96.846154
0
VERTEX
8
0
10
641.000000
20
101.000000
0
VERTEX
8
0
10
640.000000
20
101.000000
0
SEQEND
0
POLYLINE
8
0
6
CONTINUOUS
66
1
62
7
10
0.0
20
0.0
30
0.000000
0
VERTEX
8
0
10
157.000000
20
91.000000
0
VERTEX
8
0
10
156.000000
20
91.000000
0
VERTEX
8
0
10
155.000000
20
92.000000
0
VERTEX
8
0
10
156.000000
20
93.000000
0
VERTEX
8
0
10
157.000000
20
92.000000
0
SEQEND
0
POLYLINE
8
0
6
CONTINUOUS
66
1
62
7
10
0.0
20
0.0
30
0.000000
0
VERTEX
8
0
10
157.000000
20
91.000000
0
VERTEX
8
0
10
157.000000
20
92.000000
0
SEQEND
0
POLYLINE
8
0
6
CONTINUOUS
66
1
62
7
10
0.0
20
0.0
30
0.000000
0
VERTEX
8
0
10
157.000000
20
92.000000
0
VERTEX
8
0
10
162.000000
20
91.000000
0
VERTEX
8
0
10
171.060000
20
91.580000
0
VERTEX
8
0
10
178.100000
20
92.800000
0
VERTEX
8
0
10
182.000000
20
94.000000
0
VERTEX
8
0
10
185.000000
20
97.000000
0
VERTEX
8
0
10
185.250000
20
100.750000
0
VERTEX
8
0
10
189.000000
20
101.000000
0
VERTEX
8
0
10
190.000000
20
100.000000
0
VERTEX
8
0
10
190.000000
20
97.000000
0
VERTEX
8
0
10
192.000000
20
95.000000
0
VERTEX
8
0
10
193.100000
20
95.700000
0
VERTEX
8
0
10
217.923077
20
103.384615
0
VERTEX
8
0
10
224.000000
20
104.000000
0
SEQEND
0
POLYLINE
8
0
6
CONTINUOUS
66
1
62
7
10
0.0
20
0.0
30
0.000000
0
VERTEX
8
0
10
622.000000
20
91.000000
0
VERTEX
8
0
10
621.000000
20
92.000000
0
VERTEX
8
0
10
609.000000
20
91.000000
0
VERTEX
8
0
10
602.060000
20
92.420000
0
VERTEX
8
0
10
595.000000
20
95.000000
0
VERTEX
8
0
10
594.000000
20
96.000000
0
VERTEX
8
0
10
594.000000
20
100.000000
0
VERTEX
8
0
10
593.000000
20
101.000000
0
VERTEX
8
0
10
590.000000
20
101.000000
0
VERTEX
8
0
10
589.000000
20
100.000000
0
VERTEX
8
0
10
589.000000
20
97.000000
0
VERTEX
8
0
10
587.000000
20
95.000000
0
VERTEX
8
0
10
585.900000
20
95.700000
0
VERTEX
8
0
10
561.076923
20
103.384615
0
VERTEX
8
0
10
555.000000
20
104.000000
0
SEQEND
0
POLYLINE
8
0
6
CONTINUOUS
66
1
62
7
10
0.0
20
0.0
30
0.000000
0
VERTEX
8
0
10
622.000000
20
91.000000
0
VERTEX
8
0
10
624.000000
20
93.000000
0
SEQEND
0
POLYLINE
8
0
6
CONTINUOUS
66
1
62
7
10
0.0
20
0.0
30
0.000000
0
VERTEX
8
0
10
146.000000
20
90.000000
0
VERTEX
8
0
10
147.400000
20
92.200000
0
VERTEX
8
0
10
144.800000
20
97.900000
0
VERTEX
8
0
10
143.000000
20
101.000000
0
VERTEX
8
0
10
142.000000
20
100.000000
0
VERTEX
8
0
10
144.000000
20
91.000000
0
VERTEX
8
0
10
146.000000
20
90.000000
0
SEQEND
0
POLYLINE
8
0
6
CONTINUOUS
66
1
62
7
10
0.0
20
0.0
30
0.000000
0
VERTEX
8
0
10
636.000000
20
101.000000
0
VERTEX
8
0
10
631.800000
20
93.100000
0
VERTEX
8
0
10
631.000000
20
92.000000
0
VERTEX
8
0
10
633.000000
20
90.000000
0
VERTEX
8
0
10
635.000000
20
92.000000
0
VERTEX
8
0
10
637.000000
20
98.000000
0
VERTEX
8
0
10
637.000000
20
100.000000
0
VERTEX
8
0
10
636.000000
20
101.000000
0
SEQEND
0
POLYLINE
8
0
6
CONTINUOUS
66
1
62
7
10
0.0
20
0.0
30
0.000000
0
VERTEX
8
0
10
225.000000
20
103.000000
0
VERTEX
8
0
10
229.932432
20
102.594595
0
VERTEX
8
0
10
239.000000
20
100.000000
0
VERTEX
8
0
10
241.000000
20
98.000000
0
VERTEX
8
0
10
240.200000
20
96.900000
0
VERTEX
8
0
10
238.000000
20
92.000000
0
VERTEX
8
0
10
242.000000
20
88.000000
0
VERTEX
8
0
10
244.000000
20
88.000000
0
VERTEX
8
0
10
248.000000
20
94.000000
0
VERTEX
8
0
10
246.000000
20
100.000000
0
VERTEX
8
0
10
240.100000
20
103.200000
0
VERTEX
8
0
10
234.067568
20
104.405405
0
VERTEX
8
0
10
225.000000
20
105.000000
0
VERTEX
8
0
10
224.000000
20
104.000000
0
SEQEND
0
POLYLINE
8
0
6
CONTINUOUS
66
1
62
7
10
0.0
20
0.0
30
0.000000
0
VERTEX
8
0
10
555.000000
20
104.000000
0
VERTEX
8
0
10
554.000000
20
105.000000
0
VERTEX
8
0
10
544.932432
20
104.405405
0
VERTEX
8
0
10
540.067568
20
103.594595
0
VERTEX
8
0
10
533.000000
20
100.000000
0
VERTEX
8
0
10
531.000000
20
94.000000
0
VERTEX
8
0
10
535.000000
20
88.000000
0
VERTEX
8
0
10
537.000000
20
88.000000
0
VERTEX
8
0
10
541.000000
20
92.000000
0
VERTEX
8
0
10
538.800000
20
95.900000
0
VERTEX
8
0
10
538.000000
20
97.000000
0
VERTEX
8
0
10
538.000000
20
98.000000
0
VERTEX
8
0
10
540.000000
20
100.000000
0
VERTEX
8
0
10
549.067568
20
102.594595
0
VERTEX
8
0
10
554.000000
20
103.000000
0
SEQEND
0
POLYLINE
8
0
6
CONTINUOUS
66
1
62
7
10
0.0
20
0.0
30
0.000000
0
VERTEX
8
0
10
172.000000
20
86.000000
0
VERTEX
8
0
10
102.000000
20
86.000000
0
VERTEX
8
0
10
101.000000
20
87.000000
0
VERTEX
8
0
10
101.000000
20
216.000000
0
SEQEND
0
POLYLINE
8
0
6
CONTINUOUS
66
1
62
7
10
0.0
20
0.0
30
0.000000
0
VERTEX
8
0
10
172.000000
20
86.000000
0
VERTEX
8
0
10
172.000000
20
87.000000
0
VERTEX
8
0
10
158.100000
20
90.200000
0
VERTEX
8
0
10
157.000000
20
91.000000
0
SEQEND
0
POLYLINE
8
0
6
CONTINUOUS
66
1
62
7
10
0.0
20
0.0
30
0.000000
0
VERTEX
8
0
10
186.000000
20
86.000000
0
VERTEX
8
0
10
172.000000
20
86.000000
0
SEQEND
0
POLYLINE
8
0
6
CONTINUOUS
66
1
62
7
10
0.0
20
0.0
30
0.000000
0
VERTEX
8
0
10
186.000000
20
86.000000
0
VERTEX
8
0
10
187.000000
20
89.000000
0
VERTEX
8
0
10
189.000000
20
91.000000
0
VERTEX
8
0
10
193.060000
20
91.580000
0
VERTEX
8
0
10
198.940000
20
92.420000
0
VERTEX
8
0
10
206.000000
20
93.000000
0
VERTEX
8
0
10
207.100000
20
92.200000
0
VERTEX
8
0
10
212.000000
20
90.000000
0
VERTEX
8
0
10
213.000000
20
91.000000
0
VERTEX
8
0
10
209.000000
20
97.000000
0
VERTEX
8
0
10
210.000000
20
98.000000
0
VERTEX
8
0
10
215.053846
20
98.569231
0
VERTEX
8
0
10
222.000000
20
99.000000
0
VERTEX
8
0
10
224.200000
20
101.900000
0
VERTEX
8
0
10
225.000000
20
103.000000
0
SEQEND
0
POLYLINE
8
0
6
CONTINUOUS
66
1
62
7
10
0.0
20
0.0
30
0.000000
0
VERTEX
8
0
10
593.000000
20
86.000000
0
VERTEX
8
0
10
186.000000
20
86.000000
0
SEQEND
0
POLYLINE
8
0
6
CONTINUOUS
66
1
62
7
10
0.0
20
0.0
30
0.000000
0
VERTEX
8
0
10
593.000000
20
86.000000
0
VERTEX
8
0
10
592.000000
20
89.000000
0
VERTEX
8
0
10
590.000000
20
91.000000
0
VERTEX
8
0
10
579.000000
20
93.000000
0
VERTEX
8
0
10
573.000000
20
93.000000
0
VERTEX
8
0
10
571.100000
20
91.800000
0
VERTEX
8
0
10
569.900000
20
91.200000
0
VERTEX
8
0
10
567.000000
20
90.000000
0
VERTEX
8
0
10
566.250000
20
90.250000
0
VERTEX
8
0
10
570.000000
20
97.000000
0
VERTEX
8
0
10
569.000000
20
98.000000
0
VERTEX
8
0
10
563.951220
20
98.560976
0
VERTEX
8
0
10
556.000000
20
99.000000
0
VERTEX
8
0
10
554.000000
20
103.000000
0
SEQEND
0
POLYLINE
8
0
6
CONTINUOUS
66
1
62
7
10
0.0
20
0.0
30
0.000000
0
VERTEX
8
0
10
607.000000
20
86.000000
0
VERTEX
8
0
10
593.000000
20
86.000000
0
SEQEND
0
POLYLINE
8
0
6
CONTINUOUS
66
1
62
7
10
0.0
20
0.0
30
0.000000
0
VERTEX
8
0
10
607.000000
20
86.000000
0
VERTEX
8
0
10
607.000000
20
87.000000
0
VERTEX
8
0
10
620.900000
20
90.200000
0
VERTEX
8
0
10
622.000000
20
91.000000
0
SEQEND
0
POLYLINE
8
0
6
CONTINUOUS
66
1
62
7
10
0.0
20
0.0
30
0.000000
0
VERTEX
8
0
10
607.000000
20
86.000000
0
VERTEX
8
0
10
677.000000
20
86.000000
0
VERTEX
8
0
10
678.000000
20
87.000000
0
VERTEX
8
0
10
678.000000
20
216.000000
0
SEQEND
0
POLYLINE
8
0
6
CONTINUOUS
66
1
62
7
10
0.0
20
0.0
30
0.000000
0
VERTEX
8
0
10
720.000000
20
49.000000
0
VERTEX
8
0
10
720.000000
20
738.000000
0
VERTEX
8
0
10
719.000000
20
739.000000
0
VERTEX
8
0
10
60.000000
20
739.000000
0
VERTEX
8
0
10
59.000000
20
738.000000
0
VERTEX
8
0
10
59.250000
20
49.250000
0
VERTEX
8
0
10
719.000000
20
49.000000
0
VERTEX
8
0
10
720.000000
20
49.000000
0
SEQEND
0
POLYLINE
8
0
6
CONTINUOUS
66
1
62
7
10
0.0
20
0.0
30
0.000000
0
VERTEX
8
0
10
758.000000
20
14.000000
0
VERTEX
8
0
10
758.000000
20
773.000000
0
VERTEX
8
0
10
757.000000
20
774.000000
0
VERTEX
8
0
10
22.000000
20
774.000000
0
VERTEX
8
0
10
21.000000
20
773.000000
0
VERTEX
8
0
10
21.250000
20
14.250000
0
VERTEX
8
0
10
757.000000
20
14.000000
0
VERTEX
8
0
10
758.000000
20
14.000000
0
SEQEND
0
ENDSEC
0
EOF
