  0
SECTION
  2
HEADER
  9
$ACADVER
  1
AC1021
  9
$ACADMAINTVER
 70
    25
  9
$DWGCODEPAGE
  3
ANSI_1251
  9
$INSBASE
 10
0.0
 20
0.0
 30
0.0
  9
$EXTMIN
 10
1.000000000000000E+20
 20
1.000000000000000E+20
 30
1.000000000000000E+20
  9
$EXTMAX
 10
-1.000000000000000E+20
 20
-1.000000000000000E+20
 30
-1.000000000000000E+20
  9
$LIMMIN
 10
0.0
 20
0.0
  9
$LIMMAX
 10
420.0
 20
297.0
  9
$ORTHOMODE
 70
     0
  9
$REGENMODE
 70
     1
  9
$FILLMODE
 70
     1
  9
$QTEXTMODE
 70
     0
  9
$MIRRTEXT
 70
     1
  9
$LTSCALE
 40
1.0
  9
$ATTMODE
 70
     1
  9
$TEXTSIZE
 40
2.5
  9
$TRACEWID
 40
1.0
  9
$TEXTSTYLE
  7
Standard
  9
$CLAYER
  8
0
  9
$CELTYPE
  6
ByLayer
  9
$CECOLOR
 62
   256
  9
$CELTSCALE
 40
1.0
  9
$DISPSILH
 70
     0
  9
$DIMSCALE
 40
1.0
  9
$DIMASZ
 40
2.5
  9
$DIMEXO
 40
0.625
  9
$DIMDLI
 40
3.75
  9
$DIMRND
 40
0.0
  9
$DIMDLE
 40
0.0
  9
$DIMEXE
 40
1.25
  9
$DIMTP
 40
0.0
  9
$DIMTM
 40
0.0
  9
$DIMTXT
 40
2.5
  9
$DIMCEN
 40
2.5
  9
$DIMTSZ
 40
0.0
  9
$DIMTOL
 70
     0
  9
$DIMLIM
 70
     0
  9
$DIMTIH
 70
     0
  9
$DIMTOH
 70
     0
  9
$DIMSE1
 70
     0
  9
$DIMSE2
 70
     0
  9
$DIMTAD
 70
     1
  9
$DIMZIN
 70
     8
  9
$DIMBLK
  1

  9
$DIMASO
 70
     1
  9
$DIMSHO
 70
     1
  9
$DIMPOST
  1

  9
$DIMAPOST
  1

  9
$DIMALT
 70
     0
  9
$DIMALTD
 70
     3
  9
$DIMALTF
 40
0.03937007874016
  9
$DIMLFAC
 40
1.0
  9
$DIMTOFL
 70
     1
  9
$DIMTVP
 40
0.0
  9
$DIMTIX
 70
     0
  9
$DIMSOXD
 70
     0
  9
$DIMSAH
 70
     0
  9
$DIMBLK1
  1

  9
$DIMBLK2
  1

  9
$DIMSTYLE
  2
ISO-25
  9
$DIMCLRD
 70
     0
  9
$DIMCLRE
 70
     0
  9
$DIMCLRT
 70
     0
  9
$DIMTFAC
 40
1.0
  9
$DIMGAP
 40
0.625
  9
$DIMJUST
 70
     0
  9
$DIMSD1
 70
     0
  9
$DIMSD2
 70
     0
  9
$DIMTOLJ
 70
     0
  9
$DIMTZIN
 70
     8
  9
$DIMALTZ
 70
     0
  9
$DIMALTTZ
 70
     0
  9
$DIMUPT
 70
     0
  9
$DIMDEC
 70
     2
  9
$DIMTDEC
 70
     2
  9
$DIMALTU
 70
     2
  9
$DIMALTTD
 70
     3
  9
$DIMTXSTY
  7
Standard
  9
$DIMAUNIT
 70
     0
  9
$DIMADEC
 70
     0
  9
$DIMALTRND
 40
0.0
  9
$DIMAZIN
 70
     0
  9
$DIMDSEP
 70
    44
  9
$DIMATFIT
 70
     3
  9
$DIMFRAC
 70
     0
  9
$DIMLDRBLK
  1

  9
$DIMLUNIT
 70
     2
  9
$DIMLWD
 70
    -2
  9
$DIMLWE
 70
    -2
  9
$DIMTMOVE
 70
     0
  9
$DIMFXL
 40
1.0
  9
$DIMFXLON
 70
     0
  9
$DIMJOGANG
 40
0.7853981633974483
  9
$DIMTFILL
 70
     0
  9
$DIMTFILLCLR
 70
     0
  9
$DIMARCSYM
 70
     0
  9
$DIMLTYPE
  6

  9
$DIMLTEX1
  6

  9
$DIMLTEX2
  6

  9
$LUNITS
 70
     2
  9
$LUPREC
 70
     4
  9
$SKETCHINC
 40
1.0
  9
$FILLETRAD
 40
10.0
  9
$AUNITS
 70
     0
  9
$AUPREC
 70
     0
  9
$MENU
  1
.
  9
$ELEVATION
 40
0.0
  9
$PELEVATION
 40
0.0
  9
$THICKNESS
 40
0.0
  9
$LIMCHECK
 70
     0
  9
$CHAMFERA
 40
10.0
  9
$CHAMFERB
 40
10.0
  9
$CHAMFERC
 40
20.0
  9
$CHAMFERD
 40
0.0
  9
$SKPOLY
 70
     0
  9
$TDCREATE
 40
2458162.543131609
  9
$TDUCREATE
 40
2458162.418131609
  9
$TDUPDATE
 40
2458162.54313162
  9
$TDUUPDATE
 40
2458162.41813162
  9
$TDINDWG
 40
0.0000000116
  9
$TDUSRTIMER
 40
0.0000000116
  9
$USRTIMER
 70
     1
  9
$ANGBASE
 50
0.0
  9
$ANGDIR
 70
     0
  9
$PDMODE
 70
     0
  9
$PDSIZE
 40
0.0
  9
$PLINEWID
 40
0.0
  9
$SPLFRAME
 70
     0
  9
$SPLINETYPE
 70
     6
  9
$SPLINESEGS
 70
     8
  9
$HANDSEED
  5
1AD
  9
$SURFTAB1
 70
     6
  9
$SURFTAB2
 70
     6
  9
$SURFTYPE
 70
     6
  9
$SURFU
 70
     6
  9
$SURFV
 70
     6
  9
$UCSBASE
  2

  9
$UCSNAME
  2

  9
$UCSORG
 10
0.0
 20
0.0
 30
0.0
  9
$UCSXDIR
 10
1.0
 20
0.0
 30
0.0
  9
$UCSYDIR
 10
0.0
 20
1.0
 30
0.0
  9
$UCSORTHOREF
  2

  9
$UCSORTHOVIEW
 70
     0
  9
$UCSORGTOP
 10
0.0
 20
0.0
 30
0.0
  9
$UCSORGBOTTOM
 10
0.0
 20
0.0
 30
0.0
  9
$UCSORGLEFT
 10
0.0
 20
0.0
 30
0.0
  9
$UCSORGRIGHT
 10
0.0
 20
0.0
 30
0.0
  9
$UCSORGFRONT
 10
0.0
 20
0.0
 30
0.0
  9
$UCSORGBACK
 10
0.0
 20
0.0
 30
0.0
  9
$PUCSBASE
  2

  9
$PUCSNAME
  2

  9
$PUCSORG
 10
0.0
 20
0.0
 30
0.0
  9
$PUCSXDIR
 10
1.0
 20
0.0
 30
0.0
  9
$PUCSYDIR
 10
0.0
 20
1.0
 30
0.0
  9
$PUCSORTHOREF
  2

  9
$PUCSORTHOVIEW
 70
     0
  9
$PUCSORGTOP
 10
0.0
 20
0.0
 30
0.0
  9
$PUCSORGBOTTOM
 10
0.0
 20
0.0
 30
0.0
  9
$PUCSORGLEFT
 10
0.0
 20
0.0
 30
0.0
  9
$PUCSORGRIGHT
 10
0.0
 20
0.0
 30
0.0
  9
$PUCSORGFRONT
 10
0.0
 20
0.0
 30
0.0
  9
$PUCSORGBACK
 10
0.0
 20
0.0
 30
0.0
  9
$USERI1
 70
     0
  9
$USERI2
 70
     0
  9
$USERI3
 70
     0
  9
$USERI4
 70
     0
  9
$USERI5
 70
     0
  9
$USERR1
 40
0.0
  9
$USERR2
 40
0.0
  9
$USERR3
 40
0.0
  9
$USERR4
 40
0.0
  9
$USERR5
 40
0.0
  9
$WORLDVIEW
 70
     1
  9
$SHADEDGE
 70
     3
  9
$SHADEDIF
 70
    70
  9
$TILEMODE
 70
     1
  9
$MAXACTVP
 70
    64
  9
$PINSBASE
 10
0.0
 20
0.0
 30
0.0
  9
$PLIMCHECK
 70
     0
  9
$PEXTMIN
 10
1.000000000000000E+20
 20
1.000000000000000E+20
 30
1.000000000000000E+20
  9
$PEXTMAX
 10
-1.000000000000000E+20
 20
-1.000000000000000E+20
 30
-1.000000000000000E+20
  9
$PLIMMIN
 10
0.0
 20
0.0
  9
$PLIMMAX
 10
420.0
 20
297.0
  9
$UNITMODE
 70
     0
  9
$VISRETAIN
 70
     1
  9
$PLINEGEN
 70
     0
  9
$PSLTSCALE
 70
     1
  9
$TREEDEPTH
 70
  3020
  9
$CMLSTYLE
  2
Standard
  9
$CMLJUST
 70
     0
  9
$CMLSCALE
 40
20.0
  9
$PROXYGRAPHICS
 70
     1
  9
$MEASUREMENT
 70
     1
  9
$CELWEIGHT
370
    -1
  9
$ENDCAPS
280
     0
  9
$JOINSTYLE
280
     0
  9
$LWDISPLAY
290
     0
  9
$INSUNITS
 70
     4
  9
$HYPERLINKBASE
  1

  9
$STYLESHEET
  1

  9
$XEDIT
290
     1
  9
$CEPSNTYPE
380
     0
  9
$PSTYLEMODE
290
     1
  9
$FINGERPRINTGUID
  2
{636F9053-E7CA-40DC-B137-A48F1A0A8908}
  9
$VERSIONGUID
  2
{FAEB1C32-E019-11D5-929B-00C0DF256EC4}
  9
$EXTNAMES
290
     1
  9
$PSVPSCALE
 40
0.0
  9
$OLESTARTUP
290
     0
  9
$SORTENTS
280
   127
  9
$INDEXCTL
280
     0
  9
$HIDETEXT
280
     1
  9
$XCLIPFRAME
290
     0
  9
$HALOGAP
280
     0
  9
$OBSCOLOR
 70
   257
  9
$OBSLTYPE
280
     0
  9
$INTERSECTIONDISPLAY
280
     0
  9
$INTERSECTIONCOLOR
 70
   257
  9
$DIMASSOC
280
     2
  9
$PROJECTNAME
  1

  9
$CAMERADISPLAY
290
     0
  9
$LENSLENGTH
 40
50.0
  9
$CAMERAHEIGHT
 40
0.0
  9
$STEPSPERSEC
 40
2.0
  9
$STEPSIZE
 40
6.0
  9
$3DDWFPREC
 40
2.0
  9
$PSOLWIDTH
 40
5.0
  9
$PSOLHEIGHT
 40
80.0
  9
$LOFTANG1
 40
1.570796326794897
  9
$LOFTANG2
 40
1.570796326794897
  9
$LOFTMAG1
 40
0.0
  9
$LOFTMAG2
 40
0.0
  9
$LOFTPARAM
 70
     7
  9
$LOFTNORMALS
280
     1
  9
$LATITUDE
 40
37.795
  9
$LONGITUDE
 40
-122.394
  9
$NORTHDIRECTION
 40
0.0
  9
$TIMEZONE
 70
 -8000
  9
$LIGHTGLYPHDISPLAY
280
     1
  9
$TILEMODELIGHTSYNCH
280
     1
  9
$SOLIDHIST
280
     1
  9
$SHOWHIST
280
     1
  9
$DWFFRAME
280
     2
  9
$DGNFRAME
280
     2
  9
$REALWORLDSCALE
290
     1
  9
$INTERFERECOLOR
 62
   256
  9
$CSHADOW
280
     0
  9
$SHADOWPLANELOCATION
 40
0.0
  0
ENDSEC
  0
SECTION
  2
CLASSES
  0
CLASS
  1
ACDBDICTIONARYWDFLT
  2
AcDbDictionaryWithDefault
  3
ObjectDBX Classes
 90
        0
 91
        4
280
     0
281
     0
  0
CLASS
  1
VISUALSTYLE
  2
AcDbVisualStyle
  3
ObjectDBX Classes
 90
     4095
 91
        4
280
     0
281
     0
  0
ENDSEC
  0
SECTION
  2
TABLES
  0
TABLE
  2
VPORT
  5
8
330
0
100
AcDbSymbolTable
 70
     1
  0
VPORT
  5
29
330
8
100
AcDbSymbolTableRecord
100
AcDbViewportTableRecord
  2
*Active
 70
     0
 10
0.0
 20
0.0
 11
1.0
 21
1.0
 12
-482.3579743495315
 22
291.8415588034544
 13
0.0
 23
0.0
 14
10.0
 24
10.0
 15
10.0
 25
10.0
 16
0.0
 26
0.0
 36
1.0
 17
0.0
 27
0.0
 37
0.0
 40
739.7268758834338
 41
0.5274359928024039
 42
50.0
 43
0.0
 44
0.0
 50
0.0
 51
0.0
 71
     0
 72
   100
 73
     1
 74
     3
 75
     0
 76
     0
 77
     0
 78
     0
281
     0
 65
     1
110
0.0
120
0.0
130
0.0
111
1.0
121
0.0
131
0.0
112
0.0
122
1.0
132
0.0
 79
     0
146
0.0
 60
     3
 61
     5
292
     1
282
     1
141
0.0
142
0.0
 63
   250
  0
ENDTAB
  0
TABLE
  2
LTYPE
  5
5
330
0
100
AcDbSymbolTable
 70
     3
  0
LTYPE
  5
14
330
5
100
AcDbSymbolTableRecord
100
AcDbLinetypeTableRecord
  2
ByBlock
 70
     0
  3

 72
    65
 73
     0
 40
0.0
  0
LTYPE
  5
15
330
5
100
AcDbSymbolTableRecord
100
AcDbLinetypeTableRecord
  2
ByLayer
 70
     0
  3

 72
    65
 73
     0
 40
0.0
  0
LTYPE
  5
16
330
5
100
AcDbSymbolTableRecord
100
AcDbLinetypeTableRecord
  2
Continuous
 70
     0
  3
Solid line
 72
    65
 73
     0
 40
0.0
  0
LTYPE
  5
3E
330
5
100
AcDbSymbolTableRecord
100
AcDbLinetypeTableRecord
  2
K5LT_THIN
 70
     0
  3

 72
    65
 73
     0
 40
0.0
  0
LTYPE
  5
A2
330
5
100
AcDbSymbolTableRecord
100
AcDbLinetypeTableRecord
  2
K5LT_BASIC
 70
     0
  3

 72
    65
 73
     0
 40
0.0
  0
ENDTAB
  0
TABLE
  2
LAYER
  5
2
330
0
100
AcDbSymbolTable
 70
     2
  0
LAYER
  5
10
330
2
100
AcDbSymbolTableRecord
100
AcDbLayerTableRecord
  2
0
 70
     0
 62
     7
  6
Continuous
370
    -3
390
F
347
0
  0
LAYER
  5
3C
330
2
100
AcDbSymbolTableRecord
100
AcDbLayerTableRecord
  2
Системный слой
 70
     0
 62
     7
  6
Continuous
370
    -3
390
F
347
0
  0
ENDTAB
  0
TABLE
  2
STYLE
  5
3
330
0
100
AcDbSymbolTable
 70
     1
  0
STYLE
  5
11
330
3
100
AcDbSymbolTableRecord
100
AcDbTextStyleTableRecord
  2
Standard
 70
     0
 40
0.0
 41
1.0
 50
0.0
 71
     0
 42
2.5
  3
txt
  4

  0
ENDTAB
  0
TABLE
  2
VIEW
  5
6
330
0
100
AcDbSymbolTable
 70
     0
  0
ENDTAB
  0
TABLE
  2
UCS
  5
7
330
0
100
AcDbSymbolTable
 70
     0
  0
ENDTAB
  0
TABLE
  2
APPID
  5
9
330
0
100
AcDbSymbolTable
 70
     2
  0
APPID
  5
12
330
9
100
AcDbSymbolTableRecord
100
AcDbRegAppTableRecord
  2
ACAD
 70
     0
  0
APPID
  5
3B
330
9
100
AcDbSymbolTableRecord
100
AcDbRegAppTableRecord
  2
KOMPAS
 70
     0
  0
ENDTAB
  0
TABLE
  2
DIMSTYLE
  5
A
330
0
100
AcDbSymbolTable
 70
     1
100
AcDbDimStyleTable
  0
DIMSTYLE
105
27
330
A
100
AcDbSymbolTableRecord
100
AcDbDimStyleTableRecord
  2
ISO-25
 70
     0
 41
2.5
 42
0.625
 43
3.75
 44
1.25
 73
     0
 74
     0
 77
     1
 78
     8
140
2.5
141
2.5
143
0.03937007874016
147
0.625
171
     3
172
     1
271
     2
272
     2
274
     3
278
    44
283
     0
284
     8
340
11
  0
ENDTAB
  0
TABLE
  2
BLOCK_RECORD
  5
1
330
0
100
AcDbSymbolTable
 70
    23
  0
BLOCK_RECORD
  5
1F
330
1
100
AcDbSymbolTableRecord
100
AcDbBlockTableRecord
  2
*Model_Space
340
22
 70
     0
280
     1
281
     0
  0
BLOCK_RECORD
  5
1B
330
1
100
AcDbSymbolTableRecord
100
AcDbBlockTableRecord
  2
*Paper_Space
340
1E
 70
     0
280
     1
281
     0
  0
BLOCK_RECORD
  5
23
330
1
100
AcDbSymbolTableRecord
100
AcDbBlockTableRecord
  2
*Paper_Space0
340
26
 70
     0
280
     1
281
     0
  0
BLOCK_RECORD
  5
3D
330
1
100
AcDbSymbolTableRecord
100
AcDbBlockTableRecord
  2
KDIMARROW_00
340
0
 70
     0
280
     1
281
     0
  0
BLOCK_RECORD
  5
42
330
1
100
AcDbSymbolTableRecord
100
AcDbBlockTableRecord
  2
KDIMARROW_01
340
0
 70
     0
280
     1
281
     0
  0
BLOCK_RECORD
  5
4B
330
1
100
AcDbSymbolTableRecord
100
AcDbBlockTableRecord
  2
KDIMARROW_02
340
0
 70
     0
280
     1
281
     0
  0
BLOCK_RECORD
  5
55
330
1
100
AcDbSymbolTableRecord
100
AcDbBlockTableRecord
  2
KDIMARROW_03
340
0
 70
     0
280
     1
281
     0
  0
BLOCK_RECORD
  5
5B
330
1
100
AcDbSymbolTableRecord
100
AcDbBlockTableRecord
  2
KDIMARROW_04
340
0
 70
     0
280
     1
281
     0
  0
BLOCK_RECORD
  5
61
330
1
100
AcDbSymbolTableRecord
100
AcDbBlockTableRecord
  2
KDIMARROW_05
340
0
 70
     0
280
     1
281
     0
  0
BLOCK_RECORD
  5
6A
330
1
100
AcDbSymbolTableRecord
100
AcDbBlockTableRecord
  2
KDIMARROW_06
340
0
 70
     0
280
     1
281
     0
  0
BLOCK_RECORD
  5
74
330
1
100
AcDbSymbolTableRecord
100
AcDbBlockTableRecord
  2
KDIMARROW_07
340
0
 70
     0
280
     1
281
     0
  0
BLOCK_RECORD
  5
7A
330
1
100
AcDbSymbolTableRecord
100
AcDbBlockTableRecord
  2
KDIMARROW_08
340
0
 70
     0
280
     1
281
     0
  0
BLOCK_RECORD
  5
81
330
1
100
AcDbSymbolTableRecord
100
AcDbBlockTableRecord
  2
KDIMARROW_09
340
0
 70
     0
280
     1
281
     0
  0
BLOCK_RECORD
  5
87
330
1
100
AcDbSymbolTableRecord
100
AcDbBlockTableRecord
  2
KDIMARROW_10
340
0
 70
     0
280
     1
281
     0
  0
BLOCK_RECORD
  5
8E
330
1
100
AcDbSymbolTableRecord
100
AcDbBlockTableRecord
  2
KDIMARROW_11
340
0
 70
     0
280
     1
281
     0
  0
BLOCK_RECORD
  5
94
330
1
100
AcDbSymbolTableRecord
100
AcDbBlockTableRecord
  2
KDIMARROW_12
340
0
 70
     0
280
     1
281
     0
  0
BLOCK_RECORD
  5
9A
330
1
100
AcDbSymbolTableRecord
100
AcDbBlockTableRecord
  2
KDIMARROW_13
340
0
 70
     0
280
     1
281
     0
  0
BLOCK_RECORD
  5
D5
330
1
100
AcDbSymbolTableRecord
100
AcDbBlockTableRecord
  2
U0
340
0
102
{BLKREFS
331
D6
102
}
 70
     0
280
     1
281
     0
  0
BLOCK_RECORD
  5
EA
330
1
100
AcDbSymbolTableRecord
100
AcDbBlockTableRecord
  2
U1
340
0
102
{BLKREFS
331
EB
102
}
 70
     0
280
     1
281
     0
  0
BLOCK_RECORD
  5
F2
330
1
100
AcDbSymbolTableRecord
100
AcDbBlockTableRecord
  2
U2
340
0
102
{BLKREFS
331
F3
102
}
 70
     0
280
     1
281
     0
  0
BLOCK_RECORD
  5
FA
330
1
100
AcDbSymbolTableRecord
100
AcDbBlockTableRecord
  2
U3
340
0
102
{BLKREFS
331
FB
102
}
 70
     0
280
     1
281
     0
  0
BLOCK_RECORD
  5
163
330
1
100
AcDbSymbolTableRecord
100
AcDbBlockTableRecord
  2
U4
340
0
102
{BLKREFS
331
164
102
}
 70
     0
280
     1
281
     0
  0
BLOCK_RECORD
  5
179
330
1
100
AcDbSymbolTableRecord
100
AcDbBlockTableRecord
  2
U5
340
0
102
{BLKREFS
331
17A
102
}
 70
     0
280
     1
281
     0
  0
BLOCK_RECORD
  5
182
330
1
100
AcDbSymbolTableRecord
100
AcDbBlockTableRecord
  2
U6
340
0
102
{BLKREFS
331
183
102
}
 70
     0
280
     1
281
     0
  0
BLOCK_RECORD
  5
18A
330
1
100
AcDbSymbolTableRecord
100
AcDbBlockTableRecord
  2
U7
340
0
102
{BLKREFS
331
18B
102
}
 70
     0
280
     1
281
     0
  0
ENDTAB
  0
ENDSEC
  0
SECTION
  2
BLOCKS
  0
BLOCK
  5
20
330
1F
100
AcDbEntity
  8
0
100
AcDbBlockBegin
  2
*Model_Space
 70
     0
 10
0.0
 20
0.0
 30
0.0
  3
*Model_Space
  1

  0
ENDBLK
  5
21
330
1F
100
AcDbEntity
  8
0
100
AcDbBlockEnd
  0
BLOCK
  5
1C
330
1B
100
AcDbEntity
 67
     1
  8
0
100
AcDbBlockBegin
  2
*Paper_Space
 70
     0
 10
0.0
 20
0.0
 30
0.0
  3
*Paper_Space
  1

  0
ENDBLK
  5
1D
330
1B
100
AcDbEntity
 67
     1
  8
0
100
AcDbBlockEnd
  0
BLOCK
  5
24
330
23
100
AcDbEntity
  8
0
100
AcDbBlockBegin
  2
*Paper_Space0
 70
     0
 10
0.0
 20
0.0
 30
0.0
  3
*Paper_Space0
  1

  0
ENDBLK
  5
25
330
23
100
AcDbEntity
  8
0
100
AcDbBlockEnd
  0
BLOCK
  5
40
330
3D
100
AcDbEntity
  8
0
100
AcDbBlockBegin
  2
KDIMARROW_00
 70
     0
 10
0.0
 20
0.0
 30
0.0
  3
KDIMARROW_00
  1

  0
LINE
  5
3F
330
3D
100
AcDbEntity
  8
0
  6
K5LT_THIN
 62
     0
370
    18
100
AcDbLine
 10
0.0
 20
0.0
 30
0.0
 11
-1.0
 21
0.0
 31
0.0
  0
ENDBLK
  5
41
330
3D
100
AcDbEntity
  8
0
100
AcDbBlockEnd
  0
BLOCK
  5
49
330
42
100
AcDbEntity
  8
0
100
AcDbBlockBegin
  2
KDIMARROW_01
 70
     0
 10
0.0
 20
0.0
 30
0.0
  3
KDIMARROW_01
  1

  0
LINE
  5
43
330
42
100
AcDbEntity
  8
0
  6
K5LT_THIN
 62
     0
370
    18
100
AcDbLine
 10
0.0
 20
0.0
 30
0.0
 11
-5.000000000000002
 21
-0.6582624912261958
 31
0.0
  0
LINE
  5
44
330
42
100
AcDbEntity
  8
0
  6
K5LT_THIN
 62
     0
370
    18
100
AcDbLine
 10
-5.0
 20
-0.6582624912261956
 30
0.0
 11
-4.5
 21
0.0000000000000004
 31
0.0
  0
LINE
  5
45
330
42
100
AcDbEntity
  8
0
  6
K5LT_THIN
 62
     0
370
    18
100
AcDbLine
 10
-4.5
 20
0.0000000000000006
 30
0.0
 11
-5.0
 21
0.658262491226197
 31
0.0
  0
LINE
  5
46
330
42
100
AcDbEntity
  8
0
  6
K5LT_THIN
 62
     0
370
    18
100
AcDbLine
 10
-5.0
 20
0.658262491226197
 30
0.0
 11
0.0000000000000018
 21
0.0
 31
0.0
  0
HATCH
  5
47
330
42
100
AcDbEntity
  8
0
 62
     0
100
AcDbHatch
 10
0.0
 20
0.0
 30
0.0
210
0.0
220
0.0
230
1.0
  2
SOLID
 70
     1
 71
     0
 91
        1
 92
        1
 93
        4
 72
     1
 10
0.0000000000000018
 20
0.0
 11
-5.0
 21
0.658262491226197
 72
     1
 10
-5.0
 20
0.658262491226197
 11
-4.5
 21
0.0000000000000006
 72
     1
 10
-4.5
 20
0.0000000000000004
 11
-5.0
 21
-0.6582624912261956
 72
     1
 10
-5.000000000000002
 20
-0.6582624912261958
 11
0.0
 21
0.0
 97
        0
 75
     0
 76
     1
 98
        0
  0
LINE
  5
48
330
42
100
AcDbEntity
  8
0
  6
K5LT_THIN
 62
     0
370
    18
100
AcDbLine
 10
0.0
 20
0.0
 30
0.0
 11
-1.0
 21
0.0
 31
0.0
  0
ENDBLK
  5
4A
330
42
100
AcDbEntity
  8
0
100
AcDbBlockEnd
  0
BLOCK
  5
53
330
4B
100
AcDbEntity
  8
0
100
AcDbBlockBegin
  2
KDIMARROW_02
 70
     0
 10
0.0
 20
0.0
 30
0.0
  3
KDIMARROW_02
  1

  0
LINE
  5
4C
330
4B
100
AcDbEntity
  8
0
  6
K5LT_THIN
 62
     0
370
    18
100
AcDbLine
 10
0.0
 20
0.0
 30
0.0
 11
5.000000000000002
 21
-0.658262491226197
 31
0.0
  0
LINE
  5
4D
330
4B
100
AcDbEntity
  8
0
  6
K5LT_THIN
 62
     0
370
    18
100
AcDbLine
 10
5.0
 20
-0.658262491226197
 30
0.0
 11
4.5
 21
-0.0000000000000006
 31
0.0
  0
LINE
  5
4E
330
4B
100
AcDbEntity
  8
0
  6
K5LT_THIN
 62
     0
370
    18
100
AcDbLine
 10
4.5
 20
-0.0000000000000006
 30
0.0
 11
5.0
 21
0.6582624912261955
 31
0.0
  0
LINE
  5
4F
330
4B
100
AcDbEntity
  8
0
  6
K5LT_THIN
 62
     0
370
    18
100
AcDbLine
 10
5.0
 20
0.6582624912261956
 30
0.0
 11
-0.0000000000000018
 21
-0.0000000000000002
 31
0.0
  0
LINE
  5
50
330
4B
100
AcDbEntity
  8
0
  6
K5LT_THIN
 62
     0
370
    18
100
AcDbLine
 10
0.0
 20
0.0
 30
0.0
 11
7.0
 21
-0.0000000000000009
 31
0.0
  0
HATCH
  5
51
330
4B
100
AcDbEntity
  8
0
 62
     0
100
AcDbHatch
 10
0.0
 20
0.0
 30
0.0
210
0.0
220
0.0
230
1.0
  2
SOLID
 70
     1
 71
     0
 91
        1
 92
        1
 93
        4
 72
     1
 10
4.5
 20
-0.0000000000000006
 11
5.0
 21
0.6582624912261955
 72
     1
 10
5.0
 20
0.6582624912261956
 11
-0.0000000000000018
 21
-0.0000000000000002
 72
     1
 10
0.0
 20
0.0
 11
5.000000000000002
 21
-0.658262491226197
 72
     1
 10
5.0
 20
-0.658262491226197
 11
4.5
 21
-0.0000000000000006
 97
        0
 75
     0
 76
     1
 98
        0
  0
LINE
  5
52
330
4B
100
AcDbEntity
  8
0
  6
K5LT_THIN
 62
     0
370
    18
100
AcDbLine
 10
0.0
 20
0.0
 30
0.0
 11
-1.0
 21
0.0
 31
0.0
  0
ENDBLK
  5
54
330
4B
100
AcDbEntity
  8
0
100
AcDbBlockEnd
  0
BLOCK
  5
59
330
55
100
AcDbEntity
  8
0
100
AcDbBlockBegin
  2
KDIMARROW_03
 70
     0
 10
0.0
 20
0.0
 30
0.0
  3
KDIMARROW_03
  1

  0
LINE
  5
56
330
55
100
AcDbEntity
  8
0
  6
K5LT_THIN
 62
     0
370
    18
100
AcDbLine
 10
-1.060500025749207
 20
-1.060500025749206
 30
0.0
 11
1.060500025749206
 21
1.060500025749206
 31
0.0
  0
LINE
  5
57
330
55
100
AcDbEntity
  8
0
  6
K5LT_THIN
 62
     0
370
    18
100
AcDbLine
 10
0.0
 20
0.0
 30
0.0
 11
2.0
 21
-0.0000000000000002
 31
0.0
  0
LINE
  5
58
330
55
100
AcDbEntity
  8
0
  6
K5LT_THIN
 62
     0
370
    18
100
AcDbLine
 10
0.0
 20
0.0
 30
0.0
 11
-1.0
 21
0.0
 31
0.0
  0
ENDBLK
  5
5A
330
55
100
AcDbEntity
  8
0
100
AcDbBlockEnd
  0
BLOCK
  5
5F
330
5B
100
AcDbEntity
  8
0
100
AcDbBlockBegin
  2
KDIMARROW_04
 70
     0
 10
0.0
 20
0.0
 30
0.0
  3
KDIMARROW_04
  1

  0
LWPOLYLINE
  5
5C
330
5B
100
AcDbEntity
  8
0
  6
K5LT_THIN
 62
     7
100
AcDbPolyline
 90
       10
 70
     0
 43
0.18
 10
-0.3
 20
0.0
 10
0.0
 20
-0.3
 10
0.3
 20
0.0
 10
0.0
 20
0.3
 10
-0.3
 20
0.0
 10
-0.6
 20
0.0000000000000001
 10
-0.0000000000000001
 20
-0.6
 10
0.6
 20
-0.0000000000000001
 10
0.0000000000000001
 20
0.6
 10
-0.6
 20
0.0000000000000001
  0
LWPOLYLINE
  5
5D
330
5B
100
AcDbEntity
  8
0
  6
K5LT_THIN
 62
     7
100
AcDbPolyline
 90
       10
 70
     0
 43
0.18
 10
-0.3
 20
0.0
 10
0.0
 20
-0.3
 10
0.3
 20
0.0
 10
0.0
 20
0.3
 10
-0.3
 20
0.0
 10
-0.6
 20
0.0000000000000001
 10
-0.0000000000000001
 20
-0.6
 10
0.6
 20
-0.0000000000000001
 10
0.0000000000000001
 20
0.6
 10
-0.6
 20
0.0000000000000001
  0
LINE
  5
5E
330
5B
100
AcDbEntity
  8
0
  6
K5LT_THIN
 62
     0
370
    18
100
AcDbLine
 10
0.0
 20
0.0
 30
0.0
 11
-1.0
 21
0.0
 31
0.0
  0
ENDBLK
  5
60
330
5B
100
AcDbEntity
  8
0
100
AcDbBlockEnd
  0
BLOCK
  5
68
330
61
100
AcDbEntity
  8
0
100
AcDbBlockBegin
  2
KDIMARROW_05
 70
     0
 10
0.0
 20
0.0
 30
0.0
  3
KDIMARROW_05
  1

  0
LINE
  5
62
330
61
100
AcDbEntity
  8
0
  6
K5LT_THIN
 62
     0
370
    18
100
AcDbLine
 10
0.0
 20
0.0
 30
0.0
 11
-5.000000000000002
 21
-0.6582624912261958
 31
0.0
  0
LINE
  5
63
330
61
100
AcDbEntity
  8
0
  6
K5LT_THIN
 62
     0
370
    18
100
AcDbLine
 10
-5.0
 20
-0.6582624912261956
 30
0.0
 11
-5.0
 21
0.0000000000000003
 31
0.0
  0
LINE
  5
64
330
61
100
AcDbEntity
  8
0
  6
K5LT_THIN
 62
     0
370
    18
100
AcDbLine
 10
-5.0
 20
0.0000000000000006
 30
0.0
 11
-5.0
 21
0.6582624912261966
 31
0.0
  0
LINE
  5
65
330
61
100
AcDbEntity
  8
0
  6
K5LT_THIN
 62
     0
370
    18
100
AcDbLine
 10
-5.0
 20
0.658262491226197
 30
0.0
 11
0.0000000000000018
 21
0.0
 31
0.0
  0
HATCH
  5
66
330
61
100
AcDbEntity
  8
0
 62
     0
100
AcDbHatch
 10
0.0
 20
0.0
 30
0.0
210
0.0
220
0.0
230
1.0
  2
SOLID
 70
     1
 71
     0
 91
        1
 92
        1
 93
        4
 72
     1
 10
0.0000000000000018
 20
0.0
 11
-5.0
 21
0.658262491226197
 72
     1
 10
-5.0
 20
0.6582624912261966
 11
-5.0
 21
0.0000000000000007
 72
     1
 10
-5.0
 20
0.0000000000000003
 11
-5.0
 21
-0.6582624912261956
 72
     1
 10
-5.000000000000002
 20
-0.6582624912261958
 11
0.0
 21
0.0
 97
        0
 75
     0
 76
     1
 98
        0
  0
LINE
  5
67
330
61
100
AcDbEntity
  8
0
  6
K5LT_THIN
 62
     0
370
    18
100
AcDbLine
 10
0.0
 20
0.0
 30
0.0
 11
-1.0
 21
0.0
 31
0.0
  0
ENDBLK
  5
69
330
61
100
AcDbEntity
  8
0
100
AcDbBlockEnd
  0
BLOCK
  5
72
330
6A
100
AcDbEntity
  8
0
100
AcDbBlockBegin
  2
KDIMARROW_06
 70
     0
 10
0.0
 20
0.0
 30
0.0
  3
KDIMARROW_06
  1

  0
LINE
  5
6B
330
6A
100
AcDbEntity
  8
0
  6
K5LT_THIN
 62
     0
370
    18
100
AcDbLine
 10
0.0
 20
0.0
 30
0.0
 11
5.000000000000002
 21
-0.658262491226197
 31
0.0
  0
LINE
  5
6C
330
6A
100
AcDbEntity
  8
0
  6
K5LT_THIN
 62
     0
370
    18
100
AcDbLine
 10
5.0
 20
-0.658262491226197
 30
0.0
 11
5.0
 21
-0.000000000000001
 31
0.0
  0
LINE
  5
6D
330
6A
100
AcDbEntity
  8
0
  6
K5LT_THIN
 62
     0
370
    18
100
AcDbLine
 10
5.0
 20
-0.0000000000000006
 30
0.0
 11
5.0
 21
0.6582624912261953
 31
0.0
  0
LINE
  5
6E
330
6A
100
AcDbEntity
  8
0
  6
K5LT_THIN
 62
     0
370
    18
100
AcDbLine
 10
5.0
 20
0.6582624912261956
 30
0.0
 11
-0.0000000000000018
 21
-0.0000000000000002
 31
0.0
  0
LINE
  5
6F
330
6A
100
AcDbEntity
  8
0
  6
K5LT_THIN
 62
     0
370
    18
100
AcDbLine
 10
0.0
 20
0.0
 30
0.0
 11
7.0
 21
-0.0000000000000009
 31
0.0
  0
HATCH
  5
70
330
6A
100
AcDbEntity
  8
0
 62
     0
100
AcDbHatch
 10
0.0
 20
0.0
 30
0.0
210
0.0
220
0.0
230
1.0
  2
SOLID
 70
     1
 71
     0
 91
        1
 92
        1
 93
        4
 72
     1
 10
5.0
 20
-0.0000000000000006
 11
5.0
 21
0.6582624912261953
 72
     1
 10
5.0
 20
0.6582624912261956
 11
-0.0000000000000018
 21
-0.0000000000000002
 72
     1
 10
0.0
 20
0.0
 11
5.000000000000002
 21
-0.658262491226197
 72
     1
 10
5.0
 20
-0.658262491226197
 11
5.0
 21
-0.000000000000001
 97
        0
 75
     0
 76
     1
 98
        0
  0
LINE
  5
71
330
6A
100
AcDbEntity
  8
0
  6
K5LT_THIN
 62
     0
370
    18
100
AcDbLine
 10
0.0
 20
0.0
 30
0.0
 11
-1.0
 21
0.0
 31
0.0
  0
ENDBLK
  5
73
330
6A
100
AcDbEntity
  8
0
100
AcDbBlockEnd
  0
BLOCK
  5
78
330
74
100
AcDbEntity
  8
0
100
AcDbBlockBegin
  2
KDIMARROW_07
 70
     0
 10
0.0
 20
0.0
 30
0.0
  3
KDIMARROW_07
  1

  0
LINE
  5
75
330
74
100
AcDbEntity
  8
0
  6
K5LT_THIN
 62
     0
370
    18
100
AcDbLine
 10
0.0
 20
0.0
 30
0.0
 11
-5.000000000000002
 21
-0.6582624912261958
 31
0.0
  0
LINE
  5
76
330
74
100
AcDbEntity
  8
0
  6
K5LT_THIN
 62
     0
370
    18
100
AcDbLine
 10
0.0
 20
0.0
 30
0.0
 11
-5.000000000000002
 21
0.658262491226197
 31
0.0
  0
LINE
  5
77
330
74
100
AcDbEntity
  8
0
  6
K5LT_THIN
 62
     0
370
    18
100
AcDbLine
 10
0.0
 20
0.0
 30
0.0
 11
-1.0
 21
0.0
 31
0.0
  0
ENDBLK
  5
79
330
74
100
AcDbEntity
  8
0
100
AcDbBlockEnd
  0
BLOCK
  5
7F
330
7A
100
AcDbEntity
  8
0
100
AcDbBlockBegin
  2
KDIMARROW_08
 70
     0
 10
0.0
 20
0.0
 30
0.0
  3
KDIMARROW_08
  1

  0
LINE
  5
7B
330
7A
100
AcDbEntity
  8
0
  6
K5LT_THIN
 62
     0
370
    18
100
AcDbLine
 10
0.0
 20
0.0
 30
0.0
 11
5.000000000000002
 21
-0.658262491226197
 31
0.0
  0
LINE
  5
7C
330
7A
100
AcDbEntity
  8
0
  6
K5LT_THIN
 62
     0
370
    18
100
AcDbLine
 10
0.0
 20
0.0
 30
0.0
 11
5.000000000000002
 21
0.6582624912261958
 31
0.0
  0
LINE
  5
7D
330
7A
100
AcDbEntity
  8
0
  6
K5LT_THIN
 62
     0
370
    18
100
AcDbLine
 10
0.0
 20
0.0
 30
0.0
 11
7.0
 21
-0.0000000000000009
 31
0.0
  0
LINE
  5
7E
330
7A
100
AcDbEntity
  8
0
  6
K5LT_THIN
 62
     0
370
    18
100
AcDbLine
 10
0.0
 20
0.0
 30
0.0
 11
-1.0
 21
0.0
 31
0.0
  0
ENDBLK
  5
80
330
7A
100
AcDbEntity
  8
0
100
AcDbBlockEnd
  0
BLOCK
  5
85
330
81
100
AcDbEntity
  8
0
100
AcDbBlockBegin
  2
KDIMARROW_09
 70
     0
 10
0.0
 20
0.0
 30
0.0
  3
KDIMARROW_09
  1

  0
LINE
  5
82
330
81
100
AcDbEntity
  8
0
  6
K5LT_THIN
 62
     0
370
    18
100
AcDbLine
 10
0.0
 20
0.0
 30
0.0
 11
-2.0
 21
-2.0
 31
0.0
  0
LINE
  5
83
330
81
100
AcDbEntity
  8
0
  6
K5LT_THIN
 62
     0
370
    18
100
AcDbLine
 10
0.0
 20
0.0
 30
0.0
 11
-2.0
 21
2.0
 31
0.0
  0
LINE
  5
84
330
81
100
AcDbEntity
  8
0
  6
K5LT_THIN
 62
     0
370
    18
100
AcDbLine
 10
0.0
 20
0.0
 30
0.0
 11
-1.0
 21
0.0
 31
0.0
  0
ENDBLK
  5
86
330
81
100
AcDbEntity
  8
0
100
AcDbBlockEnd
  0
BLOCK
  5
8C
330
87
100
AcDbEntity
  8
0
100
AcDbBlockBegin
  2
KDIMARROW_10
 70
     0
 10
0.0
 20
0.0
 30
0.0
  3
KDIMARROW_10
  1

  0
LINE
  5
88
330
87
100
AcDbEntity
  8
0
  6
K5LT_THIN
 62
     0
370
    18
100
AcDbLine
 10
0.0
 20
0.0
 30
0.0
 11
2.0
 21
-2.0
 31
0.0
  0
LINE
  5
89
330
87
100
AcDbEntity
  8
0
  6
K5LT_THIN
 62
     0
370
    18
100
AcDbLine
 10
0.0
 20
0.0
 30
0.0
 11
2.0
 21
2.0
 31
0.0
  0
LINE
  5
8A
330
87
100
AcDbEntity
  8
0
  6
K5LT_THIN
 62
     0
370
    18
100
AcDbLine
 10
0.0
 20
0.0
 30
0.0
 11
4.0
 21
-0.0000000000000005
 31
0.0
  0
LINE
  5
8B
330
87
100
AcDbEntity
  8
0
  6
K5LT_THIN
 62
     0
370
    18
100
AcDbLine
 10
0.0
 20
0.0
 30
0.0
 11
-1.0
 21
0.0
 31
0.0
  0
ENDBLK
  5
8D
330
87
100
AcDbEntity
  8
0
100
AcDbBlockEnd
  0
BLOCK
  5
92
330
8E
100
AcDbEntity
  8
0
100
AcDbBlockBegin
  2
KDIMARROW_11
 70
     0
 10
0.0
 20
0.0
 30
0.0
  3
KDIMARROW_11
  1

  0
CIRCLE
  5
8F
330
8E
100
AcDbEntity
  8
0
  6
K5LT_THIN
 62
     0
370
    18
100
AcDbCircle
 10
0.0
 20
0.0
 30
0.0
 40
2.5
  0
CIRCLE
  5
90
330
8E
100
AcDbEntity
  8
0
  6
K5LT_THIN
 62
     0
370
    18
100
AcDbCircle
 10
0.0
 20
0.0
 30
0.0
 40
2.5
  0
LINE
  5
91
330
8E
100
AcDbEntity
  8
0
  6
K5LT_THIN
 62
     0
370
    18
100
AcDbLine
 10
0.0
 20
0.0
 30
0.0
 11
-1.0
 21
0.0
 31
0.0
  0
ENDBLK
  5
93
330
8E
100
AcDbEntity
  8
0
100
AcDbBlockEnd
  0
BLOCK
  5
98
330
94
100
AcDbEntity
  8
0
100
AcDbBlockBegin
  2
KDIMARROW_12
 70
     0
 10
0.0
 20
0.0
 30
0.0
  3
KDIMARROW_12
  1

  0
CIRCLE
  5
95
330
94
100
AcDbEntity
  8
0
  6
K5LT_THIN
 62
     0
370
    18
100
AcDbCircle
 10
0.0
 20
0.0
 30
0.0
 40
1.5
  0
CIRCLE
  5
96
330
94
100
AcDbEntity
  8
0
  6
K5LT_THIN
 62
     0
370
    18
100
AcDbCircle
 10
0.0
 20
0.0
 30
0.0
 40
1.5
  0
LINE
  5
97
330
94
100
AcDbEntity
  8
0
  6
K5LT_THIN
 62
     0
370
    18
100
AcDbLine
 10
0.0
 20
0.0
 30
0.0
 11
-1.0
 21
0.0
 31
0.0
  0
ENDBLK
  5
99
330
94
100
AcDbEntity
  8
0
100
AcDbBlockEnd
  0
BLOCK
  5
9E
330
9A
100
AcDbEntity
  8
0
100
AcDbBlockBegin
  2
KDIMARROW_13
 70
     0
 10
0.0
 20
0.0
 30
0.0
  3
KDIMARROW_13
  1

  0
LINE
  5
9B
330
9A
100
AcDbEntity
  8
0
  6
K5LT_THIN
 62
     0
370
    18
100
AcDbLine
 10
-1.060500025749206
 20
1.060500025749207
 30
0.0
 11
1.060500025749206
 21
-1.060500025749206
 31
0.0
  0
LINE
  5
9C
330
9A
100
AcDbEntity
  8
0
  6
K5LT_THIN
 62
     0
370
    18
100
AcDbLine
 10
0.0
 20
0.0
 30
0.0
 11
2.0
 21
-0.0000000000000002
 31
0.0
  0
LINE
  5
9D
330
9A
100
AcDbEntity
  8
0
  6
K5LT_THIN
 62
     0
370
    18
100
AcDbLine
 10
0.0
 20
0.0
 30
0.0
 11
-1.0
 21
0.0
 31
0.0
  0
ENDBLK
  5
9F
330
9A
100
AcDbEntity
  8
0
100
AcDbBlockEnd
  0
BLOCK
  5
DB
330
D5
100
AcDbEntity
  8
0
100
AcDbBlockBegin
  2
U0
 70
     0
 10
0.0
 20
0.0
 30
0.0
  3
U0
  1

  0
LINE
  5
D7
330
D5
100
AcDbEntity
  8
0
  6
K5LT_BASIC
 62
     5
420
      255
370
    60
100
AcDbLine
 10
-646.5016591350172
 20
563.144999442177
 30
0.0
 11
-656.5016591350172
 21
563.144999442177
 31
0.0
  0
LINE
  5
D8
330
D5
100
AcDbEntity
  8
0
  6
K5LT_BASIC
 62
     5
420
      255
370
    60
100
AcDbLine
 10
-656.5016591350172
 20
563.144999442177
 30
0.0
 11
-656.5016591350172
 21
543.144999442177
 31
0.0
  0
LINE
  5
D9
330
D5
100
AcDbEntity
  8
0
  6
K5LT_BASIC
 62
     5
420
      255
370
    60
100
AcDbLine
 10
-656.5016591350172
 20
543.144999442177
 30
0.0
 11
-646.5016591350172
 21
543.144999442177
 31
0.0
  0
LINE
  5
DA
330
D5
100
AcDbEntity
  8
0
  6
K5LT_BASIC
 62
     5
420
      255
370
    60
100
AcDbLine
 10
-646.5016591350172
 20
543.144999442177
 30
0.0
 11
-646.5016591350172
 21
563.144999442177
 31
0.0
  0
ENDBLK
  5
DC
330
D5
100
AcDbEntity
  8
0
100
AcDbBlockEnd
  0
BLOCK
  5
F0
330
EA
100
AcDbEntity
  8
0
100
AcDbBlockBegin
  2
U1
 70
     0
 10
0.0
 20
0.0
 30
0.0
  3
U1
  1

  0
LINE
  5
EC
330
EA
100
AcDbEntity
  8
0
  6
K5LT_BASIC
 62
     5
420
      255
370
    60
100
AcDbLine
 10
-646.5016591350172
 20
604.64738952044
 30
0.0
 11
-656.5016591350172
 21
604.64738952044
 31
0.0
  0
LINE
  5
ED
330
EA
100
AcDbEntity
  8
0
  6
K5LT_BASIC
 62
     5
420
      255
370
    60
100
AcDbLine
 10
-656.5016591350172
 20
604.64738952044
 30
0.0
 11
-656.5016591350172
 21
584.64738952044
 31
0.0
  0
LINE
  5
EE
330
EA
100
AcDbEntity
  8
0
  6
K5LT_BASIC
 62
     5
420
      255
370
    60
100
AcDbLine
 10
-656.5016591350172
 20
584.64738952044
 30
0.0
 11
-646.5016591350172
 21
584.64738952044
 31
0.0
  0
LINE
  5
EF
330
EA
100
AcDbEntity
  8
0
  6
K5LT_BASIC
 62
     5
420
      255
370
    60
100
AcDbLine
 10
-646.5016591350172
 20
584.64738952044
 30
0.0
 11
-646.5016591350172
 21
604.64738952044
 31
0.0
  0
ENDBLK
  5
F1
330
EA
100
AcDbEntity
  8
0
100
AcDbBlockEnd
  0
BLOCK
  5
F8
330
F2
100
AcDbEntity
  8
0
100
AcDbBlockBegin
  2
U2
 70
     0
 10
0.0
 20
0.0
 30
0.0
  3
U2
  1

  0
LINE
  5
F4
330
F2
100
AcDbEntity
  8
0
  6
K5LT_BASIC
 62
     5
420
      255
370
    60
100
AcDbLine
 10
-508.8979896068179
 20
563.144999442177
 30
0.0
 11
-498.8979896068179
 21
563.144999442177
 31
0.0
  0
LINE
  5
F5
330
F2
100
AcDbEntity
  8
0
  6
K5LT_BASIC
 62
     5
420
      255
370
    60
100
AcDbLine
 10
-498.8979896068179
 20
563.144999442177
 30
0.0
 11
-498.8979896068179
 21
543.144999442177
 31
0.0
  0
LINE
  5
F6
330
F2
100
AcDbEntity
  8
0
  6
K5LT_BASIC
 62
     5
420
      255
370
    60
100
AcDbLine
 10
-498.8979896068179
 20
543.144999442177
 30
0.0
 11
-508.8979896068179
 21
543.144999442177
 31
0.0
  0
LINE
  5
F7
330
F2
100
AcDbEntity
  8
0
  6
K5LT_BASIC
 62
     5
420
      255
370
    60
100
AcDbLine
 10
-508.8979896068179
 20
543.144999442177
 30
0.0
 11
-508.8979896068179
 21
563.144999442177
 31
0.0
  0
ENDBLK
  5
F9
330
F2
100
AcDbEntity
  8
0
100
AcDbBlockEnd
  0
BLOCK
  5
100
330
FA
100
AcDbEntity
  8
0
100
AcDbBlockBegin
  2
U3
 70
     0
 10
0.0
 20
0.0
 30
0.0
  3
U3
  1

  0
LINE
  5
FC
330
FA
100
AcDbEntity
  8
0
  6
K5LT_BASIC
 62
     5
420
      255
370
    60
100
AcDbLine
 10
-508.8979896068179
 20
604.64738952044
 30
0.0
 11
-498.8979896068179
 21
604.64738952044
 31
0.0
  0
LINE
  5
FD
330
FA
100
AcDbEntity
  8
0
  6
K5LT_BASIC
 62
     5
420
      255
370
    60
100
AcDbLine
 10
-498.8979896068179
 20
604.64738952044
 30
0.0
 11
-498.8979896068179
 21
584.64738952044
 31
0.0
  0
LINE
  5
FE
330
FA
100
AcDbEntity
  8
0
  6
K5LT_BASIC
 62
     5
420
      255
370
    60
100
AcDbLine
 10
-498.8979896068179
 20
584.64738952044
 30
0.0
 11
-508.8979896068179
 21
584.64738952044
 31
0.0
  0
LINE
  5
FF
330
FA
100
AcDbEntity
  8
0
  6
K5LT_BASIC
 62
     5
420
      255
370
    60
100
AcDbLine
 10
-508.8979896068179
 20
584.64738952044
 30
0.0
 11
-508.8979896068179
 21
604.64738952044
 31
0.0
  0
ENDBLK
  5
101
330
FA
100
AcDbEntity
  8
0
100
AcDbBlockEnd
  0
BLOCK
  5
169
330
163
100
AcDbEntity
  8
0
100
AcDbBlockBegin
  2
U4
 70
     0
 10
0.0
 20
0.0
 30
0.0
  3
U4
  1

  0
LINE
  5
165
330
163
100
AcDbEntity
  8
0
  6
K5LT_BASIC
 62
     5
420
      255
370
    60
100
AcDbLine
 10
-455.8179590922449
 20
170.5462378743529
 30
0.0
 11
-465.8179590922449
 21
170.5462378743529
 31
0.0
  0
LINE
  5
166
330
163
100
AcDbEntity
  8
0
  6
K5LT_BASIC
 62
     5
420
      255
370
    60
100
AcDbLine
 10
-465.8179590922449
 20
170.5462378743529
 30
0.0
 11
-465.8179590922449
 21
190.5462378743529
 31
0.0
  0
LINE
  5
167
330
163
100
AcDbEntity
  8
0
  6
K5LT_BASIC
 62
     5
420
      255
370
    60
100
AcDbLine
 10
-465.8179590922449
 20
190.5462378743529
 30
0.0
 11
-455.8179590922449
 21
190.5462378743529
 31
0.0
  0
LINE
  5
168
330
163
100
AcDbEntity
  8
0
  6
K5LT_BASIC
 62
     5
420
      255
370
    60
100
AcDbLine
 10
-455.8179590922449
 20
190.5462378743529
 30
0.0
 11
-455.8179590922449
 21
170.5462378743529
 31
0.0
  0
ENDBLK
  5
16A
330
163
100
AcDbEntity
  8
0
100
AcDbBlockEnd
  0
BLOCK
  5
17F
330
179
100
AcDbEntity
  8
0
100
AcDbBlockBegin
  2
U5
 70
     0
 10
0.0
 20
0.0
 30
0.0
  3
U5
  1

  0
LINE
  5
17B
330
179
100
AcDbEntity
  8
0
  6
K5LT_BASIC
 62
     5
420
      255
370
    60
100
AcDbLine
 10
-455.8179590922449
 20
129.0438477960898
 30
0.0
 11
-465.8179590922449
 21
129.0438477960898
 31
0.0
  0
LINE
  5
17C
330
179
100
AcDbEntity
  8
0
  6
K5LT_BASIC
 62
     5
420
      255
370
    60
100
AcDbLine
 10
-465.8179590922449
 20
129.0438477960898
 30
0.0
 11
-465.8179590922449
 21
149.0438477960898
 31
0.0
  0
LINE
  5
17D
330
179
100
AcDbEntity
  8
0
  6
K5LT_BASIC
 62
     5
420
      255
370
    60
100
AcDbLine
 10
-465.8179590922449
 20
149.0438477960898
 30
0.0
 11
-455.8179590922449
 21
149.0438477960898
 31
0.0
  0
LINE
  5
17E
330
179
100
AcDbEntity
  8
0
  6
K5LT_BASIC
 62
     5
420
      255
370
    60
100
AcDbLine
 10
-455.8179590922449
 20
149.0438477960898
 30
0.0
 11
-455.8179590922449
 21
129.0438477960898
 31
0.0
  0
ENDBLK
  5
180
330
179
100
AcDbEntity
  8
0
100
AcDbBlockEnd
  0
BLOCK
  5
188
330
182
100
AcDbEntity
  8
0
100
AcDbBlockBegin
  2
U6
 70
     0
 10
0.0
 20
0.0
 30
0.0
  3
U6
  1

  0
LINE
  5
184
330
182
100
AcDbEntity
  8
0
  6
K5LT_BASIC
 62
     5
420
      255
370
    60
100
AcDbLine
 10
-318.2142895640456
 20
170.5462378743529
 30
0.0
 11
-308.2142895640456
 21
170.5462378743529
 31
0.0
  0
LINE
  5
185
330
182
100
AcDbEntity
  8
0
  6
K5LT_BASIC
 62
     5
420
      255
370
    60
100
AcDbLine
 10
-308.2142895640456
 20
170.5462378743529
 30
0.0
 11
-308.2142895640456
 21
190.5462378743529
 31
0.0
  0
LINE
  5
186
330
182
100
AcDbEntity
  8
0
  6
K5LT_BASIC
 62
     5
420
      255
370
    60
100
AcDbLine
 10
-308.2142895640456
 20
190.5462378743529
 30
0.0
 11
-318.2142895640456
 21
190.5462378743529
 31
0.0
  0
LINE
  5
187
330
182
100
AcDbEntity
  8
0
  6
K5LT_BASIC
 62
     5
420
      255
370
    60
100
AcDbLine
 10
-318.2142895640456
 20
190.5462378743529
 30
0.0
 11
-318.2142895640456
 21
170.5462378743529
 31
0.0
  0
ENDBLK
  5
189
330
182
100
AcDbEntity
  8
0
100
AcDbBlockEnd
  0
BLOCK
  5
190
330
18A
100
AcDbEntity
  8
0
100
AcDbBlockBegin
  2
U7
 70
     0
 10
0.0
 20
0.0
 30
0.0
  3
U7
  1

  0
LINE
  5
18C
330
18A
100
AcDbEntity
  8
0
  6
K5LT_BASIC
 62
     5
420
      255
370
    60
100
AcDbLine
 10
-318.2142895640456
 20
129.0438477960898
 30
0.0
 11
-308.2142895640456
 21
129.0438477960898
 31
0.0
  0
LINE
  5
18D
330
18A
100
AcDbEntity
  8
0
  6
K5LT_BASIC
 62
     5
420
      255
370
    60
100
AcDbLine
 10
-308.2142895640456
 20
129.0438477960898
 30
0.0
 11
-308.2142895640456
 21
149.0438477960898
 31
0.0
  0
LINE
  5
18E
330
18A
100
AcDbEntity
  8
0
  6
K5LT_BASIC
 62
     5
420
      255
370
    60
100
AcDbLine
 10
-308.2142895640456
 20
149.0438477960898
 30
0.0
 11
-318.2142895640456
 21
149.0438477960898
 31
0.0
  0
LINE
  5
18F
330
18A
100
AcDbEntity
  8
0
  6
K5LT_BASIC
 62
     5
420
      255
370
    60
100
AcDbLine
 10
-318.2142895640456
 20
149.0438477960898
 30
0.0
 11
-318.2142895640456
 21
129.0438477960898
 31
0.0
  0
ENDBLK
  5
191
330
18A
100
AcDbEntity
  8
0
100
AcDbBlockEnd
  0
ENDSEC
  0
SECTION
  2
ENTITIES
  0
XLINE
  5
A0
330
1F
100
AcDbEntity
  8
0
 62
     9
420
 14460353
100
AcDbXline
 10
106.3641864556074
 20
127.5217469220202
 30
0.0
 11
6.123031769111886E-17
 21
1.0
 31
0.0
  0
XLINE
  5
A1
330
1F
100
AcDbEntity
  8
0
 62
     9
420
 14460353
100
AcDbXline
 10
174.6055195946439
 20
12.29782184326615
 30
0.0
 11
6.123031769111886E-17
 21
1.0
 31
0.0
  0
ARC
  5
A3
330
1F
100
AcDbEntity
  8
0
  6
K5LT_BASIC
 62
     5
420
      255
370
    60
100
AcDbCircle
 10
-609.6121798319823
 20
587.681639748498
 30
0.0
 40
64.00000000000003
100
AcDbArc
 50
139.9639302083166
 51
194.6441485519653
  0
ARC
  5
A4
330
1F
100
AcDbEntity
  8
0
  6
K5LT_BASIC
 62
     5
420
      255
370
    60
100
AcDbCircle
 10
-579.7348232982044
 20
593.3032048574397
 30
0.0
 40
94.3516926490541
100
AcDbArc
 50
193.3599976678859
 51
208.0850249901886
  0
ARC
  5
A5
330
1F
100
AcDbEntity
  8
0
  6
K5LT_BASIC
 62
     5
420
      255
370
    60
100
AcDbCircle
 10
-691.3921730439033
 20
536.4924551589535
 30
0.0
 40
30.99999999999995
100
AcDbArc
 50
343.6995352003805
 51
23.56151483720936
  0
ARC
  5
A6
330
1F
100
AcDbEntity
  8
0
  6
K5LT_BASIC
 62
     5
420
      255
370
    60
100
AcDbCircle
 10
-671.0051128534761
 20
490.4053199591405
 30
0.0
 40
38.54176240168474
100
AcDbArc
 50
13.90319050225449
 51
75.93451323429623
  0
ARC
  5
A7
330
1F
100
AcDbEntity
  8
0
  6
K5LT_BASIC
 62
     5
420
      255
370
    60
100
AcDbCircle
 10
-688.1058474387369
 20
482.0347967920403
 30
0.0
 40
57.29372986550695
100
AcDbArc
 50
339.3495835518935
 51
17.92292340826485
  0
ARC
  5
A8
330
1F
100
AcDbEntity
  8
0
  6
K5LT_BASIC
 62
     5
420
      255
370
    60
100
AcDbCircle
 10
-652.9387316099828
 20
469.5600579316625
 30
0.0
 40
19.99999999999993
100
AcDbArc
 50
271.744737736086
 51
337.260730676119
  0
ARC
  5
A9
330
1F
100
AcDbEntity
  8
0
  6
K5LT_BASIC
 62
     5
420
      255
370
    60
100
AcDbCircle
 10
-672.6505932551727
 20
438.7959715502683
 30
0.0
 40
23.00000000000022
100
AcDbArc
 50
340.3775493012447
 51
27.93093415529556
  0
ARC
  5
AA
330
1F
100
AcDbEntity
  8
0
  6
K5LT_BASIC
 62
     5
420
      255
370
    60
100
AcDbCircle
 10
-589.1247790981402
 20
401.946514014787
 30
0.0
 40
68.3750457523114
100
AcDbArc
 50
154.7880495420857
 51
264.0614334265268
  0
ARC
  5
AB
330
1F
100
AcDbEntity
  8
0
  6
K5LT_BASIC
 62
     5
420
      255
370
    60
100
AcDbCircle
 10
-545.787468909853
 20
587.681639748498
 30
0.0
 40
64.00000000000003
100
AcDbArc
 50
345.3558514480347
 51
40.03606979168346
  0
ARC
  5
AC
330
1F
100
AcDbEntity
  8
0
  6
K5LT_BASIC
 62
     5
420
      255
370
    60
100
AcDbCircle
 10
-575.6648254436311
 20
593.3032048574397
 30
0.0
 40
94.3516926490541
100
AcDbArc
 50
331.9149750098113
 51
346.6400023321141
  0
ARC
  5
AD
330
1F
100
AcDbEntity
  8
0
  6
K5LT_BASIC
 62
     5
420
      255
370
    60
100
AcDbCircle
 10
-464.0074756979322
 20
536.4924551589535
 30
0.0
 40
30.99999999999995
100
AcDbArc
 50
156.4384851627907
 51
196.3004647996195
  0
ARC
  5
AE
330
1F
100
AcDbEntity
  8
0
  6
K5LT_BASIC
 62
     5
420
      255
370
    60
100
AcDbCircle
 10
-484.3945358883594
 20
490.4053199591405
 30
0.0
 40
38.54176240168474
100
AcDbArc
 50
104.0654867657037
 51
166.0968094977455
  0
ARC
  5
AF
330
1F
100
AcDbEntity
  8
0
  6
K5LT_BASIC
 62
     5
420
      255
370
    60
100
AcDbCircle
 10
-467.2938013030986
 20
482.0347967920403
 30
0.0
 40
57.29372986550695
100
AcDbArc
 50
162.0770765917352
 51
200.6504164481067
  0
ARC
  5
B0
330
1F
100
AcDbEntity
  8
0
  6
K5LT_BASIC
 62
     5
420
      255
370
    60
100
AcDbCircle
 10
-502.4609171318527
 20
469.5600579316625
 30
0.0
 40
19.99999999999993
100
AcDbArc
 50
202.739269323881
 51
268.255262263914
  0
ARC
  5
B1
330
1F
100
AcDbEntity
  8
0
  6
K5LT_BASIC
 62
     5
420
      255
370
    60
100
AcDbCircle
 10
-482.7490554866628
 20
438.7959715502683
 30
0.0
 40
23.00000000000022
100
AcDbArc
 50
152.0690658447045
 51
199.6224506987553
  0
ARC
  5
B2
330
1F
100
AcDbEntity
  8
0
  6
K5LT_BASIC
 62
     5
420
      255
370
    60
100
AcDbCircle
 10
-566.2204210516607
 20
401.9442842335519
 30
0.0
 40
68.32673849625633
100
AcDbArc
 50
275.5548569652327
 51
25.23309105810634
  0
LINE
  5
B3
330
1F
100
AcDbEntity
  8
0
  6
K5LT_BASIC
 62
     5
420
      255
370
    60
100
AcDbLine
 10
-658.6131163443087
 20
628.8509028086377
 30
0.0
 11
-496.7865323975269
 21
628.8509028086377
 31
0.0
  0
LINE
  5
B4
330
1F
100
AcDbEntity
  8
0
  6
K5LT_BASIC
 62
     5
420
      255
370
    60
100
AcDbLine
 10
-564.3712485482611
 20
83.15170673682837
 30
0.0
 11
-565.1998243709177
 21
79.23846484472551
 31
0.0
  0
ARC
  5
B5
330
1F
100
AcDbEntity
  8
0
  6
K5LT_BASIC
 62
     5
420
      255
370
    60
100
AcDbCircle
 10
-557.8971049788229
 20
80.48985305146289
 30
0.0
 40
6.999999999999377
100
AcDbArc
 50
113.6494525052115
 51
157.6499133039542
  0
LWPOLYLINE
  5
B6
330
1F
100
AcDbEntity
  8
0
  6
K5LT_BASIC
 62
     5
420
      255
100
AcDbPolyline
 90
        8
 70
     0
 43
0.6
 10
-560.7050836088696
 20
86.90197095533779
 10
-554.585678941467
 20
88.81629047673485
 10
-549.6284190776255
 20
91.01714993144276
 10
-545.8266641532937
 20
93.54735114034419
 10
-543.1697187096843
 20
96.47788490666832
 10
-541.6374473384969
 20
99.94380625462827
 10
-541.1783172982247
 20
104.2737325989415
 10
-541.1876410948688
 20
104.8403345078922
  0
LWPOLYLINE
  5
B7
330
1F
100
AcDbEntity
  8
0
  6
K5LT_BASIC
 62
     5
420
      255
100
AcDbPolyline
 90
        8
 70
     0
 43
0.6
 10
-565.106717704463
 20
123.8392334947046
 10
-558.2609332654104
 20
122.0885279096689
 10
-552.5803107390382
 20
120.0700716459004
 10
-548.0596618234983
 20
117.7511442794987
 10
-544.6911439233348
 20
115.080580851873
 10
-542.4614920560354
 20
111.9696963611609
 10
-541.3434129093545
 20
108.2367881610512
 10
-541.1876410948688
 20
104.8403345078922
  0
LINE
  5
B8
330
1F
100
AcDbEntity
  8
0
  6
K5LT_BASIC
 62
     5
420
      255
370
    60
100
AcDbLine
 10
-564.2305773462069
 20
157.3062125597967
 30
0.0
 11
-552.2305773462069
 21
157.3062125597967
 31
0.0
  0
LINE
  5
B9
330
1F
100
AcDbEntity
  8
0
  6
K5LT_BASIC
 62
     5
420
      255
370
    60
100
AcDbLine
 10
-564.4706066538231
 20
148.1375265869373
 30
0.0
 11
-552.4706066538231
 21
148.1375265869373
 31
0.0
  0
LINE
  5
BA
330
1F
100
AcDbEntity
  8
0
  6
K5LT_BASIC
 62
     5
420
      255
370
    60
100
AcDbLine
 10
-552.4706066538231
 20
148.1375265869373
 30
0.0
 11
-552.4706066538231
 21
138.1375265869373
 31
0.0
  0
LINE
  5
BB
330
1F
100
AcDbEntity
  8
0
  6
K5LT_BASIC
 62
     5
420
      255
370
    60
100
AcDbLine
 10
-552.2305773462069
 20
157.3062125597967
 30
0.0
 11
-552.2305773462069
 21
167.3062125597967
 31
0.0
  0
ARC
  5
BC
330
1F
100
AcDbEntity
  8
0
  6
K5LT_BASIC
 62
     5
420
      255
370
    60
100
AcDbCircle
 10
-551.0492973890504
 20
152.7111612115037
 30
0.0
 40
14.6427779535336
100
AcDbArc
 50
264.4297834688352
 51
94.62726312671163
  0
LINE
  5
BD
330
1F
100
AcDbEntity
  8
0
  6
K5LT_BASIC
 62
     5
420
      255
370
    60
100
AcDbLine
 10
-563.3555395169592
 20
190.7310770083324
 30
0.0
 11
-551.3555395169592
 21
190.7310770083324
 31
0.0
  0
LINE
  5
BE
330
1F
100
AcDbEntity
  8
0
  6
K5LT_BASIC
 62
     5
420
      255
370
    60
100
AcDbLine
 10
-563.5955688245754
 20
181.562391035473
 30
0.0
 11
-551.5955688245754
 21
181.562391035473
 31
0.0
  0
LINE
  5
BF
330
1F
100
AcDbEntity
  8
0
  6
K5LT_BASIC
 62
     5
420
      255
370
    60
100
AcDbLine
 10
-551.5955688245754
 20
181.562391035473
 30
0.0
 11
-551.5955688245754
 21
171.562391035473
 31
0.0
  0
ARC
  5
C0
330
1F
100
AcDbEntity
  8
0
  6
K5LT_BASIC
 62
     5
420
      255
370
    60
100
AcDbCircle
 10
-550.1742595598026
 20
186.1360256600393
 30
0.0
 40
14.6427779535336
100
AcDbArc
 50
264.4297834688352
 51
94.62726312671163
  0
LINE
  5
C1
330
1F
100
AcDbEntity
  8
0
  6
K5LT_BASIC
 62
     5
420
      255
370
    60
100
AcDbLine
 10
-551.3555395169592
 20
190.7310770083324
 30
0.0
 11
-551.3555395169592
 21
200.7310770083324
 31
0.0
  0
LINE
  5
C2
330
1F
100
AcDbEntity
  8
0
  6
K5LT_BASIC
 62
     5
420
      255
370
    60
100
AcDbLine
 10
-563.3555395169592
 20
190.7310770083324
 30
0.0
 11
-559.6064791803494
 21
333.9384097339272
 31
0.0
  0
LINE
  5
C3
330
1F
100
AcDbEntity
  8
0
  6
K5LT_BASIC
 62
     5
420
      255
370
    60
100
AcDbLine
 10
-564.2305773462069
 20
157.3062125597967
 30
0.0
 11
-563.5955688245754
 21
181.562391035473
 31
0.0
  0
LINE
  5
C4
330
1F
100
AcDbEntity
  8
0
  6
K5LT_BASIC
 62
     5
420
      255
370
    60
100
AcDbLine
 10
-565.106717704463
 20
123.8392334947046
 30
0.0
 11
-564.4706066538231
 21
148.1375265869373
 31
0.0
  0
LINE
  5
C5
330
1F
100
AcDbEntity
  8
0
  6
K5LT_BASIC
 62
     5
420
      255
370
    60
100
AcDbLine
 10
-590.1998243709177
 20
79.23846484472551
 30
0.0
 11
-565.1998243709177
 21
79.23846484472551
 31
0.0
  0
LINE
  5
C6
330
1F
100
AcDbEntity
  8
0
  6
K5LT_BASIC
 62
     5
420
      255
370
    60
100
AcDbLine
 10
-591.6284298516667
 20
159.3507987023116
 30
0.0
 11
-603.6284298516667
 21
159.3507987023116
 31
0.0
  0
LINE
  5
C7
330
1F
100
AcDbEntity
  8
0
  6
K5LT_BASIC
 62
     5
420
      255
370
    60
100
AcDbLine
 10
-591.8684591592829
 20
168.5194846751709
 30
0.0
 11
-603.8684591592829
 21
168.5194846751709
 31
0.0
  0
LINE
  5
C8
330
1F
100
AcDbEntity
  8
0
  6
K5LT_BASIC
 62
     5
420
      255
370
    60
100
AcDbLine
 10
-603.8684591592829
 20
168.5194846751709
 30
0.0
 11
-603.8684591592829
 21
178.5194846751709
 31
0.0
  0
ARC
  5
C9
330
1F
100
AcDbEntity
  8
0
  6
K5LT_BASIC
 62
     5
420
      255
370
    60
100
AcDbCircle
 10
-605.0497391164395
 20
163.9244333268781
 30
0.0
 40
14.6427779535336
100
AcDbArc
 50
85.37273687328837
 51
275.5702165311648
  0
LINE
  5
CA
330
1F
100
AcDbEntity
  8
0
  6
K5LT_BASIC
 62
     5
420
      255
370
    60
100
AcDbLine
 10
-603.6284298516667
 20
159.3507987023116
 30
0.0
 11
-603.6284298516667
 21
149.3507987023116
 31
0.0
  0
LINE
  5
CB
330
1F
100
AcDbEntity
  8
0
  6
K5LT_BASIC
 62
     5
420
      255
370
    60
100
AcDbLine
 10
-590.9990974933269
 20
135.311439411218
 30
0.0
 11
-607.7459563264703
 21
135.311439411218
 31
0.0
  0
LINE
  5
CC
330
1F
100
AcDbEntity
  8
0
  6
K5LT_BASIC
 62
     5
420
      255
370
    60
100
AcDbLine
 10
-591.239126800943
 20
144.4801253840773
 30
0.0
 11
-607.7459563264703
 21
144.4801253840773
 31
0.0
  0
ARC
  5
CD
330
1F
100
AcDbEntity
  8
0
  6
K5LT_BASIC
 62
     5
420
      255
370
    60
100
AcDbCircle
 10
-607.8257481949832
 20
139.8957823976476
 30
0.0
 40
4.585037334581638
100
AcDbArc
 50
89.00285041023284
 51
270.9971495897672
  0
LWPOLYLINE
  5
CE
330
1F
100
AcDbEntity
  8
0
  6
K5LT_BASIC
 62
     5
420
      255
100
AcDbPolyline
 90
        8
 70
     0
 43
0.6
 10
-594.6945651329657
 20
86.90197095533779
 10
-600.8139698003682
 20
88.81629047673485
 10
-605.7712296642097
 20
91.01714993144276
 10
-609.5729845885418
 20
93.54735114034418
 10
-612.229930032151
 20
96.47788490666831
 10
-613.7622014033384
 20
99.94380625462824
 10
-614.2213314436107
 20
104.2737325989415
 10
-614.2120076469665
 20
104.8403345078922
  0
LINE
  5
CF
330
1F
100
AcDbEntity
  8
0
  6
K5LT_BASIC
 62
     5
420
      255
370
    60
100
AcDbLine
 10
-591.0284001935743
 20
83.15170673682837
 30
0.0
 11
-590.1998243709177
 21
79.23846484472551
 31
0.0
  0
ARC
  5
D0
330
1F
100
AcDbEntity
  8
0
  6
K5LT_BASIC
 62
     5
420
      255
370
    60
100
AcDbCircle
 10
-597.5025437630125
 20
80.48985305146289
 30
0.0
 40
6.999999999999377
100
AcDbArc
 50
22.35008669604587
 51
66.35054749478853
  0
LWPOLYLINE
  5
D1
330
1F
100
AcDbEntity
  8
0
  6
K5LT_BASIC
 62
     5
420
      255
100
AcDbPolyline
 90
        8
 70
     0
 43
0.6
 10
-590.2929310373723
 20
123.8392334947046
 10
-597.1387154764251
 20
122.0885279096689
 10
-602.8193380027972
 20
120.0700716459004
 10
-607.3399869183371
 20
117.7511442794986
 10
-610.7085048185006
 20
115.080580851873
 10
-612.9381566858001
 20
111.9696963611609
 10
-614.0562358324808
 20
108.2367881610512
 10
-614.2120076469665
 20
104.8403345078922
  0
LINE
  5
D2
330
1F
100
AcDbEntity
  8
0
  6
K5LT_BASIC
 62
     5
420
      255
370
    60
100
AcDbLine
 10
-590.2929310373723
 20
123.8392334947046
 30
0.0
 11
-590.9990974933269
 21
135.311439411218
 31
0.0
  0
LINE
  5
D3
330
1F
100
AcDbEntity
  8
0
  6
K5LT_BASIC
 62
     5
420
      255
370
    60
100
AcDbLine
 10
-591.239126800943
 20
144.4801253840773
 30
0.0
 11
-591.6284298516667
 21
159.3507987023116
 31
0.0
  0
LINE
  5
D4
330
1F
100
AcDbEntity
  8
0
  6
K5LT_BASIC
 62
     5
420
      255
370
    60
100
AcDbLine
 10
-591.8684591592829
 20
168.5194846751709
 30
0.0
 11
-596.1990022890172
 21
333.938409733927
 31
0.0
  0
INSERT
  5
D6
330
1F
100
AcDbEntity
  8
0
100
AcDbBlockReference
  2
U0
 10
0.0
 20
0.0
 30
0.0
  0
ARC
  5
DD
330
1F
100
AcDbEntity
  8
0
  6
K5LT_BASIC
 62
     5
420
      255
370
    60
100
AcDbCircle
 10
-623.9471604566813
 20
541.3705717247029
 30
0.0
 40
10.73449493295284
100
AcDbArc
 50
94.0840371982233
 51
198.0630718915405
  0
ARC
  5
DE
330
1F
100
AcDbEntity
  8
0
  6
K5LT_BASIC
 62
     5
420
      255
370
    60
100
AcDbCircle
 10
-622.5871530153318
 20
539.2931281522075
 30
0.0
 40
12.95999999999999
100
AcDbArc
 50
24.43564214063157
 51
99.43499448287342
  0
ARC
  5
DF
330
1F
100
AcDbEntity
  8
0
  6
K5LT_BASIC
 62
     5
420
      255
370
    60
100
AcDbCircle
 10
-642.0285642966548
 20
530.9985230851793
 30
0.0
 40
34.094744087088
100
AcDbArc
 50
359.5106298668681
 51
23.61096995121834
  0
ARC
  5
E0
330
1F
100
AcDbEntity
  8
0
  6
K5LT_BASIC
 62
     5
420
      255
370
    60
100
AcDbCircle
 10
-629.8992239625939
 20
538.763544068862
 30
0.0
 40
4.314124859086514
100
AcDbArc
 50
189.6254424812864
 51
93.29158186252073
  0
ARC
  5
E1
330
1F
100
AcDbEntity
  8
0
  6
K5LT_BASIC
 62
     5
420
      255
370
    60
100
AcDbCircle
 10
-598.7894204172193
 20
470.565207375453
 30
0.0
 40
10.73449493295284
100
AcDbArc
 50
271.224629634889
 51
15.2036643282061
  0
ARC
  5
E2
330
1F
100
AcDbEntity
  8
0
  6
K5LT_BASIC
 62
     5
420
      255
370
    60
100
AcDbCircle
 10
-600.0441005547133
 20
472.707908892232
 30
0.0
 40
12.95999999999999
100
AcDbArc
 50
201.5762345772983
 51
276.5755869195395
  0
ARC
  5
E3
330
1F
100
AcDbEntity
  8
0
  6
K5LT_BASIC
 62
     5
420
      255
370
    60
100
AcDbCircle
 10
-580.2131154133276
 20
480.0223449025933
 30
0.0
 40
34.094744087088
100
AcDbArc
 50
176.6512223035338
 51
200.7515623878842
  0
ARC
  5
E4
330
1F
100
AcDbEntity
  8
0
  6
K5LT_BASIC
 62
     5
420
      255
370
    60
100
AcDbCircle
 10
-599.448106154524
 20
469.5029593734024
 30
0.0
 40
6.831592415295709
100
AcDbArc
 50
274.6876715982896
 51
352.0498023926724
  0
ARC
  5
E5
330
1F
100
AcDbEntity
  8
0
  6
K5LT_BASIC
 62
     5
420
      255
370
    60
100
AcDbCircle
 10
-592.2971527820291
 20
472.5039260856915
 30
0.0
 40
3.964599875234763
100
AcDbArc
 50
12.77126615074733
 51
264.4269430663908
  0
LINE
  5
E6
330
1F
100
AcDbEntity
  8
0
  6
K5LT_BASIC
 62
     5
420
      255
370
    60
100
AcDbLine
 10
-614.2496409783614
 20
482.0139527517521
 30
0.0
 11
-611.9215939598563
 21
506.3830027348685
 31
0.0
  0
ARC
  5
E7
330
1F
100
AcDbEntity
  8
0
  6
K5LT_BASIC
 62
     5
420
      255
370
    60
100
AcDbCircle
 10
-600.0438920463109
 20
472.7088753844099
 30
0.0
 40
10.08093626215753
100
AcDbArc
 50
201.8164983157901
 51
276.5737806018299
  0
ARC
  5
E8
330
1F
100
AcDbEntity
  8
0
  6
K5LT_BASIC
 62
     5
420
      255
370
    60
100
AcDbCircle
 10
-580.2131154133276
 20
480.0223449025933
 30
0.0
 40
31.214744087088
100
AcDbArc
 50
176.651222303534
 51
200.7515623878849
  0
LINE
  5
E9
330
1F
100
AcDbEntity
  8
0
  6
K5LT_BASIC
 62
     5
420
      255
370
    60
100
AcDbLine
 10
-611.3745587258912
 20
481.8457206456266
 30
0.0
 11
-609.1022093461471
 21
505.9093103202807
 31
0.0
  0
INSERT
  5
EB
330
1F
100
AcDbEntity
  8
0
100
AcDbBlockReference
  2
U1
 10
0.0
 20
0.0
 30
0.0
  0
INSERT
  5
F3
330
1F
100
AcDbEntity
  8
0
100
AcDbBlockReference
  2
U2
 10
0.0
 20
0.0
 30
0.0
  0
INSERT
  5
FB
330
1F
100
AcDbEntity
  8
0
100
AcDbBlockReference
  2
U3
 10
0.0
 20
0.0
 30
0.0
  0
LINE
  5
102
330
1F
100
AcDbEntity
  8
0
  6
K5LT_BASIC
 62
     5
420
      255
370
    60
100
AcDbLine
 10
-597.9294163015362
 20
48.15770197717507
 30
0.0
 11
-477.9294163015362
 21
48.15770197717507
 31
0.0
  0
LINE
  5
103
330
1F
100
AcDbEntity
  8
0
  6
K5LT_BASIC
 62
     5
420
      255
370
    60
100
AcDbLine
 10
-597.9294163015362
 20
23.95418868897752
 30
0.0
 11
-597.9294163015362
 21
48.15770197717507
 31
0.0
  0
LINE
  5
104
330
1F
100
AcDbEntity
  8
0
  6
K5LT_BASIC
 62
     5
420
      255
370
    60
100
AcDbLine
 10
-597.9294163015362
 20
3.954188688977524
 30
0.0
 11
-597.9294163015362
 21
-17.54820138928551
 31
0.0
  0
LWPOLYLINE
  5
105
330
1F
100
AcDbEntity
  8
0
  6
K5LT_BASIC
 62
     5
420
      255
100
AcDbPolyline
 90
        4
 70
     0
 43
0.6
 10
-597.9294163015362
 20
-37.54820138928551
 10
-607.9294163015362
 20
-37.54820138928551
 10
-607.9294163015362
 20
-17.54820138928551
 10
-597.9294163015362
 20
-17.54820138928551
  0
LWPOLYLINE
  5
106
330
1F
100
AcDbEntity
  8
0
  6
K5LT_BASIC
 62
     5
420
      255
100
AcDbPolyline
 90
        4
 70
     0
 43
0.6
 10
-597.9294163015362
 20
3.954188688977524
 10
-607.9294163015362
 20
3.954188688977524
 10
-607.9294163015362
 20
23.95418868897752
 10
-597.9294163015362
 20
23.95418868897752
  0
LINE
  5
107
330
1F
100
AcDbEntity
  8
0
  6
K5LT_BASIC
 62
     5
420
      255
370
    60
100
AcDbLine
 10
-477.9294163015362
 20
23.95418868897752
 30
0.0
 11
-477.9294163015362
 21
48.15770197717507
 31
0.0
  0
LINE
  5
108
330
1F
100
AcDbEntity
  8
0
  6
K5LT_BASIC
 62
     5
420
      255
370
    60
100
AcDbLine
 10
-477.9294163015362
 20
3.954188688977524
 30
0.0
 11
-477.9294163015362
 21
-17.54820138928551
 31
0.0
  0
LWPOLYLINE
  5
109
330
1F
100
AcDbEntity
  8
0
  6
K5LT_BASIC
 62
     5
420
      255
100
AcDbPolyline
 90
        4
 70
     0
 43
0.6
 10
-477.9294163015362
 20
-37.54820138928551
 10
-467.9294163015362
 20
-37.54820138928551
 10
-467.9294163015362
 20
-17.54820138928551
 10
-477.9294163015362
 20
-17.54820138928551
  0
LWPOLYLINE
  5
10A
330
1F
100
AcDbEntity
  8
0
  6
K5LT_BASIC
 62
     5
420
      255
100
AcDbPolyline
 90
        4
 70
     0
 43
0.6
 10
-477.9294163015362
 20
3.954188688977524
 10
-467.9294163015362
 20
3.954188688977524
 10
-467.9294163015362
 20
23.95418868897752
 10
-477.9294163015362
 20
23.95418868897752
  0
ARC
  5
10B
330
1F
100
AcDbEntity
  8
0
  6
K5LT_BASIC
 62
     5
420
      255
370
    60
100
AcDbCircle
 10
-537.9294163015362
 20
33.79446547305201
 30
0.0
 40
104.5641203379475
100
AcDbArc
 50
234.9836201508139
 51
305.0163798491861
  0
LINE
  5
10C
330
1F
100
AcDbEntity
  8
0
  6
K5LT_BASIC
 62
     5
420
      255
370
    60
100
AcDbLine
 10
-477.9294163015362
 20
-51.84229802282493
 30
0.0
 11
-477.9294163015362
 21
-37.54820138928551
 31
0.0
  0
LINE
  5
10D
330
1F
100
AcDbEntity
  8
0
  6
K5LT_BASIC
 62
     5
420
      255
370
    60
100
AcDbLine
 10
-597.9294163015362
 20
-51.84229802282493
 30
0.0
 11
-597.9294163015362
 21
-37.54820138928551
 31
0.0
  0
LINE
  5
10E
330
1F
100
AcDbEntity
  8
0
  6
K5LT_BASIC
 62
     5
420
      255
370
    60
100
AcDbLine
 10
-440.289660360024
 20
-67.7384568051095
 30
0.0
 11
-320.289660360024
 21
-67.7384568051095
 31
0.0
  0
LINE
  5
10F
330
1F
100
AcDbEntity
  8
0
  6
K5LT_BASIC
 62
     5
420
      255
370
    60
100
AcDbLine
 10
-440.289660360024
 20
-43.53494351691191
 30
0.0
 11
-440.289660360024
 21
-67.7384568051095
 31
0.0
  0
LINE
  5
110
330
1F
100
AcDbEntity
  8
0
  6
K5LT_BASIC
 62
     5
420
      255
370
    60
100
AcDbLine
 10
-440.289660360024
 20
-23.53494351691191
 30
0.0
 11
-440.289660360024
 21
-2.032553438648904
 31
0.0
  0
LINE
  5
111
330
1F
100
AcDbEntity
  8
0
  6
K5LT_BASIC
 62
     5
420
      255
370
    60
100
AcDbLine
 10
-440.289660360024
 20
32.26154319489052
 30
0.0
 11
-440.289660360024
 21
17.9674465613511
 31
0.0
  0
ARC
  5
112
330
1F
100
AcDbEntity
  8
0
  6
K5LT_BASIC
 62
     5
420
      255
370
    60
100
AcDbCircle
 10
-380.289660360024
 20
-53.37522030098641
 30
0.0
 40
104.5641203379475
100
AcDbArc
 50
54.98362015081384
 51
125.0163798491862
  0
LWPOLYLINE
  5
113
330
1F
100
AcDbEntity
  8
0
  6
K5LT_BASIC
 62
     5
420
      255
100
AcDbPolyline
 90
        4
 70
     0
 43
0.6
 10
-440.289660360024
 20
17.9674465613511
 10
-450.289660360024
 20
17.9674465613511
 10
-450.289660360024
 20
-2.032553438648904
 10
-440.289660360024
 20
-2.032553438648904
  0
LWPOLYLINE
  5
114
330
1F
100
AcDbEntity
  8
0
  6
K5LT_BASIC
 62
     5
420
      255
100
AcDbPolyline
 90
        4
 70
     0
 43
0.6
 10
-440.289660360024
 20
-23.53494351691191
 10
-450.289660360024
 20
-23.53494351691191
 10
-450.289660360024
 20
-43.53494351691191
 10
-440.289660360024
 20
-43.53494351691191
  0
LINE
  5
115
330
1F
100
AcDbEntity
  8
0
  6
K5LT_BASIC
 62
     5
420
      255
370
    60
100
AcDbLine
 10
-320.289660360024
 20
-43.53494351691191
 30
0.0
 11
-320.289660360024
 21
-67.7384568051095
 31
0.0
  0
LINE
  5
116
330
1F
100
AcDbEntity
  8
0
  6
K5LT_BASIC
 62
     5
420
      255
370
    60
100
AcDbLine
 10
-320.289660360024
 20
-23.53494351691191
 30
0.0
 11
-320.289660360024
 21
-2.032553438648904
 31
0.0
  0
LINE
  5
117
330
1F
100
AcDbEntity
  8
0
  6
K5LT_BASIC
 62
     5
420
      255
370
    60
100
AcDbLine
 10
-320.289660360024
 20
32.26154319489052
 30
0.0
 11
-320.289660360024
 21
17.9674465613511
 31
0.0
  0
LWPOLYLINE
  5
118
330
1F
100
AcDbEntity
  8
0
  6
K5LT_BASIC
 62
     5
420
      255
100
AcDbPolyline
 90
        4
 70
     0
 43
0.6
 10
-320.289660360024
 20
17.9674465613511
 10
-310.289660360024
 20
17.9674465613511
 10
-310.289660360024
 20
-2.032553438648904
 10
-320.289660360024
 20
-2.032553438648904
  0
LWPOLYLINE
  5
119
330
1F
100
AcDbEntity
  8
0
  6
K5LT_BASIC
 62
     5
420
      255
100
AcDbPolyline
 90
        4
 70
     0
 43
0.6
 10
-320.289660360024
 20
-23.53494351691191
 10
-310.289660360024
 20
-23.53494351691191
 10
-310.289660360024
 20
-43.53494351691191
 10
-320.289660360024
 20
-43.53494351691191
  0
ELLIPSE
  5
11A
330
1F
100
AcDbEntity
  8
0
  6
K5LT_BASIC
 62
     5
420
      255
370
    60
100
AcDbEllipse
 10
-610.7880255283324
 20
544.6543025147502
 30
0.0
 11
-2.622028330445678
 21
-1.191372080565633
 31
0.0
210
0.0
220
0.0
230
1.0
 40
0.9999999999999988
 41
-0.0143932449549338
 42
0.0
  0
ARC
  5
11B
330
1F
100
AcDbEntity
  8
0
  6
K5LT_BASIC
 62
     5
420
      255
370
    60
100
AcDbCircle
 10
-623.3422854431705
 20
542.4643559522448
 30
0.0
 40
6.831592415295709
100
AcDbArc
 50
97.54707916162414
 51
174.909209956006
  0
ARC
  5
11C
330
1F
100
AcDbEntity
  8
0
  6
K5LT_BASIC
 62
     5
420
      255
370
    60
100
AcDbCircle
 10
-622.5871530153318
 20
539.2931281522075
 30
0.0
 40
10.07999999999999
100
AcDbArc
 50
24.43564214063361
 51
99.43499448287204
  0
LWPOLYLINE
  5
11D
330
1F
100
AcDbEntity
  8
0
  6
K5LT_BASIC
 62
     5
420
      255
100
AcDbPolyline
 90
        4
 70
     0
 43
0.6
 10
-613.4269293846864
 20
543.5007920306492
 42
-0.1055469083870886
 10
-610.814958771865
 20
530.7319174490779
 10
-610.8121043818217
 20
530.8378475079647
 10
-611.9215939598562
 20
506.3830027348685
  0
LINE
  5
11E
330
1F
100
AcDbEntity
  8
0
  6
K5LT_BASIC
 62
     5
420
      255
370
    60
100
AcDbLine
 10
-607.9350638202808
 20
530.7073193223138
 30
0.0
 11
-609.1022093461471
 21
505.9093103202807
 31
0.0
  0
ARC
  5
11F
330
1F
100
AcDbEntity
  8
0
  6
K5LT_BASIC
 62
     5
420
      255
370
    60
100
AcDbCircle
 10
-531.6732159392429
 20
541.3705717247029
 30
0.0
 40
10.73449493295284
100
AcDbArc
 50
341.9369281084594
 51
85.91596280177667
  0
ARC
  5
120
330
1F
100
AcDbEntity
  8
0
  6
K5LT_BASIC
 62
     5
420
      255
370
    60
100
AcDbCircle
 10
-533.0332233805925
 20
539.2931281522075
 30
0.0
 40
12.95999999999999
100
AcDbArc
 50
80.56500551712675
 51
155.5643578593685
  0
ARC
  5
121
330
1F
100
AcDbEntity
  8
0
  6
K5LT_BASIC
 62
     5
420
      255
370
    60
100
AcDbCircle
 10
-513.5918120992694
 20
530.9985230851793
 30
0.0
 40
34.094744087088
100
AcDbArc
 50
156.3890300487816
 51
180.4893701331319
  0
ARC
  5
122
330
1F
100
AcDbEntity
  8
0
  6
K5LT_BASIC
 62
     5
420
      255
370
    60
100
AcDbCircle
 10
-525.7211524333304
 20
538.763544068862
 30
0.0
 40
4.314124859086514
100
AcDbArc
 50
86.70841813747927
 51
350.3745575187136
  0
ARC
  5
123
330
1F
100
AcDbEntity
  8
0
  6
K5LT_BASIC
 62
     5
420
      255
370
    60
100
AcDbCircle
 10
-556.830955978705
 20
470.565207375453
 30
0.0
 40
10.73449493295284
100
AcDbArc
 50
164.7963356717939
 51
268.7753703651107
  0
ARC
  5
124
330
1F
100
AcDbEntity
  8
0
  6
K5LT_BASIC
 62
     5
420
      255
370
    60
100
AcDbCircle
 10
-555.576275841211
 20
472.707908892232
 30
0.0
 40
12.95999999999999
100
AcDbArc
 50
263.4244130804607
 51
338.4237654227015
  0
ARC
  5
125
330
1F
100
AcDbEntity
  8
0
  6
K5LT_BASIC
 62
     5
420
      255
370
    60
100
AcDbCircle
 10
-575.4072609825967
 20
480.0223449025933
 30
0.0
 40
34.094744087088
100
AcDbArc
 50
339.2484376121158
 51
3.34877769646623
  0
ARC
  5
126
330
1F
100
AcDbEntity
  8
0
  6
K5LT_BASIC
 62
     5
420
      255
370
    60
100
AcDbCircle
 10
-556.1722702414003
 20
469.5029593734024
 30
0.0
 40
6.831592415295709
100
AcDbArc
 50
187.9501976073275
 51
265.3123284017104
  0
ARC
  5
127
330
1F
100
AcDbEntity
  8
0
  6
K5LT_BASIC
 62
     5
420
      255
370
    60
100
AcDbCircle
 10
-563.3232236138952
 20
472.5039260856915
 30
0.0
 40
3.964599875234763
100
AcDbArc
 50
275.5730569336092
 51
167.2287338492523
  0
LINE
  5
128
330
1F
100
AcDbEntity
  8
0
  6
K5LT_BASIC
 62
     5
420
      255
370
    60
100
AcDbLine
 10
-541.3707354175629
 20
482.0139527517521
 30
0.0
 11
-543.698782436068
 21
506.3830027348685
 31
0.0
  0
ARC
  5
129
330
1F
100
AcDbEntity
  8
0
  6
K5LT_BASIC
 62
     5
420
      255
370
    60
100
AcDbCircle
 10
-555.576275841211
 20
472.707908892232
 30
0.0
 40
10.07999999999999
100
AcDbArc
 50
263.4244130804616
 51
338.4237654227007
  0
ARC
  5
12A
330
1F
100
AcDbEntity
  8
0
  6
K5LT_BASIC
 62
     5
420
      255
370
    60
100
AcDbCircle
 10
-575.4147596685642
 20
480.0226954239909
 30
0.0
 40
31.22220950327699
100
AcDbArc
 50
339.3287786227861
 51
3.347331730864039
  0
LINE
  5
12B
330
1F
100
AcDbEntity
  8
0
  6
K5LT_BASIC
 62
     5
420
      255
370
    60
100
AcDbLine
 10
-544.245817670033
 20
481.8457206456266
 30
0.0
 11
-546.5181670497772
 21
505.9093103202807
 31
0.0
  0
ELLIPSE
  5
12C
330
1F
100
AcDbEntity
  8
0
  6
K5LT_BASIC
 62
     5
420
      255
370
    60
100
AcDbEllipse
 10
-544.8323508675919
 20
544.6543025147502
 30
0.0
 11
2.622028330445677
 21
-1.191372080565636
 31
0.0
210
0.0
220
0.0
230
1.0
 40
0.9999999999999987
 41
0.0
 42
0.0143932449549435
  0
ARC
  5
12D
330
1F
100
AcDbEntity
  8
0
  6
K5LT_BASIC
 62
     5
420
      255
370
    60
100
AcDbCircle
 10
-532.2780909527538
 20
542.4643559522448
 30
0.0
 40
6.831592415295709
100
AcDbArc
 50
5.09079004399399
 51
82.45292083837622
  0
ARC
  5
12E
330
1F
100
AcDbEntity
  8
0
  6
K5LT_BASIC
 62
     5
420
      255
370
    60
100
AcDbCircle
 10
-533.0332233805925
 20
539.2931281522075
 30
0.0
 40
10.07999999999999
100
AcDbArc
 50
80.56500551712796
 51
155.5643578593666
  0
LWPOLYLINE
  5
12F
330
1F
100
AcDbEntity
  8
0
  6
K5LT_BASIC
 62
     5
420
      255
100
AcDbPolyline
 90
        4
 70
     0
 43
0.6
 10
-542.1934470112378
 20
543.5007920306492
 42
0.1055469083870883
 10
-544.8054176240593
 20
530.7319174490779
 10
-544.8082720141026
 20
530.8378475079647
 10
-543.6987824360681
 20
506.3830027348685
  0
LINE
  5
130
330
1F
100
AcDbEntity
  8
0
  6
K5LT_BASIC
 62
     5
420
      255
370
    60
100
AcDbLine
 10
-547.6853125756435
 20
530.7073193223138
 30
0.0
 11
-546.5181670497772
 21
505.9093103202807
 31
0.0
  0
ARC
  5
131
330
1F
100
AcDbEntity
  8
0
  6
K5LT_BASIC
 62
     5
420
      255
370
    60
100
AcDbCircle
 10
-418.92847978921
 20
146.0095975680318
 30
0.0
 40
64.00000000000003
100
AcDbArc
 50
165.3558514480347
 51
220.0360697916834
  0
ARC
  5
132
330
1F
100
AcDbEntity
  8
0
  6
K5LT_BASIC
 62
     5
420
      255
370
    60
100
AcDbCircle
 10
-389.0511232554321
 20
140.3880324590901
 30
0.0
 40
94.3516926490541
100
AcDbArc
 50
151.9149750098114
 51
166.6400023321141
  0
ARC
  5
133
330
1F
100
AcDbEntity
  8
0
  6
K5LT_BASIC
 62
     5
420
      255
370
    60
100
AcDbCircle
 10
-500.708473001131
 20
197.1987821575764
 30
0.0
 40
30.99999999999995
100
AcDbArc
 50
336.4384851627906
 51
16.30046479961954
  0
ARC
  5
134
330
1F
100
AcDbEntity
  8
0
  6
K5LT_BASIC
 62
     5
420
      255
370
    60
100
AcDbCircle
 10
-480.3214128107038
 20
243.2859173573894
 30
0.0
 40
38.54176240168474
100
AcDbArc
 50
284.0654867657037
 51
346.0968094977455
  0
ARC
  5
135
330
1F
100
AcDbEntity
  8
0
  6
K5LT_BASIC
 62
     5
420
      255
370
    60
100
AcDbCircle
 10
-497.4221473959645
 20
251.6564405244895
 30
0.0
 40
57.29372986550695
100
AcDbArc
 50
342.0770765917351
 51
20.65041644810653
  0
ARC
  5
136
330
1F
100
AcDbEntity
  8
0
  6
K5LT_BASIC
 62
     5
420
      255
370
    60
100
AcDbCircle
 10
-462.2550315672105
 20
264.1311793848673
 30
0.0
 40
19.99999999999993
100
AcDbArc
 50
22.73926932388104
 51
88.25526226391406
  0
ARC
  5
137
330
1F
100
AcDbEntity
  8
0
  6
K5LT_BASIC
 62
     5
420
      255
370
    60
100
AcDbCircle
 10
-481.9668932124004
 20
294.8952657662616
 30
0.0
 40
23.00000000000022
100
AcDbArc
 50
332.0690658447044
 51
19.62245069875531
  0
ARC
  5
138
330
1F
100
AcDbEntity
  8
0
  6
K5LT_BASIC
 62
     5
420
      255
370
    60
100
AcDbCircle
 10
-398.4410790553678
 20
331.7447233017429
 30
0.0
 40
68.3750457523114
100
AcDbArc
 50
95.93856657347317
 51
205.2119504579143
  0
ARC
  5
139
330
1F
100
AcDbEntity
  8
0
  6
K5LT_BASIC
 62
     5
420
      255
370
    60
100
AcDbCircle
 10
-355.1037688670807
 20
146.0095975680318
 30
0.0
 40
64.00000000000003
100
AcDbArc
 50
319.9639302083165
 51
14.64414855196534
  0
ARC
  5
13A
330
1F
100
AcDbEntity
  8
0
  6
K5LT_BASIC
 62
     5
420
      255
370
    60
100
AcDbCircle
 10
-384.9811254008588
 20
140.3880324590901
 30
0.0
 40
94.3516926490541
100
AcDbArc
 50
13.35999766788595
 51
28.08502499018865
  0
ARC
  5
13B
330
1F
100
AcDbEntity
  8
0
  6
K5LT_BASIC
 62
     5
420
      255
370
    60
100
AcDbCircle
 10
-273.3237756551599
 20
197.1987821575764
 30
0.0
 40
30.99999999999995
100
AcDbArc
 50
163.6995352003805
 51
203.5615148372093
  0
ARC
  5
13C
330
1F
100
AcDbEntity
  8
0
  6
K5LT_BASIC
 62
     5
420
      255
370
    60
100
AcDbCircle
 10
-293.710835845587
 20
243.2859173573894
 30
0.0
 40
38.54176240168474
100
AcDbArc
 50
193.9031905022545
 51
255.9345132342963
  0
ARC
  5
13D
330
1F
100
AcDbEntity
  8
0
  6
K5LT_BASIC
 62
     5
420
      255
370
    60
100
AcDbCircle
 10
-276.6101012603263
 20
251.6564405244895
 30
0.0
 40
57.29372986550695
100
AcDbArc
 50
159.3495835518932
 51
197.9229234082648
  0
ARC
  5
13E
330
1F
100
AcDbEntity
  8
0
  6
K5LT_BASIC
 62
     5
420
      255
370
    60
100
AcDbCircle
 10
-311.7772170890804
 20
264.1311793848673
 30
0.0
 40
19.99999999999993
100
AcDbArc
 50
91.74473773608597
 51
157.260730676119
  0
ARC
  5
13F
330
1F
100
AcDbEntity
  8
0
  6
K5LT_BASIC
 62
     5
420
      255
370
    60
100
AcDbCircle
 10
-292.0653554438905
 20
294.8952657662616
 30
0.0
 40
23.00000000000022
100
AcDbArc
 50
160.3775493012447
 51
207.9309341552955
  0
ARC
  5
140
330
1F
100
AcDbEntity
  8
0
  6
K5LT_BASIC
 62
     5
420
      255
370
    60
100
AcDbCircle
 10
-375.5367210088883
 20
331.7469530829779
 30
0.0
 40
68.32673849625633
100
AcDbArc
 50
334.7669089418937
 51
84.44514303476727
  0
LINE
  5
141
330
1F
100
AcDbEntity
  8
0
  6
K5LT_BASIC
 62
     5
420
      255
370
    60
100
AcDbLine
 10
-467.9294163015363
 20
104.8403345078922
 30
0.0
 11
-306.1028323547546
 21
104.8403345078922
 31
0.0
  0
LINE
  5
142
330
1F
100
AcDbEntity
  8
0
  6
K5LT_BASIC
 62
     5
420
      255
370
    60
100
AcDbLine
 10
-373.6875485054887
 20
650.5395305797015
 30
0.0
 11
-374.5161243281453
 21
654.4527724718043
 31
0.0
  0
ARC
  5
143
330
1F
100
AcDbEntity
  8
0
  6
K5LT_BASIC
 62
     5
420
      255
370
    60
100
AcDbCircle
 10
-367.2134049360506
 20
653.201384265067
 30
0.0
 40
6.999999999999377
100
AcDbArc
 50
202.3500866960458
 51
246.350547494788
  0
LWPOLYLINE
  5
144
330
1F
100
AcDbEntity
  8
0
  6
K5LT_BASIC
 62
     5
420
      255
100
AcDbPolyline
 90
        8
 70
     0
 43
0.6
 10
-370.0213835660973
 20
646.7892663611922
 10
-363.9019788986948
 20
644.8749468397951
 10
-358.9447190348533
 20
642.6740873850873
 10
-355.1429641105213
 20
640.1438861761859
 10
-352.4860186669121
 20
637.2133524098617
 10
-350.9537472957246
 20
633.7474310619016
 10
-350.4946172554523
 20
629.4175047175883
 10
-350.5039410520965
 20
628.8509028086376
  0
LWPOLYLINE
  5
145
330
1F
100
AcDbEntity
  8
0
  6
K5LT_BASIC
 62
     5
420
      255
100
AcDbPolyline
 90
        8
 70
     0
 43
0.6
 10
-374.4230176616907
 20
609.8520038218253
 10
-367.577233222638
 20
611.602709406861
 10
-361.8966106962658
 20
613.6211656706295
 10
-357.3759617807258
 20
615.9400930370311
 10
-354.0074438805625
 20
618.6106564646568
 10
-351.777792013263
 20
621.7215409553689
 10
-350.6597128665822
 20
625.4544491554786
 10
-350.5039410520965
 20
628.8509028086376
  0
LINE
  5
146
330
1F
100
AcDbEntity
  8
0
  6
K5LT_BASIC
 62
     5
420
      255
370
    60
100
AcDbLine
 10
-373.5468773034346
 20
576.3850247567332
 30
0.0
 11
-361.5468773034346
 21
576.3850247567332
 31
0.0
  0
LINE
  5
147
330
1F
100
AcDbEntity
  8
0
  6
K5LT_BASIC
 62
     5
420
      255
370
    60
100
AcDbLine
 10
-373.7869066110508
 20
585.5537107295925
 30
0.0
 11
-361.7869066110508
 21
585.5537107295925
 31
0.0
  0
LINE
  5
148
330
1F
100
AcDbEntity
  8
0
  6
K5LT_BASIC
 62
     5
420
      255
370
    60
100
AcDbLine
 10
-361.7869066110508
 20
585.5537107295925
 30
0.0
 11
-361.7869066110508
 21
595.5537107295925
 31
0.0
  0
LINE
  5
149
330
1F
100
AcDbEntity
  8
0
  6
K5LT_BASIC
 62
     5
420
      255
370
    60
100
AcDbLine
 10
-361.5468773034346
 20
576.3850247567332
 30
0.0
 11
-361.5468773034346
 21
566.3850247567332
 31
0.0
  0
ARC
  5
14A
330
1F
100
AcDbEntity
  8
0
  6
K5LT_BASIC
 62
     5
420
      255
370
    60
100
AcDbCircle
 10
-360.365597346278
 20
580.9800761050262
 30
0.0
 40
14.6427779535336
100
AcDbArc
 50
265.3727368732884
 51
95.57021653116492
  0
LINE
  5
14B
330
1F
100
AcDbEntity
  8
0
  6
K5LT_BASIC
 62
     5
420
      255
370
    60
100
AcDbLine
 10
-372.6718394741869
 20
542.9601603081976
 30
0.0
 11
-360.6718394741869
 21
542.9601603081976
 31
0.0
  0
LINE
  5
14C
330
1F
100
AcDbEntity
  8
0
  6
K5LT_BASIC
 62
     5
420
      255
370
    60
100
AcDbLine
 10
-372.911868781803
 20
552.1288462810569
 30
0.0
 11
-360.911868781803
 21
552.1288462810569
 31
0.0
  0
LINE
  5
14D
330
1F
100
AcDbEntity
  8
0
  6
K5LT_BASIC
 62
     5
420
      255
370
    60
100
AcDbLine
 10
-360.911868781803
 20
552.1288462810569
 30
0.0
 11
-360.911868781803
 21
562.1288462810569
 31
0.0
  0
ARC
  5
14E
330
1F
100
AcDbEntity
  8
0
  6
K5LT_BASIC
 62
     5
420
      255
370
    60
100
AcDbCircle
 10
-359.4905595170303
 20
547.5552116564907
 30
0.0
 40
14.6427779535336
100
AcDbArc
 50
265.3727368732884
 51
95.57021653116492
  0
LINE
  5
14F
330
1F
100
AcDbEntity
  8
0
  6
K5LT_BASIC
 62
     5
420
      255
370
    60
100
AcDbLine
 10
-360.6718394741869
 20
542.9601603081976
 30
0.0
 11
-360.6718394741869
 21
532.9601603081976
 31
0.0
  0
LINE
  5
150
330
1F
100
AcDbEntity
  8
0
  6
K5LT_BASIC
 62
     5
420
      255
370
    60
100
AcDbLine
 10
-372.6718394741869
 20
542.9601603081976
 30
0.0
 11
-368.9227791375771
 21
399.7528275826027
 31
0.0
  0
LINE
  5
151
330
1F
100
AcDbEntity
  8
0
  6
K5LT_BASIC
 62
     5
420
      255
370
    60
100
AcDbLine
 10
-373.5468773034346
 20
576.3850247567332
 30
0.0
 11
-372.911868781803
 21
552.1288462810569
 31
0.0
  0
LINE
  5
152
330
1F
100
AcDbEntity
  8
0
  6
K5LT_BASIC
 62
     5
420
      255
370
    60
100
AcDbLine
 10
-374.4230176616907
 20
609.8520038218253
 30
0.0
 11
-373.7869066110508
 21
585.5537107295925
 31
0.0
  0
LINE
  5
153
330
1F
100
AcDbEntity
  8
0
  6
K5LT_BASIC
 62
     5
420
      255
370
    60
100
AcDbLine
 10
-399.5161243281453
 20
654.4527724718043
 30
0.0
 11
-374.5161243281453
 21
654.4527724718043
 31
0.0
  0
LINE
  5
154
330
1F
100
AcDbEntity
  8
0
  6
K5LT_BASIC
 62
     5
420
      255
370
    60
100
AcDbLine
 10
-400.9447298088944
 20
574.3404386142181
 30
0.0
 11
-412.9447298088944
 21
574.3404386142181
 31
0.0
  0
LINE
  5
155
330
1F
100
AcDbEntity
  8
0
  6
K5LT_BASIC
 62
     5
420
      255
370
    60
100
AcDbLine
 10
-401.1847591165106
 20
565.1717526413588
 30
0.0
 11
-413.1847591165106
 21
565.1717526413588
 31
0.0
  0
LINE
  5
156
330
1F
100
AcDbEntity
  8
0
  6
K5LT_BASIC
 62
     5
420
      255
370
    60
100
AcDbLine
 10
-413.1847591165106
 20
565.1717526413588
 30
0.0
 11
-413.1847591165106
 21
555.1717526413588
 31
0.0
  0
ARC
  5
157
330
1F
100
AcDbEntity
  8
0
  6
K5LT_BASIC
 62
     5
420
      255
370
    60
100
AcDbCircle
 10
-414.3660390736671
 20
569.7668039896519
 30
0.0
 40
14.6427779535336
100
AcDbArc
 50
84.42978346883511
 51
274.6272631267116
  0
LINE
  5
158
330
1F
100
AcDbEntity
  8
0
  6
K5LT_BASIC
 62
     5
420
      255
370
    60
100
AcDbLine
 10
-412.9447298088944
 20
574.3404386142181
 30
0.0
 11
-412.9447298088944
 21
584.3404386142181
 31
0.0
  0
LINE
  5
159
330
1F
100
AcDbEntity
  8
0
  6
K5LT_BASIC
 62
     5
420
      255
370
    60
100
AcDbLine
 10
-400.3153974505545
 20
598.3797979053118
 30
0.0
 11
-417.0622562836979
 21
598.3797979053118
 31
0.0
  0
LINE
  5
15A
330
1F
100
AcDbEntity
  8
0
  6
K5LT_BASIC
 62
     5
420
      255
370
    60
100
AcDbLine
 10
-400.5554267581707
 20
589.2111119324525
 30
0.0
 11
-417.0622562836979
 21
589.2111119324525
 31
0.0
  0
ARC
  5
15B
330
1F
100
AcDbEntity
  8
0
  6
K5LT_BASIC
 62
     5
420
      255
370
    60
100
AcDbCircle
 10
-417.1420481522109
 20
593.7954549188823
 30
0.0
 40
4.585037334581638
100
AcDbArc
 50
89.00285041023278
 51
270.9971495897671
  0
LWPOLYLINE
  5
15C
330
1F
100
AcDbEntity
  8
0
  6
K5LT_BASIC
 62
     5
420
      255
100
AcDbPolyline
 90
        8
 70
     0
 43
0.6
 10
-404.0108650901934
 20
646.7892663611922
 10
-410.130269757596
 20
644.8749468397953
 10
-415.0875296214374
 20
642.6740873850872
 10
-418.8892845457694
 20
640.1438861761858
 10
-421.5462299893786
 20
637.2133524098615
 10
-423.078501360566
 20
633.7474310619016
 10
-423.5376314008383
 20
629.4175047175883
 10
-423.5283076041942
 20
628.8509028086376
  0
LINE
  5
15D
330
1F
100
AcDbEntity
  8
0
  6
K5LT_BASIC
 62
     5
420
      255
370
    60
100
AcDbLine
 10
-400.3447001508019
 20
650.5395305797015
 30
0.0
 11
-399.5161243281453
 21
654.4527724718043
 31
0.0
  0
ARC
  5
15E
330
1F
100
AcDbEntity
  8
0
  6
K5LT_BASIC
 62
     5
420
      255
370
    60
100
AcDbCircle
 10
-406.8188437202401
 20
653.201384265067
 30
0.0
 40
6.999999999999377
100
AcDbArc
 50
293.649452505212
 51
337.6499133039542
  0
LWPOLYLINE
  5
15F
330
1F
100
AcDbEntity
  8
0
  6
K5LT_BASIC
 62
     5
420
      255
100
AcDbPolyline
 90
        8
 70
     0
 43
0.6
 10
-399.6092309946
 20
609.8520038218253
 10
-406.4550154336528
 20
611.6027094068609
 10
-412.1356379600248
 20
613.6211656706294
 10
-416.6562868755648
 20
615.940093037031
 10
-420.0248047757281
 20
618.6106564646568
 10
-422.2544566430277
 20
621.7215409553688
 10
-423.3725357897084
 20
625.4544491554784
 10
-423.5283076041942
 20
628.8509028086376
  0
LINE
  5
160
330
1F
100
AcDbEntity
  8
0
  6
K5LT_BASIC
 62
     5
420
      255
370
    60
100
AcDbLine
 10
-399.6092309946
 20
609.8520038218253
 30
0.0
 11
-400.3153974505545
 21
598.3797979053118
 31
0.0
  0
LINE
  5
161
330
1F
100
AcDbEntity
  8
0
  6
K5LT_BASIC
 62
     5
420
      255
370
    60
100
AcDbLine
 10
-400.5554267581707
 20
589.2111119324525
 30
0.0
 11
-400.9447298088944
 21
574.3404386142181
 31
0.0
  0
LINE
  5
162
330
1F
100
AcDbEntity
  8
0
  6
K5LT_BASIC
 62
     5
420
      255
370
    60
100
AcDbLine
 10
-401.1847591165106
 20
565.1717526413588
 30
0.0
 11
-405.5153022462449
 21
399.7528275826029
 31
0.0
  0
INSERT
  5
164
330
1F
100
AcDbEntity
  8
0
100
AcDbBlockReference
  2
U4
 10
0.0
 20
0.0
 30
0.0
  0
ARC
  5
16B
330
1F
100
AcDbEntity
  8
0
  6
K5LT_BASIC
 62
     5
420
      255
370
    60
100
AcDbCircle
 10
-433.263460413909
 20
192.3206655918269
 30
0.0
 40
10.73449493295284
100
AcDbArc
 50
161.9369281084594
 51
265.9159628017767
  0
ARC
  5
16C
330
1F
100
AcDbEntity
  8
0
  6
K5LT_BASIC
 62
     5
420
      255
370
    60
100
AcDbCircle
 10
-431.9034529725594
 20
194.3981091643224
 30
0.0
 40
12.95999999999999
100
AcDbArc
 50
260.5650055171267
 51
335.5643578593685
  0
ARC
  5
16D
330
1F
100
AcDbEntity
  8
0
  6
K5LT_BASIC
 62
     5
420
      255
370
    60
100
AcDbCircle
 10
-451.3448642538825
 20
202.6927142313506
 30
0.0
 40
34.094744087088
100
AcDbArc
 50
336.3890300487816
 51
0.4893701331318844
  0
ARC
  5
16E
330
1F
100
AcDbEntity
  8
0
  6
K5LT_BASIC
 62
     5
420
      255
370
    60
100
AcDbCircle
 10
-439.2155239198215
 20
194.9276932476677
 30
0.0
 40
4.314124859086343
100
AcDbArc
 50
266.7084181374792
 51
170.3745575187115
  0
ARC
  5
16F
330
1F
100
AcDbEntity
  8
0
  6
K5LT_BASIC
 62
     5
420
      255
370
    60
100
AcDbCircle
 10
-408.1057203744469
 20
263.1260299410768
 30
0.0
 40
10.73449493295284
100
AcDbArc
 50
344.7963356717939
 51
88.77537036511066
  0
ARC
  5
170
330
1F
100
AcDbEntity
  8
0
  6
K5LT_BASIC
 62
     5
420
      255
370
    60
100
AcDbCircle
 10
-409.360400511941
 20
260.9833284242978
 30
0.0
 40
12.95999999999999
100
AcDbArc
 50
83.42441308046072
 51
158.4237654227015
  0
ARC
  5
171
330
1F
100
AcDbEntity
  8
0
  6
K5LT_BASIC
 62
     5
420
      255
370
    60
100
AcDbCircle
 10
-389.5294153705553
 20
253.6688924139365
 30
0.0
 40
34.094744087088
100
AcDbArc
 50
159.2484376121158
 51
183.3487776964662
  0
ARC
  5
172
330
1F
100
AcDbEntity
  8
0
  6
K5LT_BASIC
 62
     5
420
      255
370
    60
100
AcDbCircle
 10
-408.7644061117517
 20
264.1882779431274
 30
0.0
 40
6.831592415295709
100
AcDbArc
 50
7.950197607327532
 51
85.31232840171043
  0
ARC
  5
173
330
1F
100
AcDbEntity
  8
0
  6
K5LT_BASIC
 62
     5
420
      255
370
    60
100
AcDbCircle
 10
-401.6134527392568
 20
261.1873112308383
 30
0.0
 40
3.964599875234763
100
AcDbArc
 50
95.57305693360911
 51
347.2287338492523
  0
LINE
  5
174
330
1F
100
AcDbEntity
  8
0
  6
K5LT_BASIC
 62
     5
420
      255
370
    60
100
AcDbLine
 10
-423.5659409355891
 20
251.6772845647778
 30
0.0
 11
-421.237893917084
 21
227.3082345816614
 31
0.0
  0
ARC
  5
175
330
1F
100
AcDbEntity
  8
0
  6
K5LT_BASIC
 62
     5
420
      255
370
    60
100
AcDbCircle
 10
-409.360400511941
 20
260.9833284242978
 30
0.0
 40
10.07999999999999
100
AcDbArc
 50
83.42441308046165
 51
158.4237654227007
  0
ELLIPSE
  5
176
330
1F
100
AcDbEntity
  8
0
  6
K5LT_BASIC
 62
     5
420
      255
370
    60
100
AcDbEllipse
 10
-421.4122816271778
 20
265.7492240992202
 30
0.0
 11
2.678195803387375
 21
-1.059087927761093
 31
0.0
210
0.0
220
0.0
230
1.0
 40
0.9999999999999987
 41
0.0
 42
0.0143932449549986
  0
ARC
  5
177
330
1F
100
AcDbEntity
  8
0
  6
K5LT_BASIC
 62
     5
420
      255
370
    60
100
AcDbCircle
 10
-389.4812000140393
 20
253.6562195344105
 30
0.0
 40
31.26432214749104
100
AcDbArc
 50
159.2580273079041
 51
183.1262629891071
  0
LINE
  5
178
330
1F
100
AcDbEntity
  8
0
  6
K5LT_BASIC
 62
     5
420
      255
370
    60
100
AcDbLine
 10
-420.6989938787518
 20
251.9511724493078
 30
0.0
 11
-418.4185093033748
 21
227.7819269962491
 31
0.0
  0
INSERT
  5
17A
330
1F
100
AcDbEntity
  8
0
100
AcDbBlockReference
  2
U5
 10
0.0
 20
0.0
 30
0.0
  0
ELLIPSE
  5
181
330
1F
100
AcDbEntity
  8
0
  6
K5LT_BASIC
 62
     5
420
      255
370
    60
100
AcDbEllipse
 10
-420.8280412640285
 20
264.923694390547
 30
0.0
 11
2.465696600968479
 21
-1.488200346722014
 31
0.0
210
0.0
220
0.0
230
1.0
 40
0.9999999999999984
 41
0.0
 42
0.0143932449549401
  0
INSERT
  5
183
330
1F
100
AcDbEntity
  8
0
100
AcDbBlockReference
  2
U6
 10
0.0
 20
0.0
 30
0.0
  0
INSERT
  5
18B
330
1F
100
AcDbEntity
  8
0
100
AcDbBlockReference
  2
U7
 10
0.0
 20
0.0
 30
0.0
  0
ELLIPSE
  5
192
330
1F
100
AcDbEntity
  8
0
  6
K5LT_BASIC
 62
     5
420
      255
370
    60
100
AcDbEllipse
 10
-420.10432548556
 20
189.0369348017797
 30
0.0
 11
-2.622028330445677
 21
1.191372080565635
 31
0.0
210
0.0
220
0.0
230
1.0
 40
0.9999999999999987
 41
0.0
 42
0.0143932449549435
  0
ARC
  5
193
330
1F
100
AcDbEntity
  8
0
  6
K5LT_BASIC
 62
     5
420
      255
370
    60
100
AcDbCircle
 10
-432.6585854003981
 20
191.2268813642851
 30
0.0
 40
6.831592415295709
100
AcDbArc
 50
185.090790043994
 51
262.4529208383762
  0
ARC
  5
194
330
1F
100
AcDbEntity
  8
0
  6
K5LT_BASIC
 62
     5
420
      255
370
    60
100
AcDbCircle
 10
-431.9034529725594
 20
194.3981091643224
 30
0.0
 40
10.07999999999999
100
AcDbArc
 50
260.565005517128
 51
335.5643578593666
  0
LWPOLYLINE
  5
195
330
1F
100
AcDbEntity
  8
0
  6
K5LT_BASIC
 62
     5
420
      255
100
AcDbPolyline
 90
        4
 70
     0
 43
0.6
 10
-422.7432293419141
 20
190.1904452858806
 42
0.1055469083870886
 10
-420.1312587290926
 20
202.9593198674519
 10
-420.1284043390493
 20
202.8533898085651
 10
-421.2378939170839
 20
227.3082345816614
  0
LINE
  5
196
330
1F
100
AcDbEntity
  8
0
  6
K5LT_BASIC
 62
     5
420
      255
370
    60
100
AcDbLine
 10
-417.2513637775085
 20
202.9839179942161
 30
0.0
 11
-418.4185093033748
 21
227.7819269962491
 31
0.0
  0
ARC
  5
197
330
1F
100
AcDbEntity
  8
0
  6
K5LT_BASIC
 62
     5
420
      255
370
    60
100
AcDbCircle
 10
-340.9895158964706
 20
192.3206655918269
 30
0.0
 40
10.73449493295284
100
AcDbArc
 50
274.0840371982233
 51
18.06307189154062
  0
ARC
  5
198
330
1F
100
AcDbEntity
  8
0
  6
K5LT_BASIC
 62
     5
420
      255
370
    60
100
AcDbCircle
 10
-342.3495233378202
 20
194.3981091643224
 30
0.0
 40
12.95999999999999
100
AcDbArc
 50
204.4356421406314
 51
279.4349944828733
  0
ARC
  5
199
330
1F
100
AcDbEntity
  8
0
  6
K5LT_BASIC
 62
     5
420
      255
370
    60
100
AcDbCircle
 10
-322.9081120564971
 20
202.6927142313506
 30
0.0
 40
34.094744087088
100
AcDbArc
 50
179.5106298668681
 51
203.6109699512184
  0
ARC
  5
19A
330
1F
100
AcDbEntity
  8
0
  6
K5LT_BASIC
 62
     5
420
      255
370
    60
100
AcDbCircle
 10
-335.0374523905581
 20
194.9276932476677
 30
0.0
 40
4.314124859086343
100
AcDbArc
 50
9.62544248128851
 51
273.2915818625208
  0
ARC
  5
19B
330
1F
100
AcDbEntity
  8
0
  6
K5LT_BASIC
 62
     5
420
      255
370
    60
100
AcDbCircle
 10
-366.1472559359327
 20
263.1260299410768
 30
0.0
 40
10.73449493295284
100
AcDbArc
 50
91.22462963488933
 51
195.2036643282061
  0
ARC
  5
19C
330
1F
100
AcDbEntity
  8
0
  6
K5LT_BASIC
 62
     5
420
      255
370
    60
100
AcDbCircle
 10
-364.8925757984387
 20
260.9833284242978
 30
0.0
 40
12.95999999999999
100
AcDbArc
 50
21.5762345772985
 51
96.5755869195393
  0
ARC
  5
19D
330
1F
100
AcDbEntity
  8
0
  6
K5LT_BASIC
 62
     5
420
      255
370
    60
100
AcDbCircle
 10
-384.7235609398243
 20
253.6688924139365
 30
0.0
 40
34.094744087088
100
AcDbArc
 50
356.6512223035338
 51
20.75156238788417
  0
ARC
  5
19E
330
1F
100
AcDbEntity
  8
0
  6
K5LT_BASIC
 62
     5
420
      255
370
    60
100
AcDbCircle
 10
-365.4885701986279
 20
264.1882779431274
 30
0.0
 40
6.831592415295709
100
AcDbArc
 50
94.68767159828958
 51
172.0498023926725
  0
ARC
  5
19F
330
1F
100
AcDbEntity
  8
0
  6
K5LT_BASIC
 62
     5
420
      255
370
    60
100
AcDbCircle
 10
-372.6395235711228
 20
261.1873112308383
 30
0.0
 40
3.964599875234763
100
AcDbArc
 50
192.7712661507477
 51
84.42694306639092
  0
LINE
  5
1A0
330
1F
100
AcDbEntity
  8
0
  6
K5LT_BASIC
 62
     5
420
      255
370
    60
100
AcDbLine
 10
-350.6870353747905
 20
251.6772845647778
 30
0.0
 11
-353.0150823932956
 21
227.3082345816614
 31
0.0
  0
ARC
  5
1A1
330
1F
100
AcDbEntity
  8
0
  6
K5LT_BASIC
 62
     5
420
      255
370
    60
100
AcDbCircle
 10
-364.8925757984387
 20
260.9833284242978
 30
0.0
 40
10.07999999999999
100
AcDbArc
 50
21.57623457729932
 51
96.57558691953835
  0
ELLIPSE
  5
1A2
330
1F
100
AcDbEntity
  8
0
  6
K5LT_BASIC
 62
     5
420
      255
370
    60
100
AcDbEllipse
 10
-352.8406946832018
 20
265.7492240992202
 30
0.0
 11
-2.678195803387375
 21
-1.059087927761093
 31
0.0
210
0.0
220
0.0
230
1.0
 40
0.9999999999999987
 41
-0.0143932449549986
 42
0.0
  0
ARC
  5
1A3
330
1F
100
AcDbEntity
  8
0
  6
K5LT_BASIC
 62
     5
420
      255
370
    60
100
AcDbCircle
 10
-384.5930435311525
 20
253.683913919114
 30
0.0
 40
31.08738822965378
100
AcDbArc
 50
356.804805558589
 51
20.81090414439992
  0
LINE
  5
1A4
330
1F
100
AcDbEntity
  8
0
  6
K5LT_BASIC
 62
     5
420
      255
370
    60
100
AcDbLine
 10
-353.5539824316278
 20
251.9511724493078
 30
0.0
 11
-355.8344670070048
 21
227.7819269962491
 31
0.0
  0
ELLIPSE
  5
1A5
330
1F
100
AcDbEntity
  8
0
  6
K5LT_BASIC
 62
     5
420
      255
370
    60
100
AcDbEllipse
 10
-353.4249350463512
 20
264.923694390547
 30
0.0
 11
-2.465696600968481
 21
-1.488200346722011
 31
0.0
210
0.0
220
0.0
230
1.0
 40
0.9999999999999987
 41
-0.01439324495494
 42
0.0
  0
ELLIPSE
  5
1A6
330
1F
100
AcDbEntity
  8
0
  6
K5LT_BASIC
 62
     5
420
      255
370
    60
100
AcDbEllipse
 10
-354.1486508248196
 20
189.0369348017797
 30
0.0
 11
2.622028330445677
 21
1.191372080565635
 31
0.0
210
0.0
220
0.0
230
1.0
 40
0.9999999999999987
 41
-0.01439324495498
 42
0.0
  0
ARC
  5
1A7
330
1F
100
AcDbEntity
  8
0
  6
K5LT_BASIC
 62
     5
420
      255
370
    60
100
AcDbCircle
 10
-341.5943909099815
 20
191.2268813642851
 30
0.0
 40
6.831592415295709
100
AcDbArc
 50
277.5470791616238
 51
354.909209956006
  0
ARC
  5
1A8
330
1F
100
AcDbEntity
  8
0
  6
K5LT_BASIC
 62
     5
420
      255
370
    60
100
AcDbCircle
 10
-342.3495233378202
 20
194.3981091643224
 30
0.0
 40
10.07999999999999
100
AcDbArc
 50
204.4356421406334
 51
279.434994482872
  0
LWPOLYLINE
  5
1A9
330
1F
100
AcDbEntity
  8
0
  6
K5LT_BASIC
 62
     5
420
      255
100
AcDbPolyline
 90
        4
 70
     0
 43
0.6
 10
-351.5097469684655
 20
190.1904452858806
 42
-0.1055469083870882
 10
-354.121717581287
 20
202.9593198674519
 10
-354.1245719713303
 20
202.8533898085651
 10
-353.0150823932958
 20
227.3082345816614
  0
LINE
  5
1AA
330
1F
100
AcDbEntity
  8
0
  6
K5LT_BASIC
 62
     5
420
      255
370
    60
100
AcDbLine
 10
-357.0016125328711
 20
202.9839179942161
 30
0.0
 11
-355.8344670070048
 21
227.7819269962491
 31
0.0
  0
ENDSEC
  0
SECTION
  2
OBJECTS
  0
DICTIONARY
  5
C
330
0
100
AcDbDictionary
281
     1
  3
ACAD_GROUP
350
D
  3
ACAD_LAYOUT
350
1A
  3
ACAD_MLEADERSTYLE
350
1AC
  3
ACAD_MLINESTYLE
350
17
  3
ACAD_PLOTSETTINGS
350
19
  3
ACAD_PLOTSTYLENAME
350
E
  3
ACAD_TABLESTYLE
350
1AB
  3
ACAD_VISUALSTYLE
350
2A
  0
DICTIONARY
  5
D
102
{ACAD_REACTORS
330
C
102
}
330
C
100
AcDbDictionary
281
     1
  0
DICTIONARY
  5
1A
102
{ACAD_REACTORS
330
C
102
}
330
C
100
AcDbDictionary
281
     1
  3
Layout1
350
1E
  3
Layout2
350
26
  3
Model
350
22
  0
DICTIONARY
  5
1AC
102
{ACAD_REACTORS
330
C
102
}
330
C
100
AcDbDictionary
281
     1
  0
DICTIONARY
  5
17
102
{ACAD_REACTORS
330
C
102
}
330
C
100
AcDbDictionary
281
     1
  3
Standard
350
18
  0
DICTIONARY
  5
19
102
{ACAD_REACTORS
330
C
102
}
330
C
100
AcDbDictionary
281
     1
  0
ACDBDICTIONARYWDFLT
  5
E
102
{ACAD_REACTORS
330
C
102
}
330
C
100
AcDbDictionary
281
     1
  3
Normal
350
F
100
AcDbDictionaryWithDefault
340
F
  0
DICTIONARY
  5
1AB
102
{ACAD_REACTORS
330
C
102
}
330
C
100
AcDbDictionary
281
     1
  0
DICTIONARY
  5
2A
102
{ACAD_REACTORS
330
C
102
}
330
C
100
AcDbDictionary
281
     1
  3
2dWireframe
350
2F
  3
3D Hidden
350
31
  3
3dWireframe
350
30
  3
Basic
350
32
  3
Brighten
350
36
  3
ColorChange
350
3A
  3
Conceptual
350
34
  3
Dim
350
35
  3
Facepattern
350
39
  3
Flat
350
2B
  3
FlatWithEdges
350
2C
  3
Gouraud
350
2D
  3
GouraudWithEdges
350
2E
  3
Linepattern
350
38
  3
Realistic
350
33
  3
Thicken
350
37
  0
LAYOUT
  5
1E
102
{ACAD_REACTORS
330
1A
102
}
330
1A
100
AcDbPlotSettings
  1

  2
none_device
  4

  6

 40
0.0
 41
0.0
 42
0.0
 43
0.0
 44
0.0
 45
0.0
 46
0.0
 47
0.0
 48
0.0
 49
0.0
140
0.0
141
0.0
142
1.0
143
1.0
 70
   688
 72
     0
 73
     0
 74
     5
  7

 75
    16
 76
     0
 77
     2
 78
   300
147
1.0
148
0.0
149
0.0
100
AcDbLayout
  1
Layout1
 70
     1
 71
     1
 10
0.0
 20
0.0
 11
420.0
 21
297.0
 12
0.0
 22
0.0
 32
0.0
 14
1.000000000000000E+20
 24
1.000000000000000E+20
 34
1.000000000000000E+20
 15
-1.000000000000000E+20
 25
-1.000000000000000E+20
 35
-1.000000000000000E+20
146
0.0
 13
0.0
 23
0.0
 33
0.0
 16
1.0
 26
0.0
 36
0.0
 17
0.0
 27
1.0
 37
0.0
 76
     0
330
1B
  0
LAYOUT
  5
26
102
{ACAD_REACTORS
330
1A
102
}
330
1A
100
AcDbPlotSettings
  1

  2
none_device
  4

  6

 40
0.0
 41
0.0
 42
0.0
 43
0.0
 44
0.0
 45
0.0
 46
0.0
 47
0.0
 48
0.0
 49
0.0
140
0.0
141
0.0
142
1.0
143
1.0
 70
   688
 72
     0
 73
     0
 74
     5
  7

 75
    16
 76
     0
 77
     2
 78
   300
147
1.0
148
0.0
149
0.0
100
AcDbLayout
  1
Layout2
 70
     1
 71
     2
 10
0.0
 20
0.0
 11
0.0
 21
0.0
 12
0.0
 22
0.0
 32
0.0
 14
0.0
 24
0.0
 34
0.0
 15
0.0
 25
0.0
 35
0.0
146
0.0
 13
0.0
 23
0.0
 33
0.0
 16
1.0
 26
0.0
 36
0.0
 17
0.0
 27
1.0
 37
0.0
 76
     0
330
23
  0
LAYOUT
  5
22
102
{ACAD_REACTORS
330
1A
102
}
330
1A
100
AcDbPlotSettings
  1

  2
none_device
  4

  6

 40
0.0
 41
0.0
 42
0.0
 43
0.0
 44
0.0
 45
0.0
 46
0.0
 47
0.0
 48
0.0
 49
0.0
140
0.0
141
0.0
142
1.0
143
1.0
 70
  1712
 72
     0
 73
     0
 74
     0
  7

 75
     0
 76
     0
 77
     2
 78
   300
147
1.0
148
0.0
149
0.0
100
AcDbLayout
  1
Model
 70
     1
 71
     0
 10
0.0
 20
0.0
 11
420.0
 21
297.0
 12
0.0
 22
0.0
 32
0.0
 14
1.000000000000000E+20
 24
1.000000000000000E+20
 34
1.000000000000000E+20
 15
-1.000000000000000E+20
 25
-1.000000000000000E+20
 35
-1.000000000000000E+20
146
0.0
 13
0.0
 23
0.0
 33
0.0
 16
1.0
 26
0.0
 36
0.0
 17
0.0
 27
1.0
 37
0.0
 76
     0
330
1F
331
29
  0
MLINESTYLE
  5
18
102
{ACAD_REACTORS
330
17
102
}
330
17
100
AcDbMlineStyle
  2
Standard
 70
     0
  3

 62
   256
 51
90.0
 52
90.0
 71
     2
 49
0.5
 62
   256
  6
BYLAYER
 49
-0.5
 62
   256
  6
BYLAYER
  0
ACDBPLACEHOLDER
  5
F
102
{ACAD_REACTORS
330
E
102
}
330
E
  0
VISUALSTYLE
  5
2F
102
{ACAD_REACTORS
330
2A
102
}
330
2A
100
AcDbVisualStyle
  2
2dWireframe
 70
     4
 71
     0
 72
     2
 73
     0
 90
        0
 40
-0.6
 41
-30.0
 62
     5
 63
     7
421
 16777215
 74
     1
 91
        4
 64
     7
 65
   257
 75
     1
175
     1
 42
1.0
 92
        0
 66
   257
 43
1.0
 76
     1
 77
     6
 78
     2
 67
     7
 79
     5
170
     0
171
     0
290
     0
174
     0
 93
        1
 44
0.0
173
     0
291
     0
 45
0.0
  0
VISUALSTYLE
  5
31
102
{ACAD_REACTORS
330
2A
102
}
330
2A
100
AcDbVisualStyle
  2
3D Hidden
 70
     6
 71
     1
 72
     2
 73
     2
 90
        0
 40
-0.6
 41
-30.0
 62
     5
 63
     7
421
 16777215
 74
     2
 91
        2
 64
     7
 65
   257
 75
     2
175
     1
 42
40.0
 92
        0
 66
   257
 43
1.0
 76
     1
 77
     6
 78
     2
 67
     7
 79
     3
170
     0
171
     0
290
     0
174
     0
 93
        1
 44
0.0
173
     0
291
     0
 45
0.0
  0
VISUALSTYLE
  5
30
102
{ACAD_REACTORS
330
2A
102
}
330
2A
100
AcDbVisualStyle
  2
3dWireframe
 70
     5
 71
     0
 72
     2
 73
     0
 90
        0
 40
-0.6
 41
-30.0
 62
     5
 63
     7
421
 16777215
 74
     1
 91
        4
 64
     7
 65
   257
 75
     1
175
     1
 42
1.0
 92
        0
 66
   257
 43
1.0
 76
     1
 77
     6
 78
     2
 67
     7
 79
     5
170
     0
171
     0
290
     0
174
     0
 93
        1
 44
0.0
173
     0
291
     0
 45
0.0
  0
VISUALSTYLE
  5
32
102
{ACAD_REACTORS
330
2A
102
}
330
2A
100
AcDbVisualStyle
  2
Basic
 70
     7
 71
     1
 72
     0
 73
     1
 90
        0
 40
-0.6
 41
-30.0
 62
     5
 63
     7
421
 16777215
 74
     0
 91
        4
 64
     7
 65
   257
 75
     1
175
     1
 42
1.0
 92
        8
 66
     7
 43
1.0
 76
     1
 77
     6
 78
     2
 67
     7
 79
     5
170
     0
171
     0
290
     0
174
     0
 93
        1
 44
0.0
173
     0
291
     1
 45
0.0
  0
VISUALSTYLE
  5
36
102
{ACAD_REACTORS
330
2A
102
}
330
2A
100
AcDbVisualStyle
  2
Brighten
 70
    12
 71
     2
 72
     2
 73
     0
 90
        0
 40
-0.6
 41
-30.0
 62
     5
 63
     7
421
 16777215
 74
     1
 91
        4
 64
     7
 65
   257
 75
     1
175
     1
 42
1.0
 92
        8
 66
     7
 43
1.0
 76
     1
 77
     6
 78
     2
 67
     7
 79
     5
170
     0
171
     0
290
     0
174
     0
 93
        1
 44
50.0
173
     0
291
     1
 45
0.0
  0
VISUALSTYLE
  5
3A
102
{ACAD_REACTORS
330
2A
102
}
330
2A
100
AcDbVisualStyle
  2
ColorChange
 70
    16
 71
     2
 72
     2
 73
     3
 90
        0
 40
-0.6
 41
-30.0
 62
     5
 63
     8
421
  8421504
 74
     1
 91
        4
 64
     7
 65
   257
 75
     1
175
     1
 42
1.0
 92
        8
 66
     8
424
  8421504
 43
1.0
 76
     1
 77
     6
 78
     2
 67
     7
 79
     5
170
     0
171
     0
290
     0
174
     0
 93
        1
 44
0.0
173
     0
291
     1
 45
0.0
  0
VISUALSTYLE
  5
34
102
{ACAD_REACTORS
330
2A
102
}
330
2A
100
AcDbVisualStyle
  2
Conceptual
 70
     9
 71
     3
 72
     2
 73
     0
 90
        0
 40
-0.6
 41
-30.0
 62
     5
 63
     7
421
 16777215
 74
     2
 91
        2
 64
     7
 65
   257
 75
     1
175
     1
 42
40.0
 92
        8
 66
     7
 43
1.0
 76
     1
 77
     6
 78
     2
 67
     7
 79
     3
170
     0
171
     0
290
     0
174
     0
 93
        1
 44
0.0
173
     0
291
     0
 45
0.0
  0
VISUALSTYLE
  5
35
102
{ACAD_REACTORS
330
2A
102
}
330
2A
100
AcDbVisualStyle
  2
Dim
 70
    11
 71
     2
 72
     2
 73
     0
 90
        0
 40
-0.6
 41
-30.0
 62
     5
 63
     7
421
 16777215
 74
     1
 91
        4
 64
     7
 65
   257
 75
     1
175
     1
 42
1.0
 92
        8
 66
     7
 43
1.0
 76
     1
 77
     6
 78
     2
 67
     7
 79
     5
170
     0
171
     0
290
     0
174
     0
 93
        1
 44
-50.0
173
     0
291
     1
 45
0.0
  0
VISUALSTYLE
  5
39
102
{ACAD_REACTORS
330
2A
102
}
330
2A
100
AcDbVisualStyle
  2
Facepattern
 70
    15
 71
     2
 72
     2
 73
     0
 90
        0
 40
-0.6
 41
-30.0
 62
     5
 63
     7
421
 16777215
 74
     1
 91
        4
 64
     7
 65
   257
 75
     1
175
     1
 42
1.0
 92
        8
 66
     7
 43
1.0
 76
     1
 77
     6
 78
     2
 67
     7
 79
     5
170
     0
171
     0
290
     0
174
     0
 93
        1
 44
0.0
173
     0
291
     1
 45
0.0
  0
VISUALSTYLE
  5
2B
102
{ACAD_REACTORS
330
2A
102
}
330
2A
100
AcDbVisualStyle
  2
Flat
 70
     0
 71
     2
 72
     1
 73
     1
 90
        2
 40
-0.6
 41
30.0
 62
     5
 63
     7
421
 16777215
 74
     0
 91
        4
 64
     7
 65
   257
 75
     1
175
     1
 42
1.0
 92
        8
 66
     7
 43
1.0
 76
     1
 77
     6
 78
     2
 67
     7
 79
     5
170
     0
171
     0
290
     0
174
     0
 93
       13
 44
0.0
173
     0
291
     1
 45
0.0
  0
VISUALSTYLE
  5
2C
102
{ACAD_REACTORS
330
2A
102
}
330
2A
100
AcDbVisualStyle
  2
FlatWithEdges
 70
     1
 71
     2
 72
     1
 73
     1
 90
        2
 40
-0.6
 41
30.0
 62
     5
 63
     7
421
 16777215
 74
     1
 91
        4
 64
     7
 65
   257
 75
     1
175
     1
 42
1.0
 92
        0
 66
   257
 43
1.0
 76
     1
 77
     6
 78
     2
 67
     7
 79
     5
170
     0
171
     0
290
     0
174
     0
 93
       13
 44
0.0
173
     0
291
     1
 45
0.0
  0
VISUALSTYLE
  5
2D
102
{ACAD_REACTORS
330
2A
102
}
330
2A
100
AcDbVisualStyle
  2
Gouraud
 70
     2
 71
     2
 72
     2
 73
     1
 90
        2
 40
-0.6
 41
30.0
 62
     5
 63
     7
421
 16777215
 74
     0
 91
        4
 64
     7
 65
   257
 75
     1
175
     1
 42
1.0
 92
        0
 66
     7
 43
1.0
 76
     1
 77
     6
 78
     2
 67
     7
 79
     5
170
     0
171
     0
290
     0
174
     0
 93
       13
 44
0.0
173
     0
291
     1
 45
0.0
  0
VISUALSTYLE
  5
2E
102
{ACAD_REACTORS
330
2A
102
}
330
2A
100
AcDbVisualStyle
  2
GouraudWithEdges
 70
     3
 71
     2
 72
     2
 73
     1
 90
        2
 40
-0.6
 41
30.0
 62
     5
 63
     7
421
 16777215
 74
     1
 91
        4
 64
     7
 65
   257
 75
     1
175
     1
 42
1.0
 92
        0
 66
   257
 43
1.0
 76
     1
 77
     6
 78
     2
 67
     7
 79
     5
170
     0
171
     0
290
     0
174
     0
 93
       13
 44
0.0
173
     0
291
     1
 45
0.0
  0
VISUALSTYLE
  5
38
102
{ACAD_REACTORS
330
2A
102
}
330
2A
100
AcDbVisualStyle
  2
Linepattern
 70
    14
 71
     2
 72
     2
 73
     0
 90
        0
 40
-0.6
 41
-30.0
 62
     5
 63
     7
421
 16777215
 74
     1
 91
        4
 64
     7
 65
   257
 75
     7
175
     7
 42
1.0
 92
        8
 66
     7
 43
1.0
 76
     1
 77
     6
 78
     2
 67
     7
 79
     5
170
     0
171
     0
290
     0
174
     0
 93
        1
 44
0.0
173
     0
291
     1
 45
0.0
  0
VISUALSTYLE
  5
33
102
{ACAD_REACTORS
330
2A
102
}
330
2A
100
AcDbVisualStyle
  2
Realistic
 70
     8
 71
     2
 72
     2
 73
     0
 90
        0
 40
-0.6
 41
-30.0
 62
     5
 63
     7
421
 16777215
 74
     1
 91
        0
 64
     7
 65
   257
 75
     1
175
     1
 42
1.0
 92
        8
 66
     8
424
  7895160
 43
1.0
 76
     1
 77
     6
 78
     2
 67
     7
 79
     5
170
     0
171
     0
290
     0
174
     0
 93
       13
 44
0.0
173
     0
291
     0
 45
0.0
  0
VISUALSTYLE
  5
37
102
{ACAD_REACTORS
330
2A
102
}
330
2A
100
AcDbVisualStyle
  2
Thicken
 70
    13
 71
     2
 72
     2
 73
     0
 90
        0
 40
-0.6
 41
-30.0
 62
     5
 63
     7
421
 16777215
 74
     1
 91
        4
 64
     7
 65
   257
 75
     1
175
     1
 42
1.0
 92
       12
 66
     7
 43
1.0
 76
     1
 77
     6
 78
     2
 67
     7
 79
     5
170
     0
171
     0
290
     0
174
     0
 93
        1
 44
0.0
173
     0
291
     1
 45
0.0
  0
ENDSEC
  0
SECTION
  2
THUMBNAILIMAGE
 90
    16364
310
28000000B40000005500000001000800000000000000000000000000000000000000000000000000FFFFFF00FF000000FFFF000000FF000000FFFF000000FF00FF00FF000000000080808000C0C0C000FF000000FF7F7F00A5000000A55252007F0000007F3F3F004C0000004C2626002600000026131300FF3F0000FF9F7F
310
00A5290000A56752007F1F00007F4F3F004C1300004C2F26002609000026171300FF7F0000FFBF7F00A5520000A57C52007F3F00007F5F3F004C2600004C39260026130000261C1300FFBF0000FFDF7F00A57C0000A59152007F5F00007F6F3F004C3900004C422600261C000026211300FFFF0000FFFF7F00A5A50000A5A5
310
52007F7F00007F7F3F004C4C00004C4C26002626000026261300BFFF0000DFFF7F007CA5000091A552005F7F00006F7F3F00394C0000424C26001C260000212613007FFF0000BFFF7F0052A500007CA552003F7F00005F7F3F00264C0000394C2600132600001C2613003FFF00009FFF7F0029A5000067A552001F7F00004F
310
7F3F00134C00002F4C2600092600001726130000FF00007FFF7F0000A5000052A55200007F00003F7F3F00004C0000264C2600002600001326130000FF3F007FFF9F0000A5290052A56700007F1F003F7F4F00004C1300264C2F00002609001326170000FF7F007FFFBF0000A5520052A57C00007F3F003F7F5F00004C2600
310
264C39000026130013261C0000FFBF007FFFDF0000A57C0052A59100007F5F003F7F6F00004C3900264C420000261C001326210000FFFF007FFFFF0000A5A50052A5A500007F7F003F7F7F00004C4C00264C4C00002626001326260000BFFF007FDFFF00007CA5005291A500005F7F003F6F7F0000394C0026424C00001C26
310
0013212600007FFF007FBFFF000052A500527CA500003F7F003F5F7F0000264C0026394C0000132600131C2600003FFF007F9FFF000029A5005267A500001F7F003F4F7F0000134C00262F4C0000092600131726000000FF007F7FFF000000A5005252A50000007F003F3F7F0000004C0026264C0000002600131326003F00
310
FF009F7FFF002900A5006752A5001F007F004F3F7F0013004C002F264C0009002600171326007F00FF00BF7FFF005200A5007C52A5003F007F005F3F7F0026004C0039264C00130026001C132600BF00FF00DF7FFF007C00A5009152A5005F007F006F3F7F0039004C0042264C001C00260021132600FF00FF00FF7FFF00A5
310
00A500A552A5007F007F007F3F7F004C004C004C264C002600260026132600FF00BF00FF7FDF00A5007C00A55291007F005F007F3F6F004C0039004C26420026001C0026132100FF007F00FF7FBF00A5005200A5527C007F003F007F3F5F004C0026004C2639002600130026131C00FF003F00FF7F9F00A5002900A5526700
310
7F001F007F3F4F004C0013004C262F002600090026131700000000002D2D2D005B5B5B0089898900B7B7B700B3B3B30000000000000000000000000000000000000000000000000000000000000000000000000000000000000000000000000000000000000000000000000000000000000000000000000000000000000000
310
00000000000000000000000000000000000000000000000000000000000000000000000000000000000000000000000000000000000000000000000000000000000000000000000000000000000000FE000000000000FE00000000000000000000000000000000000000000000000000000000000000000000000000000000
310
00000000000000000000000000000000000000000000000000000000000000000000000000000000000000000000000000000000000000010101010101010000000000000001010101010101010101010101010100000000000000000000000000000000000000000000000000000000000000000000000000000000000000
310
0000000000FE000000000000FE000000000000000000000000000000000000000000000000000000000000000000000000000000000000000000000000000000000000000000000000000000000000000000000000000000000000000000000000000000000000000000010100000000000000010100000000000100000000
310
00000000000000000001000000000000000000000000000000000000000000000000000000000000000000000000000000000000000000000000FE000000000000FE00000000000000000000000000000000000000000000000000000000000000000000000000000000000000000000000000000000000000000000000000
310
000000000000000000000000000000000000000000000000000000000000010100000000000000000000000101000001010000000000000000000000000001010000000000000000000000000000000000000000000000000000000000000000000000000000000000000000000000FE000000000000FE0000000000000000
310
00000000000000000000000000000000000000000000000000000000000000000000000000000000000000000000000000000000000000000000000000000000000000000000000000000000000000000000010100000000000000000000000000010100010100000000000000000000000000010100000000000000000000
310
00000000000000000000000000000000000000000000000000000000000000000000000000FE000000000000FE00000000000000000000000000000000000000000000000000000000000000000000000000000000000000000000000000000000000000000000000000000000000000000000000000000000000000000000
310
000000000000000001010000000000000000000000000001010001010000000000000000000000000001010000000000000000000000000000000000000000000000000000000000000000000000000000000000000000000000FE000000000000FE0000000000000000000000000000000000000000000000000000000000
310
00000000000000000000000000000000000000000000000000000000000000000000000000000000000000000000000000000000000000000000000000010100000000000000000000000000010100000100000000000000000000000000010000000000000000000000000000000000000000000000000000000000000000
310
00000000000000000000000000000000FE000000000000FE00000000000000000000000000000000000000000000000000000000000000000000000000000000000000000000000000000000000000000000000000000000000000000000000000000000000000000000000000000000000000010000000000000000000000
310
000001000000010000000000000000000000000001000000000000000000000000000000000000000000000000000000000000000000000000000000000000000000000000FE000000000000FE0000000000000000000000000000000000000000000000000000000000000000000000000000000000000000000000000000
310
0000000000000000000000000000000000000000000000000000000000000000000000000000000001010000000000000000000000000001010001010000000000000000000000000001010000000000000000000000000000000000000000000000000000000000000000000000000000000000000000000000FE00000000
310
0000FE00000000000000000000000000000000000000000000000000000000000000000000000000000000000000000000000000000000000000000000000000000000000000000000000000000000000000000000000000000000000001010000000000000000000000000001010001010000000000000000000000000001
310
010000000000000000000000000000000000000000000000000000000000000000000000000000000000000000000000FE000000000000FE0000000000000000000000000000000000000000000000000000000000000000000000000000000000000000000000000000000000000000000000000000000000000000000000
310
0000000000000000000000000000000000000001000000000000000000000000000000010001010000000000000000000000000001010000000000000000000000000000000000000000000000000000000000000000000000000000000000000000000000FE000000000000FE000000000000000000000000000000000000
310
00000000000000000000000000000000000000000000000000000000000000000000000000000000000000000000000000000000000000000000000000000000000000000000000001010000000000000000000000000001010000010000000000000000000000000001000000000000000000000000000000000000000000
310
000000000000000000000000000000000000000000000000000000FE000000000000FE0000000000000000000000000000000000000000000000000000000000000000000000000000000000000000000000000000000000000000000000000000000000000000000000000000000000000000000000000000000000000001
310
0000000000000000000000000001000000010000000000000000000000000001000000000000000000000000000000000000000000000000000000000000000000000000000000000000000000000000FE000000000000FE000000000000000000000000000000000000000000000000000000000000000000000000000000
310
00000000000000000000000000000000000000000000000000000000000000000000000000000000000000000000000000000000010000000000000000000000000001000000010000000000000000000000000101000000000000000000000000000000000000000000000000000000000000000000000000000000000000
310
000000000000FE000000000000FE0000000000000000000000000000000000000000000000000000000000000000000000000000000000000000000000000000000000000000000000000000000000000000000000000000000000000000000000000000000000000001010101010101010101010101010100000000010100
310
0000000000000001010000000000000000000000000000000000000000000000000000000000000000000000000000000000000000000000000000FE000000000000FE000000000000000000000000000000000000000000000000000000000000000000000000000000000000000000000000000000000000000000000000
310
00000000000000000000000000000000000000000000000000000000000000000000000000000000000000000000000000000000010101010101010100000000000000000000000000000000000000000000000000000000000000000000000000000000000000000000000000000000FE000000000000FE00000000000000
310
00000000000000000000000000000000000000000000000000000000000000000000000000000000000000000000000000000000000000000000000000000000000000000000000000000000000000000000000000000000000000000000000000000000000000000000000000000000000000000000000000000000000000
310
0000000000000000000000000000000000000000000000000000000000000000000000000000FE000000000000FE000000000000000000000000000000000000000000000000000000000000000000000000000000000000000000000000000000000000000000000000000000000000000000000000000000000000000000
310
00000000000000000000000000000000000000000000000000000000000000000000000000000000000000000000000000000000000000000000000000000000000000000000000000000000000000000000000000000000000000FE000000000000FE00000000000000000000000000000000000000000000000000000000
310
00000000000000000000000000000000000000000000000000000000000000000000000000000000000000000000000000000000000000000000000000000101010101010100000000000000000000000000000000000000000000000000000000000000000000000000000000000000000000000000000000000000000000
310
0000000000000000000000000000000000FE000000000000FE000000000000000000000000000000000000000000000000000000000000000000000000000000000000000000000000000000000000000000000000000000000000000000000000000000000000000000000000000000000001000101000001000100000000
310
00000000000000000000000000000000000000000000000000000000000000000000000000000000000000000000000000000000000000000000000000000000000000000000FE000000000000FE00000000000000000000000000000000000000000000000000000000000000000000000000000000000000000000000000
310
000000000000000000000000000000000000000000000000000000000000000000000000000000000100000000000000010000000000000000000000000000000000000000000000000000000000000000000000000000000000000000000000000000000000000000000000000000000000000000000000000000FE000000
310
000000FE000000000000000000000000000000000000000000000000000000000000000000000000000000000000000000000000000000000000000000000000000000000000000000000000000000000000000000000000000000000001010000000000010100000000000000000101010101010101010101010101010101
310
01010000000000000000000000000000000000000000000000000000000000000000000000000000000000000000000000FE000000000000FE00000000000000000000000000000000000000000000000000000000000000000000000000000000000000000000000000000000000000000000000000000000000000000000
310
000000000000000000000000000000000000000001010100010101000000000000000001000000000000000000000000000000000000000100000000000000000000000000000000000000000000000000000000000000000000000000000000000000000000FE000000000000FE0000000000000000000000000000000000
310
00000000000000000000000000000000000000000000000000000000000000000000000000000000000000000000000000000000000000000000000000000000000000000000000000000001000100000000000000000000010000000000000000000000000000000000000001000000000000000000000000000000000000
310
00000000000000000000000000000000000000000000000000000000FE000000000000FE00000000000000000000000000000000000000000000000000000000000000000000000000000000000000000000000000000000000000000000000000000000000000000000000000000000000000000000000000000000000000
310
000100010000000000000000000100010100000000000000000000000000000001010001000000000000000000000000000000000000000000000000000000000000000000000000000000000000000000FE000000000000FE0000000000000000000000000000000000000000000000000000000000000000000000000000
310
00000000000000000000000000000000000000000000000000000000000000000000000000000000000000000000000000000001010101000001010100000000000001000101000000000000000000000000000000010100010000000000000000000000000000000000000000000000000000000000000000000000000000
310
00000000000000FE000000000000FE00000000000000000000000000000000000000000000000000000000000000000000000000000000000000000000000000000000000000000000000000000000000000000000000000000000000000000000000000000000000101010000000101000100000000000100010100000000
310
000000000000000000000001010001000000000000000000000000000000000000000000000000000000000000000000000000000000000000000000FE000000000000FE0000000000000000000000000000000000000000000000000000000000000000000000000000000000000000000000000000000000000000000000
310
0000000000000000000000000000000000000000000000000000000000010001010000000101000100000000000100000000000000000000000000000000000000000001000000000000000000000000000000000000000000000000000000000000000000000000000000000000000000FE000000000000FE000000000000
310
00000000000000000000000000000000000000000000000000000000000000000000000000000000000000000000000000000000000000000000000000000000000000000000000000000000000000000000010001010000000101010000000000000100000000000000000000000000000000000000000001000000000000
310
000000000000000000000000000000000000000000000000000000000000000000000000000000FE000000000000FE0000000000000000000000000000000000000000000000000000000000000000000000000000000000000000000000000000000000000000000000000000000000000000000000000000000000000000
310
0000000000000000000101010000000101010000000000000001010100000000000000000000000000000001010001000000000000000000000000000000000000000000000000000000000000000000000000000000000000000000FE000000000000FE000000000000000000000000000000000000000000000000000000
310
00000000000000000000000000000000000000000000000000000000000000000000000000000000000000000000000000000000000000000000000000000000010000000101000100000000000001010100010101000000000000000101010001010100000000000000000000000000000000000000000000000000000000
310
000000000000000000000000000000000000FE000000000000FE0000000000000000000000000000000000000000000000000000000000000000000000000000000000000000000000000000000000000000000000000000000000000000000000000000000000000000000000000000000000000001000000010100010000
310
0000000001010101010001000000000000000100010001010100000000000000000000000000000000000000000000000000000000000000000000000000000000000000000000FE000000000000FE000000000000000000000000000000000000000000000000000000000000000000000000000000000000000000000000
310
00000000000000000000000000000000000000000000000000000000000000000000000000000000000000010000000101010000000000000001000000000001000000000000010100000000000100000000000000000000000000000000000000000000000000000000000000000000000000000000000000000000FE0000
310
00000000FE0000000000000000000000000000000000000000000000000000000000000000000000000000000000000000000000000000000000000000000000000000000000000000000000000000000000000000000000000000000000000001000000010000000000000000000101000000000100000000000001010000
310
0000000100000000000000000000000000000000000000000000000000000000000000000000000000000000000000000000FE000000000000FE000000000000000000000000000000000000000000000000000000000000000000000000000000000000000000000000000000000000000000000000000000000000000000
310
00000000000000000000000000000000000000000000010000000100000000000000000000000100000001000000000000000100000001010000000000000000000000000000000000000000000000000000000000000000000000000000000000000000000000FE000000000000FE00000000000000000000000000000000
310
00000000000000000000000000000000000000000000000000000000000000000000000000000000000000000000000000000000000000000000000000000000000000000000000000000001000000010000000000000000000000000100000100000000000000010000010000000000000000000000000000000000000000
310
0000000000000000000000000000000000000000000000000000000000FE000000000000FE000000000000000000000000000000000000000000000000000000000000000000000000000000000000000000000000000000000000000000000000000000000000000000000000000000000000000000000000000000000000
310
00010000000100000000000000000000000000010001000000000000000100010000000000000000000000000000000000000000000000000000000000000000000000000000000000000000000000000000FE000000000000FE00000000000000000000000000000000000000000000000000000000000000000000000000
310
00000000000000000000000000000000000000000000000000000000000000000000000000000000000000000000000000000000000001000000010000000000000000000000000001000100000000000000010001000000000000000000000000000000000000000000000000000000000000000000000000000000000000
310
0000000000000000FE000000000000FE000000000000000000000000000000000000000000000000000000000000000000000000000000000000000000000000000000000000000000000000000000000000000000000000000000000000000000000000000000000000000100000001000000000000000000000000000100
310
01000000000000000100010000000000000000000000000000000000000000000000000000000000000000000000000000000000000000000000000000FE000000000000FE00000000000000000000000000000000000000000000000000000000000000000000000000000000000000000000000000000000000000000000
310
000000000000000000000000000000000000000000000000000000000000000000010000000100000000000000000000000001000001000101000101000100010000000000000000000000000000000000000000000000000000000000000000000000000000000000000000000000000000FE000000000000FE0000000000
310
00000000000000000000000000000000000000000000000000000000000000000000000000000000000000000000000000000000000000000000000000000000000000000000000000000000000000000000000000000100000001000000000000000000000000010000010101010001010101000100000000000000000000
310
00000000000000000000000000000000000000000000000000000000000000000000000000000000FE000000000000FE00000000000000000000000000000000000000000000000000000000000000000000000000000000000000000000000000000000000000000000000000000000000000000000000000000000000000
310
000000000000000000000000010000000100000000000000000000000101000000000000000000000000000100000000000000000000000000000000000000000000000000000000000000000000000000000000000000000000000000FE000000000000FE0000000000000000000000000000000000000000000000000000
310
00000000000000000000000000000000000000000000000000000000000000000000000000000000000000000000000000000000000000000000000000000000000100000001000000000000000000000100000000000000000000000000000000010100000000000000000000000000000000000000000000000000000000
310
00000000000000000000000000000000000000FE000000000000FE00000000000000000000000000000000000000000000000000000000000000000000000000000000000000000000000000000000000000000000000000000000000000000000000000000000000000000000000000000000000000010000000100000000
310
000000000000000100000000000000000000000000000001000000000000000000000000000000000000000000000000000000000000000000000000000000000000000000000000FE000000000000FE0000000000000000000000000000000000000000000000000000000000000000000000000000000000000000000000
310
0000000000000000000000000000000000000000000000000000000000000000000000000000000000000000010000000100000000000000000000000100000000000000000000000000000001000000000000000000000000000000000000000000000000000000000000000000000000000000000000000000000000FE00
310
0000000000FE00000000000000000000000000000000000000000000000000000000000000000000000000000000000000000000000000000000000000000000000000000000000000000000000000000000000000000000000000000000000000010000000100000000000000000000000100000000000000000000000000
310
000001000000000000000000000000000000000000000000000000000000000000000000000000000000000000000000000000FE000000000000FE0000000000000000000000000000000000000000000000000000000000000000000000000000000000000000000000000000000000000000000000000000000000000000
310
0000000000000000000000000000000000000000000000010000000100000000000000000000000100000000000000000000000000000001000000000000000000000000000000000000000000000000000000000000000000000000000000000000000000000000FE000000000000FE000000000000000000000000000000
310
00000000000000000000000000000000000000000000000000000000000000000000000000000000000000000000000000000000000000000000000000000000000000000000000000000001010000000101000000000000000000010000000000000000000000000000000000010000000000000000000000000000000000
310
000000000000000000000000000000000000000000000000000000000000FE000000000000FE0000000000000000000000000000000000000000000000000000000000000000000000000000000000000000000000000000000000000000000000000000000000000000000000000000000000000000000000000000000001
310
0100000000000000010100000000000000010000000000000000000000000000000000010000000000000000000000000000000000000000000000000000000000000000000000000000000000000000000000FE000000000000FE000000000000000000000000000000000000000000000000000000000000000000000000
310
00000000000000000000000000000000000000000000000000000000000000000000000000000000000000000000000000000101000000000000000000000001010000000000010000000000000000000000000000000000010000000000000000000000000000000000000000000000000000000000000000000000000000
310
000000000000000000FE000000000000FE0000000000000000000000000000000000000000000000000000000000000000000000000000000000000000000000000000000000000000000000000000000000000000000000000000000000000000000000000000010000000000000000000000000001000000000000010000
310
0000000000000000000000000000010000000000000000000000000000000000000000000000000000000000000000000000000000000000000000000000FE000000000000FE000000000000000000000000000000000000000000000000000000000000000000000000000000000000000000000000000000000000000000
310
00000000000000000000000000000000000000000000000000000000010000000000000000000000000000000100000000000100000000000000000000000000000001000000000000000000000000000000000000000000000000000000000000000000000000000000000000000000000000FE000000000000FE00000000
310
00000000000000000000000000000000000000000000000000000000000000000000000000000000000000000000000000000000000000000000000000000000000000000000000000000000000000000001000000000000000000000000000000010000000000000100000000000000000000000000000100000000000000
310
0000000000000000000000000000000000000000000000000000000000000000000000000000000000FE000000000000FE000000000000000000000000000000000000000000000000000000000000000000000000000000000000000000000000000000000000000000000000000000000000000000000000000000000000
310
00000000000001000000000000000000000000000000000001000000000001010000000000000000000000010100000000000000000000000000000000000000000000000000000000000000000000000000000000000000000000000000FE000000000000FE00000000000000000000000000000000000000000000000000
310
00000000000000000000000000000000000000000000000000000000000000000000000000000000000000000000000000000000000000000000000100000000000000000000000000000000000100000000000000010100000000000000010100000000000000000000000000000000000000000000000000000000000000
310
0000000000000000000000000000000000000000FE000000000000FE000000000000000000000000000000000000000000000000000000000000000000000000000000000000000000000000000000000000000000000000000000000000000000000000000000000000000000000000010000000000000000000000000000
310
00000001000000000000000000010100000001010000000000000000000000000000000000000000000000000000000000000000000000000000000000000000000000000000000000FE000000000000FE00000000000000000000000000000000000000000000000000000000000000000000000000000000000000000000
310
000000000000000000000000000000000000000000000000000000000000000000000000000000010000000000000000000000000000000001000000000000000000000100000001000000000000000000000000000000000000000000000000000000000000000000000000000000000000000000000000000000000000FE
310
000000000000FE000000000000000000000000000000000000000000000000000000000000000000000000000000000000000000000000000000000000000000000000000000000000000000000000000000000000000000000000000100000000000000000000000000000001000000000000000000000001000000010000
310
00000000000000000000000000000000000000000000000000000000000000000000000000000000000000000000000000000000FE000000000000FE00000000000000000000000000000000000000000000000000000000000000000000000000000000000000000000000000000000000000000000000000000000000000
310
000000000000000000000000000000000000010000000000000000000000000000000100000000000000000000000100000001000000000000000000000000000000000000000000000000000000000000000000000000000000000000000000000000000000000000FE000000000000FE0000000000000000000000000000
310
00000000000000000000000000000000000000000000000000000000000000000000000000000000000000000000000000000000000000000000000000000000000000000000000100000000000000000000000000000001000000000000000000000001000000010000000000000000000000000000000000000000000000
310
00000000000000000000000000000000000000000000000000000000000000FE000000000000FE00000000000000000000000000000000000000000000000000000000000000000000000000000000000000000000000000000000000000000000000000000000000000000000000000000000000000000000000000010000
310
000000000000000000000000000100000000000000000000000100000001000000000000000000000000000000000000000000000000000000000000000000000000000000000000000000000000000000000000FE000000000000FE0000000000000000000000000000000000000000000000000000000000000000000000
310
00000000000000000000000000000000000000000000000000000000000000000000000000000000000000000000000000010101000000000000000000000000000101010000000000000000000001000000010000000000000000000000000000000000000000000000000000000000000000000000000000000000000000
310
00000000000000000000FE000000000000FE00000000000000000000000000000000000000000000000000000000000000000000000000000000000000000000000000000000000000000000000000000000000000000000000000000000000000000000000000000001000001010000000101000000010000000000000000
310
000000000100000001000000000000000000000000000000000000000000000000000000000000000000000000000000000000000000000000000000000000FE000000000000FE0000000000000000000000000000000000000000000000000000000000000000000000000000000000000000000000000000000000000000
310
0000000000000000000000000000000000000000000000000000000000000001000100010100010100010000010000000000000000000000000100000001000000000000000000000000000000000000000000000000000000000000000000000000000000000000000000000000000000000000FE000000000000FE000000
310
00000000000000000000000000000000000000000000000000000000000000000000000000000000000000000000000000000000000000000000000000000000000000000000000000000000000000000000000001000100000000000000010001000000000000000000000000000100000001000000000000000000000000
310
000000000000000000000000000000000000000000000000000000000000000000000000000000000000FE000000000000FE0000000000000000000000000000000000000000000000000000000000000000000000000000000000000000000000000000000000000000000000000000000000000000000000000000000000
310
0000000000000000000001000100000000000000010001000000000000000000000000000100000001000000000000000000000000000000000000000000000000000000000000000000000000000000000000000000000000000000000000FE000000000000FE000000000000000000000000000000000000000000000000
310
00000000000000000000000000000000000000000000000000000000000000000000000000000000000000000000000000000000000000000000000000000001000100000000000000010001000000000000000000000000000100000001000000000000000000000000000000000000000000000000000000000000000000
310
000000000000000000000000000000000000000000FE000000000000FE0000000000000000000000000000000000000000000000000000000000000000000000000000000000000000000000000000000000000000000000000000000000000000000000000000000000000000000000000000010000010000000000000001
310
0000010000000000000000000000000100000001000000000000000000000000000000000000000000000000000000000000000000000000000000000000000000000000000000000000FE000000000000FE000000000000000000000000000000000000000000000000000000000000000000000000000000000000000000
310
00000000000000000000000000000000000000000000000000000000000000000000000000000000010000000100000000000000010000000100000000000000000000000100000001000000000000000000000000000000000000000000000000000000000000000000000000000000000000000000000000000000000000
310
FE000000000000FE0000000000000000000000000000000000000000000000000000000000000000000000000000000000000000000000000000000000000000000000000000000000000000000000000000000000000000000000000100000000010100000000000101000000000100000000000000000000010000000100
310
0000000000000000000000000000000000000000000000000000000000000000000000000000000000000000000000000000000000FE000000000000FE000000000000000000000000000000000000000000000000000000000000000000000000000000000000000000000000000000000000000000000000000000000000
310
00000000000000000000000000000000000100000000000101000000000001010000000000010000000000000000000100000001010100000000000000000000000000000000000000000000000000000000000000000000000000000000000000000000000000000000FE000000000000FE00000000000000000000000000
310
00000000000000000000000000000000000000000000000000000000000000000000000000000000000000000000000000000000000000000000000000000000000000000000010101000100010100000000000001000101010101000000000000000000010000000101000100000000000000000000000000000000000000
310
0000000000000000000000000000000000000000000000000000000000000000FE000000000000FE000000000000000000000000000000000000000000000000000000000000000000000000000000000000000000000000000000000000000000000000000000000000000000000000000000000000000000000001010100
310
01010100000000000000010101010101010000000000000000000100000001010001000000000000000000000000000000000000000000000000000000000000000000000000000000000000000000000000000000FE000000000000FE00000000000000000000000000000000000000000000000000000000000000000000
310
00000000000000000000000000000000000000000000000000000000000000000000000000000000000000000000000000010101000000000000000000000000000000010101000000000000000101010000000101010000000000000000000000000000000000000000000000000000000000000000000000000000000000
310
0000000000000000000000FE000000000000FE000000000000000000000000000000000000000000000000000000000000000000000000000000000000000000000000000000000000000000000000000000000000000000000000000000000000000000000100010100000000000000000000000000000001010001000000
310
00000100010100000001010100000000000000000000000000000000000000000000000000000000000000000000000000000000000000000000000000000000FE000000000000FE00000000000000000000000000000000000000000000000000000000000000000000000000000000000000000000000000000000000000
310
000000000000000000000000000000000000000000000000000000010000000000000000000000000000000000000000000100000000000100010100000001010001000000000000000000000000000000000000000000000000000000000000000000000000000000000000000000000000000000FE000000000000FE0000
310
00000000000000000000000000000000000000000000000000000000000000000000000000000000000000000000000000000000000000000000000000000000000000000000000000000000000000000100010100000000000000000000000000000001010001000000000000010101000001010100010000000000000000
310
00000000000000000000000000000000000000000000000000000000000000000000000000000000000000FE000000000000FE00000000000000000000000000000000000000000000000000000000000000000000000000000000000000000000000000000000000000000000000000000000000000000000000000000000
310
000000000000010001010000000000000000000000000000000101000100000000000001010100000100010100000000000000000000000000000000000000000000000000000000000000000000000000000000000000000000000000000000FE000000000000FE0000000000000000000000000000000000000000000000
310
00000000000000000000000000000000000000000000000000000000000000000000000000000000000000000000000000000000000000000000000100010100000000000000000000000000000001010001000000000000010101010001010100000000000000000000000000000000000000000000000000000000000000
310
00000000000000000000000000000000000000000000FE000000000000FE00000000000000000000000000000000000000000000000000000000000000000000000000000000000000000000000000000000000000000000000000000000000000000000000000000000000000000000000100000000000000000000000000
310
000000000000010000000000000001010001000100010100000000000000000000000000000000000000000000000000000000000000000000000000000000000000000000000000000000FE000000000000FE0000000000000000000000000000000000000000000000000000000000000000000000000000000000000000
310
00000000000000000000000000000000000000000000000000000000000000000000000000000001000000000000000000000000000000000000000100000000000000010000000000000001000000000000000000000000000000000000000000000000000000000000000000000000000000000000000000000000000000
310
00FE000000000000FE00000000000000000000000000000000000000000000000000000000000000000000000000000000000000000000000000000000000000000000000000000000000000000000000000000000000000000000000001010101010101010101010101010101010101000000000000000001000000000000
310
000100000000000000000000000000000000000000000000000000000000000000000000000000000000000000000000000000000000FE000000000000FE0000000000000000000000000000000000000000000000000000000000000000000000000000000000000000000000000000000000000000000000000000000000
310
0000000000000000000000000000000000000000000000000000000000000000000000000000000000000000000001010100000001010100000000000000000000000000000000000000000000000000000000000000000000000000000000000000000000000000000000FE000000000000FE000000000000000000000000
310
00000000000000000000000000000000000000000000000000000000000000000000000000000000000000000000000000000000000000000000000000000000000000000000000000000000000000000000000000000000000000000000000000000000000100000001000000000000000000000000000000000000000000
310
000000000000000000000000000000000000000000000000000000000000000000FE000000000000FE0000000000000000000000000000000000000000000000000000000000000000000000000000000000000000000000000000000000000000000000000000000000000000000000000000000000000000000000000000
310
0000000000000000000000000000000000000000000000000000000101010100000000000000000000000000000000000000000000000000000000000000000000000000000000000000000000000000000000000000FE000000000000FE0000000000000000000000000000
  0
ENDSEC
  0
EOF
