  0
SECTION
  2
HEADER
  9
$EXTMIN
 10
0.000000
 20
0.000000
  9
$EXTMAX
 10
39.370079
 20
39.370079
  9
$LTSCALE
 40
100.000000
  9
$PDMODE
 70
35
  9
$PDSIZE
 40
80.000000
  0
ENDSEC
  0
SECTION
  2
TABLES
  0
TABLE
  2
LAYER
 70
1
  0
LAYER
  2
LAYER_1
 70
0
 62
1
  6
CONTINUOUS
  0
ENDTAB
  0
ENDSEC
  0
SECTION
  2
BLOCKS
  0
ENDSEC
  0
SECTION
  2
ENTITIES
  0
POLYLINE
  8
LAYER_1
 62
7
 70
1
 66
1
  0
VERTEX
  8
LAYER_1
 62
7
 10
4.514016
 20
36.448601
  0
VERTEX
  8
LAYER_1
 62
7
 10
5.868527
 20
36.448601
  0
VERTEX
  8
LAYER_1
 62
7
 10
5.193993
 20
35.277329
 42
-0.002381
  0
VERTEX
  8
LAYER_1
 62
7
 10
4.684555
 20
36.156038
  0
VERTEX
  8
LAYER_1
 62
7
 10
4.514016
 20
36.448601
  0
SEQEND
  0
POLYLINE
  8
LAYER_1
 62
7
 70
1
 66
1
  0
VERTEX
  8
LAYER_1
 62
7
 10
11.600431
 20
36.448601
  0
VERTEX
  8
LAYER_1
 62
7
 10
13.298195
 20
36.448601
 42
0.002011
  0
VERTEX
  8
LAYER_1
 62
7
 10
12.450220
 20
34.981245
 42
-0.001057
  0
VERTEX
  8
LAYER_1
 62
7
 10
11.813473
 20
36.082170
  0
VERTEX
  8
LAYER_1
 62
7
 10
11.600431
 20
36.448601
  0
SEQEND
  0
POLYLINE
  8
LAYER_1
 62
7
 70
1
 66
1
  0
VERTEX
  8
LAYER_1
 62
7
 10
18.687934
 20
36.448601
  0
VERTEX
  8
LAYER_1
 62
7
 10
20.683233
 20
36.448601
 42
0.002261
  0
VERTEX
  8
LAYER_1
 62
7
 10
19.734024
 20
34.806715
 42
-0.049468
  0
VERTEX
  8
LAYER_1
 62
7
 10
19.695426
 20
34.752515
 42
-0.080822
  0
VERTEX
  8
LAYER_1
 62
7
 10
19.683746
 20
34.743887
 42
-0.190089
  0
VERTEX
  8
LAYER_1
 62
7
 10
19.672640
 20
34.742576
 42
-0.184759
  0
VERTEX
  8
LAYER_1
 62
7
 10
19.662801
 20
34.751258
 42
-0.078472
  0
VERTEX
  8
LAYER_1
 62
7
 10
19.654923
 20
34.772608
  0
VERTEX
  8
LAYER_1
 62
7
 10
18.687934
 20
36.448601
  0
SEQEND
  0
POLYLINE
  8
LAYER_1
 62
7
 70
1
 66
1
  0
VERTEX
  8
LAYER_1
 62
7
 10
26.072972
 20
36.448601
  0
VERTEX
  8
LAYER_1
 62
7
 10
27.770374
 20
36.448601
 42
0.004248
  0
VERTEX
  8
LAYER_1
 62
7
 10
27.343393
 20
35.715467
  0
VERTEX
  8
LAYER_1
 62
7
 10
27.131841
 20
35.347676
  0
VERTEX
  8
LAYER_1
 62
7
 10
26.918044
 20
34.981245
  0
VERTEX
  8
LAYER_1
 62
7
 10
26.072972
 20
36.448601
  0
SEQEND
  0
POLYLINE
  8
LAYER_1
 62
7
 70
1
 66
1
  0
VERTEX
  8
LAYER_1
 62
7
 10
33.499738
 20
36.448601
  0
VERTEX
  8
LAYER_1
 62
7
 10
34.854611
 20
36.448601
  0
VERTEX
  8
LAYER_1
 62
7
 10
34.515258
 20
35.863146
 42
-0.002966
  0
VERTEX
  8
LAYER_1
 62
7
 10
34.175360
 20
35.277691
  0
VERTEX
  8
LAYER_1
 62
7
 10
33.499738
 20
36.448601
  0
SEQEND
  0
POLYLINE
  8
LAYER_1
 62
7
 70
1
 66
1
  0
VERTEX
  8
LAYER_1
 62
7
 10
16.376957
 20
36.261371
 42
-0.000956
  0
VERTEX
  8
LAYER_1
 62
7
 10
18.369354
 20
36.261734
 42
0.000729
  0
VERTEX
  8
LAYER_1
 62
7
 10
19.365371
 20
34.538934
  0
VERTEX
  8
LAYER_1
 62
7
 10
17.372974
 20
34.538208
  0
VERTEX
  8
LAYER_1
 62
7
 10
16.376957
 20
36.261371
  0
SEQEND
  0
POLYLINE
  8
LAYER_1
 62
7
 70
1
 66
1
  0
VERTEX
  8
LAYER_1
 62
7
 10
20.998911
 20
36.261734
 42
-0.000683
  0
VERTEX
  8
LAYER_1
 62
7
 10
22.991307
 20
36.261734
  0
VERTEX
  8
LAYER_1
 62
7
 10
21.995653
 20
34.538208
  0
VERTEX
  8
LAYER_1
 62
7
 10
20.002894
 20
34.538934
 42
0.001171
  0
VERTEX
  8
LAYER_1
 62
7
 10
20.998911
 20
36.261734
  0
SEQEND
  0
POLYLINE
  8
LAYER_1
 62
7
 70
1
 66
1
  0
VERTEX
  8
LAYER_1
 62
7
 10
12.895434
 20
34.624203
  0
VERTEX
  8
LAYER_1
 62
7
 10
13.345547
 20
35.401740
 42
-0.001851
  0
VERTEX
  8
LAYER_1
 62
7
 10
13.795659
 20
36.179005
 42
0.001423
  0
VERTEX
  8
LAYER_1
 62
7
 10
15.139925
 20
36.177627
  0
VERTEX
  8
LAYER_1
 62
7
 10
15.588127
 20
36.176828
  0
VERTEX
  8
LAYER_1
 62
7
 10
15.138195
 20
35.400016
 42
-0.001994
  0
VERTEX
  8
LAYER_1
 62
7
 10
14.688264
 20
34.623477
  0
VERTEX
  8
LAYER_1
 62
7
 10
12.895434
 20
34.624203
  0
SEQEND
  0
POLYLINE
  8
LAYER_1
 62
7
 70
1
 66
1
  0
VERTEX
  8
LAYER_1
 62
7
 10
23.780501
 20
36.176828
 42
0.000607
  0
VERTEX
  8
LAYER_1
 62
7
 10
25.573694
 20
36.178642
  0
VERTEX
  8
LAYER_1
 62
7
 10
26.023307
 20
35.401422
 42
0.001423
  0
VERTEX
  8
LAYER_1
 62
7
 10
26.473193
 20
34.624203
  0
VERTEX
  8
LAYER_1
 62
7
 10
24.680000
 20
34.623114
  0
VERTEX
  8
LAYER_1
 62
7
 10
24.230387
 20
35.400107
 42
0.001951
  0
VERTEX
  8
LAYER_1
 62
7
 10
23.780501
 20
36.176828
  0
SEQEND
  0
POLYLINE
  8
LAYER_1
 62
7
 70
1
 66
1
  0
VERTEX
  8
LAYER_1
 62
7
 10
9.375449
 20
36.114055
 42
-0.002137
  0
VERTEX
  8
LAYER_1
 62
7
 10
11.030760
 20
36.112967
 42
0.003034
  0
VERTEX
  8
LAYER_1
 62
7
 10
11.853699
 20
34.686975
  0
VERTEX
  8
LAYER_1
 62
7
 10
10.200202
 20
34.685524
  0
VERTEX
  8
LAYER_1
 62
7
 10
9.375449
 20
36.114055
  0
SEQEND
  0
POLYLINE
  8
LAYER_1
 62
7
 70
1
 66
1
  0
VERTEX
  8
LAYER_1
 62
7
 10
28.338230
 20
36.113330
 42
-0.001480
  0
VERTEX
  8
LAYER_1
 62
7
 10
29.992453
 20
36.114418
  0
VERTEX
  8
LAYER_1
 62
7
 10
29.168426
 20
34.685524
  0
VERTEX
  8
LAYER_1
 62
7
 10
27.518920
 20
34.685887
 42
-0.001590
  0
VERTEX
  8
LAYER_1
 62
7
 10
28.134491
 20
35.755942
  0
VERTEX
  8
LAYER_1
 62
7
 10
28.338230
 20
36.113330
  0
SEQEND
  0
POLYLINE
  8
LAYER_1
 62
7
 70
1
 66
1
  0
VERTEX
  8
LAYER_1
 62
7
 10
6.608010
 20
36.037857
 42
-0.004986
  0
VERTEX
  8
LAYER_1
 62
7
 10
7.351666
 20
36.041440
  0
VERTEX
  8
LAYER_1
 62
7
 10
7.723528
 20
36.040766
  0
VERTEX
  8
LAYER_1
 62
7
 10
8.095323
 20
36.042574
  0
VERTEX
  8
LAYER_1
 62
7
 10
7.355113
 20
34.759182
  0
VERTEX
  8
LAYER_1
 62
7
 10
5.873606
 20
34.760271
 42
0.003802
  0
VERTEX
  8
LAYER_1
 62
7
 10
6.608010
 20
36.037857
  0
SEQEND
  0
POLYLINE
  8
LAYER_1
 62
7
 70
1
 66
1
  0
VERTEX
  8
LAYER_1
 62
7
 10
31.272942
 20
36.040760
  0
VERTEX
  8
LAYER_1
 62
7
 10
32.010974
 20
36.040805
 42
0.004286
  0
VERTEX
  8
LAYER_1
 62
7
 10
32.749006
 20
36.044389
 42
-0.003370
  0
VERTEX
  8
LAYER_1
 62
7
 10
33.308143
 20
35.081232
  0
VERTEX
  8
LAYER_1
 62
7
 10
33.494658
 20
34.760271
  0
VERTEX
  8
LAYER_1
 62
7
 10
32.013514
 20
34.759182
  0
VERTEX
  8
LAYER_1
 62
7
 10
31.272942
 20
36.040760
  0
SEQEND
  0
POLYLINE
  8
LAYER_1
 62
7
 70
1
 66
1
  0
VERTEX
  8
LAYER_1
 62
7
 10
2.373941
 20
35.966739
  0
VERTEX
  8
LAYER_1
 62
7
 10
3.683821
 20
35.968191
  0
VERTEX
  8
LAYER_1
 62
7
 10
4.012470
 20
35.400561
 42
0.002676
  0
VERTEX
  8
LAYER_1
 62
7
 10
4.341664
 20
34.833203
  0
VERTEX
  8
LAYER_1
 62
7
 10
3.688311
 20
34.832477
 42
0.004163
  0
VERTEX
  8
LAYER_1
 62
7
 10
3.034686
 20
34.829575
 42
-0.003911
  0
VERTEX
  8
LAYER_1
 62
7
 10
2.539076
 20
35.682363
  0
VERTEX
  8
LAYER_1
 62
7
 10
2.373941
 20
35.966739
  0
SEQEND
  0
POLYLINE
  8
LAYER_1
 62
7
 70
1
 66
1
  0
VERTEX
  8
LAYER_1
 62
7
 10
35.684444
 20
35.968191
  0
VERTEX
  8
LAYER_1
 62
7
 10
36.994324
 20
35.967102
  0
VERTEX
  8
LAYER_1
 62
7
 10
36.339747
 20
34.832477
  0
VERTEX
  8
LAYER_1
 62
7
 10
35.026601
 20
34.832840
 42
0.000926
  0
VERTEX
  8
LAYER_1
 62
7
 10
35.684444
 20
35.968191
  0
SEQEND
  0
POLYLINE
  8
LAYER_1
 62
7
 70
1
 66
1
  0
VERTEX
  8
LAYER_1
 62
7
 10
15.158878
 20
34.351341
  0
VERTEX
  8
LAYER_1
 62
7
 10
15.620647
 20
35.154187
 42
-0.005757
  0
VERTEX
  8
LAYER_1
 62
7
 10
16.089219
 20
35.952951
 42
0.002049
  0
VERTEX
  8
LAYER_1
 62
7
 10
17.009764
 20
34.353518
 42
0.001514
  0
VERTEX
  8
LAYER_1
 62
7
 10
16.086679
 20
32.749369
 42
-0.001208
  0
VERTEX
  8
LAYER_1
 62
7
 10
15.391406
 20
33.951171
  0
VERTEX
  8
LAYER_1
 62
7
 10
15.158878
 20
34.351341
  0
SEQEND
  0
POLYLINE
  8
LAYER_1
 62
7
 70
1
 66
1
  0
VERTEX
  8
LAYER_1
 62
7
 10
22.358864
 20
34.353156
 42
0.001387
  0
VERTEX
  8
LAYER_1
 62
7
 10
23.281948
 20
35.955854
 42
-0.001766
  0
VERTEX
  8
LAYER_1
 62
7
 10
24.209750
 20
34.351341
  0
VERTEX
  8
LAYER_1
 62
7
 10
23.746030
 20
33.550174
 42
-0.001778
  0
VERTEX
  8
LAYER_1
 62
7
 10
23.282311
 20
32.749006
 42
0.001459
  0
VERTEX
  8
LAYER_1
 62
7
 10
22.358864
 20
34.353156
  0
SEQEND
  0
POLYLINE
  8
LAYER_1
 62
7
 70
1
 66
1
  0
VERTEX
  8
LAYER_1
 62
7
 10
8.058312
 20
34.351704
 42
-0.000886
  0
VERTEX
  8
LAYER_1
 62
7
 10
8.821018
 20
35.672833
  0
VERTEX
  8
LAYER_1
 62
7
 10
9.582998
 20
34.350979
  0
VERTEX
  8
LAYER_1
 62
7
 10
9.201690
 20
33.693816
  0
VERTEX
  8
LAYER_1
 62
7
 10
8.822832
 20
33.035293
 42
-0.003052
  0
VERTEX
  8
LAYER_1
 62
7
 10
8.249561
 20
34.022635
  0
VERTEX
  8
LAYER_1
 62
7
 10
8.058312
 20
34.351704
  0
SEQEND
  0
POLYLINE
  8
LAYER_1
 62
7
 70
1
 66
1
  0
VERTEX
  8
LAYER_1
 62
7
 10
30.547609
 20
35.672833
  0
VERTEX
  8
LAYER_1
 62
7
 10
31.310315
 20
34.352430
  0
VERTEX
  8
LAYER_1
 62
7
 10
30.550875
 20
33.037470
 42
-0.006808
  0
VERTEX
  8
LAYER_1
 62
7
 10
30.166347
 20
33.693000
  0
VERTEX
  8
LAYER_1
 62
7
 10
29.977247
 20
34.022720
  0
VERTEX
  8
LAYER_1
 62
7
 10
29.785629
 20
34.350979
  0
VERTEX
  8
LAYER_1
 62
7
 10
30.547609
 20
35.672833
  0
SEQEND
  0
POLYLINE
  8
LAYER_1
 62
7
 70
1
 66
1
  0
VERTEX
  8
LAYER_1
 62
7
 10
1.542657
 20
35.397794
 42
-0.012491
  0
VERTEX
  8
LAYER_1
 62
7
 10
1.853617
 20
34.877969
  0
VERTEX
  8
LAYER_1
 62
7
 10
2.003723
 20
34.614604
  0
VERTEX
  8
LAYER_1
 62
7
 10
2.155869
 20
34.352430
 42
0.006700
  0
VERTEX
  8
LAYER_1
 62
7
 10
1.855794
 20
33.830383
 42
-0.019508
  0
VERTEX
  8
LAYER_1
 62
7
 10
1.542657
 20
33.316500
  0
VERTEX
  8
LAYER_1
 62
7
 10
1.542657
 20
35.397794
  0
SEQEND
  0
POLYLINE
  8
LAYER_1
 62
7
 70
1
 66
1
  0
VERTEX
  8
LAYER_1
 62
7
 10
37.213121
 20
34.352430
 42
0.006466
  0
VERTEX
  8
LAYER_1
 62
7
 10
37.512652
 20
34.875702
 42
-0.021393
  0
VERTEX
  8
LAYER_1
 62
7
 10
37.827422
 20
35.389449
  0
VERTEX
  8
LAYER_1
 62
7
 10
37.827422
 20
33.317226
 42
-0.021921
  0
VERTEX
  8
LAYER_1
 62
7
 10
37.512924
 20
33.830338
 42
0.007598
  0
VERTEX
  8
LAYER_1
 62
7
 10
37.213121
 20
34.352430
  0
SEQEND
  0
POLYLINE
  8
LAYER_1
 62
7
 70
1
 66
1
  0
VERTEX
  8
LAYER_1
 62
7
 10
17.369346
 20
34.167378
 42
-0.000955
  0
VERTEX
  8
LAYER_1
 62
7
 10
19.364282
 20
34.169192
 42
0.000305
  0
VERTEX
  8
LAYER_1
 62
7
 10
18.370805
 20
32.444214
 42
-0.001090
  0
VERTEX
  8
LAYER_1
 62
7
 10
16.374055
 20
32.442763
 42
0.002390
  0
VERTEX
  8
LAYER_1
 62
7
 10
17.369346
 20
34.167378
  0
SEQEND
  0
POLYLINE
  8
LAYER_1
 62
7
 70
1
 66
1
  0
VERTEX
  8
LAYER_1
 62
7
 10
20.004345
 20
34.169192
  0
VERTEX
  8
LAYER_1
 62
7
 10
21.996379
 20
34.169192
 42
0.001287
  0
VERTEX
  8
LAYER_1
 62
7
 10
22.994573
 20
32.443126
 42
-0.000682
  0
VERTEX
  8
LAYER_1
 62
7
 10
20.999636
 20
32.443126
  0
VERTEX
  8
LAYER_1
 62
7
 10
20.004345
 20
34.169192
  0
SEQEND
  0
POLYLINE
  8
LAYER_1
 62
7
 70
1
 66
1
  0
VERTEX
  8
LAYER_1
 62
7
 10
12.897248
 20
34.081383
  0
VERTEX
  8
LAYER_1
 62
7
 10
14.693344
 20
34.080294
  0
VERTEX
  8
LAYER_1
 62
7
 10
14.915367
 20
33.691395
 42
-0.001628
  0
VERTEX
  8
LAYER_1
 62
7
 10
15.585587
 20
32.526943
  0
VERTEX
  8
LAYER_1
 62
7
 10
13.797836
 20
32.525492
 42
-0.002103
  0
VERTEX
  8
LAYER_1
 62
7
 10
12.897248
 20
34.081383
  0
SEQEND
  0
POLYLINE
  8
LAYER_1
 62
7
 70
1
 66
1
  0
VERTEX
  8
LAYER_1
 62
7
 10
24.676009
 20
34.080657
  0
VERTEX
  8
LAYER_1
 62
7
 10
26.471379
 20
34.081383
 42
-0.001428
  0
VERTEX
  8
LAYER_1
 62
7
 10
25.571880
 20
32.526218
  0
VERTEX
  8
LAYER_1
 62
7
 10
23.783404
 20
32.526943
 42
-0.002051
  0
VERTEX
  8
LAYER_1
 62
7
 10
24.453419
 20
33.691905
  0
VERTEX
  8
LAYER_1
 62
7
 10
24.676009
 20
34.080657
  0
SEQEND
  0
POLYLINE
  8
LAYER_1
 62
7
 70
1
 66
1
  0
VERTEX
  8
LAYER_1
 62
7
 10
9.373635
 20
32.590442
  0
VERTEX
  8
LAYER_1
 62
7
 10
9.582045
 20
32.948164
 42
-0.002058
  0
VERTEX
  8
LAYER_1
 62
7
 10
10.204556
 20
34.022964
  0
VERTEX
  8
LAYER_1
 62
7
 10
11.851159
 20
34.021876
 42
-0.002061
  0
VERTEX
  8
LAYER_1
 62
7
 10
11.024954
 20
32.589353
  0
VERTEX
  8
LAYER_1
 62
7
 10
9.373635
 20
32.590442
  0
SEQEND
  0
POLYLINE
  8
LAYER_1
 62
7
 70
1
 66
1
  0
VERTEX
  8
LAYER_1
 62
7
 10
27.517832
 20
34.021876
  0
VERTEX
  8
LAYER_1
 62
7
 10
29.165160
 20
34.022601
  0
VERTEX
  8
LAYER_1
 62
7
 10
29.373661
 20
33.665196
  0
VERTEX
  8
LAYER_1
 62
7
 10
29.786854
 20
32.948210
  0
VERTEX
  8
LAYER_1
 62
7
 10
29.995355
 20
32.590805
  0
VERTEX
  8
LAYER_1
 62
7
 10
28.344036
 20
32.589353
 42
-0.002286
  0
VERTEX
  8
LAYER_1
 62
7
 10
27.517832
 20
34.021876
  0
SEQEND
  0
POLYLINE
  8
LAYER_1
 62
7
 70
1
 66
1
  0
VERTEX
  8
LAYER_1
 62
7
 10
5.873969
 20
33.948581
  0
VERTEX
  8
LAYER_1
 62
7
 10
7.352936
 20
33.948943
  0
VERTEX
  8
LAYER_1
 62
7
 10
7.725082
 20
33.306522
 42
0.002460
  0
VERTEX
  8
LAYER_1
 62
7
 10
8.097500
 20
32.664100
  0
VERTEX
  8
LAYER_1
 62
7
 10
6.615630
 20
32.663374
 42
-0.001228
  0
VERTEX
  8
LAYER_1
 62
7
 10
5.873969
 20
33.948581
  0
SEQEND
  0
POLYLINE
  8
LAYER_1
 62
7
 70
1
 66
1
  0
VERTEX
  8
LAYER_1
 62
7
 10
18.688660
 20
32.250816
 42
-0.003923
  0
VERTEX
  8
LAYER_1
 62
7
 10
19.185035
 20
33.119201
  0
VERTEX
  8
LAYER_1
 62
7
 10
19.435774
 20
33.552067
  0
VERTEX
  8
LAYER_1
 62
7
 10
19.684677
 20
33.985954
 42
0.001032
  0
VERTEX
  8
LAYER_1
 62
7
 10
20.431893
 20
32.688734
  0
VERTEX
  8
LAYER_1
 62
7
 10
20.680330
 20
32.255896
  0
VERTEX
  8
LAYER_1
 62
7
 10
20.181234
 20
31.392863
  0
VERTEX
  8
LAYER_1
 62
7
 10
19.684314
 20
30.528741
 42
0.002580
  0
VERTEX
  8
LAYER_1
 62
7
 10
18.688660
 20
32.250816
  0
SEQEND
  0
POLYLINE
  8
LAYER_1
 62
7
 70
1
 66
1
  0
VERTEX
  8
LAYER_1
 62
7
 10
31.271491
 20
32.664463
  0
VERTEX
  8
LAYER_1
 62
7
 10
31.643636
 20
33.306839
 42
-0.002530
  0
VERTEX
  8
LAYER_1
 62
7
 10
32.016054
 20
33.948943
  0
VERTEX
  8
LAYER_1
 62
7
 10
33.495021
 20
33.948581
  0
VERTEX
  8
LAYER_1
 62
7
 10
32.753360
 20
32.663737
  0
VERTEX
  8
LAYER_1
 62
7
 10
31.271491
 20
32.664463
  0
SEQEND
  0
POLYLINE
  8
LAYER_1
 62
7
 70
1
 66
1
  0
VERTEX
  8
LAYER_1
 62
7
 10
3.030695
 20
33.874922
 42
0.003851
  0
VERTEX
  8
LAYER_1
 62
7
 10
4.011149
 20
33.874310
  0
VERTEX
  8
LAYER_1
 62
7
 10
4.338035
 20
33.874560
 42
-0.002597
  0
VERTEX
  8
LAYER_1
 62
7
 10
3.683821
 20
32.736669
  0
VERTEX
  8
LAYER_1
 62
7
 10
2.371764
 20
32.736669
 42
0.000745
  0
VERTEX
  8
LAYER_1
 62
7
 10
3.030695
 20
33.874922
  0
SEQEND
  0
POLYLINE
  8
LAYER_1
 62
7
 70
1
 66
1
  0
VERTEX
  8
LAYER_1
 62
7
 10
35.031681
 20
33.869843
 42
-0.003067
  0
VERTEX
  8
LAYER_1
 62
7
 10
36.013308
 20
33.870149
  0
VERTEX
  8
LAYER_1
 62
7
 10
36.340472
 20
33.870205
 42
0.000927
  0
VERTEX
  8
LAYER_1
 62
7
 10
36.997226
 20
32.736669
  0
VERTEX
  8
LAYER_1
 62
7
 10
35.684807
 20
32.736669
  0
VERTEX
  8
LAYER_1
 62
7
 10
35.031681
 20
33.869843
  0
SEQEND
  0
POLYLINE
  8
LAYER_1
 62
7
 70
1
 66
1
  0
VERTEX
  8
LAYER_1
 62
7
 10
11.601882
 20
32.249002
 42
-0.004010
  0
VERTEX
  8
LAYER_1
 62
7
 10
12.449132
 20
33.723252
  0
VERTEX
  8
LAYER_1
 62
7
 10
13.296018
 20
32.259162
  0
VERTEX
  8
LAYER_1
 62
7
 10
12.874026
 20
31.524259
 42
-0.006506
  0
VERTEX
  8
LAYER_1
 62
7
 10
12.444415
 20
30.793983
 42
0.004357
  0
VERTEX
  8
LAYER_1
 62
7
 10
11.601882
 20
32.249002
  0
SEQEND
  0
POLYLINE
  8
LAYER_1
 62
7
 70
1
 66
1
  0
VERTEX
  8
LAYER_1
 62
7
 10
26.918407
 20
33.723252
 42
-0.001619
  0
VERTEX
  8
LAYER_1
 62
7
 10
27.553929
 20
32.625899
  0
VERTEX
  8
LAYER_1
 62
7
 10
27.767108
 20
32.260976
 42
-0.001017
  0
VERTEX
  8
LAYER_1
 62
7
 10
26.921673
 20
30.792894
 42
-0.002978
  0
VERTEX
  8
LAYER_1
 62
7
 10
26.285130
 20
31.889585
  0
VERTEX
  8
LAYER_1
 62
7
 10
26.072609
 20
32.255171
 42
-0.000877
  0
VERTEX
  8
LAYER_1
 62
7
 10
26.918407
 20
33.723252
  0
SEQEND
  0
POLYLINE
  8
LAYER_1
 62
7
 70
1
 66
1
  0
VERTEX
  8
LAYER_1
 62
7
 10
5.189639
 20
33.427531
 42
-0.005958
  0
VERTEX
  8
LAYER_1
 62
7
 10
5.530806
 20
32.844344
  0
VERTEX
  8
LAYER_1
 62
7
 10
5.698975
 20
32.551322
  0
VERTEX
  8
LAYER_1
 62
7
 10
5.869252
 20
32.259525
 42
-0.001519
  0
VERTEX
  8
LAYER_1
 62
7
 10
5.192179
 20
31.086438
  0
VERTEX
  8
LAYER_1
 62
7
 10
4.854594
 20
31.669852
 42
0.002909
  0
VERTEX
  8
LAYER_1
 62
7
 10
4.516193
 20
32.252993
 42
-0.003191
  0
VERTEX
  8
LAYER_1
 62
7
 10
5.021549
 20
33.133693
  0
VERTEX
  8
LAYER_1
 62
7
 10
5.189639
 20
33.427531
  0
SEQEND
  0
POLYLINE
  8
LAYER_1
 62
7
 70
1
 66
1
  0
VERTEX
  8
LAYER_1
 62
7
 10
34.173546
 20
33.427531
 42
-0.005132
  0
VERTEX
  8
LAYER_1
 62
7
 10
34.852434
 20
32.254808
  0
VERTEX
  8
LAYER_1
 62
7
 10
34.682519
 20
31.962863
  0
VERTEX
  8
LAYER_1
 62
7
 10
34.514441
 20
31.669897
 42
-0.006012
  0
VERTEX
  8
LAYER_1
 62
7
 10
34.173183
 20
31.087164
  0
VERTEX
  8
LAYER_1
 62
7
 10
33.837368
 20
31.672573
  0
VERTEX
  8
LAYER_1
 62
7
 10
33.499375
 20
32.256622
  0
VERTEX
  8
LAYER_1
 62
7
 10
34.173546
 20
33.427531
  0
SEQEND
  0
POLYLINE
  8
LAYER_1
 62
7
 70
1
 66
1
  0
VERTEX
  8
LAYER_1
 62
7
 10
16.374055
 20
32.072658
  0
VERTEX
  8
LAYER_1
 62
7
 10
18.369354
 20
32.071932
  0
VERTEX
  8
LAYER_1
 62
7
 10
19.364282
 20
30.346229
  0
VERTEX
  8
LAYER_1
 62
7
 10
17.371523
 20
30.346592
 42
0.001287
  0
VERTEX
  8
LAYER_1
 62
7
 10
16.374055
 20
32.072658
  0
SEQEND
  0
POLYLINE
  8
LAYER_1
 62
7
 70
1
 66
1
  0
VERTEX
  8
LAYER_1
 62
7
 10
20.999636
 20
32.072295
  0
VERTEX
  8
LAYER_1
 62
7
 10
22.994936
 20
32.072658
 42
0.001100
  0
VERTEX
  8
LAYER_1
 62
7
 10
21.996379
 20
30.346229
  0
VERTEX
  8
LAYER_1
 62
7
 10
20.004345
 20
30.346229
  0
VERTEX
  8
LAYER_1
 62
7
 10
20.999636
 20
32.072295
  0
SEQEND
  0
POLYLINE
  8
LAYER_1
 62
7
 70
1
 66
1
  0
VERTEX
  8
LAYER_1
 62
7
 10
12.896886
 20
30.434764
  0
VERTEX
  8
LAYER_1
 62
7
 10
13.346363
 20
31.212392
 42
-0.002527
  0
VERTEX
  8
LAYER_1
 62
7
 10
13.797473
 20
31.989203
  0
VERTEX
  8
LAYER_1
 62
7
 10
15.585949
 20
31.988477
 42
-0.001444
  0
VERTEX
  8
LAYER_1
 62
7
 10
14.915832
 20
30.824077
  0
VERTEX
  8
LAYER_1
 62
7
 10
14.693707
 20
30.435127
 42
-0.001363
  0
VERTEX
  8
LAYER_1
 62
7
 10
12.896886
 20
30.434764
  0
SEQEND
  0
POLYLINE
  8
LAYER_1
 62
7
 70
1
 66
1
  0
VERTEX
  8
LAYER_1
 62
7
 10
23.783404
 20
31.988477
  0
VERTEX
  8
LAYER_1
 62
7
 10
25.571517
 20
31.989203
 42
-0.001483
  0
VERTEX
  8
LAYER_1
 62
7
 10
26.471016
 20
30.434038
 42
-0.001060
  0
VERTEX
  8
LAYER_1
 62
7
 10
24.674557
 20
30.435490
  0
VERTEX
  8
LAYER_1
 62
7
 10
24.452704
 20
30.824332
 42
-0.001944
  0
VERTEX
  8
LAYER_1
 62
7
 10
23.783404
 20
31.988477
  0
SEQEND
  0
POLYLINE
  8
LAYER_1
 62
7
 70
1
 66
1
  0
VERTEX
  8
LAYER_1
 62
7
 10
9.372909
 20
31.924979
  0
VERTEX
  8
LAYER_1
 62
7
 10
11.024592
 20
31.926068
 42
-0.002144
  0
VERTEX
  8
LAYER_1
 62
7
 10
11.850796
 20
30.493545
  0
VERTEX
  8
LAYER_1
 62
7
 10
10.204193
 20
30.492457
 42
-0.001938
  0
VERTEX
  8
LAYER_1
 62
7
 10
9.581530
 20
31.567410
  0
VERTEX
  8
LAYER_1
 62
7
 10
9.372909
 20
31.924979
  0
SEQEND
  0
POLYLINE
  8
LAYER_1
 62
7
 70
1
 66
1
  0
VERTEX
  8
LAYER_1
 62
7
 10
27.518194
 20
30.493545
 42
-0.002429
  0
VERTEX
  8
LAYER_1
 62
7
 10
28.344399
 20
31.926068
  0
VERTEX
  8
LAYER_1
 62
7
 10
29.995718
 20
31.924616
  0
VERTEX
  8
LAYER_1
 62
7
 10
29.787211
 20
31.567211
 42
-0.001450
  0
VERTEX
  8
LAYER_1
 62
7
 10
29.165160
 20
30.492819
  0
VERTEX
  8
LAYER_1
 62
7
 10
27.518194
 20
30.493545
  0
SEQEND
  0
POLYLINE
  8
LAYER_1
 62
7
 70
1
 66
1
  0
VERTEX
  8
LAYER_1
 62
7
 10
5.872881
 20
30.565752
  0
VERTEX
  8
LAYER_1
 62
7
 10
6.615630
 20
31.851684
  0
VERTEX
  8
LAYER_1
 62
7
 10
8.097863
 20
31.851321
 42
0.001363
  0
VERTEX
  8
LAYER_1
 62
7
 10
7.539644
 20
30.886583
  0
VERTEX
  8
LAYER_1
 62
7
 10
7.352936
 20
30.565389
  0
VERTEX
  8
LAYER_1
 62
7
 10
5.872881
 20
30.565752
  0
SEQEND
  0
POLYLINE
  8
LAYER_1
 62
7
 70
1
 66
1
  0
VERTEX
  8
LAYER_1
 62
7
 10
31.271128
 20
31.851321
  0
VERTEX
  8
LAYER_1
 62
7
 10
32.752997
 20
31.851684
  0
VERTEX
  8
LAYER_1
 62
7
 10
33.495747
 20
30.565752
  0
VERTEX
  8
LAYER_1
 62
7
 10
32.015691
 20
30.565389
  0
VERTEX
  8
LAYER_1
 62
7
 10
31.643545
 20
31.208491
 42
0.001823
  0
VERTEX
  8
LAYER_1
 62
7
 10
31.271128
 20
31.851321
  0
SEQEND
  0
POLYLINE
  8
LAYER_1
 62
7
 70
1
 66
1
  0
VERTEX
  8
LAYER_1
 62
7
 10
2.372489
 20
31.777300
  0
VERTEX
  8
LAYER_1
 62
7
 10
3.684547
 20
31.777300
 42
-0.002237
  0
VERTEX
  8
LAYER_1
 62
7
 10
4.339124
 20
30.639410
  0
VERTEX
  8
LAYER_1
 62
7
 10
3.030332
 20
30.639773
  0
VERTEX
  8
LAYER_1
 62
7
 10
2.372489
 20
31.777300
  0
SEQEND
  0
POLYLINE
  8
LAYER_1
 62
7
 70
1
 66
1
  0
VERTEX
  8
LAYER_1
 62
7
 10
35.029867
 20
30.639410
 42
-0.002701
  0
VERTEX
  8
LAYER_1
 62
7
 10
35.684081
 20
31.777300
  0
VERTEX
  8
LAYER_1
 62
7
 10
36.996138
 20
31.777300
  0
VERTEX
  8
LAYER_1
 62
7
 10
36.337932
 20
30.639410
  0
VERTEX
  8
LAYER_1
 62
7
 10
35.029867
 20
30.639410
  0
SEQEND
  0
POLYLINE
  8
LAYER_1
 62
7
 70
1
 66
1
  0
VERTEX
  8
LAYER_1
 62
7
 10
16.079422
 20
31.762061
 42
-0.006050
  0
VERTEX
  8
LAYER_1
 62
7
 10
16.547723
 20
30.963569
  0
VERTEX
  8
LAYER_1
 62
7
 10
16.777910
 20
30.561993
  0
VERTEX
  8
LAYER_1
 62
7
 10
17.009764
 20
30.161540
 42
0.001514
  0
VERTEX
  8
LAYER_1
 62
7
 10
16.085954
 20
28.557753
 42
-0.001056
  0
VERTEX
  8
LAYER_1
 62
7
 10
15.158878
 20
30.163717
 42
0.002580
  0
VERTEX
  8
LAYER_1
 62
7
 10
16.079422
 20
31.762061
  0
SEQEND
  0
POLYLINE
  8
LAYER_1
 62
7
 70
1
 66
1
  0
VERTEX
  8
LAYER_1
 62
7
 10
22.358864
 20
30.161902
 42
0.001514
  0
VERTEX
  8
LAYER_1
 62
7
 10
23.282311
 20
31.766052
 42
-0.000907
  0
VERTEX
  8
LAYER_1
 62
7
 10
23.977176
 20
30.563586
  0
VERTEX
  8
LAYER_1
 62
7
 10
24.209750
 20
30.163354
  0
VERTEX
  8
LAYER_1
 62
7
 10
23.284851
 20
28.559930
  0
VERTEX
  8
LAYER_1
 62
7
 10
22.358864
 20
30.161902
  0
SEQEND
  0
POLYLINE
  8
LAYER_1
 62
7
 70
1
 66
1
  0
VERTEX
  8
LAYER_1
 62
7
 10
8.822106
 20
31.479402
 42
0.001289
  0
VERTEX
  8
LAYER_1
 62
7
 10
9.582998
 20
30.164442
  0
VERTEX
  8
LAYER_1
 62
7
 10
8.820655
 20
28.842226
  0
VERTEX
  8
LAYER_1
 62
7
 10
8.058312
 20
30.163717
  0
VERTEX
  8
LAYER_1
 62
7
 10
8.249703
 20
30.492315
 42
-0.002512
  0
VERTEX
  8
LAYER_1
 62
7
 10
8.822106
 20
31.479402
  0
SEQEND
  0
POLYLINE
  8
LAYER_1
 62
7
 70
1
 66
1
  0
VERTEX
  8
LAYER_1
 62
7
 10
30.544707
 20
31.480854
 42
-0.003474
  0
VERTEX
  8
LAYER_1
 62
7
 10
31.118896
 20
30.492236
  0
VERTEX
  8
LAYER_1
 62
7
 10
31.310315
 20
30.162628
  0
VERTEX
  8
LAYER_1
 62
7
 10
30.547972
 20
28.842226
  0
VERTEX
  8
LAYER_1
 62
7
 10
29.785629
 20
30.164080
 42
0.002976
  0
VERTEX
  8
LAYER_1
 62
7
 10
30.544707
 20
31.480854
  0
SEQEND
  0
POLYLINE
  8
LAYER_1
 62
7
 70
1
 66
1
  0
VERTEX
  8
LAYER_1
 62
7
 10
1.542657
 20
31.198558
 42
-0.017807
  0
VERTEX
  8
LAYER_1
 62
7
 10
1.856974
 20
30.682906
  0
VERTEX
  8
LAYER_1
 62
7
 10
2.155507
 20
30.157185
 42
0.009548
  0
VERTEX
  8
LAYER_1
 62
7
 10
1.854524
 20
29.637814
 42
-0.020256
  0
VERTEX
  8
LAYER_1
 62
7
 10
1.542657
 20
29.125247
  0
VERTEX
  8
LAYER_1
 62
7
 10
1.542657
 20
31.198558
  0
SEQEND
  0
POLYLINE
  8
LAYER_1
 62
7
 70
1
 66
1
  0
VERTEX
  8
LAYER_1
 62
7
 10
37.212758
 20
30.162628
 42
0.008009
  0
VERTEX
  8
LAYER_1
 62
7
 10
37.512878
 20
30.684675
 42
-0.022260
  0
VERTEX
  8
LAYER_1
 62
7
 10
37.827422
 20
31.197470
  0
VERTEX
  8
LAYER_1
 62
7
 10
37.827422
 20
29.117627
 42
-0.014860
  0
VERTEX
  8
LAYER_1
 62
7
 10
37.514647
 20
29.636862
 42
0.004385
  0
VERTEX
  8
LAYER_1
 62
7
 10
37.212758
 20
30.162628
  0
SEQEND
  0
POLYLINE
  8
LAYER_1
 62
7
 70
1
 66
1
  0
VERTEX
  8
LAYER_1
 62
7
 10
17.373700
 20
29.977576
  0
VERTEX
  8
LAYER_1
 62
7
 10
19.366096
 20
29.976487
 42
0.000847
  0
VERTEX
  8
LAYER_1
 62
7
 10
18.369717
 20
28.254049
 42
-0.000820
  0
VERTEX
  8
LAYER_1
 62
7
 10
16.377683
 20
28.253687
  0
VERTEX
  8
LAYER_1
 62
7
 10
17.373700
 20
29.977576
  0
SEQEND
  0
POLYLINE
  8
LAYER_1
 62
7
 70
1
 66
1
  0
VERTEX
  8
LAYER_1
 62
7
 10
20.002531
 20
29.976487
  0
VERTEX
  8
LAYER_1
 62
7
 10
21.995290
 20
29.977576
  0
VERTEX
  8
LAYER_1
 62
7
 10
22.990944
 20
28.253687
 42
-0.000683
  0
VERTEX
  8
LAYER_1
 62
7
 10
20.998548
 20
28.253687
 42
0.001289
  0
VERTEX
  8
LAYER_1
 62
7
 10
20.002531
 20
29.976487
  0
SEQEND
  0
POLYLINE
  8
LAYER_1
 62
7
 70
1
 66
1
  0
VERTEX
  8
LAYER_1
 62
7
 10
12.895071
 20
29.890855
  0
VERTEX
  8
LAYER_1
 62
7
 10
14.688264
 20
29.892307
  0
VERTEX
  8
LAYER_1
 62
7
 10
15.137878
 20
29.115450
 42
0.001969
  0
VERTEX
  8
LAYER_1
 62
7
 10
15.587764
 20
28.338593
  0
VERTEX
  8
LAYER_1
 62
7
 10
13.793119
 20
28.337504
 42
0.001016
  0
VERTEX
  8
LAYER_1
 62
7
 10
12.895071
 20
29.890855
  0
SEQEND
  0
POLYLINE
  8
LAYER_1
 62
7
 70
1
 66
1
  0
VERTEX
  8
LAYER_1
 62
7
 10
23.780864
 20
28.338593
 42
0.001936
  0
VERTEX
  8
LAYER_1
 62
7
 10
24.230795
 20
29.115450
 42
-0.001936
  0
VERTEX
  8
LAYER_1
 62
7
 10
24.680726
 20
29.892307
  0
VERTEX
  8
LAYER_1
 62
7
 10
26.473556
 20
29.890855
 42
0.001077
  0
VERTEX
  8
LAYER_1
 62
7
 10
25.799306
 20
28.725128
  0
VERTEX
  8
LAYER_1
 62
7
 10
25.574057
 20
28.336779
 42
0.000607
  0
VERTEX
  8
LAYER_1
 62
7
 10
23.780864
 20
28.338593
  0
SEQEND
  0
POLYLINE
  8
LAYER_1
 62
7
 70
1
 66
1
  0
VERTEX
  8
LAYER_1
 62
7
 10
10.200565
 20
29.830260
  0
VERTEX
  8
LAYER_1
 62
7
 10
11.853699
 20
29.828445
 42
0.004001
  0
VERTEX
  8
LAYER_1
 62
7
 10
11.032937
 20
28.402817
 42
-0.003983
  0
VERTEX
  8
LAYER_1
 62
7
 10
10.204375
 20
28.398780
  0
VERTEX
  8
LAYER_1
 62
7
 10
9.375812
 20
28.399914
  0
VERTEX
  8
LAYER_1
 62
7
 10
10.200565
 20
29.830260
  0
SEQEND
  0
POLYLINE
  8
LAYER_1
 62
7
 70
1
 66
1
  0
VERTEX
  8
LAYER_1
 62
7
 10
27.514203
 20
29.828808
  0
VERTEX
  8
LAYER_1
 62
7
 10
29.167337
 20
29.830260
  0
VERTEX
  8
LAYER_1
 62
7
 10
29.992815
 20
28.399189
  0
VERTEX
  8
LAYER_1
 62
7
 10
29.164480
 20
28.398780
 42
-0.004067
  0
VERTEX
  8
LAYER_1
 62
7
 10
28.336416
 20
28.402454
 42
0.003998
  0
VERTEX
  8
LAYER_1
 62
7
 10
27.514203
 20
29.828808
  0
SEQEND
  0
POLYLINE
  8
LAYER_1
 62
7
 70
1
 66
1
  0
VERTEX
  8
LAYER_1
 62
7
 10
19.672703
 20
29.772204
  0
VERTEX
  8
LAYER_1
 62
7
 10
19.699916
 20
29.763859
 42
0.000120
  0
VERTEX
  8
LAYER_1
 62
7
 10
20.681419
 20
28.066457
 42
0.001707
  0
VERTEX
  8
LAYER_1
 62
7
 10
19.684677
 20
26.336400
 42
0.001452
  0
VERTEX
  8
LAYER_1
 62
7
 10
18.686845
 20
28.066820
 42
0.000805
  0
VERTEX
  8
LAYER_1
 62
7
 10
19.672703
 20
29.772204
  0
SEQEND
  0
POLYLINE
  8
LAYER_1
 62
7
 70
1
 66
1
  0
VERTEX
  8
LAYER_1
 62
7
 10
5.873606
 20
29.755876
  0
VERTEX
  8
LAYER_1
 62
7
 10
7.354388
 20
29.756239
 42
-0.001571
  0
VERTEX
  8
LAYER_1
 62
7
 10
8.095685
 20
28.471395
  0
VERTEX
  8
LAYER_1
 62
7
 10
7.723891
 20
28.473204
  0
VERTEX
  8
LAYER_1
 62
7
 10
7.352029
 20
28.472529
 42
-0.004986
  0
VERTEX
  8
LAYER_1
 62
7
 10
6.608373
 20
28.476112
 42
0.003951
  0
VERTEX
  8
LAYER_1
 62
7
 10
6.058012
 20
29.436360
  0
VERTEX
  8
LAYER_1
 62
7
 10
5.873606
 20
29.755876
  0
SEQEND
  0
POLYLINE
  8
LAYER_1
 62
7
 70
1
 66
1
  0
VERTEX
  8
LAYER_1
 62
7
 10
31.272942
 20
28.471395
 42
-0.001637
  0
VERTEX
  8
LAYER_1
 62
7
 10
32.014603
 20
29.756602
  0
VERTEX
  8
LAYER_1
 62
7
 10
33.495021
 20
29.755513
  0
VERTEX
  8
LAYER_1
 62
7
 10
33.123556
 20
29.112502
 42
-0.002852
  0
VERTEX
  8
LAYER_1
 62
7
 10
32.750458
 20
28.470307
 42
0.003315
  0
VERTEX
  8
LAYER_1
 62
7
 10
31.272942
 20
28.471395
  0
SEQEND
  0
POLYLINE
  8
LAYER_1
 62
7
 70
1
 66
1
  0
VERTEX
  8
LAYER_1
 62
7
 10
3.028518
 20
29.681492
  0
VERTEX
  8
LAYER_1
 62
7
 10
4.341301
 20
29.680766
 42
0.001687
  0
VERTEX
  8
LAYER_1
 62
7
 10
3.847834
 20
28.828590
  0
VERTEX
  8
LAYER_1
 62
7
 10
3.682369
 20
28.545053
 42
0.001248
  0
VERTEX
  8
LAYER_1
 62
7
 10
2.373941
 20
28.546868
  0
VERTEX
  8
LAYER_1
 62
7
 10
3.028518
 20
29.681492
  0
SEQEND
  0
POLYLINE
  8
LAYER_1
 62
7
 70
1
 66
1
  0
VERTEX
  8
LAYER_1
 62
7
 10
35.027327
 20
29.681129
  0
VERTEX
  8
LAYER_1
 62
7
 10
36.340472
 20
29.681129
  0
VERTEX
  8
LAYER_1
 62
7
 10
36.994687
 20
28.546505
  0
VERTEX
  8
LAYER_1
 62
7
 10
35.684807
 20
28.545779
  0
VERTEX
  8
LAYER_1
 62
7
 10
35.356611
 20
29.113726
 42
0.002546
  0
VERTEX
  8
LAYER_1
 62
7
 10
35.027327
 20
29.681129
  0
SEQEND
  0
POLYLINE
  8
LAYER_1
 62
7
 70
1
 66
1
  0
VERTEX
  8
LAYER_1
 62
7
 10
11.601519
 20
28.066094
 42
-0.001294
  0
VERTEX
  8
LAYER_1
 62
7
 10
12.450583
 20
29.533450
  0
VERTEX
  8
LAYER_1
 62
7
 10
13.296744
 20
28.066094
  0
VERTEX
  8
LAYER_1
 62
7
 10
12.872711
 20
27.332961
  0
VERTEX
  8
LAYER_1
 62
7
 10
12.450583
 20
26.598738
 42
-0.000994
  0
VERTEX
  8
LAYER_1
 62
7
 10
11.601519
 20
28.066094
  0
SEQEND
  0
POLYLINE
  8
LAYER_1
 62
7
 70
1
 66
1
  0
VERTEX
  8
LAYER_1
 62
7
 10
26.918044
 20
29.534176
 42
-0.000797
  0
VERTEX
  8
LAYER_1
 62
7
 10
27.767108
 20
28.066457
  0
VERTEX
  8
LAYER_1
 62
7
 10
26.923487
 20
26.604544
 42
-0.007427
  0
VERTEX
  8
LAYER_1
 62
7
 10
26.494601
 20
27.333460
  0
VERTEX
  8
LAYER_1
 62
7
 10
26.284444
 20
27.700622
  0
VERTEX
  8
LAYER_1
 62
7
 10
26.072247
 20
28.066457
 42
0.001295
  0
VERTEX
  8
LAYER_1
 62
7
 10
26.918044
 20
29.534176
  0
SEQEND
  0
POLYLINE
  8
LAYER_1
 62
7
 70
1
 66
1
  0
VERTEX
  8
LAYER_1
 62
7
 10
4.515468
 20
28.066820
  0
VERTEX
  8
LAYER_1
 62
7
 10
4.853778
 20
28.653273
 42
-0.004144
  0
VERTEX
  8
LAYER_1
 62
7
 10
5.195081
 20
29.238092
 42
0.001898
  0
VERTEX
  8
LAYER_1
 62
7
 10
5.869252
 20
28.066457
 42
0.002082
  0
VERTEX
  8
LAYER_1
 62
7
 10
5.198347
 20
26.899902
 42
-0.011860
  0
VERTEX
  8
LAYER_1
 62
7
 10
4.852281
 20
27.480368
 42
0.003706
  0
VERTEX
  8
LAYER_1
 62
7
 10
4.515468
 20
28.066820
  0
SEQEND
  0
POLYLINE
  8
LAYER_1
 62
7
 70
1
 66
1
  0
VERTEX
  8
LAYER_1
 62
7
 10
34.172458
 20
29.235552
 42
-0.007694
  0
VERTEX
  8
LAYER_1
 62
7
 10
34.514441
 20
28.653908
 42
0.004789
  0
VERTEX
  8
LAYER_1
 62
7
 10
34.853160
 20
28.070086
  0
VERTEX
  8
LAYER_1
 62
7
 10
34.516437
 20
27.481229
 42
-0.006236
  0
VERTEX
  8
LAYER_1
 62
7
 10
34.172095
 20
26.896999
 42
0.001901
  0
VERTEX
  8
LAYER_1
 62
7
 10
33.499012
 20
28.066457
 42
0.001801
  0
VERTEX
  8
LAYER_1
 62
7
 10
34.172458
 20
29.235552
  0
SEQEND
  0
POLYLINE
  8
LAYER_1
 62
7
 70
1
 66
1
  0
VERTEX
  8
LAYER_1
 62
7
 10
16.377320
 20
27.878865
 42
-0.000819
  0
VERTEX
  8
LAYER_1
 62
7
 10
18.370079
 20
27.878502
 42
0.000917
  0
VERTEX
  8
LAYER_1
 62
7
 10
19.365008
 20
26.157153
  0
VERTEX
  8
LAYER_1
 62
7
 10
17.372974
 20
26.156064
  0
VERTEX
  8
LAYER_1
 62
7
 10
16.377320
 20
27.878865
  0
SEQEND
  0
POLYLINE
  8
LAYER_1
 62
7
 70
1
 66
1
  0
VERTEX
  8
LAYER_1
 62
7
 10
20.998185
 20
27.878502
 42
-0.000819
  0
VERTEX
  8
LAYER_1
 62
7
 10
22.990944
 20
27.878865
  0
VERTEX
  8
LAYER_1
 62
7
 10
21.996379
 20
26.156427
  0
VERTEX
  8
LAYER_1
 62
7
 10
20.003257
 20
26.157153
 42
0.001222
  0
VERTEX
  8
LAYER_1
 62
7
 10
20.998185
 20
27.878502
  0
SEQEND
  0
POLYLINE
  8
LAYER_1
 62
7
 70
1
 66
1
  0
VERTEX
  8
LAYER_1
 62
7
 10
12.895071
 20
26.241696
 42
0.001179
  0
VERTEX
  8
LAYER_1
 62
7
 10
13.569730
 20
27.408393
  0
VERTEX
  8
LAYER_1
 62
7
 10
13.795296
 20
27.796861
 42
0.001081
  0
VERTEX
  8
LAYER_1
 62
7
 10
15.140225
 20
27.795586
  0
VERTEX
  8
LAYER_1
 62
7
 10
15.588489
 20
27.794684
 42
0.001130
  0
VERTEX
  8
LAYER_1
 62
7
 10
14.913984
 20
26.628804
  0
VERTEX
  8
LAYER_1
 62
7
 10
14.688264
 20
26.240608
  0
VERTEX
  8
LAYER_1
 62
7
 10
12.895071
 20
26.241696
  0
SEQEND
  0
POLYLINE
  8
LAYER_1
 62
7
 70
1
 66
1
  0
VERTEX
  8
LAYER_1
 62
7
 10
23.780138
 20
27.795047
 42
0.000455
  0
VERTEX
  8
LAYER_1
 62
7
 10
25.573694
 20
27.796861
  0
VERTEX
  8
LAYER_1
 62
7
 10
26.023353
 20
27.019007
 42
0.001870
  0
VERTEX
  8
LAYER_1
 62
7
 10
26.473556
 20
26.241696
 42
0.000607
  0
VERTEX
  8
LAYER_1
 62
7
 10
24.680726
 20
26.240245
 42
-0.001184
  0
VERTEX
  8
LAYER_1
 62
7
 10
24.006169
 20
27.406738
  0
VERTEX
  8
LAYER_1
 62
7
 10
23.780138
 20
27.795047
  0
SEQEND
  0
POLYLINE
  8
LAYER_1
 62
7
 70
1
 66
1
  0
VERTEX
  8
LAYER_1
 62
7
 10
9.375086
 20
27.732637
 42
-0.001480
  0
VERTEX
  8
LAYER_1
 62
7
 10
11.029672
 20
27.731549
 42
0.002578
  0
VERTEX
  8
LAYER_1
 62
7
 10
11.854061
 20
26.303381
  0
VERTEX
  8
LAYER_1
 62
7
 10
10.200927
 20
26.301929
  0
VERTEX
  8
LAYER_1
 62
7
 10
9.375086
 20
27.732637
  0
SEQEND
  0
POLYLINE
  8
LAYER_1
 62
7
 70
1
 66
1
  0
VERTEX
  8
LAYER_1
 62
7
 10
28.338230
 20
27.731186
 42
-0.001644
  0
VERTEX
  8
LAYER_1
 62
7
 10
29.993178
 20
27.732637
  0
VERTEX
  8
LAYER_1
 62
7
 10
29.167337
 20
26.301566
  0
VERTEX
  8
LAYER_1
 62
7
 10
27.514203
 20
26.303381
 42
0.003173
  0
VERTEX
  8
LAYER_1
 62
7
 10
28.338230
 20
27.731186
  0
SEQEND
  0
POLYLINE
  8
LAYER_1
 62
7
 70
1
 66
1
  0
VERTEX
  8
LAYER_1
 62
7
 10
6.618170
 20
27.661882
 42
0.002256
  0
VERTEX
  8
LAYER_1
 62
7
 10
7.726545
 20
27.659739
  0
VERTEX
  8
LAYER_1
 62
7
 10
8.096048
 20
27.657891
  0
VERTEX
  8
LAYER_1
 62
7
 10
7.355839
 20
26.376676
  0
VERTEX
  8
LAYER_1
 62
7
 10
5.872881
 20
26.376676
  0
VERTEX
  8
LAYER_1
 62
7
 10
6.244981
 20
27.019551
 42
-0.003033
  0
VERTEX
  8
LAYER_1
 62
7
 10
6.618170
 20
27.661882
  0
SEQEND
  0
POLYLINE
  8
LAYER_1
 62
7
 70
1
 66
1
  0
VERTEX
  8
LAYER_1
 62
7
 10
31.272216
 20
27.654988
 42
-0.006437
  0
VERTEX
  8
LAYER_1
 62
7
 10
32.012108
 20
27.659796
  0
VERTEX
  8
LAYER_1
 62
7
 10
32.382173
 20
27.658866
  0
VERTEX
  8
LAYER_1
 62
7
 10
32.752272
 20
27.660794
  0
VERTEX
  8
LAYER_1
 62
7
 10
33.495384
 20
26.376313
  0
VERTEX
  8
LAYER_1
 62
7
 10
32.014240
 20
26.375950
  0
VERTEX
  8
LAYER_1
 62
7
 10
31.644453
 20
27.016149
 42
0.003818
  0
VERTEX
  8
LAYER_1
 62
7
 10
31.272216
 20
27.654988
  0
SEQEND
  0
POLYLINE
  8
LAYER_1
 62
7
 70
1
 66
1
  0
VERTEX
  8
LAYER_1
 62
7
 10
2.373578
 20
27.584958
  0
VERTEX
  8
LAYER_1
 62
7
 10
3.684547
 20
27.586047
 42
0.001673
  0
VERTEX
  8
LAYER_1
 62
7
 10
4.342026
 20
26.451422
  0
VERTEX
  8
LAYER_1
 62
7
 10
3.688583
 20
26.450833
 42
0.004427
  0
VERTEX
  8
LAYER_1
 62
7
 10
3.035412
 20
26.447794
 42
-0.004680
  0
VERTEX
  8
LAYER_1
 62
7
 10
2.538985
 20
27.300480
  0
VERTEX
  8
LAYER_1
 62
7
 10
2.373578
 20
27.584958
  0
SEQEND
  0
POLYLINE
  8
LAYER_1
 62
7
 70
1
 66
1
  0
VERTEX
  8
LAYER_1
 62
7
 10
35.686258
 20
27.587135
 42
0.001457
  0
VERTEX
  8
LAYER_1
 62
7
 10
36.994324
 20
27.585321
 42
-0.002981
  0
VERTEX
  8
LAYER_1
 62
7
 10
36.335030
 20
26.448520
 42
0.002392
  0
VERTEX
  8
LAYER_1
 62
7
 10
35.353708
 20
26.450356
  0
VERTEX
  8
LAYER_1
 62
7
 10
35.026601
 20
26.451422
 42
0.002146
  0
VERTEX
  8
LAYER_1
 62
7
 10
35.520527
 20
27.303700
  0
VERTEX
  8
LAYER_1
 62
7
 10
35.686258
 20
27.587135
  0
SEQEND
  0
POLYLINE
  8
LAYER_1
 62
7
 70
1
 66
1
  0
VERTEX
  8
LAYER_1
 62
7
 10
15.158515
 20
25.969198
  0
VERTEX
  8
LAYER_1
 62
7
 10
16.085954
 20
27.574799
 42
0.001386
  0
VERTEX
  8
LAYER_1
 62
7
 10
17.009764
 20
25.971012
 42
0.001332
  0
VERTEX
  8
LAYER_1
 62
7
 10
16.086316
 20
24.366863
 42
-0.001000
  0
VERTEX
  8
LAYER_1
 62
7
 10
15.391095
 20
25.569022
  0
VERTEX
  8
LAYER_1
 62
7
 10
15.158515
 20
25.969198
  0
SEQEND
  0
POLYLINE
  8
LAYER_1
 62
7
 70
1
 66
1
  0
VERTEX
  8
LAYER_1
 62
7
 10
22.358864
 20
25.970649
 42
0.001386
  0
VERTEX
  8
LAYER_1
 62
7
 10
23.282311
 20
27.574436
 42
-0.001384
  0
VERTEX
  8
LAYER_1
 62
7
 10
24.209750
 20
25.968835
  0
VERTEX
  8
LAYER_1
 62
7
 10
23.977210
 20
25.569051
 42
-0.002600
  0
VERTEX
  8
LAYER_1
 62
7
 10
23.281222
 20
24.368677
 42
0.001461
  0
VERTEX
  8
LAYER_1
 62
7
 10
22.358864
 20
25.970649
  0
SEQEND
  0
POLYLINE
  8
LAYER_1
 62
7
 70
1
 66
1
  0
VERTEX
  8
LAYER_1
 62
7
 10
8.058312
 20
25.969198
  0
VERTEX
  8
LAYER_1
 62
7
 10
8.821381
 20
27.290326
  0
VERTEX
  8
LAYER_1
 62
7
 10
9.582998
 20
25.968472
 42
0.003139
  0
VERTEX
  8
LAYER_1
 62
7
 10
8.825735
 20
24.654964
 42
-0.008885
  0
VERTEX
  8
LAYER_1
 62
7
 10
8.439030
 20
25.310312
 42
0.004314
  0
VERTEX
  8
LAYER_1
 62
7
 10
8.058312
 20
25.969198
  0
SEQEND
  0
POLYLINE
  8
LAYER_1
 62
7
 70
1
 66
1
  0
VERTEX
  8
LAYER_1
 62
7
 10
30.546884
 20
27.290326
 42
-0.001040
  0
VERTEX
  8
LAYER_1
 62
7
 10
31.310315
 20
25.970286
  0
VERTEX
  8
LAYER_1
 62
7
 10
30.929552
 20
25.310493
 42
-0.005391
  0
VERTEX
  8
LAYER_1
 62
7
 10
30.544707
 20
24.653149
 42
0.002244
  0
VERTEX
  8
LAYER_1
 62
7
 10
29.785629
 20
25.968835
  0
VERTEX
  8
LAYER_1
 62
7
 10
30.546884
 20
27.290326
  0
SEQEND
  0
POLYLINE
  8
LAYER_1
 62
7
 70
1
 66
1
  0
VERTEX
  8
LAYER_1
 62
7
 10
1.542657
 20
27.014925
 42
-0.011803
  0
VERTEX
  8
LAYER_1
 62
7
 10
1.854842
 20
26.494374
  0
VERTEX
  8
LAYER_1
 62
7
 10
2.155869
 20
25.967021
 42
0.009347
  0
VERTEX
  8
LAYER_1
 62
7
 10
1.854842
 20
25.446969
 42
-0.020355
  0
VERTEX
  8
LAYER_1
 62
7
 10
1.542657
 20
24.933993
  0
VERTEX
  8
LAYER_1
 62
7
 10
1.542657
 20
27.014925
  0
SEQEND
  0
POLYLINE
  8
LAYER_1
 62
7
 70
1
 66
1
  0
VERTEX
  8
LAYER_1
 62
7
 10
37.213121
 20
25.966658
 42
0.004738
  0
VERTEX
  8
LAYER_1
 62
7
 10
37.511291
 20
26.491562
 42
-0.022531
  0
VERTEX
  8
LAYER_1
 62
7
 10
37.827422
 20
27.004765
  0
VERTEX
  8
LAYER_1
 62
7
 10
37.827422
 20
24.935082
 42
-0.022920
  0
VERTEX
  8
LAYER_1
 62
7
 10
37.513740
 20
25.446652
 42
0.009949
  0
VERTEX
  8
LAYER_1
 62
7
 10
37.213121
 20
25.966658
  0
SEQEND
  0
POLYLINE
  8
LAYER_1
 62
7
 70
1
 66
1
  0
VERTEX
  8
LAYER_1
 62
7
 10
17.372248
 20
25.786323
  0
VERTEX
  8
LAYER_1
 62
7
 10
19.363556
 20
25.786323
  0
VERTEX
  8
LAYER_1
 62
7
 10
18.368991
 20
24.059893
  0
VERTEX
  8
LAYER_1
 62
7
 10
16.373692
 20
24.059531
 42
0.001100
  0
VERTEX
  8
LAYER_1
 62
7
 10
17.372248
 20
25.786323
  0
SEQEND
  0
POLYLINE
  8
LAYER_1
 62
7
 70
1
 66
1
  0
VERTEX
  8
LAYER_1
 62
7
 10
20.005434
 20
25.786323
  0
VERTEX
  8
LAYER_1
 62
7
 10
21.997105
 20
25.785597
 42
0.001100
  0
VERTEX
  8
LAYER_1
 62
7
 10
22.994936
 20
24.059531
  0
VERTEX
  8
LAYER_1
 62
7
 10
20.999274
 20
24.060256
 42
-0.000305
  0
VERTEX
  8
LAYER_1
 62
7
 10
20.005434
 20
25.786323
  0
SEQEND
  0
POLYLINE
  8
LAYER_1
 62
7
 70
1
 66
1
  0
VERTEX
  8
LAYER_1
 62
7
 10
12.896886
 20
25.698151
  0
VERTEX
  8
LAYER_1
 62
7
 10
14.692619
 20
25.698513
  0
VERTEX
  8
LAYER_1
 62
7
 10
15.139420
 20
24.921657
 42
-0.002208
  0
VERTEX
  8
LAYER_1
 62
7
 10
15.585949
 20
24.144800
  0
VERTEX
  8
LAYER_1
 62
7
 10
13.796748
 20
24.143711
 42
-0.000883
  0
VERTEX
  8
LAYER_1
 62
7
 10
12.896886
 20
25.698151
  0
SEQEND
  0
POLYLINE
  8
LAYER_1
 62
7
 70
1
 66
1
  0
VERTEX
  8
LAYER_1
 62
7
 10
24.674920
 20
25.697788
  0
VERTEX
  8
LAYER_1
 62
7
 10
26.471379
 20
25.698513
 42
-0.001146
  0
VERTEX
  8
LAYER_1
 62
7
 10
25.572242
 20
24.143711
  0
VERTEX
  8
LAYER_1
 62
7
 10
23.783041
 20
24.144437
 42
-0.002723
  0
VERTEX
  8
LAYER_1
 62
7
 10
24.228980
 20
24.921112
 42
0.002723
  0
VERTEX
  8
LAYER_1
 62
7
 10
24.674920
 20
25.697788
  0
SEQEND
  0
POLYLINE
  8
LAYER_1
 62
7
 70
1
 66
1
  0
VERTEX
  8
LAYER_1
 62
7
 10
9.372183
 20
24.207210
 42
0.003014
  0
VERTEX
  8
LAYER_1
 62
7
 10
9.788188
 20
24.924015
 42
-0.003014
  0
VERTEX
  8
LAYER_1
 62
7
 10
10.204193
 20
25.640821
  0
VERTEX
  8
LAYER_1
 62
7
 10
11.851159
 20
25.640095
 42
-0.002284
  0
VERTEX
  8
LAYER_1
 62
7
 10
11.024229
 20
24.206121
  0
VERTEX
  8
LAYER_1
 62
7
 10
9.372183
 20
24.207210
  0
SEQEND
  0
POLYLINE
  8
LAYER_1
 62
7
 70
1
 66
1
  0
VERTEX
  8
LAYER_1
 62
7
 10
27.517469
 20
25.640095
  0
VERTEX
  8
LAYER_1
 62
7
 10
29.165160
 20
25.640458
  0
VERTEX
  8
LAYER_1
 62
7
 10
29.373724
 20
25.282730
 42
0.001506
  0
VERTEX
  8
LAYER_1
 62
7
 10
29.996081
 20
24.207572
  0
VERTEX
  8
LAYER_1
 62
7
 10
28.344399
 20
24.205758
 42
-0.002059
  0
VERTEX
  8
LAYER_1
 62
7
 10
27.517469
 20
25.640095
  0
SEQEND
  0
POLYLINE
  8
LAYER_1
 62
7
 70
1
 66
1
  0
VERTEX
  8
LAYER_1
 62
7
 10
5.873244
 20
25.566800
  0
VERTEX
  8
LAYER_1
 62
7
 10
7.352936
 20
25.566800
  0
VERTEX
  8
LAYER_1
 62
7
 10
7.725309
 20
24.923834
 42
0.002497
  0
VERTEX
  8
LAYER_1
 62
7
 10
8.098225
 20
24.280868
  0
VERTEX
  8
LAYER_1
 62
7
 10
6.615993
 20
24.280505
 42
-0.001068
  0
VERTEX
  8
LAYER_1
 62
7
 10
5.873244
 20
25.566800
  0
SEQEND
  0
POLYLINE
  8
LAYER_1
 62
7
 70
1
 66
1
  0
VERTEX
  8
LAYER_1
 62
7
 10
18.688297
 20
23.876293
  0
VERTEX
  8
LAYER_1
 62
7
 10
19.684677
 20
25.603810
 42
0.001101
  0
VERTEX
  8
LAYER_1
 62
7
 10
20.431740
 20
24.306437
  0
VERTEX
  8
LAYER_1
 62
7
 10
20.680330
 20
23.873753
  0
VERTEX
  8
LAYER_1
 62
7
 10
20.181370
 20
23.010720
  0
VERTEX
  8
LAYER_1
 62
7
 10
19.684314
 20
22.146598
 42
0.000939
  0
VERTEX
  8
LAYER_1
 62
7
 10
18.936893
 20
23.443614
  0
VERTEX
  8
LAYER_1
 62
7
 10
18.688297
 20
23.876293
  0
SEQEND
  0
POLYLINE
  8
LAYER_1
 62
7
 70
1
 66
1
  0
VERTEX
  8
LAYER_1
 62
7
 10
31.270402
 20
24.280868
 42
0.001365
  0
VERTEX
  8
LAYER_1
 62
7
 10
31.828978
 20
25.245912
  0
VERTEX
  8
LAYER_1
 62
7
 10
32.016054
 20
25.567163
  0
VERTEX
  8
LAYER_1
 62
7
 10
33.495021
 20
25.566800
 42
-0.001227
  0
VERTEX
  8
LAYER_1
 62
7
 10
32.752635
 20
24.280505
  0
VERTEX
  8
LAYER_1
 62
7
 10
31.270402
 20
24.280868
  0
SEQEND
  0
POLYLINE
  8
LAYER_1
 62
7
 70
1
 66
1
  0
VERTEX
  8
LAYER_1
 62
7
 10
3.031058
 20
25.493505
 42
0.006245
  0
VERTEX
  8
LAYER_1
 62
7
 10
4.338398
 20
25.493142
 42
-0.002700
  0
VERTEX
  8
LAYER_1
 62
7
 10
3.684547
 20
24.354889
  0
VERTEX
  8
LAYER_1
 62
7
 10
2.371764
 20
24.355251
 42
0.001206
  0
VERTEX
  8
LAYER_1
 62
7
 10
3.031058
 20
25.493505
  0
SEQEND
  0
POLYLINE
  8
LAYER_1
 62
7
 70
1
 66
1
  0
VERTEX
  8
LAYER_1
 62
7
 10
35.031318
 20
25.488062
 42
0.003123
  0
VERTEX
  8
LAYER_1
 62
7
 10
36.338295
 20
25.493142
  0
VERTEX
  8
LAYER_1
 62
7
 10
36.996501
 20
24.354889
  0
VERTEX
  8
LAYER_1
 62
7
 10
35.684444
 20
24.354889
  0
VERTEX
  8
LAYER_1
 62
7
 10
35.031318
 20
25.488062
  0
SEQEND
  0
POLYLINE
  8
LAYER_1
 62
7
 70
1
 66
1
  0
VERTEX
  8
LAYER_1
 62
7
 10
12.448406
 20
25.341109
 42
-0.002011
  0
VERTEX
  8
LAYER_1
 62
7
 10
13.296018
 20
23.872664
 42
0.002300
  0
VERTEX
  8
LAYER_1
 62
7
 10
12.453486
 20
22.411114
 42
-0.005952
  0
VERTEX
  8
LAYER_1
 62
7
 10
12.023375
 20
23.142841
  0
VERTEX
  8
LAYER_1
 62
7
 10
11.601157
 20
23.879195
 42
0.002287
  0
VERTEX
  8
LAYER_1
 62
7
 10
12.236525
 20
24.975732
  0
VERTEX
  8
LAYER_1
 62
7
 10
12.448406
 20
25.341109
  0
SEQEND
  0
POLYLINE
  8
LAYER_1
 62
7
 70
1
 66
1
  0
VERTEX
  8
LAYER_1
 62
7
 10
26.072972
 20
23.872301
 42
-0.003085
  0
VERTEX
  8
LAYER_1
 62
7
 10
26.920947
 20
25.340383
  0
VERTEX
  8
LAYER_1
 62
7
 10
27.767108
 20
23.871938
  0
VERTEX
  8
LAYER_1
 62
7
 10
27.553816
 20
23.506857
 42
-0.002168
  0
VERTEX
  8
LAYER_1
 62
7
 10
26.917682
 20
22.409300
  0
VERTEX
  8
LAYER_1
 62
7
 10
26.496279
 20
23.141345
  0
VERTEX
  8
LAYER_1
 62
7
 10
26.072972
 20
23.872301
  0
SEQEND
  0
POLYLINE
  8
LAYER_1
 62
7
 70
1
 66
1
  0
VERTEX
  8
LAYER_1
 62
7
 10
5.191453
 20
25.046476
 42
-0.002167
  0
VERTEX
  8
LAYER_1
 62
7
 10
5.869252
 20
23.872664
 42
0.001001
  0
VERTEX
  8
LAYER_1
 62
7
 10
5.192904
 20
22.704295
 42
-0.001174
  0
VERTEX
  8
LAYER_1
 62
7
 10
4.516193
 20
23.873753
  0
VERTEX
  8
LAYER_1
 62
7
 10
5.191453
 20
25.046476
  0
SEQEND
  0
POLYLINE
  8
LAYER_1
 62
7
 70
1
 66
1
  0
VERTEX
  8
LAYER_1
 62
7
 10
34.176086
 20
25.046476
 42
-0.004226
  0
VERTEX
  8
LAYER_1
 62
7
 10
34.852434
 20
23.869036
 42
0.003643
  0
VERTEX
  8
LAYER_1
 62
7
 10
34.179714
 20
22.705383
 42
-0.006504
  0
VERTEX
  8
LAYER_1
 62
7
 10
33.837368
 20
23.288570
  0
VERTEX
  8
LAYER_1
 62
7
 10
33.499375
 20
23.874478
  0
VERTEX
  8
LAYER_1
 62
7
 10
34.176086
 20
25.046476
  0
SEQEND
  0
POLYLINE
  8
LAYER_1
 62
7
 70
1
 66
1
  0
VERTEX
  8
LAYER_1
 62
7
 10
16.374417
 20
23.689789
  0
VERTEX
  8
LAYER_1
 62
7
 10
18.370442
 20
23.688337
  0
VERTEX
  8
LAYER_1
 62
7
 10
19.365733
 20
21.962997
  0
VERTEX
  8
LAYER_1
 62
7
 10
17.371160
 20
21.963723
 42
0.001710
  0
VERTEX
  8
LAYER_1
 62
7
 10
16.374417
 20
23.689789
  0
SEQEND
  0
POLYLINE
  8
LAYER_1
 62
7
 70
1
 66
1
  0
VERTEX
  8
LAYER_1
 62
7
 10
20.999636
 20
23.689063
  0
VERTEX
  8
LAYER_1
 62
7
 10
22.994210
 20
23.689426
 42
0.001219
  0
VERTEX
  8
LAYER_1
 62
7
 10
21.996742
 20
21.963723
  0
VERTEX
  8
LAYER_1
 62
7
 10
20.003257
 20
21.962997
  0
VERTEX
  8
LAYER_1
 62
7
 10
20.999636
 20
23.689063
  0
SEQEND
  0
POLYLINE
  8
LAYER_1
 62
7
 70
1
 66
1
  0
VERTEX
  8
LAYER_1
 62
7
 10
12.897611
 20
22.051532
 42
-0.002309
  0
VERTEX
  8
LAYER_1
 62
7
 10
13.798925
 20
23.607785
 42
0.002590
  0
VERTEX
  8
LAYER_1
 62
7
 10
15.584861
 20
23.607060
 42
-0.004065
  0
VERTEX
  8
LAYER_1
 62
7
 10
15.140146
 20
22.829613
  0
VERTEX
  8
LAYER_1
 62
7
 10
14.915866
 20
22.441996
  0
VERTEX
  8
LAYER_1
 62
7
 10
14.694070
 20
22.052983
 42
-0.001060
  0
VERTEX
  8
LAYER_1
 62
7
 10
12.897611
 20
22.051532
  0
SEQEND
  0
POLYLINE
  8
LAYER_1
 62
7
 70
1
 66
1
  0
VERTEX
  8
LAYER_1
 62
7
 10
23.783404
 20
23.606334
 42
0.002131
  0
VERTEX
  8
LAYER_1
 62
7
 10
25.571154
 20
23.607422
 42
-0.001427
  0
VERTEX
  8
LAYER_1
 62
7
 10
26.471379
 20
22.051532
 42
-0.001514
  0
VERTEX
  8
LAYER_1
 62
7
 10
24.673832
 20
22.053709
  0
VERTEX
  8
LAYER_1
 62
7
 10
24.452449
 20
22.442596
  0
VERTEX
  8
LAYER_1
 62
7
 10
24.228346
 20
22.829885
 42
-0.003866
  0
VERTEX
  8
LAYER_1
 62
7
 10
23.783404
 20
23.606334
  0
SEQEND
  0
POLYLINE
  8
LAYER_1
 62
7
 70
1
 66
1
  0
VERTEX
  8
LAYER_1
 62
7
 10
9.373635
 20
23.542110
  0
VERTEX
  8
LAYER_1
 62
7
 10
11.024954
 20
23.542473
 42
-0.001776
  0
VERTEX
  8
LAYER_1
 62
7
 10
11.852247
 20
22.110313
  0
VERTEX
  8
LAYER_1
 62
7
 10
10.203830
 20
22.109950
 42
-0.001644
  0
VERTEX
  8
LAYER_1
 62
7
 10
9.581779
 20
23.184495
  0
VERTEX
  8
LAYER_1
 62
7
 10
9.373635
 20
23.542110
  0
SEQEND
  0
POLYLINE
  8
LAYER_1
 62
7
 70
1
 66
1
  0
VERTEX
  8
LAYER_1
 62
7
 10
27.516380
 20
22.110313
  0
VERTEX
  8
LAYER_1
 62
7
 10
27.928983
 20
22.827391
  0
VERTEX
  8
LAYER_1
 62
7
 10
28.344036
 20
23.542836
  0
VERTEX
  8
LAYER_1
 62
7
 10
29.994630
 20
23.541747
  0
VERTEX
  8
LAYER_1
 62
7
 10
29.580031
 20
22.825849
 42
-0.002208
  0
VERTEX
  8
LAYER_1
 62
7
 10
29.165160
 20
22.109950
  0
VERTEX
  8
LAYER_1
 62
7
 10
27.516380
 20
22.110313
  0
SEQEND
  0
POLYLINE
  8
LAYER_1
 62
7
 70
1
 66
1
  0
VERTEX
  8
LAYER_1
 62
7
 10
5.873606
 20
22.183971
  0
VERTEX
  8
LAYER_1
 62
7
 10
6.615993
 20
23.469903
  0
VERTEX
  8
LAYER_1
 62
7
 10
8.097863
 20
23.469540
 42
0.001037
  0
VERTEX
  8
LAYER_1
 62
7
 10
7.539899
 20
22.504904
  0
VERTEX
  8
LAYER_1
 62
7
 10
7.353299
 20
22.183608
  0
VERTEX
  8
LAYER_1
 62
7
 10
5.873606
 20
22.183971
  0
SEQEND
  0
POLYLINE
  8
LAYER_1
 62
7
 70
1
 66
1
  0
VERTEX
  8
LAYER_1
 62
7
 10
31.270765
 20
23.469540
  0
VERTEX
  8
LAYER_1
 62
7
 10
32.752997
 20
23.469903
  0
VERTEX
  8
LAYER_1
 62
7
 10
33.495021
 20
22.183971
  0
VERTEX
  8
LAYER_1
 62
7
 10
32.015328
 20
22.183608
  0
VERTEX
  8
LAYER_1
 62
7
 10
31.643183
 20
22.826574
 42
0.001845
  0
VERTEX
  8
LAYER_1
 62
7
 10
31.270765
 20
23.469540
  0
SEQEND
  0
POLYLINE
  8
LAYER_1
 62
7
 70
1
 66
1
  0
VERTEX
  8
LAYER_1
 62
7
 10
2.372489
 20
23.395157
  0
VERTEX
  8
LAYER_1
 62
7
 10
3.684184
 20
23.395519
 42
-0.002134
  0
VERTEX
  8
LAYER_1
 62
7
 10
4.338761
 20
22.257629
  0
VERTEX
  8
LAYER_1
 62
7
 10
3.030332
 20
22.257992
  0
VERTEX
  8
LAYER_1
 62
7
 10
2.372489
 20
23.395157
  0
SEQEND
  0
POLYLINE
  8
LAYER_1
 62
7
 70
1
 66
1
  0
VERTEX
  8
LAYER_1
 62
7
 10
35.030229
 20
22.257992
 42
-0.002777
  0
VERTEX
  8
LAYER_1
 62
7
 10
35.684807
 20
23.395519
  0
VERTEX
  8
LAYER_1
 62
7
 10
36.996138
 20
23.395157
  0
VERTEX
  8
LAYER_1
 62
7
 10
36.338658
 20
22.257992
  0
VERTEX
  8
LAYER_1
 62
7
 10
35.030229
 20
22.257992
  0
SEQEND
  0
POLYLINE
  8
LAYER_1
 62
7
 70
1
 66
1
  0
VERTEX
  8
LAYER_1
 62
7
 10
15.158878
 20
21.783750
 42
0.001786
  0
VERTEX
  8
LAYER_1
 62
7
 10
15.853895
 20
22.983920
  0
VERTEX
  8
LAYER_1
 62
7
 10
16.086679
 20
23.383183
 42
0.001440
  0
VERTEX
  8
LAYER_1
 62
7
 10
17.009764
 20
21.778670
 42
0.002043
  0
VERTEX
  8
LAYER_1
 62
7
 10
16.086316
 20
20.175247
 42
-0.001836
  0
VERTEX
  8
LAYER_1
 62
7
 10
15.158878
 20
21.783750
  0
SEQEND
  0
POLYLINE
  8
LAYER_1
 62
7
 70
1
 66
1
  0
VERTEX
  8
LAYER_1
 62
7
 10
22.358864
 20
21.779396
 42
0.001386
  0
VERTEX
  8
LAYER_1
 62
7
 10
23.282311
 20
23.383545
  0
VERTEX
  8
LAYER_1
 62
7
 10
23.746030
 20
22.582423
 42
0.001833
  0
VERTEX
  8
LAYER_1
 62
7
 10
24.209750
 20
21.781573
  0
VERTEX
  8
LAYER_1
 62
7
 10
23.283037
 20
20.174884
 42
0.001386
  0
VERTEX
  8
LAYER_1
 62
7
 10
22.358864
 20
21.779396
  0
SEQEND
  0
POLYLINE
  8
LAYER_1
 62
7
 70
1
 66
1
  0
VERTEX
  8
LAYER_1
 62
7
 10
8.822106
 20
23.097259
 42
0.001199
  0
VERTEX
  8
LAYER_1
 62
7
 10
9.582998
 20
21.781573
  0
VERTEX
  8
LAYER_1
 62
7
 10
8.822106
 20
20.460808
 42
-0.002081
  0
VERTEX
  8
LAYER_1
 62
7
 10
8.058312
 20
21.780847
  0
VERTEX
  8
LAYER_1
 62
7
 10
8.439393
 20
22.439597
 42
-0.003527
  0
VERTEX
  8
LAYER_1
 62
7
 10
8.822106
 20
23.097259
  0
SEQEND
  0
POLYLINE
  8
LAYER_1
 62
7
 70
1
 66
1
  0
VERTEX
  8
LAYER_1
 62
7
 10
29.785629
 20
21.781573
  0
VERTEX
  8
LAYER_1
 62
7
 10
30.546521
 20
23.097622
 42
-0.002398
  0
VERTEX
  8
LAYER_1
 62
7
 10
31.118975
 20
22.109820
  0
VERTEX
  8
LAYER_1
 62
7
 10
31.309952
 20
21.780485
  0
VERTEX
  8
LAYER_1
 62
7
 10
30.547247
 20
20.459719
  0
VERTEX
  8
LAYER_1
 62
7
 10
29.785629
 20
21.781573
  0
SEQEND
  0
POLYLINE
  8
LAYER_1
 62
7
 70
1
 66
1
  0
VERTEX
  8
LAYER_1
 62
7
 10
1.542657
 20
22.816052
 42
-0.019558
  0
VERTEX
  8
LAYER_1
 62
7
 10
1.855658
 20
22.302169
 42
0.006944
  0
VERTEX
  8
LAYER_1
 62
7
 10
2.155869
 20
21.780122
 42
0.006308
  0
VERTEX
  8
LAYER_1
 62
7
 10
1.855930
 20
21.257394
 42
-0.019416
  0
VERTEX
  8
LAYER_1
 62
7
 10
1.542657
 20
20.743103
  0
VERTEX
  8
LAYER_1
 62
7
 10
1.542657
 20
22.816052
  0
SEQEND
  0
POLYLINE
  8
LAYER_1
 62
7
 70
1
 66
1
  0
VERTEX
  8
LAYER_1
 62
7
 10
37.213121
 20
21.780122
 42
0.007322
  0
VERTEX
  8
LAYER_1
 62
7
 10
37.512652
 20
22.301987
 42
-0.022154
  0
VERTEX
  8
LAYER_1
 62
7
 10
37.827422
 20
22.814600
  0
VERTEX
  8
LAYER_1
 62
7
 10
37.827422
 20
20.734758
 42
-0.014262
  0
VERTEX
  8
LAYER_1
 62
7
 10
37.514829
 20
21.254174
  0
VERTEX
  8
LAYER_1
 62
7
 10
37.364927
 20
21.517794
  0
VERTEX
  8
LAYER_1
 62
7
 10
37.213121
 20
21.780122
  0
SEQEND
  0
POLYLINE
  8
LAYER_1
 62
7
 70
1
 66
1
  0
VERTEX
  8
LAYER_1
 62
7
 10
17.372974
 20
21.594344
  0
VERTEX
  8
LAYER_1
 62
7
 10
19.365733
 20
21.592892
 42
0.001783
  0
VERTEX
  8
LAYER_1
 62
7
 10
18.370805
 20
19.871543
  0
VERTEX
  8
LAYER_1
 62
7
 10
17.374244
 20
19.869956
  0
VERTEX
  8
LAYER_1
 62
7
 10
16.377683
 20
19.870817
  0
VERTEX
  8
LAYER_1
 62
7
 10
17.372974
 20
21.594344
  0
SEQEND
  0
POLYLINE
  8
LAYER_1
 62
7
 70
1
 66
1
  0
VERTEX
  8
LAYER_1
 62
7
 10
20.002894
 20
21.593255
  0
VERTEX
  8
LAYER_1
 62
7
 10
21.995290
 20
21.594707
  0
VERTEX
  8
LAYER_1
 62
7
 10
22.494206
 20
20.733125
  0
VERTEX
  8
LAYER_1
 62
7
 10
22.990944
 20
19.870455
  0
VERTEX
  8
LAYER_1
 62
7
 10
20.998548
 20
19.870817
 42
0.001477
  0
VERTEX
  8
LAYER_1
 62
7
 10
20.002894
 20
21.593255
  0
SEQEND
  0
POLYLINE
  8
LAYER_1
 62
7
 70
1
 66
1
  0
VERTEX
  8
LAYER_1
 62
7
 10
12.895071
 20
21.508712
  0
VERTEX
  8
LAYER_1
 62
7
 10
14.687902
 20
21.509800
 42
-0.001152
  0
VERTEX
  8
LAYER_1
 62
7
 10
15.361948
 20
20.344124
  0
VERTEX
  8
LAYER_1
 62
7
 10
15.587764
 20
19.956087
  0
VERTEX
  8
LAYER_1
 62
7
 10
13.792756
 20
19.954998
  0
VERTEX
  8
LAYER_1
 62
7
 10
13.344866
 20
20.732399
  0
VERTEX
  8
LAYER_1
 62
7
 10
12.895071
 20
21.508712
  0
SEQEND
  0
POLYLINE
  8
LAYER_1
 62
7
 70
1
 66
1
  0
VERTEX
  8
LAYER_1
 62
7
 10
23.780138
 20
19.956087
 42
0.001304
  0
VERTEX
  8
LAYER_1
 62
7
 10
24.454745
 20
21.121916
  0
VERTEX
  8
LAYER_1
 62
7
 10
24.680726
 20
21.509800
  0
VERTEX
  8
LAYER_1
 62
7
 10
26.473193
 20
21.508712
  0
VERTEX
  8
LAYER_1
 62
7
 10
25.574782
 20
19.954272
 42
0.000777
  0
VERTEX
  8
LAYER_1
 62
7
 10
24.228833
 20
19.955140
  0
VERTEX
  8
LAYER_1
 62
7
 10
23.780138
 20
19.956087
  0
SEQEND
  0
POLYLINE
  8
LAYER_1
 62
7
 70
1
 66
1
  0
VERTEX
  8
LAYER_1
 62
7
 10
9.375812
 20
20.017771
  0
VERTEX
  8
LAYER_1
 62
7
 10
10.202016
 20
21.447753
 42
0.001360
  0
VERTEX
  8
LAYER_1
 62
7
 10
11.440149
 20
21.446427
  0
VERTEX
  8
LAYER_1
 62
7
 10
11.852973
 20
21.445576
 42
0.003036
  0
VERTEX
  8
LAYER_1
 62
7
 10
11.031486
 20
20.019948
 42
-0.002137
  0
VERTEX
  8
LAYER_1
 62
7
 10
9.375812
 20
20.017771
  0
SEQEND
  0
POLYLINE
  8
LAYER_1
 62
7
 70
1
 66
1
  0
VERTEX
  8
LAYER_1
 62
7
 10
27.515292
 20
21.445576
 42
0.000659
  0
VERTEX
  8
LAYER_1
 62
7
 10
29.166974
 20
21.447390
 42
-0.001246
  0
VERTEX
  8
LAYER_1
 62
7
 10
29.992453
 20
20.017408
  0
VERTEX
  8
LAYER_1
 62
7
 10
28.338956
 20
20.018496
 42
0.002520
  0
VERTEX
  8
LAYER_1
 62
7
 10
27.515292
 20
21.445576
  0
SEQEND
  0
POLYLINE
  8
LAYER_1
 62
7
 70
1
 66
1
  0
VERTEX
  8
LAYER_1
 62
7
 10
18.687208
 20
19.684314
 42
0.000747
  0
VERTEX
  8
LAYER_1
 62
7
 10
19.435395
 20
20.978931
  0
VERTEX
  8
LAYER_1
 62
7
 10
19.685402
 20
21.410017
 42
0.001151
  0
VERTEX
  8
LAYER_1
 62
7
 10
20.681419
 20
19.683951
 42
0.001590
  0
VERTEX
  8
LAYER_1
 62
7
 10
19.684677
 20
17.954619
  0
VERTEX
  8
LAYER_1
 62
7
 10
19.186895
 20
18.820011
  0
VERTEX
  8
LAYER_1
 62
7
 10
18.687208
 20
19.684314
  0
SEQEND
  0
POLYLINE
  8
LAYER_1
 62
7
 70
1
 66
1
  0
VERTEX
  8
LAYER_1
 62
7
 10
5.872881
 20
21.373732
  0
VERTEX
  8
LAYER_1
 62
7
 10
7.354388
 20
21.374458
  0
VERTEX
  8
LAYER_1
 62
7
 10
8.095323
 20
20.089615
 42
0.001517
  0
VERTEX
  8
LAYER_1
 62
7
 10
6.660260
 20
20.090703
 42
-0.177108
  0
VERTEX
  8
LAYER_1
 62
7
 10
6.625251
 20
20.093124
 42
-0.122999
  0
VERTEX
  8
LAYER_1
 62
7
 10
6.600889
 20
20.114424
 42
-0.035892
  0
VERTEX
  8
LAYER_1
 62
7
 10
6.582446
 20
20.144637
  0
VERTEX
  8
LAYER_1
 62
7
 10
6.565194
 20
20.173795
 42
0.001754
  0
VERTEX
  8
LAYER_1
 62
7
 10
5.872881
 20
21.373732
  0
SEQEND
  0
POLYLINE
  8
LAYER_1
 62
7
 70
1
 66
1
  0
VERTEX
  8
LAYER_1
 62
7
 10
31.273305
 20
20.089615
 42
-0.001479
  0
VERTEX
  8
LAYER_1
 62
7
 10
32.014603
 20
21.374458
  0
VERTEX
  8
LAYER_1
 62
7
 10
33.495747
 20
21.373732
  0
VERTEX
  8
LAYER_1
 62
7
 10
33.308801
 20
21.052436
 42
-0.003387
  0
VERTEX
  8
LAYER_1
 62
7
 10
32.748643
 20
20.087800
 42
0.004242
  0
VERTEX
  8
LAYER_1
 62
7
 10
31.273305
 20
20.089615
  0
SEQEND
  0
POLYLINE
  8
LAYER_1
 62
7
 70
1
 66
1
  0
VERTEX
  8
LAYER_1
 62
7
 10
2.374304
 20
20.165087
  0
VERTEX
  8
LAYER_1
 62
7
 10
3.028881
 20
21.299711
  0
VERTEX
  8
LAYER_1
 62
7
 10
4.341664
 20
21.298986
 42
0.001389
  0
VERTEX
  8
LAYER_1
 62
7
 10
3.684547
 20
20.163998
  0
VERTEX
  8
LAYER_1
 62
7
 10
2.374304
 20
20.165087
  0
SEQEND
  0
POLYLINE
  8
LAYER_1
 62
7
 70
1
 66
1
  0
VERTEX
  8
LAYER_1
 62
7
 10
35.026964
 20
21.298986
  0
VERTEX
  8
LAYER_1
 62
7
 10
36.340109
 20
21.299349
  0
VERTEX
  8
LAYER_1
 62
7
 10
36.994324
 20
20.164724
  0
VERTEX
  8
LAYER_1
 62
7
 10
35.684807
 20
20.163635
 42
0.001030
  0
VERTEX
  8
LAYER_1
 62
7
 10
35.026964
 20
21.298986
  0
SEQEND
  0
POLYLINE
  8
LAYER_1
 62
7
 70
1
 66
1
  0
VERTEX
  8
LAYER_1
 62
7
 10
11.601519
 20
19.683951
  0
VERTEX
  8
LAYER_1
 62
7
 10
12.025371
 20
20.418309
 42
-0.002931
  0
VERTEX
  8
LAYER_1
 62
7
 10
12.451671
 20
21.151307
 42
0.001655
  0
VERTEX
  8
LAYER_1
 62
7
 10
13.296381
 20
19.683951
  0
VERTEX
  8
LAYER_1
 62
7
 10
12.450583
 20
18.216232
 42
-0.000994
  0
VERTEX
  8
LAYER_1
 62
7
 10
11.601519
 20
19.683951
  0
SEQEND
  0
POLYLINE
  8
LAYER_1
 62
7
 70
1
 66
1
  0
VERTEX
  8
LAYER_1
 62
7
 10
26.072247
 20
19.683951
  0
VERTEX
  8
LAYER_1
 62
7
 10
26.284444
 20
20.049735
  0
VERTEX
  8
LAYER_1
 62
7
 10
26.494601
 20
20.416812
 42
-0.007324
  0
VERTEX
  8
LAYER_1
 62
7
 10
26.923487
 20
21.145864
  0
VERTEX
  8
LAYER_1
 62
7
 10
27.767471
 20
19.684677
 42
-0.001016
  0
VERTEX
  8
LAYER_1
 62
7
 10
26.918044
 20
18.216595
  0
VERTEX
  8
LAYER_1
 62
7
 10
26.072247
 20
19.683951
  0
SEQEND
  0
POLYLINE
  8
LAYER_1
 62
7
 70
1
 66
1
  0
VERTEX
  8
LAYER_1
 62
7
 10
5.190727
 20
20.851957
 42
-0.004065
  0
VERTEX
  8
LAYER_1
 62
7
 10
5.699910
 20
19.976463
  0
VERTEX
  8
LAYER_1
 62
7
 10
5.869252
 20
19.684314
  0
VERTEX
  8
LAYER_1
 62
7
 10
5.699819
 20
19.392029
  0
VERTEX
  8
LAYER_1
 62
7
 10
5.532394
 20
19.098587
 42
-0.009961
  0
VERTEX
  8
LAYER_1
 62
7
 10
5.188187
 20
18.517758
  0
VERTEX
  8
LAYER_1
 62
7
 10
4.515468
 20
19.683951
  0
VERTEX
  8
LAYER_1
 62
7
 10
5.190727
 20
20.851957
  0
SEQEND
  0
POLYLINE
  8
LAYER_1
 62
7
 70
1
 66
1
  0
VERTEX
  8
LAYER_1
 62
7
 10
33.499375
 20
19.683951
  0
VERTEX
  8
LAYER_1
 62
7
 10
33.836642
 20
20.269406
 42
-0.007409
  0
VERTEX
  8
LAYER_1
 62
7
 10
34.179352
 20
20.851595
  0
VERTEX
  8
LAYER_1
 62
7
 10
34.853523
 20
19.683951
  0
VERTEX
  8
LAYER_1
 62
7
 10
34.179714
 20
18.517033
 42
-0.008327
  0
VERTEX
  8
LAYER_1
 62
7
 10
33.836551
 20
19.098587
  0
VERTEX
  8
LAYER_1
 62
7
 10
33.668848
 20
19.391813
  0
VERTEX
  8
LAYER_1
 62
7
 10
33.499375
 20
19.683951
  0
SEQEND
  0
POLYLINE
  8
LAYER_1
 62
7
 70
1
 66
1
  0
VERTEX
  8
LAYER_1
 62
7
 10
16.376957
 20
19.497084
 42
-0.000683
  0
VERTEX
  8
LAYER_1
 62
7
 10
18.368628
 20
19.497084
 42
0.000492
  0
VERTEX
  8
LAYER_1
 62
7
 10
19.365733
 20
17.773921
  0
VERTEX
  8
LAYER_1
 62
7
 10
17.372611
 20
17.773195
  0
VERTEX
  8
LAYER_1
 62
7
 10
16.376957
 20
19.497084
  0
SEQEND
  0
POLYLINE
  8
LAYER_1
 62
7
 70
1
 66
1
  0
VERTEX
  8
LAYER_1
 62
7
 10
20.999274
 20
19.497447
  0
VERTEX
  8
LAYER_1
 62
7
 10
22.991670
 20
19.497084
  0
VERTEX
  8
LAYER_1
 62
7
 10
21.995653
 20
17.773195
  0
VERTEX
  8
LAYER_1
 62
7
 10
20.002531
 20
17.773921
 42
0.001289
  0
VERTEX
  8
LAYER_1
 62
7
 10
20.999274
 20
19.497447
  0
SEQEND
  0
POLYLINE
  8
LAYER_1
 62
7
 70
1
 66
1
  0
VERTEX
  8
LAYER_1
 62
7
 10
12.899788
 20
17.857376
 42
-0.003533
  0
VERTEX
  8
LAYER_1
 62
7
 10
13.795659
 20
19.414355
 42
0.000607
  0
VERTEX
  8
LAYER_1
 62
7
 10
15.588127
 20
19.412541
  0
VERTEX
  8
LAYER_1
 62
7
 10
15.138377
 20
18.635548
 42
-0.001787
  0
VERTEX
  8
LAYER_1
 62
7
 10
14.688627
 20
17.858827
 42
0.002130
  0
VERTEX
  8
LAYER_1
 62
7
 10
12.899788
 20
17.857376
  0
SEQEND
  0
POLYLINE
  8
LAYER_1
 62
7
 70
1
 66
1
  0
VERTEX
  8
LAYER_1
 62
7
 10
23.780138
 20
19.412541
 42
0.000607
  0
VERTEX
  8
LAYER_1
 62
7
 10
25.573694
 20
19.414355
  0
VERTEX
  8
LAYER_1
 62
7
 10
26.023171
 20
18.636999
 42
0.001682
  0
VERTEX
  8
LAYER_1
 62
7
 10
26.473193
 20
17.859916
  0
VERTEX
  8
LAYER_1
 62
7
 10
24.680363
 20
17.858827
 42
-0.001119
  0
VERTEX
  8
LAYER_1
 62
7
 10
24.006011
 20
19.024504
  0
VERTEX
  8
LAYER_1
 62
7
 10
23.780138
 20
19.412541
  0
SEQEND
  0
POLYLINE
  8
LAYER_1
 62
7
 70
1
 66
1
  0
VERTEX
  8
LAYER_1
 62
7
 10
9.375812
 20
19.349405
 42
-0.001809
  0
VERTEX
  8
LAYER_1
 62
7
 10
11.030760
 20
19.348680
 42
0.002664
  0
VERTEX
  8
LAYER_1
 62
7
 10
11.853336
 20
17.921600
  0
VERTEX
  8
LAYER_1
 62
7
 10
10.200565
 20
17.920148
  0
VERTEX
  8
LAYER_1
 62
7
 10
9.375812
 20
19.349405
  0
SEQEND
  0
POLYLINE
  8
LAYER_1
 62
7
 70
1
 66
1
  0
VERTEX
  8
LAYER_1
 62
7
 10
28.339682
 20
19.349405
  0
VERTEX
  8
LAYER_1
 62
7
 10
29.992815
 20
19.349768
  0
VERTEX
  8
LAYER_1
 62
7
 10
29.168063
 20
17.920148
  0
VERTEX
  8
LAYER_1
 62
7
 10
27.514929
 20
17.921600
 42
0.001924
  0
VERTEX
  8
LAYER_1
 62
7
 10
28.339682
 20
19.349405
  0
SEQEND
  0
POLYLINE
  8
LAYER_1
 62
7
 70
1
 66
1
  0
VERTEX
  8
LAYER_1
 62
7
 10
6.609824
 20
19.273933
 42
-0.002221
  0
VERTEX
  8
LAYER_1
 62
7
 10
7.723863
 20
19.276025
  0
VERTEX
  8
LAYER_1
 62
7
 10
8.095323
 20
19.277561
 42
-0.000912
  0
VERTEX
  8
LAYER_1
 62
7
 10
7.354751
 20
17.994169
  0
VERTEX
  8
LAYER_1
 62
7
 10
5.873244
 20
17.994532
 42
0.002469
  0
VERTEX
  8
LAYER_1
 62
7
 10
6.609824
 20
19.273933
  0
SEQEND
  0
POLYLINE
  8
LAYER_1
 62
7
 70
1
 66
1
  0
VERTEX
  8
LAYER_1
 62
7
 10
31.272942
 20
19.276473
  0
VERTEX
  8
LAYER_1
 62
7
 10
32.016099
 20
19.276564
 42
-0.003294
  0
VERTEX
  8
LAYER_1
 62
7
 10
32.759529
 20
19.273933
 42
0.002814
  0
VERTEX
  8
LAYER_1
 62
7
 10
33.495021
 20
17.994532
  0
VERTEX
  8
LAYER_1
 62
7
 10
32.013877
 20
17.993806
  0
VERTEX
  8
LAYER_1
 62
7
 10
31.272942
 20
19.276473
  0
SEQEND
  0
POLYLINE
  8
LAYER_1
 62
7
 70
1
 66
1
  0
VERTEX
  8
LAYER_1
 62
7
 10
2.373215
 20
19.203178
  0
VERTEX
  8
LAYER_1
 62
7
 10
3.684547
 20
19.204266
 42
0.002033
  0
VERTEX
  8
LAYER_1
 62
7
 10
4.341664
 20
18.069642
  0
VERTEX
  8
LAYER_1
 62
7
 10
3.687268
 20
18.068871
 42
0.003275
  0
VERTEX
  8
LAYER_1
 62
7
 10
3.032872
 20
18.066739
 42
-0.002784
  0
VERTEX
  8
LAYER_1
 62
7
 10
2.538282
 20
18.919170
  0
VERTEX
  8
LAYER_1
 62
7
 10
2.373215
 20
19.203178
  0
SEQEND
  0
POLYLINE
  8
LAYER_1
 62
7
 70
1
 66
1
  0
VERTEX
  8
LAYER_1
 62
7
 10
35.688435
 20
19.206443
 42
0.002891
  0
VERTEX
  8
LAYER_1
 62
7
 10
36.668124
 20
19.204045
  0
VERTEX
  8
LAYER_1
 62
7
 10
36.994687
 20
19.203178
  0
VERTEX
  8
LAYER_1
 62
7
 10
36.340109
 20
18.068916
  0
VERTEX
  8
LAYER_1
 62
7
 10
35.026964
 20
18.069279
  0
VERTEX
  8
LAYER_1
 62
7
 10
35.193233
 20
18.353094
 42
-0.002665
  0
VERTEX
  8
LAYER_1
 62
7
 10
35.688435
 20
19.206443
  0
SEQEND
  0
POLYLINE
  8
LAYER_1
 62
7
 70
1
 66
1
  0
VERTEX
  8
LAYER_1
 62
7
 10
15.158878
 20
17.587054
  0
VERTEX
  8
LAYER_1
 62
7
 10
16.085954
 20
19.191929
 42
0.001313
  0
VERTEX
  8
LAYER_1
 62
7
 10
17.009764
 20
17.588506
 42
0.001387
  0
VERTEX
  8
LAYER_1
 62
7
 10
16.087042
 20
15.985808
 42
-0.002159
  0
VERTEX
  8
LAYER_1
 62
7
 10
15.391208
 20
17.186947
  0
VERTEX
  8
LAYER_1
 62
7
 10
15.158878
 20
17.587054
  0
SEQEND
  0
POLYLINE
  8
LAYER_1
 62
7
 70
1
 66
1
  0
VERTEX
  8
LAYER_1
 62
7
 10
22.358864
 20
17.588506
 42
0.001514
  0
VERTEX
  8
LAYER_1
 62
7
 10
23.282311
 20
19.192292
  0
VERTEX
  8
LAYER_1
 62
7
 10
24.209750
 20
17.587417
  0
VERTEX
  8
LAYER_1
 62
7
 10
23.746166
 20
16.785751
 42
-0.001499
  0
VERTEX
  8
LAYER_1
 62
7
 10
23.282311
 20
15.984356
 42
0.001514
  0
VERTEX
  8
LAYER_1
 62
7
 10
22.358864
 20
17.588506
  0
SEQEND
  0
POLYLINE
  8
LAYER_1
 62
7
 70
1
 66
1
  0
VERTEX
  8
LAYER_1
 62
7
 10
8.821018
 20
18.907820
  0
VERTEX
  8
LAYER_1
 62
7
 10
9.582998
 20
17.586329
  0
VERTEX
  8
LAYER_1
 62
7
 10
9.201826
 20
16.929121
  0
VERTEX
  8
LAYER_1
 62
7
 10
8.822832
 20
16.270280
 42
-0.003002
  0
VERTEX
  8
LAYER_1
 62
7
 10
8.249663
 20
17.258082
  0
VERTEX
  8
LAYER_1
 62
7
 10
8.057949
 20
17.587054
  0
VERTEX
  8
LAYER_1
 62
7
 10
8.821018
 20
18.907820
  0
SEQEND
  0
POLYLINE
  8
LAYER_1
 62
7
 70
1
 66
1
  0
VERTEX
  8
LAYER_1
 62
7
 10
30.547609
 20
18.908183
  0
VERTEX
  8
LAYER_1
 62
7
 10
31.310315
 20
17.587417
  0
VERTEX
  8
LAYER_1
 62
7
 10
30.929053
 20
16.927624
 42
-0.004417
  0
VERTEX
  8
LAYER_1
 62
7
 10
30.545070
 20
16.269192
 42
0.002486
  0
VERTEX
  8
LAYER_1
 62
7
 10
29.785629
 20
17.586691
  0
VERTEX
  8
LAYER_1
 62
7
 10
30.547609
 20
18.908183
  0
SEQEND
  0
POLYLINE
  8
LAYER_1
 62
7
 70
1
 66
1
  0
VERTEX
  8
LAYER_1
 62
7
 10
1.542657
 20
18.633144
 42
-0.012295
  0
VERTEX
  8
LAYER_1
 62
7
 10
1.853753
 20
18.113183
  0
VERTEX
  8
LAYER_1
 62
7
 10
2.003876
 20
17.849903
  0
VERTEX
  8
LAYER_1
 62
7
 10
2.155869
 20
17.587780
 42
0.006922
  0
VERTEX
  8
LAYER_1
 62
7
 10
1.855522
 20
17.065688
 42
-0.019222
  0
VERTEX
  8
LAYER_1
 62
7
 10
1.542657
 20
16.551487
  0
VERTEX
  8
LAYER_1
 62
7
 10
1.542657
 20
18.633144
  0
SEQEND
  0
POLYLINE
  8
LAYER_1
 62
7
 70
1
 66
1
  0
VERTEX
  8
LAYER_1
 62
7
 10
37.212758
 20
17.588143
 42
0.008017
  0
VERTEX
  8
LAYER_1
 62
7
 10
37.512198
 20
18.110553
 42
-0.023719
  0
VERTEX
  8
LAYER_1
 62
7
 10
37.827422
 20
18.622621
  0
VERTEX
  8
LAYER_1
 62
7
 10
37.827422
 20
16.552213
 42
-0.021802
  0
VERTEX
  8
LAYER_1
 62
7
 10
37.512878
 20
17.065688
 42
0.007683
  0
VERTEX
  8
LAYER_1
 62
7
 10
37.212758
 20
17.588143
  0
SEQEND
  0
POLYLINE
  8
LAYER_1
 62
7
 70
1
 66
1
  0
VERTEX
  8
LAYER_1
 62
7
 10
17.370434
 20
17.403090
  0
VERTEX
  8
LAYER_1
 62
7
 10
19.363556
 20
17.404542
 42
-0.000305
  0
VERTEX
  8
LAYER_1
 62
7
 10
18.369717
 20
15.678476
  0
VERTEX
  8
LAYER_1
 62
7
 10
17.371704
 20
15.677024
  0
VERTEX
  8
LAYER_1
 62
7
 10
16.373692
 20
15.677750
 42
0.002016
  0
VERTEX
  8
LAYER_1
 62
7
 10
17.370434
 20
17.403090
  0
SEQEND
  0
POLYLINE
  8
LAYER_1
 62
7
 70
1
 66
1
  0
VERTEX
  8
LAYER_1
 62
7
 10
20.004708
 20
17.404542
  0
VERTEX
  8
LAYER_1
 62
7
 10
20.996325
 20
17.403862
 42
0.003329
  0
VERTEX
  8
LAYER_1
 62
7
 10
21.987671
 20
17.407808
 42
-0.006103
  0
VERTEX
  8
LAYER_1
 62
7
 10
22.493163
 20
16.544139
 42
0.003654
  0
VERTEX
  8
LAYER_1
 62
7
 10
22.994573
 20
15.677750
  0
VERTEX
  8
LAYER_1
 62
7
 10
20.999636
 20
15.678113
  0
VERTEX
  8
LAYER_1
 62
7
 10
20.004708
 20
17.404542
  0
SEQEND
  0
POLYLINE
  8
LAYER_1
 62
7
 70
1
 66
1
  0
VERTEX
  8
LAYER_1
 62
7
 10
12.896886
 20
17.316733
  0
VERTEX
  8
LAYER_1
 62
7
 10
14.693707
 20
17.316007
 42
0.001599
  0
VERTEX
  8
LAYER_1
 62
7
 10
15.363518
 20
16.151300
  0
VERTEX
  8
LAYER_1
 62
7
 10
15.585949
 20
15.762656
  0
VERTEX
  8
LAYER_1
 62
7
 10
13.796385
 20
15.761931
 42
-0.001090
  0
VERTEX
  8
LAYER_1
 62
7
 10
12.896886
 20
17.316733
  0
SEQEND
  0
POLYLINE
  8
LAYER_1
 62
7
 70
1
 66
1
  0
VERTEX
  8
LAYER_1
 62
7
 10
24.676009
 20
17.316733
  0
VERTEX
  8
LAYER_1
 62
7
 10
26.471742
 20
17.316733
 42
-0.001352
  0
VERTEX
  8
LAYER_1
 62
7
 10
25.571517
 20
15.761568
  0
VERTEX
  8
LAYER_1
 62
7
 10
23.783041
 20
15.762656
 42
-0.001273
  0
VERTEX
  8
LAYER_1
 62
7
 10
24.453566
 20
16.927669
  0
VERTEX
  8
LAYER_1
 62
7
 10
24.676009
 20
17.316733
  0
SEQEND
  0
POLYLINE
  8
LAYER_1
 62
7
 70
1
 66
1
  0
VERTEX
  8
LAYER_1
 62
7
 10
9.372909
 20
15.825429
  0
VERTEX
  8
LAYER_1
 62
7
 10
9.581688
 20
16.183208
 42
-0.002060
  0
VERTEX
  8
LAYER_1
 62
7
 10
10.204556
 20
17.258314
  0
VERTEX
  8
LAYER_1
 62
7
 10
11.850070
 20
17.257226
 42
-0.002878
  0
VERTEX
  8
LAYER_1
 62
7
 10
11.024592
 20
15.824340
  0
VERTEX
  8
LAYER_1
 62
7
 10
9.372909
 20
15.825429
  0
SEQEND
  0
POLYLINE
  8
LAYER_1
 62
7
 70
1
 66
1
  0
VERTEX
  8
LAYER_1
 62
7
 10
27.518920
 20
17.257226
 42
0.001159
  0
VERTEX
  8
LAYER_1
 62
7
 10
29.162620
 20
17.259040
 42
-0.004505
  0
VERTEX
  8
LAYER_1
 62
7
 10
29.579849
 20
16.542824
  0
VERTEX
  8
LAYER_1
 62
7
 10
29.786508
 20
16.183577
  0
VERTEX
  8
LAYER_1
 62
7
 10
29.995718
 20
15.825792
 42
0.000494
  0
VERTEX
  8
LAYER_1
 62
7
 10
28.344036
 20
15.823978
 42
-0.002939
  0
VERTEX
  8
LAYER_1
 62
7
 10
27.518920
 20
17.257226
  0
SEQEND
  0
POLYLINE
  8
LAYER_1
 62
7
 70
1
 66
1
  0
VERTEX
  8
LAYER_1
 62
7
 10
5.873969
 20
17.183931
 42
0.004600
  0
VERTEX
  8
LAYER_1
 62
7
 10
7.352936
 20
17.184293
  0
VERTEX
  8
LAYER_1
 62
7
 10
7.725082
 20
16.541736
 42
0.002200
  0
VERTEX
  8
LAYER_1
 62
7
 10
8.097500
 20
15.899450
  0
VERTEX
  8
LAYER_1
 62
7
 10
6.615993
 20
15.898724
 42
-0.001387
  0
VERTEX
  8
LAYER_1
 62
7
 10
5.873969
 20
17.183931
  0
SEQEND
  0
POLYLINE
  8
LAYER_1
 62
7
 70
1
 66
1
  0
VERTEX
  8
LAYER_1
 62
7
 10
18.688297
 20
15.490883
 42
-0.000818
  0
VERTEX
  8
LAYER_1
 62
7
 10
19.436075
 20
16.788205
  0
VERTEX
  8
LAYER_1
 62
7
 10
19.684677
 20
17.220941
  0
VERTEX
  8
LAYER_1
 62
7
 10
19.932904
 20
16.787553
 42
-0.001928
  0
VERTEX
  8
LAYER_1
 62
7
 10
20.679968
 20
15.488343
 42
0.002086
  0
VERTEX
  8
LAYER_1
 62
7
 10
19.684677
 20
13.764091
 42
0.001101
  0
VERTEX
  8
LAYER_1
 62
7
 10
18.688297
 20
15.490883
  0
SEQEND
  0
POLYLINE
  8
LAYER_1
 62
7
 70
1
 66
1
  0
VERTEX
  8
LAYER_1
 62
7
 10
31.271128
 20
15.899087
  0
VERTEX
  8
LAYER_1
 62
7
 10
31.643772
 20
16.542371
 42
-0.002362
  0
VERTEX
  8
LAYER_1
 62
7
 10
32.016417
 20
17.185382
 42
0.006074
  0
VERTEX
  8
LAYER_1
 62
7
 10
33.495021
 20
17.184293
  0
VERTEX
  8
LAYER_1
 62
7
 10
32.753360
 20
15.898724
  0
VERTEX
  8
LAYER_1
 62
7
 10
31.271128
 20
15.899087
  0
SEQEND
  0
POLYLINE
  8
LAYER_1
 62
7
 70
1
 66
1
  0
VERTEX
  8
LAYER_1
 62
7
 10
3.028518
 20
17.106281
 42
0.004576
  0
VERTEX
  8
LAYER_1
 62
7
 10
4.336947
 20
17.109547
 42
-0.003347
  0
VERTEX
  8
LAYER_1
 62
7
 10
3.684184
 20
15.972382
  0
VERTEX
  8
LAYER_1
 62
7
 10
2.371401
 20
15.972382
 42
0.001835
  0
VERTEX
  8
LAYER_1
 62
7
 10
2.864001
 20
16.822976
  0
VERTEX
  8
LAYER_1
 62
7
 10
3.028518
 20
17.106281
  0
SEQEND
  0
POLYLINE
  8
LAYER_1
 62
7
 70
1
 66
1
  0
VERTEX
  8
LAYER_1
 62
7
 10
35.031318
 20
17.105555
  0
VERTEX
  8
LAYER_1
 62
7
 10
36.340472
 20
17.106281
 42
0.001495
  0
VERTEX
  8
LAYER_1
 62
7
 10
36.997226
 20
15.972745
  0
VERTEX
  8
LAYER_1
 62
7
 10
35.684444
 20
15.972382
  0
VERTEX
  8
LAYER_1
 62
7
 10
35.031318
 20
17.105555
  0
SEQEND
  0
POLYLINE
  8
LAYER_1
 62
7
 70
1
 66
1
  0
VERTEX
  8
LAYER_1
 62
7
 10
12.444052
 20
16.956062
 42
-0.008344
  0
VERTEX
  8
LAYER_1
 62
7
 10
12.851121
 20
16.265291
 42
0.004066
  0
VERTEX
  8
LAYER_1
 62
7
 10
13.252476
 20
15.570710
 42
0.043619
  0
VERTEX
  8
LAYER_1
 62
7
 10
13.266049
 20
15.545413
  0
VERTEX
  8
LAYER_1
 62
7
 10
13.281323
 20
15.518823
 42
-0.109302
  0
VERTEX
  8
LAYER_1
 62
7
 10
13.288704
 20
15.491416
 42
-0.177695
  0
VERTEX
  8
LAYER_1
 62
7
 10
13.278601
 20
15.463670
  0
VERTEX
  8
LAYER_1
 62
7
 10
12.864910
 20
14.745050
  0
VERTEX
  8
LAYER_1
 62
7
 10
12.448769
 20
14.027519
 42
-0.001073
  0
VERTEX
  8
LAYER_1
 62
7
 10
11.813706
 20
15.125842
  0
VERTEX
  8
LAYER_1
 62
7
 10
11.601519
 20
15.491609
 42
0.001299
  0
VERTEX
  8
LAYER_1
 62
7
 10
12.444052
 20
16.956062
  0
SEQEND
  0
POLYLINE
  8
LAYER_1
 62
7
 70
1
 66
1
  0
VERTEX
  8
LAYER_1
 62
7
 10
26.915867
 20
16.957151
 42
-0.004990
  0
VERTEX
  8
LAYER_1
 62
7
 10
27.345161
 20
16.225242
  0
VERTEX
  8
LAYER_1
 62
7
 10
27.767108
 20
15.488706
  0
VERTEX
  8
LAYER_1
 62
7
 10
27.553663
 20
15.123891
  0
VERTEX
  8
LAYER_1
 62
7
 10
27.342667
 20
14.757614
 42
-0.003733
  0
VERTEX
  8
LAYER_1
 62
7
 10
26.917682
 20
14.026793
  0
VERTEX
  8
LAYER_1
 62
7
 10
26.494012
 20
14.761650
 42
-0.004094
  0
VERTEX
  8
LAYER_1
 62
7
 10
26.073335
 20
15.498140
 42
0.002604
  0
VERTEX
  8
LAYER_1
 62
7
 10
26.915867
 20
16.957151
  0
SEQEND
  0
POLYLINE
  8
LAYER_1
 62
7
 70
1
 66
1
  0
VERTEX
  8
LAYER_1
 62
7
 10
5.188913
 20
16.662518
 42
-0.005388
  0
VERTEX
  8
LAYER_1
 62
7
 10
5.699933
 20
15.784881
  0
VERTEX
  8
LAYER_1
 62
7
 10
5.869252
 20
15.491609
  0
VERTEX
  8
LAYER_1
 62
7
 10
5.192541
 20
14.321788
 42
-0.004404
  0
VERTEX
  8
LAYER_1
 62
7
 10
4.516556
 20
15.498140
 42
0.002886
  0
VERTEX
  8
LAYER_1
 62
7
 10
5.188913
 20
16.662518
  0
SEQEND
  0
POLYLINE
  8
LAYER_1
 62
7
 70
1
 66
1
  0
VERTEX
  8
LAYER_1
 62
7
 10
34.175723
 20
16.664333
 42
-0.003955
  0
VERTEX
  8
LAYER_1
 62
7
 10
34.852434
 20
15.487981
 42
0.002635
  0
VERTEX
  8
LAYER_1
 62
7
 10
34.179352
 20
14.322877
 42
-0.004701
  0
VERTEX
  8
LAYER_1
 62
7
 10
33.669046
 20
15.199749
  0
VERTEX
  8
LAYER_1
 62
7
 10
33.499375
 20
15.492335
  0
VERTEX
  8
LAYER_1
 62
7
 10
34.175723
 20
16.664333
  0
SEQEND
  0
POLYLINE
  8
LAYER_1
 62
7
 70
1
 66
1
  0
VERTEX
  8
LAYER_1
 62
7
 10
16.374417
 20
15.308008
  0
VERTEX
  8
LAYER_1
 62
7
 10
18.370442
 20
15.306557
  0
VERTEX
  8
LAYER_1
 62
7
 10
19.365008
 20
13.581216
  0
VERTEX
  8
LAYER_1
 62
7
 10
17.371523
 20
13.581942
  0
VERTEX
  8
LAYER_1
 62
7
 10
16.873923
 20
14.445519
  0
VERTEX
  8
LAYER_1
 62
7
 10
16.374417
 20
15.308008
  0
SEQEND
  0
POLYLINE
  8
LAYER_1
 62
7
 70
1
 66
1
  0
VERTEX
  8
LAYER_1
 62
7
 10
20.999274
 20
15.307282
  0
VERTEX
  8
LAYER_1
 62
7
 10
22.994573
 20
15.307645
 42
0.001829
  0
VERTEX
  8
LAYER_1
 62
7
 10
21.998193
 20
13.582305
  0
VERTEX
  8
LAYER_1
 62
7
 10
20.003257
 20
13.581216
  0
VERTEX
  8
LAYER_1
 62
7
 10
20.999274
 20
15.307282
  0
SEQEND
  0
POLYLINE
  8
LAYER_1
 62
7
 70
1
 66
1
  0
VERTEX
  8
LAYER_1
 62
7
 10
12.897974
 20
13.669751
 42
-0.001973
  0
VERTEX
  8
LAYER_1
 62
7
 10
13.798199
 20
15.225279
 42
0.001827
  0
VERTEX
  8
LAYER_1
 62
7
 10
15.585587
 20
15.224916
 42
-0.003916
  0
VERTEX
  8
LAYER_1
 62
7
 10
15.140599
 20
14.447969
  0
VERTEX
  8
LAYER_1
 62
7
 10
14.916388
 20
14.060515
  0
VERTEX
  8
LAYER_1
 62
7
 10
14.694796
 20
13.671565
 42
-0.001363
  0
VERTEX
  8
LAYER_1
 62
7
 10
12.897974
 20
13.669751
  0
SEQEND
  0
POLYLINE
  8
LAYER_1
 62
7
 70
1
 66
1
  0
VERTEX
  8
LAYER_1
 62
7
 10
23.783766
 20
15.224190
  0
VERTEX
  8
LAYER_1
 62
7
 10
25.452866
 20
15.224553
 42
0.051991
  0
VERTEX
  8
LAYER_1
 62
7
 10
25.491118
 20
15.222779
  0
VERTEX
  8
LAYER_1
 62
7
 10
25.532193
 20
15.223147
 42
-0.103537
  0
VERTEX
  8
LAYER_1
 62
7
 10
25.569255
 20
15.214603
 42
-0.179801
  0
VERTEX
  8
LAYER_1
 62
7
 10
25.595465
 20
15.186091
  0
VERTEX
  8
LAYER_1
 62
7
 10
26.471016
 20
13.669751
  0
VERTEX
  8
LAYER_1
 62
7
 10
25.571381
 20
13.669161
 42
-0.003367
  0
VERTEX
  8
LAYER_1
 62
7
 10
24.672017
 20
13.672654
 42
0.004465
  0
VERTEX
  8
LAYER_1
 62
7
 10
24.227892
 20
14.448422
 42
-0.004465
  0
VERTEX
  8
LAYER_1
 62
7
 10
23.783766
 20
15.224190
  0
SEQEND
  0
POLYLINE
  8
LAYER_1
 62
7
 70
1
 66
1
  0
VERTEX
  8
LAYER_1
 62
7
 10
9.373635
 20
15.159966
  0
VERTEX
  8
LAYER_1
 62
7
 10
11.024592
 20
15.161055
 42
-0.001836
  0
VERTEX
  8
LAYER_1
 62
7
 10
11.851521
 20
13.728895
  0
VERTEX
  8
LAYER_1
 62
7
 10
10.203830
 20
13.728169
 42
-0.001800
  0
VERTEX
  8
LAYER_1
 62
7
 10
9.581626
 20
14.802204
  0
VERTEX
  8
LAYER_1
 62
7
 10
9.373635
 20
15.159966
  0
SEQEND
  0
POLYLINE
  8
LAYER_1
 62
7
 70
1
 66
1
  0
VERTEX
  8
LAYER_1
 62
7
 10
27.516743
 20
13.728532
 42
-0.001776
  0
VERTEX
  8
LAYER_1
 62
7
 10
28.344036
 20
15.161055
  0
VERTEX
  8
LAYER_1
 62
7
 10
29.994993
 20
15.159966
  0
VERTEX
  8
LAYER_1
 62
7
 10
29.580530
 20
14.443796
 42
-0.002255
  0
VERTEX
  8
LAYER_1
 62
7
 10
29.165523
 20
13.728169
  0
VERTEX
  8
LAYER_1
 62
7
 10
27.516743
 20
13.728532
  0
SEQEND
  0
POLYLINE
  8
LAYER_1
 62
7
 70
1
 66
1
  0
VERTEX
  8
LAYER_1
 62
7
 10
5.873606
 20
13.802190
  0
VERTEX
  8
LAYER_1
 62
7
 10
6.615993
 20
15.087034
  0
VERTEX
  8
LAYER_1
 62
7
 10
8.097137
 20
15.086308
 42
0.001061
  0
VERTEX
  8
LAYER_1
 62
7
 10
7.539990
 20
14.122999
  0
VERTEX
  8
LAYER_1
 62
7
 10
7.353662
 20
13.802190
  0
VERTEX
  8
LAYER_1
 62
7
 10
5.873606
 20
13.802190
  0
SEQEND
  0
POLYLINE
  8
LAYER_1
 62
7
 70
1
 66
1
  0
VERTEX
  8
LAYER_1
 62
7
 10
31.271491
 20
15.086308
  0
VERTEX
  8
LAYER_1
 62
7
 10
32.753360
 20
15.086671
  0
VERTEX
  8
LAYER_1
 62
7
 10
33.495384
 20
13.802190
  0
VERTEX
  8
LAYER_1
 62
7
 10
32.014965
 20
13.802190
 42
-0.001061
  0
VERTEX
  8
LAYER_1
 62
7
 10
31.457818
 20
14.765500
  0
VERTEX
  8
LAYER_1
 62
7
 10
31.271491
 20
15.086308
  0
SEQEND
  0
POLYLINE
  8
LAYER_1
 62
7
 70
1
 66
1
  0
VERTEX
  8
LAYER_1
 62
7
 10
2.372852
 20
15.012650
  0
VERTEX
  8
LAYER_1
 62
7
 10
3.684547
 20
15.012287
 42
-0.001852
  0
VERTEX
  8
LAYER_1
 62
7
 10
4.339124
 20
13.875486
  0
VERTEX
  8
LAYER_1
 62
7
 10
3.030332
 20
13.875486
  0
VERTEX
  8
LAYER_1
 62
7
 10
2.372852
 20
15.012650
  0
SEQEND
  0
POLYLINE
  8
LAYER_1
 62
7
 70
1
 66
1
  0
VERTEX
  8
LAYER_1
 62
7
 10
35.029504
 20
13.875486
 42
-0.002315
  0
VERTEX
  8
LAYER_1
 62
7
 10
35.684444
 20
15.012650
  0
VERTEX
  8
LAYER_1
 62
7
 10
36.995775
 20
15.012287
  0
VERTEX
  8
LAYER_1
 62
7
 10
36.338295
 20
13.875486
  0
VERTEX
  8
LAYER_1
 62
7
 10
35.029504
 20
13.875486
  0
SEQEND
  0
POLYLINE
  8
LAYER_1
 62
7
 70
1
 66
1
  0
VERTEX
  8
LAYER_1
 62
7
 10
15.158878
 20
13.398704
  0
VERTEX
  8
LAYER_1
 62
7
 10
15.391418
 20
13.798647
 42
-0.002563
  0
VERTEX
  8
LAYER_1
 62
7
 10
16.087405
 20
14.999225
 42
0.001314
  0
VERTEX
  8
LAYER_1
 62
7
 10
17.009764
 20
13.396527
 42
0.000730
  0
VERTEX
  8
LAYER_1
 62
7
 10
16.085228
 20
11.794192
  0
VERTEX
  8
LAYER_1
 62
7
 10
15.158878
 20
13.398704
  0
SEQEND
  0
POLYLINE
  8
LAYER_1
 62
7
 70
1
 66
1
  0
VERTEX
  8
LAYER_1
 62
7
 10
23.280860
 20
14.998862
 42
-0.004408
  0
VERTEX
  8
LAYER_1
 62
7
 10
23.746575
 20
14.199826
  0
VERTEX
  8
LAYER_1
 62
7
 10
23.977153
 20
13.798896
  0
VERTEX
  8
LAYER_1
 62
7
 10
24.210112
 20
13.399430
  0
VERTEX
  8
LAYER_1
 62
7
 10
23.748207
 20
12.596856
 42
-0.004669
  0
VERTEX
  8
LAYER_1
 62
7
 10
23.280860
 20
11.797820
  0
VERTEX
  8
LAYER_1
 62
7
 10
22.358864
 20
13.397252
 42
0.001516
  0
VERTEX
  8
LAYER_1
 62
7
 10
23.280860
 20
14.998862
  0
SEQEND
  0
POLYLINE
  8
LAYER_1
 62
7
 70
1
 66
1
  0
VERTEX
  8
LAYER_1
 62
7
 10
8.058675
 20
13.398341
  0
VERTEX
  8
LAYER_1
 62
7
 10
8.439347
 20
14.057363
 42
-0.004100
  0
VERTEX
  8
LAYER_1
 62
7
 10
8.822469
 20
14.714752
  0
VERTEX
  8
LAYER_1
 62
7
 10
9.201781
 20
14.056728
  0
VERTEX
  8
LAYER_1
 62
7
 10
9.582998
 20
13.399792
 42
-0.002476
  0
VERTEX
  8
LAYER_1
 62
7
 10
8.818841
 20
12.077938
  0
VERTEX
  8
LAYER_1
 62
7
 10
8.058675
 20
13.398341
  0
SEQEND
  0
POLYLINE
  8
LAYER_1
 62
7
 70
1
 66
1
  0
VERTEX
  8
LAYER_1
 62
7
 10
29.785629
 20
13.399430
 42
0.001199
  0
VERTEX
  8
LAYER_1
 62
7
 10
30.546884
 20
14.715478
 42
-0.001815
  0
VERTEX
  8
LAYER_1
 62
7
 10
31.119236
 20
13.727421
  0
VERTEX
  8
LAYER_1
 62
7
 10
31.310315
 20
13.398341
  0
VERTEX
  8
LAYER_1
 62
7
 10
30.547972
 20
12.077576
  0
VERTEX
  8
LAYER_1
 62
7
 10
29.785629
 20
13.399430
  0
SEQEND
  0
POLYLINE
  8
LAYER_1
 62
7
 70
1
 66
1
  0
VERTEX
  8
LAYER_1
 62
7
 10
1.542657
 20
14.387464
  0
VERTEX
  8
LAYER_1
 62
7
 10
1.564428
 20
14.421209
  0
VERTEX
  8
LAYER_1
 62
7
 10
2.155869
 20
13.397615
 42
0.005988
  0
VERTEX
  8
LAYER_1
 62
7
 10
1.855930
 20
12.875024
 42
-0.018976
  0
VERTEX
  8
LAYER_1
 62
7
 10
1.542657
 20
12.360597
  0
VERTEX
  8
LAYER_1
 62
7
 10
1.542657
 20
14.387464
  0
SEQEND
  0
POLYLINE
  8
LAYER_1
 62
7
 70
1
 66
1
  0
VERTEX
  8
LAYER_1
 62
7
 10
37.213121
 20
13.397615
 42
0.007238
  0
VERTEX
  8
LAYER_1
 62
7
 10
37.512788
 20
13.919980
 42
-0.021997
  0
VERTEX
  8
LAYER_1
 62
7
 10
37.827422
 20
14.432820
  0
VERTEX
  8
LAYER_1
 62
7
 10
37.827422
 20
12.352977
 42
-0.014616
  0
VERTEX
  8
LAYER_1
 62
7
 10
37.514829
 20
12.872030
 42
0.004136
  0
VERTEX
  8
LAYER_1
 62
7
 10
37.213121
 20
13.397615
  0
SEQEND
  0
POLYLINE
  8
LAYER_1
 62
7
 70
1
 66
1
  0
VERTEX
  8
LAYER_1
 62
7
 10
17.373337
 20
13.212200
  0
VERTEX
  8
LAYER_1
 62
7
 10
19.366096
 20
13.211474
 42
0.001340
  0
VERTEX
  8
LAYER_1
 62
7
 10
18.370442
 20
11.489399
 42
-0.001092
  0
VERTEX
  8
LAYER_1
 62
7
 10
16.377683
 20
11.489037
  0
VERTEX
  8
LAYER_1
 62
7
 10
17.373337
 20
13.212200
  0
SEQEND
  0
POLYLINE
  8
LAYER_1
 62
7
 70
1
 66
1
  0
VERTEX
  8
LAYER_1
 62
7
 10
20.002531
 20
13.211474
  0
VERTEX
  8
LAYER_1
 62
7
 10
21.994928
 20
13.212563
  0
VERTEX
  8
LAYER_1
 62
7
 10
22.493888
 20
12.351299
  0
VERTEX
  8
LAYER_1
 62
7
 10
22.990944
 20
11.488674
  0
VERTEX
  8
LAYER_1
 62
7
 10
20.998185
 20
11.489037
 42
0.001477
  0
VERTEX
  8
LAYER_1
 62
7
 10
20.002531
 20
13.211474
  0
SEQEND
  0
POLYLINE
  8
LAYER_1
 62
7
 70
1
 66
1
  0
VERTEX
  8
LAYER_1
 62
7
 10
13.793119
 20
11.572854
  0
VERTEX
  8
LAYER_1
 62
7
 10
13.344277
 20
12.349484
 42
-0.004085
  0
VERTEX
  8
LAYER_1
 62
7
 10
12.899788
 20
13.128019
 42
0.001370
  0
VERTEX
  8
LAYER_1
 62
7
 10
14.687902
 20
13.128019
 42
-0.001936
  0
VERTEX
  8
LAYER_1
 62
7
 10
15.137833
 20
12.351163
 42
0.001936
  0
VERTEX
  8
LAYER_1
 62
7
 10
15.587764
 20
11.574306
  0
VERTEX
  8
LAYER_1
 62
7
 10
13.793119
 20
11.572854
  0
SEQEND
  0
POLYLINE
  8
LAYER_1
 62
7
 70
1
 66
1
  0
VERTEX
  8
LAYER_1
 62
7
 10
23.780864
 20
11.574306
 42
0.001119
  0
VERTEX
  8
LAYER_1
 62
7
 10
24.455216
 20
12.739982
  0
VERTEX
  8
LAYER_1
 62
7
 10
24.681089
 20
13.128019
  0
VERTEX
  8
LAYER_1
 62
7
 10
26.473556
 20
13.126568
  0
VERTEX
  8
LAYER_1
 62
7
 10
25.575145
 20
11.572492
 42
0.000777
  0
VERTEX
  8
LAYER_1
 62
7
 10
24.229349
 20
11.573359
  0
VERTEX
  8
LAYER_1
 62
7
 10
23.780864
 20
11.574306
  0
SEQEND
  0
POLYLINE
  8
LAYER_1
 62
7
 70
1
 66
1
  0
VERTEX
  8
LAYER_1
 62
7
 10
9.376175
 20
11.635990
  0
VERTEX
  8
LAYER_1
 62
7
 10
10.202379
 20
13.065973
 42
0.001545
  0
VERTEX
  8
LAYER_1
 62
7
 10
11.440716
 20
13.064595
  0
VERTEX
  8
LAYER_1
 62
7
 10
11.853336
 20
13.063795
 42
0.003179
  0
VERTEX
  8
LAYER_1
 62
7
 10
11.031849
 20
11.638167
 42
-0.002137
  0
VERTEX
  8
LAYER_1
 62
7
 10
9.376175
 20
11.635990
  0
SEQEND
  0
POLYLINE
  8
LAYER_1
 62
7
 70
1
 66
1
  0
VERTEX
  8
LAYER_1
 62
7
 10
27.515292
 20
13.063795
 42
0.000494
  0
VERTEX
  8
LAYER_1
 62
7
 10
29.166611
 20
13.065610
 42
-0.001329
  0
VERTEX
  8
LAYER_1
 62
7
 10
29.992090
 20
11.635627
 42
-0.001645
  0
VERTEX
  8
LAYER_1
 62
7
 10
28.337504
 20
11.637804
 42
0.002666
  0
VERTEX
  8
LAYER_1
 62
7
 10
27.515292
 20
13.063795
  0
SEQEND
  0
POLYLINE
  8
LAYER_1
 62
7
 70
1
 66
1
  0
VERTEX
  8
LAYER_1
 62
7
 10
18.687208
 20
11.302170
 42
0.001404
  0
VERTEX
  8
LAYER_1
 62
7
 10
19.684677
 20
13.030776
  0
VERTEX
  8
LAYER_1
 62
7
 10
20.181551
 20
12.165657
  0
VERTEX
  8
LAYER_1
 62
7
 10
20.681419
 20
11.302170
 42
0.001403
  0
VERTEX
  8
LAYER_1
 62
7
 10
19.684677
 20
9.572475
  0
VERTEX
  8
LAYER_1
 62
7
 10
19.186895
 20
10.437867
  0
VERTEX
  8
LAYER_1
 62
7
 10
18.687208
 20
11.302170
  0
SEQEND
  0
POLYLINE
  8
LAYER_1
 62
7
 70
1
 66
1
  0
VERTEX
  8
LAYER_1
 62
7
 10
5.873244
 20
12.990500
  0
VERTEX
  8
LAYER_1
 62
7
 10
7.354751
 20
12.990863
 42
-0.001321
  0
VERTEX
  8
LAYER_1
 62
7
 10
8.095685
 20
11.707108
  0
VERTEX
  8
LAYER_1
 62
7
 10
7.724169
 20
11.708951
 42
-0.002083
  0
VERTEX
  8
LAYER_1
 62
7
 10
6.609824
 20
11.710737
 42
0.003223
  0
VERTEX
  8
LAYER_1
 62
7
 10
5.873244
 20
12.990500
  0
SEQEND
  0
POLYLINE
  8
LAYER_1
 62
7
 70
1
 66
1
  0
VERTEX
  8
LAYER_1
 62
7
 10
31.272942
 20
11.707108
 42
-0.001480
  0
VERTEX
  8
LAYER_1
 62
7
 10
32.014240
 20
12.991226
  0
VERTEX
  8
LAYER_1
 62
7
 10
33.495384
 20
12.990500
 42
0.000899
  0
VERTEX
  8
LAYER_1
 62
7
 10
32.938594
 20
12.027497
  0
VERTEX
  8
LAYER_1
 62
7
 10
32.752272
 20
11.706745
 42
0.002943
  0
VERTEX
  8
LAYER_1
 62
7
 10
31.272942
 20
11.707108
  0
SEQEND
  0
POLYLINE
  8
LAYER_1
 62
7
 70
1
 66
1
  0
VERTEX
  8
LAYER_1
 62
7
 10
3.028518
 20
12.916479
  0
VERTEX
  8
LAYER_1
 62
7
 10
4.341301
 20
12.916116
 42
0.001390
  0
VERTEX
  8
LAYER_1
 62
7
 10
3.684547
 20
11.781492
  0
VERTEX
  8
LAYER_1
 62
7
 10
2.374304
 20
11.782580
  0
VERTEX
  8
LAYER_1
 62
7
 10
3.028518
 20
12.916479
  0
SEQEND
  0
POLYLINE
  8
LAYER_1
 62
7
 70
1
 66
1
  0
VERTEX
  8
LAYER_1
 62
7
 10
35.027327
 20
12.915754
  0
VERTEX
  8
LAYER_1
 62
7
 10
36.340472
 20
12.916116
  0
VERTEX
  8
LAYER_1
 62
7
 10
36.994324
 20
11.782580
  0
VERTEX
  8
LAYER_1
 62
7
 10
35.684807
 20
11.781492
  0
VERTEX
  8
LAYER_1
 62
7
 10
35.356611
 20
12.349031
 42
0.002678
  0
VERTEX
  8
LAYER_1
 62
7
 10
35.027327
 20
12.915754
  0
SEQEND
  0
POLYLINE
  8
LAYER_1
 62
7
 70
1
 66
1
  0
VERTEX
  8
LAYER_1
 62
7
 10
11.601519
 20
11.301807
 42
-0.001294
  0
VERTEX
  8
LAYER_1
 62
7
 10
12.450946
 20
12.768800
 42
0.001216
  0
VERTEX
  8
LAYER_1
 62
7
 10
13.296381
 20
11.301807
  0
VERTEX
  8
LAYER_1
 62
7
 10
12.450220
 20
9.833726
  0
VERTEX
  8
LAYER_1
 62
7
 10
11.601519
 20
11.301807
  0
SEQEND
  0
POLYLINE
  8
LAYER_1
 62
7
 70
1
 66
1
  0
VERTEX
  8
LAYER_1
 62
7
 10
26.072247
 20
11.301082
  0
VERTEX
  8
LAYER_1
 62
7
 10
26.494556
 20
12.034306
 42
-0.006640
  0
VERTEX
  8
LAYER_1
 62
7
 10
26.923124
 20
12.763720
  0
VERTEX
  8
LAYER_1
 62
7
 10
27.767108
 20
11.301807
  0
VERTEX
  8
LAYER_1
 62
7
 10
27.080963
 20
10.113118
  0
VERTEX
  8
LAYER_1
 62
7
 10
27.001862
 20
9.974465
 42
-0.037744
  0
VERTEX
  8
LAYER_1
 62
7
 10
26.912965
 20
9.842071
 42
0.001524
  0
VERTEX
  8
LAYER_1
 62
7
 10
26.072247
 20
11.301082
  0
SEQEND
  0
POLYLINE
  8
LAYER_1
 62
7
 70
1
 66
1
  0
VERTEX
  8
LAYER_1
 62
7
 10
34.173183
 20
12.473805
 42
-0.002790
  0
VERTEX
  8
LAYER_1
 62
7
 10
34.853160
 20
11.301444
 42
-0.001894
  0
VERTEX
  8
LAYER_1
 62
7
 10
34.173909
 20
10.129084
 42
0.001722
  0
VERTEX
  8
LAYER_1
 62
7
 10
33.499738
 20
11.301807
 42
0.002073
  0
VERTEX
  8
LAYER_1
 62
7
 10
34.173183
 20
12.473805
  0
SEQEND
  0
POLYLINE
  8
LAYER_1
 62
7
 70
1
 66
1
  0
VERTEX
  8
LAYER_1
 62
7
 10
5.190364
 20
12.469451
 42
-0.004812
  0
VERTEX
  8
LAYER_1
 62
7
 10
5.699802
 20
11.593905
  0
VERTEX
  8
LAYER_1
 62
7
 10
5.868889
 20
11.301444
 42
0.001449
  0
VERTEX
  8
LAYER_1
 62
7
 10
5.194718
 20
10.129809
 42
-0.002964
  0
VERTEX
  8
LAYER_1
 62
7
 10
4.515831
 20
11.302533
  0
VERTEX
  8
LAYER_1
 62
7
 10
5.190364
 20
12.469451
  0
SEQEND
  0
POLYLINE
  8
LAYER_1
 62
7
 70
1
 66
1
  0
VERTEX
  8
LAYER_1
 62
7
 10
16.376232
 20
11.114941
 42
-0.001092
  0
VERTEX
  8
LAYER_1
 62
7
 10
18.369717
 20
11.114941
 42
0.001289
  0
VERTEX
  8
LAYER_1
 62
7
 10
19.365733
 20
9.392140
  0
VERTEX
  8
LAYER_1
 62
7
 10
17.372248
 20
9.391414
  0
VERTEX
  8
LAYER_1
 62
7
 10
16.376232
 20
11.114941
  0
SEQEND
  0
POLYLINE
  8
LAYER_1
 62
7
 70
1
 66
1
  0
VERTEX
  8
LAYER_1
 62
7
 10
20.999274
 20
11.115304
 42
-0.000683
  0
VERTEX
  8
LAYER_1
 62
7
 10
22.992033
 20
11.115304
  0
VERTEX
  8
LAYER_1
 62
7
 10
21.995653
 20
9.391052
  0
VERTEX
  8
LAYER_1
 62
7
 10
20.003257
 20
9.392140
 42
0.001102
  0
VERTEX
  8
LAYER_1
 62
7
 10
20.999274
 20
11.115304
  0
SEQEND
  0
POLYLINE
  8
LAYER_1
 62
7
 70
1
 66
1
  0
VERTEX
  8
LAYER_1
 62
7
 10
12.895434
 20
9.478135
 42
0.001261
  0
VERTEX
  8
LAYER_1
 62
7
 10
13.569940
 20
10.644015
  0
VERTEX
  8
LAYER_1
 62
7
 10
13.795296
 20
11.032211
 42
0.000778
  0
VERTEX
  8
LAYER_1
 62
7
 10
15.140225
 20
11.031344
  0
VERTEX
  8
LAYER_1
 62
7
 10
15.588489
 20
11.030397
 42
0.001068
  0
VERTEX
  8
LAYER_1
 62
7
 10
14.914647
 20
9.865027
  0
VERTEX
  8
LAYER_1
 62
7
 10
14.688990
 20
9.477046
  0
VERTEX
  8
LAYER_1
 62
7
 10
12.895434
 20
9.478135
  0
SEQEND
  0
POLYLINE
  8
LAYER_1
 62
7
 70
1
 66
1
  0
VERTEX
  8
LAYER_1
 62
7
 10
23.779775
 20
11.030760
  0
VERTEX
  8
LAYER_1
 62
7
 10
25.573331
 20
11.032211
  0
VERTEX
  8
LAYER_1
 62
7
 10
26.022854
 20
10.255037
 42
0.002053
  0
VERTEX
  8
LAYER_1
 62
7
 10
26.473193
 20
9.478135
 42
0.000607
  0
VERTEX
  8
LAYER_1
 62
7
 10
24.679637
 20
9.476684
  0
VERTEX
  8
LAYER_1
 62
7
 10
24.229978
 20
10.253994
 42
0.002181
  0
VERTEX
  8
LAYER_1
 62
7
 10
23.779775
 20
11.030760
  0
SEQEND
  0
POLYLINE
  8
LAYER_1
 62
7
 70
1
 66
1
  0
VERTEX
  8
LAYER_1
 62
7
 10
9.374723
 20
10.967625
 42
-0.001808
  0
VERTEX
  8
LAYER_1
 62
7
 10
11.030397
 20
10.966899
 42
0.002888
  0
VERTEX
  8
LAYER_1
 62
7
 10
11.853699
 20
9.539093
  0
VERTEX
  8
LAYER_1
 62
7
 10
10.199839
 20
9.538005
 42
0.001104
  0
VERTEX
  8
LAYER_1
 62
7
 10
9.374723
 20
10.967625
  0
SEQEND
  0
POLYLINE
  8
LAYER_1
 62
7
 70
1
 66
1
  0
VERTEX
  8
LAYER_1
 62
7
 10
28.338593
 20
10.966899
 42
-0.001809
  0
VERTEX
  8
LAYER_1
 62
7
 10
29.993541
 20
10.967625
 42
0.002069
  0
VERTEX
  8
LAYER_1
 62
7
 10
29.171691
 20
9.539819
  0
VERTEX
  8
LAYER_1
 62
7
 10
28.343310
 20
9.537823
  0
VERTEX
  8
LAYER_1
 62
7
 10
27.514929
 20
9.539093
 42
0.002662
  0
VERTEX
  8
LAYER_1
 62
7
 10
28.338593
 20
10.966899
  0
SEQEND
  0
POLYLINE
  8
LAYER_1
 62
7
 70
1
 66
1
  0
VERTEX
  8
LAYER_1
 62
7
 10
6.619984
 20
10.897958
 42
0.003618
  0
VERTEX
  8
LAYER_1
 62
7
 10
7.727032
 20
10.894845
  0
VERTEX
  8
LAYER_1
 62
7
 10
8.096048
 20
10.894329
  0
VERTEX
  8
LAYER_1
 62
7
 10
7.355113
 20
9.611663
  0
VERTEX
  8
LAYER_1
 62
7
 10
5.873606
 20
9.612026
  0
VERTEX
  8
LAYER_1
 62
7
 10
6.245162
 20
10.256080
 42
-0.004645
  0
VERTEX
  8
LAYER_1
 62
7
 10
6.619984
 20
10.897958
  0
SEQEND
  0
POLYLINE
  8
LAYER_1
 62
7
 70
1
 66
1
  0
VERTEX
  8
LAYER_1
 62
7
 10
31.273305
 20
10.895781
 42
0.003874
  0
VERTEX
  8
LAYER_1
 62
7
 10
32.748643
 20
10.897958
 42
-0.003343
  0
VERTEX
  8
LAYER_1
 62
7
 10
33.308597
 20
9.933475
  0
VERTEX
  8
LAYER_1
 62
7
 10
33.495384
 20
9.612026
  0
VERTEX
  8
LAYER_1
 62
7
 10
32.013877
 20
9.611300
  0
VERTEX
  8
LAYER_1
 62
7
 10
31.273305
 20
10.895781
  0
SEQEND
  0
POLYLINE
  8
LAYER_1
 62
7
 70
1
 66
1
  0
VERTEX
  8
LAYER_1
 62
7
 10
2.373578
 20
10.820308
  0
VERTEX
  8
LAYER_1
 62
7
 10
3.684547
 20
10.821397
 42
0.001315
  0
VERTEX
  8
LAYER_1
 62
7
 10
4.341301
 20
9.687135
  0
VERTEX
  8
LAYER_1
 62
7
 10
3.687994
 20
9.686228
 42
0.004687
  0
VERTEX
  8
LAYER_1
 62
7
 10
3.034686
 20
9.683144
 42
-0.004279
  0
VERTEX
  8
LAYER_1
 62
7
 10
2.538821
 20
10.536034
  0
VERTEX
  8
LAYER_1
 62
7
 10
2.373578
 20
10.820308
  0
SEQEND
  0
POLYLINE
  8
LAYER_1
 62
7
 70
1
 66
1
  0
VERTEX
  8
LAYER_1
 62
7
 10
35.689161
 20
10.823574
 42
0.002866
  0
VERTEX
  8
LAYER_1
 62
7
 10
36.668492
 20
10.821227
  0
VERTEX
  8
LAYER_1
 62
7
 10
36.995049
 20
10.819583
 42
0.001995
  0
VERTEX
  8
LAYER_1
 62
7
 10
36.666672
 20
10.252452
 42
-0.001995
  0
VERTEX
  8
LAYER_1
 62
7
 10
36.338295
 20
9.685321
  0
VERTEX
  8
LAYER_1
 62
7
 10
35.026964
 20
9.686772
  0
VERTEX
  8
LAYER_1
 62
7
 10
35.193244
 20
9.970531
  0
VERTEX
  8
LAYER_1
 62
7
 10
35.357110
 20
10.255717
 42
-0.005933
  0
VERTEX
  8
LAYER_1
 62
7
 10
35.689161
 20
10.823574
  0
SEQEND
  0
POLYLINE
  8
LAYER_1
 62
7
 70
1
 66
1
  0
VERTEX
  8
LAYER_1
 62
7
 10
15.158878
 20
9.204548
  0
VERTEX
  8
LAYER_1
 62
7
 10
16.085954
 20
10.810149
 42
0.001440
  0
VERTEX
  8
LAYER_1
 62
7
 10
17.009764
 20
9.206362
 42
0.001313
  0
VERTEX
  8
LAYER_1
 62
7
 10
16.086679
 20
7.602938
 42
-0.001662
  0
VERTEX
  8
LAYER_1
 62
7
 10
15.391151
 20
8.804486
  0
VERTEX
  8
LAYER_1
 62
7
 10
15.158878
 20
9.204548
  0
SEQEND
  0
POLYLINE
  8
LAYER_1
 62
7
 70
1
 66
1
  0
VERTEX
  8
LAYER_1
 62
7
 10
22.358864
 20
9.206362
 42
0.001513
  0
VERTEX
  8
LAYER_1
 62
7
 10
23.283037
 20
10.810512
  0
VERTEX
  8
LAYER_1
 62
7
 10
24.209750
 20
9.204548
  0
VERTEX
  8
LAYER_1
 62
7
 10
23.746393
 20
8.403471
 42
-0.002270
  0
VERTEX
  8
LAYER_1
 62
7
 10
23.281948
 20
7.602938
 42
0.001387
  0
VERTEX
  8
LAYER_1
 62
7
 10
22.358864
 20
9.206362
  0
SEQEND
  0
POLYLINE
  8
LAYER_1
 62
7
 70
1
 66
1
  0
VERTEX
  8
LAYER_1
 62
7
 10
8.821018
 20
10.525676
  0
VERTEX
  8
LAYER_1
 62
7
 10
9.582998
 20
9.204185
 42
0.000799
  0
VERTEX
  8
LAYER_1
 62
7
 10
8.821744
 20
7.888499
 42
-0.002141
  0
VERTEX
  8
LAYER_1
 62
7
 10
8.249442
 20
8.876097
  0
VERTEX
  8
LAYER_1
 62
7
 10
8.057949
 20
9.204911
  0
VERTEX
  8
LAYER_1
 62
7
 10
8.821018
 20
10.525676
  0
SEQEND
  0
POLYLINE
  8
LAYER_1
 62
7
 70
1
 66
1
  0
VERTEX
  8
LAYER_1
 62
7
 10
30.547247
 20
10.526039
  0
VERTEX
  8
LAYER_1
 62
7
 10
31.310678
 20
9.205274
  0
VERTEX
  8
LAYER_1
 62
7
 10
30.929098
 20
8.545480
 42
-0.004378
  0
VERTEX
  8
LAYER_1
 62
7
 10
30.545070
 20
7.887048
 42
0.002642
  0
VERTEX
  8
LAYER_1
 62
7
 10
29.785629
 20
9.204185
  0
VERTEX
  8
LAYER_1
 62
7
 10
30.547247
 20
10.526039
  0
SEQEND
  0
POLYLINE
  8
LAYER_1
 62
7
 70
1
 66
1
  0
VERTEX
  8
LAYER_1
 62
7
 10
1.542657
 20
10.250638
 42
-0.012063
  0
VERTEX
  8
LAYER_1
 62
7
 10
1.854298
 20
9.730359
  0
VERTEX
  8
LAYER_1
 62
7
 10
2.155869
 20
9.203822
 42
0.007868
  0
VERTEX
  8
LAYER_1
 62
7
 10
1.854978
 20
8.682682
 42
-0.019050
  0
VERTEX
  8
LAYER_1
 62
7
 10
1.542657
 20
8.168618
  0
VERTEX
  8
LAYER_1
 62
7
 10
1.542657
 20
10.250638
  0
SEQEND
  0
POLYLINE
  8
LAYER_1
 62
7
 70
1
 66
1
  0
VERTEX
  8
LAYER_1
 62
7
 10
37.212758
 20
9.205274
 42
0.007440
  0
VERTEX
  8
LAYER_1
 62
7
 10
37.511926
 20
9.728001
 42
-0.023645
  0
VERTEX
  8
LAYER_1
 62
7
 10
37.827422
 20
10.240115
  0
VERTEX
  8
LAYER_1
 62
7
 10
37.827422
 20
8.170069
 42
-0.021872
  0
VERTEX
  8
LAYER_1
 62
7
 10
37.512878
 20
8.683181
 42
0.007743
  0
VERTEX
  8
LAYER_1
 62
7
 10
37.212758
 20
9.205274
  0
SEQEND
  0
POLYLINE
  8
LAYER_1
 62
7
 70
1
 66
1
  0
VERTEX
  8
LAYER_1
 62
7
 10
17.372974
 20
9.021673
  0
VERTEX
  8
LAYER_1
 62
7
 10
19.363194
 20
9.022035
 42
-0.000983
  0
VERTEX
  8
LAYER_1
 62
7
 10
18.368628
 20
7.295969
  0
VERTEX
  8
LAYER_1
 62
7
 10
16.374055
 20
7.295606
 42
0.001250
  0
VERTEX
  8
LAYER_1
 62
7
 10
17.123159
 20
8.590326
  0
VERTEX
  8
LAYER_1
 62
7
 10
17.372974
 20
9.021673
  0
SEQEND
  0
POLYLINE
  8
LAYER_1
 62
7
 70
1
 66
1
  0
VERTEX
  8
LAYER_1
 62
7
 10
20.005797
 20
9.022035
  0
VERTEX
  8
LAYER_1
 62
7
 10
21.003446
 20
9.022444
 42
-0.004057
  0
VERTEX
  8
LAYER_1
 62
7
 10
22.001096
 20
9.017681
 42
0.002513
  0
VERTEX
  8
LAYER_1
 62
7
 10
22.994210
 20
7.295969
  0
VERTEX
  8
LAYER_1
 62
7
 10
20.998911
 20
7.296695
 42
-0.000797
  0
VERTEX
  8
LAYER_1
 62
7
 10
20.005797
 20
9.022035
  0
SEQEND
  0
POLYLINE
  8
LAYER_1
 62
7
 70
1
 66
1
  0
VERTEX
  8
LAYER_1
 62
7
 10
12.896160
 20
8.934589
  0
VERTEX
  8
LAYER_1
 62
7
 10
13.794571
 20
8.935496
  0
VERTEX
  8
LAYER_1
 62
7
 10
14.692981
 20
8.934226
 42
0.001447
  0
VERTEX
  8
LAYER_1
 62
7
 10
15.363813
 20
7.768754
  0
VERTEX
  8
LAYER_1
 62
7
 10
15.586675
 20
7.379787
  0
VERTEX
  8
LAYER_1
 62
7
 10
13.796748
 20
7.379061
 42
-0.001467
  0
VERTEX
  8
LAYER_1
 62
7
 10
13.121426
 20
8.545758
  0
VERTEX
  8
LAYER_1
 62
7
 10
12.896160
 20
8.934589
  0
SEQEND
  0
POLYLINE
  8
LAYER_1
 62
7
 70
1
 66
1
  0
VERTEX
  8
LAYER_1
 62
7
 10
24.676009
 20
8.934589
  0
VERTEX
  8
LAYER_1
 62
7
 10
26.472105
 20
8.934952
 42
-0.001014
  0
VERTEX
  8
LAYER_1
 62
7
 10
25.572242
 20
7.379061
  0
VERTEX
  8
LAYER_1
 62
7
 10
23.781952
 20
7.379787
  0
VERTEX
  8
LAYER_1
 62
7
 10
24.229253
 20
8.157052
 42
0.002089
  0
VERTEX
  8
LAYER_1
 62
7
 10
24.676009
 20
8.934589
  0
SEQEND
  0
POLYLINE
  8
LAYER_1
 62
7
 70
1
 66
1
  0
VERTEX
  8
LAYER_1
 62
7
 10
9.372546
 20
7.442922
  0
VERTEX
  8
LAYER_1
 62
7
 10
9.581864
 20
7.800928
  0
VERTEX
  8
LAYER_1
 62
7
 10
9.788733
 20
8.160363
 42
-0.004150
  0
VERTEX
  8
LAYER_1
 62
7
 10
10.206007
 20
8.877259
 42
0.001324
  0
VERTEX
  8
LAYER_1
 62
7
 10
11.850796
 20
8.875808
 42
-0.002651
  0
VERTEX
  8
LAYER_1
 62
7
 10
11.024229
 20
7.441471
 42
0.000659
  0
VERTEX
  8
LAYER_1
 62
7
 10
9.372546
 20
7.442922
  0
SEQEND
  0
POLYLINE
  8
LAYER_1
 62
7
 70
1
 66
1
  0
VERTEX
  8
LAYER_1
 62
7
 10
27.518557
 20
8.875445
  0
VERTEX
  8
LAYER_1
 62
7
 10
29.164434
 20
8.876534
  0
VERTEX
  8
LAYER_1
 62
7
 10
29.373474
 20
8.518692
 42
0.001759
  0
VERTEX
  8
LAYER_1
 62
7
 10
29.996444
 20
7.442922
 42
0.000659
  0
VERTEX
  8
LAYER_1
 62
7
 10
28.344399
 20
7.441471
 42
-0.002937
  0
VERTEX
  8
LAYER_1
 62
7
 10
27.518557
 20
8.875445
  0
SEQEND
  0
POLYLINE
  8
LAYER_1
 62
7
 70
1
 66
1
  0
VERTEX
  8
LAYER_1
 62
7
 10
5.873606
 20
8.803238
  0
VERTEX
  8
LAYER_1
 62
7
 10
6.613090
 20
8.797796
 42
0.005613
  0
VERTEX
  8
LAYER_1
 62
7
 10
7.352573
 20
8.803238
  0
VERTEX
  8
LAYER_1
 62
7
 10
7.724810
 20
8.159773
 42
0.002150
  0
VERTEX
  8
LAYER_1
 62
7
 10
8.097863
 20
7.516581
  0
VERTEX
  8
LAYER_1
 62
7
 10
6.615630
 20
7.516218
  0
VERTEX
  8
LAYER_1
 62
7
 10
6.243666
 20
8.159184
  0
VERTEX
  8
LAYER_1
 62
7
 10
5.873606
 20
8.803238
  0
SEQEND
  0
POLYLINE
  8
LAYER_1
 62
7
 70
1
 66
1
  0
VERTEX
  8
LAYER_1
 62
7
 10
18.688297
 20
7.108014
 42
-0.000957
  0
VERTEX
  8
LAYER_1
 62
7
 10
19.436177
 20
8.406051
  0
VERTEX
  8
LAYER_1
 62
7
 10
19.684677
 20
8.839160
 42
0.001607
  0
VERTEX
  8
LAYER_1
 62
7
 10
20.628806
 20
7.201992
 42
0.041021
  0
VERTEX
  8
LAYER_1
 62
7
 10
20.646228
 20
7.170328
  0
VERTEX
  8
LAYER_1
 62
7
 10
20.665046
 20
7.137269
 42
-0.124197
  0
VERTEX
  8
LAYER_1
 62
7
 10
20.672637
 20
7.103462
 42
-0.182711
  0
VERTEX
  8
LAYER_1
 62
7
 10
20.656383
 20
7.069552
 42
0.000693
  0
VERTEX
  8
LAYER_1
 62
7
 10
19.684677
 20
5.381585
 42
0.001287
  0
VERTEX
  8
LAYER_1
 62
7
 10
18.688297
 20
7.108014
  0
SEQEND
  0
POLYLINE
  8
LAYER_1
 62
7
 70
1
 66
1
  0
VERTEX
  8
LAYER_1
 62
7
 10
31.270765
 20
7.516581
 42
0.001299
  0
VERTEX
  8
LAYER_1
 62
7
 10
31.829289
 20
8.481829
  0
VERTEX
  8
LAYER_1
 62
7
 10
32.016054
 20
8.803238
 42
0.005519
  0
VERTEX
  8
LAYER_1
 62
7
 10
33.495384
 20
8.802150
  0
VERTEX
  8
LAYER_1
 62
7
 10
32.752997
 20
7.515855
  0
VERTEX
  8
LAYER_1
 62
7
 10
31.270765
 20
7.516581
  0
SEQEND
  0
POLYLINE
  8
LAYER_1
 62
7
 70
1
 66
1
  0
VERTEX
  8
LAYER_1
 62
7
 10
3.028881
 20
8.724863
  0
VERTEX
  8
LAYER_1
 62
7
 10
3.683413
 20
8.723412
  0
VERTEX
  8
LAYER_1
 62
7
 10
4.337672
 20
8.724138
  0
VERTEX
  8
LAYER_1
 62
7
 10
3.684547
 20
7.590601
  0
VERTEX
  8
LAYER_1
 62
7
 10
2.372127
 20
7.590964
 42
0.001678
  0
VERTEX
  8
LAYER_1
 62
7
 10
2.864369
 20
8.441559
  0
VERTEX
  8
LAYER_1
 62
7
 10
3.028881
 20
8.724863
  0
SEQEND
  0
POLYLINE
  8
LAYER_1
 62
7
 70
1
 66
1
  0
VERTEX
  8
LAYER_1
 62
7
 10
35.030955
 20
8.723775
  0
VERTEX
  8
LAYER_1
 62
7
 10
36.340109
 20
8.724500
 42
0.001315
  0
VERTEX
  8
LAYER_1
 62
7
 10
36.996864
 20
7.590964
  0
VERTEX
  8
LAYER_1
 62
7
 10
35.684081
 20
7.590601
  0
VERTEX
  8
LAYER_1
 62
7
 10
35.030955
 20
8.723775
  0
SEQEND
  0
POLYLINE
  8
LAYER_1
 62
7
 70
1
 66
1
  0
VERTEX
  8
LAYER_1
 62
7
 10
12.447680
 20
8.575733
  0
VERTEX
  8
LAYER_1
 62
7
 10
12.660950
 20
8.211672
  0
VERTEX
  8
LAYER_1
 62
7
 10
12.871532
 20
7.846046
 42
0.003824
  0
VERTEX
  8
LAYER_1
 62
7
 10
13.295655
 20
7.116360
 42
-0.003052
  0
VERTEX
  8
LAYER_1
 62
7
 10
12.662378
 20
6.012883
  0
VERTEX
  8
LAYER_1
 62
7
 10
12.451309
 20
5.645012
 42
-0.004451
  0
VERTEX
  8
LAYER_1
 62
7
 10
11.601882
 20
7.116360
 42
0.002532
  0
VERTEX
  8
LAYER_1
 62
7
 10
12.236435
 20
8.210753
  0
VERTEX
  8
LAYER_1
 62
7
 10
12.447680
 20
8.575733
  0
SEQEND
  0
POLYLINE
  8
LAYER_1
 62
7
 70
1
 66
1
  0
VERTEX
  8
LAYER_1
 62
7
 10
26.917319
 20
8.576459
 42
-0.005297
  0
VERTEX
  8
LAYER_1
 62
7
 10
27.766745
 20
7.102209
 42
0.005637
  0
VERTEX
  8
LAYER_1
 62
7
 10
27.341442
 20
6.373792
 42
-0.004337
  0
VERTEX
  8
LAYER_1
 62
7
 10
26.918044
 20
5.644287
  0
VERTEX
  8
LAYER_1
 62
7
 10
26.497776
 20
6.373248
 42
-0.003793
  0
VERTEX
  8
LAYER_1
 62
7
 10
26.080229
 20
7.103297
 42
-0.012414
  0
VERTEX
  8
LAYER_1
 62
7
 10
26.493195
 20
7.841647
 42
0.005611
  0
VERTEX
  8
LAYER_1
 62
7
 10
26.917319
 20
8.576459
  0
SEQEND
  0
POLYLINE
  8
LAYER_1
 62
7
 70
1
 66
1
  0
VERTEX
  8
LAYER_1
 62
7
 10
5.190001
 20
8.281101
 42
-0.003167
  0
VERTEX
  8
LAYER_1
 62
7
 10
5.869252
 20
7.109466
 42
0.002530
  0
VERTEX
  8
LAYER_1
 62
7
 10
5.196896
 20
5.941822
 42
-0.007311
  0
VERTEX
  8
LAYER_1
 62
7
 10
4.852236
 20
6.524918
  0
VERTEX
  8
LAYER_1
 62
7
 10
4.516556
 20
7.113457
  0
VERTEX
  8
LAYER_1
 62
7
 10
4.854231
 20
7.696870
  0
VERTEX
  8
LAYER_1
 62
7
 10
5.190001
 20
8.281101
  0
SEQEND
  0
POLYLINE
  8
LAYER_1
 62
7
 70
1
 66
1
  0
VERTEX
  8
LAYER_1
 62
7
 10
34.173546
 20
8.280738
 42
-0.005231
  0
VERTEX
  8
LAYER_1
 62
7
 10
34.852434
 20
7.107651
  0
VERTEX
  8
LAYER_1
 62
7
 10
34.514850
 20
6.525009
  0
VERTEX
  8
LAYER_1
 62
7
 10
34.179714
 20
5.940733
 42
-0.005692
  0
VERTEX
  8
LAYER_1
 62
7
 10
33.836551
 20
6.524963
  0
VERTEX
  8
LAYER_1
 62
7
 10
33.499375
 20
7.112731
 42
0.002178
  0
VERTEX
  8
LAYER_1
 62
7
 10
34.173546
 20
8.280738
  0
SEQEND
  0
POLYLINE
  8
LAYER_1
 62
7
 70
1
 66
1
  0
VERTEX
  8
LAYER_1
 62
7
 10
16.374780
 20
6.925139
  0
VERTEX
  8
LAYER_1
 62
7
 10
18.370079
 20
6.924413
 42
0.000983
  0
VERTEX
  8
LAYER_1
 62
7
 10
19.365733
 20
5.198710
  0
VERTEX
  8
LAYER_1
 62
7
 10
17.370071
 20
5.200161
 42
0.001712
  0
VERTEX
  8
LAYER_1
 62
7
 10
16.374780
 20
6.925139
  0
SEQEND
  0
POLYLINE
  8
LAYER_1
 62
7
 70
1
 66
1
  0
VERTEX
  8
LAYER_1
 62
7
 10
20.998911
 20
6.924413
  0
VERTEX
  8
LAYER_1
 62
7
 10
22.994210
 20
6.924776
 42
0.001898
  0
VERTEX
  8
LAYER_1
 62
7
 10
21.998556
 20
5.200161
  0
VERTEX
  8
LAYER_1
 62
7
 10
20.003257
 20
5.198710
  0
VERTEX
  8
LAYER_1
 62
7
 10
20.998911
 20
6.924413
  0
SEQEND
  0
POLYLINE
  8
LAYER_1
 62
7
 70
1
 66
1
  0
VERTEX
  8
LAYER_1
 62
7
 10
12.897611
 20
5.286882
  0
VERTEX
  8
LAYER_1
 62
7
 10
13.345683
 20
6.064782
 42
-0.003625
  0
VERTEX
  8
LAYER_1
 62
7
 10
13.797836
 20
6.840233
 42
0.003046
  0
VERTEX
  8
LAYER_1
 62
7
 10
15.584498
 20
6.837693
  0
VERTEX
  8
LAYER_1
 62
7
 10
15.363002
 20
6.450466
 42
0.002696
  0
VERTEX
  8
LAYER_1
 62
7
 10
14.696610
 20
5.290147
 42
-0.003631
  0
VERTEX
  8
LAYER_1
 62
7
 10
13.797111
 20
5.286065
  0
VERTEX
  8
LAYER_1
 62
7
 10
12.897611
 20
5.286882
  0
SEQEND
  0
POLYLINE
  8
LAYER_1
 62
7
 70
1
 66
1
  0
VERTEX
  8
LAYER_1
 62
7
 10
23.784492
 20
6.837330
  0
VERTEX
  8
LAYER_1
 62
7
 10
24.677097
 20
6.836151
 42
0.004344
  0
VERTEX
  8
LAYER_1
 62
7
 10
25.569703
 20
6.840958
 42
-0.004026
  0
VERTEX
  8
LAYER_1
 62
7
 10
26.022763
 20
6.065235
  0
VERTEX
  8
LAYER_1
 62
7
 10
26.470653
 20
5.286519
  0
VERTEX
  8
LAYER_1
 62
7
 10
25.570973
 20
5.286065
 42
-0.004159
  0
VERTEX
  8
LAYER_1
 62
7
 10
24.671292
 20
5.290510
 42
0.004255
  0
VERTEX
  8
LAYER_1
 62
7
 10
24.229117
 20
6.064600
  0
VERTEX
  8
LAYER_1
 62
7
 10
24.005767
 20
6.450370
  0
VERTEX
  8
LAYER_1
 62
7
 10
23.784492
 20
6.837330
  0
SEQEND
  0
POLYLINE
  8
LAYER_1
 62
7
 70
1
 66
1
  0
VERTEX
  8
LAYER_1
 62
7
 10
9.373272
 20
6.778186
  0
VERTEX
  8
LAYER_1
 62
7
 10
11.024229
 20
6.779274
  0
VERTEX
  8
LAYER_1
 62
7
 10
11.439190
 20
6.063240
  0
VERTEX
  8
LAYER_1
 62
7
 10
11.852247
 20
5.346389
  0
VERTEX
  8
LAYER_1
 62
7
 10
10.203467
 20
5.345663
 42
-0.001495
  0
VERTEX
  8
LAYER_1
 62
7
 10
9.581314
 20
6.420412
  0
VERTEX
  8
LAYER_1
 62
7
 10
9.373272
 20
6.778186
  0
SEQEND
  0
POLYLINE
  8
LAYER_1
 62
7
 70
1
 66
1
  0
VERTEX
  8
LAYER_1
 62
7
 10
27.516380
 20
5.346026
  0
VERTEX
  8
LAYER_1
 62
7
 10
27.929301
 20
6.063330
  0
VERTEX
  8
LAYER_1
 62
7
 10
28.344399
 20
6.779274
  0
VERTEX
  8
LAYER_1
 62
7
 10
29.994993
 20
6.778186
  0
VERTEX
  8
LAYER_1
 62
7
 10
29.580530
 20
6.061788
 42
-0.002110
  0
VERTEX
  8
LAYER_1
 62
7
 10
29.165523
 20
5.345663
  0
VERTEX
  8
LAYER_1
 62
7
 10
27.516380
 20
5.346026
  0
SEQEND
  0
POLYLINE
  8
LAYER_1
 62
7
 70
1
 66
1
  0
VERTEX
  8
LAYER_1
 62
7
 10
5.873244
 20
5.419684
  0
VERTEX
  8
LAYER_1
 62
7
 10
6.615993
 20
6.704890
  0
VERTEX
  8
LAYER_1
 62
7
 10
8.097500
 20
6.704528
 42
0.000409
  0
VERTEX
  8
LAYER_1
 62
7
 10
7.354025
 20
5.419684
  0
VERTEX
  8
LAYER_1
 62
7
 10
5.873244
 20
5.419684
  0
SEQEND
  0
POLYLINE
  8
LAYER_1
 62
7
 70
1
 66
1
  0
VERTEX
  8
LAYER_1
 62
7
 10
31.271128
 20
6.704528
  0
VERTEX
  8
LAYER_1
 62
7
 10
32.752997
 20
6.704890
  0
VERTEX
  8
LAYER_1
 62
7
 10
33.495384
 20
5.419684
  0
VERTEX
  8
LAYER_1
 62
7
 10
32.015328
 20
5.419321
 42
-0.000843
  0
VERTEX
  8
LAYER_1
 62
7
 10
31.457569
 20
6.383651
  0
VERTEX
  8
LAYER_1
 62
7
 10
31.271128
 20
6.704528
  0
SEQEND
  0
POLYLINE
  8
LAYER_1
 62
7
 70
1
 66
1
  0
VERTEX
  8
LAYER_1
 62
7
 10
2.372852
 20
6.630507
  0
VERTEX
  8
LAYER_1
 62
7
 10
3.684547
 20
6.630507
 42
-0.001493
  0
VERTEX
  8
LAYER_1
 62
7
 10
4.339124
 20
5.493705
  0
VERTEX
  8
LAYER_1
 62
7
 10
3.029969
 20
5.493705
  0
VERTEX
  8
LAYER_1
 62
7
 10
2.372852
 20
6.630507
  0
SEQEND
  0
POLYLINE
  8
LAYER_1
 62
7
 70
1
 66
1
  0
VERTEX
  8
LAYER_1
 62
7
 10
35.029867
 20
5.493705
 42
-0.001955
  0
VERTEX
  8
LAYER_1
 62
7
 10
35.684444
 20
6.630869
  0
VERTEX
  8
LAYER_1
 62
7
 10
36.995775
 20
6.630507
  0
VERTEX
  8
LAYER_1
 62
7
 10
36.339021
 20
5.493705
  0
VERTEX
  8
LAYER_1
 62
7
 10
35.029867
 20
5.493705
  0
SEQEND
  0
POLYLINE
  8
LAYER_1
 62
7
 70
1
 66
1
  0
VERTEX
  8
LAYER_1
 62
7
 10
15.158878
 20
5.016560
  0
VERTEX
  8
LAYER_1
 62
7
 10
15.622370
 20
5.817637
 42
-0.002413
  0
VERTEX
  8
LAYER_1
 62
7
 10
16.086679
 20
6.618170
 42
0.001313
  0
VERTEX
  8
LAYER_1
 62
7
 10
17.009764
 20
5.014383
 42
0.001259
  0
VERTEX
  8
LAYER_1
 62
7
 10
16.085954
 20
3.411322
  0
VERTEX
  8
LAYER_1
 62
7
 10
15.621463
 20
4.213533
  0
VERTEX
  8
LAYER_1
 62
7
 10
15.158878
 20
5.016560
  0
SEQEND
  0
POLYLINE
  8
LAYER_1
 62
7
 70
1
 66
1
  0
VERTEX
  8
LAYER_1
 62
7
 10
22.358864
 20
5.014746
 42
0.001587
  0
VERTEX
  8
LAYER_1
 62
7
 10
23.282311
 20
6.618895
 42
-0.002042
  0
VERTEX
  8
LAYER_1
 62
7
 10
23.746030
 20
5.817909
 42
0.002042
  0
VERTEX
  8
LAYER_1
 62
7
 10
24.209750
 20
5.016923
 42
-0.000909
  0
VERTEX
  8
LAYER_1
 62
7
 10
23.282674
 20
3.410234
 42
0.001586
  0
VERTEX
  8
LAYER_1
 62
7
 10
22.358864
 20
5.014746
  0
SEQEND
  0
POLYLINE
  8
LAYER_1
 62
7
 70
1
 66
1
  0
VERTEX
  8
LAYER_1
 62
7
 10
8.058312
 20
5.016197
  0
VERTEX
  8
LAYER_1
 62
7
 10
8.439257
 20
5.675356
 42
-0.004829
  0
VERTEX
  8
LAYER_1
 62
7
 10
8.823195
 20
6.332609
  0
VERTEX
  8
LAYER_1
 62
7
 10
9.201736
 20
5.674086
  0
VERTEX
  8
LAYER_1
 62
7
 10
9.582998
 20
5.016923
  0
VERTEX
  8
LAYER_1
 62
7
 10
9.203096
 20
4.357493
 42
0.002628
  0
VERTEX
  8
LAYER_1
 62
7
 10
8.824284
 20
3.697246
 42
-0.004707
  0
VERTEX
  8
LAYER_1
 62
7
 10
8.248972
 20
4.685915
  0
VERTEX
  8
LAYER_1
 62
7
 10
8.058312
 20
5.016197
  0
SEQEND
  0
POLYLINE
  8
LAYER_1
 62
7
 70
1
 66
1
  0
VERTEX
  8
LAYER_1
 62
7
 10
30.545432
 20
6.333334
 42
-0.003045
  0
VERTEX
  8
LAYER_1
 62
7
 10
31.119009
 20
5.345329
  0
VERTEX
  8
LAYER_1
 62
7
 10
31.310315
 20
5.015835
  0
VERTEX
  8
LAYER_1
 62
7
 10
30.547972
 20
3.695432
  0
VERTEX
  8
LAYER_1
 62
7
 10
29.785629
 20
5.016923
 42
0.002243
  0
VERTEX
  8
LAYER_1
 62
7
 10
30.545432
 20
6.333334
  0
SEQEND
  0
POLYLINE
  8
LAYER_1
 62
7
 70
1
 66
1
  0
VERTEX
  8
LAYER_1
 62
7
 10
1.542657
 20
6.050676
 42
-0.019844
  0
VERTEX
  8
LAYER_1
 62
7
 10
1.855930
 20
5.537111
 42
0.006722
  0
VERTEX
  8
LAYER_1
 62
7
 10
2.155869
 20
5.015109
 42
0.006232
  0
VERTEX
  8
LAYER_1
 62
7
 10
1.855794
 20
4.492518
 42
-0.019027
  0
VERTEX
  8
LAYER_1
 62
7
 10
1.542657
 20
3.978090
  0
VERTEX
  8
LAYER_1
 62
7
 10
1.542657
 20
6.050676
  0
SEQEND
  0
POLYLINE
  8
LAYER_1
 62
7
 70
1
 66
1
  0
VERTEX
  8
LAYER_1
 62
7
 10
37.212758
 20
5.015472
 42
0.007573
  0
VERTEX
  8
LAYER_1
 62
7
 10
37.512878
 20
5.537655
 42
-0.021945
  0
VERTEX
  8
LAYER_1
 62
7
 10
37.827422
 20
6.050313
  0
VERTEX
  8
LAYER_1
 62
7
 10
37.827422
 20
3.971196
 42
-0.015138
  0
VERTEX
  8
LAYER_1
 62
7
 10
37.514511
 20
4.489932
 42
0.004352
  0
VERTEX
  8
LAYER_1
 62
7
 10
37.212758
 20
5.015472
  0
SEQEND
  0
POLYLINE
  8
LAYER_1
 62
7
 70
1
 66
1
  0
VERTEX
  8
LAYER_1
 62
7
 10
17.373700
 20
4.830057
  0
VERTEX
  8
LAYER_1
 62
7
 10
19.365733
 20
4.828605
 42
0.001358
  0
VERTEX
  8
LAYER_1
 62
7
 10
18.370079
 20
3.106530
  0
VERTEX
  8
LAYER_1
 62
7
 10
16.377683
 20
3.106167
 42
-0.001220
  0
VERTEX
  8
LAYER_1
 62
7
 10
17.373700
 20
4.830057
  0
SEQEND
  0
POLYLINE
  8
LAYER_1
 62
7
 70
1
 66
1
  0
VERTEX
  8
LAYER_1
 62
7
 10
20.002894
 20
4.828968
  0
VERTEX
  8
LAYER_1
 62
7
 10
21.995653
 20
4.830057
 42
-0.001221
  0
VERTEX
  8
LAYER_1
 62
7
 10
22.990219
 20
3.106167
  0
VERTEX
  8
LAYER_1
 62
7
 10
20.998185
 20
3.106893
 42
0.001527
  0
VERTEX
  8
LAYER_1
 62
7
 10
20.002894
 20
4.828968
  0
SEQEND
  0
POLYLINE
  8
LAYER_1
 62
7
 70
1
 66
1
  0
VERTEX
  8
LAYER_1
 62
7
 10
12.896160
 20
4.743699
  0
VERTEX
  8
LAYER_1
 62
7
 10
14.687902
 20
4.744787
 42
-0.001316
  0
VERTEX
  8
LAYER_1
 62
7
 10
15.362458
 20
3.579111
  0
VERTEX
  8
LAYER_1
 62
7
 10
15.588127
 20
3.191074
  0
VERTEX
  8
LAYER_1
 62
7
 10
14.690850
 20
3.190303
 42
0.001403
  0
VERTEX
  8
LAYER_1
 62
7
 10
13.793845
 20
3.189259
  0
VERTEX
  8
LAYER_1
 62
7
 10
12.896160
 20
4.743699
  0
SEQEND
  0
POLYLINE
  8
LAYER_1
 62
7
 70
1
 66
1
  0
VERTEX
  8
LAYER_1
 62
7
 10
23.780501
 20
3.191074
  0
VERTEX
  8
LAYER_1
 62
7
 10
24.230477
 20
3.967931
 42
-0.002345
  0
VERTEX
  8
LAYER_1
 62
7
 10
24.680726
 20
4.744787
  0
VERTEX
  8
LAYER_1
 62
7
 10
26.472830
 20
4.743699
  0
VERTEX
  8
LAYER_1
 62
7
 10
25.574420
 20
3.189259
 42
0.000303
  0
VERTEX
  8
LAYER_1
 62
7
 10
23.780501
 20
3.191074
  0
SEQEND
  0
POLYLINE
  8
LAYER_1
 62
7
 70
1
 66
1
  0
VERTEX
  8
LAYER_1
 62
7
 10
9.376175
 20
3.253484
  0
VERTEX
  8
LAYER_1
 62
7
 10
10.202379
 20
4.683103
 42
0.001360
  0
VERTEX
  8
LAYER_1
 62
7
 10
11.440562
 20
4.681777
  0
VERTEX
  8
LAYER_1
 62
7
 10
11.853336
 20
4.680926
 42
0.003491
  0
VERTEX
  8
LAYER_1
 62
7
 10
11.032574
 20
3.256386
 42
-0.003307
  0
VERTEX
  8
LAYER_1
 62
7
 10
9.790360
 20
3.253478
  0
VERTEX
  8
LAYER_1
 62
7
 10
9.376175
 20
3.253484
  0
SEQEND
  0
POLYLINE
  8
LAYER_1
 62
7
 70
1
 66
1
  0
VERTEX
  8
LAYER_1
 62
7
 10
18.686845
 20
2.921478
 42
0.002318
  0
VERTEX
  8
LAYER_1
 62
7
 10
19.684314
 20
4.648633
 42
0.001101
  0
VERTEX
  8
LAYER_1
 62
7
 10
20.679242
 20
2.921478
  0
VERTEX
  8
LAYER_1
 62
7
 10
18.686845
 20
2.921478
  0
SEQEND
  0
POLYLINE
  8
LAYER_1
 62
7
 70
1
 66
1
  0
VERTEX
  8
LAYER_1
 62
7
 10
27.514929
 20
4.680926
 42
0.000494
  0
VERTEX
  8
LAYER_1
 62
7
 10
29.166611
 20
4.682740
  0
VERTEX
  8
LAYER_1
 62
7
 10
29.580348
 20
3.968611
  0
VERTEX
  8
LAYER_1
 62
7
 10
29.992453
 20
3.253121
  0
VERTEX
  8
LAYER_1
 62
7
 10
29.170285
 20
3.253574
 42
0.004801
  0
VERTEX
  8
LAYER_1
 62
7
 10
28.348390
 20
3.249129
 42
-0.005753
  0
VERTEX
  8
LAYER_1
 62
7
 10
27.930435
 20
3.964211
  0
VERTEX
  8
LAYER_1
 62
7
 10
27.724093
 20
4.323419
  0
VERTEX
  8
LAYER_1
 62
7
 10
27.514929
 20
4.680926
  0
SEQEND
  0
POLYLINE
  8
LAYER_1
 62
7
 70
1
 66
1
  0
VERTEX
  8
LAYER_1
 62
7
 10
5.873244
 20
4.608719
  0
VERTEX
  8
LAYER_1
 62
7
 10
7.354388
 20
4.609445
 42
-0.001070
  0
VERTEX
  8
LAYER_1
 62
7
 10
8.095323
 20
3.325327
 42
0.003871
  0
VERTEX
  8
LAYER_1
 62
7
 10
6.618895
 20
3.323876
 42
-0.002708
  0
VERTEX
  8
LAYER_1
 62
7
 10
6.059912
 20
4.287594
  0
VERTEX
  8
LAYER_1
 62
7
 10
5.873244
 20
4.608719
  0
SEQEND
  0
POLYLINE
  8
LAYER_1
 62
7
 70
1
 66
1
  0
VERTEX
  8
LAYER_1
 62
7
 10
31.273305
 20
3.325327
 42
-0.001479
  0
VERTEX
  8
LAYER_1
 62
7
 10
32.014603
 20
4.609808
  0
VERTEX
  8
LAYER_1
 62
7
 10
33.495384
 20
4.608719
 42
-0.000409
  0
VERTEX
  8
LAYER_1
 62
7
 10
32.752272
 20
3.324965
 42
0.002944
  0
VERTEX
  8
LAYER_1
 62
7
 10
31.273305
 20
3.325327
  0
SEQEND
  0
POLYLINE
  8
LAYER_1
 62
7
 70
1
 66
1
  0
VERTEX
  8
LAYER_1
 62
7
 10
3.028881
 20
4.534699
  0
VERTEX
  8
LAYER_1
 62
7
 10
4.341301
 20
4.533973
 42
0.001211
  0
VERTEX
  8
LAYER_1
 62
7
 10
3.684547
 20
3.399711
  0
VERTEX
  8
LAYER_1
 62
7
 10
2.374304
 20
3.400800
  0
VERTEX
  8
LAYER_1
 62
7
 10
3.028881
 20
4.534699
  0
SEQEND
  0
POLYLINE
  8
LAYER_1
 62
7
 70
1
 66
1
  0
VERTEX
  8
LAYER_1
 62
7
 10
35.026601
 20
4.534336
  0
VERTEX
  8
LAYER_1
 62
7
 10
36.340109
 20
4.534336
  0
VERTEX
  8
LAYER_1
 62
7
 10
36.993961
 20
3.400437
  0
VERTEX
  8
LAYER_1
 62
7
 10
35.684444
 20
3.399711
  0
VERTEX
  8
LAYER_1
 62
7
 10
35.356203
 20
3.967432
 42
0.002864
  0
VERTEX
  8
LAYER_1
 62
7
 10
35.026601
 20
4.534336
  0
SEQEND
  0
POLYLINE
  8
LAYER_1
 62
7
 70
1
 66
1
  0
VERTEX
  8
LAYER_1
 62
7
 10
11.600794
 20
2.921478
  0
VERTEX
  8
LAYER_1
 62
7
 10
11.814347
 20
3.286990
 42
-0.001883
  0
VERTEX
  8
LAYER_1
 62
7
 10
12.450583
 20
4.385568
  0
VERTEX
  8
LAYER_1
 62
7
 10
13.294204
 20
2.921478
  0
VERTEX
  8
LAYER_1
 62
7
 10
11.600794
 20
2.921478
  0
SEQEND
  0
POLYLINE
  8
LAYER_1
 62
7
 70
1
 66
1
  0
VERTEX
  8
LAYER_1
 62
7
 10
26.071521
 20
2.921478
 42
0.002015
  0
VERTEX
  8
LAYER_1
 62
7
 10
26.918044
 20
4.386294
 42
-0.001875
  0
VERTEX
  8
LAYER_1
 62
7
 10
27.764931
 20
2.921478
  0
VERTEX
  8
LAYER_1
 62
7
 10
26.071521
 20
2.921478
  0
SEQEND
  0
POLYLINE
  8
LAYER_1
 62
7
 70
1
 66
1
  0
VERTEX
  8
LAYER_1
 62
7
 10
5.193993
 20
4.089847
  0
VERTEX
  8
LAYER_1
 62
7
 10
5.867075
 20
2.921478
  0
VERTEX
  8
LAYER_1
 62
7
 10
4.557558
 20
2.921478
  0
VERTEX
  8
LAYER_1
 62
7
 10
4.517282
 20
2.921841
 42
-0.002700
  0
VERTEX
  8
LAYER_1
 62
7
 10
5.193993
 20
4.089847
  0
SEQEND
  0
POLYLINE
  8
LAYER_1
 62
7
 70
1
 66
1
  0
VERTEX
  8
LAYER_1
 62
7
 10
33.499012
 20
2.921478
 42
0.002800
  0
VERTEX
  8
LAYER_1
 62
7
 10
34.173909
 20
4.090936
 42
-0.002741
  0
VERTEX
  8
LAYER_1
 62
7
 10
34.682990
 20
3.213400
  0
VERTEX
  8
LAYER_1
 62
7
 10
34.853523
 20
2.921478
  0
VERTEX
  8
LAYER_1
 62
7
 10
33.499012
 20
2.921478
  0
SEQEND
  0
ENDSEC
  0
EOF
