  0
SECTION
  2
HEADER
  9
$ACADVER
  1
AC1018
  9
$ACADMAINTVER
 70
     0
  9
$DWGCODEPAGE
  3
ANSI_1251
  9
$INSBASE
 10
0.0
 20
0.0
 30
0.0
  9
$EXTMIN
 10
1.000000000000000E+20
 20
1.000000000000000E+20
 30
1.000000000000000E+20
  9
$EXTMAX
 10
-1.000000000000000E+20
 20
-1.000000000000000E+20
 30
-1.000000000000000E+20
  9
$LIMMIN
 10
0.0
 20
0.0
  9
$LIMMAX
 10
12.0
 20
9.0
  9
$ORTHOMODE
 70
     0
  9
$REGENMODE
 70
     1
  9
$FILLMODE
 70
     1
  9
$QTEXTMODE
 70
     0
  9
$MIRRTEXT
 70
     1
  9
$LTSCALE
 40
1.0
  9
$ATTMODE
 70
     1
  9
$TEXTSIZE
 40
0.2
  9
$TRACEWID
 40
0.05
  9
$TEXTSTYLE
  7
Standard
  9
$CLAYER
  8
0
  9
$CELTYPE
  6
ByLayer
  9
$CECOLOR
 62
   256
  9
$CELTSCALE
 40
1.0
  9
$DISPSILH
 70
     0
  9
$DIMSCALE
 40
1.0
  9
$DIMASZ
 40
0.18
  9
$DIMEXO
 40
0.0625
  9
$DIMDLI
 40
0.38
  9
$DIMRND
 40
0.0
  9
$DIMDLE
 40
0.0
  9
$DIMEXE
 40
0.18
  9
$DIMTP
 40
0.0
  9
$DIMTM
 40
0.0
  9
$DIMTXT
 40
0.18
  9
$DIMCEN
 40
0.09
  9
$DIMTSZ
 40
0.0
  9
$DIMTOL
 70
     0
  9
$DIMLIM
 70
     0
  9
$DIMTIH
 70
     1
  9
$DIMTOH
 70
     1
  9
$DIMSE1
 70
     0
  9
$DIMSE2
 70
     0
  9
$DIMTAD
 70
     0
  9
$DIMZIN
 70
     0
  9
$DIMBLK
  1

  9
$DIMASO
 70
     1
  9
$DIMSHO
 70
     1
  9
$DIMPOST
  1

  9
$DIMAPOST
  1

  9
$DIMALT
 70
     0
  9
$DIMALTD
 70
     2
  9
$DIMALTF
 40
25.4
  9
$DIMLFAC
 40
1.0
  9
$DIMTOFL
 70
     0
  9
$DIMTVP
 40
0.0
  9
$DIMTIX
 70
     0
  9
$DIMSOXD
 70
     0
  9
$DIMSAH
 70
     0
  9
$DIMBLK1
  1

  9
$DIMBLK2
  1

  9
$DIMSTYLE
  2
Standard
  9
$DIMCLRD
 70
     0
  9
$DIMCLRE
 70
     0
  9
$DIMCLRT
 70
     0
  9
$DIMTFAC
 40
1.0
  9
$DIMGAP
 40
0.09
  9
$DIMJUST
 70
     0
  9
$DIMSD1
 70
     0
  9
$DIMSD2
 70
     0
  9
$DIMTOLJ
 70
     1
  9
$DIMTZIN
 70
     0
  9
$DIMALTZ
 70
     0
  9
$DIMALTTZ
 70
     0
  9
$DIMUPT
 70
     0
  9
$DIMDEC
 70
     4
  9
$DIMTDEC
 70
     4
  9
$DIMALTU
 70
     2
  9
$DIMALTTD
 70
     2
  9
$DIMTXSTY
  7
Standard
  9
$DIMAUNIT
 70
     0
  9
$DIMADEC
 70
     0
  9
$DIMALTRND
 40
0.0
  9
$DIMAZIN
 70
     0
  9
$DIMDSEP
 70
    46
  9
$DIMATFIT
 70
     3
  9
$DIMFRAC
 70
     0
  9
$DIMLDRBLK
  1

  9
$DIMLUNIT
 70
     2
  9
$DIMLWD
 70
    -2
  9
$DIMLWE
 70
    -2
  9
$DIMTMOVE
 70
     0
  9
$LUNITS
 70
     2
  9
$LUPREC
 70
     4
  9
$SKETCHINC
 40
0.1
  9
$FILLETRAD
 40
0.5
  9
$AUNITS
 70
     0
  9
$AUPREC
 70
     0
  9
$MENU
  1
.
  9
$ELEVATION
 40
0.0
  9
$PELEVATION
 40
0.0
  9
$THICKNESS
 40
0.0
  9
$LIMCHECK
 70
     0
  9
$CHAMFERA
 40
0.5
  9
$CHAMFERB
 40
0.5
  9
$CHAMFERC
 40
1.0
  9
$CHAMFERD
 40
0.0
  9
$SKPOLY
 70
     0
  9
$TDCREATE
 40
2457123.723133854
  9
$TDUCREATE
 40
2457123.556467188
  9
$TDUPDATE
 40
2457123.723133866
  9
$TDUUPDATE
 40
2457123.556467199
  9
$TDINDWG
 40
0.0000000116
  9
$TDUSRTIMER
 40
0.0000000116
  9
$USRTIMER
 70
     1
  9
$ANGBASE
 50
0.0
  9
$ANGDIR
 70
     0
  9
$PDMODE
 70
     0
  9
$PDSIZE
 40
0.0
  9
$PLINEWID
 40
0.0
  9
$SPLFRAME
 70
     0
  9
$SPLINETYPE
 70
     6
  9
$SPLINESEGS
 70
     8
  9
$HANDSEED
  5
53
  9
$SURFTAB1
 70
     6
  9
$SURFTAB2
 70
     6
  9
$SURFTYPE
 70
     6
  9
$SURFU
 70
     6
  9
$SURFV
 70
     6
  9
$UCSBASE
  2

  9
$UCSNAME
  2

  9
$UCSORG
 10
0.0
 20
0.0
 30
0.0
  9
$UCSXDIR
 10
1.0
 20
0.0
 30
0.0
  9
$UCSYDIR
 10
0.0
 20
1.0
 30
0.0
  9
$UCSORTHOREF
  2

  9
$UCSORTHOVIEW
 70
     0
  9
$UCSORGTOP
 10
0.0
 20
0.0
 30
0.0
  9
$UCSORGBOTTOM
 10
0.0
 20
0.0
 30
0.0
  9
$UCSORGLEFT
 10
0.0
 20
0.0
 30
0.0
  9
$UCSORGRIGHT
 10
0.0
 20
0.0
 30
0.0
  9
$UCSORGFRONT
 10
0.0
 20
0.0
 30
0.0
  9
$UCSORGBACK
 10
0.0
 20
0.0
 30
0.0
  9
$PUCSBASE
  2

  9
$PUCSNAME
  2

  9
$PUCSORG
 10
0.0
 20
0.0
 30
0.0
  9
$PUCSXDIR
 10
1.0
 20
0.0
 30
0.0
  9
$PUCSYDIR
 10
0.0
 20
1.0
 30
0.0
  9
$PUCSORTHOREF
  2

  9
$PUCSORTHOVIEW
 70
     0
  9
$PUCSORGTOP
 10
0.0
 20
0.0
 30
0.0
  9
$PUCSORGBOTTOM
 10
0.0
 20
0.0
 30
0.0
  9
$PUCSORGLEFT
 10
0.0
 20
0.0
 30
0.0
  9
$PUCSORGRIGHT
 10
0.0
 20
0.0
 30
0.0
  9
$PUCSORGFRONT
 10
0.0
 20
0.0
 30
0.0
  9
$PUCSORGBACK
 10
0.0
 20
0.0
 30
0.0
  9
$USERI1
 70
     0
  9
$USERI2
 70
     0
  9
$USERI3
 70
     0
  9
$USERI4
 70
     0
  9
$USERI5
 70
     0
  9
$USERR1
 40
0.0
  9
$USERR2
 40
0.0
  9
$USERR3
 40
0.0
  9
$USERR4
 40
0.0
  9
$USERR5
 40
0.0
  9
$WORLDVIEW
 70
     1
  9
$SHADEDGE
 70
     3
  9
$SHADEDIF
 70
    70
  9
$TILEMODE
 70
     1
  9
$MAXACTVP
 70
    64
  9
$PINSBASE
 10
0.0
 20
0.0
 30
0.0
  9
$PLIMCHECK
 70
     0
  9
$PEXTMIN
 10
1.000000000000000E+20
 20
1.000000000000000E+20
 30
1.000000000000000E+20
  9
$PEXTMAX
 10
-1.000000000000000E+20
 20
-1.000000000000000E+20
 30
-1.000000000000000E+20
  9
$PLIMMIN
 10
0.0
 20
0.0
  9
$PLIMMAX
 10
12.0
 20
9.0
  9
$UNITMODE
 70
     0
  9
$VISRETAIN
 70
     1
  9
$PLINEGEN
 70
     0
  9
$PSLTSCALE
 70
     1
  9
$TREEDEPTH
 70
  3020
  9
$CMLSTYLE
  2
Standard
  9
$CMLJUST
 70
     0
  9
$CMLSCALE
 40
1.0
  9
$PROXYGRAPHICS
 70
     1
  9
$MEASUREMENT
 70
     0
  9
$CELWEIGHT
370
    -1
  9
$ENDCAPS
280
     0
  9
$JOINSTYLE
280
     0
  9
$LWDISPLAY
290
     1
  9
$INSUNITS
 70
     1
  9
$HYPERLINKBASE
  1

  9
$STYLESHEET
  1

  9
$XEDIT
290
     1
  9
$CEPSNTYPE
380
     0
  9
$PSTYLEMODE
290
     1
  9
$FINGERPRINTGUID
  2
{2F8773DA-78EE-45AA-BD5A-2C8FEAC0CD24}
  9
$VERSIONGUID
  2
{FAEB1C32-E019-11D5-929B-00C0DF256EC4}
  9
$EXTNAMES
290
     1
  9
$PSVPSCALE
 40
0.0
  9
$OLESTARTUP
290
     0
  9
$SORTENTS
280
   127
  9
$INDEXCTL
280
     0
  9
$HIDETEXT
280
     1
  9
$XCLIPFRAME
290
     0
  9
$HALOGAP
280
     0
  9
$OBSCOLOR
 70
   257
  9
$OBSLTYPE
280
     0
  9
$INTERSECTIONDISPLAY
280
     0
  9
$INTERSECTIONCOLOR
 70
   257
  9
$DIMASSOC
280
     2
  9
$PROJECTNAME
  1

  0
ENDSEC
  0
SECTION
  2
CLASSES
  0
CLASS
  1
ACDBDICTIONARYWDFLT
  2
AcDbDictionaryWithDefault
  3
ObjectDBX Classes
 90
        0
 91
        3
280
     0
281
     0
  0
CLASS
  1
VISUALSTYLE
  2
AcDbVisualStyle
  3
ObjectDBX Classes
 90
     4095
 91
        3
280
     0
281
     0
  0
ENDSEC
  0
SECTION
  2
TABLES
  0
TABLE
  2
VPORT
  5
8
330
0
100
AcDbSymbolTable
 70
     1
  0
VPORT
  5
29
330
8
100
AcDbSymbolTableRecord
100
AcDbViewportTableRecord
  2
*Active
 70
     0
 10
0.0
 20
0.0
 11
1.0
 21
1.0
 12
0.0
 22
0.0
 13
0.0
 23
0.0
 14
0.5
 24
0.5
 15
0.5
 25
0.5
 16
0.0
 26
0.0
 36
1.0
 17
107.9499999730125
 27
-139.699999965075
 37
0.0
 40
279.39999993015
 41
0.7727272727272728
 42
50.0
 43
0.0
 44
0.0
 50
0.0
 51
0.0
 71
     0
 72
   100
 73
     1
 74
     3
 75
     0
 76
     0
 77
     0
 78
     0
281
     0
 65
     1
110
0.0
120
0.0
130
0.0
111
1.0
121
0.0
131
0.0
112
0.0
122
1.0
132
0.0
 79
     0
146
0.0
  0
ENDTAB
  0
TABLE
  2
LTYPE
  5
5
330
0
100
AcDbSymbolTable
 70
     1
  0
LTYPE
  5
14
330
5
100
AcDbSymbolTableRecord
100
AcDbLinetypeTableRecord
  2
ByBlock
 70
     0
  3

 72
    65
 73
     0
 40
0.0
  0
LTYPE
  5
15
330
5
100
AcDbSymbolTableRecord
100
AcDbLinetypeTableRecord
  2
ByLayer
 70
     0
  3

 72
    65
 73
     0
 40
0.0
  0
LTYPE
  5
16
330
5
100
AcDbSymbolTableRecord
100
AcDbLinetypeTableRecord
  2
Continuous
 70
     0
  3
Solid line
 72
    65
 73
     0
 40
0.0
  0
ENDTAB
  0
TABLE
  2
LAYER
  5
2
330
0
100
AcDbSymbolTable
 70
     2
  0
LAYER
  5
10
330
2
100
AcDbSymbolTableRecord
100
AcDbLayerTableRecord
  2
0
 70
     0
 62
     7
  6
Continuous
370
    -3
390
F
  0
LAYER
  5
3B
330
2
100
AcDbSymbolTableRecord
100
AcDbLayerTableRecord
  2
Layer 1
 70
     0
 62
     7
  6
Continuous
370
    -3
390
F
  0
ENDTAB
  0
TABLE
  2
STYLE
  5
3
330
0
100
AcDbSymbolTable
 70
     1
  0
STYLE
  5
11
330
3
100
AcDbSymbolTableRecord
100
AcDbTextStyleTableRecord
  2
Standard
 70
     0
 40
0.0
 41
1.0
 50
0.0
 71
     0
 42
0.2
  3
txt
  4

  0
ENDTAB
  0
TABLE
  2
VIEW
  5
6
330
0
100
AcDbSymbolTable
 70
     0
  0
ENDTAB
  0
TABLE
  2
UCS
  5
7
330
0
100
AcDbSymbolTable
 70
     0
  0
ENDTAB
  0
TABLE
  2
APPID
  5
9
330
0
100
AcDbSymbolTable
 70
     1
  0
APPID
  5
12
330
9
100
AcDbSymbolTableRecord
100
AcDbRegAppTableRecord
  2
ACAD
 70
     0
  0
ENDTAB
  0
TABLE
  2
DIMSTYLE
  5
A
330
0
100
AcDbSymbolTable
 70
     1
100
AcDbDimStyleTable
  0
DIMSTYLE
105
27
330
A
100
AcDbSymbolTableRecord
100
AcDbDimStyleTableRecord
  2
Standard
 70
     0
340
11
  0
ENDTAB
  0
TABLE
  2
BLOCK_RECORD
  5
1
330
0
100
AcDbSymbolTable
 70
     2
  0
BLOCK_RECORD
  5
1F
330
1
100
AcDbSymbolTableRecord
100
AcDbBlockTableRecord
  2
*Model_Space
340
22
  0
BLOCK_RECORD
  5
1B
330
1
100
AcDbSymbolTableRecord
100
AcDbBlockTableRecord
  2
*Paper_Space
340
1E
  0
BLOCK_RECORD
  5
23
330
1
100
AcDbSymbolTableRecord
100
AcDbBlockTableRecord
  2
*Paper_Space0
340
26
  0
BLOCK_RECORD
  5
3C
330
1
100
AcDbSymbolTableRecord
100
AcDbBlockTableRecord
  2
block 2
340
0
102
{BLKREFS
331
3D
102
}
  0
ENDTAB
  0
ENDSEC
  0
SECTION
  2
BLOCKS
  0
BLOCK
  5
20
330
1F
100
AcDbEntity
  8
0
100
AcDbBlockBegin
  2
*Model_Space
 70
     0
 71
     0
 10
0.0
 20
0.0
 30
0.0
  3
*Model_Space
  1

  0
ENDBLK
  5
21
330
1F
100
AcDbEntity
  8
0
100
AcDbBlockEnd
  0
BLOCK
  5
1C
330
1B
100
AcDbEntity
 67
     1
  8
0
100
AcDbBlockBegin
  2
*Paper_Space
 70
     0
 71
     0
 10
0.0
 20
0.0
 30
0.0
  3
*Paper_Space
  1

  0
ENDBLK
  5
1D
330
1B
100
AcDbEntity
 67
     1
  8
0
100
AcDbBlockEnd
  0
BLOCK
  5
24
330
23
100
AcDbEntity
  8
0
100
AcDbBlockBegin
  2
*Paper_Space0
 70
     0
 71
     0
 10
0.0
 20
0.0
 30
0.0
  3
*Paper_Space0
  1

  0
ENDBLK
  5
25
330
23
100
AcDbEntity
  8
0
100
AcDbBlockEnd
  0
BLOCK
  5
3E
330
3C
100
AcDbEntity
  8
0
100
AcDbBlockBegin
  2
block 2
 70
     0
 71
     0
 10
0.0
 20
0.0
 30
0.0
  3
block 2
  1

  0
SPLINE
  5
40
330
3C
100
AcDbEntity
  8
Layer 1
370
     0
100
AcDbSpline
210
0.0
220
0.0
230
1.0
 70
    11
 71
     3
 72
   338
 73
   334
 74
     0
 42
0.0000000001
 43
0.0000000001
 40
0.0
 40
0.0
 40
0.0
 40
0.0
 40
1.0
 40
1.0
 40
1.0
 40
2.0
 40
2.0
 40
2.0
 40
3.0
 40
3.0
 40
3.0
 40
4.0
 40
4.0
 40
4.0
 40
5.0
 40
5.0
 40
5.0
 40
6.0
 40
6.0
 40
6.0
 40
7.0
 40
7.0
 40
7.0
 40
8.0
 40
8.0
 40
8.0
 40
9.0
 40
9.0
 40
9.0
 40
10.0
 40
10.0
 40
10.0
 40
11.0
 40
11.0
 40
11.0
 40
12.0
 40
12.0
 40
12.0
 40
13.0
 40
13.0
 40
13.0
 40
14.0
 40
14.0
 40
14.0
 40
15.0
 40
15.0
 40
15.0
 40
16.0
 40
16.0
 40
16.0
 40
17.0
 40
17.0
 40
17.0
 40
18.0
 40
18.0
 40
18.0
 40
19.0
 40
19.0
 40
19.0
 40
20.0
 40
20.0
 40
20.0
 40
21.0
 40
21.0
 40
21.0
 40
22.0
 40
22.0
 40
22.0
 40
23.0
 40
23.0
 40
23.0
 40
24.0
 40
24.0
 40
24.0
 40
25.0
 40
25.0
 40
25.0
 40
26.0
 40
26.0
 40
26.0
 40
27.0
 40
27.0
 40
27.0
 40
28.0
 40
28.0
 40
28.0
 40
29.0
 40
29.0
 40
29.0
 40
30.0
 40
30.0
 40
30.0
 40
31.0
 40
31.0
 40
31.0
 40
32.0
 40
32.0
 40
32.0
 40
33.0
 40
33.0
 40
33.0
 40
34.0
 40
34.0
 40
34.0
 40
35.0
 40
35.0
 40
35.0
 40
36.0
 40
36.0
 40
36.0
 40
37.0
 40
37.0
 40
37.0
 40
38.0
 40
38.0
 40
38.0
 40
39.0
 40
39.0
 40
39.0
 40
40.0
 40
40.0
 40
40.0
 40
41.0
 40
41.0
 40
41.0
 40
42.0
 40
42.0
 40
42.0
 40
43.0
 40
43.0
 40
43.0
 40
44.0
 40
44.0
 40
44.0
 40
45.0
 40
45.0
 40
45.0
 40
46.0
 40
46.0
 40
46.0
 40
47.0
 40
47.0
 40
47.0
 40
48.0
 40
48.0
 40
48.0
 40
49.0
 40
49.0
 40
49.0
 40
50.0
 40
50.0
 40
50.0
 40
51.0
 40
51.0
 40
51.0
 40
52.0
 40
52.0
 40
52.0
 40
53.0
 40
53.0
 40
53.0
 40
54.0
 40
54.0
 40
54.0
 40
55.0
 40
55.0
 40
55.0
 40
56.0
 40
56.0
 40
56.0
 40
57.0
 40
57.0
 40
57.0
 40
58.0
 40
58.0
 40
58.0
 40
59.0
 40
59.0
 40
59.0
 40
60.0
 40
60.0
 40
60.0
 40
61.0
 40
61.0
 40
61.0
 40
62.0
 40
62.0
 40
62.0
 40
63.0
 40
63.0
 40
63.0
 40
64.0
 40
64.0
 40
64.0
 40
65.0
 40
65.0
 40
65.0
 40
66.0
 40
66.0
 40
66.0
 40
67.0
 40
67.0
 40
67.0
 40
68.0
 40
68.0
 40
68.0
 40
69.0
 40
69.0
 40
69.0
 40
70.0
 40
70.0
 40
70.0
 40
71.0
 40
71.0
 40
71.0
 40
72.0
 40
72.0
 40
72.0
 40
73.0
 40
73.0
 40
73.0
 40
74.0
 40
74.0
 40
74.0
 40
75.0
 40
75.0
 40
75.0
 40
76.0
 40
76.0
 40
76.0
 40
77.0
 40
77.0
 40
77.0
 40
78.0
 40
78.0
 40
78.0
 40
79.0
 40
79.0
 40
79.0
 40
80.0
 40
80.0
 40
80.0
 40
81.0
 40
81.0
 40
81.0
 40
82.0
 40
82.0
 40
82.0
 40
83.0
 40
83.0
 40
83.0
 40
84.0
 40
84.0
 40
84.0
 40
85.0
 40
85.0
 40
85.0
 40
86.0
 40
86.0
 40
86.0
 40
87.0
 40
87.0
 40
87.0
 40
88.0
 40
88.0
 40
88.0
 40
89.0
 40
89.0
 40
89.0
 40
90.0
 40
90.0
 40
90.0
 40
91.0
 40
91.0
 40
91.0
 40
92.0
 40
92.0
 40
92.0
 40
93.0
 40
93.0
 40
93.0
 40
94.0
 40
94.0
 40
94.0
 40
95.0
 40
95.0
 40
95.0
 40
96.0
 40
96.0
 40
96.0
 40
97.0
 40
97.0
 40
97.0
 40
98.0
 40
98.0
 40
98.0
 40
99.0
 40
99.0
 40
99.0
 40
100.0
 40
100.0
 40
100.0
 40
101.0
 40
101.0
 40
101.0
 40
102.0
 40
102.0
 40
102.0
 40
103.0
 40
103.0
 40
103.0
 40
104.0
 40
104.0
 40
104.0
 40
105.0
 40
105.0
 40
105.0
 40
106.0
 40
106.0
 40
106.0
 40
107.0
 40
107.0
 40
107.0
 40
108.0
 40
108.0
 40
108.0
 40
109.0
 40
109.0
 40
109.0
 40
110.0
 40
110.0
 40
110.0
 40
111.0
 40
111.0
 40
111.0
 40
111.0
 10
73.6957600727219
 20
-120.1087754691048
 30
0.0
 10
74.97905814097746
 20
-119.7039767495879
 30
0.0
 10
76.11008298878498
 20
-120.2186740150842
 30
0.0
 10
77.23042804058824
 20
-119.381860321717
 30
0.0
 10
76.29474010679438
 20
-120.8997693925181
 30
0.0
 10
75.95298663465759
 20
-124.4237575643802
 30
0.0
 10
79.08974607397757
 20
-126.1387260969375
 30
0.0
 10
80.38889158146529
 20
-126.8487602764475
 30
0.0
 10
82.31917858185076
 20
-126.6713378589572
 30
0.0
 10
82.84179956696316
 20
-125.3763264660518
 30
0.0
 10
83.52289494439705
 20
-123.6847845827941
 30
0.0
 10
80.18253036189881
 20
-122.6137043964299
 30
0.0
 10
79.98409286194843
 20
-124.4561414619415
 30
0.0
 10
79.96617836542512
 20
-124.6270181980099
 30
0.0
 10
79.98133678556023
 20
-124.8034070868547
 30
0.0
 10
80.00786402079665
 20
-124.972905784729
 30
0.0
 10
77.44781356570749
 20
-124.0768364490155
 30
0.0
 10
77.59974227660702
 20
-121.3107692839084
 30
0.0
 10
78.35111760194
 20
-120.5280435896597
 30
0.0
 10
78.35111760194
 20
-120.5280435896597
 30
0.0
 10
78.44999184236667
 20
-121.9656819356544
 30
0.0
 10
79.29335121715583
 20
-122.6023355813286
 30
0.0
 10
79.52968476744397
 20
-122.5344672002692
 30
0.0
 10
79.6692111345966
 20
-122.3150146178588
 30
0.0
 10
79.79254555296853
 20
-122.0993516404821
 30
0.0
 10
80.71169702843319
 20
-122.9409884675286
 30
0.0
 10
81.44653589543698
 20
-123.5655842790044
 30
0.0
 10
82.94687497926328
 20
-123.1576849735509
 30
0.0
 10
83.23867456686395
 20
-123.0787922869386
 30
0.0
 10
83.23695201912132
 20
-122.9540798303726
 30
0.0
 10
83.09845918061428
 20
-122.8231662019331
 30
0.0
 10
82.8945095278875
 20
-122.6336859502444
 30
0.0
 10
82.75808374667159
 20
-122.4566080423025
 30
0.0
 10
82.62785913732915
 20
-122.2161403774321
 30
0.0
 10
81.36454262288804
 20
-119.8583170273271
 30
0.0
 10
83.47431909805503
 20
-118.3348958037496
 30
0.0
 10
85.50726994390097
 20
-118.3721028349903
 30
0.0
 10
86.97005748693805
 20
-118.5555541695799
 30
0.0
 10
88.02873532955532
 20
-119.457307912844
 30
0.0
 10
88.97234698296525
 20
-120.4823960744801
 30
0.0
 10
88.99611814181347
 20
-120.5128851695246
 30
0.0
 10
89.02057831975876
 20
-120.5442355384403
 30
0.0
 10
89.04400496905845
 20
-120.5745523787105
 30
0.0
 10
89.04400496905845
 20
-120.5745523787105
 30
0.0
 10
94.62505965516318
 20
-127.7315659945428
 30
0.0
 10
94.62505965516318
 20
-127.7315659945428
 30
0.0
 10
92.91698131357631
 20
-127.7605047966189
 30
0.0
 10
91.17135143120022
 20
-128.2152574006719
 30
0.0
 10
89.75541718676254
 20
-128.7346055450733
 30
0.0
 10
87.25393335492264
 20
-129.654446039635
 30
0.0
 10
84.86510414545039
 20
-131.6288302622317
 30
0.0
 10
83.55390080376431
 20
-131.6787841467678
 30
0.0
 10
83.69101560407725
 20
-131.4479627492561
 30
0.0
 10
83.77921004849965
 20
-131.157885709398
 30
0.0
 10
83.7881672967613
 20
-130.8419704534006
 30
0.0
 10
83.81262747470657
 20
-130.0471869249535
 30
0.0
 10
83.05298392020897
 20
-129.4191460179924
 30
0.0
 10
82.45560436306666
 20
-129.3974419164354
 30
0.0
 10
81.85340167224498
 20
-129.3750487957813
 30
0.0
 10
81.03346894675552
 20
-129.9844861871219
 30
0.0
 10
81.00935327835877
 20
-130.7792697155691
 30
0.0
 10
80.98730466725318
 20
-131.4973998694694
 30
0.0
 10
81.41725258381236
 20
-131.9719617725626
 30
0.0
 10
82.0563177963262
 20
-132.2041612082684
 30
0.0
 10
82.0563177963262
 20
-132.2041612082684
 30
0.0
 10
73.37502168304513
 20
-132.2041612082684
 30
0.0
 10
73.37502168304513
 20
-132.2041612082684
 30
0.0
 10
73.37502168304513
 20
-132.2041612082684
 30
0.0
 10
73.37502168304513
 20
-133.8157768762683
 30
0.0
 10
73.37502168304513
 20
-133.8157768762683
 30
0.0
 10
73.37502168304513
 20
-133.8157768762683
 30
0.0
 10
142.2838215790124
 20
-133.8157768762683
 30
0.0
 10
142.2838215790124
 20
-133.8157768762683
 30
0.0
 10
142.2838215790124
 20
-133.8157768762683
 30
0.0
 10
142.2838215790124
 20
-132.2041612082684
 30
0.0
 10
142.2838215790124
 20
-132.2041612082684
 30
0.0
 10
142.2838215790124
 20
-132.2041612082684
 30
0.0
 10
133.6021809561828
 20
-132.2041612082684
 30
0.0
 10
133.6021809561828
 20
-132.2041612082684
 30
0.0
 10
134.2415906782452
 20
-131.9719617725626
 30
0.0
 10
134.6715385948043
 20
-131.4973998694694
 30
0.0
 10
134.6494899836987
 20
-130.7792697155691
 30
0.0
 10
134.625374315302
 20
-129.9844861871219
 30
0.0
 10
133.8054415898125
 20
-129.3750487957813
 30
0.0
 10
133.2032388989909
 20
-129.3974419164354
 30
0.0
 10
132.6055148323
 20
-129.4191460179924
 30
0.0
 10
131.8458712778024
 20
-130.0471869249535
 30
0.0
 10
131.8703314557477
 20
-130.8419704534006
 30
0.0
 10
131.8796332135579
 20
-131.157885709398
 30
0.0
 10
131.9678276579803
 20
-131.4479627492561
 30
0.0
 10
132.1049424582932
 20
-131.6787841467678
 30
0.0
 10
130.7933946070586
 20
-131.6288302622317
 30
0.0
 10
128.4049099071349
 20
-129.654446039635
 30
0.0
 10
125.9030815657465
 20
-128.7346055450733
 30
0.0
 10
124.2256645739783
 20
-128.1193114914077
 30
0.0
 10
122.0852267489926
 20
-127.5887667866792
 30
0.0
 10
120.0929280298726
 20
-127.7577487202307
 30
0.0
 10
120.0929280298726
 20
-127.7577487202307
 30
0.0
 10
127.3813720384672
 20
-119.6552286484716
 30
0.0
 10
127.3813720384672
 20
-119.6552286484716
 30
0.0
 10
128.1210340391503
 20
-119.005139130405
 30
0.0
 10
128.9606038089057
 20
-118.5035332277526
 30
0.0
 10
130.0089463650672
 20
-118.3721028349903
 30
0.0
 10
132.0418972109131
 20
-118.3348958037496
 30
0.0
 10
134.1516736860801
 20
-119.8583170273271
 30
0.0
 10
132.888357171639
 20
-122.2161403774321
 30
0.0
 10
132.7581325622966
 20
-122.4566080423025
 30
0.0
 10
132.6217067810807
 20
-122.6336859502444
 30
0.0
 10
132.4177571283539
 20
-122.8231662019331
 30
0.0
 10
132.2792642898469
 20
-122.9540798303726
 30
0.0
 10
132.2775417421042
 20
-123.0787922869386
 30
0.0
 10
132.5693413297049
 20
-123.1576849735509
 30
0.0
 10
134.0696804135312
 20
-123.5655842790044
 30
0.0
 10
134.804519280535
 20
-122.9409884675286
 30
0.0
 10
135.7236707559996
 20
-122.0993516404821
 30
0.0
 10
135.8470051743716
 20
-122.3150146178588
 30
0.0
 10
135.9865315415242
 20
-122.5344672002692
 30
0.0
 10
136.2225205822638
 20
-122.6023355813286
 30
0.0
 10
137.0662244666015
 20
-121.9656819356544
 30
0.0
 10
137.1650987070282
 20
-120.5280435896597
 30
0.0
 10
137.1650987070282
 20
-120.5280435896597
 30
0.0
 10
137.9161295228126
 20
-121.3107692839084
 30
0.0
 10
138.0684027432607
 20
-124.0768364490155
 30
0.0
 10
135.508007778623
 20
-124.972905784729
 30
0.0
 10
135.534879523408
 20
-124.8034070868547
 30
0.0
 10
135.5500379435431
 20
-124.6270181980099
 30
0.0
 10
135.5321234470198
 20
-124.4561414619415
 30
0.0
 10
135.3336859470694
 20
-122.6137043964299
 30
0.0
 10
131.9933213645711
 20
-123.6847845827941
 30
0.0
 10
132.674416742005
 20
-125.3763264660518
 30
0.0
 10
133.1970377271174
 20
-126.6713378589572
 30
0.0
 10
135.1273247275029
 20
-126.8487602764475
 30
0.0
 10
136.4264702349906
 20
-126.1387260969375
 30
0.0
 10
139.5632296743106
 20
-124.4237575643802
 30
0.0
 10
139.2214762021738
 20
-120.8997693925181
 30
0.0
 10
138.2854437588314
 20
-119.381860321717
 30
0.0
 10
139.4057888106347
 20
-120.2186740150842
 30
0.0
 10
140.5371581679907
 20
-119.7039767495879
 30
0.0
 10
141.8204562362463
 20
-120.1087754691048
 30
0.0
 10
142.1976941918811
 20
-120.2269422442488
 30
0.0
 10
142.305870190118
 20
-119.9613253823361
 30
0.0
 10
141.9710069089517
 20
-119.8831217148209
 30
0.0
 10
141.0001790012083
 20
-119.6581569796341
 30
0.0
 10
140.9615939317735
 20
-118.4668429608347
 30
0.0
 10
140.4575764622815
 20
-117.8470702830382
 30
0.0
 10
139.824712421641
 20
-116.9127603874385
 30
0.0
 10
139.1412054773675
 20
-116.2840304613804
 30
0.0
 10
138.0050129863321
 20
-115.9515787470538
 30
0.0
 10
138.1014756599191
 20
-115.6580566117105
 30
0.0
 10
138.499728698014
 20
-115.5378227792753
 30
0.0
 10
138.6141058681243
 20
-115.3121690249914
 30
0.0
 10
137.3325303476113
 20
-114.3194647609167
 30
0.0
 10
134.7166693456611
 20
-113.9982096069171
 30
0.0
 10
131.949913161457
 20
-114.8934176687593
 30
0.0
 10
134.1296250749745
 20
-113.0191134700091
 30
0.0
 10
136.279709167319
 20
-112.0307155752909
 30
0.0
 10
139.4030327342465
 20
-111.8433023808933
 30
0.0
 10
139.4030327342465
 20
-111.8433023808933
 30
0.0
 10
139.4030327342465
 20
-108.8446912705319
 30
0.0
 10
139.4030327342465
 20
-108.8446912705319
 30
0.0
 10
139.4030327342465
 20
-108.8446912705319
 30
0.0
 10
123.1752549605256
 20
-108.8446912705319
 30
0.0
 10
123.1752549605256
 20
-108.8446912705319
 30
0.0
 10
123.1752549605256
 20
-108.8446912705319
 30
0.0
 10
123.1752549605256
 20
-111.8433023808933
 30
0.0
 10
123.1752549605256
 20
-111.8433023808933
 30
0.0
 10
125.0273382933959
 20
-111.8433023808933
 30
0.0
 10
125.9974771820423
 20
-113.0780246028069
 30
0.0
 10
125.9974771820423
 20
-114.1363579358756
 30
0.0
 10
125.9974771820423
 20
-114.9373426361962
 30
0.0
 10
125.2164740355362
 20
-116.1579399666202
 30
0.0
 10
124.5963568481912
 20
-116.9568576096497
 30
0.0
 10
124.4950710409249
 20
-115.9102376012308
 30
0.0
 10
123.6644585194311
 20
-115.0210584564878
 30
0.0
 10
122.0528428514312
 20
-114.8432915294489
 30
0.0
 10
120.4012640758025
 20
-114.6610459782792
 30
0.0
 10
119.6516112982121
 20
-114.2176621893275
 30
0.0
 10
119.4331922444473
 20
-113.4494058961168
 30
0.0
 10
119.332595456278
 20
-113.0928385133935
 30
0.0
 10
119.4938259249877
 20
-112.6945854752986
 30
0.0
 10
120.1449489716999
 20
-112.2797959788745
 30
0.0
 10
119.9292859943232
 20
-111.0753905972312
 30
0.0
 10
117.2596815028031
 20
-112.3359510352841
 30
0.0
 10
117.4543293977198
 20
-113.8435248196294
 30
0.0
 10
117.4949815244457
 20
-114.4388373194806
 30
0.0
 10
117.9311306128783
 20
-114.9407877316815
 30
0.0
 10
118.4320474964337
 20
-115.1860785302313
 30
0.0
 10
116.2685275316968
 20
-116.0163465421765
 30
0.0
 10
114.7609537473514
 20
-118.3472981474965
 30
0.0
 10
114.9628363427871
 20
-120.4791232337691
 30
0.0
 10
115.0524088254036
 20
-121.4096435243351
 30
0.0
 10
115.2212185041808
 20
-122.3546332159391
 30
0.0
 10
114.9400987125844
 20
-123.1842122087873
 30
0.0
 10
114.8646511214575
 20
-123.4053873389403
 30
0.0
 10
114.9979763167366
 20
-123.3351073910412
 30
0.0
 10
115.071701360121
 20
-123.2965223216064
 30
0.0
 10
116.1779215204347
 20
-122.7081000127258
 30
0.0
 10
116.5234645976053
 20
-121.7765461935142
 30
0.0
 10
116.7604871669904
 20
-121.0730576954262
 30
0.0
 10
117.4546739072683
 20
-119.0053113851792
 30
0.0
 10
117.1384141417224
 20
-117.8374240156795
 30
0.0
 10
118.4065537898428
 20
-116.6881401618002
 30
0.0
 10
118.449961992957
 20
-116.6495550923654
 30
0.0
 10
118.4602972794127
 20
-116.6557562642388
 30
0.0
 10
118.4286024009484
 20
-116.7019205437412
 30
0.0
 10
117.7857475834008
 20
-117.6396755348262
 30
0.0
 10
117.312735973276
 20
-119.8865668103061
 30
0.0
 10
118.1726318063943
 20
-121.607736514737
 30
0.0
 10
118.3624565676316
 20
-121.9884195658571
 30
0.0
 10
118.4420382733409
 20
-121.8337347785694
 30
0.0
 10
118.4468614070202
 20
-121.5284993185762
 30
0.0
 10
118.4513400311511
 20
-121.1984591710893
 30
0.0
 10
118.760365096178
 20
-120.7540418534921
 30
0.0
 10
119.2282090630749
 20
-120.2221191105695
 30
0.0
 10
120.1401258380205
 20
-119.1851453695093
 30
0.0
 10
119.9926757512518
 20
-118.7613986248235
 30
0.0
 10
120.6644693708756
 20
-117.3847384689177
 30
0.0
 10
121.1557399870722
 20
-116.38221568271
 30
0.0
 10
121.7482964105351
 20
-115.7359157696771
 30
0.0
 10
122.7446180248694
 20
-115.976038924999
 30
0.0
 10
123.4319145741767
 20
-116.2604315573064
 30
0.0
 10
124.1357475818133
 20
-117.0944891742854
 30
0.0
 10
123.1294351905718
 20
-118.6701035944644
 30
0.0
 10
123.1294351905718
 20
-118.6701035944644
 30
0.0
 10
111.3668456752833
 20
-132.2041612082684
 30
0.0
 10
111.3668456752833
 20
-132.2041612082684
 30
0.0
 10
111.3668456752833
 20
-132.2041612082684
 30
0.0
 10
108.3830484755084
 20
-132.2041612082684
 30
0.0
 10
108.3830484755084
 20
-132.2041612082684
 30
0.0
 10
108.4474717610826
 20
-128.272445985727
 30
0.0
 10
111.617304117061
 20
-126.655490419725
 30
0.0
 10
113.6695474976243
 20
-126.5149305239268
 30
0.0
 10
113.9885633395584
 20
-126.4942599510153
 30
0.0
 10
114.0330050713181
 20
-126.3902180673608
 30
0.0
 10
113.707443547962
 20
-126.2534477765964
 30
0.0
 10
112.5691839996355
 20
-125.7790581282775
 30
0.0
 10
111.0740125590371
 20
-125.6522786144203
 30
0.0
 10
109.6122585446456
 20
-126.2241644649717
 30
0.0
 10
109.3866047903617
 20
-125.6636474295216
 30
0.0
 10
108.9552788356084
 20
-125.0862494261937
 30
0.0
 10
108.4357584364327
 20
-124.6640529744763
 30
0.0
 10
108.6548665092946
 20
-124.3546833999009
 30
0.0
 10
108.5236083713066
 20
-123.8711642485461
 30
0.0
 10
108.0888373210681
 20
-123.7230251426804
 30
0.0
 10
108.0888373210681
 20
-123.7230251426804
 30
0.0
 10
108.0888373210681
 20
-123.1173773563734
 30
0.0
 10
108.0888373210681
 20
-123.1173773563734
 30
0.0
 10
109.1457926159427
 20
-123.5356119482828
 30
0.0
 10
109.6015787486413
 20
-124.9084824991548
 30
0.0
 10
110.6220160313723
 20
-124.8354464748675
 30
0.0
 10
111.7154893383906
 20
-124.7593098646435
 30
0.0
 10
112.0245144034175
 20
-123.4322590837253
 30
0.0
 10
113.0456407052455
 20
-122.7501301776458
 30
0.0
 10
112.1040961091268
 20
-122.0735134243427
 30
0.0
 10
111.7940375154543
 20
-120.7457736243275
 30
0.0
 10
110.8163194167404
 20
-120.7096001217323
 30
0.0
 10
109.680126925705
 20
-120.6713595618461
 30
0.0
 10
109.2908311358717
 20
-121.9219292229917
 30
0.0
 10
108.1194986708868
 20
-122.338785776707
 30
0.0
 10
108.467453314897
 20
-121.2401448264608
 30
0.0
 10
109.9960421817024
 20
-120.8622178517289
 30
0.0
 10
109.9960421817024
 20
-119.7983723658838
 30
0.0
 10
109.9960421817024
 20
-118.8540716933768
 30
0.0
 10
108.467453314897
 20
-118.4761447186449
 30
0.0
 10
107.7667208931972
 20
-117.7588758386158
 30
0.0
 10
106.9833061798514
 20
-118.4003526179694
 30
0.0
 10
105.6173258199498
 20
-119.0452744928081
 30
0.0
 10
105.6173258199498
 20
-119.8404025308038
 30
0.0
 10
105.6173258199498
 20
-120.8622178517289
 30
0.0
 10
107.4938693307654
 20
-121.6921413541256
 30
0.0
 10
107.4518391658454
 20
-122.4138888582854
 30
0.0
 10
106.2777506244722
 20
-121.9977213236672
 30
0.0
 10
106.0841362582012
 20
-120.822943763197
 30
0.0
 10
105.0650770136643
 20
-120.7864257510534
 30
0.0
 10
104.0866698958533
 20
-120.7864257510534
 30
0.0
 10
103.7545626910753
 20
-122.2988226690781
 30
0.0
 10
102.6597113458629
 20
-122.9024033980939
 30
0.0
 10
103.8317328299449
 20
-123.66239146214
 30
0.0
 10
104.3230034461415
 20
-124.8723089965597
 30
0.0
 10
105.1077961976814
 20
-124.9084824991548
 30
0.0
 10
106.1220323085389
 20
-124.9846191093789
 30
0.0
 10
106.4486273605406
 20
-123.304790550771
 30
0.0
 10
107.6209933541711
 20
-123.1921359284034
 30
0.0
 10
107.6209933541711
 20
-123.1921359284034
 30
0.0
 10
107.6209933541711
 20
-123.7230251426804
 30
0.0
 10
107.6209933541711
 20
-123.7230251426804
 30
0.0
 10
107.1369574384935
 20
-123.7750460845076
 30
0.0
 10
107.005354790957
 20
-124.3069688274302
 30
0.0
 10
107.2354871693717
 20
-124.6483777900185
 30
0.0
 10
106.7107991269681
 20
-125.0710910060586
 30
0.0
 10
106.2736165098899
 20
-125.6526231239688
 30
0.0
 10
106.047273736509
 20
-126.2179632930983
 30
0.0
 10
105.0506076126262
 20
-125.8283229937165
 30
0.0
 10
104.0418836545451
 20
-125.7683783322732
 30
0.0
 10
103.1385796183126
 20
-125.9161729285904
 30
0.0
 10
103.1385796183126
 20
-125.9161729285904
 30
0.0
 10
95.92317163400533
 20
-116.6058023797027
 30
0.0
 10
95.92317163400533
 20
-116.6058023797027
 30
0.0
 10
95.39400496747095
 20
-115.9884412687459
 30
0.0
 10
95.04122718978137
 20
-114.66552460241
 30
0.0
 10
95.04122718978137
 20
-113.2544134916517
 30
0.0
 10
95.04122718978137
 20
-112.3724690474277
 30
0.0
 10
96.27594941169491
 20
-111.8433023808933
 30
0.0
 10
97.42247718918605
 20
-111.8433023808933
 30
0.0
 10
97.42247718918605
 20
-111.8433023808933
 30
0.0
 10
97.42247718918605
 20
-108.8446912705319
 30
0.0
 10
97.42247718918605
 20
-108.8446912705319
 30
0.0
 10
97.42247718918605
 20
-108.8446912705319
 30
0.0
 10
76.69678274992303
 20
-108.8446912705319
 30
0.0
 10
76.69678274992303
 20
-108.8446912705319
 30
0.0
 10
76.69678274992303
 20
-108.8446912705319
 30
0.0
 10
76.69678274992303
 20
-111.8433023808933
 30
0.0
 10
76.69678274992303
 20
-111.8433023808933
 30
0.0
 10
76.69678274992303
 20
-111.8433023808933
 30
0.0
 10
77.84331052741418
 20
-111.8433023808933
 30
0.0
 10
77.84331052741418
 20
-111.8433023808933
 30
0.0
 10
80.0154432308642
 20
-111.8433023808933
 30
0.0
 10
82.23546276155919
 20
-113.273017007272
 30
0.0
 10
84.25084362043035
 20
-115.1407755246002
 30
0.0
 10
81.23810761857936
 20
-113.9498060153494
 30
0.0
 10
78.28910588320551
 20
-114.2378159979162
 30
0.0
 10
76.90211044084393
 20
-115.3121690249914
 30
0.0
 10
77.01614310140569
 20
-115.5378227792753
 30
0.0
 10
77.4147406490491
 20
-115.6580566117105
 30
0.0
 10
77.51120332263609
 20
-115.9515787470538
 30
0.0
 10
76.37466632205216
 20
-116.2840304613804
 30
0.0
 10
75.6911593777786
 20
-116.9127603874385
 30
0.0
 10
75.05863984668673
 20
-117.8470702830382
 30
0.0
 10
74.55462237719468
 20
-118.4668429608347
 30
0.0
 10
74.51603730775989
 20
-119.6581569796341
 30
0.0
 10
73.54520940001647
 20
-119.8831217148209
 30
0.0
 10
73.2103461188502
 20
-119.9613253823361
 30
0.0
 10
73.31817760753852
 20
-120.2269422442488
 30
0.0
 10
73.6957600727219
 20
-120.1087754691048
 30
0.0
  0
SPLINE
  5
41
330
3C
100
AcDbEntity
  8
Layer 1
370
     0
100
AcDbSpline
210
0.0
220
0.0
230
1.0
 70
    11
 71
     3
 72
    14
 73
    10
 74
     0
 42
0.0000000001
 43
0.0000000001
 40
0.0
 40
0.0
 40
0.0
 40
0.0
 40
1.0
 40
1.0
 40
1.0
 40
2.0
 40
2.0
 40
2.0
 40
3.0
 40
3.0
 40
3.0
 40
3.0
 10
138.9000487934
 20
-118.3097466067073
 30
0.0
 10
138.9313991623158
 20
-118.3393744278804
 30
0.0
 10
138.9234754426997
 20
-118.3441975615598
 30
0.0
 10
138.8814452777796
 20
-118.3245605172939
 30
0.0
 10
136.6149169580338
 20
-117.2507242545415
 30
0.0
 10
133.825423143627
 20
-116.1451931133248
 30
0.0
 10
131.2243760522634
 20
-116.422867809436
 30
0.0
 10
133.5884005742418
 20
-115.5298990596592
 30
0.0
 10
137.0100694101919
 20
-116.4890136427528
 30
0.0
 10
138.9000487934
 20
-118.3097466067073
 30
0.0
  0
SPLINE
  5
42
330
3C
100
AcDbEntity
  8
Layer 1
370
     0
100
AcDbSpline
210
0.0
220
0.0
230
1.0
 70
    11
 71
     3
 72
    14
 73
    10
 74
     0
 42
0.0000000001
 43
0.0000000001
 40
0.0
 40
0.0
 40
0.0
 40
0.0
 40
1.0
 40
1.0
 40
1.0
 40
2.0
 40
2.0
 40
2.0
 40
3.0
 40
3.0
 40
3.0
 40
3.0
 10
134.0214490767377
 20
-120.9352538760162
 30
0.0
 10
133.9487575619989
 20
-121.0396402692193
 30
0.0
 10
133.9432454092225
 20
-120.9669487544805
 30
0.0
 10
133.9577148102606
 20
-120.8863335201256
 30
0.0
 10
134.2195420671396
 20
-119.4180338243122
 30
0.0
 10
132.2172525711124
 20
-117.1987033127142
 30
0.0
 10
130.1591525282241
 20
-117.2955104958497
 30
0.0
 10
132.0587781787909
 20
-116.4449164205416
 30
0.0
 10
135.3130153741579
 20
-119.0762803521754
 30
0.0
 10
134.0214490767377
 20
-120.9352538760162
 30
0.0
  0
SPLINE
  5
43
330
3C
100
AcDbEntity
  8
Layer 1
370
     0
100
AcDbSpline
210
0.0
220
0.0
230
1.0
 70
    11
 71
     3
 72
    14
 73
    10
 74
     0
 42
0.0000000001
 43
0.0000000001
 40
0.0
 40
0.0
 40
0.0
 40
0.0
 40
1.0
 40
1.0
 40
1.0
 40
2.0
 40
2.0
 40
2.0
 40
3.0
 40
3.0
 40
3.0
 40
3.0
 10
131.0204263995366
 20
-132.0687689556981
 30
0.0
 10
131.1568521807525
 20
-132.1216511713967
 30
0.0
 10
131.2946560001625
 20
-132.1652316292851
 30
0.0
 10
131.432804329121
 20
-132.2041612082684
 30
0.0
 10
131.432804329121
 20
-132.2041612082684
 30
0.0
 10
117.0953504481567
 20
-132.2041612082684
 30
0.0
 10
117.0953504481567
 20
-132.2041612082684
 30
0.0
 10
120.1545952390586
 20
-127.727087370412
 30
0.0
 10
130.0433973199197
 20
-131.6891194332236
 30
0.0
 10
131.0204263995366
 20
-132.0687689556981
 30
0.0
  0
SPLINE
  5
44
330
3C
100
AcDbEntity
  8
Layer 1
370
     0
100
AcDbSpline
210
0.0
220
0.0
230
1.0
 70
    11
 71
     3
 72
    11
 73
     7
 74
     0
 42
0.0000000001
 43
0.0000000001
 40
0.0
 40
0.0
 40
0.0
 40
0.0
 40
1.0
 40
1.0
 40
1.0
 40
2.0
 40
2.0
 40
2.0
 40
2.0
 10
107.1858777943841
 20
-131.1385931746806
 30
0.0
 10
107.1858777943841
 20
-131.1385931746806
 30
0.0
 10
103.9702256684519
 20
-126.9889756626972
 30
0.0
 10
103.9702256684519
 20
-126.9889756626972
 30
0.0
 10
105.4216443963876
 20
-127.5999633470063
 30
0.0
 10
106.8213866920447
 20
-128.8586289825423
 30
0.0
 10
107.1858777943841
 20
-131.1385931746806
 30
0.0
  0
SPLINE
  5
45
330
3C
100
AcDbEntity
  8
Layer 1
370
     0
100
AcDbSpline
210
0.0
220
0.0
230
1.0
 70
    11
 71
     3
 72
    17
 73
    13
 74
     0
 42
0.0000000001
 43
0.0000000001
 40
0.0
 40
0.0
 40
0.0
 40
0.0
 40
1.0
 40
1.0
 40
1.0
 40
2.0
 40
2.0
 40
2.0
 40
3.0
 40
3.0
 40
3.0
 40
4.0
 40
4.0
 40
4.0
 40
4.0
 10
97.05936412504072
 20
-130.8529947589534
 30
0.0
 10
97.05936412504072
 20
-130.8529947589534
 30
0.0
 10
98.11287432443012
 20
-132.2041612082684
 30
0.0
 10
98.11287432443012
 20
-132.2041612082684
 30
0.0
 10
98.11287432443012
 20
-132.2041612082684
 30
0.0
 10
84.22603893293655
 20
-132.2041612082684
 30
0.0
 10
84.22603893293655
 20
-132.2041612082684
 30
0.0
 10
84.36418726189507
 20
-132.1652316292851
 30
0.0
 10
84.50199108130506
 20
-132.1216511713967
 30
0.0
 10
84.63841686252096
 20
-132.0687689556981
 30
0.0
 10
85.48797740918357
 20
-131.7387288082112
 30
0.0
 10
93.08200138731978
 20
-128.6960204756385
 30
0.0
 10
97.05936412504072
 20
-130.8529947589534
 30
0.0
  0
SPLINE
  5
46
330
3C
100
AcDbEntity
  8
Layer 1
370
     0
100
AcDbSpline
210
0.0
220
0.0
230
1.0
 70
    11
 71
     3
 72
    14
 73
    10
 74
     0
 42
0.0000000001
 43
0.0000000001
 40
0.0
 40
0.0
 40
0.0
 40
0.0
 40
1.0
 40
1.0
 40
1.0
 40
2.0
 40
2.0
 40
2.0
 40
3.0
 40
3.0
 40
3.0
 40
3.0
 10
85.35706378074407
 20
-117.2955104958497
 30
0.0
 10
83.29861922830729
 20
-117.1987033127142
 30
0.0
 10
81.29632973228009
 20
-119.4180338243122
 30
0.0
 10
81.5585014987076
 20
-120.8863335201256
 30
0.0
 10
81.57297089974566
 20
-120.9669487544805
 30
0.0
 10
81.56711423742072
 20
-121.0396402692193
 30
0.0
 10
81.49476723223047
 20
-120.9352538760162
 30
0.0
 10
80.20285642526179
 20
-119.0762803521754
 30
0.0
 10
83.45743813017731
 20
-116.4449164205416
 30
0.0
 10
85.35706378074407
 20
-117.2955104958497
 30
0.0
  0
SPLINE
  5
47
330
3C
100
AcDbEntity
  8
Layer 1
370
     0
100
AcDbSpline
210
0.0
220
0.0
230
1.0
 70
    11
 71
     3
 72
    14
 73
    10
 74
     0
 42
0.0000000001
 43
0.0000000001
 40
0.0
 40
0.0
 40
0.0
 40
0.0
 40
1.0
 40
1.0
 40
1.0
 40
2.0
 40
2.0
 40
2.0
 40
3.0
 40
3.0
 40
3.0
 40
3.0
 10
76.61616751556818
 20
-118.3097466067073
 30
0.0
 10
78.50614689877625
 20
-116.4890136427528
 30
0.0
 10
81.92781573472638
 20
-115.5298990596592
 30
0.0
 10
84.29184025670482
 20
-116.422867809436
 30
0.0
 10
81.69079316534119
 20
-116.1451931133248
 30
0.0
 10
78.9012993509344
 20
-117.2507242545415
 30
0.0
 10
76.63477103118854
 20
-118.3245605172939
 30
0.0
 10
76.59274086626849
 20
-118.3441975615598
 30
0.0
 10
76.58481714665241
 20
-118.3393744278804
 30
0.0
 10
76.61616751556818
 20
-118.3097466067073
 30
0.0
  0
HATCH
  5
48
330
3C
100
AcDbEntity
  8
Layer 1
 62
   250
420
  2301728
100
AcDbHatch
 10
0.0
 20
0.0
 30
0.0
210
0.0
220
0.0
230
1.0
  2
SOLID
 70
     1
 71
     0
 91
        8
 92
        1
 93
        1
 72
     4
 94
        3
 73
     0
 74
     1
 95
      338
 96
      334
 40
0.0
 40
0.0
 40
0.0
 40
0.0
 40
1.0
 40
1.0
 40
1.0
 40
2.0
 40
2.0
 40
2.0
 40
3.0
 40
3.0
 40
3.0
 40
4.0
 40
4.0
 40
4.0
 40
5.0
 40
5.0
 40
5.0
 40
6.0
 40
6.0
 40
6.0
 40
7.0
 40
7.0
 40
7.0
 40
8.0
 40
8.0
 40
8.0
 40
9.0
 40
9.0
 40
9.0
 40
10.0
 40
10.0
 40
10.0
 40
11.0
 40
11.0
 40
11.0
 40
12.0
 40
12.0
 40
12.0
 40
13.0
 40
13.0
 40
13.0
 40
14.0
 40
14.0
 40
14.0
 40
15.0
 40
15.0
 40
15.0
 40
16.0
 40
16.0
 40
16.0
 40
17.0
 40
17.0
 40
17.0
 40
18.0
 40
18.0
 40
18.0
 40
19.0
 40
19.0
 40
19.0
 40
20.0
 40
20.0
 40
20.0
 40
21.0
 40
21.0
 40
21.0
 40
22.0
 40
22.0
 40
22.0
 40
23.0
 40
23.0
 40
23.0
 40
24.0
 40
24.0
 40
24.0
 40
25.0
 40
25.0
 40
25.0
 40
26.0
 40
26.0
 40
26.0
 40
27.0
 40
27.0
 40
27.0
 40
28.0
 40
28.0
 40
28.0
 40
29.0
 40
29.0
 40
29.0
 40
30.0
 40
30.0
 40
30.0
 40
31.0
 40
31.0
 40
31.0
 40
32.0
 40
32.0
 40
32.0
 40
33.0
 40
33.0
 40
33.0
 40
34.0
 40
34.0
 40
34.0
 40
35.0
 40
35.0
 40
35.0
 40
36.0
 40
36.0
 40
36.0
 40
37.0
 40
37.0
 40
37.0
 40
38.0
 40
38.0
 40
38.0
 40
39.0
 40
39.0
 40
39.0
 40
40.0
 40
40.0
 40
40.0
 40
41.0
 40
41.0
 40
41.0
 40
42.0
 40
42.0
 40
42.0
 40
43.0
 40
43.0
 40
43.0
 40
44.0
 40
44.0
 40
44.0
 40
45.0
 40
45.0
 40
45.0
 40
46.0
 40
46.0
 40
46.0
 40
47.0
 40
47.0
 40
47.0
 40
48.0
 40
48.0
 40
48.0
 40
49.0
 40
49.0
 40
49.0
 40
50.0
 40
50.0
 40
50.0
 40
51.0
 40
51.0
 40
51.0
 40
52.0
 40
52.0
 40
52.0
 40
53.0
 40
53.0
 40
53.0
 40
54.0
 40
54.0
 40
54.0
 40
55.0
 40
55.0
 40
55.0
 40
56.0
 40
56.0
 40
56.0
 40
57.0
 40
57.0
 40
57.0
 40
58.0
 40
58.0
 40
58.0
 40
59.0
 40
59.0
 40
59.0
 40
60.0
 40
60.0
 40
60.0
 40
61.0
 40
61.0
 40
61.0
 40
62.0
 40
62.0
 40
62.0
 40
63.0
 40
63.0
 40
63.0
 40
64.0
 40
64.0
 40
64.0
 40
65.0
 40
65.0
 40
65.0
 40
66.0
 40
66.0
 40
66.0
 40
67.0
 40
67.0
 40
67.0
 40
68.0
 40
68.0
 40
68.0
 40
69.0
 40
69.0
 40
69.0
 40
70.0
 40
70.0
 40
70.0
 40
71.0
 40
71.0
 40
71.0
 40
72.0
 40
72.0
 40
72.0
 40
73.0
 40
73.0
 40
73.0
 40
74.0
 40
74.0
 40
74.0
 40
75.0
 40
75.0
 40
75.0
 40
76.0
 40
76.0
 40
76.0
 40
77.0
 40
77.0
 40
77.0
 40
78.0
 40
78.0
 40
78.0
 40
79.0
 40
79.0
 40
79.0
 40
80.0
 40
80.0
 40
80.0
 40
81.0
 40
81.0
 40
81.0
 40
82.0
 40
82.0
 40
82.0
 40
83.0
 40
83.0
 40
83.0
 40
84.0
 40
84.0
 40
84.0
 40
85.0
 40
85.0
 40
85.0
 40
86.0
 40
86.0
 40
86.0
 40
87.0
 40
87.0
 40
87.0
 40
88.0
 40
88.0
 40
88.0
 40
89.0
 40
89.0
 40
89.0
 40
90.0
 40
90.0
 40
90.0
 40
91.0
 40
91.0
 40
91.0
 40
92.0
 40
92.0
 40
92.0
 40
93.0
 40
93.0
 40
93.0
 40
94.0
 40
94.0
 40
94.0
 40
95.0
 40
95.0
 40
95.0
 40
96.0
 40
96.0
 40
96.0
 40
97.0
 40
97.0
 40
97.0
 40
98.0
 40
98.0
 40
98.0
 40
99.0
 40
99.0
 40
99.0
 40
100.0
 40
100.0
 40
100.0
 40
101.0
 40
101.0
 40
101.0
 40
102.0
 40
102.0
 40
102.0
 40
103.0
 40
103.0
 40
103.0
 40
104.0
 40
104.0
 40
104.0
 40
105.0
 40
105.0
 40
105.0
 40
106.0
 40
106.0
 40
106.0
 40
107.0
 40
107.0
 40
107.0
 40
108.0
 40
108.0
 40
108.0
 40
109.0
 40
109.0
 40
109.0
 40
110.0
 40
110.0
 40
110.0
 40
111.0
 40
111.0
 40
111.0
 40
111.0
 10
73.6957600727219
 20
-120.1087754691048
 10
74.97905814097746
 20
-119.7039767495879
 10
76.11008298878498
 20
-120.2186740150842
 10
77.23042804058824
 20
-119.381860321717
 10
76.29474010679438
 20
-120.8997693925181
 10
75.95298663465759
 20
-124.4237575643802
 10
79.08974607397757
 20
-126.1387260969375
 10
80.38889158146529
 20
-126.8487602764475
 10
82.31917858185076
 20
-126.6713378589572
 10
82.84179956696316
 20
-125.3763264660518
 10
83.52289494439705
 20
-123.6847845827941
 10
80.18253036189881
 20
-122.6137043964299
 10
79.98409286194843
 20
-124.4561414619415
 10
79.96617836542512
 20
-124.6270181980099
 10
79.98133678556023
 20
-124.8034070868547
 10
80.00786402079665
 20
-124.972905784729
 10
77.44781356570749
 20
-124.0768364490155
 10
77.59974227660702
 20
-121.3107692839084
 10
78.35111760194
 20
-120.5280435896597
 10
78.35111760194
 20
-120.5280435896597
 10
78.44999184236667
 20
-121.9656819356544
 10
79.29335121715583
 20
-122.6023355813286
 10
79.52968476744397
 20
-122.5344672002692
 10
79.6692111345966
 20
-122.3150146178588
 10
79.79254555296853
 20
-122.0993516404821
 10
80.71169702843319
 20
-122.9409884675286
 10
81.44653589543698
 20
-123.5655842790044
 10
82.94687497926328
 20
-123.1576849735509
 10
83.23867456686395
 20
-123.0787922869386
 10
83.23695201912132
 20
-122.9540798303726
 10
83.09845918061428
 20
-122.8231662019331
 10
82.8945095278875
 20
-122.6336859502444
 10
82.75808374667159
 20
-122.4566080423025
 10
82.62785913732915
 20
-122.2161403774321
 10
81.36454262288804
 20
-119.8583170273271
 10
83.47431909805503
 20
-118.3348958037496
 10
85.50726994390097
 20
-118.3721028349903
 10
86.97005748693805
 20
-118.5555541695799
 10
88.02873532955532
 20
-119.457307912844
 10
88.97234698296525
 20
-120.4823960744801
 10
88.99611814181347
 20
-120.5128851695246
 10
89.02057831975876
 20
-120.5442355384403
 10
89.04400496905845
 20
-120.5745523787105
 10
89.04400496905845
 20
-120.5745523787105
 10
94.62505965516318
 20
-127.7315659945428
 10
94.62505965516318
 20
-127.7315659945428
 10
92.91698131357631
 20
-127.7605047966189
 10
91.17135143120022
 20
-128.2152574006719
 10
89.75541718676254
 20
-128.7346055450733
 10
87.25393335492264
 20
-129.654446039635
 10
84.86510414545039
 20
-131.6288302622317
 10
83.55390080376431
 20
-131.6787841467678
 10
83.69101560407725
 20
-131.4479627492561
 10
83.77921004849965
 20
-131.157885709398
 10
83.7881672967613
 20
-130.8419704534006
 10
83.81262747470657
 20
-130.0471869249535
 10
83.05298392020897
 20
-129.4191460179924
 10
82.45560436306666
 20
-129.3974419164354
 10
81.85340167224498
 20
-129.3750487957813
 10
81.03346894675552
 20
-129.9844861871219
 10
81.00935327835877
 20
-130.7792697155691
 10
80.98730466725318
 20
-131.4973998694694
 10
81.41725258381236
 20
-131.9719617725626
 10
82.0563177963262
 20
-132.2041612082684
 10
82.0563177963262
 20
-132.2041612082684
 10
73.37502168304513
 20
-132.2041612082684
 10
73.37502168304513
 20
-132.2041612082684
 10
73.37502168304513
 20
-132.2041612082684
 10
73.37502168304513
 20
-133.8157768762683
 10
73.37502168304513
 20
-133.8157768762683
 10
73.37502168304513
 20
-133.8157768762683
 10
142.2838215790124
 20
-133.8157768762683
 10
142.2838215790124
 20
-133.8157768762683
 10
142.2838215790124
 20
-133.8157768762683
 10
142.2838215790124
 20
-132.2041612082684
 10
142.2838215790124
 20
-132.2041612082684
 10
142.2838215790124
 20
-132.2041612082684
 10
133.6021809561828
 20
-132.2041612082684
 10
133.6021809561828
 20
-132.2041612082684
 10
134.2415906782452
 20
-131.9719617725626
 10
134.6715385948043
 20
-131.4973998694694
 10
134.6494899836987
 20
-130.7792697155691
 10
134.625374315302
 20
-129.9844861871219
 10
133.8054415898125
 20
-129.3750487957813
 10
133.2032388989909
 20
-129.3974419164354
 10
132.6055148323
 20
-129.4191460179924
 10
131.8458712778024
 20
-130.0471869249535
 10
131.8703314557477
 20
-130.8419704534006
 10
131.8796332135579
 20
-131.157885709398
 10
131.9678276579803
 20
-131.4479627492561
 10
132.1049424582932
 20
-131.6787841467678
 10
130.7933946070586
 20
-131.6288302622317
 10
128.4049099071349
 20
-129.654446039635
 10
125.9030815657465
 20
-128.7346055450733
 10
124.2256645739783
 20
-128.1193114914077
 10
122.0852267489926
 20
-127.5887667866792
 10
120.0929280298726
 20
-127.7577487202307
 10
120.0929280298726
 20
-127.7577487202307
 10
127.3813720384672
 20
-119.6552286484716
 10
127.3813720384672
 20
-119.6552286484716
 10
128.1210340391503
 20
-119.005139130405
 10
128.9606038089057
 20
-118.5035332277526
 10
130.0089463650672
 20
-118.3721028349903
 10
132.0418972109131
 20
-118.3348958037496
 10
134.1516736860801
 20
-119.8583170273271
 10
132.888357171639
 20
-122.2161403774321
 10
132.7581325622966
 20
-122.4566080423025
 10
132.6217067810807
 20
-122.6336859502444
 10
132.4177571283539
 20
-122.8231662019331
 10
132.2792642898469
 20
-122.9540798303726
 10
132.2775417421042
 20
-123.0787922869386
 10
132.5693413297049
 20
-123.1576849735509
 10
134.0696804135312
 20
-123.5655842790044
 10
134.804519280535
 20
-122.9409884675286
 10
135.7236707559996
 20
-122.0993516404821
 10
135.8470051743716
 20
-122.3150146178588
 10
135.9865315415242
 20
-122.5344672002692
 10
136.2225205822638
 20
-122.6023355813286
 10
137.0662244666015
 20
-121.9656819356544
 10
137.1650987070282
 20
-120.5280435896597
 10
137.1650987070282
 20
-120.5280435896597
 10
137.9161295228126
 20
-121.3107692839084
 10
138.0684027432607
 20
-124.0768364490155
 10
135.508007778623
 20
-124.972905784729
 10
135.534879523408
 20
-124.8034070868547
 10
135.5500379435431
 20
-124.6270181980099
 10
135.5321234470198
 20
-124.4561414619415
 10
135.3336859470694
 20
-122.6137043964299
 10
131.9933213645711
 20
-123.6847845827941
 10
132.674416742005
 20
-125.3763264660518
 10
133.1970377271174
 20
-126.6713378589572
 10
135.1273247275029
 20
-126.8487602764475
 10
136.4264702349906
 20
-126.1387260969375
 10
139.5632296743106
 20
-124.4237575643802
 10
139.2214762021738
 20
-120.8997693925181
 10
138.2854437588314
 20
-119.381860321717
 10
139.4057888106347
 20
-120.2186740150842
 10
140.5371581679907
 20
-119.7039767495879
 10
141.8204562362463
 20
-120.1087754691048
 10
142.1976941918811
 20
-120.2269422442488
 10
142.305870190118
 20
-119.9613253823361
 10
141.9710069089517
 20
-119.8831217148209
 10
141.0001790012083
 20
-119.6581569796341
 10
140.9615939317735
 20
-118.4668429608347
 10
140.4575764622815
 20
-117.8470702830382
 10
139.824712421641
 20
-116.9127603874385
 10
139.1412054773675
 20
-116.2840304613804
 10
138.0050129863321
 20
-115.9515787470538
 10
138.1014756599191
 20
-115.6580566117105
 10
138.499728698014
 20
-115.5378227792753
 10
138.6141058681243
 20
-115.3121690249914
 10
137.3325303476113
 20
-114.3194647609167
 10
134.7166693456611
 20
-113.9982096069171
 10
131.949913161457
 20
-114.8934176687593
 10
134.1296250749745
 20
-113.0191134700091
 10
136.279709167319
 20
-112.0307155752909
 10
139.4030327342465
 20
-111.8433023808933
 10
139.4030327342465
 20
-111.8433023808933
 10
139.4030327342465
 20
-108.8446912705319
 10
139.4030327342465
 20
-108.8446912705319
 10
139.4030327342465
 20
-108.8446912705319
 10
123.1752549605256
 20
-108.8446912705319
 10
123.1752549605256
 20
-108.8446912705319
 10
123.1752549605256
 20
-108.8446912705319
 10
123.1752549605256
 20
-111.8433023808933
 10
123.1752549605256
 20
-111.8433023808933
 10
125.0273382933959
 20
-111.8433023808933
 10
125.9974771820423
 20
-113.0780246028069
 10
125.9974771820423
 20
-114.1363579358756
 10
125.9974771820423
 20
-114.9373426361962
 10
125.2164740355362
 20
-116.1579399666202
 10
124.5963568481912
 20
-116.9568576096497
 10
124.4950710409249
 20
-115.9102376012308
 10
123.6644585194311
 20
-115.0210584564878
 10
122.0528428514312
 20
-114.8432915294489
 10
120.4012640758025
 20
-114.6610459782792
 10
119.6516112982121
 20
-114.2176621893275
 10
119.4331922444473
 20
-113.4494058961168
 10
119.332595456278
 20
-113.0928385133935
 10
119.4938259249877
 20
-112.6945854752986
 10
120.1449489716999
 20
-112.2797959788745
 10
119.9292859943232
 20
-111.0753905972312
 10
117.2596815028031
 20
-112.3359510352841
 10
117.4543293977198
 20
-113.8435248196294
 10
117.4949815244457
 20
-114.4388373194806
 10
117.9311306128783
 20
-114.9407877316815
 10
118.4320474964337
 20
-115.1860785302313
 10
116.2685275316968
 20
-116.0163465421765
 10
114.7609537473514
 20
-118.3472981474965
 10
114.9628363427871
 20
-120.4791232337691
 10
115.0524088254036
 20
-121.4096435243351
 10
115.2212185041808
 20
-122.3546332159391
 10
114.9400987125844
 20
-123.1842122087873
 10
114.8646511214575
 20
-123.4053873389403
 10
114.9979763167366
 20
-123.3351073910412
 10
115.071701360121
 20
-123.2965223216064
 10
116.1779215204347
 20
-122.7081000127258
 10
116.5234645976053
 20
-121.7765461935142
 10
116.7604871669904
 20
-121.0730576954262
 10
117.4546739072683
 20
-119.0053113851792
 10
117.1384141417224
 20
-117.8374240156795
 10
118.4065537898428
 20
-116.6881401618002
 10
118.449961992957
 20
-116.6495550923654
 10
118.4602972794127
 20
-116.6557562642388
 10
118.4286024009484
 20
-116.7019205437412
 10
117.7857475834008
 20
-117.6396755348262
 10
117.312735973276
 20
-119.8865668103061
 10
118.1726318063943
 20
-121.607736514737
 10
118.3624565676316
 20
-121.9884195658571
 10
118.4420382733409
 20
-121.8337347785694
 10
118.4468614070202
 20
-121.5284993185762
 10
118.4513400311511
 20
-121.1984591710893
 10
118.760365096178
 20
-120.7540418534921
 10
119.2282090630749
 20
-120.2221191105695
 10
120.1401258380205
 20
-119.1851453695093
 10
119.9926757512518
 20
-118.7613986248235
 10
120.6644693708756
 20
-117.3847384689177
 10
121.1557399870722
 20
-116.38221568271
 10
121.7482964105351
 20
-115.7359157696771
 10
122.7446180248694
 20
-115.976038924999
 10
123.4319145741767
 20
-116.2604315573064
 10
124.1357475818133
 20
-117.0944891742854
 10
123.1294351905718
 20
-118.6701035944644
 10
123.1294351905718
 20
-118.6701035944644
 10
111.3668456752833
 20
-132.2041612082684
 10
111.3668456752833
 20
-132.2041612082684
 10
111.3668456752833
 20
-132.2041612082684
 10
108.3830484755084
 20
-132.2041612082684
 10
108.3830484755084
 20
-132.2041612082684
 10
108.4474717610826
 20
-128.272445985727
 10
111.617304117061
 20
-126.655490419725
 10
113.6695474976243
 20
-126.5149305239268
 10
113.9885633395584
 20
-126.4942599510153
 10
114.0330050713181
 20
-126.3902180673608
 10
113.707443547962
 20
-126.2534477765964
 10
112.5691839996355
 20
-125.7790581282775
 10
111.0740125590371
 20
-125.6522786144203
 10
109.6122585446456
 20
-126.2241644649717
 10
109.3866047903617
 20
-125.6636474295216
 10
108.9552788356084
 20
-125.0862494261937
 10
108.4357584364327
 20
-124.6640529744763
 10
108.6548665092946
 20
-124.3546833999009
 10
108.5236083713066
 20
-123.8711642485461
 10
108.0888373210681
 20
-123.7230251426804
 10
108.0888373210681
 20
-123.7230251426804
 10
108.0888373210681
 20
-123.1173773563734
 10
108.0888373210681
 20
-123.1173773563734
 10
109.1457926159427
 20
-123.5356119482828
 10
109.6015787486413
 20
-124.9084824991548
 10
110.6220160313723
 20
-124.8354464748675
 10
111.7154893383906
 20
-124.7593098646435
 10
112.0245144034175
 20
-123.4322590837253
 10
113.0456407052455
 20
-122.7501301776458
 10
112.1040961091268
 20
-122.0735134243427
 10
111.7940375154543
 20
-120.7457736243275
 10
110.8163194167404
 20
-120.7096001217323
 10
109.680126925705
 20
-120.6713595618461
 10
109.2908311358717
 20
-121.9219292229917
 10
108.1194986708868
 20
-122.338785776707
 10
108.467453314897
 20
-121.2401448264608
 10
109.9960421817024
 20
-120.8622178517289
 10
109.9960421817024
 20
-119.7983723658838
 10
109.9960421817024
 20
-118.8540716933768
 10
108.467453314897
 20
-118.4761447186449
 10
107.7667208931972
 20
-117.7588758386158
 10
106.9833061798514
 20
-118.4003526179694
 10
105.6173258199498
 20
-119.0452744928081
 10
105.6173258199498
 20
-119.8404025308038
 10
105.6173258199498
 20
-120.8622178517289
 10
107.4938693307654
 20
-121.6921413541256
 10
107.4518391658454
 20
-122.4138888582854
 10
106.2777506244722
 20
-121.9977213236672
 10
106.0841362582012
 20
-120.822943763197
 10
105.0650770136643
 20
-120.7864257510534
 10
104.0866698958533
 20
-120.7864257510534
 10
103.7545626910753
 20
-122.2988226690781
 10
102.6597113458629
 20
-122.9024033980939
 10
103.8317328299449
 20
-123.66239146214
 10
104.3230034461415
 20
-124.8723089965597
 10
105.1077961976814
 20
-124.9084824991548
 10
106.1220323085389
 20
-124.9846191093789
 10
106.4486273605406
 20
-123.304790550771
 10
107.6209933541711
 20
-123.1921359284034
 10
107.6209933541711
 20
-123.1921359284034
 10
107.6209933541711
 20
-123.7230251426804
 10
107.6209933541711
 20
-123.7230251426804
 10
107.1369574384935
 20
-123.7750460845076
 10
107.005354790957
 20
-124.3069688274302
 10
107.2354871693717
 20
-124.6483777900185
 10
106.7107991269681
 20
-125.0710910060586
 10
106.2736165098899
 20
-125.6526231239688
 10
106.047273736509
 20
-126.2179632930983
 10
105.0506076126262
 20
-125.8283229937165
 10
104.0418836545451
 20
-125.7683783322732
 10
103.1385796183126
 20
-125.9161729285904
 10
103.1385796183126
 20
-125.9161729285904
 10
95.92317163400533
 20
-116.6058023797027
 10
95.92317163400533
 20
-116.6058023797027
 10
95.39400496747095
 20
-115.9884412687459
 10
95.04122718978137
 20
-114.66552460241
 10
95.04122718978137
 20
-113.2544134916517
 10
95.04122718978137
 20
-112.3724690474277
 10
96.27594941169491
 20
-111.8433023808933
 10
97.42247718918605
 20
-111.8433023808933
 10
97.42247718918605
 20
-111.8433023808933
 10
97.42247718918605
 20
-108.8446912705319
 10
97.42247718918605
 20
-108.8446912705319
 10
97.42247718918605
 20
-108.8446912705319
 10
76.69678274992303
 20
-108.8446912705319
 10
76.69678274992303
 20
-108.8446912705319
 10
76.69678274992303
 20
-108.8446912705319
 10
76.69678274992303
 20
-111.8433023808933
 10
76.69678274992303
 20
-111.8433023808933
 10
76.69678274992303
 20
-111.8433023808933
 10
77.84331052741418
 20
-111.8433023808933
 10
77.84331052741418
 20
-111.8433023808933
 10
80.0154432308642
 20
-111.8433023808933
 10
82.23546276155919
 20
-113.273017007272
 10
84.25084362043035
 20
-115.1407755246002
 10
81.23810761857936
 20
-113.9498060153494
 10
78.28910588320551
 20
-114.2378159979162
 10
76.90211044084393
 20
-115.3121690249914
 10
77.01614310140569
 20
-115.5378227792753
 10
77.4147406490491
 20
-115.6580566117105
 10
77.51120332263609
 20
-115.9515787470538
 10
76.37466632205216
 20
-116.2840304613804
 10
75.6911593777786
 20
-116.9127603874385
 10
75.05863984668673
 20
-117.8470702830382
 10
74.55462237719468
 20
-118.4668429608347
 10
74.51603730775989
 20
-119.6581569796341
 10
73.54520940001647
 20
-119.8831217148209
 10
73.2103461188502
 20
-119.9613253823361
 10
73.31817760753852
 20
-120.2269422442488
 10
73.6957600727219
 20
-120.1087754691048
 97
        0
 92
        1
 93
        1
 72
     4
 94
        3
 73
     0
 74
     1
 95
       14
 96
       10
 40
0.0
 40
0.0
 40
0.0
 40
0.0
 40
1.0
 40
1.0
 40
1.0
 40
2.0
 40
2.0
 40
2.0
 40
3.0
 40
3.0
 40
3.0
 40
3.0
 10
138.9000487934
 20
-118.3097466067073
 10
138.9313991623158
 20
-118.3393744278804
 10
138.9234754426997
 20
-118.3441975615598
 10
138.8814452777796
 20
-118.3245605172939
 10
136.6149169580338
 20
-117.2507242545415
 10
133.825423143627
 20
-116.1451931133248
 10
131.2243760522634
 20
-116.422867809436
 10
133.5884005742418
 20
-115.5298990596592
 10
137.0100694101919
 20
-116.4890136427528
 10
138.9000487934
 20
-118.3097466067073
 97
        0
 92
        1
 93
        1
 72
     4
 94
        3
 73
     0
 74
     1
 95
       14
 96
       10
 40
0.0
 40
0.0
 40
0.0
 40
0.0
 40
1.0
 40
1.0
 40
1.0
 40
2.0
 40
2.0
 40
2.0
 40
3.0
 40
3.0
 40
3.0
 40
3.0
 10
134.0214490767377
 20
-120.9352538760162
 10
133.9487575619989
 20
-121.0396402692193
 10
133.9432454092225
 20
-120.9669487544805
 10
133.9577148102606
 20
-120.8863335201256
 10
134.2195420671396
 20
-119.4180338243122
 10
132.2172525711124
 20
-117.1987033127142
 10
130.1591525282241
 20
-117.2955104958497
 10
132.0587781787909
 20
-116.4449164205416
 10
135.3130153741579
 20
-119.0762803521754
 10
134.0214490767377
 20
-120.9352538760162
 97
        0
 92
        1
 93
        1
 72
     4
 94
        3
 73
     0
 74
     1
 95
       14
 96
       10
 40
0.0
 40
0.0
 40
0.0
 40
0.0
 40
1.0
 40
1.0
 40
1.0
 40
2.0
 40
2.0
 40
2.0
 40
3.0
 40
3.0
 40
3.0
 40
3.0
 10
131.0204263995366
 20
-132.0687689556981
 10
131.1568521807525
 20
-132.1216511713967
 10
131.2946560001625
 20
-132.1652316292851
 10
131.432804329121
 20
-132.2041612082684
 10
131.432804329121
 20
-132.2041612082684
 10
117.0953504481567
 20
-132.2041612082684
 10
117.0953504481567
 20
-132.2041612082684
 10
120.1545952390586
 20
-127.727087370412
 10
130.0433973199197
 20
-131.6891194332236
 10
131.0204263995366
 20
-132.0687689556981
 97
        0
 92
        1
 93
        1
 72
     4
 94
        3
 73
     0
 74
     1
 95
       11
 96
        7
 40
0.0
 40
0.0
 40
0.0
 40
0.0
 40
1.0
 40
1.0
 40
1.0
 40
2.0
 40
2.0
 40
2.0
 40
2.0
 10
107.1858777943841
 20
-131.1385931746806
 10
107.1858777943841
 20
-131.1385931746806
 10
103.9702256684519
 20
-126.9889756626972
 10
103.9702256684519
 20
-126.9889756626972
 10
105.4216443963876
 20
-127.5999633470063
 10
106.8213866920447
 20
-128.8586289825423
 10
107.1858777943841
 20
-131.1385931746806
 97
        0
 92
        1
 93
        1
 72
     4
 94
        3
 73
     0
 74
     1
 95
       17
 96
       13
 40
0.0
 40
0.0
 40
0.0
 40
0.0
 40
1.0
 40
1.0
 40
1.0
 40
2.0
 40
2.0
 40
2.0
 40
3.0
 40
3.0
 40
3.0
 40
4.0
 40
4.0
 40
4.0
 40
4.0
 10
97.05936412504072
 20
-130.8529947589534
 10
97.05936412504072
 20
-130.8529947589534
 10
98.11287432443012
 20
-132.2041612082684
 10
98.11287432443012
 20
-132.2041612082684
 10
98.11287432443012
 20
-132.2041612082684
 10
84.22603893293655
 20
-132.2041612082684
 10
84.22603893293655
 20
-132.2041612082684
 10
84.36418726189507
 20
-132.1652316292851
 10
84.50199108130506
 20
-132.1216511713967
 10
84.63841686252096
 20
-132.0687689556981
 10
85.48797740918357
 20
-131.7387288082112
 10
93.08200138731978
 20
-128.6960204756385
 10
97.05936412504072
 20
-130.8529947589534
 97
        0
 92
        1
 93
        1
 72
     4
 94
        3
 73
     0
 74
     1
 95
       14
 96
       10
 40
0.0
 40
0.0
 40
0.0
 40
0.0
 40
1.0
 40
1.0
 40
1.0
 40
2.0
 40
2.0
 40
2.0
 40
3.0
 40
3.0
 40
3.0
 40
3.0
 10
85.35706378074407
 20
-117.2955104958497
 10
83.29861922830729
 20
-117.1987033127142
 10
81.29632973228009
 20
-119.4180338243122
 10
81.5585014987076
 20
-120.8863335201256
 10
81.57297089974566
 20
-120.9669487544805
 10
81.56711423742072
 20
-121.0396402692193
 10
81.49476723223047
 20
-120.9352538760162
 10
80.20285642526179
 20
-119.0762803521754
 10
83.45743813017731
 20
-116.4449164205416
 10
85.35706378074407
 20
-117.2955104958497
 97
        0
 92
        1
 93
        1
 72
     4
 94
        3
 73
     0
 74
     1
 95
       14
 96
       10
 40
0.0
 40
0.0
 40
0.0
 40
0.0
 40
1.0
 40
1.0
 40
1.0
 40
2.0
 40
2.0
 40
2.0
 40
3.0
 40
3.0
 40
3.0
 40
3.0
 10
76.61616751556818
 20
-118.3097466067073
 10
78.50614689877625
 20
-116.4890136427528
 10
81.92781573472638
 20
-115.5298990596592
 10
84.29184025670482
 20
-116.422867809436
 10
81.69079316534119
 20
-116.1451931133248
 10
78.9012993509344
 20
-117.2507242545415
 10
76.63477103118854
 20
-118.3245605172939
 10
76.59274086626849
 20
-118.3441975615598
 10
76.58481714665241
 20
-118.3393744278804
 10
76.61616751556818
 20
-118.3097466067073
 97
        0
 75
     2
 76
     1
 98
        0
  0
SPLINE
  5
49
330
3C
100
AcDbEntity
  8
Layer 1
370
     0
100
AcDbSpline
210
0.0
220
0.0
230
1.0
 70
    11
 71
     3
 72
   344
 73
   340
 74
     0
 42
0.0000000001
 43
0.0000000001
 40
0.0
 40
0.0
 40
0.0
 40
0.0
 40
1.0
 40
1.0
 40
1.0
 40
2.0
 40
2.0
 40
2.0
 40
3.0
 40
3.0
 40
3.0
 40
4.0
 40
4.0
 40
4.0
 40
5.0
 40
5.0
 40
5.0
 40
6.0
 40
6.0
 40
6.0
 40
7.0
 40
7.0
 40
7.0
 40
8.0
 40
8.0
 40
8.0
 40
9.0
 40
9.0
 40
9.0
 40
10.0
 40
10.0
 40
10.0
 40
11.0
 40
11.0
 40
11.0
 40
12.0
 40
12.0
 40
12.0
 40
13.0
 40
13.0
 40
13.0
 40
14.0
 40
14.0
 40
14.0
 40
15.0
 40
15.0
 40
15.0
 40
16.0
 40
16.0
 40
16.0
 40
17.0
 40
17.0
 40
17.0
 40
18.0
 40
18.0
 40
18.0
 40
19.0
 40
19.0
 40
19.0
 40
20.0
 40
20.0
 40
20.0
 40
21.0
 40
21.0
 40
21.0
 40
22.0
 40
22.0
 40
22.0
 40
23.0
 40
23.0
 40
23.0
 40
24.0
 40
24.0
 40
24.0
 40
25.0
 40
25.0
 40
25.0
 40
26.0
 40
26.0
 40
26.0
 40
27.0
 40
27.0
 40
27.0
 40
28.0
 40
28.0
 40
28.0
 40
29.0
 40
29.0
 40
29.0
 40
30.0
 40
30.0
 40
30.0
 40
31.0
 40
31.0
 40
31.0
 40
32.0
 40
32.0
 40
32.0
 40
33.0
 40
33.0
 40
33.0
 40
34.0
 40
34.0
 40
34.0
 40
35.0
 40
35.0
 40
35.0
 40
36.0
 40
36.0
 40
36.0
 40
37.0
 40
37.0
 40
37.0
 40
38.0
 40
38.0
 40
38.0
 40
39.0
 40
39.0
 40
39.0
 40
40.0
 40
40.0
 40
40.0
 40
41.0
 40
41.0
 40
41.0
 40
42.0
 40
42.0
 40
42.0
 40
43.0
 40
43.0
 40
43.0
 40
44.0
 40
44.0
 40
44.0
 40
45.0
 40
45.0
 40
45.0
 40
46.0
 40
46.0
 40
46.0
 40
47.0
 40
47.0
 40
47.0
 40
48.0
 40
48.0
 40
48.0
 40
49.0
 40
49.0
 40
49.0
 40
50.0
 40
50.0
 40
50.0
 40
51.0
 40
51.0
 40
51.0
 40
52.0
 40
52.0
 40
52.0
 40
53.0
 40
53.0
 40
53.0
 40
54.0
 40
54.0
 40
54.0
 40
55.0
 40
55.0
 40
55.0
 40
56.0
 40
56.0
 40
56.0
 40
57.0
 40
57.0
 40
57.0
 40
58.0
 40
58.0
 40
58.0
 40
59.0
 40
59.0
 40
59.0
 40
60.0
 40
60.0
 40
60.0
 40
61.0
 40
61.0
 40
61.0
 40
62.0
 40
62.0
 40
62.0
 40
63.0
 40
63.0
 40
63.0
 40
64.0
 40
64.0
 40
64.0
 40
65.0
 40
65.0
 40
65.0
 40
66.0
 40
66.0
 40
66.0
 40
67.0
 40
67.0
 40
67.0
 40
68.0
 40
68.0
 40
68.0
 40
69.0
 40
69.0
 40
69.0
 40
70.0
 40
70.0
 40
70.0
 40
71.0
 40
71.0
 40
71.0
 40
72.0
 40
72.0
 40
72.0
 40
73.0
 40
73.0
 40
73.0
 40
74.0
 40
74.0
 40
74.0
 40
75.0
 40
75.0
 40
75.0
 40
76.0
 40
76.0
 40
76.0
 40
77.0
 40
77.0
 40
77.0
 40
78.0
 40
78.0
 40
78.0
 40
79.0
 40
79.0
 40
79.0
 40
80.0
 40
80.0
 40
80.0
 40
81.0
 40
81.0
 40
81.0
 40
82.0
 40
82.0
 40
82.0
 40
83.0
 40
83.0
 40
83.0
 40
84.0
 40
84.0
 40
84.0
 40
85.0
 40
85.0
 40
85.0
 40
86.0
 40
86.0
 40
86.0
 40
87.0
 40
87.0
 40
87.0
 40
88.0
 40
88.0
 40
88.0
 40
89.0
 40
89.0
 40
89.0
 40
90.0
 40
90.0
 40
90.0
 40
91.0
 40
91.0
 40
91.0
 40
92.0
 40
92.0
 40
92.0
 40
93.0
 40
93.0
 40
93.0
 40
94.0
 40
94.0
 40
94.0
 40
95.0
 40
95.0
 40
95.0
 40
96.0
 40
96.0
 40
96.0
 40
97.0
 40
97.0
 40
97.0
 40
98.0
 40
98.0
 40
98.0
 40
99.0
 40
99.0
 40
99.0
 40
100.0
 40
100.0
 40
100.0
 40
101.0
 40
101.0
 40
101.0
 40
102.0
 40
102.0
 40
102.0
 40
103.0
 40
103.0
 40
103.0
 40
104.0
 40
104.0
 40
104.0
 40
105.0
 40
105.0
 40
105.0
 40
106.0
 40
106.0
 40
106.0
 40
107.0
 40
107.0
 40
107.0
 40
108.0
 40
108.0
 40
108.0
 40
109.0
 40
109.0
 40
109.0
 40
110.0
 40
110.0
 40
110.0
 40
111.0
 40
111.0
 40
111.0
 40
112.0
 40
112.0
 40
112.0
 40
113.0
 40
113.0
 40
113.0
 40
113.0
 10
142.3055256805694
 20
-157.0243516317509
 30
0.0
 10
141.0222276123139
 20
-157.4291503512677
 30
0.0
 10
139.8908582549578
 20
-156.9144530857714
 30
0.0
 10
138.7705132031546
 20
-157.7512667791386
 30
0.0
 10
139.706545646497
 20
-156.2333577083375
 30
0.0
 10
140.0482991186338
 20
-152.7093695364754
 30
0.0
 10
136.9115396793138
 20
-150.9944010039181
 30
0.0
 10
135.6123941718261
 20
-150.2843668244081
 30
0.0
 10
133.6821071714406
 20
-150.4617892418985
 30
0.0
 10
133.1594861863282
 20
-151.7568006348039
 30
0.0
 10
132.4783908088943
 20
-153.4483425180615
 30
0.0
 10
135.8187553913925
 20
-154.5194227044257
 30
0.0
 10
136.0171928913429
 20
-152.6769856389141
 30
0.0
 10
136.0351073878662
 20
-152.5061089028457
 30
0.0
 10
136.0199489677311
 20
-152.3297200140009
 30
0.0
 10
135.9930772229462
 20
-152.1602213161266
 30
0.0
 10
138.5534721875838
 20
-153.0562906518401
 30
0.0
 10
138.4011989671358
 20
-155.8223578169472
 30
0.0
 10
137.6501681513514
 20
-156.605083511196
 30
0.0
 10
137.6501681513514
 20
-156.605083511196
 30
0.0
 10
137.5512939109247
 20
-155.1674451652012
 30
0.0
 10
136.707590026587
 20
-154.530791519527
 30
0.0
 10
136.4716009858474
 20
-154.5986599005865
 30
0.0
 10
136.3320746186948
 20
-154.8181124829969
 30
0.0
 10
136.2087402003228
 20
-155.0337754603735
 30
0.0
 10
135.2895887248582
 20
-154.192138633327
 30
0.0
 10
134.5547498578544
 20
-153.5675428218512
 30
0.0
 10
133.0544107740281
 20
-153.9754421273047
 30
0.0
 10
132.7626111864274
 20
-154.054334813917
 30
0.0
 10
132.76433373417
 20
-154.179047270483
 30
0.0
 10
132.9028265726771
 20
-154.3099608989225
 30
0.0
 10
133.1067762254039
 20
-154.4994411506113
 30
0.0
 10
133.2432020066198
 20
-154.6765190585531
 30
0.0
 10
133.3734266159622
 20
-154.9169867234235
 30
0.0
 10
134.6367431304033
 20
-157.2748100735285
 30
0.0
 10
132.5269666552363
 20
-158.798231297106
 30
0.0
 10
130.4940158093904
 20
-158.7610242658653
 30
0.0
 10
129.1363036786534
 20
-158.590836548894
 30
0.0
 10
128.1268907014752
 20
-157.8015651732232
 30
0.0
 10
127.234955480344
 20
-156.8696668444632
 30
0.0
 10
127.234955480344
 20
-156.8696668444632
 30
0.0
 10
122.0717908766001
 20
-150.2168429528972
 30
0.0
 10
122.0717908766001
 20
-150.2168429528972
 30
0.0
 10
123.4343261410164
 20
-150.0669812992888
 30
0.0
 10
124.7737792656816
 20
-149.6942219677848
 30
0.0
 10
125.9030815657465
 20
-149.2797769809092
 30
0.0
 10
128.4049099071349
 20
-148.360280995896
 30
0.0
 10
130.7933946070586
 20
-146.3855522637508
 30
0.0
 10
132.1049424582932
 20
-146.3359428887632
 30
0.0
 10
131.9678276579803
 20
-146.566764286275
 30
0.0
 10
131.8796332135579
 20
-146.8564968165845
 30
0.0
 10
131.8703314557477
 20
-147.1724120725819
 30
0.0
 10
131.8458712778024
 20
-147.9675401105776
 30
0.0
 10
132.6055148323
 20
-148.5952365079901
 30
0.0
 10
133.2032388989909
 20
-148.6172851190957
 30
0.0
 10
133.8054415898125
 20
-148.6393337302013
 30
0.0
 10
134.625374315302
 20
-148.0298963388606
 30
0.0
 10
134.6494899836987
 20
-147.2351128104135
 30
0.0
 10
134.6715385948043
 20
-146.5171549112874
 30
0.0
 10
134.2415906782452
 20
-146.0424207534199
 30
0.0
 10
133.6021809561828
 20
-145.8102213177141
 30
0.0
 10
133.6021809561828
 20
-145.8102213177141
 30
0.0
 10
142.2838215790124
 20
-145.8102213177141
 30
0.0
 10
142.2838215790124
 20
-145.8102213177141
 30
0.0
 10
142.2838215790124
 20
-145.8102213177141
 30
0.0
 10
142.2838215790124
 20
-144.1986056497142
 30
0.0
 10
142.2838215790124
 20
-144.1986056497142
 30
0.0
 10
142.2838215790124
 20
-144.1986056497142
 30
0.0
 10
73.37502168304513
 20
-144.1986056497142
 30
0.0
 10
73.37502168304513
 20
-144.1986056497142
 30
0.0
 10
73.37502168304513
 20
-144.1986056497142
 30
0.0
 10
73.37502168304513
 20
-145.8102213177141
 30
0.0
 10
73.37502168304513
 20
-145.8102213177141
 30
0.0
 10
73.37502168304513
 20
-145.8102213177141
 30
0.0
 10
82.05666230587472
 20
-145.8102213177141
 30
0.0
 10
82.05666230587472
 20
-145.8102213177141
 30
0.0
 10
81.41725258381236
 20
-146.0424207534199
 30
0.0
 10
80.98730466725318
 20
-146.5171549112874
 30
0.0
 10
81.00935327835877
 20
-147.2351128104135
 30
0.0
 10
81.03346894675552
 20
-148.0298963388606
 30
0.0
 10
81.85340167224498
 20
-148.6393337302013
 30
0.0
 10
82.45560436306666
 20
-148.6172851190957
 30
0.0
 10
83.05298392020897
 20
-148.5952365079901
 30
0.0
 10
83.81262747470657
 20
-147.9675401105776
 30
0.0
 10
83.7881672967613
 20
-147.1724120725819
 30
0.0
 10
83.77921004849965
 20
-146.8564968165845
 30
0.0
 10
83.69101560407725
 20
-146.566764286275
 30
0.0
 10
83.55390080376431
 20
-146.3359428887632
 30
0.0
 10
84.86510414545039
 20
-146.3855522637508
 30
0.0
 10
87.25393335492264
 20
-148.360280995896
 30
0.0
 10
89.75541718676254
 20
-149.2797769809092
 30
0.0
 10
91.1586045779048
 20
-149.7944742464055
 30
0.0
 10
92.88563094466055
 20
-150.2461262645218
 30
0.0
 10
94.57923988520936
 20
-150.2822997671169
 30
0.0
 10
94.57923988520936
 20
-150.2822997671169
 30
0.0
 10
87.9264159936434
 20
-157.6551486151001
 30
0.0
 10
87.9264159936434
 20
-157.6551486151001
 30
0.0
 10
87.23774140614196
 20
-158.2180772173899
 30
0.0
 10
86.45811629782992
 20
-158.6418239620757
 30
0.0
 10
85.50726994390097
 20
-158.7610242658653
 30
0.0
 10
83.47431909805503
 20
-158.798231297106
 30
0.0
 10
81.36454262288804
 20
-157.2748100735285
 30
0.0
 10
82.62785913732915
 20
-154.9169867234235
 30
0.0
 10
82.75808374667159
 20
-154.6765190585531
 30
0.0
 10
82.8945095278875
 20
-154.4994411506113
 30
0.0
 10
83.09845918061428
 20
-154.3099608989225
 30
0.0
 10
83.23695201912132
 20
-154.179047270483
 30
0.0
 10
83.23867456686395
 20
-154.054334813917
 30
0.0
 10
82.94687497926328
 20
-153.9754421273047
 30
0.0
 10
81.44653589543698
 20
-153.5675428218512
 30
0.0
 10
80.71169702843319
 20
-154.192138633327
 30
0.0
 10
79.79254555296853
 20
-155.0337754603735
 30
0.0
 10
79.6692111345966
 20
-154.8181124829969
 30
0.0
 10
79.52968476744397
 20
-154.5986599005865
 30
0.0
 10
79.29335121715583
 20
-154.530791519527
 30
0.0
 10
78.44999184236667
 20
-155.1674451652012
 30
0.0
 10
78.35111760194
 20
-156.605083511196
 30
0.0
 10
78.35111760194
 20
-156.605083511196
 30
0.0
 10
77.59974227660702
 20
-155.8223578169472
 30
0.0
 10
77.44781356570749
 20
-153.0562906518401
 30
0.0
 10
80.00786402079665
 20
-152.1602213161266
 30
0.0
 10
79.98133678556023
 20
-152.3297200140009
 30
0.0
 10
79.96617836542512
 20
-152.5061089028457
 30
0.0
 10
79.98409286194843
 20
-152.6769856389141
 30
0.0
 10
80.18253036189881
 20
-154.5194227044257
 30
0.0
 10
83.52289494439705
 20
-153.4483425180615
 30
0.0
 10
82.84179956696316
 20
-151.7568006348039
 30
0.0
 10
82.31917858185076
 20
-150.4617892418985
 30
0.0
 10
80.38889158146529
 20
-150.2843668244081
 30
0.0
 10
79.08974607397757
 20
-150.9944010039181
 30
0.0
 10
75.95298663465759
 20
-152.7093695364754
 30
0.0
 10
76.29474010679438
 20
-156.2333577083375
 30
0.0
 10
77.23042804058824
 20
-157.7512667791386
 30
0.0
 10
76.11008298878498
 20
-156.9144530857714
 30
0.0
 10
74.97905814097746
 20
-157.4291503512677
 30
0.0
 10
73.6957600727219
 20
-157.0243516317509
 30
0.0
 10
73.31817760753852
 20
-156.9061848566068
 30
0.0
 10
73.2103461188502
 20
-157.1718017185196
 30
0.0
 10
73.54520940001647
 20
-157.2500053860347
 30
0.0
 10
74.51603730775989
 20
-157.4749701212215
 30
0.0
 10
74.55462237719468
 20
-158.6662841400209
 30
0.0
 10
75.05863984668673
 20
-159.2860568178174
 30
0.0
 10
75.6911593777786
 20
-160.2203667134171
 30
0.0
 10
76.37466632205216
 20
-160.8490966394752
 30
0.0
 10
77.51120332263609
 20
-161.1815483538018
 30
0.0
 10
77.4147406490491
 20
-161.4750704891451
 30
0.0
 10
77.01614310140569
 20
-161.5953043215804
 30
0.0
 10
76.90211044084393
 20
-161.8209580758642
 30
0.0
 10
78.2326063172474
 20
-162.851730645051
 30
0.0
 10
81.00039603009712
 20
-163.1638562960146
 30
0.0
 10
83.88290742260567
 20
-162.1361843127646
 30
0.0
 10
83.88290742260567
 20
-162.1361843127646
 30
0.0
 10
83.6641438592923
 20
-162.3787190349261
 30
0.0
 10
83.6641438592923
 20
-162.3787190349261
 30
0.0
 10
81.10650497104282
 20
-165.2009412564428
 30
0.0
 10
77.57872719414699
 20
-167.3176079225803
 30
0.0
 10
74.13914386167355
 20
-167.5821912558475
 30
0.0
 10
74.13914386167355
 20
-167.5821912558475
 30
0.0
 10
74.13914386167355
 20
-170.580802366209
 30
0.0
 10
74.13914386167355
 20
-170.580802366209
 30
0.0
 10
74.13914386167355
 20
-170.580802366209
 30
0.0
 10
90.71969941308397
 20
-170.580802366209
 30
0.0
 10
90.71969941308397
 20
-170.580802366209
 30
0.0
 10
90.71969941308397
 20
-170.580802366209
 30
0.0
 10
90.71969941308397
 20
-167.5821912558475
 30
0.0
 10
90.71969941308397
 20
-167.5821912558475
 30
0.0
 10
90.71969941308397
 20
-167.5821912558475
 30
0.0
 10
90.1023383021272
 20
-167.5821912558475
 30
0.0
 10
90.1023383021272
 20
-167.5821912558475
 30
0.0
 10
88.69122719136887
 20
-167.5821912558475
 30
0.0
 10
87.36831052503292
 20
-166.9648301448908
 30
0.0
 10
87.36831052503292
 20
-165.46552458971
 30
0.0
 10
87.36831052503292
 20
-164.8481634787532
 30
0.0
 10
87.63289385830011
 20
-163.7898301456845
 30
0.0
 10
88.86761608021365
 20
-162.3787190349261
 30
0.0
 10
88.86761608021365
 20
-162.3787190349261
 30
0.0
 10
88.88449704809138
 20
-162.3597710097573
 30
0.0
 10
88.88449704809138
 20
-162.3597710097573
 30
0.0
 10
88.96959090657705
 20
-163.4222384574083
 30
0.0
 10
89.80123695671637
 20
-164.3296766082231
 30
0.0
 10
91.43145614033658
 20
-164.5095105925532
 30
0.0
 10
93.08269040641683
 20
-164.6914116341744
 30
0.0
 10
93.83268769355573
 20
-165.1351399326745
 30
0.0
 10
94.05110674732056
 20
-165.9033962258853
 30
0.0
 10
94.15170353548986
 20
-166.2596190990601
 30
0.0
 10
93.99047306678017
 20
-166.6582166467035
 30
0.0
 10
93.33935002006794
 20
-167.0726616335791
 30
0.0
 10
93.55466848789607
 20
-168.2774115247709
 30
0.0
 10
96.22427297941616
 20
-167.016851086718
 30
0.0
 10
96.02962508449954
 20
-165.5092773023727
 30
0.0
 10
95.9889729577736
 20
-164.9139648025215
 30
0.0
 10
95.55282386934097
 20
-164.4120143903206
 30
0.0
 10
95.05225149533416
 20
-164.1667235917708
 30
0.0
 10
97.21577146007107
 20
-163.3361110702771
 30
0.0
 10
98.7233452444164
 20
-161.005159464957
 30
0.0
 10
98.52111813943222
 20
-158.8733343786845
 30
0.0
 10
98.43189016636425
 20
-157.943158597667
 30
0.0
 10
98.26308048758702
 20
-156.998168906063
 30
0.0
 10
98.5442002791834
 20
-156.1682454036663
 30
0.0
 10
98.61930336076185
 20
-155.9470702735132
 30
0.0
 10
98.4863226750312
 20
-156.0173502214123
 30
0.0
 10
98.41259763164686
 20
-156.0559352908471
 30
0.0
 10
97.30603296178461
 20
-156.6447021092763
 30
0.0
 10
96.96048988461405
 20
-157.5759114189394
 30
0.0
 10
96.72381182477739
 20
-158.2797444265759
 30
0.0
 10
96.02928057495102
 20
-160.3471462272743
 30
0.0
 10
96.34554034049695
 20
-161.515033596774
 30
0.0
 10
95.07740069237649
 20
-162.6643174506534
 30
0.0
 10
95.03433699881086
 20
-162.7032470296367
 30
0.0
 10
95.02365720280659
 20
-162.6967013482147
 30
0.0
 10
95.05569659081941
 20
-162.6508815782609
 30
0.0
 10
95.69855140836704
 20
-161.7131265871759
 30
0.0
 10
96.17121850894331
 20
-159.466235311696
 30
0.0
 10
95.31132267582495
 20
-157.7450656072651
 30
0.0
 10
95.1218424241362
 20
-157.364382556145
 30
0.0
 10
95.04191620887842
 20
-157.5190673434327
 30
0.0
 10
95.03709307519907
 20
-157.8243028034259
 30
0.0
 10
95.03261445106824
 20
-158.1543429509128
 30
0.0
 10
94.72358938604133
 20
-158.5984157589615
 30
0.0
 10
94.2557454191444
 20
-159.1303385018841
 30
0.0
 10
93.34417315374729
 20
-160.1673122429443
 30
0.0
 10
93.49127873096747
 20
-160.59105898763
 30
0.0
 10
92.81982962089226
 20
-161.9677191435358
 30
0.0
 10
92.32821449514712
 20
-162.9702419297436
 30
0.0
 10
91.73600258123267
 20
-163.6168863523249
 30
0.0
 10
90.73968096689842
 20
-163.376763197003
 30
0.0
 10
90.05858558946453
 20
-163.0949543863096
 30
0.0
 10
89.36233179189553
 20
-162.2743326417231
 30
0.0
 10
90.32523598002287
 20
-160.72886280704
 30
0.0
 10
90.32523598002287
 20
-160.72886280704
 30
0.0
 10
103.5044487588461
 20
-145.8102213177141
 30
0.0
 10
103.5044487588461
 20
-145.8102213177141
 30
0.0
 10
103.5044487588461
 20
-145.8102213177141
 30
0.0
 10
107.2251518829159
 20
-145.8102213177141
 30
0.0
 10
107.2251518829159
 20
-145.8102213177141
 30
0.0
 10
106.7996825904876
 20
-149.3769286735933
 30
0.0
 10
103.9095919879115
 20
-150.5761664120087
 30
0.0
 10
101.9906738026273
 20
-150.7077690595453
 30
0.0
 10
101.6695909034021
 20
-150.7298176706509
 30
0.0
 10
101.6258381907394
 20
-150.8345485734025
 30
0.0
 10
101.9524332427411
 20
-150.9709743546184
 30
0.0
 10
103.0903482815191
 20
-151.4450194933887
 30
0.0
 10
104.5848307030205
 20
-151.5717990072459
 30
0.0
 10
106.047273736509
 20
-150.9999131566945
 30
0.0
 10
106.2736165098899
 20
-151.5649088162754
 30
0.0
 10
106.7107991269681
 20
-152.1467854437341
 30
0.0
 10
107.2354871693717
 20
-152.5694986597743
 30
0.0
 10
107.005354790957
 20
-152.910563112814
 30
0.0
 10
107.1369574384935
 20
-153.4428303652851
 30
0.0
 10
107.6209933541711
 20
-153.4948513071124
 30
0.0
 10
107.6209933541711
 20
-153.4948513071124
 30
0.0
 10
107.6209933541711
 20
-154.0253960118409
 30
0.0
 10
107.6209933541711
 20
-154.0253960118409
 30
0.0
 10
106.4486273605406
 20
-153.9130858990217
 30
0.0
 10
106.1220323085389
 20
-152.2332573404139
 30
0.0
 10
105.1077961976814
 20
-152.3090494410894
 30
0.0
 10
104.3230034461415
 20
-152.3455674532331
 30
0.0
 10
103.8317328299449
 20
-153.5551404781043
 30
0.0
 10
102.6597113458629
 20
-154.3154730516989
 30
0.0
 10
103.7545626910753
 20
-154.9190537807147
 30
0.0
 10
104.0866698958533
 20
-156.4314506987394
 30
0.0
 10
105.0650770136643
 20
-156.4314506987394
 30
0.0
 10
106.0841362582012
 20
-156.3949326865957
 30
0.0
 10
106.2777506244722
 20
-155.2201551261255
 30
0.0
 10
107.4518391658454
 20
-154.8039875915073
 30
0.0
 10
107.4938693307654
 20
-155.5253905861186
 30
0.0
 10
105.6173258199498
 20
-156.3556585980639
 30
0.0
 10
105.6173258199498
 20
-157.377473918989
 30
0.0
 10
105.6173258199498
 20
-158.1726019569846
 30
0.0
 10
106.9833061798514
 20
-158.8175238318234
 30
0.0
 10
107.7667208931972
 20
-159.4586561016284
 30
0.0
 10
108.467453314897
 20
-158.7413872215994
 30
0.0
 10
109.9960421817024
 20
-158.3634602468675
 30
0.0
 10
109.9960421817024
 20
-157.419504083909
 30
0.0
 10
109.9960421817024
 20
-156.3556585980639
 30
0.0
 10
108.467453314897
 20
-155.9773871137834
 30
0.0
 10
108.1194986708868
 20
-154.8787461635373
 30
0.0
 10
109.2908311358717
 20
-155.295947226801
 30
0.0
 10
109.680126925705
 20
-156.5465168879467
 30
0.0
 10
110.8163194167404
 20
-156.5079318185119
 30
0.0
 10
111.7940375154543
 20
-156.4717583159168
 30
0.0
 10
112.1040961091268
 20
-155.14436302545
 30
0.0
 10
113.0456407052455
 20
-154.4674017625984
 30
0.0
 10
112.0245144034175
 20
-153.7856173660675
 30
0.0
 10
111.7154893383906
 20
-152.4585665851492
 30
0.0
 10
110.6220160313723
 20
-152.3820854653767
 30
0.0
 10
109.6015787486413
 20
-152.3090494410894
 30
0.0
 10
109.1457926159427
 20
-153.68226450151
 30
0.0
 10
108.0888373210681
 20
-154.1004990934193
 30
0.0
 10
108.0888373210681
 20
-154.1004990934193
 30
0.0
 10
108.0888373210681
 20
-153.4948513071124
 30
0.0
 10
108.0888373210681
 20
-153.4948513071124
 30
0.0
 10
108.5239528808551
 20
-153.3463676916981
 30
0.0
 10
108.6548665092946
 20
-152.8630207951176
 30
0.0
 10
108.4357584364327
 20
-152.5536512205422
 30
0.0
 10
108.9552788356084
 20
-152.1312825140505
 30
0.0
 10
109.3866047903617
 20
-151.5538845107226
 30
0.0
 10
109.6122585446456
 20
-150.993711984821
 30
0.0
 10
110.7429388829046
 20
-151.4360622451271
 30
0.0
 10
111.8915337176868
 20
-151.4574218371357
 30
0.0
 10
112.8816541601476
 20
-151.2259114205269
 30
0.0
 10
112.8816541601476
 20
-151.2259114205269
 30
0.0
 10
121.2349771832329
 20
-161.9377468128142
 30
0.0
 10
121.2349771832329
 20
-161.9377468128142
 30
0.0
 10
122.7342827384137
 20
-163.8780245901069
 30
0.0
 10
122.9988660716809
 20
-165.024552367598
 30
0.0
 10
122.9988660716809
 20
-165.6419134785548
 30
0.0
 10
122.9988660716809
 20
-166.6120523672012
 30
0.0
 10
122.2933105163017
 20
-167.5821912558475
 30
0.0
 10
120.9703938499657
 20
-167.5821912558475
 30
0.0
 10
120.9703938499657
 20
-167.5821912558475
 30
0.0
 10
120.0884494057418
 20
-167.5821912558475
 30
0.0
 10
120.0884494057418
 20
-167.5821912558475
 30
0.0
 10
120.0884494057418
 20
-167.5821912558475
 30
0.0
 10
120.0884494057418
 20
-170.580802366209
 30
0.0
 10
120.0884494057418
 20
-170.580802366209
 30
0.0
 10
120.0884494057418
 20
-170.580802366209
 30
0.0
 10
141.519699400384
 20
-170.580802366209
 30
0.0
 10
141.519699400384
 20
-170.580802366209
 30
0.0
 10
141.519699400384
 20
-170.580802366209
 30
0.0
 10
141.519699400384
 20
-167.5821912558475
 30
0.0
 10
141.519699400384
 20
-167.5821912558475
 30
0.0
 10
139.7134358374675
 20
-167.3465467246564
 30
0.0
 10
135.5989582994336
 20
-166.478038152825
 30
0.0
 10
131.1695990340479
 20
-161.7451659751887
 30
0.0
 10
134.3780164594611
 20
-163.2193223333271
 30
0.0
 10
137.6229518970179
 20
-162.9643852674186
 30
0.0
 10
139.0991753124474
 20
-161.8209580758642
 30
0.0
 10
138.9847981423371
 20
-161.5953043215804
 30
0.0
 10
138.5865451042422
 20
-161.4750704891451
 30
0.0
 10
138.4900824306553
 20
-161.1815483538018
 30
0.0
 10
139.6262749216907
 20
-160.8490966394752
 30
0.0
 10
140.3097818659642
 20
-160.2203667134171
 30
0.0
 10
140.9426459066046
 20
-159.2860568178174
 30
0.0
 10
141.4466633760967
 20
-158.6662841400209
 30
0.0
 10
141.4852484455315
 20
-157.4749701212215
 30
0.0
 10
142.4560763532749
 20
-157.2500053860347
 30
0.0
 10
142.7909396344412
 20
-157.1718017185196
 30
0.0
 10
142.6827636362043
 20
-156.9061848566068
 30
0.0
 10
142.3055256805694
 20
-157.0243516317509
 30
0.0
  0
SPLINE
  5
4A
330
3C
100
AcDbEntity
  8
Layer 1
370
     0
100
AcDbSpline
210
0.0
220
0.0
230
1.0
 70
    11
 71
     3
 72
    14
 73
    10
 74
     0
 42
0.0000000001
 43
0.0000000001
 40
0.0
 40
0.0
 40
0.0
 40
0.0
 40
1.0
 40
1.0
 40
1.0
 40
2.0
 40
2.0
 40
2.0
 40
3.0
 40
3.0
 40
3.0
 40
3.0
 10
76.61616751556818
 20
-158.8233804941483
 30
0.0
 10
76.58481714665241
 20
-158.7937526729752
 30
0.0
 10
76.59274086626849
 20
-158.7889295392958
 30
0.0
 10
76.63477103118854
 20
-158.8085665835617
 30
0.0
 10
78.9012993509344
 20
-159.8824028463141
 30
0.0
 10
81.69079316534119
 20
-160.9879339875308
 30
0.0
 10
84.29184025670482
 20
-160.7102592914197
 30
0.0
 10
81.92781573472638
 20
-161.6032280411964
 30
0.0
 10
78.50614689877625
 20
-160.6441134581029
 30
0.0
 10
76.61616751556818
 20
-158.8233804941483
 30
0.0
  0
SPLINE
  5
4B
330
3C
100
AcDbEntity
  8
Layer 1
370
     0
100
AcDbSpline
210
0.0
220
0.0
230
1.0
 70
    11
 71
     3
 72
    14
 73
    10
 74
     0
 42
0.0000000001
 43
0.0000000001
 40
0.0
 40
0.0
 40
0.0
 40
0.0
 40
1.0
 40
1.0
 40
1.0
 40
2.0
 40
2.0
 40
2.0
 40
3.0
 40
3.0
 40
3.0
 40
3.0
 10
81.49476723223047
 20
-156.1978732248394
 30
0.0
 10
81.56711423742072
 20
-156.0934868316364
 30
0.0
 10
81.57297089974566
 20
-156.1661783463751
 30
0.0
 10
81.5585014987076
 20
-156.24679358073
 30
0.0
 10
81.29632973228009
 20
-157.7150932765435
 30
0.0
 10
83.29861922830729
 20
-159.9344237881414
 30
0.0
 10
85.35706378074407
 20
-159.8376166050059
 30
0.0
 10
83.45743813017731
 20
-160.6882106803141
 30
0.0
 10
80.20285642526179
 20
-158.0568467486802
 30
0.0
 10
81.49476723223047
 20
-156.1978732248394
 30
0.0
  0
SPLINE
  5
4C
330
3C
100
AcDbEntity
  8
Layer 1
370
     0
100
AcDbSpline
210
0.0
220
0.0
230
1.0
 70
    11
 71
     3
 72
    20
 73
    16
 74
     0
 42
0.0000000001
 43
0.0000000001
 40
0.0
 40
0.0
 40
0.0
 40
0.0
 40
1.0
 40
1.0
 40
1.0
 40
2.0
 40
2.0
 40
2.0
 40
3.0
 40
3.0
 40
3.0
 40
4.0
 40
4.0
 40
4.0
 40
5.0
 40
5.0
 40
5.0
 40
5.0
 10
98.33336043548611
 20
-146.1220024591292
 30
0.0
 10
98.33336043548611
 20
-146.1220024591292
 30
0.0
 10
98.07049964996155
 20
-146.4131130276328
 30
0.0
 10
98.07049964996155
 20
-146.4131130276328
 30
0.0
 10
94.5602918600405
 20
-149.9112629833555
 30
0.0
 10
85.56755911489283
 20
-146.3066595771386
 30
0.0
 10
84.63841686252096
 20
-145.945958079833
 30
0.0
 10
84.50164657175654
 20
-145.8929036093601
 30
0.0
 10
84.36349824279802
 20
-145.849495406246
 30
0.0
 10
84.22500540429097
 20
-145.8102213177141
 30
0.0
 10
84.22500540429097
 20
-145.8102213177141
 30
0.0
 10
98.56693790938604
 20
-145.8102213177141
 30
0.0
 10
98.56693790938604
 20
-145.8102213177141
 30
0.0
 10
98.49252384690465
 20
-145.918397315951
 30
0.0
 10
98.41535370803506
 20
-146.0231282187026
 30
0.0
 10
98.33336043548611
 20
-146.1220024591292
 30
0.0
  0
SPLINE
  5
4D
330
3C
100
AcDbEntity
  8
Layer 1
370
     0
100
AcDbSpline
210
0.0
220
0.0
230
1.0
 70
    11
 71
     3
 72
    14
 73
    10
 74
     0
 42
0.0000000001
 43
0.0000000001
 40
0.0
 40
0.0
 40
0.0
 40
0.0
 40
1.0
 40
1.0
 40
1.0
 40
2.0
 40
2.0
 40
2.0
 40
3.0
 40
3.0
 40
3.0
 40
3.0
 10
108.4467827419855
 20
-145.8102213177141
 30
0.0
 10
108.4467827419855
 20
-145.8102213177141
 30
0.0
 10
108.6583116047799
 20
-145.8102213177141
 30
0.0
 10
108.6583116047799
 20
-145.8102213177141
 30
0.0
 10
108.6583116047799
 20
-145.8102213177141
 30
0.0
 10
112.2343207184692
 20
-150.3956434085817
 30
0.0
 10
112.2343207184692
 20
-150.3956434085817
 30
0.0
 10
110.562760389026
 20
-149.8154893288656
 30
0.0
 10
108.791636800059
 20
-148.387841759778
 30
0.0
 10
108.4467827419855
 20
-145.8102213177141
 30
0.0
  0
SPLINE
  5
4E
330
3C
100
AcDbEntity
  8
Layer 1
370
     0
100
AcDbSpline
210
0.0
220
0.0
230
1.0
 70
    11
 71
     3
 72
    17
 73
    13
 74
     0
 42
0.0000000001
 43
0.0000000001
 40
0.0
 40
0.0
 40
0.0
 40
0.0
 40
1.0
 40
1.0
 40
1.0
 40
2.0
 40
2.0
 40
2.0
 40
3.0
 40
3.0
 40
3.0
 40
4.0
 40
4.0
 40
4.0
 40
4.0
 10
120.1349581947927
 20
-147.7212157833822
 30
0.0
 10
120.1349581947927
 20
-147.7212157833822
 30
0.0
 10
118.6518445883926
 20
-145.8102213177141
 30
0.0
 10
118.6518445883926
 20
-145.8102213177141
 30
0.0
 10
118.6518445883926
 20
-145.8102213177141
 30
0.0
 10
131.4338378577665
 20
-145.8102213177141
 30
0.0
 10
131.4338378577665
 20
-145.8102213177141
 30
0.0
 10
131.2953450192595
 20
-145.849495406246
 30
0.0
 10
131.157196690301
 20
-145.8929036093601
 30
0.0
 10
131.0204263995366
 20
-145.945958079833
 30
0.0
 10
130.2707736219462
 20
-146.2370686483366
 30
0.0
 10
124.269417286641
 20
-148.6407117683954
 30
0.0
 10
120.1349581947927
 20
-147.7212157833822
 30
0.0
  0
SPLINE
  5
4F
330
3C
100
AcDbEntity
  8
Layer 1
370
     0
100
AcDbSpline
210
0.0
220
0.0
230
1.0
 70
    11
 71
     3
 72
    14
 73
    10
 74
     0
 42
0.0000000001
 43
0.0000000001
 40
0.0
 40
0.0
 40
0.0
 40
0.0
 40
1.0
 40
1.0
 40
1.0
 40
2.0
 40
2.0
 40
2.0
 40
3.0
 40
3.0
 40
3.0
 40
3.0
 10
130.6442219725473
 20
-159.8376166050059
 30
0.0
 10
132.7023220154355
 20
-159.9344237881414
 30
0.0
 10
134.7046115114627
 20
-157.7150932765435
 30
0.0
 10
134.4427842545838
 20
-156.24679358073
 30
0.0
 10
134.4283148535457
 20
-156.1661783463751
 30
0.0
 10
134.4338270063221
 20
-156.0934868316364
 30
0.0
 10
134.5065185210609
 20
-156.1978732248394
 30
0.0
 10
135.798084818481
 20
-158.0568467486802
 30
0.0
 10
132.543847623114
 20
-160.6882106803141
 30
0.0
 10
130.6442219725473
 20
-159.8376166050059
 30
0.0
  0
SPLINE
  5
50
330
3C
100
AcDbEntity
  8
Layer 1
370
     0
100
AcDbSpline
210
0.0
220
0.0
230
1.0
 70
    11
 71
     3
 72
    14
 73
    10
 74
     0
 42
0.0000000001
 43
0.0000000001
 40
0.0
 40
0.0
 40
0.0
 40
0.0
 40
1.0
 40
1.0
 40
1.0
 40
2.0
 40
2.0
 40
2.0
 40
3.0
 40
3.0
 40
3.0
 40
3.0
 10
139.3851182377232
 20
-158.8233804941483
 30
0.0
 10
137.4951388545151
 20
-160.6441134581029
 30
0.0
 10
134.073470018565
 20
-161.6032280411964
 30
0.0
 10
131.7094454965865
 20
-160.7102592914197
 30
0.0
 10
134.3104925879502
 20
-160.9879339875308
 30
0.0
 10
137.099986402357
 20
-159.8824028463141
 30
0.0
 10
139.3665147221028
 20
-158.8085665835617
 30
0.0
 10
139.4085448870229
 20
-158.7889295392958
 30
0.0
 10
139.4164686066389
 20
-158.7937526729752
 30
0.0
 10
139.3851182377232
 20
-158.8233804941483
 30
0.0
  0
HATCH
  5
51
330
3C
100
AcDbEntity
  8
Layer 1
 62
   250
420
  2301728
100
AcDbHatch
 10
0.0
 20
0.0
 30
0.0
210
0.0
220
0.0
230
1.0
  2
SOLID
 70
     1
 71
     0
 91
        8
 92
        1
 93
        1
 72
     4
 94
        3
 73
     0
 74
     1
 95
      344
 96
      340
 40
0.0
 40
0.0
 40
0.0
 40
0.0
 40
1.0
 40
1.0
 40
1.0
 40
2.0
 40
2.0
 40
2.0
 40
3.0
 40
3.0
 40
3.0
 40
4.0
 40
4.0
 40
4.0
 40
5.0
 40
5.0
 40
5.0
 40
6.0
 40
6.0
 40
6.0
 40
7.0
 40
7.0
 40
7.0
 40
8.0
 40
8.0
 40
8.0
 40
9.0
 40
9.0
 40
9.0
 40
10.0
 40
10.0
 40
10.0
 40
11.0
 40
11.0
 40
11.0
 40
12.0
 40
12.0
 40
12.0
 40
13.0
 40
13.0
 40
13.0
 40
14.0
 40
14.0
 40
14.0
 40
15.0
 40
15.0
 40
15.0
 40
16.0
 40
16.0
 40
16.0
 40
17.0
 40
17.0
 40
17.0
 40
18.0
 40
18.0
 40
18.0
 40
19.0
 40
19.0
 40
19.0
 40
20.0
 40
20.0
 40
20.0
 40
21.0
 40
21.0
 40
21.0
 40
22.0
 40
22.0
 40
22.0
 40
23.0
 40
23.0
 40
23.0
 40
24.0
 40
24.0
 40
24.0
 40
25.0
 40
25.0
 40
25.0
 40
26.0
 40
26.0
 40
26.0
 40
27.0
 40
27.0
 40
27.0
 40
28.0
 40
28.0
 40
28.0
 40
29.0
 40
29.0
 40
29.0
 40
30.0
 40
30.0
 40
30.0
 40
31.0
 40
31.0
 40
31.0
 40
32.0
 40
32.0
 40
32.0
 40
33.0
 40
33.0
 40
33.0
 40
34.0
 40
34.0
 40
34.0
 40
35.0
 40
35.0
 40
35.0
 40
36.0
 40
36.0
 40
36.0
 40
37.0
 40
37.0
 40
37.0
 40
38.0
 40
38.0
 40
38.0
 40
39.0
 40
39.0
 40
39.0
 40
40.0
 40
40.0
 40
40.0
 40
41.0
 40
41.0
 40
41.0
 40
42.0
 40
42.0
 40
42.0
 40
43.0
 40
43.0
 40
43.0
 40
44.0
 40
44.0
 40
44.0
 40
45.0
 40
45.0
 40
45.0
 40
46.0
 40
46.0
 40
46.0
 40
47.0
 40
47.0
 40
47.0
 40
48.0
 40
48.0
 40
48.0
 40
49.0
 40
49.0
 40
49.0
 40
50.0
 40
50.0
 40
50.0
 40
51.0
 40
51.0
 40
51.0
 40
52.0
 40
52.0
 40
52.0
 40
53.0
 40
53.0
 40
53.0
 40
54.0
 40
54.0
 40
54.0
 40
55.0
 40
55.0
 40
55.0
 40
56.0
 40
56.0
 40
56.0
 40
57.0
 40
57.0
 40
57.0
 40
58.0
 40
58.0
 40
58.0
 40
59.0
 40
59.0
 40
59.0
 40
60.0
 40
60.0
 40
60.0
 40
61.0
 40
61.0
 40
61.0
 40
62.0
 40
62.0
 40
62.0
 40
63.0
 40
63.0
 40
63.0
 40
64.0
 40
64.0
 40
64.0
 40
65.0
 40
65.0
 40
65.0
 40
66.0
 40
66.0
 40
66.0
 40
67.0
 40
67.0
 40
67.0
 40
68.0
 40
68.0
 40
68.0
 40
69.0
 40
69.0
 40
69.0
 40
70.0
 40
70.0
 40
70.0
 40
71.0
 40
71.0
 40
71.0
 40
72.0
 40
72.0
 40
72.0
 40
73.0
 40
73.0
 40
73.0
 40
74.0
 40
74.0
 40
74.0
 40
75.0
 40
75.0
 40
75.0
 40
76.0
 40
76.0
 40
76.0
 40
77.0
 40
77.0
 40
77.0
 40
78.0
 40
78.0
 40
78.0
 40
79.0
 40
79.0
 40
79.0
 40
80.0
 40
80.0
 40
80.0
 40
81.0
 40
81.0
 40
81.0
 40
82.0
 40
82.0
 40
82.0
 40
83.0
 40
83.0
 40
83.0
 40
84.0
 40
84.0
 40
84.0
 40
85.0
 40
85.0
 40
85.0
 40
86.0
 40
86.0
 40
86.0
 40
87.0
 40
87.0
 40
87.0
 40
88.0
 40
88.0
 40
88.0
 40
89.0
 40
89.0
 40
89.0
 40
90.0
 40
90.0
 40
90.0
 40
91.0
 40
91.0
 40
91.0
 40
92.0
 40
92.0
 40
92.0
 40
93.0
 40
93.0
 40
93.0
 40
94.0
 40
94.0
 40
94.0
 40
95.0
 40
95.0
 40
95.0
 40
96.0
 40
96.0
 40
96.0
 40
97.0
 40
97.0
 40
97.0
 40
98.0
 40
98.0
 40
98.0
 40
99.0
 40
99.0
 40
99.0
 40
100.0
 40
100.0
 40
100.0
 40
101.0
 40
101.0
 40
101.0
 40
102.0
 40
102.0
 40
102.0
 40
103.0
 40
103.0
 40
103.0
 40
104.0
 40
104.0
 40
104.0
 40
105.0
 40
105.0
 40
105.0
 40
106.0
 40
106.0
 40
106.0
 40
107.0
 40
107.0
 40
107.0
 40
108.0
 40
108.0
 40
108.0
 40
109.0
 40
109.0
 40
109.0
 40
110.0
 40
110.0
 40
110.0
 40
111.0
 40
111.0
 40
111.0
 40
112.0
 40
112.0
 40
112.0
 40
113.0
 40
113.0
 40
113.0
 40
113.0
 10
142.3055256805694
 20
-157.0243516317509
 10
141.0222276123139
 20
-157.4291503512677
 10
139.8908582549578
 20
-156.9144530857714
 10
138.7705132031546
 20
-157.7512667791386
 10
139.706545646497
 20
-156.2333577083375
 10
140.0482991186338
 20
-152.7093695364754
 10
136.9115396793138
 20
-150.9944010039181
 10
135.6123941718261
 20
-150.2843668244081
 10
133.6821071714406
 20
-150.4617892418985
 10
133.1594861863282
 20
-151.7568006348039
 10
132.4783908088943
 20
-153.4483425180615
 10
135.8187553913925
 20
-154.5194227044257
 10
136.0171928913429
 20
-152.6769856389141
 10
136.0351073878662
 20
-152.5061089028457
 10
136.0199489677311
 20
-152.3297200140009
 10
135.9930772229462
 20
-152.1602213161266
 10
138.5534721875838
 20
-153.0562906518401
 10
138.4011989671358
 20
-155.8223578169472
 10
137.6501681513514
 20
-156.605083511196
 10
137.6501681513514
 20
-156.605083511196
 10
137.5512939109247
 20
-155.1674451652012
 10
136.707590026587
 20
-154.530791519527
 10
136.4716009858474
 20
-154.5986599005865
 10
136.3320746186948
 20
-154.8181124829969
 10
136.2087402003228
 20
-155.0337754603735
 10
135.2895887248582
 20
-154.192138633327
 10
134.5547498578544
 20
-153.5675428218512
 10
133.0544107740281
 20
-153.9754421273047
 10
132.7626111864274
 20
-154.054334813917
 10
132.76433373417
 20
-154.179047270483
 10
132.9028265726771
 20
-154.3099608989225
 10
133.1067762254039
 20
-154.4994411506113
 10
133.2432020066198
 20
-154.6765190585531
 10
133.3734266159622
 20
-154.9169867234235
 10
134.6367431304033
 20
-157.2748100735285
 10
132.5269666552363
 20
-158.798231297106
 10
130.4940158093904
 20
-158.7610242658653
 10
129.1363036786534
 20
-158.590836548894
 10
128.1268907014752
 20
-157.8015651732232
 10
127.234955480344
 20
-156.8696668444632
 10
127.234955480344
 20
-156.8696668444632
 10
122.0717908766001
 20
-150.2168429528972
 10
122.0717908766001
 20
-150.2168429528972
 10
123.4343261410164
 20
-150.0669812992888
 10
124.7737792656816
 20
-149.6942219677848
 10
125.9030815657465
 20
-149.2797769809092
 10
128.4049099071349
 20
-148.360280995896
 10
130.7933946070586
 20
-146.3855522637508
 10
132.1049424582932
 20
-146.3359428887632
 10
131.9678276579803
 20
-146.566764286275
 10
131.8796332135579
 20
-146.8564968165845
 10
131.8703314557477
 20
-147.1724120725819
 10
131.8458712778024
 20
-147.9675401105776
 10
132.6055148323
 20
-148.5952365079901
 10
133.2032388989909
 20
-148.6172851190957
 10
133.8054415898125
 20
-148.6393337302013
 10
134.625374315302
 20
-148.0298963388606
 10
134.6494899836987
 20
-147.2351128104135
 10
134.6715385948043
 20
-146.5171549112874
 10
134.2415906782452
 20
-146.0424207534199
 10
133.6021809561828
 20
-145.8102213177141
 10
133.6021809561828
 20
-145.8102213177141
 10
142.2838215790124
 20
-145.8102213177141
 10
142.2838215790124
 20
-145.8102213177141
 10
142.2838215790124
 20
-145.8102213177141
 10
142.2838215790124
 20
-144.1986056497142
 10
142.2838215790124
 20
-144.1986056497142
 10
142.2838215790124
 20
-144.1986056497142
 10
73.37502168304513
 20
-144.1986056497142
 10
73.37502168304513
 20
-144.1986056497142
 10
73.37502168304513
 20
-144.1986056497142
 10
73.37502168304513
 20
-145.8102213177141
 10
73.37502168304513
 20
-145.8102213177141
 10
73.37502168304513
 20
-145.8102213177141
 10
82.05666230587472
 20
-145.8102213177141
 10
82.05666230587472
 20
-145.8102213177141
 10
81.41725258381236
 20
-146.0424207534199
 10
80.98730466725318
 20
-146.5171549112874
 10
81.00935327835877
 20
-147.2351128104135
 10
81.03346894675552
 20
-148.0298963388606
 10
81.85340167224498
 20
-148.6393337302013
 10
82.45560436306666
 20
-148.6172851190957
 10
83.05298392020897
 20
-148.5952365079901
 10
83.81262747470657
 20
-147.9675401105776
 10
83.7881672967613
 20
-147.1724120725819
 10
83.77921004849965
 20
-146.8564968165845
 10
83.69101560407725
 20
-146.566764286275
 10
83.55390080376431
 20
-146.3359428887632
 10
84.86510414545039
 20
-146.3855522637508
 10
87.25393335492264
 20
-148.360280995896
 10
89.75541718676254
 20
-149.2797769809092
 10
91.1586045779048
 20
-149.7944742464055
 10
92.88563094466055
 20
-150.2461262645218
 10
94.57923988520936
 20
-150.2822997671169
 10
94.57923988520936
 20
-150.2822997671169
 10
87.9264159936434
 20
-157.6551486151001
 10
87.9264159936434
 20
-157.6551486151001
 10
87.23774140614196
 20
-158.2180772173899
 10
86.45811629782992
 20
-158.6418239620757
 10
85.50726994390097
 20
-158.7610242658653
 10
83.47431909805503
 20
-158.798231297106
 10
81.36454262288804
 20
-157.2748100735285
 10
82.62785913732915
 20
-154.9169867234235
 10
82.75808374667159
 20
-154.6765190585531
 10
82.8945095278875
 20
-154.4994411506113
 10
83.09845918061428
 20
-154.3099608989225
 10
83.23695201912132
 20
-154.179047270483
 10
83.23867456686395
 20
-154.054334813917
 10
82.94687497926328
 20
-153.9754421273047
 10
81.44653589543698
 20
-153.5675428218512
 10
80.71169702843319
 20
-154.192138633327
 10
79.79254555296853
 20
-155.0337754603735
 10
79.6692111345966
 20
-154.8181124829969
 10
79.52968476744397
 20
-154.5986599005865
 10
79.29335121715583
 20
-154.530791519527
 10
78.44999184236667
 20
-155.1674451652012
 10
78.35111760194
 20
-156.605083511196
 10
78.35111760194
 20
-156.605083511196
 10
77.59974227660702
 20
-155.8223578169472
 10
77.44781356570749
 20
-153.0562906518401
 10
80.00786402079665
 20
-152.1602213161266
 10
79.98133678556023
 20
-152.3297200140009
 10
79.96617836542512
 20
-152.5061089028457
 10
79.98409286194843
 20
-152.6769856389141
 10
80.18253036189881
 20
-154.5194227044257
 10
83.52289494439705
 20
-153.4483425180615
 10
82.84179956696316
 20
-151.7568006348039
 10
82.31917858185076
 20
-150.4617892418985
 10
80.38889158146529
 20
-150.2843668244081
 10
79.08974607397757
 20
-150.9944010039181
 10
75.95298663465759
 20
-152.7093695364754
 10
76.29474010679438
 20
-156.2333577083375
 10
77.23042804058824
 20
-157.7512667791386
 10
76.11008298878498
 20
-156.9144530857714
 10
74.97905814097746
 20
-157.4291503512677
 10
73.6957600727219
 20
-157.0243516317509
 10
73.31817760753852
 20
-156.9061848566068
 10
73.2103461188502
 20
-157.1718017185196
 10
73.54520940001647
 20
-157.2500053860347
 10
74.51603730775989
 20
-157.4749701212215
 10
74.55462237719468
 20
-158.6662841400209
 10
75.05863984668673
 20
-159.2860568178174
 10
75.6911593777786
 20
-160.2203667134171
 10
76.37466632205216
 20
-160.8490966394752
 10
77.51120332263609
 20
-161.1815483538018
 10
77.4147406490491
 20
-161.4750704891451
 10
77.01614310140569
 20
-161.5953043215804
 10
76.90211044084393
 20
-161.8209580758642
 10
78.2326063172474
 20
-162.851730645051
 10
81.00039603009712
 20
-163.1638562960146
 10
83.88290742260567
 20
-162.1361843127646
 10
83.88290742260567
 20
-162.1361843127646
 10
83.6641438592923
 20
-162.3787190349261
 10
83.6641438592923
 20
-162.3787190349261
 10
81.10650497104282
 20
-165.2009412564428
 10
77.57872719414699
 20
-167.3176079225803
 10
74.13914386167355
 20
-167.5821912558475
 10
74.13914386167355
 20
-167.5821912558475
 10
74.13914386167355
 20
-170.580802366209
 10
74.13914386167355
 20
-170.580802366209
 10
74.13914386167355
 20
-170.580802366209
 10
90.71969941308397
 20
-170.580802366209
 10
90.71969941308397
 20
-170.580802366209
 10
90.71969941308397
 20
-170.580802366209
 10
90.71969941308397
 20
-167.5821912558475
 10
90.71969941308397
 20
-167.5821912558475
 10
90.71969941308397
 20
-167.5821912558475
 10
90.1023383021272
 20
-167.5821912558475
 10
90.1023383021272
 20
-167.5821912558475
 10
88.69122719136887
 20
-167.5821912558475
 10
87.36831052503292
 20
-166.9648301448908
 10
87.36831052503292
 20
-165.46552458971
 10
87.36831052503292
 20
-164.8481634787532
 10
87.63289385830011
 20
-163.7898301456845
 10
88.86761608021365
 20
-162.3787190349261
 10
88.86761608021365
 20
-162.3787190349261
 10
88.88449704809138
 20
-162.3597710097573
 10
88.88449704809138
 20
-162.3597710097573
 10
88.96959090657705
 20
-163.4222384574083
 10
89.80123695671637
 20
-164.3296766082231
 10
91.43145614033658
 20
-164.5095105925532
 10
93.08269040641683
 20
-164.6914116341744
 10
93.83268769355573
 20
-165.1351399326745
 10
94.05110674732056
 20
-165.9033962258853
 10
94.15170353548986
 20
-166.2596190990601
 10
93.99047306678017
 20
-166.6582166467035
 10
93.33935002006794
 20
-167.0726616335791
 10
93.55466848789607
 20
-168.2774115247709
 10
96.22427297941616
 20
-167.016851086718
 10
96.02962508449954
 20
-165.5092773023727
 10
95.9889729577736
 20
-164.9139648025215
 10
95.55282386934097
 20
-164.4120143903206
 10
95.05225149533416
 20
-164.1667235917708
 10
97.21577146007107
 20
-163.3361110702771
 10
98.7233452444164
 20
-161.005159464957
 10
98.52111813943222
 20
-158.8733343786845
 10
98.43189016636425
 20
-157.943158597667
 10
98.26308048758702
 20
-156.998168906063
 10
98.5442002791834
 20
-156.1682454036663
 10
98.61930336076185
 20
-155.9470702735132
 10
98.4863226750312
 20
-156.0173502214123
 10
98.41259763164686
 20
-156.0559352908471
 10
97.30603296178461
 20
-156.6447021092763
 10
96.96048988461405
 20
-157.5759114189394
 10
96.72381182477739
 20
-158.2797444265759
 10
96.02928057495102
 20
-160.3471462272743
 10
96.34554034049695
 20
-161.515033596774
 10
95.07740069237649
 20
-162.6643174506534
 10
95.03433699881086
 20
-162.7032470296367
 10
95.02365720280659
 20
-162.6967013482147
 10
95.05569659081941
 20
-162.6508815782609
 10
95.69855140836704
 20
-161.7131265871759
 10
96.17121850894331
 20
-159.466235311696
 10
95.31132267582495
 20
-157.7450656072651
 10
95.1218424241362
 20
-157.364382556145
 10
95.04191620887842
 20
-157.5190673434327
 10
95.03709307519907
 20
-157.8243028034259
 10
95.03261445106824
 20
-158.1543429509128
 10
94.72358938604133
 20
-158.5984157589615
 10
94.2557454191444
 20
-159.1303385018841
 10
93.34417315374729
 20
-160.1673122429443
 10
93.49127873096747
 20
-160.59105898763
 10
92.81982962089226
 20
-161.9677191435358
 10
92.32821449514712
 20
-162.9702419297436
 10
91.73600258123267
 20
-163.6168863523249
 10
90.73968096689842
 20
-163.376763197003
 10
90.05858558946453
 20
-163.0949543863096
 10
89.36233179189553
 20
-162.2743326417231
 10
90.32523598002287
 20
-160.72886280704
 10
90.32523598002287
 20
-160.72886280704
 10
103.5044487588461
 20
-145.8102213177141
 10
103.5044487588461
 20
-145.8102213177141
 10
103.5044487588461
 20
-145.8102213177141
 10
107.2251518829159
 20
-145.8102213177141
 10
107.2251518829159
 20
-145.8102213177141
 10
106.7996825904876
 20
-149.3769286735933
 10
103.9095919879115
 20
-150.5761664120087
 10
101.9906738026273
 20
-150.7077690595453
 10
101.6695909034021
 20
-150.7298176706509
 10
101.6258381907394
 20
-150.8345485734025
 10
101.9524332427411
 20
-150.9709743546184
 10
103.0903482815191
 20
-151.4450194933887
 10
104.5848307030205
 20
-151.5717990072459
 10
106.047273736509
 20
-150.9999131566945
 10
106.2736165098899
 20
-151.5649088162754
 10
106.7107991269681
 20
-152.1467854437341
 10
107.2354871693717
 20
-152.5694986597743
 10
107.005354790957
 20
-152.910563112814
 10
107.1369574384935
 20
-153.4428303652851
 10
107.6209933541711
 20
-153.4948513071124
 10
107.6209933541711
 20
-153.4948513071124
 10
107.6209933541711
 20
-154.0253960118409
 10
107.6209933541711
 20
-154.0253960118409
 10
106.4486273605406
 20
-153.9130858990217
 10
106.1220323085389
 20
-152.2332573404139
 10
105.1077961976814
 20
-152.3090494410894
 10
104.3230034461415
 20
-152.3455674532331
 10
103.8317328299449
 20
-153.5551404781043
 10
102.6597113458629
 20
-154.3154730516989
 10
103.7545626910753
 20
-154.9190537807147
 10
104.0866698958533
 20
-156.4314506987394
 10
105.0650770136643
 20
-156.4314506987394
 10
106.0841362582012
 20
-156.3949326865957
 10
106.2777506244722
 20
-155.2201551261255
 10
107.4518391658454
 20
-154.8039875915073
 10
107.4938693307654
 20
-155.5253905861186
 10
105.6173258199498
 20
-156.3556585980639
 10
105.6173258199498
 20
-157.377473918989
 10
105.6173258199498
 20
-158.1726019569846
 10
106.9833061798514
 20
-158.8175238318234
 10
107.7667208931972
 20
-159.4586561016284
 10
108.467453314897
 20
-158.7413872215994
 10
109.9960421817024
 20
-158.3634602468675
 10
109.9960421817024
 20
-157.419504083909
 10
109.9960421817024
 20
-156.3556585980639
 10
108.467453314897
 20
-155.9773871137834
 10
108.1194986708868
 20
-154.8787461635373
 10
109.2908311358717
 20
-155.295947226801
 10
109.680126925705
 20
-156.5465168879467
 10
110.8163194167404
 20
-156.5079318185119
 10
111.7940375154543
 20
-156.4717583159168
 10
112.1040961091268
 20
-155.14436302545
 10
113.0456407052455
 20
-154.4674017625984
 10
112.0245144034175
 20
-153.7856173660675
 10
111.7154893383906
 20
-152.4585665851492
 10
110.6220160313723
 20
-152.3820854653767
 10
109.6015787486413
 20
-152.3090494410894
 10
109.1457926159427
 20
-153.68226450151
 10
108.0888373210681
 20
-154.1004990934193
 10
108.0888373210681
 20
-154.1004990934193
 10
108.0888373210681
 20
-153.4948513071124
 10
108.0888373210681
 20
-153.4948513071124
 10
108.5239528808551
 20
-153.3463676916981
 10
108.6548665092946
 20
-152.8630207951176
 10
108.4357584364327
 20
-152.5536512205422
 10
108.9552788356084
 20
-152.1312825140505
 10
109.3866047903617
 20
-151.5538845107226
 10
109.6122585446456
 20
-150.993711984821
 10
110.7429388829046
 20
-151.4360622451271
 10
111.8915337176868
 20
-151.4574218371357
 10
112.8816541601476
 20
-151.2259114205269
 10
112.8816541601476
 20
-151.2259114205269
 10
121.2349771832329
 20
-161.9377468128142
 10
121.2349771832329
 20
-161.9377468128142
 10
122.7342827384137
 20
-163.8780245901069
 10
122.9988660716809
 20
-165.024552367598
 10
122.9988660716809
 20
-165.6419134785548
 10
122.9988660716809
 20
-166.6120523672012
 10
122.2933105163017
 20
-167.5821912558475
 10
120.9703938499657
 20
-167.5821912558475
 10
120.9703938499657
 20
-167.5821912558475
 10
120.0884494057418
 20
-167.5821912558475
 10
120.0884494057418
 20
-167.5821912558475
 10
120.0884494057418
 20
-167.5821912558475
 10
120.0884494057418
 20
-170.580802366209
 10
120.0884494057418
 20
-170.580802366209
 10
120.0884494057418
 20
-170.580802366209
 10
141.519699400384
 20
-170.580802366209
 10
141.519699400384
 20
-170.580802366209
 10
141.519699400384
 20
-170.580802366209
 10
141.519699400384
 20
-167.5821912558475
 10
141.519699400384
 20
-167.5821912558475
 10
139.7134358374675
 20
-167.3465467246564
 10
135.5989582994336
 20
-166.478038152825
 10
131.1695990340479
 20
-161.7451659751887
 10
134.3780164594611
 20
-163.2193223333271
 10
137.6229518970179
 20
-162.9643852674186
 10
139.0991753124474
 20
-161.8209580758642
 10
138.9847981423371
 20
-161.5953043215804
 10
138.5865451042422
 20
-161.4750704891451
 10
138.4900824306553
 20
-161.1815483538018
 10
139.6262749216907
 20
-160.8490966394752
 10
140.3097818659642
 20
-160.2203667134171
 10
140.9426459066046
 20
-159.2860568178174
 10
141.4466633760967
 20
-158.6662841400209
 10
141.4852484455315
 20
-157.4749701212215
 10
142.4560763532749
 20
-157.2500053860347
 10
142.7909396344412
 20
-157.1718017185196
 10
142.6827636362043
 20
-156.9061848566068
 10
142.3055256805694
 20
-157.0243516317509
 97
        0
 92
        1
 93
        1
 72
     4
 94
        3
 73
     0
 74
     1
 95
       14
 96
       10
 40
0.0
 40
0.0
 40
0.0
 40
0.0
 40
1.0
 40
1.0
 40
1.0
 40
2.0
 40
2.0
 40
2.0
 40
3.0
 40
3.0
 40
3.0
 40
3.0
 10
76.61616751556818
 20
-158.8233804941483
 10
76.58481714665241
 20
-158.7937526729752
 10
76.59274086626849
 20
-158.7889295392958
 10
76.63477103118854
 20
-158.8085665835617
 10
78.9012993509344
 20
-159.8824028463141
 10
81.69079316534119
 20
-160.9879339875308
 10
84.29184025670482
 20
-160.7102592914197
 10
81.92781573472638
 20
-161.6032280411964
 10
78.50614689877625
 20
-160.6441134581029
 10
76.61616751556818
 20
-158.8233804941483
 97
        0
 92
        1
 93
        1
 72
     4
 94
        3
 73
     0
 74
     1
 95
       14
 96
       10
 40
0.0
 40
0.0
 40
0.0
 40
0.0
 40
1.0
 40
1.0
 40
1.0
 40
2.0
 40
2.0
 40
2.0
 40
3.0
 40
3.0
 40
3.0
 40
3.0
 10
81.49476723223047
 20
-156.1978732248394
 10
81.56711423742072
 20
-156.0934868316364
 10
81.57297089974566
 20
-156.1661783463751
 10
81.5585014987076
 20
-156.24679358073
 10
81.29632973228009
 20
-157.7150932765435
 10
83.29861922830729
 20
-159.9344237881414
 10
85.35706378074407
 20
-159.8376166050059
 10
83.45743813017731
 20
-160.6882106803141
 10
80.20285642526179
 20
-158.0568467486802
 10
81.49476723223047
 20
-156.1978732248394
 97
        0
 92
        1
 93
        1
 72
     4
 94
        3
 73
     0
 74
     1
 95
       20
 96
       16
 40
0.0
 40
0.0
 40
0.0
 40
0.0
 40
1.0
 40
1.0
 40
1.0
 40
2.0
 40
2.0
 40
2.0
 40
3.0
 40
3.0
 40
3.0
 40
4.0
 40
4.0
 40
4.0
 40
5.0
 40
5.0
 40
5.0
 40
5.0
 10
98.33336043548611
 20
-146.1220024591292
 10
98.33336043548611
 20
-146.1220024591292
 10
98.07049964996155
 20
-146.4131130276328
 10
98.07049964996155
 20
-146.4131130276328
 10
94.5602918600405
 20
-149.9112629833555
 10
85.56755911489283
 20
-146.3066595771386
 10
84.63841686252096
 20
-145.945958079833
 10
84.50164657175654
 20
-145.8929036093601
 10
84.36349824279802
 20
-145.849495406246
 10
84.22500540429097
 20
-145.8102213177141
 10
84.22500540429097
 20
-145.8102213177141
 10
98.56693790938604
 20
-145.8102213177141
 10
98.56693790938604
 20
-145.8102213177141
 10
98.49252384690465
 20
-145.918397315951
 10
98.41535370803506
 20
-146.0231282187026
 10
98.33336043548611
 20
-146.1220024591292
 97
        0
 92
        1
 93
        1
 72
     4
 94
        3
 73
     0
 74
     1
 95
       14
 96
       10
 40
0.0
 40
0.0
 40
0.0
 40
0.0
 40
1.0
 40
1.0
 40
1.0
 40
2.0
 40
2.0
 40
2.0
 40
3.0
 40
3.0
 40
3.0
 40
3.0
 10
108.4467827419855
 20
-145.8102213177141
 10
108.4467827419855
 20
-145.8102213177141
 10
108.6583116047799
 20
-145.8102213177141
 10
108.6583116047799
 20
-145.8102213177141
 10
108.6583116047799
 20
-145.8102213177141
 10
112.2343207184692
 20
-150.3956434085817
 10
112.2343207184692
 20
-150.3956434085817
 10
110.562760389026
 20
-149.8154893288656
 10
108.791636800059
 20
-148.387841759778
 10
108.4467827419855
 20
-145.8102213177141
 97
        0
 92
        1
 93
        1
 72
     4
 94
        3
 73
     0
 74
     1
 95
       17
 96
       13
 40
0.0
 40
0.0
 40
0.0
 40
0.0
 40
1.0
 40
1.0
 40
1.0
 40
2.0
 40
2.0
 40
2.0
 40
3.0
 40
3.0
 40
3.0
 40
4.0
 40
4.0
 40
4.0
 40
4.0
 10
120.1349581947927
 20
-147.7212157833822
 10
120.1349581947927
 20
-147.7212157833822
 10
118.6518445883926
 20
-145.8102213177141
 10
118.6518445883926
 20
-145.8102213177141
 10
118.6518445883926
 20
-145.8102213177141
 10
131.4338378577665
 20
-145.8102213177141
 10
131.4338378577665
 20
-145.8102213177141
 10
131.2953450192595
 20
-145.849495406246
 10
131.157196690301
 20
-145.8929036093601
 10
131.0204263995366
 20
-145.945958079833
 10
130.2707736219462
 20
-146.2370686483366
 10
124.269417286641
 20
-148.6407117683954
 10
120.1349581947927
 20
-147.7212157833822
 97
        0
 92
        1
 93
        1
 72
     4
 94
        3
 73
     0
 74
     1
 95
       14
 96
       10
 40
0.0
 40
0.0
 40
0.0
 40
0.0
 40
1.0
 40
1.0
 40
1.0
 40
2.0
 40
2.0
 40
2.0
 40
3.0
 40
3.0
 40
3.0
 40
3.0
 10
130.6442219725473
 20
-159.8376166050059
 10
132.7023220154355
 20
-159.9344237881414
 10
134.7046115114627
 20
-157.7150932765435
 10
134.4427842545838
 20
-156.24679358073
 10
134.4283148535457
 20
-156.1661783463751
 10
134.4338270063221
 20
-156.0934868316364
 10
134.5065185210609
 20
-156.1978732248394
 10
135.798084818481
 20
-158.0568467486802
 10
132.543847623114
 20
-160.6882106803141
 10
130.6442219725473
 20
-159.8376166050059
 97
        0
 92
        1
 93
        1
 72
     4
 94
        3
 73
     0
 74
     1
 95
       14
 96
       10
 40
0.0
 40
0.0
 40
0.0
 40
0.0
 40
1.0
 40
1.0
 40
1.0
 40
2.0
 40
2.0
 40
2.0
 40
3.0
 40
3.0
 40
3.0
 40
3.0
 10
139.3851182377232
 20
-158.8233804941483
 10
137.4951388545151
 20
-160.6441134581029
 10
134.073470018565
 20
-161.6032280411964
 10
131.7094454965865
 20
-160.7102592914197
 10
134.3104925879502
 20
-160.9879339875308
 10
137.099986402357
 20
-159.8824028463141
 10
139.3665147221028
 20
-158.8085665835617
 10
139.4085448870229
 20
-158.7889295392958
 10
139.4164686066389
 20
-158.7937526729752
 10
139.3851182377232
 20
-158.8233804941483
 97
        0
 75
     2
 76
     1
 98
        0
  0
ENDBLK
  5
3F
330
3C
100
AcDbEntity
  8
0
100
AcDbBlockEnd
  0
ENDSEC
  0
SECTION
  2
ENTITIES
  0
INSERT
  5
3D
330
1F
100
AcDbEntity
  8
Layer 1
100
AcDbBlockReference
  2
block 2
 10
0.0
 20
0.0
 30
0.0
  0
ENDSEC
  0
SECTION
  2
OBJECTS
  0
DICTIONARY
  5
C
330
0
100
AcDbDictionary
281
     1
  3
ACAD_GROUP
350
D
  3
ACAD_LAYOUT
350
1A
  3
ACAD_MLINESTYLE
350
17
  3
ACAD_PLOTSETTINGS
350
19
  3
ACAD_PLOTSTYLENAME
350
E
  3
ACAD_TABLESTYLE
350
52
  3
ACAD_VISUALSTYLE
350
2A
  0
DICTIONARY
  5
D
102
{ACAD_REACTORS
330
C
102
}
330
C
100
AcDbDictionary
281
     1
  0
DICTIONARY
  5
1A
102
{ACAD_REACTORS
330
C
102
}
330
C
100
AcDbDictionary
281
     1
  3
Layout1
350
1E
  3
Layout2
350
26
  3
Model
350
22
  0
DICTIONARY
  5
17
102
{ACAD_REACTORS
330
C
102
}
330
C
100
AcDbDictionary
281
     1
  3
Standard
350
18
  0
DICTIONARY
  5
19
102
{ACAD_REACTORS
330
C
102
}
330
C
100
AcDbDictionary
281
     1
  0
ACDBDICTIONARYWDFLT
  5
E
102
{ACAD_REACTORS
330
C
102
}
330
C
100
AcDbDictionary
281
     1
  3
Normal
350
F
100
AcDbDictionaryWithDefault
340
F
  0
DICTIONARY
  5
52
102
{ACAD_REACTORS
330
C
102
}
330
C
100
AcDbDictionary
281
     1
  0
DICTIONARY
  5
2A
102
{ACAD_REACTORS
330
C
102
}
330
C
100
AcDbDictionary
281
     1
  3
2dWireframe
350
2F
  3
3D Hidden
350
31
  3
3dWireframe
350
30
  3
Basic
350
32
  3
Brighten
350
36
  3
ColorChange
350
3A
  3
Conceptual
350
34
  3
Dim
350
35
  3
Facepattern
350
39
  3
Flat
350
2B
  3
FlatWithEdges
350
2C
  3
Gouraud
350
2D
  3
GouraudWithEdges
350
2E
  3
Linepattern
350
38
  3
Realistic
350
33
  3
Thicken
350
37
  0
LAYOUT
  5
1E
102
{ACAD_REACTORS
330
1A
102
}
330
1A
100
AcDbPlotSettings
  1

  2
none_device
  4

  6

 40
0.0
 41
0.0
 42
0.0
 43
0.0
 44
0.0
 45
0.0
 46
0.0
 47
0.0
 48
0.0
 49
0.0
140
0.0
141
0.0
142
1.0
143
1.0
 70
   688
 72
     0
 73
     0
 74
     5
  7

 75
    16
 76
     0
 77
     2
 78
   300
147
1.0
148
0.0
149
0.0
100
AcDbLayout
  1
Layout1
 70
     1
 71
     1
 10
0.0
 20
0.0
 11
12.0
 21
9.0
 12
0.0
 22
0.0
 32
0.0
 14
1.000000000000000E+20
 24
1.000000000000000E+20
 34
1.000000000000000E+20
 15
-1.000000000000000E+20
 25
-1.000000000000000E+20
 35
-1.000000000000000E+20
146
0.0
 13
0.0
 23
0.0
 33
0.0
 16
1.0
 26
0.0
 36
0.0
 17
0.0
 27
1.0
 37
0.0
 76
     0
330
1B
  0
LAYOUT
  5
26
102
{ACAD_REACTORS
330
1A
102
}
330
1A
100
AcDbPlotSettings
  1

  2
none_device
  4

  6

 40
0.0
 41
0.0
 42
0.0
 43
0.0
 44
0.0
 45
0.0
 46
0.0
 47
0.0
 48
0.0
 49
0.0
140
0.0
141
0.0
142
1.0
143
1.0
 70
   688
 72
     0
 73
     0
 74
     5
  7

 75
    16
 76
     0
 77
     2
 78
   300
147
1.0
148
0.0
149
0.0
100
AcDbLayout
  1
Layout2
 70
     1
 71
     2
 10
0.0
 20
0.0
 11
0.0
 21
0.0
 12
0.0
 22
0.0
 32
0.0
 14
0.0
 24
0.0
 34
0.0
 15
0.0
 25
0.0
 35
0.0
146
0.0
 13
0.0
 23
0.0
 33
0.0
 16
1.0
 26
0.0
 36
0.0
 17
0.0
 27
1.0
 37
0.0
 76
     0
330
23
  0
LAYOUT
  5
22
102
{ACAD_REACTORS
330
1A
102
}
330
1A
100
AcDbPlotSettings
  1

  2
none_device
  4

  6

 40
0.0
 41
0.0
 42
0.0
 43
0.0
 44
0.0
 45
0.0
 46
0.0
 47
0.0
 48
0.0
 49
0.0
140
0.0
141
0.0
142
1.0
143
1.0
 70
  1712
 72
     0
 73
     0
 74
     0
  7

 75
     0
 76
     0
 77
     2
 78
   300
147
1.0
148
0.0
149
0.0
100
AcDbLayout
  1
Model
 70
     1
 71
     0
 10
0.0
 20
0.0
 11
12.0
 21
9.0
 12
0.0
 22
0.0
 32
0.0
 14
1.000000000000000E+20
 24
1.000000000000000E+20
 34
1.000000000000000E+20
 15
-1.000000000000000E+20
 25
-1.000000000000000E+20
 35
-1.000000000000000E+20
146
0.0
 13
0.0
 23
0.0
 33
0.0
 16
1.0
 26
0.0
 36
0.0
 17
0.0
 27
1.0
 37
0.0
 76
     0
330
1F
331
29
  0
MLINESTYLE
  5
18
102
{ACAD_REACTORS
330
17
102
}
330
17
100
AcDbMlineStyle
  2
Standard
 70
     0
  3

 62
   256
 51
90.0
 52
90.0
 71
     2
 49
0.5
 62
   256
  6
BYLAYER
 49
-0.5
 62
   256
  6
BYLAYER
  0
ACDBPLACEHOLDER
  5
F
102
{ACAD_REACTORS
330
E
102
}
330
E
  0
VISUALSTYLE
  5
2F
102
{ACAD_REACTORS
330
2A
102
}
330
2A
100
AcDbVisualStyle
  2
2dWireframe
 70
     4
 71
     0
 72
     2
 73
     0
 90
        0
 40
-0.6
 41
-30.0
 62
     5
 63
     7
421
 16777215
 74
     1
 91
        4
 64
     7
 65
   257
 75
     1
175
     1
 42
1.0
 92
        0
 66
   257
 43
1.0
 76
     1
 77
     6
 78
     2
 67
     7
 79
     5
170
     0
171
     0
290
     0
174
     0
 93
        1
 44
0.0
173
     0
291
     0
 45
0.0
1001
ACAD
1000
AcDbSavedByObjectVersion
1070
     0
  0
VISUALSTYLE
  5
31
102
{ACAD_REACTORS
330
2A
102
}
330
2A
100
AcDbVisualStyle
  2
3D Hidden
 70
     6
 71
     1
 72
     2
 73
     2
 90
        0
 40
-0.6
 41
-30.0
 62
     5
 63
     7
421
 16777215
 74
     2
 91
        2
 64
     7
 65
   257
 75
     2
175
     1
 42
40.0
 92
        0
 66
   257
 43
1.0
 76
     1
 77
     6
 78
     2
 67
     7
 79
     3
170
     0
171
     0
290
     0
174
     0
 93
        1
 44
0.0
173
     0
291
     0
 45
0.0
1001
ACAD
1000
AcDbSavedByObjectVersion
1070
     0
  0
VISUALSTYLE
  5
30
102
{ACAD_REACTORS
330
2A
102
}
330
2A
100
AcDbVisualStyle
  2
3dWireframe
 70
     5
 71
     0
 72
     2
 73
     0
 90
        0
 40
-0.6
 41
-30.0
 62
     5
 63
     7
421
 16777215
 74
     1
 91
        4
 64
     7
 65
   257
 75
     1
175
     1
 42
1.0
 92
        0
 66
   257
 43
1.0
 76
     1
 77
     6
 78
     2
 67
     7
 79
     5
170
     0
171
     0
290
     0
174
     0
 93
        1
 44
0.0
173
     0
291
     0
 45
0.0
1001
ACAD
1000
AcDbSavedByObjectVersion
1070
     0
  0
VISUALSTYLE
  5
32
102
{ACAD_REACTORS
330
2A
102
}
330
2A
100
AcDbVisualStyle
  2
Basic
 70
     7
 71
     1
 72
     0
 73
     1
 90
        0
 40
-0.6
 41
-30.0
 62
     5
 63
     7
421
 16777215
 74
     0
 91
        4
 64
     7
 65
   257
 75
     1
175
     1
 42
1.0
 92
        8
 66
     7
 43
1.0
 76
     1
 77
     6
 78
     2
 67
     7
 79
     5
170
     0
171
     0
290
     0
174
     0
 93
        1
 44
0.0
173
     0
291
     1
 45
0.0
1001
ACAD
1000
AcDbSavedByObjectVersion
1070
     0
  0
VISUALSTYLE
  5
36
102
{ACAD_REACTORS
330
2A
102
}
330
2A
100
AcDbVisualStyle
  2
Brighten
 70
    12
 71
     2
 72
     2
 73
     0
 90
        0
 40
-0.6
 41
-30.0
 62
     5
 63
     7
421
 16777215
 74
     1
 91
        4
 64
     7
 65
   257
 75
     1
175
     1
 42
1.0
 92
        8
 66
     7
 43
1.0
 76
     1
 77
     6
 78
     2
 67
     7
 79
     5
170
     0
171
     0
290
     0
174
     0
 93
        1
 44
50.0
173
     0
291
     1
 45
0.0
1001
ACAD
1000
AcDbSavedByObjectVersion
1070
     0
  0
VISUALSTYLE
  5
3A
102
{ACAD_REACTORS
330
2A
102
}
330
2A
100
AcDbVisualStyle
  2
ColorChange
 70
    16
 71
     2
 72
     2
 73
     3
 90
        0
 40
-0.6
 41
-30.0
 62
     5
 63
     8
421
  8421504
 74
     1
 91
        4
 64
     7
 65
   257
 75
     1
175
     1
 42
1.0
 92
        8
 66
     8
424
  8421504
 43
1.0
 76
     1
 77
     6
 78
     2
 67
     7
 79
     5
170
     0
171
     0
290
     0
174
     0
 93
        1
 44
0.0
173
     0
291
     1
 45
0.0
1001
ACAD
1000
AcDbSavedByObjectVersion
1070
     0
  0
VISUALSTYLE
  5
34
102
{ACAD_REACTORS
330
2A
102
}
330
2A
100
AcDbVisualStyle
  2
Conceptual
 70
     9
 71
     3
 72
     2
 73
     0
 90
        0
 40
-0.6
 41
-30.0
 62
     5
 63
     7
421
 16777215
 74
     2
 91
        2
 64
     7
 65
   257
 75
     1
175
     1
 42
40.0
 92
        8
 66
     7
 43
1.0
 76
     1
 77
     6
 78
     2
 67
     7
 79
     3
170
     0
171
     0
290
     0
174
     0
 93
        1
 44
0.0
173
     0
291
     0
 45
0.0
1001
ACAD
1000
AcDbSavedByObjectVersion
1070
     0
  0
VISUALSTYLE
  5
35
102
{ACAD_REACTORS
330
2A
102
}
330
2A
100
AcDbVisualStyle
  2
Dim
 70
    11
 71
     2
 72
     2
 73
     0
 90
        0
 40
-0.6
 41
-30.0
 62
     5
 63
     7
421
 16777215
 74
     1
 91
        4
 64
     7
 65
   257
 75
     1
175
     1
 42
1.0
 92
        8
 66
     7
 43
1.0
 76
     1
 77
     6
 78
     2
 67
     7
 79
     5
170
     0
171
     0
290
     0
174
     0
 93
        1
 44
-50.0
173
     0
291
     1
 45
0.0
1001
ACAD
1000
AcDbSavedByObjectVersion
1070
     0
  0
VISUALSTYLE
  5
39
102
{ACAD_REACTORS
330
2A
102
}
330
2A
100
AcDbVisualStyle
  2
Facepattern
 70
    15
 71
     2
 72
     2
 73
     0
 90
        0
 40
-0.6
 41
-30.0
 62
     5
 63
     7
421
 16777215
 74
     1
 91
        4
 64
     7
 65
   257
 75
     1
175
     1
 42
1.0
 92
        8
 66
     7
 43
1.0
 76
     1
 77
     6
 78
     2
 67
     7
 79
     5
170
     0
171
     0
290
     0
174
     0
 93
        1
 44
0.0
173
     0
291
     1
 45
0.0
1001
ACAD
1000
AcDbSavedByObjectVersion
1070
     0
  0
VISUALSTYLE
  5
2B
102
{ACAD_REACTORS
330
2A
102
}
330
2A
100
AcDbVisualStyle
  2
Flat
 70
     0
 71
     2
 72
     1
 73
     1
 90
        2
 40
-0.6
 41
30.0
 62
     5
 63
     7
421
 16777215
 74
     0
 91
        4
 64
     7
 65
   257
 75
     1
175
     1
 42
1.0
 92
        8
 66
     7
 43
1.0
 76
     1
 77
     6
 78
     2
 67
     7
 79
     5
170
     0
171
     0
290
     0
174
     0
 93
       13
 44
0.0
173
     0
291
     1
 45
0.0
1001
ACAD
1000
AcDbSavedByObjectVersion
1070
     0
  0
VISUALSTYLE
  5
2C
102
{ACAD_REACTORS
330
2A
102
}
330
2A
100
AcDbVisualStyle
  2
FlatWithEdges
 70
     1
 71
     2
 72
     1
 73
     1
 90
        2
 40
-0.6
 41
30.0
 62
     5
 63
     7
421
 16777215
 74
     1
 91
        4
 64
     7
 65
   257
 75
     1
175
     1
 42
1.0
 92
        0
 66
   257
 43
1.0
 76
     1
 77
     6
 78
     2
 67
     7
 79
     5
170
     0
171
     0
290
     0
174
     0
 93
       13
 44
0.0
173
     0
291
     1
 45
0.0
1001
ACAD
1000
AcDbSavedByObjectVersion
1070
     0
  0
VISUALSTYLE
  5
2D
102
{ACAD_REACTORS
330
2A
102
}
330
2A
100
AcDbVisualStyle
  2
Gouraud
 70
     2
 71
     2
 72
     2
 73
     1
 90
        2
 40
-0.6
 41
30.0
 62
     5
 63
     7
421
 16777215
 74
     0
 91
        4
 64
     7
 65
   257
 75
     1
175
     1
 42
1.0
 92
        0
 66
     7
 43
1.0
 76
     1
 77
     6
 78
     2
 67
     7
 79
     5
170
     0
171
     0
290
     0
174
     0
 93
       13
 44
0.0
173
     0
291
     1
 45
0.0
1001
ACAD
1000
AcDbSavedByObjectVersion
1070
     0
  0
VISUALSTYLE
  5
2E
102
{ACAD_REACTORS
330
2A
102
}
330
2A
100
AcDbVisualStyle
  2
GouraudWithEdges
 70
     3
 71
     2
 72
     2
 73
     1
 90
        2
 40
-0.6
 41
30.0
 62
     5
 63
     7
421
 16777215
 74
     1
 91
        4
 64
     7
 65
   257
 75
     1
175
     1
 42
1.0
 92
        0
 66
   257
 43
1.0
 76
     1
 77
     6
 78
     2
 67
     7
 79
     5
170
     0
171
     0
290
     0
174
     0
 93
       13
 44
0.0
173
     0
291
     1
 45
0.0
1001
ACAD
1000
AcDbSavedByObjectVersion
1070
     0
  0
VISUALSTYLE
  5
38
102
{ACAD_REACTORS
330
2A
102
}
330
2A
100
AcDbVisualStyle
  2
Linepattern
 70
    14
 71
     2
 72
     2
 73
     0
 90
        0
 40
-0.6
 41
-30.0
 62
     5
 63
     7
421
 16777215
 74
     1
 91
        4
 64
     7
 65
   257
 75
     7
175
     7
 42
1.0
 92
        8
 66
     7
 43
1.0
 76
     1
 77
     6
 78
     2
 67
     7
 79
     5
170
     0
171
     0
290
     0
174
     0
 93
        1
 44
0.0
173
     0
291
     1
 45
0.0
1001
ACAD
1000
AcDbSavedByObjectVersion
1070
     0
  0
VISUALSTYLE
  5
33
102
{ACAD_REACTORS
330
2A
102
}
330
2A
100
AcDbVisualStyle
  2
Realistic
 70
     8
 71
     2
 72
     2
 73
     0
 90
        0
 40
-0.6
 41
-30.0
 62
     5
 63
     7
421
 16777215
 74
     1
 91
        0
 64
     7
 65
   257
 75
     1
175
     1
 42
1.0
 92
        8
 66
     8
424
  7895160
 43
1.0
 76
     1
 77
     6
 78
     2
 67
     7
 79
     5
170
     0
171
     0
290
     0
174
     0
 93
       13
 44
0.0
173
     0
291
     0
 45
0.0
1001
ACAD
1000
AcDbSavedByObjectVersion
1070
     0
  0
VISUALSTYLE
  5
37
102
{ACAD_REACTORS
330
2A
102
}
330
2A
100
AcDbVisualStyle
  2
Thicken
 70
    13
 71
     2
 72
     2
 73
     0
 90
        0
 40
-0.6
 41
-30.0
 62
     5
 63
     7
421
 16777215
 74
     1
 91
        4
 64
     7
 65
   257
 75
     1
175
     1
 42
1.0
 92
       12
 66
     7
 43
1.0
 76
     1
 77
     6
 78
     2
 67
     7
 79
     5
170
     0
171
     0
290
     0
174
     0
 93
        1
 44
0.0
173
     0
291
     1
 45
0.0
1001
ACAD
1000
AcDbSavedByObjectVersion
1070
     0
  0
ENDSEC
  0
EOF
