  0
SECTION
  2
HEADER
  9
$ACADVER
  1
AC1021
  9
$ACADMAINTVER
 70
    25
  9
$DWGCODEPAGE
  3
ANSI_1250
  9
$INSBASE
 10
0.0
 20
0.0
 30
0.0
  9
$EXTMIN
 10
-469.8209
 20
-477.8751
 30
0.0
  9
$EXTMAX
 10
469.2704
 20
478.0176
 30
0.0
  9
$LIMMIN
 10
0.0
 20
0.0
  9
$LIMMAX
 10
12.0
 20
9.0
  9
$ORTHOMODE
 70
     0
  9
$REGENMODE
 70
     1
  9
$FILLMODE
 70
     1
  9
$QTEXTMODE
 70
     0
  9
$MIRRTEXT
 70
     1
  9
$LTSCALE
 40
1.0
  9
$ATTMODE
 70
     1
  9
$TEXTSIZE
 40
0.2
  9
$TRACEWID
 40
0.05
  9
$TEXTSTYLE
  7
Standard
  9
$CLAYER
  8
0
  9
$CELTYPE
  6
ByLayer
  9
$CECOLOR
 62
   256
  9
$CELTSCALE
 40
1.0
  9
$DISPSILH
 70
     0
  9
$DIMSCALE
 40
1.0
  9
$DIMASZ
 40
0.18
  9
$DIMEXO
 40
0.0625
  9
$DIMDLI
 40
0.38
  9
$DIMRND
 40
0.0
  9
$DIMDLE
 40
0.0
  9
$DIMEXE
 40
0.18
  9
$DIMTP
 40
0.0
  9
$DIMTM
 40
0.0
  9
$DIMTXT
 40
0.18
  9
$DIMCEN
 40
0.09
  9
$DIMTSZ
 40
0.0
  9
$DIMTOL
 70
     0
  9
$DIMLIM
 70
     0
  9
$DIMTIH
 70
     1
  9
$DIMTOH
 70
     1
  9
$DIMSE1
 70
     0
  9
$DIMSE2
 70
     0
  9
$DIMTAD
 70
     0
  9
$DIMZIN
 70
     0
  9
$DIMBLK
  1

  9
$DIMASO
 70
     1
  9
$DIMSHO
 70
     1
  9
$DIMPOST
  1

  9
$DIMAPOST
  1

  9
$DIMALT
 70
     0
  9
$DIMALTD
 70
     2
  9
$DIMALTF
 40
25.4
  9
$DIMLFAC
 40
1.0
  9
$DIMTOFL
 70
     0
  9
$DIMTVP
 40
0.0
  9
$DIMTIX
 70
     0
  9
$DIMSOXD
 70
     0
  9
$DIMSAH
 70
     0
  9
$DIMBLK1
  1

  9
$DIMBLK2
  1

  9
$DIMSTYLE
  2
Standard
  9
$DIMCLRD
 70
     0
  9
$DIMCLRE
 70
     0
  9
$DIMCLRT
 70
     0
  9
$DIMTFAC
 40
1.0
  9
$DIMGAP
 40
0.09
  9
$DIMJUST
 70
     0
  9
$DIMSD1
 70
     0
  9
$DIMSD2
 70
     0
  9
$DIMTOLJ
 70
     1
  9
$DIMTZIN
 70
     0
  9
$DIMALTZ
 70
     0
  9
$DIMALTTZ
 70
     0
  9
$DIMUPT
 70
     0
  9
$DIMDEC
 70
     4
  9
$DIMTDEC
 70
     4
  9
$DIMALTU
 70
     2
  9
$DIMALTTD
 70
     2
  9
$DIMTXSTY
  7
Standard
  9
$DIMAUNIT
 70
     0
  9
$DIMADEC
 70
     0
  9
$DIMALTRND
 40
0.0
  9
$DIMAZIN
 70
     0
  9
$DIMDSEP
 70
    46
  9
$DIMATFIT
 70
     3
  9
$DIMFRAC
 70
     0
  9
$DIMLDRBLK
  1

  9
$DIMLUNIT
 70
     2
  9
$DIMLWD
 70
    -2
  9
$DIMLWE
 70
    -2
  9
$DIMTMOVE
 70
     0
  9
$DIMFXL
 40
1.0
  9
$DIMFXLON
 70
     0
  9
$DIMJOGANG
 40
0.7853981633974483
  9
$DIMTFILL
 70
     0
  9
$DIMTFILLCLR
 70
     0
  9
$DIMARCSYM
 70
     0
  9
$DIMLTYPE
  6

  9
$DIMLTEX1
  6

  9
$DIMLTEX2
  6

  9
$LUNITS
 70
     2
  9
$LUPREC
 70
     4
  9
$SKETCHINC
 40
0.1
  9
$FILLETRAD
 40
0.5
  9
$AUNITS
 70
     0
  9
$AUPREC
 70
     0
  9
$MENU
  1
.
  9
$ELEVATION
 40
0.0
  9
$PELEVATION
 40
0.0
  9
$THICKNESS
 40
0.0
  9
$LIMCHECK
 70
     0
  9
$CHAMFERA
 40
0.5
  9
$CHAMFERB
 40
0.5
  9
$CHAMFERC
 40
1.0
  9
$CHAMFERD
 40
0.0
  9
$SKPOLY
 70
     0
  9
$TDCREATE
 40
2457441.603312384
  9
$TDUCREATE
 40
2457441.561645717
  9
$TDUPDATE
 40
2457441.603312396
  9
$TDUUPDATE
 40
2457441.561645729
  9
$TDINDWG
 40
0.0000000116
  9
$TDUSRTIMER
 40
0.0000000116
  9
$USRTIMER
 70
     1
  9
$ANGBASE
 50
0.0
  9
$ANGDIR
 70
     0
  9
$PDMODE
 70
     0
  9
$PDSIZE
 40
0.0
  9
$PLINEWID
 40
0.0
  9
$SPLFRAME
 70
     0
  9
$SPLINETYPE
 70
     6
  9
$SPLINESEGS
 70
     8
  9
$HANDSEED
  5
74
  9
$SURFTAB1
 70
     6
  9
$SURFTAB2
 70
     6
  9
$SURFTYPE
 70
     6
  9
$SURFU
 70
     6
  9
$SURFV
 70
     6
  9
$UCSBASE
  2

  9
$UCSNAME
  2

  9
$UCSORG
 10
0.0
 20
0.0
 30
0.0
  9
$UCSXDIR
 10
1.0
 20
0.0
 30
0.0
  9
$UCSYDIR
 10
0.0
 20
1.0
 30
0.0
  9
$UCSORTHOREF
  2

  9
$UCSORTHOVIEW
 70
     0
  9
$UCSORGTOP
 10
0.0
 20
0.0
 30
0.0
  9
$UCSORGBOTTOM
 10
0.0
 20
0.0
 30
0.0
  9
$UCSORGLEFT
 10
0.0
 20
0.0
 30
0.0
  9
$UCSORGRIGHT
 10
0.0
 20
0.0
 30
0.0
  9
$UCSORGFRONT
 10
0.0
 20
0.0
 30
0.0
  9
$UCSORGBACK
 10
0.0
 20
0.0
 30
0.0
  9
$PUCSBASE
  2

  9
$PUCSNAME
  2

  9
$PUCSORG
 10
0.0
 20
0.0
 30
0.0
  9
$PUCSXDIR
 10
1.0
 20
0.0
 30
0.0
  9
$PUCSYDIR
 10
0.0
 20
1.0
 30
0.0
  9
$PUCSORTHOREF
  2

  9
$PUCSORTHOVIEW
 70
     0
  9
$PUCSORGTOP
 10
0.0
 20
0.0
 30
0.0
  9
$PUCSORGBOTTOM
 10
0.0
 20
0.0
 30
0.0
  9
$PUCSORGLEFT
 10
0.0
 20
0.0
 30
0.0
  9
$PUCSORGRIGHT
 10
0.0
 20
0.0
 30
0.0
  9
$PUCSORGFRONT
 10
0.0
 20
0.0
 30
0.0
  9
$PUCSORGBACK
 10
0.0
 20
0.0
 30
0.0
  9
$USERI1
 70
     0
  9
$USERI2
 70
     0
  9
$USERI3
 70
     0
  9
$USERI4
 70
     0
  9
$USERI5
 70
     0
  9
$USERR1
 40
0.0
  9
$USERR2
 40
0.0
  9
$USERR3
 40
0.0
  9
$USERR4
 40
0.0
  9
$USERR5
 40
0.0
  9
$WORLDVIEW
 70
     1
  9
$SHADEDGE
 70
     3
  9
$SHADEDIF
 70
    70
  9
$TILEMODE
 70
     1
  9
$MAXACTVP
 70
    64
  9
$PINSBASE
 10
0.0
 20
0.0
 30
0.0
  9
$PLIMCHECK
 70
     0
  9
$PEXTMIN
 10
1.000000000000000E+20
 20
1.000000000000000E+20
 30
1.000000000000000E+20
  9
$PEXTMAX
 10
-1.000000000000000E+20
 20
-1.000000000000000E+20
 30
-1.000000000000000E+20
  9
$PLIMMIN
 10
0.0
 20
0.0
  9
$PLIMMAX
 10
12.0
 20
9.0
  9
$UNITMODE
 70
     0
  9
$VISRETAIN
 70
     1
  9
$PLINEGEN
 70
     0
  9
$PSLTSCALE
 70
     1
  9
$TREEDEPTH
 70
  3020
  9
$CMLSTYLE
  2
Standard
  9
$CMLJUST
 70
     0
  9
$CMLSCALE
 40
1.0
  9
$PROXYGRAPHICS
 70
     1
  9
$MEASUREMENT
 70
     0
  9
$CELWEIGHT
370
    -1
  9
$ENDCAPS
280
     0
  9
$JOINSTYLE
280
     0
  9
$LWDISPLAY
290
     0
  9
$INSUNITS
 70
     4
  9
$HYPERLINKBASE
  1

  9
$STYLESHEET
  1

  9
$XEDIT
290
     1
  9
$CEPSNTYPE
380
     0
  9
$PSTYLEMODE
290
     1
  9
$FINGERPRINTGUID
  2
{B950843A-D68C-44FD-91B0-D10448AC785E}
  9
$VERSIONGUID
  2
{FAEB1C32-E019-11D5-929B-00C0DF256EC4}
  9
$EXTNAMES
290
     1
  9
$PSVPSCALE
 40
0.0
  9
$OLESTARTUP
290
     0
  9
$SORTENTS
280
   127
  9
$INDEXCTL
280
     0
  9
$HIDETEXT
280
     1
  9
$XCLIPFRAME
290
     0
  9
$HALOGAP
280
     0
  9
$OBSCOLOR
 70
   257
  9
$OBSLTYPE
280
     0
  9
$INTERSECTIONDISPLAY
280
     0
  9
$INTERSECTIONCOLOR
 70
   257
  9
$DIMASSOC
280
     2
  9
$PROJECTNAME
  1

  9
$CAMERADISPLAY
290
     0
  9
$LENSLENGTH
 40
50.0
  9
$CAMERAHEIGHT
 40
0.0
  9
$STEPSPERSEC
 40
2.0
  9
$STEPSIZE
 40
6.0
  9
$3DDWFPREC
 40
2.0
  9
$PSOLWIDTH
 40
0.25
  9
$PSOLHEIGHT
 40
4.0
  9
$LOFTANG1
 40
1.570796326794897
  9
$LOFTANG2
 40
1.570796326794897
  9
$LOFTMAG1
 40
0.0
  9
$LOFTMAG2
 40
0.0
  9
$LOFTPARAM
 70
     7
  9
$LOFTNORMALS
280
     1
  9
$LATITUDE
 40
37.795
  9
$LONGITUDE
 40
-122.394
  9
$NORTHDIRECTION
 40
0.0
  9
$TIMEZONE
 70
 -8000
  9
$LIGHTGLYPHDISPLAY
280
     1
  9
$TILEMODELIGHTSYNCH
280
     1
  9
$SOLIDHIST
280
     1
  9
$SHOWHIST
280
     1
  9
$DWFFRAME
280
     2
  9
$DGNFRAME
280
     2
  9
$REALWORLDSCALE
290
     1
  9
$INTERFERECOLOR
 62
   256
  9
$CSHADOW
280
     0
  9
$SHADOWPLANELOCATION
 40
0.0
  0
ENDSEC
  0
SECTION
  2
CLASSES
  0
CLASS
  1
ACDBDICTIONARYWDFLT
  2
AcDbDictionaryWithDefault
  3
ObjectDBX Classes
 90
        0
 91
        4
280
     0
281
     0
  0
CLASS
  1
VISUALSTYLE
  2
AcDbVisualStyle
  3
ObjectDBX Classes
 90
     4095
 91
        4
280
     0
281
     0
  0
CLASS
  1
MATERIAL
  2
AcDbMaterial
  3
ObjectDBX Classes
 90
     1153
 91
        4
280
     0
281
     0
  0
ENDSEC
  0
SECTION
  2
TABLES
  0
TABLE
  2
VPORT
  5
8
330
0
100
AcDbSymbolTable
 70
     1
  0
VPORT
  5
29
330
8
100
AcDbSymbolTableRecord
100
AcDbViewportTableRecord
  2
*Active
 70
     0
 10
0.0
 20
0.0
 11
1.0
 21
1.0
 12
10.42990654205607
 22
4.5
 13
0.0
 23
0.0
 14
0.5
 24
0.5
 15
0.5
 25
0.5
 16
0.0
 26
0.0
 36
1.0
 17
0.0
 27
0.0
 37
0.0
 40
9.0
 41
1.972972972850329
 42
50.0
 43
0.0
 44
0.0
 50
0.0
 51
0.0
 71
     0
 72
   100
 73
     1
 74
     3
 75
     0
 76
     0
 77
     0
 78
     0
281
     0
 65
     1
110
0.0
120
0.0
130
0.0
111
1.0
121
0.0
131
0.0
112
0.0
122
1.0
132
0.0
 79
     0
146
0.0
 60
     3
 61
     5
292
     1
282
     1
141
0.0
142
0.0
 63
   250
  0
ENDTAB
  0
TABLE
  2
LTYPE
  5
5
330
0
100
AcDbSymbolTable
 70
     1
  0
LTYPE
  5
14
330
5
100
AcDbSymbolTableRecord
100
AcDbLinetypeTableRecord
  2
ByBlock
 70
     0
  3

 72
    65
 73
     0
 40
0.0
  0
LTYPE
  5
15
330
5
100
AcDbSymbolTableRecord
100
AcDbLinetypeTableRecord
  2
ByLayer
 70
     0
  3

 72
    65
 73
     0
 40
0.0
  0
LTYPE
  5
16
330
5
100
AcDbSymbolTableRecord
100
AcDbLinetypeTableRecord
  2
Continuous
 70
     0
  3
Solid line
 72
    65
 73
     0
 40
0.0
  0
ENDTAB
  0
TABLE
  2
LAYER
  5
2
330
0
100
AcDbSymbolTable
 70
     2
  0
LAYER
  5
10
330
2
100
AcDbSymbolTableRecord
100
AcDbLayerTableRecord
  2
0
 70
     0
 62
     7
  6
Continuous
370
    -3
390
F
347
3E
  0
LAYER
  5
40
330
2
100
AcDbSymbolTableRecord
100
AcDbLayerTableRecord
  2
Linee 2D
 70
     0
 62
     7
  6
Continuous
370
    -3
390
F
347
3E
  0
ENDTAB
  0
TABLE
  2
STYLE
  5
3
330
0
100
AcDbSymbolTable
 70
     1
  0
STYLE
  5
11
330
3
100
AcDbSymbolTableRecord
100
AcDbTextStyleTableRecord
  2
Standard
 70
     0
 40
0.0
 41
1.0
 50
0.0
 71
     0
 42
0.2
  3
txt
  4

  0
ENDTAB
  0
TABLE
  2
VIEW
  5
6
330
0
100
AcDbSymbolTable
 70
     0
  0
ENDTAB
  0
TABLE
  2
UCS
  5
7
330
0
100
AcDbSymbolTable
 70
     0
  0
ENDTAB
  0
TABLE
  2
APPID
  5
9
330
0
100
AcDbSymbolTable
 70
     2
  0
APPID
  5
12
330
9
100
AcDbSymbolTableRecord
100
AcDbRegAppTableRecord
  2
ACAD
 70
     0
  0
APPID
  5
3F
330
9
100
AcDbSymbolTableRecord
100
AcDbRegAppTableRecord
  2
ODA
 70
     0
  0
ENDTAB
  0
TABLE
  2
DIMSTYLE
  5
A
330
0
100
AcDbSymbolTable
 70
     1
100
AcDbDimStyleTable
  0
DIMSTYLE
105
27
330
A
100
AcDbSymbolTableRecord
100
AcDbDimStyleTableRecord
  2
Standard
 70
     0
178
     0
340
11
  0
ENDTAB
  0
TABLE
  2
BLOCK_RECORD
  5
1
330
0
100
AcDbSymbolTable
 70
     1
  0
BLOCK_RECORD
  5
1F
330
1
100
AcDbSymbolTableRecord
100
AcDbBlockTableRecord
  2
*Model_Space
340
22
 70
     0
280
     1
281
     0
  0
BLOCK_RECORD
  5
1B
330
1
100
AcDbSymbolTableRecord
100
AcDbBlockTableRecord
  2
*Paper_Space
340
1E
 70
     0
280
     1
281
     0
  0
BLOCK_RECORD
  5
23
330
1
100
AcDbSymbolTableRecord
100
AcDbBlockTableRecord
  2
*Paper_Space0
340
26
 70
     0
280
     1
281
     0
  0
ENDTAB
  0
ENDSEC
  0
SECTION
  2
BLOCKS
  0
BLOCK
  5
20
330
1F
100
AcDbEntity
  8
0
100
AcDbBlockBegin
  2
*Model_Space
 70
     0
 10
0.0
 20
0.0
 30
0.0
  3
*Model_Space
  1

  0
ENDBLK
  5
21
330
1F
100
AcDbEntity
  8
0
100
AcDbBlockEnd
  0
BLOCK
  5
1C
330
1B
100
AcDbEntity
 67
     1
  8
0
100
AcDbBlockBegin
  2
*Paper_Space
 70
     0
 10
0.0
 20
0.0
 30
0.0
  3
*Paper_Space
  1

  0
ENDBLK
  5
1D
330
1B
100
AcDbEntity
 67
     1
  8
0
100
AcDbBlockEnd
  0
BLOCK
  5
24
330
23
100
AcDbEntity
  8
0
100
AcDbBlockBegin
  2
*Paper_Space0
 70
     0
 10
0.0
 20
0.0
 30
0.0
  3
*Paper_Space0
  1

  0
ENDBLK
  5
25
330
23
100
AcDbEntity
  8
0
100
AcDbBlockEnd
  0
ENDSEC
  0
SECTION
  2
ENTITIES
  0
SPLINE
  5
41
330
1F
100
AcDbEntity
  8
Linee 2D
370
    53
100
AcDbSpline
210
0.0
220
0.0
230
1.0
 70
    11
 71
     3
 72
    52
 73
    48
 74
     0
 42
0.0000000001
 43
0.0000000001
 40
0.0
 40
0.0
 40
0.0
 40
0.0
 40
0.0769230769230769
 40
0.0769230769230769
 40
0.0769230769230769
 40
0.0769230769230769
 40
0.1538461538461539
 40
0.1538461538461539
 40
0.1538461538461539
 40
0.1538461538461539
 40
0.2307692307692308
 40
0.2307692307692308
 40
0.2307692307692308
 40
0.2307692307692308
 40
0.3076923076923077
 40
0.3076923076923077
 40
0.3076923076923077
 40
0.3076923076923077
 40
0.3846153846153846
 40
0.3846153846153846
 40
0.3846153846153846
 40
0.3846153846153846
 40
0.4615384615384616
 40
0.4615384615384616
 40
0.4615384615384616
 40
0.4615384615384616
 40
0.5384615384615384
 40
0.5384615384615384
 40
0.5384615384615384
 40
0.5384615384615384
 40
0.6153846153846154
 40
0.6153846153846154
 40
0.6153846153846154
 40
0.6153846153846154
 40
0.6923076923076923
 40
0.6923076923076923
 40
0.6923076923076923
 40
0.6923076923076923
 40
0.7692307692307693
 40
0.7692307692307693
 40
0.7692307692307693
 40
0.7692307692307693
 40
0.8461538461538461
 40
0.8461538461538461
 40
0.8461538461538461
 40
0.8461538461538461
 40
1.0
 40
1.0
 40
1.0
 40
1.0
 10
-324.2093
 20
-477.6101
 30
0.0
 10
-324.2093
 20
-477.6101
 30
0.0
 10
-464.6054
 20
-477.6101
 30
0.0
 10
-464.6054
 20
-477.6101
 30
0.0
 10
-464.6054
 20
-477.6101
 30
0.0
 10
-464.6054
 20
-477.6101
 30
0.0
 10
-464.6054
 20
-443.0557
 30
0.0
 10
-464.6054
 20
-443.0557
 30
0.0
 10
-464.6054
 20
-443.0557
 30
0.0
 10
-464.6054
 20
-443.0557
 30
0.0
 10
-469.5559
 20
-443.0557
 30
0.0
 10
-469.5559
 20
-443.0557
 30
0.0
 10
-469.5559
 20
-443.0557
 30
0.0
 10
-469.5559
 20
-443.0557
 30
0.0
 10
-469.5559
 20
-344.6249
 30
0.0
 10
-469.5559
 20
-344.6249
 30
0.0
 10
-469.5559
 20
-344.6249
 30
0.0
 10
-469.5559
 20
-344.6249
 30
0.0
 10
-464.6054
 20
-344.6249
 30
0.0
 10
-464.6054
 20
-344.6249
 30
0.0
 10
-464.6054
 20
-344.6249
 30
0.0
 10
-464.6054
 20
-344.6249
 30
0.0
 10
-464.6054
 20
-310.0704
 30
0.0
 10
-464.6054
 20
-310.0704
 30
0.0
 10
-464.6054
 20
-310.0704
 30
0.0
 10
-464.6054
 20
-310.0704
 30
0.0
 10
-324.2093
 20
-310.0704
 30
0.0
 10
-324.2093
 20
-310.0704
 30
0.0
 10
-324.2093
 20
-310.0704
 30
0.0
 10
-324.2093
 20
-310.0704
 30
0.0
 10
-324.2093
 20
-344.6249
 30
0.0
 10
-324.2093
 20
-344.6249
 30
0.0
 10
-324.2093
 20
-344.6249
 30
0.0
 10
-324.2093
 20
-344.6249
 30
0.0
 10
-319.2588
 20
-344.6249
 30
0.0
 10
-319.2588
 20
-344.6249
 30
0.0
 10
-319.2588
 20
-344.6249
 30
0.0
 10
-319.2588
 20
-344.6249
 30
0.0
 10
-319.2588
 20
-443.0557
 30
0.0
 10
-319.2588
 20
-443.0557
 30
0.0
 10
-319.2588
 20
-443.0557
 30
0.0
 10
-319.2588
 20
-443.0557
 30
0.0
 10
-324.2093
 20
-443.0557
 30
0.0
 10
-324.2093
 20
-443.0557
 30
0.0
 10
-324.2093
 20
-443.0557
 30
0.0
 10
-324.2093
 20
-443.0557
 30
0.0
 10
-324.2093
 20
-477.6101
 30
0.0
 10
-324.2093
 20
-477.6101
 30
0.0
  0
SPLINE
  5
42
330
1F
100
AcDbEntity
  8
Linee 2D
370
    53
100
AcDbSpline
210
0.0
220
0.0
230
1.0
 70
    11
 71
     3
 72
    68
 73
    64
 74
     0
 42
0.0000000001
 43
0.0000000001
 40
0.0
 40
0.0
 40
0.0
 40
0.0
 40
0.0588235294117647
 40
0.0588235294117647
 40
0.0588235294117647
 40
0.0588235294117647
 40
0.1176470588235294
 40
0.1176470588235294
 40
0.1176470588235294
 40
0.1176470588235294
 40
0.1764705882352941
 40
0.1764705882352941
 40
0.1764705882352941
 40
0.1764705882352941
 40
0.2352941176470588
 40
0.2352941176470588
 40
0.2352941176470588
 40
0.2352941176470588
 40
0.2941176470588235
 40
0.2941176470588235
 40
0.2941176470588235
 40
0.2941176470588235
 40
0.3529411764705883
 40
0.3529411764705883
 40
0.3529411764705883
 40
0.3529411764705883
 40
0.4117647058823529
 40
0.4117647058823529
 40
0.4117647058823529
 40
0.4117647058823529
 40
0.4705882352941176
 40
0.4705882352941176
 40
0.4705882352941176
 40
0.4705882352941176
 40
0.5294117647058824
 40
0.5294117647058824
 40
0.5294117647058824
 40
0.5294117647058824
 40
0.5882352941176471
 40
0.5882352941176471
 40
0.5882352941176471
 40
0.5882352941176471
 40
0.6470588235294118
 40
0.6470588235294118
 40
0.6470588235294118
 40
0.6470588235294118
 40
0.7058823529411765
 40
0.7058823529411765
 40
0.7058823529411765
 40
0.7058823529411765
 40
0.7647058823529411
 40
0.7647058823529411
 40
0.7647058823529411
 40
0.7647058823529411
 40
0.8235294117647058
 40
0.8235294117647058
 40
0.8235294117647058
 40
0.8235294117647058
 40
0.8823529411764706
 40
0.8823529411764706
 40
0.8823529411764706
 40
0.8823529411764706
 40
1.0
 40
1.0
 40
1.0
 40
1.0
 10
-53.329
 20
-14.9963
 30
0.0
 10
-106.0352
 20
-14.9963
 30
0.0
 10
-158.7415
 20
-14.9963
 30
0.0
 10
-211.4478
 20
-14.9963
 30
0.0
 10
-211.4478
 20
-14.9963
 30
0.0
 10
-211.4478
 20
13.0564
 30
0.0
 10
-211.4478
 20
41.1092
 30
0.0
 10
-211.4478
 20
69.162
 30
0.0
 10
-211.4478
 20
69.162
 30
0.0
 10
-213.098
 20
69.162
 30
0.0
 10
-214.7481
 20
69.162
 30
0.0
 10
-216.3983
 20
69.162
 30
0.0
 10
-216.3983
 20
69.162
 30
0.0
 10
-216.3983
 20
41.1092
 30
0.0
 10
-216.3983
 20
13.0564
 30
0.0
 10
-216.3983
 20
-14.9963
 30
0.0
 10
-216.3983
 20
-14.9963
 30
0.0
 10
-219.6986
 20
-14.9963
 30
0.0
 10
-222.999
 20
-14.9963
 30
0.0
 10
-226.2993
 20
-14.9963
 30
0.0
 10
-226.2993
 20
-14.9963
 30
0.0
 10
-229.0607
 20
-14.9963
 30
0.0
 10
-231.2993
 20
-12.7577
 30
0.0
 10
-231.2993
 20
-9.9963
 30
0.0
 10
-231.2993
 20
-9.9963
 30
0.0
 10
-231.2993
 20
42.7759
 30
0.0
 10
-231.2993
 20
95.5482
 30
0.0
 10
-231.2993
 20
148.3204
 30
0.0
 10
-231.2993
 20
148.3204
 30
0.0
 10
-231.2993
 20
151.0819
 30
0.0
 10
-229.0607
 20
153.3205
 30
0.0
 10
-226.2993
 20
153.3205
 30
0.0
 10
-226.2993
 20
153.3205
 30
0.0
 10
-163.692
 20
153.3205
 30
0.0
 10
-101.0848
 20
153.3205
 30
0.0
 10
-38.4775
 20
153.3205
 30
0.0
 10
-38.4775
 20
153.3205
 30
0.0
 10
-35.7161
 20
153.3205
 30
0.0
 10
-33.4775
 20
151.0819
 30
0.0
 10
-33.4775
 20
148.3204
 30
0.0
 10
-33.4775
 20
148.3204
 30
0.0
 10
-33.4775
 20
95.5482
 30
0.0
 10
-33.4775
 20
42.7759
 30
0.0
 10
-33.4775
 20
-9.9963
 30
0.0
 10
-33.4775
 20
-9.9963
 30
0.0
 10
-33.4775
 20
-12.7577
 30
0.0
 10
-35.7161
 20
-14.9963
 30
0.0
 10
-38.4775
 20
-14.9963
 30
0.0
 10
-38.4775
 20
-14.9963
 30
0.0
 10
-41.7778
 20
-14.9963
 30
0.0
 10
-45.0782
 20
-14.9963
 30
0.0
 10
-48.3785
 20
-14.9963
 30
0.0
 10
-48.3785
 20
-14.9963
 30
0.0
 10
-48.3785
 20
13.0564
 30
0.0
 10
-48.3785
 20
41.1092
 30
0.0
 10
-48.3785
 20
69.162
 30
0.0
 10
-48.3785
 20
69.162
 30
0.0
 10
-50.0287
 20
69.162
 30
0.0
 10
-51.6788
 20
69.162
 30
0.0
 10
-53.329
 20
69.162
 30
0.0
 10
-53.329
 20
69.162
 30
0.0
 10
-53.329
 20
41.1092
 30
0.0
 10
-53.329
 20
13.0564
 30
0.0
 10
-53.329
 20
-14.9963
 30
0.0
  0
SPLINE
  5
43
330
1F
100
AcDbEntity
  8
Linee 2D
370
    53
100
AcDbSpline
210
0.0
220
0.0
230
1.0
 70
    11
 71
     3
 72
    68
 73
    64
 74
     0
 42
0.0000000001
 43
0.0000000001
 40
0.0
 40
0.0
 40
0.0
 40
0.0
 40
0.0588235294117647
 40
0.0588235294117647
 40
0.0588235294117647
 40
0.0588235294117647
 40
0.1176470588235294
 40
0.1176470588235294
 40
0.1176470588235294
 40
0.1176470588235294
 40
0.1764705882352941
 40
0.1764705882352941
 40
0.1764705882352941
 40
0.1764705882352941
 40
0.2352941176470588
 40
0.2352941176470588
 40
0.2352941176470588
 40
0.2352941176470588
 40
0.2941176470588235
 40
0.2941176470588235
 40
0.2941176470588235
 40
0.2941176470588235
 40
0.3529411764705883
 40
0.3529411764705883
 40
0.3529411764705883
 40
0.3529411764705883
 40
0.4117647058823529
 40
0.4117647058823529
 40
0.4117647058823529
 40
0.4117647058823529
 40
0.4705882352941176
 40
0.4705882352941176
 40
0.4705882352941176
 40
0.4705882352941176
 40
0.5294117647058824
 40
0.5294117647058824
 40
0.5294117647058824
 40
0.5294117647058824
 40
0.5882352941176471
 40
0.5882352941176471
 40
0.5882352941176471
 40
0.5882352941176471
 40
0.6470588235294118
 40
0.6470588235294118
 40
0.6470588235294118
 40
0.6470588235294118
 40
0.7058823529411765
 40
0.7058823529411765
 40
0.7058823529411765
 40
0.7058823529411765
 40
0.7647058823529411
 40
0.7647058823529411
 40
0.7647058823529411
 40
0.7647058823529411
 40
0.8235294117647058
 40
0.8235294117647058
 40
0.8235294117647058
 40
0.8235294117647058
 40
0.8823529411764706
 40
0.8823529411764706
 40
0.8823529411764706
 40
0.8823529411764706
 40
1.0
 40
1.0
 40
1.0
 40
1.0
 10
-52.8953
 20
-18.6525
 30
0.0
 10
-99.694
 20
-18.6525
 30
0.0
 10
-146.4927
 20
-18.6525
 30
0.0
 10
-193.2914
 20
-18.6525
 30
0.0
 10
-193.2914
 20
-18.6525
 30
0.0
 10
-193.2914
 20
-31.1938
 30
0.0
 10
-193.2914
 20
-43.735
 30
0.0
 10
-193.2914
 20
-56.2763
 30
0.0
 10
-193.2914
 20
-56.2763
 30
0.0
 10
-194.9416
 20
-56.2763
 30
0.0
 10
-196.5917
 20
-56.2763
 30
0.0
 10
-198.2419
 20
-56.2763
 30
0.0
 10
-198.2419
 20
-56.2763
 30
0.0
 10
-198.2419
 20
-43.735
 30
0.0
 10
-198.2419
 20
-31.1938
 30
0.0
 10
-198.2419
 20
-18.6525
 30
0.0
 10
-198.2419
 20
-18.6525
 30
0.0
 10
-201.5257
 20
-18.6525
 30
0.0
 10
-204.8095
 20
-18.6525
 30
0.0
 10
-208.0934
 20
-18.6525
 30
0.0
 10
-208.0934
 20
-18.6525
 30
0.0
 10
-210.8548
 20
-18.6525
 30
0.0
 10
-213.0934
 20
-20.8911
 30
0.0
 10
-213.0934
 20
-23.6525
 30
0.0
 10
-213.0934
 20
-23.6525
 30
0.0
 10
-213.0934
 20
-45.7317
 30
0.0
 10
-213.0934
 20
-67.8109
 30
0.0
 10
-213.0934
 20
-89.8901
 30
0.0
 10
-213.0934
 20
-89.8901
 30
0.0
 10
-213.0934
 20
-92.6516
 30
0.0
 10
-210.8548
 20
-94.8901
 30
0.0
 10
-208.0934
 20
-94.8901
 30
0.0
 10
-208.0934
 20
-94.8901
 30
0.0
 10
-151.4267
 20
-94.8901
 30
0.0
 10
-94.76
 20
-94.8901
 30
0.0
 10
-38.0934
 20
-94.8901
 30
0.0
 10
-38.0934
 20
-94.8901
 30
0.0
 10
-35.3319
 20
-94.8901
 30
0.0
 10
-33.0934
 20
-92.6516
 30
0.0
 10
-33.0934
 20
-89.8901
 30
0.0
 10
-33.0934
 20
-89.8901
 30
0.0
 10
-33.0934
 20
-67.8109
 30
0.0
 10
-33.0934
 20
-45.7317
 30
0.0
 10
-33.0934
 20
-23.6525
 30
0.0
 10
-33.0934
 20
-23.6525
 30
0.0
 10
-33.0934
 20
-20.8911
 30
0.0
 10
-35.3319
 20
-18.6525
 30
0.0
 10
-38.0934
 20
-18.6525
 30
0.0
 10
-38.0934
 20
-18.6525
 30
0.0
 10
-41.3772
 20
-18.6525
 30
0.0
 10
-44.661
 20
-18.6525
 30
0.0
 10
-47.9448
 20
-18.6525
 30
0.0
 10
-47.9448
 20
-18.6525
 30
0.0
 10
-47.9448
 20
-31.1938
 30
0.0
 10
-47.9448
 20
-43.735
 30
0.0
 10
-47.9448
 20
-56.2763
 30
0.0
 10
-47.9448
 20
-56.2763
 30
0.0
 10
-49.595
 20
-56.2763
 30
0.0
 10
-51.2452
 20
-56.2763
 30
0.0
 10
-52.8953
 20
-56.2763
 30
0.0
 10
-52.8953
 20
-56.2763
 30
0.0
 10
-52.8953
 20
-43.735
 30
0.0
 10
-52.8953
 20
-31.1938
 30
0.0
 10
-52.8953
 20
-18.6525
 30
0.0
  0
SPLINE
  5
44
330
1F
100
AcDbEntity
  8
Linee 2D
370
    53
100
AcDbSpline
210
0.0
220
0.0
230
1.0
 70
    11
 71
     3
 72
    68
 73
    64
 74
     0
 42
0.0000000001
 43
0.0000000001
 40
0.0
 40
0.0
 40
0.0
 40
0.0
 40
0.0588235294117647
 40
0.0588235294117647
 40
0.0588235294117647
 40
0.0588235294117647
 40
0.1176470588235294
 40
0.1176470588235294
 40
0.1176470588235294
 40
0.1176470588235294
 40
0.1764705882352941
 40
0.1764705882352941
 40
0.1764705882352941
 40
0.1764705882352941
 40
0.2352941176470588
 40
0.2352941176470588
 40
0.2352941176470588
 40
0.2352941176470588
 40
0.2941176470588235
 40
0.2941176470588235
 40
0.2941176470588235
 40
0.2941176470588235
 40
0.3529411764705883
 40
0.3529411764705883
 40
0.3529411764705883
 40
0.3529411764705883
 40
0.4117647058823529
 40
0.4117647058823529
 40
0.4117647058823529
 40
0.4117647058823529
 40
0.4705882352941176
 40
0.4705882352941176
 40
0.4705882352941176
 40
0.4705882352941176
 40
0.5294117647058824
 40
0.5294117647058824
 40
0.5294117647058824
 40
0.5294117647058824
 40
0.5882352941176471
 40
0.5882352941176471
 40
0.5882352941176471
 40
0.5882352941176471
 40
0.6470588235294118
 40
0.6470588235294118
 40
0.6470588235294118
 40
0.6470588235294118
 40
0.7058823529411765
 40
0.7058823529411765
 40
0.7058823529411765
 40
0.7058823529411765
 40
0.7647058823529411
 40
0.7647058823529411
 40
0.7647058823529411
 40
0.7647058823529411
 40
0.8235294117647058
 40
0.8235294117647058
 40
0.8235294117647058
 40
0.8235294117647058
 40
0.8823529411764706
 40
0.8823529411764706
 40
0.8823529411764706
 40
0.8823529411764706
 40
1.0
 40
1.0
 40
1.0
 40
1.0
 10
-257.0865
 20
-13.2102
 30
0.0
 10
-309.7927
 20
-13.2102
 30
0.0
 10
-362.499
 20
-13.2102
 30
0.0
 10
-415.2053
 20
-13.2102
 30
0.0
 10
-415.2053
 20
-13.2102
 30
0.0
 10
-415.2053
 20
14.8425
 30
0.0
 10
-415.2053
 20
42.8953
 30
0.0
 10
-415.2053
 20
70.9481
 30
0.0
 10
-415.2053
 20
70.9481
 30
0.0
 10
-416.8554
 20
70.9481
 30
0.0
 10
-418.5056
 20
70.9481
 30
0.0
 10
-420.1558
 20
70.9481
 30
0.0
 10
-420.1558
 20
70.9481
 30
0.0
 10
-420.1558
 20
42.8953
 30
0.0
 10
-420.1558
 20
14.8425
 30
0.0
 10
-420.1558
 20
-13.2102
 30
0.0
 10
-420.1558
 20
-13.2102
 30
0.0
 10
-423.4561
 20
-13.2102
 30
0.0
 10
-426.7564
 20
-13.2102
 30
0.0
 10
-430.0568
 20
-13.2102
 30
0.0
 10
-430.0568
 20
-13.2102
 30
0.0
 10
-432.8182
 20
-13.2102
 30
0.0
 10
-435.0568
 20
-10.9716
 30
0.0
 10
-435.0568
 20
-8.2102
 30
0.0
 10
-435.0568
 20
-8.2102
 30
0.0
 10
-435.0568
 20
44.562
 30
0.0
 10
-435.0568
 20
97.3343
 30
0.0
 10
-435.0568
 20
150.1065
 30
0.0
 10
-435.0568
 20
150.1065
 30
0.0
 10
-435.0568
 20
152.8679
 30
0.0
 10
-432.8182
 20
155.1065
 30
0.0
 10
-430.0568
 20
155.1065
 30
0.0
 10
-430.0568
 20
155.1065
 30
0.0
 10
-367.4495
 20
155.1065
 30
0.0
 10
-304.8422
 20
155.1065
 30
0.0
 10
-242.235
 20
155.1065
 30
0.0
 10
-242.235
 20
155.1065
 30
0.0
 10
-239.4735
 20
155.1065
 30
0.0
 10
-237.235
 20
152.8679
 30
0.0
 10
-237.235
 20
150.1065
 30
0.0
 10
-237.235
 20
150.1065
 30
0.0
 10
-237.235
 20
97.3343
 30
0.0
 10
-237.235
 20
44.562
 30
0.0
 10
-237.235
 20
-8.2102
 30
0.0
 10
-237.235
 20
-8.2102
 30
0.0
 10
-237.235
 20
-10.9716
 30
0.0
 10
-239.4735
 20
-13.2102
 30
0.0
 10
-242.235
 20
-13.2102
 30
0.0
 10
-242.235
 20
-13.2102
 30
0.0
 10
-245.5353
 20
-13.2102
 30
0.0
 10
-248.8356
 20
-13.2102
 30
0.0
 10
-252.136
 20
-13.2102
 30
0.0
 10
-252.136
 20
-13.2102
 30
0.0
 10
-252.136
 20
14.8425
 30
0.0
 10
-252.136
 20
42.8953
 30
0.0
 10
-252.136
 20
70.9481
 30
0.0
 10
-252.136
 20
70.9481
 30
0.0
 10
-253.7861
 20
70.9481
 30
0.0
 10
-255.4363
 20
70.9481
 30
0.0
 10
-257.0865
 20
70.9481
 30
0.0
 10
-257.0865
 20
70.9481
 30
0.0
 10
-257.0865
 20
42.8953
 30
0.0
 10
-257.0865
 20
14.8425
 30
0.0
 10
-257.0865
 20
-13.2102
 30
0.0
  0
SPLINE
  5
45
330
1F
100
AcDbEntity
  8
Linee 2D
370
    53
100
AcDbSpline
210
0.0
220
0.0
230
1.0
 70
    11
 71
     3
 72
   100
 73
    96
 74
     0
 42
0.0000000001
 43
0.0000000001
 40
0.0
 40
0.0
 40
0.0
 40
0.0
 40
0.04
 40
0.04
 40
0.04
 40
0.04
 40
0.08
 40
0.08
 40
0.08
 40
0.08
 40
0.12
 40
0.12
 40
0.12
 40
0.12
 40
0.16
 40
0.16
 40
0.16
 40
0.16
 40
0.2
 40
0.2
 40
0.2
 40
0.2
 40
0.24
 40
0.24
 40
0.24
 40
0.24
 40
0.28
 40
0.28
 40
0.28
 40
0.28
 40
0.32
 40
0.32
 40
0.32
 40
0.32
 40
0.36
 40
0.36
 40
0.36
 40
0.36
 40
0.4
 40
0.4
 40
0.4
 40
0.4
 40
0.44
 40
0.44
 40
0.44
 40
0.44
 40
0.48
 40
0.48
 40
0.48
 40
0.48
 40
0.52
 40
0.52
 40
0.52
 40
0.52
 40
0.56
 40
0.56
 40
0.56
 40
0.56
 40
0.6
 40
0.6
 40
0.6
 40
0.6
 40
0.64
 40
0.64
 40
0.64
 40
0.64
 40
0.68
 40
0.68
 40
0.68
 40
0.68
 40
0.72
 40
0.72
 40
0.72
 40
0.72
 40
0.76
 40
0.76
 40
0.76
 40
0.76
 40
0.8
 40
0.8
 40
0.8
 40
0.8
 40
0.84
 40
0.84
 40
0.84
 40
0.84
 40
0.88
 40
0.88
 40
0.88
 40
0.88
 40
0.92
 40
0.92
 40
0.92
 40
0.92
 40
1.0
 40
1.0
 40
1.0
 40
1.0
 10
223.1043
 20
-378.1335
 30
0.0
 10
223.1043
 20
-340.1962
 30
0.0
 10
223.1043
 20
-302.2589
 30
0.0
 10
223.1043
 20
-264.3216
 30
0.0
 10
223.1043
 20
-264.3216
 30
0.0
 10
221.4541
 20
-264.3216
 30
0.0
 10
219.8039
 20
-264.3216
 30
0.0
 10
218.1538
 20
-264.3216
 30
0.0
 10
218.1538
 20
-264.3216
 30
0.0
 10
218.1538
 20
-281.7772
 30
0.0
 10
218.1538
 20
-299.2329
 30
0.0
 10
218.1538
 20
-316.6886
 30
0.0
 10
218.1538
 20
-316.6886
 30
0.0
 10
191.7261
 20
-275.3954
 30
0.0
 10
165.2985
 20
-234.1022
 30
0.0
 10
138.8708
 20
-192.809
 30
0.0
 10
138.8708
 20
-192.809
 30
0.0
 10
136.7409
 20
-189.4809
 30
0.0
 10
139.1309
 20
-185.1137
 30
0.0
 10
143.0822
 20
-185.1137
 30
0.0
 10
143.0822
 20
-185.1137
 30
0.0
 10
154.3602
 20
-185.1137
 30
0.0
 10
165.6381
 20
-185.1137
 30
0.0
 10
176.9161
 20
-185.1137
 30
0.0
 10
176.9161
 20
-185.1137
 30
0.0
 10
183.7515
 20
-195.794
 30
0.0
 10
190.5869
 20
-206.4743
 30
0.0
 10
197.4223
 20
-217.1545
 30
0.0
 10
197.4223
 20
-217.1545
 30
0.0
 10
198.8122
 20
-216.265
 30
0.0
 10
200.2021
 20
-215.3755
 30
0.0
 10
201.592
 20
-214.4859
 30
0.0
 10
201.592
 20
-214.4859
 30
0.0
 10
195.3259
 20
-204.6952
 30
0.0
 10
189.0598
 20
-194.9045
 30
0.0
 10
182.7937
 20
-185.1137
 30
0.0
 10
182.7937
 20
-185.1137
 30
0.0
 10
262.3737
 20
-185.1137
 30
0.0
 10
341.9537
 20
-185.1137
 30
0.0
 10
421.5337
 20
-185.1137
 30
0.0
 10
421.5337
 20
-185.1137
 30
0.0
 10
415.2675
 20
-194.9045
 30
0.0
 10
409.0015
 20
-204.6952
 30
0.0
 10
402.7354
 20
-214.4859
 30
0.0
 10
402.7354
 20
-214.4859
 30
0.0
 10
404.1253
 20
-215.3755
 30
0.0
 10
405.5151
 20
-216.265
 30
0.0
 10
406.9051
 20
-217.1545
 30
0.0
 10
406.9051
 20
-217.1545
 30
0.0
 10
413.7404
 20
-206.4743
 30
0.0
 10
420.5758
 20
-195.794
 30
0.0
 10
427.4112
 20
-185.1137
 30
0.0
 10
427.4112
 20
-185.1137
 30
0.0
 10
438.6892
 20
-185.1137
 30
0.0
 10
449.9672
 20
-185.1137
 30
0.0
 10
461.2452
 20
-185.1137
 30
0.0
 10
461.2452
 20
-185.1137
 30
0.0
 10
465.1964
 20
-185.1137
 30
0.0
 10
467.5865
 20
-189.4809
 30
0.0
 10
465.4565
 20
-192.809
 30
0.0
 10
465.4565
 20
-192.809
 30
0.0
 10
439.0289
 20
-234.1022
 30
0.0
 10
412.6012
 20
-275.3954
 30
0.0
 10
386.1736
 20
-316.6886
 30
0.0
 10
386.1736
 20
-316.6886
 30
0.0
 10
386.1736
 20
-299.2329
 30
0.0
 10
386.1736
 20
-281.7772
 30
0.0
 10
386.1736
 20
-264.3216
 30
0.0
 10
386.1736
 20
-264.3216
 30
0.0
 10
384.5234
 20
-264.3216
 30
0.0
 10
382.8732
 20
-264.3216
 30
0.0
 10
381.2231
 20
-264.3216
 30
0.0
 10
381.2231
 20
-264.3216
 30
0.0
 10
381.2231
 20
-302.2589
 30
0.0
 10
381.2231
 20
-340.1962
 30
0.0
 10
381.2231
 20
-378.1335
 30
0.0
 10
381.2231
 20
-378.1335
 30
0.0
 10
364.7709
 20
-378.1335
 30
0.0
 10
348.3188
 20
-378.1335
 30
0.0
 10
331.8666
 20
-378.1335
 30
0.0
 10
331.8666
 20
-378.1335
 30
0.0
 10
331.8666
 20
-379.7836
 30
0.0
 10
331.8666
 20
-381.4338
 30
0.0
 10
331.8666
 20
-383.084
 30
0.0
 10
331.8666
 20
-383.084
 30
0.0
 10
312.0041
 20
-383.084
 30
0.0
 10
292.1416
 20
-383.084
 30
0.0
 10
272.2791
 20
-383.084
 30
0.0
 10
272.2791
 20
-383.084
 30
0.0
 10
272.2791
 20
-381.4338
 30
0.0
 10
272.2791
 20
-379.7836
 30
0.0
 10
272.2791
 20
-378.1335
 30
0.0
 10
272.2791
 20
-378.1335
 30
0.0
 10
255.8875
 20
-378.1335
 30
0.0
 10
239.4959
 20
-378.1335
 30
0.0
 10
223.1043
 20
-378.1335
 30
0.0
  0
SPLINE
  5
46
330
1F
100
AcDbEntity
  8
Linee 2D
370
    53
100
AcDbSpline
210
0.0
220
0.0
230
1.0
 70
    11
 71
     3
 72
    20
 73
    16
 74
     0
 42
0.0000000001
 43
0.0000000001
 40
0.0
 40
0.0
 40
0.0
 40
0.0
 40
0.2
 40
0.2
 40
0.2
 40
0.2
 40
0.4
 40
0.4
 40
0.4
 40
0.4
 40
0.6
 40
0.6
 40
0.6
 40
0.6
 40
1.0
 40
1.0
 40
1.0
 40
1.0
 10
351.6686
 20
-249.4701
 30
0.0
 10
351.6686
 20
-249.4701
 30
0.0
 10
351.6686
 20
-254.4206
 30
0.0
 10
351.6686
 20
-254.4206
 30
0.0
 10
351.6686
 20
-254.4206
 30
0.0
 10
351.6686
 20
-254.4206
 30
0.0
 10
252.6587
 20
-254.4206
 30
0.0
 10
252.6587
 20
-254.4206
 30
0.0
 10
252.6587
 20
-254.4206
 30
0.0
 10
252.6587
 20
-254.4206
 30
0.0
 10
252.6587
 20
-249.4701
 30
0.0
 10
252.6587
 20
-249.4701
 30
0.0
 10
252.6587
 20
-249.4701
 30
0.0
 10
252.6587
 20
-249.4701
 30
0.0
 10
351.6686
 20
-249.4701
 30
0.0
 10
351.6686
 20
-249.4701
 30
0.0
  0
SPLINE
  5
47
330
1F
100
AcDbEntity
  8
Linee 2D
370
    53
100
AcDbSpline
210
0.0
220
0.0
230
1.0
 70
    11
 71
     3
 72
    52
 73
    48
 74
     0
 42
0.0000000001
 43
0.0000000001
 40
0.0
 40
0.0
 40
0.0
 40
0.0
 40
0.0769230769230769
 40
0.0769230769230769
 40
0.0769230769230769
 40
0.0769230769230769
 40
0.1538461538461539
 40
0.1538461538461539
 40
0.1538461538461539
 40
0.1538461538461539
 40
0.2307692307692308
 40
0.2307692307692308
 40
0.2307692307692308
 40
0.2307692307692308
 40
0.3076923076923077
 40
0.3076923076923077
 40
0.3076923076923077
 40
0.3076923076923077
 40
0.3846153846153846
 40
0.3846153846153846
 40
0.3846153846153846
 40
0.3846153846153846
 40
0.4615384615384616
 40
0.4615384615384616
 40
0.4615384615384616
 40
0.4615384615384616
 40
0.5384615384615384
 40
0.5384615384615384
 40
0.5384615384615384
 40
0.5384615384615384
 40
0.6153846153846154
 40
0.6153846153846154
 40
0.6153846153846154
 40
0.6153846153846154
 40
0.6923076923076923
 40
0.6923076923076923
 40
0.6923076923076923
 40
0.6923076923076923
 40
0.7692307692307693
 40
0.7692307692307693
 40
0.7692307692307693
 40
0.7692307692307693
 40
0.8461538461538461
 40
0.8461538461538461
 40
0.8461538461538461
 40
0.8461538461538461
 40
1.0
 40
1.0
 40
1.0
 40
1.0
 10
51.2252
 20
-316.5005
 30
0.0
 10
51.2252
 20
-316.5005
 30
0.0
 10
51.2252
 20
-347.0945
 30
0.0
 10
51.2252
 20
-347.0945
 30
0.0
 10
51.2252
 20
-347.0945
 30
0.0
 10
51.2252
 20
-347.0945
 30
0.0
 10
46.2747
 20
-347.0945
 30
0.0
 10
46.2747
 20
-347.0945
 30
0.0
 10
46.2747
 20
-347.0945
 30
0.0
 10
46.2747
 20
-347.0945
 30
0.0
 10
46.2747
 20
-446.1045
 30
0.0
 10
46.2747
 20
-446.1045
 30
0.0
 10
46.2747
 20
-446.1045
 30
0.0
 10
46.2747
 20
-446.1045
 30
0.0
 10
51.2252
 20
-446.1045
 30
0.0
 10
51.2252
 20
-446.1045
 30
0.0
 10
51.2252
 20
-446.1045
 30
0.0
 10
51.2252
 20
-446.1045
 30
0.0
 10
51.2252
 20
-476.6985
 30
0.0
 10
51.2252
 20
-476.6985
 30
0.0
 10
51.2252
 20
-476.6985
 30
0.0
 10
51.2252
 20
-476.6985
 30
0.0
 10
209.344
 20
-476.6985
 30
0.0
 10
209.344
 20
-476.6985
 30
0.0
 10
209.344
 20
-476.6985
 30
0.0
 10
209.344
 20
-476.6985
 30
0.0
 10
209.344
 20
-446.1045
 30
0.0
 10
209.344
 20
-446.1045
 30
0.0
 10
209.344
 20
-446.1045
 30
0.0
 10
209.344
 20
-446.1045
 30
0.0
 10
214.2945
 20
-446.1045
 30
0.0
 10
214.2945
 20
-446.1045
 30
0.0
 10
214.2945
 20
-446.1045
 30
0.0
 10
214.2945
 20
-446.1045
 30
0.0
 10
214.2945
 20
-347.0945
 30
0.0
 10
214.2945
 20
-347.0945
 30
0.0
 10
214.2945
 20
-347.0945
 30
0.0
 10
214.2945
 20
-347.0945
 30
0.0
 10
209.344
 20
-347.0945
 30
0.0
 10
209.344
 20
-347.0945
 30
0.0
 10
209.344
 20
-347.0945
 30
0.0
 10
209.344
 20
-347.0945
 30
0.0
 10
209.344
 20
-316.5005
 30
0.0
 10
209.344
 20
-316.5005
 30
0.0
 10
209.344
 20
-316.5005
 30
0.0
 10
209.344
 20
-316.5005
 30
0.0
 10
51.2252
 20
-316.5005
 30
0.0
 10
51.2252
 20
-316.5005
 30
0.0
  0
SPLINE
  5
48
330
1F
100
AcDbEntity
  8
Linee 2D
370
    53
100
AcDbSpline
210
0.0
220
0.0
230
1.0
 70
    11
 71
     3
 72
    20
 73
    16
 74
     0
 42
0.0000000001
 43
0.0000000001
 40
0.0
 40
0.0
 40
0.0
 40
0.0
 40
0.2
 40
0.2
 40
0.2
 40
0.2
 40
0.4
 40
0.4
 40
0.4
 40
0.4
 40
0.6
 40
0.6
 40
0.6
 40
0.6
 40
1.0
 40
1.0
 40
1.0
 40
1.0
 10
159.9876
 20
-321.451
 30
0.0
 10
159.9876
 20
-321.451
 30
0.0
 10
100.5817
 20
-321.451
 30
0.0
 10
100.5817
 20
-321.451
 30
0.0
 10
100.5817
 20
-321.451
 30
0.0
 10
100.5817
 20
-321.451
 30
0.0
 10
100.5817
 20
-326.4015
 30
0.0
 10
100.5817
 20
-326.4015
 30
0.0
 10
100.5817
 20
-326.4015
 30
0.0
 10
100.5817
 20
-326.4015
 30
0.0
 10
159.9876
 20
-326.4015
 30
0.0
 10
159.9876
 20
-326.4015
 30
0.0
 10
159.9876
 20
-326.4015
 30
0.0
 10
159.9876
 20
-326.4015
 30
0.0
 10
159.9876
 20
-321.451
 30
0.0
 10
159.9876
 20
-321.451
 30
0.0
  0
SPLINE
  5
49
330
1F
100
AcDbEntity
  8
Linee 2D
370
    53
100
AcDbSpline
210
0.0
220
0.0
230
1.0
 70
    11
 71
     3
 72
    20
 73
    16
 74
     0
 42
0.0000000001
 43
0.0000000001
 40
0.0
 40
0.0
 40
0.0
 40
0.0
 40
0.2
 40
0.2
 40
0.2
 40
0.2
 40
0.4
 40
0.4
 40
0.4
 40
0.4
 40
0.6
 40
0.6
 40
0.6
 40
0.6
 40
1.0
 40
1.0
 40
1.0
 40
1.0
 10
159.9876
 20
-466.7975
 30
0.0
 10
159.9876
 20
-466.7975
 30
0.0
 10
100.5817
 20
-466.7975
 30
0.0
 10
100.5817
 20
-466.7975
 30
0.0
 10
100.5817
 20
-466.7975
 30
0.0
 10
100.5817
 20
-466.7975
 30
0.0
 10
100.5817
 20
-471.748
 30
0.0
 10
100.5817
 20
-471.748
 30
0.0
 10
100.5817
 20
-471.748
 30
0.0
 10
100.5817
 20
-471.748
 30
0.0
 10
159.9876
 20
-471.748
 30
0.0
 10
159.9876
 20
-471.748
 30
0.0
 10
159.9876
 20
-471.748
 30
0.0
 10
159.9876
 20
-471.748
 30
0.0
 10
159.9876
 20
-466.7975
 30
0.0
 10
159.9876
 20
-466.7975
 30
0.0
  0
SPLINE
  5
4A
330
1F
100
AcDbEntity
  8
Linee 2D
370
    53
100
AcDbSpline
210
0.0
220
0.0
230
1.0
 70
    11
 71
     3
 72
   100
 73
    96
 74
     0
 42
0.0000000001
 43
0.0000000001
 40
0.0
 40
0.0
 40
0.0
 40
0.0
 40
0.04
 40
0.04
 40
0.04
 40
0.04
 40
0.08
 40
0.08
 40
0.08
 40
0.08
 40
0.12
 40
0.12
 40
0.12
 40
0.12
 40
0.16
 40
0.16
 40
0.16
 40
0.16
 40
0.2
 40
0.2
 40
0.2
 40
0.2
 40
0.24
 40
0.24
 40
0.24
 40
0.24
 40
0.28
 40
0.28
 40
0.28
 40
0.28
 40
0.32
 40
0.32
 40
0.32
 40
0.32
 40
0.36
 40
0.36
 40
0.36
 40
0.36
 40
0.4
 40
0.4
 40
0.4
 40
0.4
 40
0.44
 40
0.44
 40
0.44
 40
0.44
 40
0.48
 40
0.48
 40
0.48
 40
0.48
 40
0.52
 40
0.52
 40
0.52
 40
0.52
 40
0.56
 40
0.56
 40
0.56
 40
0.56
 40
0.6
 40
0.6
 40
0.6
 40
0.6
 40
0.64
 40
0.64
 40
0.64
 40
0.64
 40
0.68
 40
0.68
 40
0.68
 40
0.68
 40
0.72
 40
0.72
 40
0.72
 40
0.72
 40
0.76
 40
0.76
 40
0.76
 40
0.76
 40
0.8
 40
0.8
 40
0.8
 40
0.8
 40
0.84
 40
0.84
 40
0.84
 40
0.84
 40
0.88
 40
0.88
 40
0.88
 40
0.88
 40
0.92
 40
0.92
 40
0.92
 40
0.92
 40
1.0
 40
1.0
 40
1.0
 40
1.0
 10
224.827
 20
-39.0258
 30
0.0
 10
224.827
 20
-1.0885
 30
0.0
 10
224.827
 20
36.8487
 30
0.0
 10
224.827
 20
74.786
 30
0.0
 10
224.827
 20
74.786
 30
0.0
 10
223.1769
 20
74.786
 30
0.0
 10
221.5267
 20
74.786
 30
0.0
 10
219.8765
 20
74.786
 30
0.0
 10
219.8765
 20
74.786
 30
0.0
 10
219.8765
 20
57.3304
 30
0.0
 10
219.8765
 20
39.8747
 30
0.0
 10
219.8765
 20
22.419
 30
0.0
 10
219.8765
 20
22.419
 30
0.0
 10
193.4489
 20
63.7123
 30
0.0
 10
167.0212
 20
105.0055
 30
0.0
 10
140.5936
 20
146.2987
 30
0.0
 10
140.5936
 20
146.2987
 30
0.0
 10
138.4636
 20
149.6267
 30
0.0
 10
140.8537
 20
153.9939
 30
0.0
 10
144.8049
 20
153.9939
 30
0.0
 10
144.8049
 20
153.9939
 30
0.0
 10
156.0829
 20
153.9939
 30
0.0
 10
167.3609
 20
153.9939
 30
0.0
 10
178.6389
 20
153.9939
 30
0.0
 10
178.6389
 20
153.9939
 30
0.0
 10
185.4743
 20
143.3137
 30
0.0
 10
192.3097
 20
132.6334
 30
0.0
 10
199.1451
 20
121.9531
 30
0.0
 10
199.1451
 20
121.9531
 30
0.0
 10
200.535
 20
122.8426
 30
0.0
 10
201.9248
 20
123.7321
 30
0.0
 10
203.3147
 20
124.6217
 30
0.0
 10
203.3147
 20
124.6217
 30
0.0
 10
197.0486
 20
134.4124
 30
0.0
 10
190.7826
 20
144.2032
 30
0.0
 10
184.5165
 20
153.9939
 30
0.0
 10
184.5165
 20
153.9939
 30
0.0
 10
264.0964
 20
153.9939
 30
0.0
 10
343.6764
 20
153.9939
 30
0.0
 10
423.2564
 20
153.9939
 30
0.0
 10
423.2564
 20
153.9939
 30
0.0
 10
416.9903
 20
144.2032
 30
0.0
 10
410.7242
 20
134.4124
 30
0.0
 10
404.4582
 20
124.6217
 30
0.0
 10
404.4582
 20
124.6217
 30
0.0
 10
405.848
 20
123.7321
 30
0.0
 10
407.2379
 20
122.8426
 30
0.0
 10
408.6278
 20
121.9531
 30
0.0
 10
408.6278
 20
121.9531
 30
0.0
 10
415.4632
 20
132.6334
 30
0.0
 10
422.2986
 20
143.3137
 30
0.0
 10
429.134
 20
153.9939
 30
0.0
 10
429.134
 20
153.9939
 30
0.0
 10
440.412
 20
153.9939
 30
0.0
 10
451.6899
 20
153.9939
 30
0.0
 10
462.9679
 20
153.9939
 30
0.0
 10
462.9679
 20
153.9939
 30
0.0
 10
466.9192
 20
153.9939
 30
0.0
 10
469.3092
 20
149.6267
 30
0.0
 10
467.1793
 20
146.2987
 30
0.0
 10
467.1793
 20
146.2987
 30
0.0
 10
440.7517
 20
105.0055
 30
0.0
 10
414.324
 20
63.7123
 30
0.0
 10
387.8963
 20
22.419
 30
0.0
 10
387.8963
 20
22.419
 30
0.0
 10
387.8963
 20
39.8747
 30
0.0
 10
387.8963
 20
57.3304
 30
0.0
 10
387.8963
 20
74.786
 30
0.0
 10
387.8963
 20
74.786
 30
0.0
 10
386.2462
 20
74.786
 30
0.0
 10
384.596
 20
74.786
 30
0.0
 10
382.9458
 20
74.786
 30
0.0
 10
382.9458
 20
74.786
 30
0.0
 10
382.9458
 20
36.8487
 30
0.0
 10
382.9458
 20
-1.0885
 30
0.0
 10
382.9458
 20
-39.0258
 30
0.0
 10
382.9458
 20
-39.0258
 30
0.0
 10
366.4937
 20
-39.0258
 30
0.0
 10
350.0415
 20
-39.0258
 30
0.0
 10
333.5894
 20
-39.0258
 30
0.0
 10
333.5894
 20
-39.0258
 30
0.0
 10
333.5894
 20
-40.6759
 30
0.0
 10
333.5894
 20
-42.3261
 30
0.0
 10
333.5894
 20
-43.9763
 30
0.0
 10
333.5894
 20
-43.9763
 30
0.0
 10
313.7269
 20
-43.9763
 30
0.0
 10
293.8643
 20
-43.9763
 30
0.0
 10
274.0018
 20
-43.9763
 30
0.0
 10
274.0018
 20
-43.9763
 30
0.0
 10
274.0018
 20
-42.3261
 30
0.0
 10
274.0018
 20
-40.6759
 30
0.0
 10
274.0018
 20
-39.0258
 30
0.0
 10
274.0018
 20
-39.0258
 30
0.0
 10
257.6102
 20
-39.0258
 30
0.0
 10
241.2186
 20
-39.0258
 30
0.0
 10
224.827
 20
-39.0258
 30
0.0
  0
SPLINE
  5
4B
330
1F
100
AcDbEntity
  8
Linee 2D
370
    53
100
AcDbSpline
210
0.0
220
0.0
230
1.0
 70
    11
 71
     3
 72
    20
 73
    16
 74
     0
 42
0.0000000001
 43
0.0000000001
 40
0.0
 40
0.0
 40
0.0
 40
0.0
 40
0.2
 40
0.2
 40
0.2
 40
0.2
 40
0.4
 40
0.4
 40
0.4
 40
0.4
 40
0.6
 40
0.6
 40
0.6
 40
0.6
 40
1.0
 40
1.0
 40
1.0
 40
1.0
 10
353.3914
 20
89.6375
 30
0.0
 10
353.3914
 20
89.6375
 30
0.0
 10
353.3914
 20
84.687
 30
0.0
 10
353.3914
 20
84.687
 30
0.0
 10
353.3914
 20
84.687
 30
0.0
 10
353.3914
 20
84.687
 30
0.0
 10
254.3815
 20
84.687
 30
0.0
 10
254.3815
 20
84.687
 30
0.0
 10
254.3815
 20
84.687
 30
0.0
 10
254.3815
 20
84.687
 30
0.0
 10
254.3815
 20
89.6375
 30
0.0
 10
254.3815
 20
89.6375
 30
0.0
 10
254.3815
 20
89.6375
 30
0.0
 10
254.3815
 20
89.6375
 30
0.0
 10
353.3914
 20
89.6375
 30
0.0
 10
353.3914
 20
89.6375
 30
0.0
  0
SPLINE
  5
4C
330
1F
100
AcDbEntity
  8
Linee 2D
370
    53
100
AcDbSpline
210
0.0
220
0.0
230
1.0
 70
    11
 71
     3
 72
    68
 73
    64
 74
     0
 42
0.0000000001
 43
0.0000000001
 40
0.0
 40
0.0
 40
0.0
 40
0.0
 40
0.0588235294117647
 40
0.0588235294117647
 40
0.0588235294117647
 40
0.0588235294117647
 40
0.1176470588235294
 40
0.1176470588235294
 40
0.1176470588235294
 40
0.1176470588235294
 40
0.1764705882352941
 40
0.1764705882352941
 40
0.1764705882352941
 40
0.1764705882352941
 40
0.2352941176470588
 40
0.2352941176470588
 40
0.2352941176470588
 40
0.2352941176470588
 40
0.2941176470588235
 40
0.2941176470588235
 40
0.2941176470588235
 40
0.2941176470588235
 40
0.3529411764705883
 40
0.3529411764705883
 40
0.3529411764705883
 40
0.3529411764705883
 40
0.4117647058823529
 40
0.4117647058823529
 40
0.4117647058823529
 40
0.4117647058823529
 40
0.4705882352941176
 40
0.4705882352941176
 40
0.4705882352941176
 40
0.4705882352941176
 40
0.5294117647058824
 40
0.5294117647058824
 40
0.5294117647058824
 40
0.5294117647058824
 40
0.5882352941176471
 40
0.5882352941176471
 40
0.5882352941176471
 40
0.5882352941176471
 40
0.6470588235294118
 40
0.6470588235294118
 40
0.6470588235294118
 40
0.6470588235294118
 40
0.7058823529411765
 40
0.7058823529411765
 40
0.7058823529411765
 40
0.7058823529411765
 40
0.7647058823529411
 40
0.7647058823529411
 40
0.7647058823529411
 40
0.7647058823529411
 40
0.8235294117647058
 40
0.8235294117647058
 40
0.8235294117647058
 40
0.8235294117647058
 40
0.8823529411764706
 40
0.8823529411764706
 40
0.8823529411764706
 40
0.8823529411764706
 40
1.0
 40
1.0
 40
1.0
 40
1.0
 10
-52.4457
 20
-361.5645
 30
0.0
 10
-99.2444
 20
-361.5645
 30
0.0
 10
-146.0431
 20
-361.5645
 30
0.0
 10
-192.8418
 20
-361.5645
 30
0.0
 10
-192.8418
 20
-361.5645
 30
0.0
 10
-192.8418
 20
-374.1058
 30
0.0
 10
-192.8418
 20
-386.647
 30
0.0
 10
-192.8418
 20
-399.1883
 30
0.0
 10
-192.8418
 20
-399.1883
 30
0.0
 10
-194.4919
 20
-399.1883
 30
0.0
 10
-196.1421
 20
-399.1883
 30
0.0
 10
-197.7923
 20
-399.1883
 30
0.0
 10
-197.7923
 20
-399.1883
 30
0.0
 10
-197.7923
 20
-386.647
 30
0.0
 10
-197.7923
 20
-374.1058
 30
0.0
 10
-197.7923
 20
-361.5645
 30
0.0
 10
-197.7923
 20
-361.5645
 30
0.0
 10
-201.0761
 20
-361.5645
 30
0.0
 10
-204.3599
 20
-361.5645
 30
0.0
 10
-207.6438
 20
-361.5645
 30
0.0
 10
-207.6438
 20
-361.5645
 30
0.0
 10
-210.4052
 20
-361.5645
 30
0.0
 10
-212.6437
 20
-363.8031
 30
0.0
 10
-212.6437
 20
-366.5645
 30
0.0
 10
-212.6437
 20
-366.5645
 30
0.0
 10
-212.6437
 20
-388.6437
 30
0.0
 10
-212.6437
 20
-410.7229
 30
0.0
 10
-212.6437
 20
-432.8022
 30
0.0
 10
-212.6437
 20
-432.8022
 30
0.0
 10
-212.6437
 20
-435.5636
 30
0.0
 10
-210.4052
 20
-437.8021
 30
0.0
 10
-207.6438
 20
-437.8021
 30
0.0
 10
-207.6438
 20
-437.8021
 30
0.0
 10
-150.9771
 20
-437.8021
 30
0.0
 10
-94.3104
 20
-437.8021
 30
0.0
 10
-37.6437
 20
-437.8021
 30
0.0
 10
-37.6437
 20
-437.8021
 30
0.0
 10
-34.8823
 20
-437.8021
 30
0.0
 10
-32.6437
 20
-435.5636
 30
0.0
 10
-32.6437
 20
-432.8022
 30
0.0
 10
-32.6437
 20
-432.8022
 30
0.0
 10
-32.6437
 20
-410.7229
 30
0.0
 10
-32.6437
 20
-388.6437
 30
0.0
 10
-32.6437
 20
-366.5645
 30
0.0
 10
-32.6437
 20
-366.5645
 30
0.0
 10
-32.6437
 20
-363.8031
 30
0.0
 10
-34.8823
 20
-361.5645
 30
0.0
 10
-37.6437
 20
-361.5645
 30
0.0
 10
-37.6437
 20
-361.5645
 30
0.0
 10
-40.9276
 20
-361.5645
 30
0.0
 10
-44.2114
 20
-361.5645
 30
0.0
 10
-47.4952
 20
-361.5645
 30
0.0
 10
-47.4952
 20
-361.5645
 30
0.0
 10
-47.4952
 20
-374.1058
 30
0.0
 10
-47.4952
 20
-386.647
 30
0.0
 10
-47.4952
 20
-399.1883
 30
0.0
 10
-47.4952
 20
-399.1883
 30
0.0
 10
-49.1454
 20
-399.1883
 30
0.0
 10
-50.7955
 20
-399.1883
 30
0.0
 10
-52.4457
 20
-399.1883
 30
0.0
 10
-52.4457
 20
-399.1883
 30
0.0
 10
-52.4457
 20
-386.647
 30
0.0
 10
-52.4457
 20
-374.1058
 30
0.0
 10
-52.4457
 20
-361.5645
 30
0.0
  0
SPLINE
  5
4D
330
1F
100
AcDbEntity
  8
Linee 2D
370
    53
100
AcDbSpline
210
0.0
220
0.0
230
1.0
 70
    11
 71
     3
 72
    20
 73
    16
 74
     0
 42
0.0000000001
 43
0.0000000001
 40
0.0
 40
0.0
 40
0.0
 40
0.0
 40
0.2
 40
0.2
 40
0.2
 40
0.2
 40
0.4
 40
0.4
 40
0.4
 40
0.4
 40
0.6
 40
0.6
 40
0.6
 40
0.6
 40
1.0
 40
1.0
 40
1.0
 40
1.0
 10
244.7095
 20
344.0892
 30
0.0
 10
244.7095
 20
344.0892
 30
0.0
 10
244.7095
 20
349.0397
 30
0.0
 10
244.7095
 20
349.0397
 30
0.0
 10
244.7095
 20
349.0397
 30
0.0
 10
244.7095
 20
349.0397
 30
0.0
 10
343.7194
 20
349.0397
 30
0.0
 10
343.7194
 20
349.0397
 30
0.0
 10
343.7194
 20
349.0397
 30
0.0
 10
343.7194
 20
349.0397
 30
0.0
 10
343.7194
 20
344.0892
 30
0.0
 10
343.7194
 20
344.0892
 30
0.0
 10
343.7194
 20
344.0892
 30
0.0
 10
343.7194
 20
344.0892
 30
0.0
 10
244.7095
 20
344.0892
 30
0.0
 10
244.7095
 20
344.0892
 30
0.0
  0
SPLINE
  5
4E
330
1F
100
AcDbEntity
  8
Linee 2D
370
    53
100
AcDbSpline
210
0.0
220
0.0
230
1.0
 70
    11
 71
     3
 72
   140
 73
   136
 74
     0
 42
0.0000000001
 43
0.0000000001
 40
0.0
 40
0.0
 40
0.0
 40
0.0
 40
0.0285714285714286
 40
0.0285714285714286
 40
0.0285714285714286
 40
0.0285714285714286
 40
0.0571428571428571
 40
0.0571428571428571
 40
0.0571428571428571
 40
0.0571428571428571
 40
0.0857142857142857
 40
0.0857142857142857
 40
0.0857142857142857
 40
0.0857142857142857
 40
0.1142857142857143
 40
0.1142857142857143
 40
0.1142857142857143
 40
0.1142857142857143
 40
0.1428571428571428
 40
0.1428571428571428
 40
0.1428571428571428
 40
0.1428571428571428
 40
0.1714285714285714
 40
0.1714285714285714
 40
0.1714285714285714
 40
0.1714285714285714
 40
0.2
 40
0.2
 40
0.2
 40
0.2
 40
0.2285714285714286
 40
0.2285714285714286
 40
0.2285714285714286
 40
0.2285714285714286
 40
0.2571428571428571
 40
0.2571428571428571
 40
0.2571428571428571
 40
0.2571428571428571
 40
0.2857142857142857
 40
0.2857142857142857
 40
0.2857142857142857
 40
0.2857142857142857
 40
0.3142857142857143
 40
0.3142857142857143
 40
0.3142857142857143
 40
0.3142857142857143
 40
0.3428571428571429
 40
0.3428571428571429
 40
0.3428571428571429
 40
0.3428571428571429
 40
0.3714285714285714
 40
0.3714285714285714
 40
0.3714285714285714
 40
0.3714285714285714
 40
0.4
 40
0.4
 40
0.4
 40
0.4
 40
0.4285714285714285
 40
0.4285714285714285
 40
0.4285714285714285
 40
0.4285714285714285
 40
0.4571428571428571
 40
0.4571428571428571
 40
0.4571428571428571
 40
0.4571428571428571
 40
0.4857142857142857
 40
0.4857142857142857
 40
0.4857142857142857
 40
0.4857142857142857
 40
0.5142857142857142
 40
0.5142857142857142
 40
0.5142857142857142
 40
0.5142857142857142
 40
0.5428571428571428
 40
0.5428571428571428
 40
0.5428571428571428
 40
0.5428571428571428
 40
0.5714285714285714
 40
0.5714285714285714
 40
0.5714285714285714
 40
0.5714285714285714
 40
0.6
 40
0.6
 40
0.6
 40
0.6
 40
0.6285714285714286
 40
0.6285714285714286
 40
0.6285714285714286
 40
0.6285714285714286
 40
0.6571428571428571
 40
0.6571428571428571
 40
0.6571428571428571
 40
0.6571428571428571
 40
0.6857142857142857
 40
0.6857142857142857
 40
0.6857142857142857
 40
0.6857142857142857
 40
0.7142857142857143
 40
0.7142857142857143
 40
0.7142857142857143
 40
0.7142857142857143
 40
0.7428571428571429
 40
0.7428571428571429
 40
0.7428571428571429
 40
0.7428571428571429
 40
0.7714285714285715
 40
0.7714285714285715
 40
0.7714285714285715
 40
0.7714285714285715
 40
0.8
 40
0.8
 40
0.8
 40
0.8
 40
0.8285714285714286
 40
0.8285714285714286
 40
0.8285714285714286
 40
0.8285714285714286
 40
0.8571428571428571
 40
0.8571428571428571
 40
0.8571428571428571
 40
0.8571428571428571
 40
0.8857142857142857
 40
0.8857142857142857
 40
0.8857142857142857
 40
0.8857142857142857
 40
0.9142857142857143
 40
0.9142857142857143
 40
0.9142857142857143
 40
0.9142857142857143
 40
0.9428571428571428
 40
0.9428571428571428
 40
0.9428571428571428
 40
0.9428571428571428
 40
1.0
 40
1.0
 40
1.0
 40
1.0
 10
322.3035
 20
329.2377
 30
0.0
 10
303.5775
 20
329.2377
 30
0.0
 10
284.8514
 20
329.2377
 30
0.0
 10
266.1253
 20
329.2377
 30
0.0
 10
266.1253
 20
329.2377
 30
0.0
 10
264.2788
 20
329.2377
 30
0.0
 10
262.5825
 20
328.22
 30
0.0
 10
261.7135
 20
326.5906
 30
0.0
 10
261.7135
 20
326.5906
 30
0.0
 10
260.0145
 20
323.4049
 30
0.0
 10
258.3154
 20
320.2191
 30
0.0
 10
256.6163
 20
317.0333
 30
0.0
 10
256.6163
 20
317.0333
 30
0.0
 10
255.7473
 20
315.404
 30
0.0
 10
254.0511
 20
314.3862
 30
0.0
 10
252.2045
 20
314.3862
 30
0.0
 10
252.2045
 20
314.3862
 30
0.0
 10
245.7887
 20
314.3862
 30
0.0
 10
239.3728
 20
314.3862
 30
0.0
 10
232.957
 20
314.3862
 30
0.0
 10
232.957
 20
314.3862
 30
0.0
 10
231.1105
 20
314.3862
 30
0.0
 10
229.4142
 20
315.404
 30
0.0
 10
228.5452
 20
317.0333
 30
0.0
 10
228.5452
 20
317.0333
 30
0.0
 10
211.9347
 20
348.178
 30
0.0
 10
195.3242
 20
379.3228
 30
0.0
 10
178.7136
 20
410.4675
 30
0.0
 10
178.7136
 20
410.4675
 30
0.0
 10
177.2566
 20
409.6928
 30
0.0
 10
175.7996
 20
408.9181
 30
0.0
 10
174.3426
 20
408.1434
 30
0.0
 10
174.3426
 20
408.1434
 30
0.0
 10
188.3703
 20
381.8415
 30
0.0
 10
202.398
 20
355.5396
 30
0.0
 10
216.4257
 20
329.2377
 30
0.0
 10
216.4257
 20
329.2377
 30
0.0
 10
210.3849
 20
329.2377
 30
0.0
 10
204.3443
 20
329.2377
 30
0.0
 10
198.3035
 20
329.2377
 30
0.0
 10
198.3035
 20
329.2377
 30
0.0
 10
196.457
 20
329.2377
 30
0.0
 10
194.7607
 20
330.2555
 30
0.0
 10
193.8918
 20
331.8848
 30
0.0
 10
193.8918
 20
331.8848
 30
0.0
 10
169.2669
 20
378.0564
 30
0.0
 10
144.642
 20
424.228
 30
0.0
 10
120.0172
 20
470.3996
 30
0.0
 10
120.0172
 20
470.3996
 30
0.0
 10
118.2409
 20
473.7302
 30
0.0
 10
120.6544
 20
477.7526
 30
0.0
 10
124.4289
 20
477.7526
 30
0.0
 10
124.4289
 20
477.7526
 30
0.0
 10
155.9746
 20
477.7526
 30
0.0
 10
187.5202
 20
477.7526
 30
0.0
 10
219.0659
 20
477.7526
 30
0.0
 10
219.0659
 20
477.7526
 30
0.0
 10
219.0659
 20
472.8021
 30
0.0
 10
219.0659
 20
467.8516
 30
0.0
 10
219.0659
 20
462.9011
 30
0.0
 10
219.0659
 20
462.9011
 30
0.0
 10
220.7161
 20
462.9011
 30
0.0
 10
222.3663
 20
462.9011
 30
0.0
 10
224.0164
 20
462.9011
 30
0.0
 10
224.0164
 20
462.9011
 30
0.0
 10
224.0164
 20
466.1849
 30
0.0
 10
224.0164
 20
469.4687
 30
0.0
 10
224.0164
 20
472.7526
 30
0.0
 10
224.0164
 20
472.7526
 30
0.0
 10
270.8151
 20
472.7526
 30
0.0
 10
317.6138
 20
472.7526
 30
0.0
 10
364.4124
 20
472.7526
 30
0.0
 10
364.4124
 20
472.7526
 30
0.0
 10
364.4124
 20
469.4687
 30
0.0
 10
364.4124
 20
466.1849
 30
0.0
 10
364.4124
 20
462.9011
 30
0.0
 10
364.4124
 20
462.9011
 30
0.0
 10
366.0626
 20
462.9011
 30
0.0
 10
367.7128
 20
462.9011
 30
0.0
 10
369.3629
 20
462.9011
 30
0.0
 10
369.3629
 20
462.9011
 30
0.0
 10
369.3629
 20
467.8516
 30
0.0
 10
369.3629
 20
472.8021
 30
0.0
 10
369.3629
 20
477.7526
 30
0.0
 10
369.3629
 20
477.7526
 30
0.0
 10
400.9086
 20
477.7526
 30
0.0
 10
432.4542
 20
477.7526
 30
0.0
 10
463.9999
 20
477.7526
 30
0.0
 10
463.9999
 20
477.7526
 30
0.0
 10
467.7745
 20
477.7526
 30
0.0
 10
470.188
 20
473.7302
 30
0.0
 10
468.4117
 20
470.3996
 30
0.0
 10
468.4117
 20
470.3996
 30
0.0
 10
443.7868
 20
424.228
 30
0.0
 10
419.1619
 20
378.0564
 30
0.0
 10
394.5371
 20
331.8848
 30
0.0
 10
394.5371
 20
331.8848
 30
0.0
 10
393.6681
 20
330.2555
 30
0.0
 10
391.9719
 20
329.2377
 30
0.0
 10
390.1253
 20
329.2377
 30
0.0
 10
390.1253
 20
329.2377
 30
0.0
 10
384.0846
 20
329.2377
 30
0.0
 10
378.0439
 20
329.2377
 30
0.0
 10
372.0032
 20
329.2377
 30
0.0
 10
372.0032
 20
329.2377
 30
0.0
 10
386.0309
 20
355.5396
 30
0.0
 10
400.0586
 20
381.8415
 30
0.0
 10
414.0862
 20
408.1434
 30
0.0
 10
414.0862
 20
408.1434
 30
0.0
 10
412.6292
 20
408.9181
 30
0.0
 10
411.1722
 20
409.6928
 30
0.0
 10
409.7152
 20
410.4675
 30
0.0
 10
409.7152
 20
410.4675
 30
0.0
 10
393.1047
 20
379.3228
 30
0.0
 10
376.4941
 20
348.178
 30
0.0
 10
359.8836
 20
317.0333
 30
0.0
 10
359.8836
 20
317.0333
 30
0.0
 10
359.0147
 20
315.404
 30
0.0
 10
357.3184
 20
314.3862
 30
0.0
 10
355.4719
 20
314.3862
 30
0.0
 10
355.4719
 20
314.3862
 30
0.0
 10
349.056
 20
314.3862
 30
0.0
 10
342.6402
 20
314.3862
 30
0.0
 10
336.2243
 20
314.3862
 30
0.0
 10
336.2243
 20
314.3862
 30
0.0
 10
334.3778
 20
314.3862
 30
0.0
 10
332.6815
 20
315.404
 30
0.0
 10
331.8126
 20
317.0333
 30
0.0
 10
331.8126
 20
317.0333
 30
0.0
 10
330.1135
 20
320.2191
 30
0.0
 10
328.4144
 20
323.4049
 30
0.0
 10
326.7153
 20
326.5906
 30
0.0
 10
326.7153
 20
326.5906
 30
0.0
 10
325.8463
 20
328.22
 30
0.0
 10
324.1501
 20
329.2377
 30
0.0
 10
322.3035
 20
329.2377
 30
0.0
  0
SPLINE
  5
4F
330
1F
100
AcDbEntity
  8
Linee 2D
370
    53
100
AcDbSpline
210
0.0
220
0.0
230
1.0
 70
    11
 71
     3
 72
    20
 73
    16
 74
     0
 42
0.0000000001
 43
0.0000000001
 40
0.0
 40
0.0
 40
0.0
 40
0.0
 40
0.2
 40
0.2
 40
0.2
 40
0.2
 40
0.4
 40
0.4
 40
0.4
 40
0.4
 40
0.6
 40
0.6
 40
0.6
 40
0.6
 40
1.0
 40
1.0
 40
1.0
 40
1.0
 10
-169.5122
 20
-263.1708
 30
0.0
 10
-169.5122
 20
-244.0322
 30
0.0
 10
-185.0271
 20
-228.5174
 30
0.0
 10
-204.1656
 20
-228.5174
 30
0.0
 10
-204.1656
 20
-228.5174
 30
0.0
 10
-223.3042
 20
-228.5174
 30
0.0
 10
-238.8191
 20
-244.0322
 30
0.0
 10
-238.8191
 20
-263.1708
 30
0.0
 10
-238.8191
 20
-263.1708
 30
0.0
 10
-238.8191
 20
-282.3094
 30
0.0
 10
-223.3042
 20
-297.8243
 30
0.0
 10
-204.1656
 20
-297.8243
 30
0.0
 10
-204.1656
 20
-297.8243
 30
0.0
 10
-185.0271
 20
-297.8243
 30
0.0
 10
-169.5122
 20
-282.3094
 30
0.0
 10
-169.5122
 20
-263.1708
 30
0.0
  0
SPLINE
  5
50
330
1F
100
AcDbEntity
  8
Linee 2D
370
    53
100
AcDbSpline
210
0.0
220
0.0
230
1.0
 70
    11
 71
     3
 72
    20
 73
    16
 74
     0
 42
0.0000000001
 43
0.0000000001
 40
0.0
 40
0.0
 40
0.0
 40
0.0
 40
0.2
 40
0.2
 40
0.2
 40
0.2
 40
0.4
 40
0.4
 40
0.4
 40
0.4
 40
0.6
 40
0.6
 40
0.6
 40
0.6
 40
1.0
 40
1.0
 40
1.0
 40
1.0
 10
-253.6706
 20
-322.5768
 30
0.0
 10
-253.6706
 20
-322.5768
 30
0.0
 10
-253.6706
 20
-317.6263
 30
0.0
 10
-253.6706
 20
-317.6263
 30
0.0
 10
-253.6706
 20
-317.6263
 30
0.0
 10
-253.6706
 20
-317.6263
 30
0.0
 10
-154.6607
 20
-317.6263
 30
0.0
 10
-154.6607
 20
-317.6263
 30
0.0
 10
-154.6607
 20
-317.6263
 30
0.0
 10
-154.6607
 20
-317.6263
 30
0.0
 10
-154.6607
 20
-322.5768
 30
0.0
 10
-154.6607
 20
-322.5768
 30
0.0
 10
-154.6607
 20
-322.5768
 30
0.0
 10
-154.6607
 20
-322.5768
 30
0.0
 10
-253.6706
 20
-322.5768
 30
0.0
 10
-253.6706
 20
-322.5768
 30
0.0
  0
SPLINE
  5
51
330
1F
100
AcDbEntity
  8
Linee 2D
370
    53
100
AcDbSpline
210
0.0
220
0.0
230
1.0
 70
    11
 71
     3
 72
   140
 73
   136
 74
     0
 42
0.0000000001
 43
0.0000000001
 40
0.0
 40
0.0
 40
0.0
 40
0.0
 40
0.0285714285714286
 40
0.0285714285714286
 40
0.0285714285714286
 40
0.0285714285714286
 40
0.0571428571428571
 40
0.0571428571428571
 40
0.0571428571428571
 40
0.0571428571428571
 40
0.0857142857142857
 40
0.0857142857142857
 40
0.0857142857142857
 40
0.0857142857142857
 40
0.1142857142857143
 40
0.1142857142857143
 40
0.1142857142857143
 40
0.1142857142857143
 40
0.1428571428571428
 40
0.1428571428571428
 40
0.1428571428571428
 40
0.1428571428571428
 40
0.1714285714285714
 40
0.1714285714285714
 40
0.1714285714285714
 40
0.1714285714285714
 40
0.2
 40
0.2
 40
0.2
 40
0.2
 40
0.2285714285714286
 40
0.2285714285714286
 40
0.2285714285714286
 40
0.2285714285714286
 40
0.2571428571428571
 40
0.2571428571428571
 40
0.2571428571428571
 40
0.2571428571428571
 40
0.2857142857142857
 40
0.2857142857142857
 40
0.2857142857142857
 40
0.2857142857142857
 40
0.3142857142857143
 40
0.3142857142857143
 40
0.3142857142857143
 40
0.3142857142857143
 40
0.3428571428571429
 40
0.3428571428571429
 40
0.3428571428571429
 40
0.3428571428571429
 40
0.3714285714285714
 40
0.3714285714285714
 40
0.3714285714285714
 40
0.3714285714285714
 40
0.4
 40
0.4
 40
0.4
 40
0.4
 40
0.4285714285714285
 40
0.4285714285714285
 40
0.4285714285714285
 40
0.4285714285714285
 40
0.4571428571428571
 40
0.4571428571428571
 40
0.4571428571428571
 40
0.4571428571428571
 40
0.4857142857142857
 40
0.4857142857142857
 40
0.4857142857142857
 40
0.4857142857142857
 40
0.5142857142857142
 40
0.5142857142857142
 40
0.5142857142857142
 40
0.5142857142857142
 40
0.5428571428571428
 40
0.5428571428571428
 40
0.5428571428571428
 40
0.5428571428571428
 40
0.5714285714285714
 40
0.5714285714285714
 40
0.5714285714285714
 40
0.5714285714285714
 40
0.6
 40
0.6
 40
0.6
 40
0.6
 40
0.6285714285714286
 40
0.6285714285714286
 40
0.6285714285714286
 40
0.6285714285714286
 40
0.6571428571428571
 40
0.6571428571428571
 40
0.6571428571428571
 40
0.6571428571428571
 40
0.6857142857142857
 40
0.6857142857142857
 40
0.6857142857142857
 40
0.6857142857142857
 40
0.7142857142857143
 40
0.7142857142857143
 40
0.7142857142857143
 40
0.7142857142857143
 40
0.7428571428571429
 40
0.7428571428571429
 40
0.7428571428571429
 40
0.7428571428571429
 40
0.7714285714285715
 40
0.7714285714285715
 40
0.7714285714285715
 40
0.7714285714285715
 40
0.8
 40
0.8
 40
0.8
 40
0.8
 40
0.8285714285714286
 40
0.8285714285714286
 40
0.8285714285714286
 40
0.8285714285714286
 40
0.8571428571428571
 40
0.8571428571428571
 40
0.8571428571428571
 40
0.8571428571428571
 40
0.8857142857142857
 40
0.8857142857142857
 40
0.8857142857142857
 40
0.8857142857142857
 40
0.9142857142857143
 40
0.9142857142857143
 40
0.9142857142857143
 40
0.9142857142857143
 40
0.9428571428571428
 40
0.9428571428571428
 40
0.9428571428571428
 40
0.9428571428571428
 40
1.0
 40
1.0
 40
1.0
 40
1.0
 10
-176.0765
 20
-337.4283
 30
0.0
 10
-194.8026
 20
-337.4283
 30
0.0
 10
-213.5286
 20
-337.4283
 30
0.0
 10
-232.2547
 20
-337.4283
 30
0.0
 10
-232.2547
 20
-337.4283
 30
0.0
 10
-234.1013
 20
-337.4283
 30
0.0
 10
-235.7975
 20
-338.446
 30
0.0
 10
-236.6665
 20
-340.0753
 30
0.0
 10
-236.6665
 20
-340.0753
 30
0.0
 10
-239.2545
 20
-344.9278
 30
0.0
 10
-241.8425
 20
-349.7802
 30
0.0
 10
-244.4304
 20
-354.6327
 30
0.0
 10
-244.4304
 20
-354.6327
 30
0.0
 10
-245.2994
 20
-356.262
 30
0.0
 10
-246.9956
 20
-357.2797
 30
0.0
 10
-248.8422
 20
-357.2797
 30
0.0
 10
-248.8422
 20
-357.2797
 30
0.0
 10
-253.4803
 20
-357.2797
 30
0.0
 10
-258.1183
 20
-357.2797
 30
0.0
 10
-262.7564
 20
-357.2797
 30
0.0
 10
-262.7564
 20
-357.2797
 30
0.0
 10
-264.6029
 20
-357.2797
 30
0.0
 10
-266.2992
 20
-356.262
 30
0.0
 10
-267.1682
 20
-354.6327
 30
0.0
 10
-267.1682
 20
-354.6327
 30
0.0
 10
-284.6676
 20
-321.8213
 30
0.0
 10
-302.167
 20
-289.0099
 30
0.0
 10
-319.6664
 20
-256.1985
 30
0.0
 10
-319.6664
 20
-256.1985
 30
0.0
 10
-321.1234
 20
-256.9732
 30
0.0
 10
-322.5804
 20
-257.7479
 30
0.0
 10
-324.0374
 20
-258.5226
 30
0.0
 10
-324.0374
 20
-258.5226
 30
0.0
 10
-310.0097
 20
-284.8245
 30
0.0
 10
-295.9821
 20
-311.1264
 30
0.0
 10
-281.9544
 20
-337.4283
 30
0.0
 10
-281.9544
 20
-337.4283
 30
0.0
 10
-287.9951
 20
-337.4283
 30
0.0
 10
-294.0358
 20
-337.4283
 30
0.0
 10
-300.0765
 20
-337.4283
 30
0.0
 10
-300.0765
 20
-337.4283
 30
0.0
 10
-301.9231
 20
-337.4283
 30
0.0
 10
-303.6193
 20
-336.4105
 30
0.0
 10
-304.4883
 20
-334.7812
 30
0.0
 10
-304.4883
 20
-334.7812
 30
0.0
 10
-329.1131
 20
-288.6096
 30
0.0
 10
-353.738
 20
-242.438
 30
0.0
 10
-378.3629
 20
-196.2663
 30
0.0
 10
-378.3629
 20
-196.2663
 30
0.0
 10
-380.1391
 20
-192.9358
 30
0.0
 10
-377.7257
 20
-188.9134
 30
0.0
 10
-373.9511
 20
-188.9134
 30
0.0
 10
-373.9511
 20
-188.9134
 30
0.0
 10
-342.4055
 20
-188.9134
 30
0.0
 10
-310.8598
 20
-188.9134
 30
0.0
 10
-279.3142
 20
-188.9134
 30
0.0
 10
-279.3142
 20
-188.9134
 30
0.0
 10
-279.3142
 20
-193.8639
 30
0.0
 10
-279.3142
 20
-198.8144
 30
0.0
 10
-279.3142
 20
-203.7649
 30
0.0
 10
-279.3142
 20
-203.7649
 30
0.0
 10
-277.664
 20
-203.7649
 30
0.0
 10
-276.0138
 20
-203.7649
 30
0.0
 10
-274.3637
 20
-203.7649
 30
0.0
 10
-274.3637
 20
-203.7649
 30
0.0
 10
-274.3637
 20
-200.4811
 30
0.0
 10
-274.3637
 20
-197.1972
 30
0.0
 10
-274.3637
 20
-193.9134
 30
0.0
 10
-274.3637
 20
-193.9134
 30
0.0
 10
-227.565
 20
-193.9134
 30
0.0
 10
-180.7663
 20
-193.9134
 30
0.0
 10
-133.9676
 20
-193.9134
 30
0.0
 10
-133.9676
 20
-193.9134
 30
0.0
 10
-133.9676
 20
-197.1972
 30
0.0
 10
-133.9676
 20
-200.4811
 30
0.0
 10
-133.9676
 20
-203.7649
 30
0.0
 10
-133.9676
 20
-203.7649
 30
0.0
 10
-132.3174
 20
-203.7649
 30
0.0
 10
-130.6673
 20
-203.7649
 30
0.0
 10
-129.0171
 20
-203.7649
 30
0.0
 10
-129.0171
 20
-203.7649
 30
0.0
 10
-129.0171
 20
-198.8144
 30
0.0
 10
-129.0171
 20
-193.8639
 30
0.0
 10
-129.0171
 20
-188.9134
 30
0.0
 10
-129.0171
 20
-188.9134
 30
0.0
 10
-97.4715
 20
-188.9134
 30
0.0
 10
-65.9258
 20
-188.9134
 30
0.0
 10
-34.3802
 20
-188.9134
 30
0.0
 10
-34.3802
 20
-188.9134
 30
0.0
 10
-30.6055
 20
-188.9134
 30
0.0
 10
-28.1921
 20
-192.9358
 30
0.0
 10
-29.9684
 20
-196.2663
 30
0.0
 10
-29.9684
 20
-196.2663
 30
0.0
 10
-54.5932
 20
-242.438
 30
0.0
 10
-79.2181
 20
-288.6096
 30
0.0
 10
-103.843
 20
-334.7812
 30
0.0
 10
-103.843
 20
-334.7812
 30
0.0
 10
-104.7119
 20
-336.4105
 30
0.0
 10
-106.4082
 20
-337.4283
 30
0.0
 10
-108.2548
 20
-337.4283
 30
0.0
 10
-108.2548
 20
-337.4283
 30
0.0
 10
-114.2954
 20
-337.4283
 30
0.0
 10
-120.3362
 20
-337.4283
 30
0.0
 10
-126.3768
 20
-337.4283
 30
0.0
 10
-126.3768
 20
-337.4283
 30
0.0
 10
-112.3492
 20
-311.1264
 30
0.0
 10
-98.3215
 20
-284.8245
 30
0.0
 10
-84.2938
 20
-258.5226
 30
0.0
 10
-84.2938
 20
-258.5226
 30
0.0
 10
-85.7508
 20
-257.7479
 30
0.0
 10
-87.2079
 20
-256.9732
 30
0.0
 10
-88.6649
 20
-256.1985
 30
0.0
 10
-88.6649
 20
-256.1985
 30
0.0
 10
-106.1643
 20
-289.0099
 30
0.0
 10
-123.6637
 20
-321.8213
 30
0.0
 10
-141.1631
 20
-354.6327
 30
0.0
 10
-141.1631
 20
-354.6327
 30
0.0
 10
-142.0321
 20
-356.262
 30
0.0
 10
-143.7283
 20
-357.2797
 30
0.0
 10
-145.5749
 20
-357.2797
 30
0.0
 10
-145.5749
 20
-357.2797
 30
0.0
 10
-150.2129
 20
-357.2797
 30
0.0
 10
-154.851
 20
-357.2797
 30
0.0
 10
-159.4891
 20
-357.2797
 30
0.0
 10
-159.4891
 20
-357.2797
 30
0.0
 10
-161.3356
 20
-357.2797
 30
0.0
 10
-163.0319
 20
-356.262
 30
0.0
 10
-163.9008
 20
-354.6327
 30
0.0
 10
-163.9008
 20
-354.6327
 30
0.0
 10
-166.4888
 20
-349.7802
 30
0.0
 10
-169.0768
 20
-344.9278
 30
0.0
 10
-171.6648
 20
-340.0753
 30
0.0
 10
-171.6648
 20
-340.0753
 30
0.0
 10
-172.5337
 20
-338.446
 30
0.0
 10
-174.2299
 20
-337.4283
 30
0.0
 10
-176.0765
 20
-337.4283
 30
0.0
  0
ENDSEC
  0
SECTION
  2
OBJECTS
  0
DICTIONARY
  5
C
330
0
100
AcDbDictionary
281
     1
  3
ACAD_GROUP
350
D
  3
ACAD_LAYOUT
350
1A
  3
ACAD_MATERIAL
350
3B
  3
ACAD_MLEADERSTYLE
350
73
  3
ACAD_MLINESTYLE
350
17
  3
ACAD_PLOTSETTINGS
350
19
  3
ACAD_PLOTSTYLENAME
350
E
  3
ACAD_TABLESTYLE
350
72
  3
ACAD_VISUALSTYLE
350
2A
  0
DICTIONARY
  5
D
102
{ACAD_REACTORS
330
C
102
}
330
C
100
AcDbDictionary
281
     1
  0
DICTIONARY
  5
1A
102
{ACAD_REACTORS
330
C
102
}
330
C
100
AcDbDictionary
281
     1
  3
Layout1
350
1E
  3
Layout2
350
26
  3
Model
350
22
  0
DICTIONARY
  5
3B
102
{ACAD_REACTORS
330
C
102
}
330
C
100
AcDbDictionary
281
     1
  3
ByBlock
350
3D
  3
ByLayer
350
3C
  3
Global
350
3E
  0
DICTIONARY
  5
73
102
{ACAD_REACTORS
330
C
102
}
330
C
100
AcDbDictionary
281
     1
  0
DICTIONARY
  5
17
102
{ACAD_REACTORS
330
C
102
}
330
C
100
AcDbDictionary
281
     1
  3
Standard
350
18
  0
DICTIONARY
  5
19
102
{ACAD_REACTORS
330
C
102
}
330
C
100
AcDbDictionary
281
     1
  0
ACDBDICTIONARYWDFLT
  5
E
102
{ACAD_REACTORS
330
C
102
}
330
C
100
AcDbDictionary
281
     1
  3
Normal
350
F
100
AcDbDictionaryWithDefault
340
F
  0
DICTIONARY
  5
72
102
{ACAD_REACTORS
330
C
102
}
330
C
100
AcDbDictionary
281
     1
  0
DICTIONARY
  5
2A
102
{ACAD_REACTORS
330
C
102
}
330
C
100
AcDbDictionary
281
     1
  3
2dWireframe
350
2F
  3
3D Hidden
350
31
  3
3dWireframe
350
30
  3
Basic
350
32
  3
Brighten
350
36
  3
ColorChange
350
3A
  3
Conceptual
350
34
  3
Dim
350
35
  3
Facepattern
350
39
  3
Flat
350
2B
  3
FlatWithEdges
350
2C
  3
Gouraud
350
2D
  3
GouraudWithEdges
350
2E
  3
Linepattern
350
38
  3
Realistic
350
33
  3
Thicken
350
37
  0
LAYOUT
  5
1E
102
{ACAD_REACTORS
330
1A
102
}
330
1A
100
AcDbPlotSettings
  1

  2
none_device
  4

  6

 40
0.0
 41
0.0
 42
0.0
 43
0.0
 44
0.0
 45
0.0
 46
0.0
 47
0.0
 48
0.0
 49
0.0
140
0.0
141
0.0
142
1.0
143
1.0
 70
   688
 72
     0
 73
     0
 74
     5
  7

 75
    16
 76
     0
 77
     2
 78
   300
147
1.0
148
0.0
149
0.0
100
AcDbLayout
  1
Layout1
 70
     1
 71
     1
 10
0.0
 20
0.0
 11
12.0
 21
9.0
 12
0.0
 22
0.0
 32
0.0
 14
1.000000000000000E+20
 24
1.000000000000000E+20
 34
1.000000000000000E+20
 15
-1.000000000000000E+20
 25
-1.000000000000000E+20
 35
-1.000000000000000E+20
146
0.0
 13
0.0
 23
0.0
 33
0.0
 16
1.0
 26
0.0
 36
0.0
 17
0.0
 27
1.0
 37
0.0
 76
     0
330
1B
  0
LAYOUT
  5
26
102
{ACAD_REACTORS
330
1A
102
}
330
1A
100
AcDbPlotSettings
  1

  2
none_device
  4

  6

 40
0.0
 41
0.0
 42
0.0
 43
0.0
 44
0.0
 45
0.0
 46
0.0
 47
0.0
 48
0.0
 49
0.0
140
0.0
141
0.0
142
1.0
143
1.0
 70
   688
 72
     0
 73
     0
 74
     5
  7

 75
    16
 76
     0
 77
     2
 78
   300
147
1.0
148
0.0
149
0.0
100
AcDbLayout
  1
Layout2
 70
     1
 71
     2
 10
0.0
 20
0.0
 11
0.0
 21
0.0
 12
0.0
 22
0.0
 32
0.0
 14
0.0
 24
0.0
 34
0.0
 15
0.0
 25
0.0
 35
0.0
146
0.0
 13
0.0
 23
0.0
 33
0.0
 16
1.0
 26
0.0
 36
0.0
 17
0.0
 27
1.0
 37
0.0
 76
     0
330
23
  0
LAYOUT
  5
22
102
{ACAD_REACTORS
330
1A
102
}
330
1A
100
AcDbPlotSettings
  1

  2
none_device
  4

  6

 40
0.0
 41
0.0
 42
0.0
 43
0.0
 44
0.0
 45
0.0
 46
0.0
 47
0.0
 48
0.0
 49
0.0
140
0.0
141
0.0
142
1.0
143
1.0
 70
  1712
 72
     0
 73
     0
 74
     0
  7

 75
     0
 76
     0
 77
     2
 78
   300
147
1.0
148
0.0
149
0.0
100
AcDbLayout
  1
Model
 70
     1
 71
     0
 10
0.0
 20
0.0
 11
12.0
 21
9.0
 12
0.0
 22
0.0
 32
0.0
 14
-469.8209
 24
-477.8751
 34
0.0
 15
469.2704
 25
478.0176
 35
0.0
146
0.0
 13
0.0
 23
0.0
 33
0.0
 16
1.0
 26
0.0
 36
0.0
 17
0.0
 27
1.0
 37
0.0
 76
     0
330
1F
331
29
  0
MATERIAL
  5
3D
102
{ACAD_REACTORS
330
3B
102
}
330
3B
100
AcDbMaterial
  1
ByBlock
 72
     1
 94
      127
  0
MATERIAL
  5
3C
102
{ACAD_REACTORS
330
3B
102
}
330
3B
100
AcDbMaterial
  1
ByLayer
 72
     1
 94
      127
  0
MATERIAL
  5
3E
102
{ACAD_REACTORS
330
3B
102
}
330
3B
100
AcDbMaterial
  1
Global
 72
     1
 94
      127
  0
MLINESTYLE
  5
18
102
{ACAD_REACTORS
330
17
102
}
330
17
100
AcDbMlineStyle
  2
Standard
 70
     0
  3

 62
   256
 51
90.0
 52
90.0
 71
     2
 49
0.5
 62
   256
  6
BYLAYER
 49
-0.5
 62
   256
  6
BYLAYER
  0
ACDBPLACEHOLDER
  5
F
102
{ACAD_REACTORS
330
E
102
}
330
E
  0
VISUALSTYLE
  5
2F
102
{ACAD_REACTORS
330
2A
102
}
102
{ACAD_XDICTIONARY
360
5A
102
}
330
2A
100
AcDbVisualStyle
  2
2dWireframe
 70
     4
 71
     0
 72
     2
 73
     0
 90
        0
 40
-0.6
 41
-30.0
 62
     5
 63
     7
421
 16777215
 74
     1
 91
        4
 64
     7
 65
   257
 75
     1
175
     1
 42
1.0
 92
        0
 66
   257
 43
1.0
 76
     1
 77
     6
 78
     2
 67
     7
 79
     5
170
     0
171
     0
290
     0
174
     0
 93
        1
 44
0.0
173
     0
291
     0
 45
0.0
  0
VISUALSTYLE
  5
31
102
{ACAD_REACTORS
330
2A
102
}
102
{ACAD_XDICTIONARY
360
5E
102
}
330
2A
100
AcDbVisualStyle
  2
3D Hidden
 70
     6
 71
     1
 72
     2
 73
     2
 90
        0
 40
-0.6
 41
-30.0
 62
     5
 63
     7
421
 16777215
 74
     2
 91
        2
 64
     7
 65
   257
 75
     2
175
     1
 42
40.0
 92
        0
 66
   257
 43
1.0
 76
     1
 77
     6
 78
     2
 67
     7
 79
     3
170
     0
171
     0
290
     0
174
     0
 93
        1
 44
0.0
173
     0
291
     0
 45
0.0
  0
VISUALSTYLE
  5
30
102
{ACAD_REACTORS
330
2A
102
}
102
{ACAD_XDICTIONARY
360
5C
102
}
330
2A
100
AcDbVisualStyle
  2
3dWireframe
 70
     5
 71
     0
 72
     2
 73
     0
 90
        0
 40
-0.6
 41
-30.0
 62
     5
 63
     7
421
 16777215
 74
     1
 91
        4
 64
     7
 65
   257
 75
     1
175
     1
 42
1.0
 92
        0
 66
   257
 43
1.0
 76
     1
 77
     6
 78
     2
 67
     7
 79
     5
170
     0
171
     0
290
     0
174
     0
 93
        1
 44
0.0
173
     0
291
     0
 45
0.0
  0
VISUALSTYLE
  5
32
102
{ACAD_REACTORS
330
2A
102
}
102
{ACAD_XDICTIONARY
360
60
102
}
330
2A
100
AcDbVisualStyle
  2
Basic
 70
     7
 71
     1
 72
     0
 73
     1
 90
        0
 40
-0.6
 41
-30.0
 62
     5
 63
     7
421
 16777215
 74
     0
 91
        4
 64
     7
 65
   257
 75
     1
175
     1
 42
1.0
 92
        8
 66
     7
 43
1.0
 76
     1
 77
     6
 78
     2
 67
     7
 79
     5
170
     0
171
     0
290
     0
174
     0
 93
        1
 44
0.0
173
     0
291
     1
 45
0.0
  0
VISUALSTYLE
  5
36
102
{ACAD_REACTORS
330
2A
102
}
102
{ACAD_XDICTIONARY
360
68
102
}
330
2A
100
AcDbVisualStyle
  2
Brighten
 70
    12
 71
     2
 72
     2
 73
     0
 90
        0
 40
-0.6
 41
-30.0
 62
     5
 63
     7
421
 16777215
 74
     1
 91
        4
 64
     7
 65
   257
 75
     1
175
     1
 42
1.0
 92
        8
 66
     7
 43
1.0
 76
     1
 77
     6
 78
     2
 67
     7
 79
     5
170
     0
171
     0
290
     0
174
     0
 93
        1
 44
50.0
173
     0
291
     1
 45
0.0
  0
VISUALSTYLE
  5
3A
102
{ACAD_REACTORS
330
2A
102
}
102
{ACAD_XDICTIONARY
360
70
102
}
330
2A
100
AcDbVisualStyle
  2
ColorChange
 70
    16
 71
     2
 72
     2
 73
     3
 90
        0
 40
-0.6
 41
-30.0
 62
     5
 63
     8
421
  8421504
 74
     1
 91
        4
 64
     7
 65
   257
 75
     1
175
     1
 42
1.0
 92
        8
 66
     8
424
  8421504
 43
1.0
 76
     1
 77
     6
 78
     2
 67
     7
 79
     5
170
     0
171
     0
290
     0
174
     0
 93
        1
 44
0.0
173
     0
291
     1
 45
0.0
  0
VISUALSTYLE
  5
34
102
{ACAD_REACTORS
330
2A
102
}
102
{ACAD_XDICTIONARY
360
64
102
}
330
2A
100
AcDbVisualStyle
  2
Conceptual
 70
     9
 71
     3
 72
     2
 73
     0
 90
        0
 40
-0.6
 41
-30.0
 62
     5
 63
     7
421
 16777215
 74
     2
 91
        2
 64
     7
 65
   257
 75
     1
175
     1
 42
40.0
 92
        8
 66
     7
 43
1.0
 76
     1
 77
     6
 78
     2
 67
     7
 79
     3
170
     0
171
     0
290
     0
174
     0
 93
        1
 44
0.0
173
     0
291
     0
 45
0.0
  0
VISUALSTYLE
  5
35
102
{ACAD_REACTORS
330
2A
102
}
102
{ACAD_XDICTIONARY
360
66
102
}
330
2A
100
AcDbVisualStyle
  2
Dim
 70
    11
 71
     2
 72
     2
 73
     0
 90
        0
 40
-0.6
 41
-30.0
 62
     5
 63
     7
421
 16777215
 74
     1
 91
        4
 64
     7
 65
   257
 75
     1
175
     1
 42
1.0
 92
        8
 66
     7
 43
1.0
 76
     1
 77
     6
 78
     2
 67
     7
 79
     5
170
     0
171
     0
290
     0
174
     0
 93
        1
 44
-50.0
173
     0
291
     1
 45
0.0
  0
VISUALSTYLE
  5
39
102
{ACAD_REACTORS
330
2A
102
}
102
{ACAD_XDICTIONARY
360
6E
102
}
330
2A
100
AcDbVisualStyle
  2
Facepattern
 70
    15
 71
     2
 72
     2
 73
     0
 90
        0
 40
-0.6
 41
-30.0
 62
     5
 63
     7
421
 16777215
 74
     1
 91
        4
 64
     7
 65
   257
 75
     1
175
     1
 42
1.0
 92
        8
 66
     7
 43
1.0
 76
     1
 77
     6
 78
     2
 67
     7
 79
     5
170
     0
171
     0
290
     0
174
     0
 93
        1
 44
0.0
173
     0
291
     1
 45
0.0
  0
VISUALSTYLE
  5
2B
102
{ACAD_REACTORS
330
2A
102
}
102
{ACAD_XDICTIONARY
360
52
102
}
330
2A
100
AcDbVisualStyle
  2
Flat
 70
     0
 71
     2
 72
     1
 73
     1
 90
        2
 40
-0.6
 41
30.0
 62
     5
 63
     7
421
 16777215
 74
     0
 91
        4
 64
     7
 65
   257
 75
     1
175
     1
 42
1.0
 92
        8
 66
     7
 43
1.0
 76
     1
 77
     6
 78
     2
 67
     7
 79
     5
170
     0
171
     0
290
     0
174
     0
 93
       13
 44
0.0
173
     0
291
     1
 45
0.0
  0
VISUALSTYLE
  5
2C
102
{ACAD_REACTORS
330
2A
102
}
102
{ACAD_XDICTIONARY
360
54
102
}
330
2A
100
AcDbVisualStyle
  2
FlatWithEdges
 70
     1
 71
     2
 72
     1
 73
     1
 90
        2
 40
-0.6
 41
30.0
 62
     5
 63
     7
421
 16777215
 74
     1
 91
        4
 64
     7
 65
   257
 75
     1
175
     1
 42
1.0
 92
        0
 66
   257
 43
1.0
 76
     1
 77
     6
 78
     2
 67
     7
 79
     5
170
     0
171
     0
290
     0
174
     0
 93
       13
 44
0.0
173
     0
291
     1
 45
0.0
  0
VISUALSTYLE
  5
2D
102
{ACAD_REACTORS
330
2A
102
}
102
{ACAD_XDICTIONARY
360
56
102
}
330
2A
100
AcDbVisualStyle
  2
Gouraud
 70
     2
 71
     2
 72
     2
 73
     1
 90
        2
 40
-0.6
 41
30.0
 62
     5
 63
     7
421
 16777215
 74
     0
 91
        4
 64
     7
 65
   257
 75
     1
175
     1
 42
1.0
 92
        0
 66
     7
 43
1.0
 76
     1
 77
     6
 78
     2
 67
     7
 79
     5
170
     0
171
     0
290
     0
174
     0
 93
       13
 44
0.0
173
     0
291
     1
 45
0.0
  0
VISUALSTYLE
  5
2E
102
{ACAD_REACTORS
330
2A
102
}
102
{ACAD_XDICTIONARY
360
58
102
}
330
2A
100
AcDbVisualStyle
  2
GouraudWithEdges
 70
     3
 71
     2
 72
     2
 73
     1
 90
        2
 40
-0.6
 41
30.0
 62
     5
 63
     7
421
 16777215
 74
     1
 91
        4
 64
     7
 65
   257
 75
     1
175
     1
 42
1.0
 92
        0
 66
   257
 43
1.0
 76
     1
 77
     6
 78
     2
 67
     7
 79
     5
170
     0
171
     0
290
     0
174
     0
 93
       13
 44
0.0
173
     0
291
     1
 45
0.0
  0
VISUALSTYLE
  5
38
102
{ACAD_REACTORS
330
2A
102
}
102
{ACAD_XDICTIONARY
360
6C
102
}
330
2A
100
AcDbVisualStyle
  2
Linepattern
 70
    14
 71
     2
 72
     2
 73
     0
 90
        0
 40
-0.6
 41
-30.0
 62
     5
 63
     7
421
 16777215
 74
     1
 91
        4
 64
     7
 65
   257
 75
     7
175
     7
 42
1.0
 92
        8
 66
     7
 43
1.0
 76
     1
 77
     6
 78
     2
 67
     7
 79
     5
170
     0
171
     0
290
     0
174
     0
 93
        1
 44
0.0
173
     0
291
     1
 45
0.0
  0
VISUALSTYLE
  5
33
102
{ACAD_REACTORS
330
2A
102
}
102
{ACAD_XDICTIONARY
360
62
102
}
330
2A
100
AcDbVisualStyle
  2
Realistic
 70
     8
 71
     2
 72
     2
 73
     0
 90
        0
 40
-0.6
 41
-30.0
 62
     5
 63
     7
421
 16777215
 74
     1
 91
        0
 64
     7
 65
   257
 75
     1
175
     1
 42
1.0
 92
        8
 66
     8
424
  7895160
 43
1.0
 76
     1
 77
     6
 78
     2
 67
     7
 79
     5
170
     0
171
     0
290
     0
174
     0
 93
       13
 44
0.0
173
     0
291
     0
 45
0.0
  0
VISUALSTYLE
  5
37
102
{ACAD_REACTORS
330
2A
102
}
102
{ACAD_XDICTIONARY
360
6A
102
}
330
2A
100
AcDbVisualStyle
  2
Thicken
 70
    13
 71
     2
 72
     2
 73
     0
 90
        0
 40
-0.6
 41
-30.0
 62
     5
 63
     7
421
 16777215
 74
     1
 91
        4
 64
     7
 65
   257
 75
     1
175
     1
 42
1.0
 92
       12
 66
     7
 43
1.0
 76
     1
 77
     6
 78
     2
 67
     7
 79
     5
170
     0
171
     0
290
     0
174
     0
 93
        1
 44
0.0
173
     0
291
     1
 45
0.0
  0
DICTIONARY
  5
5A
330
2F
100
AcDbDictionary
280
     1
281
     1
  3
ACAD_XREC_ROUNDTRIP
360
5B
  0
DICTIONARY
  5
5E
330
31
100
AcDbDictionary
280
     1
281
     1
  3
ACAD_XREC_ROUNDTRIP
360
5F
  0
DICTIONARY
  5
5C
330
30
100
AcDbDictionary
280
     1
281
     1
  3
ACAD_XREC_ROUNDTRIP
360
5D
  0
DICTIONARY
  5
60
330
32
100
AcDbDictionary
280
     1
281
     1
  3
ACAD_XREC_ROUNDTRIP
360
61
  0
DICTIONARY
  5
68
330
36
100
AcDbDictionary
280
     1
281
     1
  3
ACAD_XREC_ROUNDTRIP
360
69
  0
DICTIONARY
  5
70
330
3A
100
AcDbDictionary
280
     1
281
     1
  3
ACAD_XREC_ROUNDTRIP
360
71
  0
DICTIONARY
  5
64
330
34
100
AcDbDictionary
280
     1
281
     1
  3
ACAD_XREC_ROUNDTRIP
360
65
  0
DICTIONARY
  5
66
330
35
100
AcDbDictionary
280
     1
281
     1
  3
ACAD_XREC_ROUNDTRIP
360
67
  0
DICTIONARY
  5
6E
330
39
100
AcDbDictionary
280
     1
281
     1
  3
ACAD_XREC_ROUNDTRIP
360
6F
  0
DICTIONARY
  5
52
330
2B
100
AcDbDictionary
280
     1
281
     1
  3
ACAD_XREC_ROUNDTRIP
360
53
  0
DICTIONARY
  5
54
330
2C
100
AcDbDictionary
280
     1
281
     1
  3
ACAD_XREC_ROUNDTRIP
360
55
  0
DICTIONARY
  5
56
330
2D
100
AcDbDictionary
280
     1
281
     1
  3
ACAD_XREC_ROUNDTRIP
360
57
  0
DICTIONARY
  5
58
330
2E
100
AcDbDictionary
280
     1
281
     1
  3
ACAD_XREC_ROUNDTRIP
360
59
  0
DICTIONARY
  5
6C
330
38
100
AcDbDictionary
280
     1
281
     1
  3
ACAD_XREC_ROUNDTRIP
360
6D
  0
DICTIONARY
  5
62
330
33
100
AcDbDictionary
280
     1
281
     1
  3
ACAD_XREC_ROUNDTRIP
360
63
  0
DICTIONARY
  5
6A
330
37
100
AcDbDictionary
280
     1
281
     1
  3
ACAD_XREC_ROUNDTRIP
360
6B
  0
XRECORD
  5
5B
102
{ACAD_REACTORS
330
5A
102
}
330
5A
100
AcDbXrecord
280
     1
102
RTVSPropertyOp0
 70
     1
102
RTVSPropertyOp1
 70
     1
102
RTVSPropertyOp2
 70
     1
102
RTVSPropertyOp3
 70
     1
102
RTVSPropertyOp4
 70
     1
102
RTVSPropertyOp5
 70
     1
102
RTVSPropertyOp6
 70
     1
102
RTVSPropertyOp7
 70
     1
102
RTVSPropertyOp8
 70
     1
102
RTVSPropertyOp9
 70
     1
102
RTVSPropertyOp10
 70
     1
102
RTVSPropertyOp11
 70
     1
102
RTVSPropertyOp12
 70
     1
102
RTVSPropertyOp13
 70
     1
102
RTVSPropertyOp14
 70
     1
102
RTVSPropertyOp15
 70
     1
102
RTVSPropertyOp16
 70
     1
102
RTVSPropertyOp17
 70
     1
102
RTVSPropertyOp18
 70
     1
102
RTVSPropertyOp19
 70
     1
102
RTVSPropertyOp20
 70
     1
102
RTVSPropertyOp21
 70
     1
102
RTVSPropertyOp22
 70
     1
102
RTVSPropertyOp23
 70
     1
102
RTVSPropertyOp24
 70
     1
102
RTVSPropertyOp25
 70
     1
102
RTVSPropertyOp26
 70
     1
102
RTVSPropertyOp27
 70
     1
  0
XRECORD
  5
5F
102
{ACAD_REACTORS
330
5E
102
}
330
5E
100
AcDbXrecord
280
     1
102
RTVSPropertyOp0
 70
     1
102
RTVSPropertyOp1
 70
     1
102
RTVSPropertyOp2
 70
     1
102
RTVSPropertyOp3
 70
     1
102
RTVSPropertyOp4
 70
     1
102
RTVSPropertyOp5
 70
     1
102
RTVSPropertyOp6
 70
     1
102
RTVSPropertyOp7
 70
     1
102
RTVSPropertyOp8
 70
     1
102
RTVSPropertyOp9
 70
     1
102
RTVSPropertyOp10
 70
     1
102
RTVSPropertyOp11
 70
     1
102
RTVSPropertyOp12
 70
     1
102
RTVSPropertyOp13
 70
     1
102
RTVSPropertyOp14
 70
     1
102
RTVSPropertyOp15
 70
     1
102
RTVSPropertyOp16
 70
     1
102
RTVSPropertyOp17
 70
     1
102
RTVSPropertyOp18
 70
     1
102
RTVSPropertyOp19
 70
     1
102
RTVSPropertyOp20
 70
     1
102
RTVSPropertyOp21
 70
     1
102
RTVSPropertyOp22
 70
     1
102
RTVSPropertyOp23
 70
     1
102
RTVSPropertyOp24
 70
     1
102
RTVSPropertyOp25
 70
     1
102
RTVSPropertyOp26
 70
     1
102
RTVSPropertyOp27
 70
     1
  0
XRECORD
  5
5D
102
{ACAD_REACTORS
330
5C
102
}
330
5C
100
AcDbXrecord
280
     1
102
RTVSPropertyOp0
 70
     1
102
RTVSPropertyOp1
 70
     1
102
RTVSPropertyOp2
 70
     1
102
RTVSPropertyOp3
 70
     1
102
RTVSPropertyOp4
 70
     1
102
RTVSPropertyOp5
 70
     1
102
RTVSPropertyOp6
 70
     1
102
RTVSPropertyOp7
 70
     1
102
RTVSPropertyOp8
 70
     1
102
RTVSPropertyOp9
 70
     1
102
RTVSPropertyOp10
 70
     1
102
RTVSPropertyOp11
 70
     1
102
RTVSPropertyOp12
 70
     1
102
RTVSPropertyOp13
 70
     1
102
RTVSPropertyOp14
 70
     1
102
RTVSPropertyOp15
 70
     1
102
RTVSPropertyOp16
 70
     1
102
RTVSPropertyOp17
 70
     1
102
RTVSPropertyOp18
 70
     1
102
RTVSPropertyOp19
 70
     1
102
RTVSPropertyOp20
 70
     1
102
RTVSPropertyOp21
 70
     1
102
RTVSPropertyOp22
 70
     1
102
RTVSPropertyOp23
 70
     1
102
RTVSPropertyOp24
 70
     1
102
RTVSPropertyOp25
 70
     1
102
RTVSPropertyOp26
 70
     1
102
RTVSPropertyOp27
 70
     1
  0
XRECORD
  5
61
102
{ACAD_REACTORS
330
60
102
}
330
60
100
AcDbXrecord
280
     1
102
RTVSPropertyOp0
 70
     1
102
RTVSPropertyOp1
 70
     1
102
RTVSPropertyOp2
 70
     1
102
RTVSPropertyOp3
 70
     1
102
RTVSPropertyOp4
 70
     1
102
RTVSPropertyOp5
 70
     1
102
RTVSPropertyOp6
 70
     1
102
RTVSPropertyOp7
 70
     1
102
RTVSPropertyOp8
 70
     1
102
RTVSPropertyOp9
 70
     1
102
RTVSPropertyOp10
 70
     1
102
RTVSPropertyOp11
 70
     1
102
RTVSPropertyOp12
 70
     1
102
RTVSPropertyOp13
 70
     1
102
RTVSPropertyOp14
 70
     1
102
RTVSPropertyOp15
 70
     1
102
RTVSPropertyOp16
 70
     1
102
RTVSPropertyOp17
 70
     1
102
RTVSPropertyOp18
 70
     1
102
RTVSPropertyOp19
 70
     1
102
RTVSPropertyOp20
 70
     1
102
RTVSPropertyOp21
 70
     1
102
RTVSPropertyOp22
 70
     1
102
RTVSPropertyOp23
 70
     1
102
RTVSPropertyOp24
 70
     1
102
RTVSPropertyOp25
 70
     1
102
RTVSPropertyOp26
 70
     1
102
RTVSPropertyOp27
 70
     1
  0
XRECORD
  5
69
102
{ACAD_REACTORS
330
68
102
}
330
68
100
AcDbXrecord
280
     1
102
RTVSPropertyOp0
 70
     1
102
RTVSPropertyOp1
 70
     1
102
RTVSPropertyOp2
 70
     1
102
RTVSPropertyOp3
 70
     1
102
RTVSPropertyOp4
 70
     1
102
RTVSPropertyOp5
 70
     1
102
RTVSPropertyOp6
 70
     1
102
RTVSPropertyOp7
 70
     1
102
RTVSPropertyOp8
 70
     1
102
RTVSPropertyOp9
 70
     1
102
RTVSPropertyOp10
 70
     1
102
RTVSPropertyOp11
 70
     1
102
RTVSPropertyOp12
 70
     1
102
RTVSPropertyOp13
 70
     1
102
RTVSPropertyOp14
 70
     1
102
RTVSPropertyOp15
 70
     1
102
RTVSPropertyOp16
 70
     1
102
RTVSPropertyOp17
 70
     1
102
RTVSPropertyOp18
 70
     1
102
RTVSPropertyOp19
 70
     1
102
RTVSPropertyOp20
 70
     1
102
RTVSPropertyOp21
 70
     1
102
RTVSPropertyOp22
 70
     1
102
RTVSPropertyOp23
 70
     1
102
RTVSPropertyOp24
 70
     1
102
RTVSPropertyOp25
 70
     1
102
RTVSPropertyOp26
 70
     1
102
RTVSPropertyOp27
 70
     1
  0
XRECORD
  5
71
102
{ACAD_REACTORS
330
70
102
}
330
70
100
AcDbXrecord
280
     1
102
RTVSPropertyOp0
 70
     1
102
RTVSPropertyOp1
 70
     1
102
RTVSPropertyOp2
 70
     1
102
RTVSPropertyOp3
 70
     1
102
RTVSPropertyOp4
 70
     1
102
RTVSPropertyOp5
 70
     1
102
RTVSPropertyOp6
 70
     1
102
RTVSPropertyOp7
 70
     1
102
RTVSPropertyOp8
 70
     1
102
RTVSPropertyOp9
 70
     1
102
RTVSPropertyOp10
 70
     1
102
RTVSPropertyOp11
 70
     1
102
RTVSPropertyOp12
 70
     1
102
RTVSPropertyOp13
 70
     1
102
RTVSPropertyOp14
 70
     1
102
RTVSPropertyOp15
 70
     1
102
RTVSPropertyOp16
 70
     1
102
RTVSPropertyOp17
 70
     1
102
RTVSPropertyOp18
 70
     1
102
RTVSPropertyOp19
 70
     1
102
RTVSPropertyOp20
 70
     1
102
RTVSPropertyOp21
 70
     1
102
RTVSPropertyOp22
 70
     1
102
RTVSPropertyOp23
 70
     1
102
RTVSPropertyOp24
 70
     1
102
RTVSPropertyOp25
 70
     1
102
RTVSPropertyOp26
 70
     1
102
RTVSPropertyOp27
 70
     1
  0
XRECORD
  5
65
102
{ACAD_REACTORS
330
64
102
}
330
64
100
AcDbXrecord
280
     1
102
RTVSPropertyOp0
 70
     1
102
RTVSPropertyOp1
 70
     1
102
RTVSPropertyOp2
 70
     1
102
RTVSPropertyOp3
 70
     1
102
RTVSPropertyOp4
 70
     1
102
RTVSPropertyOp5
 70
     1
102
RTVSPropertyOp6
 70
     1
102
RTVSPropertyOp7
 70
     1
102
RTVSPropertyOp8
 70
     1
102
RTVSPropertyOp9
 70
     1
102
RTVSPropertyOp10
 70
     1
102
RTVSPropertyOp11
 70
     1
102
RTVSPropertyOp12
 70
     1
102
RTVSPropertyOp13
 70
     1
102
RTVSPropertyOp14
 70
     1
102
RTVSPropertyOp15
 70
     1
102
RTVSPropertyOp16
 70
     1
102
RTVSPropertyOp17
 70
     1
102
RTVSPropertyOp18
 70
     1
102
RTVSPropertyOp19
 70
     1
102
RTVSPropertyOp20
 70
     1
102
RTVSPropertyOp21
 70
     1
102
RTVSPropertyOp22
 70
     1
102
RTVSPropertyOp23
 70
     1
102
RTVSPropertyOp24
 70
     1
102
RTVSPropertyOp25
 70
     1
102
RTVSPropertyOp26
 70
     1
102
RTVSPropertyOp27
 70
     1
  0
XRECORD
  5
67
102
{ACAD_REACTORS
330
66
102
}
330
66
100
AcDbXrecord
280
     1
102
RTVSPropertyOp0
 70
     1
102
RTVSPropertyOp1
 70
     1
102
RTVSPropertyOp2
 70
     1
102
RTVSPropertyOp3
 70
     1
102
RTVSPropertyOp4
 70
     1
102
RTVSPropertyOp5
 70
     1
102
RTVSPropertyOp6
 70
     1
102
RTVSPropertyOp7
 70
     1
102
RTVSPropertyOp8
 70
     1
102
RTVSPropertyOp9
 70
     1
102
RTVSPropertyOp10
 70
     1
102
RTVSPropertyOp11
 70
     1
102
RTVSPropertyOp12
 70
     1
102
RTVSPropertyOp13
 70
     1
102
RTVSPropertyOp14
 70
     1
102
RTVSPropertyOp15
 70
     1
102
RTVSPropertyOp16
 70
     1
102
RTVSPropertyOp17
 70
     1
102
RTVSPropertyOp18
 70
     1
102
RTVSPropertyOp19
 70
     1
102
RTVSPropertyOp20
 70
     1
102
RTVSPropertyOp21
 70
     1
102
RTVSPropertyOp22
 70
     1
102
RTVSPropertyOp23
 70
     1
102
RTVSPropertyOp24
 70
     1
102
RTVSPropertyOp25
 70
     1
102
RTVSPropertyOp26
 70
     1
102
RTVSPropertyOp27
 70
     1
  0
XRECORD
  5
6F
102
{ACAD_REACTORS
330
6E
102
}
330
6E
100
AcDbXrecord
280
     1
102
RTVSPropertyOp0
 70
     1
102
RTVSPropertyOp1
 70
     1
102
RTVSPropertyOp2
 70
     1
102
RTVSPropertyOp3
 70
     1
102
RTVSPropertyOp4
 70
     1
102
RTVSPropertyOp5
 70
     1
102
RTVSPropertyOp6
 70
     1
102
RTVSPropertyOp7
 70
     1
102
RTVSPropertyOp8
 70
     1
102
RTVSPropertyOp9
 70
     1
102
RTVSPropertyOp10
 70
     1
102
RTVSPropertyOp11
 70
     1
102
RTVSPropertyOp12
 70
     1
102
RTVSPropertyOp13
 70
     1
102
RTVSPropertyOp14
 70
     1
102
RTVSPropertyOp15
 70
     1
102
RTVSPropertyOp16
 70
     1
102
RTVSPropertyOp17
 70
     1
102
RTVSPropertyOp18
 70
     1
102
RTVSPropertyOp19
 70
     1
102
RTVSPropertyOp20
 70
     1
102
RTVSPropertyOp21
 70
     1
102
RTVSPropertyOp22
 70
     1
102
RTVSPropertyOp23
 70
     1
102
RTVSPropertyOp24
 70
     1
102
RTVSPropertyOp25
 70
     1
102
RTVSPropertyOp26
 70
     1
102
RTVSPropertyOp27
 70
     1
  0
XRECORD
  5
53
102
{ACAD_REACTORS
330
52
102
}
330
52
100
AcDbXrecord
280
     1
102
RTVSPropertyOp0
 70
     1
102
RTVSPropertyOp1
 70
     1
102
RTVSPropertyOp2
 70
     1
102
RTVSPropertyOp3
 70
     1
102
RTVSPropertyOp4
 70
     1
102
RTVSPropertyOp5
 70
     1
102
RTVSPropertyOp6
 70
     1
102
RTVSPropertyOp7
 70
     1
102
RTVSPropertyOp8
 70
     1
102
RTVSPropertyOp9
 70
     1
102
RTVSPropertyOp10
 70
     1
102
RTVSPropertyOp11
 70
     1
102
RTVSPropertyOp12
 70
     1
102
RTVSPropertyOp13
 70
     1
102
RTVSPropertyOp14
 70
     1
102
RTVSPropertyOp15
 70
     1
102
RTVSPropertyOp16
 70
     1
102
RTVSPropertyOp17
 70
     1
102
RTVSPropertyOp18
 70
     1
102
RTVSPropertyOp19
 70
     1
102
RTVSPropertyOp20
 70
     1
102
RTVSPropertyOp21
 70
     1
102
RTVSPropertyOp22
 70
     1
102
RTVSPropertyOp23
 70
     1
102
RTVSPropertyOp24
 70
     1
102
RTVSPropertyOp25
 70
     1
102
RTVSPropertyOp26
 70
     1
102
RTVSPropertyOp27
 70
     1
  0
XRECORD
  5
55
102
{ACAD_REACTORS
330
54
102
}
330
54
100
AcDbXrecord
280
     1
102
RTVSPropertyOp0
 70
     1
102
RTVSPropertyOp1
 70
     1
102
RTVSPropertyOp2
 70
     1
102
RTVSPropertyOp3
 70
     1
102
RTVSPropertyOp4
 70
     1
102
RTVSPropertyOp5
 70
     1
102
RTVSPropertyOp6
 70
     1
102
RTVSPropertyOp7
 70
     1
102
RTVSPropertyOp8
 70
     1
102
RTVSPropertyOp9
 70
     1
102
RTVSPropertyOp10
 70
     1
102
RTVSPropertyOp11
 70
     1
102
RTVSPropertyOp12
 70
     1
102
RTVSPropertyOp13
 70
     1
102
RTVSPropertyOp14
 70
     1
102
RTVSPropertyOp15
 70
     1
102
RTVSPropertyOp16
 70
     1
102
RTVSPropertyOp17
 70
     1
102
RTVSPropertyOp18
 70
     1
102
RTVSPropertyOp19
 70
     1
102
RTVSPropertyOp20
 70
     1
102
RTVSPropertyOp21
 70
     1
102
RTVSPropertyOp22
 70
     1
102
RTVSPropertyOp23
 70
     1
102
RTVSPropertyOp24
 70
     1
102
RTVSPropertyOp25
 70
     1
102
RTVSPropertyOp26
 70
     1
102
RTVSPropertyOp27
 70
     1
  0
XRECORD
  5
57
102
{ACAD_REACTORS
330
56
102
}
330
56
100
AcDbXrecord
280
     1
102
RTVSPropertyOp0
 70
     1
102
RTVSPropertyOp1
 70
     1
102
RTVSPropertyOp2
 70
     1
102
RTVSPropertyOp3
 70
     1
102
RTVSPropertyOp4
 70
     1
102
RTVSPropertyOp5
 70
     1
102
RTVSPropertyOp6
 70
     1
102
RTVSPropertyOp7
 70
     1
102
RTVSPropertyOp8
 70
     1
102
RTVSPropertyOp9
 70
     1
102
RTVSPropertyOp10
 70
     1
102
RTVSPropertyOp11
 70
     1
102
RTVSPropertyOp12
 70
     1
102
RTVSPropertyOp13
 70
     1
102
RTVSPropertyOp14
 70
     1
102
RTVSPropertyOp15
 70
     1
102
RTVSPropertyOp16
 70
     1
102
RTVSPropertyOp17
 70
     1
102
RTVSPropertyOp18
 70
     1
102
RTVSPropertyOp19
 70
     1
102
RTVSPropertyOp20
 70
     1
102
RTVSPropertyOp21
 70
     1
102
RTVSPropertyOp22
 70
     1
102
RTVSPropertyOp23
 70
     1
102
RTVSPropertyOp24
 70
     1
102
RTVSPropertyOp25
 70
     1
102
RTVSPropertyOp26
 70
     1
102
RTVSPropertyOp27
 70
     1
  0
XRECORD
  5
59
102
{ACAD_REACTORS
330
58
102
}
330
58
100
AcDbXrecord
280
     1
102
RTVSPropertyOp0
 70
     1
102
RTVSPropertyOp1
 70
     1
102
RTVSPropertyOp2
 70
     1
102
RTVSPropertyOp3
 70
     1
102
RTVSPropertyOp4
 70
     1
102
RTVSPropertyOp5
 70
     1
102
RTVSPropertyOp6
 70
     1
102
RTVSPropertyOp7
 70
     1
102
RTVSPropertyOp8
 70
     1
102
RTVSPropertyOp9
 70
     1
102
RTVSPropertyOp10
 70
     1
102
RTVSPropertyOp11
 70
     1
102
RTVSPropertyOp12
 70
     1
102
RTVSPropertyOp13
 70
     1
102
RTVSPropertyOp14
 70
     1
102
RTVSPropertyOp15
 70
     1
102
RTVSPropertyOp16
 70
     1
102
RTVSPropertyOp17
 70
     1
102
RTVSPropertyOp18
 70
     1
102
RTVSPropertyOp19
 70
     1
102
RTVSPropertyOp20
 70
     1
102
RTVSPropertyOp21
 70
     1
102
RTVSPropertyOp22
 70
     1
102
RTVSPropertyOp23
 70
     1
102
RTVSPropertyOp24
 70
     1
102
RTVSPropertyOp25
 70
     1
102
RTVSPropertyOp26
 70
     1
102
RTVSPropertyOp27
 70
     1
  0
XRECORD
  5
6D
102
{ACAD_REACTORS
330
6C
102
}
330
6C
100
AcDbXrecord
280
     1
102
RTVSPropertyOp0
 70
     1
102
RTVSPropertyOp1
 70
     1
102
RTVSPropertyOp2
 70
     1
102
RTVSPropertyOp3
 70
     1
102
RTVSPropertyOp4
 70
     1
102
RTVSPropertyOp5
 70
     1
102
RTVSPropertyOp6
 70
     1
102
RTVSPropertyOp7
 70
     1
102
RTVSPropertyOp8
 70
     1
102
RTVSPropertyOp9
 70
     1
102
RTVSPropertyOp10
 70
     1
102
RTVSPropertyOp11
 70
     1
102
RTVSPropertyOp12
 70
     1
102
RTVSPropertyOp13
 70
     1
102
RTVSPropertyOp14
 70
     1
102
RTVSPropertyOp15
 70
     1
102
RTVSPropertyOp16
 70
     1
102
RTVSPropertyOp17
 70
     1
102
RTVSPropertyOp18
 70
     1
102
RTVSPropertyOp19
 70
     1
102
RTVSPropertyOp20
 70
     1
102
RTVSPropertyOp21
 70
     1
102
RTVSPropertyOp22
 70
     1
102
RTVSPropertyOp23
 70
     1
102
RTVSPropertyOp24
 70
     1
102
RTVSPropertyOp25
 70
     1
102
RTVSPropertyOp26
 70
     1
102
RTVSPropertyOp27
 70
     1
  0
XRECORD
  5
63
102
{ACAD_REACTORS
330
62
102
}
330
62
100
AcDbXrecord
280
     1
102
RTVSPropertyOp0
 70
     1
102
RTVSPropertyOp1
 70
     1
102
RTVSPropertyOp2
 70
     1
102
RTVSPropertyOp3
 70
     1
102
RTVSPropertyOp4
 70
     1
102
RTVSPropertyOp5
 70
     1
102
RTVSPropertyOp6
 70
     1
102
RTVSPropertyOp7
 70
     1
102
RTVSPropertyOp8
 70
     1
102
RTVSPropertyOp9
 70
     1
102
RTVSPropertyOp10
 70
     1
102
RTVSPropertyOp11
 70
     1
102
RTVSPropertyOp12
 70
     1
102
RTVSPropertyOp13
 70
     1
102
RTVSPropertyOp14
 70
     1
102
RTVSPropertyOp15
 70
     1
102
RTVSPropertyOp16
 70
     1
102
RTVSPropertyOp17
 70
     1
102
RTVSPropertyOp18
 70
     1
102
RTVSPropertyOp19
 70
     1
102
RTVSPropertyOp20
 70
     1
102
RTVSPropertyOp21
 70
     1
102
RTVSPropertyOp22
 70
     1
102
RTVSPropertyOp23
 70
     1
102
RTVSPropertyOp24
 70
     1
102
RTVSPropertyOp25
 70
     1
102
RTVSPropertyOp26
 70
     1
102
RTVSPropertyOp27
 70
     1
  0
XRECORD
  5
6B
102
{ACAD_REACTORS
330
6A
102
}
330
6A
100
AcDbXrecord
280
     1
102
RTVSPropertyOp0
 70
     1
102
RTVSPropertyOp1
 70
     1
102
RTVSPropertyOp2
 70
     1
102
RTVSPropertyOp3
 70
     1
102
RTVSPropertyOp4
 70
     1
102
RTVSPropertyOp5
 70
     1
102
RTVSPropertyOp6
 70
     1
102
RTVSPropertyOp7
 70
     1
102
RTVSPropertyOp8
 70
     1
102
RTVSPropertyOp9
 70
     1
102
RTVSPropertyOp10
 70
     1
102
RTVSPropertyOp11
 70
     1
102
RTVSPropertyOp12
 70
     1
102
RTVSPropertyOp13
 70
     1
102
RTVSPropertyOp14
 70
     1
102
RTVSPropertyOp15
 70
     1
102
RTVSPropertyOp16
 70
     1
102
RTVSPropertyOp17
 70
     1
102
RTVSPropertyOp18
 70
     1
102
RTVSPropertyOp19
 70
     1
102
RTVSPropertyOp20
 70
     1
102
RTVSPropertyOp21
 70
     1
102
RTVSPropertyOp22
 70
     1
102
RTVSPropertyOp23
 70
     1
102
RTVSPropertyOp24
 70
     1
102
RTVSPropertyOp25
 70
     1
102
RTVSPropertyOp26
 70
     1
102
RTVSPropertyOp27
 70
     1
  0
ENDSEC
  0
EOF
