  0
SECTION
  2
HEADER
  9
$ACADVER
  1
AC1014
  9
$ACADMAINTVER
 70
     9
  9
$DWGCODEPAGE
  3
ANSI_1252
  9
$INSBASE
 10
0.0
 20
0.0
 30
0.0
  9
$EXTMIN
 10
0.0
 20
0.0
 30
0.0
  9
$EXTMAX
 10
25.0
 20
35.0
 30
0.0
  9
$LIMMIN
 10
0.0
 20
0.0
  9
$LIMMAX
 10
12.0
 20
9.0
  9
$ORTHOMODE
 70
     0
  9
$REGENMODE
 70
     1
  9
$FILLMODE
 70
     1
  9
$QTEXTMODE
 70
     0
  9
$MIRRTEXT
 70
     1
  9
$DRAGMODE
 70
     2
  9
$LTSCALE
 40
1.0
  9
$OSMODE
 70
    37
  9
$ATTMODE
 70
     1
  9
$TEXTSIZE
 40
0.2
  9
$TRACEWID
 40
0.05
  9
$TEXTSTYLE
  7
STANDARD
  9
$CLAYER
  8
0
  9
$CELTYPE
  6
BYLAYER
  9
$CECOLOR
 62
   256
  9
$CELTSCALE
 40
1.0
  9
$DELOBJ
 70
     1
  9
$DISPSILH
 70
     0
  9
$DIMSCALE
 40
1.0
  9
$DIMASZ
 40
0.18
  9
$DIMEXO
 40
0.0625
  9
$DIMDLI
 40
0.38
  9
$DIMRND
 40
0.0
  9
$DIMDLE
 40
0.0
  9
$DIMEXE
 40
0.18
  9
$DIMTP
 40
0.0
  9
$DIMTM
 40
0.0
  9
$DIMTXT
 40
0.18
  9
$DIMCEN
 40
0.09
  9
$DIMTSZ
 40
0.0
  9
$DIMTOL
 70
     0
  9
$DIMLIM
 70
     0
  9
$DIMTIH
 70
     1
  9
$DIMTOH
 70
     1
  9
$DIMSE1
 70
     0
  9
$DIMSE2
 70
     0
  9
$DIMTAD
 70
     0
  9
$DIMZIN
 70
     0
  9
$DIMBLK
  1

  9
$DIMASO
 70
     1
  9
$DIMSHO
 70
     1
  9
$DIMPOST
  1

  9
$DIMAPOST
  1

  9
$DIMALT
 70
     0
  9
$DIMALTD
 70
     2
  9
$DIMALTF
 40
25.4
  9
$DIMLFAC
 40
1.0
  9
$DIMTOFL
 70
     0
  9
$DIMTVP
 40
0.0
  9
$DIMTIX
 70
     0
  9
$DIMSOXD
 70
     0
  9
$DIMSAH
 70
     0
  9
$DIMBLK1
  1

  9
$DIMBLK2
  1

  9
$DIMSTYLE
  2
STANDARD
  9
$DIMCLRD
 70
     0
  9
$DIMCLRE
 70
     0
  9
$DIMCLRT
 70
     0
  9
$DIMTFAC
 40
1.0
  9
$DIMGAP
 40
0.09
  9
$DIMJUST
 70
     0
  9
$DIMSD1
 70
     0
  9
$DIMSD2
 70
     0
  9
$DIMTOLJ
 70
     1
  9
$DIMTZIN
 70
     0
  9
$DIMALTZ
 70
     0
  9
$DIMALTTZ
 70
     0
  9
$DIMFIT
 70
     3
  9
$DIMUPT
 70
     0
  9
$DIMUNIT
 70
     2
  9
$DIMDEC
 70
     4
  9
$DIMTDEC
 70
     4
  9
$DIMALTU
 70
     2
  9
$DIMALTTD
 70
     2
  9
$DIMTXSTY
  7
STANDARD
  9
$DIMAUNIT
 70
     0
  9
$LUNITS
 70
     2
  9
$LUPREC
 70
     4
  9
$SKETCHINC
 40
0.1
  9
$FILLETRAD
 40
0.5
  9
$AUNITS
 70
     0
  9
$AUPREC
 70
     0
  9
$MENU
  1
.
  9
$ELEVATION
 40
0.0
  9
$PELEVATION
 40
0.0
  9
$THICKNESS
 40
0.0
  9
$LIMCHECK
 70
     0
  9
$CHAMFERA
 40
0.5
  9
$CHAMFERB
 40
0.5
  9
$CHAMFERC
 40
1.0
  9
$CHAMFERD
 40
0.0
  9
$SKPOLY
 70
     0
  9
$TDCREATE
 40
2451930.333333333
  9
$TDUPDATE
 40
2451930.5625
  9
$TDINDWG
 40
0.0000000116
  9
$TDUSRTIMER
 40
0.0000000116
  9
$USRTIMER
 70
     1
  9
$ANGBASE
 50
0.0
  9
$ANGDIR
 70
     0
  9
$PDMODE
 70
     0
  9
$PDSIZE
 40
0.0
  9
$PLINEWID
 40
0.0
  9
$COORDS
 70
     1
  9
$SPLFRAME
 70
     0
  9
$SPLINETYPE
 70
     6
  9
$SPLINESEGS
 70
     8
  9
$ATTDIA
 70
     0
  9
$ATTREQ
 70
     1
  9
$HANDLING
 70
     1
  9
$HANDSEED
  5
E1
  9
$SURFTAB1
 70
     6
  9
$SURFTAB2
 70
     6
  9
$SURFTYPE
 70
     6
  9
$SURFU
 70
     6
  9
$SURFV
 70
     6
  9
$UCSNAME
  2

  9
$UCSORG
 10
0.0
 20
0.0
 30
0.0
  9
$UCSXDIR
 10
1.0
 20
0.0
 30
0.0
  9
$UCSYDIR
 10
0.0
 20
1.0
 30
0.0
  9
$PUCSNAME
  2

  9
$PUCSORG
 10
0.0
 20
0.0
 30
0.0
  9
$PUCSXDIR
 10
1.0
 20
0.0
 30
0.0
  9
$PUCSYDIR
 10
0.0
 20
1.0
 30
0.0
  9
$USERI1
 70
     0
  9
$USERI2
 70
     0
  9
$USERI3
 70
     0
  9
$USERI4
 70
     0
  9
$USERI5
 70
     0
  9
$USERR1
 40
0.0
  9
$USERR2
 40
0.0
  9
$USERR3
 40
0.0
  9
$USERR4
 40
0.0
  9
$USERR5
 40
0.0
  9
$WORLDVIEW
 70
     1
  9
$SHADEDGE
 70
     3
  9
$SHADEDIF
 70
    70
  9
$TILEMODE
 70
     1
  9
$MAXACTVP
 70
    64
  9
$PINSBASE
 10
0.0
 20
0.0
 30
0.0
  9
$PLIMCHECK
 70
     0
  9
$PEXTMIN
 10
1.000000000000000E+20
 20
1.000000000000000E+20
 30
1.000000000000000E+20
  9
$PEXTMAX
 10
-1.000000000000000E+20
 20
-1.000000000000000E+20
 30
-1.000000000000000E+20
  9
$PLIMMIN
 10
0.0
 20
0.0
  9
$PLIMMAX
 10
12.0
 20
9.0
  9
$UNITMODE
 70
     0
  9
$VISRETAIN
 70
     1
  9
$PLINEGEN
 70
     0
  9
$PSLTSCALE
 70
     1
  9
$TREEDEPTH
 70
  3020
  9
$PICKSTYLE
 70
     1
  9
$CMLSTYLE
  2
STANDARD
  9
$CMLJUST
 70
     0
  9
$CMLSCALE
 40
1.0
  9
$PROXYGRAPHICS
 70
     1
  9
$MEASUREMENT
 70
     0
  0
ENDSEC
  0
SECTION
  2
CLASSES
  0
CLASS
  1
ACDBDICTIONARYWDFLT
  2
AcDbDictionaryWithDefault
  3
ObjectDBX Classes
 90
        0
280
     0
281
     0
  0
CLASS
  1
VISUALSTYLE
  2
AcDbVisualStyle
  3
ObjectDBX Classes
 90
     4095
280
     0
281
     0
  0
CLASS
  1
MATERIAL
  2
AcDbMaterial
  3
ObjectDBX Classes
 90
     1153
280
     0
281
     0
  0
CLASS
  1
DICTIONARYVAR
  2
AcDbDictionaryVar
  3
ObjectDBX Classes
 90
        0
280
     0
281
     0
  0
CLASS
  1
XRECORD
  2
AcDbXrecord
  3
AutoCAD 2000
 90
        0
280
     0
281
     0
  0
CLASS
  1
LWPOLYLINE
  2
AcDbPolyline
  3
AutoCAD 2000
 90
        0
280
     0
281
     1
  0
CLASS
  1
HATCH
  2
AcDbHatch
  3
AutoCAD 2000
 90
        0
280
     0
281
     1
  0
CLASS
  1
ACDBPLACEHOLDER
  2
AcDbPlaceHolder
  3
ObjectDBX Classes
 90
        0
280
     0
281
     0
  0
CLASS
  1
LAYOUT
  2
AcDbLayout
  3
ObjectDBX Classes
 90
        0
280
     0
281
     0
  0
ENDSEC
  0
SECTION
  2
TABLES
  0
TABLE
  2
VPORT
  5
8
330
0
100
AcDbSymbolTable
 70
     1
  0
VPORT
  5
29
330
8
100
AcDbSymbolTableRecord
100
AcDbViewportTableRecord
  2
*ACTIVE
 70
     0
 10
0.0
 20
0.0
 11
1.0
 21
1.0
 12
11.26
 22
4.5
 13
0.0
 23
0.0
 14
0.5
 24
0.5
 15
0.5
 25
0.5
 16
0.0
 26
0.0
 36
1.0
 17
0.0
 27
0.0
 37
0.0
 40
9.0
 41
2.503333333333333
 42
50.0
 43
0.0
 44
0.0
 50
0.0
 51
0.0
 71
     0
 72
   100
 73
     1
 74
     3
 75
     0
 76
     0
 77
     0
 78
     0
  0
ENDTAB
  0
TABLE
  2
LTYPE
  5
5
330
0
100
AcDbSymbolTable
 70
     2
  0
LTYPE
  5
14
330
5
100
AcDbSymbolTableRecord
100
AcDbLinetypeTableRecord
  2
BYBLOCK
 70
     0
  3

 72
    65
 73
     0
 40
0.0
  0
LTYPE
  5
15
330
5
100
AcDbSymbolTableRecord
100
AcDbLinetypeTableRecord
  2
BYLAYER
 70
     0
  3

 72
    65
 73
     0
 40
0.0
  0
LTYPE
  5
16
330
5
100
AcDbSymbolTableRecord
100
AcDbLinetypeTableRecord
  2
CONTINUOUS
 70
     0
  3
Solid line
 72
    65
 73
     0
 40
0.0
  0
LTYPE
  5
40
330
5
100
AcDbSymbolTableRecord
100
AcDbLinetypeTableRecord
  2
CONTINUOUS2
 70
     0
  3
Solid line
 72
    65
 73
     0
 40
0.0
  0
ENDTAB
  0
TABLE
  2
LAYER
  5
2
330
0
100
AcDbSymbolTable
 70
     2
  0
LAYER
  5
10
330
2
100
AcDbSymbolTableRecord
100
AcDbLayerTableRecord
  2
0
 70
     0
 62
     7
  6
CONTINUOUS
  0
LAYER
  5
42
330
2
100
AcDbSymbolTableRecord
100
AcDbLayerTableRecord
  2
CAD
 70
     0
 62
     7
  6
CONTINUOUS
  0
ENDTAB
  0
TABLE
  2
STYLE
  5
3
330
0
100
AcDbSymbolTable
 70
     1
  0
STYLE
  5
11
330
3
100
AcDbSymbolTableRecord
100
AcDbTextStyleTableRecord
  2
STANDARD
 70
     0
 40
0.0
 41
1.0
 50
0.0
 71
     0
 42
0.2
  3
txt
  4

  0
ENDTAB
  0
TABLE
  2
VIEW
  5
6
330
0
100
AcDbSymbolTable
 70
     0
  0
ENDTAB
  0
TABLE
  2
UCS
  5
7
330
0
100
AcDbSymbolTable
 70
     0
  0
ENDTAB
  0
TABLE
  2
APPID
  5
9
330
0
100
AcDbSymbolTable
 70
     1
  0
APPID
  5
12
330
9
100
AcDbSymbolTableRecord
100
AcDbRegAppTableRecord
  2
ACAD
 70
     0
  0
ENDTAB
  0
TABLE
  2
DIMSTYLE
  5
A
330
0
100
AcDbSymbolTable
 70
     2
  0
DIMSTYLE
105
27
330
A
100
AcDbSymbolTableRecord
100
AcDbDimStyleTableRecord
  2
STANDARD
 70
     0
  3

  4

  5

  6

  7

 40
1.0
 41
0.18
 42
0.0625
 43
0.38
 44
0.18
 45
0.0
 46
0.0
 47
0.0
 48
0.0
140
0.18
141
0.09
142
0.0
143
25.4
144
1.0
145
0.0
146
1.0
147
0.09
 71
     0
 72
     0
 73
     1
 74
     1
 75
     0
 76
     0
 77
     0
 78
     0
170
     0
171
     2
172
     0
173
     0
174
     0
175
     0
176
     0
177
     0
178
     0
270
     2
271
     4
272
     4
273
     2
274
     2
340
11
275
     0
280
     0
281
     0
282
     0
283
     1
284
     0
285
     0
286
     0
287
     3
288
     0
  0
DIMSTYLE
105
41
330
A
100
AcDbSymbolTableRecord
100
AcDbDimStyleTableRecord
  2
ODADIMSTYLE
 70
     0
  3

  4

  5

  6

  7

 40
1.0
 41
0.18
 42
0.0625
 43
0.38
 44
0.18
 45
0.0
 46
0.0
 47
0.0
 48
0.0
140
0.18
141
0.09
142
0.0
143
25.4
144
1.0
145
0.0
146
1.0
147
0.09
 71
     0
 72
     0
 73
     1
 74
     1
 75
     0
 76
     0
 77
     0
 78
     0
170
     0
171
     2
172
     0
173
     0
174
     0
175
     0
176
     0
177
     0
178
     0
270
     2
271
     4
272
     4
273
     2
274
     2
340
0
275
     0
280
     0
281
     0
282
     0
283
     1
284
     0
285
     0
286
     0
287
     3
288
     0
  0
ENDTAB
  0
TABLE
  2
BLOCK_RECORD
  5
1
330
0
100
AcDbSymbolTable
 70
     1
  0
BLOCK_RECORD
  5
1F
330
1
100
AcDbSymbolTableRecord
100
AcDbBlockTableRecord
  2
*MODEL_SPACE
  0
BLOCK_RECORD
  5
1B
330
1
100
AcDbSymbolTableRecord
100
AcDbBlockTableRecord
  2
*PAPER_SPACE
  0
ENDTAB
  0
ENDSEC
  0
SECTION
  2
BLOCKS
  0
BLOCK
  5
20
330
1F
100
AcDbEntity
  8
0
100
AcDbBlockBegin
  2
*MODEL_SPACE
 70
     0
 10
0.0
 20
0.0
 30
0.0
  3
*MODEL_SPACE
  1

  0
ENDBLK
  5
21
330
1F
100
AcDbEntity
  8
0
100
AcDbBlockEnd
  0
BLOCK
  5
1C
330
1B
100
AcDbEntity
 67
     1
  8
0
100
AcDbBlockBegin
  2
*PAPER_SPACE
 70
     0
 10
0.0
 20
0.0
 30
0.0
  3
*PAPER_SPACE
  1

  0
ENDBLK
  5
1D
330
1B
100
AcDbEntity
 67
     1
  8
0
100
AcDbBlockEnd
  0
ENDSEC
  0
SECTION
  2
ENTITIES
  0
ARC
  5
43
330
1F
100
AcDbEntity
  8
CAD
  6
CONTINUOUS
 62
     5
100
AcDbCircle
 10
0.5870051268984813
 20
2.318682441555918
 30
0.0
 40
0.1281881066772225
100
AcDbArc
 50
95.13287380319963
 51
124.6429871759672
  0
LINE
  5
44
330
1F
100
AcDbEntity
  8
CAD
  6
CONTINUOUS
 62
     5
100
AcDbLine
 10
0.5755366796343404
 20
2.446356500827333
 30
0.0
 11
0.7274106521756531
 21
2.462800966724685
 31
0.0
  0
LINE
  5
45
330
1F
100
AcDbEntity
  8
CAD
  6
CONTINUOUS
 62
     5
100
AcDbLine
 10
0.7274106521756531
 20
2.462800966724685
 30
0.0
 11
1.086756878235049
 21
2.477819711090261
 31
0.0
  0
ARC
  5
46
330
1F
100
AcDbEntity
  8
CAD
  6
CONTINUOUS
 62
     5
100
AcDbCircle
 10
1.185340446440031
 20
0.1190583976527174
 30
0.0
 40
2.36082054669338
100
AcDbArc
 50
83.21146211675051
 51
92.39326333101697
  0
ARC
  5
47
330
1F
100
AcDbEntity
  8
CAD
  6
CONTINUOUS
 62
     5
100
AcDbCircle
 10
1.47391274239579
 20
2.408551548033092
 30
0.0
 40
0.0555956387899371
100
AcDbArc
 50
33.69994203802096
 51
99.85003510046086
  0
ARC
  5
48
330
1F
100
AcDbEntity
  8
CAD
  6
CONTINUOUS
 62
     5
100
AcDbCircle
 10
1.028640168124556
 20
2.69580580739912
 30
0.0
 40
0.554384508897805
100
AcDbArc
 50
316.5820683720655
 51
332.4509247777804
  0
ARC
  5
49
330
1F
100
AcDbEntity
  8
CAD
  6
CONTINUOUS
 62
     5
100
AcDbCircle
 10
1.745388027326507
 20
2.072513580587131
 30
0.0
 40
0.3966418730688875
100
AcDbArc
 50
142.355064123063
 51
174.6879700597318
  0
ARC
  5
4A
330
1F
100
AcDbEntity
  8
CAD
  6
CONTINUOUS
 62
     5
100
AcDbCircle
 10
8.591935619657121
 20
1.254702919713426
 30
0.0
 40
7.291731193239766
100
AcDbArc
 50
173.2699349393737
 51
173.9799554450225
  0
ARC
  5
4B
330
1F
100
AcDbEntity
  8
CAD
  6
CONTINUOUS
 62
     5
100
AcDbCircle
 10
-3.418494392381323
 20
1.405696737915081
 30
0.0
 40
4.720134117590861
100
AcDbArc
 50
349.3884659812894
 51
359.920459932134
  0
ARC
  5
4C
330
1F
100
AcDbEntity
  8
CAD
  6
CONTINUOUS
 62
     5
100
AcDbCircle
 10
0.7894046409689616
 20
0.617333060206411
 30
0.0
 40
0.4390207620254423
100
AcDbArc
 50
314.6724279233223
 51
349.3884659812894
  0
ARC
  5
4D
330
1F
100
AcDbEntity
  8
CAD
  6
CONTINUOUS
 62
     5
100
AcDbCircle
 10
0.7446290071449162
 20
0.6927930513920043
 30
0.0
 40
0.5245918233534804
100
AcDbArc
 50
284.5743407296013
 51
312.3551701976828
  0
ARC
  5
4E
330
1F
100
AcDbEntity
  8
CAD
  6
CONTINUOUS
 62
     5
100
AcDbCircle
 10
0.669966699027787
 20
0.8021706468827399
 30
0.0
 40
0.6507770684853215
100
AcDbArc
 50
270.8954443669431
 51
288.5161436033998
  0
ARC
  5
4F
330
1F
100
AcDbEntity
  8
CAD
  6
CONTINUOUS
 62
     5
100
AcDbCircle
 10
0.7440091463695448
 20
0.8882332295995066
 30
0.0
 40
0.7395236436309168
100
AcDbArc
 50
244.4516335339983
 51
265.0452239250134
  0
ARC
  5
50
330
1F
100
AcDbEntity
  8
CAD
  6
CONTINUOUS
 62
     5
100
AcDbCircle
 10
0.5658423662221239
 20
0.7181955197123646
 30
0.0
 40
0.5167209453223915
100
AcDbArc
 50
205.6579490510844
 51
254.1911503568149
  0
ARC
  5
51
330
1F
100
AcDbEntity
  8
CAD
  6
CONTINUOUS
 62
     5
100
AcDbCircle
 10
0.2484924766516292
 20
0.5792634485984446
 30
0.0
 40
0.1709404814247957
100
AcDbArc
 50
114.2817422198992
 51
209.7435884972591
  0
ARC
  5
52
330
1F
100
AcDbEntity
  8
CAD
  6
CONTINUOUS
 62
     5
100
AcDbCircle
 10
0.3622416010208864
 20
0.3499241080594875
 30
0.0
 40
0.426870522066953
100
AcDbArc
 50
99.40111342197609
 51
115.5403726138821
  0
ARC
  5
53
330
1F
100
AcDbEntity
  8
CAD
  6
CONTINUOUS
 62
     5
100
AcDbCircle
 10
0.3247126646774445
 20
0.5765906991659985
 30
0.0
 40
0.1971181236313407
100
AcDbArc
 50
44.76803727285561
 51
99.4011134219761
  0
ARC
  5
54
330
1F
100
AcDbEntity
  8
CAD
  6
CONTINUOUS
 62
     5
100
AcDbCircle
 10
0.2390981814416412
 20
0.4916666472353588
 30
0.0
 40
0.317708066562133
100
AcDbArc
 50
356.8383569312928
 51
44.7680372728556
  0
ARC
  5
55
330
1F
100
AcDbEntity
  8
CAD
  6
CONTINUOUS
 62
     5
100
AcDbCircle
 10
0.7000693405427152
 20
0.461919237714521
 30
0.0
 40
0.1442655620341029
100
AcDbArc
 50
175.1390189004447
 51
212.5638267153385
  0
ARC
  5
56
330
1F
100
AcDbEntity
  8
CAD
  6
CONTINUOUS
 62
     5
100
AcDbCircle
 10
0.6680840485224862
 20
0.4956496957394281
 30
0.0
 40
0.1429465896769593
100
AcDbArc
 50
231.1846996653643
 51
277.2041057560077
  0
ARC
  5
57
330
1F
100
AcDbEntity
  8
CAD
  6
CONTINUOUS
 62
     5
100
AcDbCircle
 10
0.7020655598504343
 20
0.5028049366864632
 30
0.0
 40
0.1498360453659224
100
AcDbArc
 50
263.8487723327834
 51
331.3991249226931
  0
ARC
  5
58
330
1F
100
AcDbEntity
  8
CAD
  6
CONTINUOUS
 62
     5
100
AcDbCircle
 10
0.4223801366602584
 20
0.5973627132315409
 30
0.0
 40
0.4435845764746125
100
AcDbArc
 50
337.9839264639347
 51
357.748783922344
  0
LINE
  5
59
330
1F
100
AcDbEntity
  8
CAD
  6
CONTINUOUS
 62
     5
100
AcDbLine
 10
0.865622355775667
 20
0.5799382568610028
 30
0.0
 11
0.876494871061404
 21
0.8565126130495054
 31
0.0
  0
ARC
  5
5A
330
1F
100
AcDbEntity
  8
CAD
  6
CONTINUOUS
 62
     5
100
AcDbCircle
 10
-0.7877173979923059
 20
0.9219350679124746
 30
0.0
 40
1.665497695606089
100
AcDbArc
 50
357.7487839223442
 51
7.714694053261046
  0
ARC
  5
5B
330
1F
100
AcDbEntity
  8
CAD
  6
CONTINUOUS
 62
     5
100
AcDbCircle
 10
3.165187043025839
 20
1.616812329440358
 30
0.0
 40
2.289392071129337
100
AcDbArc
 50
170.0181707124759
 51
178.447676884248
  0
LINE
  5
5C
330
1F
100
AcDbEntity
  8
CAD
  6
CONTINUOUS
 62
     5
100
AcDbLine
 10
0.9469476725930034
 20
2.221019089423053
 30
0.0
 11
0.9104500169549107
 21
2.013646046020358
 31
0.0
  0
LINE
  5
5D
330
1F
100
AcDbEntity
  8
CAD
  6
CONTINUOUS
 62
     5
100
AcDbLine
 10
0.9469476725930034
 20
2.221019089423053
 30
0.0
 11
0.751635170228796
 21
2.221019089423053
 31
0.0
  0
LINE
  5
5E
330
1F
100
AcDbEntity
  8
CAD
  6
CONTINUOUS
 62
     5
100
AcDbLine
 10
0.751635170228796
 20
2.221019089423053
 30
0.0
 11
0.6249726012172094
 21
2.210255293380524
 31
0.0
  0
ARC
  5
5F
330
1F
100
AcDbEntity
  8
CAD
  6
CONTINUOUS
 62
     5
100
AcDbCircle
 10
0.6194262299338857
 20
2.140284495728314
 30
0.0
 40
0.0701902753841232
100
AcDbArc
 50
85.46781509549562
 51
154.0315999671594
  0
ARC
  5
60
330
1F
100
AcDbEntity
  8
CAD
  6
CONTINUOUS
 62
     5
100
AcDbCircle
 10
0.5064151798941712
 20
2.166447375513763
 30
0.0
 40
0.0501164435898495
100
AcDbArc
 50
270.6047316389797
 51
5.233901518577026
  0
ARC
  5
61
330
1F
100
AcDbEntity
  8
CAD
  6
CONTINUOUS
 62
     5
100
AcDbCircle
 10
0.506483430827385
 20
2.159981126751547
 30
0.0
 40
0.0436498346450665
100
AcDbArc
 50
200.8327244576529
 51
270.6047316389797
  0
LINE
  5
62
330
1F
100
AcDbEntity
  8
CAD
  6
CONTINUOUS
 62
     5
100
AcDbLine
 10
0.4509740174257774
 20
2.220656455952905
 30
0.0
 11
0.4656873043092556
 21
2.144457463341819
 31
0.0
  0
ARC
  5
63
330
1F
100
AcDbEntity
  8
CAD
  6
CONTINUOUS
 62
     5
100
AcDbCircle
 10
0.7647655976908296
 20
2.234803936501609
 30
0.0
 40
0.3141103421587939
100
AcDbArc
 50
142.9305736258288
 51
182.5814662140454
  0
ARC
  5
64
330
1F
100
AcDbEntity
  8
CAD
  6
CONTINUOUS
 62
     5
100
AcDbCircle
 10
1.911941560690903
 20
1.830159309995899
 30
0.0
 40
0.3615499477186568
100
AcDbArc
 50
91.47881849517431
 51
123.5714795386384
  0
ARC
  5
65
330
1F
100
AcDbEntity
  8
CAD
  6
CONTINUOUS
 62
     5
100
AcDbCircle
 10
1.755402024597797
 20
0.9537775322407779
 30
0.0
 40
1.246534107585783
100
AcDbArc
 50
65.62651918411171
 51
83.21785397404946
  0
LINE
  5
66
330
1F
100
AcDbEntity
  8
CAD
  6
CONTINUOUS
 62
     5
100
AcDbLine
 10
2.475043824524844
 20
1.972365133636029
 30
0.0
 11
2.465137810452798
 21
1.570463991284418
 31
0.0
  0
ARC
  5
67
330
1F
100
AcDbEntity
  8
CAD
  6
CONTINUOUS
 62
     5
100
AcDbCircle
 10
5.107252476558784
 20
1.441736469322245
 30
0.0
 40
2.645248699794191
100
AcDbArc
 50
177.2106751654741
 51
184.0111482963132
  0
LINE
  5
68
330
1F
100
AcDbEntity
  8
CAD
  6
CONTINUOUS
 62
     5
100
AcDbLine
 10
2.46848342310814
 20
1.256699807241352
 30
0.0
 11
2.486895492141082
 21
1.146367042471182
 31
0.0
  0
ARC
  5
69
330
1F
100
AcDbEntity
  8
CAD
  6
CONTINUOUS
 62
     5
100
AcDbCircle
 10
2.579476753967831
 20
1.163660315678952
 30
0.0
 40
0.0941825214127947
100
AcDbArc
 50
190.580363357487
 51
230.7015445410747
  0
ARC
  5
6A
330
1F
100
AcDbEntity
  8
CAD
  6
CONTINUOUS
 62
     5
100
AcDbCircle
 10
2.4982055305164
 20
1.031564540623418
 30
0.0
 40
0.0630354608689892
100
AcDbArc
 50
55.60615463264993
 51
69.94158170975764
  0
ARC
  5
6B
330
1F
100
AcDbEntity
  8
CAD
  6
CONTINUOUS
 62
     5
100
AcDbCircle
 10
2.379601637981729
 20
1.183622539687532
 30
0.0
 40
0.2542890807503861
100
AcDbArc
 50
266.3865929102532
 51
304.3136800838137
  0
ARC
  5
6C
330
1F
100
AcDbEntity
  8
CAD
  6
CONTINUOUS
 62
     5
100
AcDbCircle
 10
2.387961150847669
 20
0.3738818059980896
 30
0.0
 40
0.5564917362547033
100
AcDbArc
 50
92.51154377313254
 51
125.260630960671
  0
ARC
  5
6D
330
1F
100
AcDbEntity
  8
CAD
  6
CONTINUOUS
 62
     5
100
AcDbCircle
 10
1.834701447305538
 20
1.119222379494033
 30
0.0
 40
0.3721195847582814
100
AcDbArc
 50
281.8314191111106
 51
308.568689663134
  0
ARC
  5
6E
330
1F
100
AcDbEntity
  8
CAD
  6
CONTINUOUS
 62
     5
100
AcDbCircle
 10
2.044652580652918
 20
1.573898494231081
 30
0.0
 40
0.8297255135442381
100
AcDbArc
 50
240.9452418881095
 51
260.7302553239023
  0
LINE
  5
6F
330
1F
100
AcDbEntity
  8
CAD
  6
CONTINUOUS
 62
     5
100
AcDbLine
 10
1.64170030052592
 20
0.8485889825281779
 30
0.0
 11
1.376075297269974
 21
0.976713984097224
 31
0.0
  0
LINE
  5
70
330
1F
100
AcDbEntity
  8
CAD
  6
CONTINUOUS
 62
     5
100
AcDbLine
 10
1.376075297269974
 20
0.976713984097224
 30
0.0
 11
1.388575297421283
 21
1.382963989014778
 31
0.0
  0
LINE
  5
71
330
1F
100
AcDbEntity
  8
CAD
  6
CONTINUOUS
 62
     5
100
AcDbLine
 10
1.388575297421283
 20
1.382963989014778
 30
0.0
 11
1.381995466427655
 21
1.687306142221458
 31
0.0
  0
ARC
  5
72
330
1F
100
AcDbEntity
  8
CAD
  6
CONTINUOUS
 62
     5
100
AcDbCircle
 10
1.025263091170255
 20
1.692297330250119
 30
0.0
 40
0.3567672904215368
100
AcDbArc
 50
359.1984037050865
 51
29.09459809458533
  0
ARC
  5
73
330
1F
100
AcDbEntity
  8
CAD
  6
CONTINUOUS
 62
     5
100
AcDbCircle
 10
1.410233639017874
 20
1.94473251603552
 30
0.0
 40
0.1076816837529005
100
AcDbArc
 50
219.1947229938712
 51
227.1583182790325
  0
ARC
  5
74
330
1F
100
AcDbEntity
  8
CAD
  6
CONTINUOUS
 62
     5
100
AcDbCircle
 10
1.437458808339708
 20
1.906131712792375
 30
0.0
 40
0.1491793751823405
100
AcDbArc
 50
80.52636570372871
 51
130.5799372804281
  0
ARC
  5
75
330
1F
100
AcDbEntity
  8
CAD
  6
CONTINUOUS
 62
     5
100
AcDbCircle
 10
1.426149167873886
 20
2.607102619847384
 30
0.0
 40
0.5549861027017438
100
AcDbArc
 50
273.7050792017641
 51
301.0029700651717
  0
LINE
  5
76
330
1F
100
AcDbEntity
  8
CAD
  6
CONTINUOUS
 62
     5
100
AcDbLine
 10
2.045619978088853
 20
1.957973144905315
 30
0.0
 11
1.831557475499868
 21
2.031410645794258
 31
0.0
  0
ARC
  5
77
330
1F
100
AcDbEntity
  8
CAD
  6
CONTINUOUS
 62
     5
100
AcDbCircle
 10
1.950922758607387
 20
1.958265729835215
 30
0.0
 40
0.1399937482246736
100
AcDbArc
 50
148.5007759568545
 51
186.8777520379334
  0
LINE
  5
78
330
1F
100
AcDbEntity
  8
CAD
  6
CONTINUOUS
 62
     5
100
AcDbLine
 10
1.811936417120379
 20
1.941501290624483
 30
0.0
 11
1.803432475157233
 21
1.587660640511526
 31
0.0
  0
LINE
  5
79
330
1F
100
AcDbEntity
  8
CAD
  6
CONTINUOUS
 62
     5
100
AcDbLine
 10
1.803432475157233
 20
1.587660640511526
 30
0.0
 11
1.803432475157233
 21
1.139223134994554
 31
0.0
  0
LINE
  5
7A
330
1F
100
AcDbEntity
  8
CAD
  6
CONTINUOUS
 62
     5
100
AcDbLine
 10
1.803432475157233
 20
1.139223134994554
 30
0.0
 11
1.986244977370135
 21
1.084535634332575
 31
0.0
  0
LINE
  5
7B
330
1F
100
AcDbEntity
  8
CAD
  6
CONTINUOUS
 62
     5
100
AcDbLine
 10
1.986244977370135
 20
1.084535634332575
 30
0.0
 11
2.121203560355936
 21
1.05271522110569
 31
0.0
  0
ARC
  5
7C
330
1F
100
AcDbEntity
  8
CAD
  6
CONTINUOUS
 62
     5
100
AcDbCircle
 10
2.151449355176469
 20
1.153975042287531
 30
0.0
 40
0.1056804593579341
100
AcDbArc
 50
253.369381500192
 51
298.4964637620732
  0
ARC
  5
7D
330
1F
100
AcDbEntity
  8
CAD
  6
CONTINUOUS
 62
     5
100
AcDbCircle
 10
2.000206125975811
 20
1.157464564616377
 30
0.0
 40
0.2235057022783036
100
AcDbArc
 50
334.4588826281283
 51
1.09307328468479
  0
LINE
  5
7E
330
1F
100
AcDbEntity
  8
CAD
  6
CONTINUOUS
 62
     5
100
AcDbLine
 10
2.223671155953845
 20
1.161728286914305
 30
0.0
 11
2.233119980358494
 21
1.481410639058834
 31
0.0
  0
LINE
  5
7F
330
1F
100
AcDbEntity
  8
CAD
  6
CONTINUOUS
 62
     5
100
AcDbLine
 10
2.233119980358494
 20
1.481410639058834
 30
0.0
 11
2.233119980358494
 21
1.875160643902891
 31
0.0
  0
LINE
  5
80
330
1F
100
AcDbEntity
  8
CAD
  6
CONTINUOUS
 62
     5
100
AcDbLine
 10
2.233119980358494
 20
1.875160643902891
 30
0.0
 11
2.045619978088853
 21
1.957973144905315
 31
0.0
  0
ARC
  5
81
330
1F
100
AcDbEntity
  8
CAD
  6
CONTINUOUS
 62
     5
100
AcDbCircle
 10
2.688764831937356
 20
2.065243928222096
 30
0.0
 40
0.2073801844488501
100
AcDbArc
 50
115.9352164034644
 51
163.3265701362615
  0
ARC
  5
82
330
1F
100
AcDbEntity
  8
CAD
  6
CONTINUOUS
 62
     5
100
AcDbCircle
 10
2.621366560490072
 20
2.154808305786402
 30
0.0
 40
0.0996915512540548
100
AcDbArc
 50
59.12237408663128
 51
103.5164783036431
  0
ARC
  5
83
330
1F
100
AcDbEntity
  8
CAD
  6
CONTINUOUS
 62
     5
100
AcDbCircle
 10
2.469180606307966
 20
1.900298614379803
 30
0.0
 40
0.3962311736828297
100
AcDbArc
 50
39.60071620441907
 51
59.12237408663137
  0
ARC
  5
84
330
1F
100
AcDbEntity
  8
CAD
  6
CONTINUOUS
 62
     5
100
AcDbCircle
 10
2.538669865405473
 20
1.943431580451333
 30
0.0
 40
0.3153889363871896
100
AcDbArc
 50
10.18164626056099
 51
41.61047716255949
  0
ARC
  5
85
330
1F
100
AcDbEntity
  8
CAD
  6
CONTINUOUS
 62
     5
100
AcDbCircle
 10
0.3803446930493176
 20
1.629358061941879
 30
0.0
 40
2.49629410527471
100
AcDbArc
 50
358.7463953079633
 51
8.519700883403322
  0
LINE
  5
86
330
1F
100
AcDbEntity
  8
CAD
  6
CONTINUOUS
 62
     5
100
AcDbLine
 10
2.876041316933143
 20
1.574744679294981
 30
0.0
 11
2.880728816990509
 21
1.11068217361981
 31
0.0
  0
LINE
  5
87
330
1F
100
AcDbEntity
  8
CAD
  6
CONTINUOUS
 62
     5
100
AcDbLine
 10
2.880728816990509
 20
1.11068217361981
 30
0.0
 11
3.308853822172854
 21
1.11068217361981
 31
0.0
  0
LINE
  5
88
330
1F
100
AcDbEntity
  8
CAD
  6
CONTINUOUS
 62
     5
100
AcDbLine
 10
3.308853822172854
 20
1.11068217361981
 30
0.0
 11
3.313541322229595
 21
1.610682179672183
 31
0.0
  0
ARC
  5
89
330
1F
100
AcDbEntity
  8
CAD
  6
CONTINUOUS
 62
     5
100
AcDbCircle
 10
6.254916185543302
 20
1.638104322020379
 30
0.0
 40
2.941502687475347
100
AcDbArc
 50
172.7497700883586
 51
180.5341473211955
  0
LINE
  5
8A
330
1F
100
AcDbEntity
  8
CAD
  6
CONTINUOUS
 62
     5
100
AcDbLine
 10
3.336932449673538
 20
2.00933063793052
 30
0.0
 11
3.370208989266043
 21
2.147853026581026
 31
0.0
  0
ARC
  5
8B
330
1F
100
AcDbEntity
  8
CAD
  6
CONTINUOUS
 62
     5
100
AcDbCircle
 10
3.480520408938837
 20
2.117420352459012
 30
0.0
 40
0.1144323248232073
100
AcDbArc
 50
121.1341994179252
 51
164.5769034364278
  0
ARC
  5
8C
330
1F
100
AcDbEntity
  8
CAD
  6
CONTINUOUS
 62
     5
100
AcDbCircle
 10
3.453775238718665
 20
2.13291047719206
 30
0.0
 40
0.0886040035390022
100
AcDbArc
 50
69.78748858608337
 51
111.4638217032448
  0
ARC
  5
8D
330
1F
100
AcDbEntity
  8
CAD
  6
CONTINUOUS
 62
     5
100
AcDbCircle
 10
3.369317270767425
 20
1.903515031093095
 30
0.0
 40
0.3330532192084238
100
AcDbArc
 50
48.47729872835072
 51
69.7874885860833
  0
ARC
  5
8E
330
1F
100
AcDbEntity
  8
CAD
  6
CONTINUOUS
 62
     5
100
AcDbCircle
 10
3.404264470075196
 20
1.89273679128127
 30
0.0
 40
0.3196957758427614
100
AcDbArc
 50
30.83281318801747
 51
54.45792598089687
  0
ARC
  5
8F
330
1F
100
AcDbEntity
  8
CAD
  6
CONTINUOUS
 62
     5
100
AcDbCircle
 10
3.53155358186975
 20
2.028564593379172
 30
0.0
 40
0.1498670386398968
100
AcDbArc
 50
320.9357593967593
 51
10.77863169434122
  0
ARC
  5
90
330
1F
100
AcDbEntity
  8
CAD
  6
CONTINUOUS
 62
     5
100
AcDbCircle
 10
4.114179643170474
 20
1.74458149977369
 30
0.0
 40
0.503315213163205
100
AcDbArc
 50
157.8780316495876
 51
179.2878763319335
  0
ARC
  5
91
330
1F
100
AcDbEntity
  8
CAD
  6
CONTINUOUS
 62
     5
100
AcDbCircle
 10
6.261026718664673
 20
1.614802479775979
 30
0.0
 40
2.653612537087096
100
AcDbArc
 50
177.0615071560886
 51
183.8052223933248
  0
ARC
  5
92
330
1F
100
AcDbEntity
  8
CAD
  6
CONTINUOUS
 62
     5
100
AcDbCircle
 10
7.426387906538218
 20
1.622280291814493
 30
0.0
 40
3.817540448132972
100
AcDbArc
 50
182.7564003981189
 51
189.9565467091581
  0
ARC
  5
93
330
1F
100
AcDbEntity
  8
CAD
  6
CONTINUOUS
 62
     5
100
AcDbCircle
 10
4.626898829360394
 20
1.130843694930296
 30
0.0
 40
0.9752440135584477
100
AcDbArc
 50
189.956546709158
 51
204.8100896455309
  0
ARC
  5
94
330
1F
100
AcDbEntity
  8
CAD
  6
CONTINUOUS
 62
     5
100
AcDbCircle
 10
3.420515062579637
 20
0.5319196152520146
 30
0.0
 40
0.3729936263032228
100
AcDbArc
 50
345.9759514499876
 51
30.56981769856136
  0
ARC
  5
95
330
1F
100
AcDbEntity
  8
CAD
  6
CONTINUOUS
 62
     5
100
AcDbCircle
 10
3.492263843278856
 20
0.5374154672714604
 30
0.0
 40
0.3055609469889769
100
AcDbArc
 50
311.061248257077
 51
341.7119992211599
  0
ARC
  5
96
330
1F
100
AcDbEntity
  8
CAD
  6
CONTINUOUS
 62
     5
100
AcDbCircle
 10
3.28227173194734
 20
0.7784628575269875
 30
0.0
 40
0.6252491250163605
100
AcDbArc
 50
291.8626531864134
 51
311.061248257077
  0
ARC
  5
97
330
1F
100
AcDbEntity
  8
CAD
  6
CONTINUOUS
 62
     5
100
AcDbCircle
 10
3.310294721574783
 20
0.5714374022849149
 30
0.0
 40
0.4257537347917979
100
AcDbArc
 50
245.9784530489436
 51
298.7540429460198
  0
ARC
  5
98
330
1F
100
AcDbEntity
  8
CAD
  6
CONTINUOUS
 62
     5
100
AcDbCircle
 10
2.730334516712471
 20
-1.179321049830557
 30
0.0
 40
1.421292318411937
100
AcDbArc
 50
73.37485903000267
 51
90.42502621605476
  0
ARC
  5
99
330
1F
100
AcDbEntity
  8
CAD
  6
CONTINUOUS
 62
     5
100
AcDbCircle
 10
2.662634217872096
 20
0.9416617658683415
 30
0.0
 40
0.7020601475279858
100
AcDbArc
 50
260.1481408547083
 51
274.6698121094358
  0
ARC
  5
9A
330
1F
100
AcDbEntity
  8
CAD
  6
CONTINUOUS
 62
     5
100
AcDbCircle
 10
2.550998725650602
 20
0.2863312812341144
 30
0.0
 40
0.0373538283309567
100
AcDbArc
 50
194.0010774594843
 51
256.8659147257874
  0
LINE
  5
9B
330
1F
100
AcDbEntity
  8
CAD
  6
CONTINUOUS
 62
     5
100
AcDbLine
 10
2.514754635604695
 20
0.277293890696861
 30
0.0
 11
2.516666312580499
 21
0.3419321642995988
 31
0.0
  0
ARC
  5
9C
330
1F
100
AcDbEntity
  8
CAD
  6
CONTINUOUS
 62
     5
100
AcDbCircle
 10
2.733157837645705
 20
0.2844504645142015
 30
0.0
 40
0.2239926923702586
100
AcDbArc
 50
105.4799055762264
 51
165.1302170580754
  0
ARC
  5
9D
330
1F
100
AcDbEntity
  8
CAD
  6
CONTINUOUS
 62
     5
100
AcDbCircle
 10
2.820568517522649
 20
-0.0311720674652544
 30
0.0
 40
0.5514956841881539
100
AcDbArc
 50
66.54225964479079
 51
105.4799055762264
  0
ARC
  5
9E
330
1F
100
AcDbEntity
  8
CAD
  6
CONTINUOUS
 62
     5
100
AcDbCircle
 10
3.622359684838697
 20
1.898151921460415
 30
0.0
 40
1.537891448874398
100
AcDbArc
 50
247.7526005323284
 51
257.4410594285533
  0
ARC
  5
9F
330
1F
100
AcDbEntity
  8
CAD
  6
CONTINUOUS
 62
     5
100
AcDbCircle
 10
3.360116285321066
 20
0.6522481172923313
 30
0.0
 40
0.265196847185608
100
AcDbArc
 50
254.2103885339885
 51
285.4609966685779
  0
ARC
  5
A0
330
1F
100
AcDbEntity
  8
CAD
  6
CONTINUOUS
 62
     5
100
AcDbCircle
 10
3.389183726933357
 20
0.481850234934925
 30
0.0
 40
0.0948282353712309
100
AcDbArc
 50
296.0399318705908
 51
17.76876453349107
  0
ARC
  5
A1
330
1F
100
AcDbEntity
  8
CAD
  6
CONTINUOUS
 62
     5
100
AcDbCircle
 10
2.732545171272683
 20
0.3834718903127662
 30
0.0
 40
0.7577161580522646
100
AcDbArc
 50
9.673192842445864
 51
27.83283764373252
  0
ARC
  5
A2
330
1F
100
AcDbEntity
  8
CAD
  6
CONTINUOUS
 62
     5
100
AcDbCircle
 10
3.005054581104414
 20
0.5919945912106434
 30
0.0
 40
0.4232528619014376
100
AcDbArc
 50
20.07047064315262
 51
47.68194923287744
  0
ARC
  5
A3
330
1F
100
AcDbEntity
  8
CAD
  6
CONTINUOUS
 62
     5
100
AcDbCircle
 10
3.254816941413254
 20
0.8339017181908986
 30
0.0
 40
0.0792910534095931
100
AcDbArc
 50
63.65231975360715
 51
113.651526573125
  0
ARC
  5
A4
330
1F
100
AcDbEntity
  8
CAD
  6
CONTINUOUS
 62
     5
100
AcDbCircle
 10
3.395859793505326
 20
0.4343182180573856
 30
0.0
 40
0.5028560879814655
100
AcDbArc
 50
110.104963625088
 51
125.5261934009039
  0
ARC
  5
A5
330
1F
100
AcDbEntity
  8
CAD
  6
CONTINUOUS
 62
     5
100
AcDbCircle
 10
2.94213170586017
 20
1.069806814876941
 30
0.0
 40
0.2779863636090059
100
AcDbArc
 50
276.7144274262448
 51
305.5261934009038
  0
ARC
  5
A6
330
1F
100
AcDbEntity
  8
CAD
  6
CONTINUOUS
 62
     5
100
AcDbCircle
 10
3.029698033498127
 20
1.430839019443999
 30
0.0
 40
0.6394870159026439
100
AcDbArc
 50
243.0730619079551
 51
265.0603489627026
  0
ARC
  5
A7
330
1F
100
AcDbEntity
  8
CAD
  6
CONTINUOUS
 62
     5
100
AcDbCircle
 10
2.935791694433243
 20
1.523151612292175
 30
0.0
 40
0.6907673321991723
100
AcDbArc
 50
235.6349532233859
 51
253.5433045296678
  0
ARC
  5
A8
330
1F
100
AcDbEntity
  8
CAD
  6
CONTINUOUS
 62
     5
100
AcDbCircle
 10
2.598265833391314
 20
1.006068119727541
 30
0.0
 40
0.0746036958957655
100
AcDbArc
 50
203.0127687826063
 51
225.395794391473
  0
LINE
  5
A9
330
1F
100
AcDbEntity
  8
CAD
  6
CONTINUOUS
 62
     5
100
AcDbLine
 10
2.533812898754594
 20
1.083579775450491
 30
0.0
 11
2.536978812823876
 21
1.107557173560107
 31
0.0
  0
ARC
  5
AA
330
1F
100
AcDbEntity
  8
CAD
  6
CONTINUOUS
 62
     5
100
AcDbCircle
 10
1.198004255342938
 20
1.36804708046577
 30
0.0
 40
1.364077658046271
100
AcDbArc
 50
348.9909447795862
 51
5.911779464171532
  0
LINE
  5
AB
330
1F
100
AcDbEntity
  8
CAD
  6
CONTINUOUS
 62
     5
100
AcDbLine
 10
2.521308648313207
 20
1.832245330607045
 30
0.0
 11
2.554827288618589
 21
1.508543036114545
 31
0.0
  0
ARC
  5
AC
330
1F
100
AcDbEntity
  8
CAD
  6
CONTINUOUS
 62
     5
100
AcDbCircle
 10
2.258349740359063
 20
1.82311920459266
 30
0.0
 40
0.2631172237776639
100
AcDbArc
 50
1.987682123094423
 51
34.77306410056909
  0
ARC
  5
AD
330
1F
100
AcDbEntity
  8
CAD
  6
CONTINUOUS
 62
     5
100
AcDbCircle
 10
2.779628322150082
 20
1.983482464438123
 30
0.0
 40
0.3221481911118545
100
AcDbArc
 50
153.9917382315527
 51
173.6868223074145
  0
LINE
  5
AE
330
1F
100
AcDbEntity
  8
CAD
  6
CONTINUOUS
 62
     5
100
AcDbLine
 10
-0.9073900932063069
 20
1.486141240823918
 30
0.0
 11
-0.9073900932063069
 21
1.467391240596954
 31
0.0
  0
LINE
  5
AF
330
1F
100
AcDbEntity
  8
CAD
  6
CONTINUOUS
 62
     5
100
AcDbLine
 10
-0.9073900932063069
 20
1.467391240596954
 30
0.0
 11
-0.8698900927523792
 21
1.467391240596954
 31
0.0
  0
LINE
  5
B0
330
1F
100
AcDbEntity
  8
CAD
  6
CONTINUOUS
 62
     5
100
AcDbLine
 10
-0.8698900927523792
 20
1.467391240596954
 30
0.0
 11
-0.8698900927523792
 21
1.486141240823918
 31
0.0
  0
LINE
  5
B1
330
1F
100
AcDbEntity
  8
CAD
  6
CONTINUOUS
 62
     5
100
AcDbLine
 10
-0.8698900927523792
 20
1.486141240823918
 30
0.0
 11
-0.9073900932063069
 21
1.486141240823918
 31
0.0
  0
LINE
  5
B2
330
1F
100
AcDbEntity
  8
CAD
  6
CONTINUOUS
 62
     5
100
AcDbLine
 10
0.8766351717418878
 20
1.678831582842848
 30
0.0
 11
0.8627055533339268
 21
1.145512025143766
 31
0.0
  0
ARC
  5
B3
330
1F
100
AcDbEntity
  8
CAD
  6
CONTINUOUS
 62
     5
100
AcDbCircle
 10
2.4982055305164
 20
1.031564540623418
 30
0.0
 40
0.0630354608689892
100
AcDbArc
 50
293.1134692037834
 51
299.8699463134768
  0
ARC
  5
B4
330
1F
100
AcDbEntity
  8
CAD
  6
CONTINUOUS
 62
     5
100
AcDbCircle
 10
8.591935619657121
 20
1.254702919713426
 30
0.0
 40
7.291731193239766
100
AcDbArc
 50
175.1067660765548
 51
178.8649595060896
  0
LINE
  5
B5
330
1F
100
AcDbEntity
  8
CAD
  6
CONTINUOUS
 62
     5
100
AcDbLine
 10
2.269825308039526
 20
2.089213997582505
 30
0.0
 11
2.459433737238761
 21
2.018906818068171
 31
0.0
  0
VIEWPORT
  5
3F
330
1B
100
AcDbEntity
 67
     1
  8
0
100
AcDbViewport
 10
5.375
 20
4.125
 30
0.0
 40
14.63
 41
9.0
 68
     1
 69
     1
1001
ACAD
1000
MVIEW
1002
{
1070
    16
1010
0.0
1020
0.0
1030
0.0
1010
0.0
1020
0.0
1030
1.0
1040
0.0
1040
9.0
1040
5.375
1040
4.125
1040
50.0
1040
0.0
1040
0.0
1070
     0
1070
   100
1070
     0
1070
     3
1070
     0
1070
     0
1070
     0
1070
     0
1040
0.0
1040
0.0
1040
0.0
1040
0.5
1040
0.5
1040
0.0
1040
0.5
1070
     0
1002
{
1002
}
1002
}
  0
ENDSEC
  0
SECTION
  2
OBJECTS
  0
DICTIONARY
  5
C
330
0
100
AcDbDictionary
  3
ACAD_GROUP
350
D
  3
ACAD_LAYOUT
350
1A
  3
ACAD_MATERIAL
350
3B
  3
ACAD_MLEADERSTYLE
350
D8
  3
ACAD_MLINESTYLE
350
17
  3
ACAD_PLOTSETTINGS
350
19
  3
ACAD_VISUALSTYLE
350
2A
  3
ACDBHEADERROUNDTRIPXREC
350
B6
  3
ACDBVARIABLEDICTIONARY
350
D6
  0
DICTIONARY
  5
D
102
{ACAD_REACTORS
330
C
102
}
330
C
100
AcDbDictionary
  0
DICTIONARY
  5
1A
102
{ACAD_REACTORS
330
C
102
}
330
C
100
AcDbDictionary
  0
DICTIONARY
  5
3B
102
{ACAD_REACTORS
330
C
102
}
330
C
100
AcDbDictionary
  3
BYBLOCK
350
3D
  3
BYLAYER
350
3C
  3
GLOBAL
350
3E
  0
DICTIONARY
  5
D8
102
{ACAD_REACTORS
330
C
102
}
330
C
100
AcDbDictionary
  0
DICTIONARY
  5
17
102
{ACAD_REACTORS
330
C
102
}
330
C
100
AcDbDictionary
  3
STANDARD
350
18
  0
DICTIONARY
  5
19
102
{ACAD_REACTORS
330
C
102
}
330
C
100
AcDbDictionary
  0
DICTIONARY
  5
2A
102
{ACAD_REACTORS
330
C
102
}
330
C
100
AcDbDictionary
  3
2DWIREFRAME
350
2F
  3
3D_HIDDEN
350
31
  3
3DWIREFRAME
350
30
  3
BASIC
350
32
  3
BRIGHTEN
350
36
  3
COLORCHANGE
350
3A
  3
CONCEPTUAL
350
34
  3
DIM
350
35
  3
FACEPATTERN
350
39
  3
FLAT
350
2B
  3
FLATWITHEDGES
350
2C
  3
GOURAUD
350
2D
  3
GOURAUDWITHEDGES
350
2E
  3
LINEPATTERN
350
38
  3
REALISTIC
350
33
  3
THICKEN
350
37
  0
DICTIONARY
  5
B6
102
{ACAD_REACTORS
330
C
102
}
330
C
100
AcDbDictionary
  3
CEPSNTYPE
350
BF
  3
DIMSTYLEDATA
350
D5
  3
FINGERPRINTGUID
350
C0
  3
HYPERLINKBASE
350
B9
  3
INSUNITS
350
BE
  3
LAYOUTDICT
350
BB
  3
LWETCUNION
350
BD
  3
PLOTSETDICT
350
BC
  3
PSVPSCALE
350
C2
  3
PUCSBASE
350
C5
  3
PUCSORGBACK
350
CB
  3
PUCSORGBOTTOM
350
C7
  3
PUCSORGFRONT
350
CA
  3
PUCSORGLEFT
350
C8
  3
PUCSORGRIGHT
350
C9
  3
PUCSORGTOP
350
C6
  3
PUCSORTHOREF
350
C3
  3
PUCSORTHOVIEW
350
C4
  3
STYLESHEET
350
BA
  3
TSTACKALIGN
350
B7
  3
TSTACKSIZE
350
B8
  3
UCSBASE
350
CE
  3
UCSORGBACK
350
D4
  3
UCSORGBOTTOM
350
D0
  3
UCSORGFRONT
350
D3
  3
UCSORGLEFT
350
D1
  3
UCSORGRIGHT
350
D2
  3
UCSORGTOP
350
CF
  3
UCSORTHOREF
350
CC
  3
UCSORTHOVIEW
350
CD
  3
VERSIONGUID
350
C1
  0
DICTIONARY
  5
D6
102
{ACAD_REACTORS
330
C
102
}
330
C
100
AcDbDictionary
  3
DIMASSOC
350
D9
  3
HIDETEXT
350
DA
  0
MATERIAL
  5
3D
102
{ACAD_REACTORS
330
3B
102
}
102
{ACAD_XDICTIONARY
360
DD
102
}
330
3B
100
AcDbMaterial
  1
ByBlock
  0
MATERIAL
  5
3C
102
{ACAD_REACTORS
330
3B
102
}
102
{ACAD_XDICTIONARY
360
DB
102
}
330
3B
100
AcDbMaterial
  1
ByLayer
  0
MATERIAL
  5
3E
102
{ACAD_REACTORS
330
3B
102
}
102
{ACAD_XDICTIONARY
360
DF
102
}
330
3B
100
AcDbMaterial
  1
Global
  0
MLINESTYLE
  5
18
102
{ACAD_REACTORS
330
17
102
}
330
17
100
AcDbMlineStyle
  2
Standard
 70
     0
  3

 62
   256
 51
90.0
 52
90.0
 71
     2
 49
0.5
 62
   256
  6
BYLAYER
 49
-0.5
 62
   256
  6
BYLAYER
  0
ACAD_PROXY_OBJECT
  5
2F
102
{ACAD_REACTORS
330
2A
102
}
330
2A
100
AcDbProxyObject
 90
      499
 91
      501
 93
      436
310
42CC9915DA5C99599C985B595049028333333333333E3BF0000000000000FB0107901411070040501600405405064090741402480A0340
1001
ACAD
1000
AcDbSavedByObjectVersion
1070
     0
  0
ACAD_PROXY_OBJECT
  5
31
102
{ACAD_REACTORS
330
2A
102
}
330
2A
100
AcDbProxyObject
 90
      499
 91
      501
 93
      500
310
424CD108121A5919195B90640502408333333333333E3BF0000000000000FB01079024090700405020000000000001110200405405064090740C02480A0340
1001
ACAD
1000
AcDbSavedByObjectVersion
1070
     0
  0
ACAD_PROXY_OBJECT
  5
30
102
{ACAD_REACTORS
330
2A
102
}
330
2A
100
AcDbProxyObject
 90
      499
 91
      501
 93
      436
310
42CCD915DA5C99599C985B595059028333333333333E3BF0000000000000FB0107901411070040501600405405064090741402480A0340
1001
ACAD
1000
AcDbSavedByObjectVersion
1070
     0
  0
ACAD_PROXY_OBJECT
  5
32
102
{ACAD_REACTORS
330
2A
102
}
330
2A
100
AcDbProxyObject
 90
      499
 91
      501
 93
      388
310
4150985CDA58D07406404333333333333E3BF0000000000000FB0107A41107004050150841D405064090741402480A0350
1001
ACAD
1000
AcDbSavedByObjectVersion
1070
     0
  0
ACAD_PROXY_OBJECT
  5
36
102
{ACAD_REACTORS
330
2A
102
}
330
2A
100
AcDbProxyObject
 90
      499
 91
      501
 93
      428
310
42109C9A59DA1D195B90C409028333333333333E3BF0000000000000FB010790141107004050150841D405064090741402480A029950
1001
ACAD
1000
AcDbSavedByObjectVersion
1070
     0
  0
ACAD_PROXY_OBJECT
  5
3A
102
{ACAD_REACTORS
330
2A
102
}
330
2A
100
AcDbProxyObject
 90
      499
 91
      501
 93
      452
310
42D0DBDB1BDC90DA185B99D95104090240C333333333333E3BF0000000000000FB0108901411070040501508421405064090741402480A0350
1001
ACAD
1000
AcDbSavedByObjectVersion
1070
     0
  0
ACAD_PROXY_OBJECT
  5
34
102
{ACAD_REACTORS
330
2A
102
}
330
2A
100
AcDbProxyObject
 90
      499
 91
      501
 93
      500
310
4290DBDB98D95C1D1D585B10940D028333333333333E3BF0000000000000FB0107902409070040501000000000000111010841D405064090740C02480A0340
1001
ACAD
1000
AcDbSavedByObjectVersion
1070
     0
  0
ACAD_PROXY_OBJECT
  5
35
102
{ACAD_REACTORS
330
2A
102
}
330
2A
100
AcDbProxyObject
 90
      499
 91
      501
 93
      412
310
40D11A5B50B409028333333333333E3BF0000000000000FB010790141107004050150841D405064090741402480A02677FFFFFD0
1001
ACAD
1000
AcDbSavedByObjectVersion
1070
     0
  0
ACAD_PROXY_OBJECT
  5
39
102
{ACAD_REACTORS
330
2A
102
}
330
2A
100
AcDbProxyObject
 90
      499
 91
      501
 93
      444
310
42D19858D95C185D1D195C9B90F409028333333333333E3BF0000000000000FB010790141107004050150841D405064090741402480A0350
1001
ACAD
1000
AcDbSavedByObjectVersion
1070
     0
  0
ACAD_PROXY_OBJECT
  5
2B
102
{ACAD_REACTORS
330
2A
102
}
330
2A
100
AcDbProxyObject
 90
      499
 91
      501
 93
      388
310
41119B185D240901404333333333333E3BF0000000000000F9010740A41107004050150841D405064090741402480A1B50
1001
ACAD
1000
AcDbSavedByObjectVersion
1070
     0
  0
ACAD_PROXY_OBJECT
  5
2C
102
{ACAD_REACTORS
330
2A
102
}
330
2A
100
AcDbProxyObject
 90
      499
 91
      501
 93
      476
310
43519B185D15DA5D1A115919D95CD0140901404333333333333E3BF0000000000000F9010740901411070040501600405405064090741402480A1B50
1001
ACAD
1000
AcDbSavedByObjectVersion
1070
     0
  0
ACAD_PROXY_OBJECT
  5
2D
102
{ACAD_REACTORS
330
2A
102
}
330
2A
100
AcDbProxyObject
 90
      499
 91
      501
 93
      412
310
41D1DBDD5C985D5910240902404333333333333E3BF0000000000000F9010740A411070040501641D405064090741402480A1B50
1001
ACAD
1000
AcDbSavedByObjectVersion
1070
     0
  0
ACAD_PROXY_OBJECT
  5
2E
102
{ACAD_REACTORS
330
2A
102
}
330
2A
100
AcDbProxyObject
 90
      499
 91
      501
 93
      500
310
4411DBDD5C985D5915DA5D1A115919D95CD0340902404333333333333E3BF0000000000000F9010740901411070040501600405405064090741402480A1B50
1001
ACAD
1000
AcDbSavedByObjectVersion
1070
     0
  0
ACAD_PROXY_OBJECT
  5
38
102
{ACAD_REACTORS
330
2A
102
}
330
2A
100
AcDbProxyObject
 90
      499
 91
      501
 93
      444
310
42D31A5B995C185D1D195C9B90E409028333333333333E3BF0000000000000FB010790141107004050750841D405064090741402483A0350
1001
ACAD
1000
AcDbSavedByObjectVersion
1070
     0
  0
ACAD_PROXY_OBJECT
  5
33
102
{ACAD_REACTORS
330
2A
102
}
330
2A
100
AcDbProxyObject
 90
      499
 91
      501
 93
      420
310
425499585B1A5CDD1A58D08409028333333333333E3BF0000000000000FB01079019070040501508421405064090741402480A1B40
1001
ACAD
1000
AcDbSavedByObjectVersion
1070
     0
  0
ACAD_PROXY_OBJECT
  5
37
102
{ACAD_REACTORS
330
2A
102
}
330
2A
100
AcDbProxyObject
 90
      499
 91
      501
 93
      412
310
41D51A1A58DAD95B90D409028333333333333E3BF0000000000000FB010790141107004050150C41D405064090741402480A0350
1001
ACAD
1000
AcDbSavedByObjectVersion
1070
     0
  0
XRECORD
  5
BF
102
{ACAD_REACTORS
330
B6
102
}
330
B6
100
AcDbXrecord
 90
        0
  0
XRECORD
  5
D5
102
{ACAD_REACTORS
330
B6
102
}
330
B6
100
AcDbXrecord
1000
DSTYLE
1002
{
1070
   340
340
11
1002
}
  0
XRECORD
  5
C0
102
{ACAD_REACTORS
330
B6
102
}
330
B6
100
AcDbXrecord
  1
{A4F60E7C-42DD-4C62-9830-ECEC09C16529}
  0
XRECORD
  5
B9
102
{ACAD_REACTORS
330
B6
102
}
330
B6
100
AcDbXrecord
  1

  0
XRECORD
  5
BE
102
{ACAD_REACTORS
330
B6
102
}
330
B6
100
AcDbXrecord
 90
        1
  0
XRECORD
  5
BB
102
{ACAD_REACTORS
330
B6
102
}
330
B6
100
AcDbXrecord
340
1A
  0
XRECORD
  5
BD
102
{ACAD_REACTORS
330
B6
102
}
330
B6
100
AcDbXrecord
 90
    10781
  0
XRECORD
  5
BC
102
{ACAD_REACTORS
330
B6
102
}
330
B6
100
AcDbXrecord
340
19
  0
XRECORD
  5
C2
102
{ACAD_REACTORS
330
B6
102
}
330
B6
100
AcDbXrecord
 40
0.0
  0
XRECORD
  5
C5
102
{ACAD_REACTORS
330
B6
102
}
330
B6
100
AcDbXrecord
340
0
  0
XRECORD
  5
CB
102
{ACAD_REACTORS
330
B6
102
}
330
B6
100
AcDbXrecord
 10
0.0
 20
0.0
 30
0.0
  0
XRECORD
  5
C7
102
{ACAD_REACTORS
330
B6
102
}
330
B6
100
AcDbXrecord
 10
0.0
 20
0.0
 30
0.0
  0
XRECORD
  5
CA
102
{ACAD_REACTORS
330
B6
102
}
330
B6
100
AcDbXrecord
 10
0.0
 20
0.0
 30
0.0
  0
XRECORD
  5
C8
102
{ACAD_REACTORS
330
B6
102
}
330
B6
100
AcDbXrecord
 10
0.0
 20
0.0
 30
0.0
  0
XRECORD
  5
C9
102
{ACAD_REACTORS
330
B6
102
}
330
B6
100
AcDbXrecord
 10
0.0
 20
0.0
 30
0.0
  0
XRECORD
  5
C6
102
{ACAD_REACTORS
330
B6
102
}
330
B6
100
AcDbXrecord
 10
0.0
 20
0.0
 30
0.0
  0
XRECORD
  5
C3
102
{ACAD_REACTORS
330
B6
102
}
330
B6
100
AcDbXrecord
340
0
  0
XRECORD
  5
C4
102
{ACAD_REACTORS
330
B6
102
}
330
B6
100
AcDbXrecord
 70
     0
  0
XRECORD
  5
BA
102
{ACAD_REACTORS
330
B6
102
}
330
B6
100
AcDbXrecord
  1

  0
XRECORD
  5
B7
102
{ACAD_REACTORS
330
B6
102
}
330
B6
100
AcDbXrecord
 90
        1
  0
XRECORD
  5
B8
102
{ACAD_REACTORS
330
B6
102
}
330
B6
100
AcDbXrecord
 90
       70
  0
XRECORD
  5
CE
102
{ACAD_REACTORS
330
B6
102
}
330
B6
100
AcDbXrecord
340
0
  0
XRECORD
  5
D4
102
{ACAD_REACTORS
330
B6
102
}
330
B6
100
AcDbXrecord
 10
0.0
 20
0.0
 30
0.0
  0
XRECORD
  5
D0
102
{ACAD_REACTORS
330
B6
102
}
330
B6
100
AcDbXrecord
 10
0.0
 20
0.0
 30
0.0
  0
XRECORD
  5
D3
102
{ACAD_REACTORS
330
B6
102
}
330
B6
100
AcDbXrecord
 10
0.0
 20
0.0
 30
0.0
  0
XRECORD
  5
D1
102
{ACAD_REACTORS
330
B6
102
}
330
B6
100
AcDbXrecord
 10
0.0
 20
0.0
 30
0.0
  0
XRECORD
  5
D2
102
{ACAD_REACTORS
330
B6
102
}
330
B6
100
AcDbXrecord
 10
0.0
 20
0.0
 30
0.0
  0
XRECORD
  5
CF
102
{ACAD_REACTORS
330
B6
102
}
330
B6
100
AcDbXrecord
 10
0.0
 20
0.0
 30
0.0
  0
XRECORD
  5
CC
102
{ACAD_REACTORS
330
B6
102
}
330
B6
100
AcDbXrecord
340
0
  0
XRECORD
  5
CD
102
{ACAD_REACTORS
330
B6
102
}
330
B6
100
AcDbXrecord
 70
     0
  0
XRECORD
  5
C1
102
{ACAD_REACTORS
330
B6
102
}
330
B6
100
AcDbXrecord
  1
{FAEB1C32-E019-11D5-929B-00C0DF256EC4}
  0
DICTIONARYVAR
  5
D9
102
{ACAD_REACTORS
330
D6
102
}
330
D6
100
DictionaryVariables
280
     0
  1
2
  0
DICTIONARYVAR
  5
DA
102
{ACAD_REACTORS
330
D6
102
}
330
D6
100
DictionaryVariables
280
     0
  1
1
  0
DICTIONARY
  5
DD
330
3D
100
AcDbDictionary
280
     1
  3
ACAD_XREC_ROUNDTRIP
360
DE
  0
DICTIONARY
  5
DB
330
3C
100
AcDbDictionary
280
     1
  3
ACAD_XREC_ROUNDTRIP
360
DC
  0
DICTIONARY
  5
DF
330
3E
100
AcDbDictionary
280
     1
  3
ACAD_XREC_ROUNDTRIP
360
E0
  0
XRECORD
  5
DE
102
{ACAD_REACTORS
330
DD
102
}
330
DD
100
AcDbXrecord
102
MATERIAL
148
0.0
149
0.0
149
0.0
 93
        0
 94
      127
282
     0
 72
     1
 77
     1
171
     1
175
     1
179
     1
273
     0
  0
XRECORD
  5
DC
102
{ACAD_REACTORS
330
DB
102
}
330
DB
100
AcDbXrecord
102
MATERIAL
148
0.0
149
0.0
149
0.0
 93
        0
 94
      127
282
     0
 72
     1
 77
     1
171
     1
175
     1
179
     1
273
     0
  0
XRECORD
  5
E0
102
{ACAD_REACTORS
330
DF
102
}
330
DF
100
AcDbXrecord
102
MATERIAL
148
0.0
149
0.0
149
0.0
 93
        0
 94
      127
282
     0
 72
     1
 77
     1
171
     1
175
     1
179
     1
273
     0
  0
ENDSEC
  0
EOF
