  0
SECTION
  2
HEADER
  9
$ACADVER
  1
AC1014
  9
$HANDSEED
  5
FFFF
  9
$MEASUREMENT
 70
     1
  0
ENDSEC
  0
SECTION
  2
TABLES
  0
TABLE
  2
VPORT
  5
8
330
0
100
AcDbSymbolTable
 70
     4
  0
VPORT
  5
2E
330
8
100
AcDbSymbolTableRecord
100
AcDbViewportTableRecord
  2
*ACTIVE
 70
     0
 10
0.0
 20
0.0
 11
1.0
 21
1.0
 12
210.0
 22
148.5
 13
0.0
 23
0.0
 14
10.0
 24
10.0
 15
10.0
 25
10.0
 16
0.0
 26
0.0
 36
1.0
 17
0.0
 27
0.0
 37
0.0
 40
341.0
 41
1.24
 42
50.0
 43
0.0
 44
0.0
 50
0.0
 51
0.0
 71
     0
 72
   100
 73
     1
 74
     3
 75
     0
 76
     0
 77
     0
 78
     0
  0
ENDTAB
  0
TABLE
  2
LTYPE
  5
5
330
0
100
AcDbSymbolTable
 70
     1
  0
LTYPE
  5
14
330
5
100
AcDbSymbolTableRecord
100
AcDbLinetypeTableRecord
  2
BYBLOCK
 70
     0
  3

 72
    65
 73
     0
 40
0.0
  0
LTYPE
  5
15
330
5
100
AcDbSymbolTableRecord
100
AcDbLinetypeTableRecord
  2
BYLAYER
 70
     0
  3

 72
    65
 73
     0
 40
0.0
  0
LTYPE
  5
16
330
5
100
AcDbSymbolTableRecord
100
AcDbLinetypeTableRecord
  2
CONTINUOUS
 70
     0
  3
Solid line
 72
    65
 73
     0
 40
0.0
  0
ENDTAB
  0
TABLE
  2
LAYER
  5
2
100
AcDbSymbolTable
 70
1
  0
LAYER
  5
50
100
AcDbSymbolTableRecord
100
AcDbLayerTableRecord
  2
0
 70
0
  6
CONTINUOUS
  0
ENDTAB
  0
TABLE
  2
STYLE
  5
3
330
0
100
AcDbSymbolTable
 70
     1
  0
STYLE
  5
11
330
3
100
AcDbSymbolTableRecord
100
AcDbTextStyleTableRecord
  2
STANDARD
 70
     0
 40
0.0
 41
1.0
 50
0.0
 71
     0
 42
2.5
  3
txt
  4

  0
ENDTAB
  0
TABLE
  2
VIEW
  5
6
330
0
100
AcDbSymbolTable
 70
     0
  0
ENDTAB
  0
TABLE
  2
UCS
  5
7
330
0
100
AcDbSymbolTable
 70
     0
  0
ENDTAB
  0
TABLE
  2
APPID
  5
9
330
0
100
AcDbSymbolTable
 70
     2
  0
APPID
  5
12
330
9
100
AcDbSymbolTableRecord
100
AcDbRegAppTableRecord
  2
ACAD
 70
     0
  0
ENDTAB
  0
TABLE
  2
DIMSTYLE
  5
A
330
0
100
AcDbSymbolTable
 70
     1
  0
DIMSTYLE
105
27
330
A
100
AcDbSymbolTableRecord
100
AcDbDimStyleTableRecord
  2
ISO-25
 70
     0
  3

  4

  5

  6

  7

 40
1.0
 41
2.5
 42
0.625
 43
3.75
 44
1.25
 45
0.0
 46
0.0
 47
0.0
 48
0.0
140
2.5
141
2.5
142
0.0
143
0.03937007874016
144
1.0
145
0.0
146
1.0
147
0.625
 71
     0
 72
     0
 73
     0
 74
     0
 75
     0
 76
     0
 77
     1
 78
     8
170
     0
171
     3
172
     1
173
     0
174
     0
175
     0
176
     0
177
     0
178
     0
270
     2
271
     2
272
     2
273
     2
274
     3
340
11
275
     0
280
     0
281
     0
282
     0
283
     0
284
     8
285
     0
286
     0
287
     3
288
     0
  0
ENDTAB
  0
TABLE
  2
BLOCK_RECORD
  5
1
330
0
100
AcDbSymbolTable
 70
     1
  0
BLOCK_RECORD
  5
1F
330
1
100
AcDbSymbolTableRecord
100
AcDbBlockTableRecord
  2
*MODEL_SPACE
  0
BLOCK_RECORD
  5
1B
330
1
100
AcDbSymbolTableRecord
100
AcDbBlockTableRecord
  2
*PAPER_SPACE
  0
ENDTAB
  0
ENDSEC
  0
SECTION
  2
BLOCKS
  0
BLOCK
  5
20
330
1F
100
AcDbEntity
  8
0
100
AcDbBlockBegin
  2
*MODEL_SPACE
 70
     0
 10
0.0
 20
0.0
 30
0.0
  3
*MODEL_SPACE
  1

  0
ENDBLK
  5
21
330
1F
100
AcDbEntity
  8
0
100
AcDbBlockEnd
  0
BLOCK
  5
1C
330
1B
100
AcDbEntity
 67
     1
  8
0
100
AcDbBlockBegin
  2
*PAPER_SPACE
  1

  0
ENDBLK
  5
1D
330
1B
100
AcDbEntity
 67
     1
  8
0
100
AcDbBlockEnd
  0
ENDSEC
  0
SECTION
  2
ENTITIES
  0
SPLINE
  5
100
100
AcDbEntity
  8
0
 62
1
100
AcDbSpline
 70
8
 71
3
 72
8
 73
4
 74
0
 40
0
 40
0
 40
0
 40
0
 40
1
 40
1
 40
1
 40
1
 10
1150.120720
 20
693.573892
 30
0.0
 10
1150.120720
 20
693.573892
 30
0.0
 10
1163.393360
 20
710.059420
 30
0.0
 10
1180.475680
 20
725.586380
 30
0.0
  0
SPLINE
  5
101
100
AcDbEntity
  8
0
 62
1
100
AcDbSpline
 70
8
 71
3
 72
8
 73
4
 74
0
 40
0
 40
0
 40
0
 40
0
 40
1
 40
1
 40
1
 40
1
 10
1150.348240
 20
746.581380
 30
0.0
 10
1150.008400
 20
758.751700
 30
0.0
 10
1147.775200
 20
772.762274
 30
0.0
 10
1140.175680
 20
780.023890
 30
0.0
  0
SPLINE
  5
102
100
AcDbEntity
  8
0
 62
1
100
AcDbSpline
 70
8
 71
3
 72
8
 73
4
 74
0
 40
0
 40
0
 40
0
 40
0
 40
1
 40
1
 40
1
 40
1
 10
1140.175680
 20
780.023890
 30
0.0
 10
1128.460080
 20
769.590554
 30
0.0
 10
1117.411360
 20
757.540836
 30
0.0
 10
1109.333200
 20
748.206388
 30
0.0
  0
SPLINE
  5
103
100
AcDbEntity
  8
0
 62
1
100
AcDbSpline
 70
8
 71
3
 72
8
 73
4
 74
0
 40
0
 40
0
 40
0
 40
0
 40
1
 40
1
 40
1
 40
1
 10
1109.333200
 20
748.206388
 30
0.0
 10
1117.314640
 20
730.815684
 30
0.0
 10
1103.678240
 20
701.731380
 30
0.0
 10
1103.678240
 20
701.731380
 30
0.0
  0
SPLINE
  5
104
100
AcDbEntity
  8
0
 62
1
100
AcDbSpline
 70
8
 71
3
 72
8
 73
4
 74
0
 40
0
 40
0
 40
0
 40
0
 40
1
 40
1
 40
1
 40
1
 10
1607.655680
 20
715.088892
 30
0.0
 10
1607.655680
 20
715.088892
 30
0.0
 10
1605.782160
 20
756.923188
 30
0.0
 10
1640.123200
 20
758.898892
 30
0.0
  0
SPLINE
  5
105
100
AcDbEntity
  8
0
 62
1
100
AcDbSpline
 70
8
 71
3
 72
8
 73
4
 74
0
 40
0
 40
0
 40
0
 40
0
 40
1
 40
1
 40
1
 40
1
 10
1640.123200
 20
758.898892
 30
0.0
 10
1629.814720
 20
765.596682
 30
0.0
 10
1617.636240
 20
771.629050
 30
0.0
 10
1606.453200
 20
776.091386
 30
0.0
  0
SPLINE
  5
106
100
AcDbEntity
  8
0
 62
1
100
AcDbSpline
 70
8
 71
3
 72
8
 73
4
 74
0
 40
0
 40
0
 40
0
 40
0
 40
1
 40
1
 40
1
 40
1
 10
1606.453200
 20
776.091386
 30
0.0
 10
1601.448720
 20
761.949082
 30
0.0
 10
1602.553200
 20
746.906388
 30
0.0
 10
1602.553200
 20
746.906388
 30
0.0
  0
SPLINE
  5
107
100
AcDbEntity
  8
0
 62
1
100
AcDbSpline
 70
8
 71
3
 72
8
 73
4
 74
0
 40
0
 40
0
 40
0
 40
0
 40
1
 40
1
 40
1
 40
1
 10
1602.553200
 20
746.906388
 30
0.0
 10
1602.553200
 20
746.906388
 30
0.0
 10
1590.380160
 20
761.696436
 30
0.0
 10
1575.220720
 20
775.798890
 30
0.0
  0
SPLINE
  5
108
100
AcDbEntity
  8
0
 62
1
100
AcDbSpline
 70
8
 71
3
 72
8
 73
4
 74
0
 40
0
 40
0
 40
0
 40
0
 40
1
 40
1
 40
1
 40
1
 10
1570.638240
 20
741.283892
 30
0.0
 10
1588.519760
 20
729.044252
 30
0.0
 10
1607.655680
 20
715.088892
 30
0.0
 10
1607.655680
 20
715.088892
 30
0.0
  0
SPLINE
  5
109
100
AcDbEntity
  8
0
 62
1
100
AcDbSpline
 70
8
 71
3
 72
8
 73
4
 74
0
 40
0
 40
0
 40
0
 40
0
 40
1
 40
1
 40
1
 40
1
 10
1537.878240
 20
757.956388
 30
0.0
 10
1531.260320
 20
762.998410
 30
0.0
 10
1524.394240
 20
767.921938
 30
0.0
 10
1517.825680
 20
772.061386
 30
0.0
  0
LWPOLYLINE
  5
10a
100
AcDbEntity
  8
0
 62
1
100
AcDbPolyline
 90
2
 70
0
 10
1103.678240
 20
701.731380
 30
0.0
 10
1103.678240
 20
701.731380
 30
0.0
  0
SPLINE
  5
10b
100
AcDbEntity
  8
0
 62
1
100
AcDbSpline
 70
8
 71
3
 72
8
 73
4
 74
0
 40
0
 40
0
 40
0
 40
0
 40
1
 40
1
 40
1
 40
1
 10
1099.875680
 20
757.891380
 30
0.0
 10
1100.108000
 20
761.469324
 30
0.0
 10
1100.223120
 20
765.189858
 30
0.0
 10
1100.168240
 20
768.908890
 30
0.0
  0
SPLINE
  5
10c
100
AcDbEntity
  8
0
 62
1
100
AcDbSpline
 70
8
 71
3
 72
8
 73
4
 74
0
 40
0
 40
0
 40
0
 40
0
 40
1
 40
1
 40
1
 40
1
 10
1100.168240
 20
768.908890
 30
0.0
 10
1096.425920
 20
766.268330
 30
0.0
 10
1092.818800
 20
763.469626
 30
0.0
 10
1089.410720
 20
760.686380
 30
0.0
  0
SPLINE
  5
10d
100
AcDbEntity
  8
0
 62
1
100
AcDbSpline
 70
8
 71
3
 72
8
 73
4
 74
0
 40
0
 40
0
 40
0
 40
0
 40
1
 40
1
 40
1
 40
1
 10
1089.410720
 20
760.686380
 30
0.0
 10
1093.586880
 20
760.270148
 30
0.0
 10
1097.027760
 20
759.296900
 30
0.0
 10
1099.875680
 20
757.891380
 30
0.0
  0
SPLINE
  5
10e
100
AcDbEntity
  8
0
 62
1
100
AcDbSpline
 70
8
 71
3
 72
8
 73
4
 74
0
 40
0
 40
0
 40
0
 40
0
 40
1
 40
1
 40
1
 40
1
 10
1100.135680
 20
769.558890
 30
0.0
 10
1100.111680
 20
770.746858
 30
0.0
 10
1100.070080
 20
771.923034
 30
0.0
 10
1100.005680
 20
773.101378
 30
0.0
  0
SPLINE
  5
10f
100
AcDbEntity
  8
0
 62
1
100
AcDbSpline
 70
8
 71
3
 72
8
 73
4
 74
0
 40
0
 40
0
 40
0
 40
0
 40
1
 40
1
 40
1
 40
1
 10
1100.005680
 20
773.101378
 30
0.0
 10
1100.072080
 20
771.927090
 30
0.0
 10
1100.110960
 20
770.744042
 30
0.0
 10
1100.135680
 20
769.558890
 30
0.0
  0
LWPOLYLINE
  5
110
100
AcDbEntity
  8
0
 62
1
100
AcDbPolyline
 90
2
 70
0
 10
1607.655680
 20
715.088892
 30
0.0
 10
1607.655680
 20
715.088892
 30
0.0
  0
SPLINE
  5
111
100
AcDbEntity
  8
0
 62
1
100
AcDbSpline
 70
8
 71
3
 72
8
 73
4
 74
0
 40
0
 40
0
 40
0
 40
0
 40
1
 40
1
 40
1
 40
1
 10
1098.445680
 20
785.093874
 30
0.0
 10
1098.434480
 20
785.093722
 30
0.0
 10
1098.424080
 20
785.094042
 30
0.0
 10
1098.413680
 20
785.093874
 30
0.0
  0
LWPOLYLINE
  5
112
100
AcDbEntity
  8
0
 62
1
100
AcDbPolyline
 90
2
 70
0
 10
1099.875680
 20
757.891380
 30
0.0
 10
1099.875680
 20
757.891380
 30
0.0
  0
SPLINE
  5
113
100
AcDbEntity
  8
0
 62
1
100
AcDbSpline
 70
8
 71
3
 72
8
 73
4
 74
0
 40
0
 40
0
 40
0
 40
0
 40
1
 40
1
 40
1
 40
1
 10
1517.858240
 20
772.158874
 30
0.0
 10
1518.054080
 20
773.172666
 30
0.0
 10
1518.259600
 20
774.184298
 30
0.0
 10
1518.508240
 20
775.181386
 30
0.0
  0
SPLINE
  5
114
100
AcDbEntity
  8
0
 62
1
100
AcDbSpline
 70
8
 71
3
 72
8
 73
4
 74
0
 40
0
 40
0
 40
0
 40
0
 40
1
 40
1
 40
1
 40
1
 10
1518.508240
 20
775.181386
 30
0.0
 10
1518.267920
 20
774.182362
 30
0.0
 10
1518.053680
 20
773.173250
 30
0.0
 10
1517.858240
 20
772.158874
 30
0.0
  0
LWPOLYLINE
  5
115
100
AcDbEntity
  8
0
 62
1
100
AcDbPolyline
 90
2
 70
0
 10
1100.135680
 20
769.558890
 30
0.0
 10
1100.135680
 20
769.558890
 30
0.0
  0
SPLINE
  5
116
100
AcDbEntity
  8
0
 62
1
100
AcDbSpline
 70
8
 71
3
 72
8
 73
4
 74
0
 40
0
 40
0
 40
0
 40
0
 40
1
 40
1
 40
1
 40
1
 10
1518.508240
 20
775.181386
 30
0.0
 10
1518.765120
 20
776.211434
 30
0.0
 10
1519.053440
 20
777.229354
 30
0.0
 10
1519.353200
 20
778.236378
 30
0.0
  0
SPLINE
  5
117
100
AcDbEntity
  8
0
 62
1
100
AcDbSpline
 70
8
 71
3
 72
8
 73
4
 74
0
 40
0
 40
0
 40
0
 40
0
 40
1
 40
1
 40
1
 40
1
 10
1519.353200
 20
778.236378
 30
0.0
 10
1519.342800
 20
778.236522
 30
0.0
 10
1519.331600
 20
778.236250
 30
0.0
 10
1519.321200
 20
778.236378
 30
0.0
  0
SPLINE
  5
118
100
AcDbEntity
  8
0
 62
1
100
AcDbSpline
 70
8
 71
3
 72
8
 73
4
 74
0
 40
0
 40
0
 40
0
 40
0
 40
1
 40
1
 40
1
 40
1
 10
1519.320800
 20
778.236378
 30
0.0
 10
1519.020960
 20
777.229946
 30
0.0
 10
1518.756240
 20
776.212530
 30
0.0
 10
1518.508240
 20
775.181386
 30
0.0
  0
SPLINE
  5
119
100
AcDbEntity
  8
0
 62
1
100
AcDbSpline
 70
8
 71
3
 72
8
 73
4
 74
0
 40
0
 40
0
 40
0
 40
0
 40
1
 40
1
 40
1
 40
1
 10
1490.525680
 20
620.221380
 30
0.0
 10
1480.250720
 20
694.948676
 30
0.0
 10
1511.411680
 20
687.707044
 30
0.0
 10
1488.608240
 20
769.331386
 30
0.0
  0
SPLINE
  5
11a
100
AcDbEntity
  8
0
 62
1
100
AcDbSpline
 70
8
 71
3
 72
8
 73
4
 74
0
 40
0
 40
0
 40
0
 40
0
 40
1
 40
1
 40
1
 40
1
 10
1488.608240
 20
769.331386
 30
0.0
 10
1486.812240
 20
771.268682
 30
0.0
 10
1485.003200
 20
773.217906
 30
0.0
 10
1483.148240
 20
775.116386
 30
0.0
  0
SPLINE
  5
11b
100
AcDbEntity
  8
0
 62
1
100
AcDbSpline
 70
8
 71
3
 72
8
 73
4
 74
0
 40
0
 40
0
 40
0
 40
0
 40
1
 40
1
 40
1
 40
1
 10
1483.148240
 20
775.116386
 30
0.0
 10
1468.298560
 20
757.545316
 30
0.0
 10
1476.388240
 20
717.396380
 30
0.0
 10
1476.388240
 20
717.396380
 30
0.0
  0
SPLINE
  5
11c
100
AcDbEntity
  8
0
 62
1
100
AcDbSpline
 70
8
 71
3
 72
8
 73
4
 74
0
 40
0
 40
0
 40
0
 40
0
 40
1
 40
1
 40
1
 40
1
 10
1476.388240
 20
717.396380
 30
0.0
 10
1476.388240
 20
717.396380
 30
0.0
 10
1441.816960
 20
762.485602
 30
0.0
 10
1416.165680
 20
778.268890
 30
0.0
  0
SPLINE
  5
11d
100
AcDbEntity
  8
0
 62
1
100
AcDbSpline
 70
8
 71
3
 72
8
 73
4
 74
0
 40
0
 40
0
 40
0
 40
0
 40
1
 40
1
 40
1
 40
1
 10
1386.330720
 20
773.003890
 30
0.0
 10
1366.452000
 20
754.368388
 30
0.0
 10
1356.170720
 20
717.721388
 30
0.0
 10
1356.170720
 20
717.721388
 30
0.0
  0
SPLINE
  5
11e
100
AcDbEntity
  8
0
 62
1
100
AcDbSpline
 70
8
 71
3
 72
8
 73
4
 74
0
 40
0
 40
0
 40
0
 40
0
 40
1
 40
1
 40
1
 40
1
 10
1356.170720
 20
717.721388
 30
0.0
 10
1356.170720
 20
717.721388
 30
0.0
 10
1343.900320
 20
759.276388
 30
0.0
 10
1325.328240
 20
776.546378
 30
0.0
  0
SPLINE
  5
11f
100
AcDbEntity
  8
0
 62
1
100
AcDbSpline
 70
8
 71
3
 72
8
 73
4
 74
0
 40
0
 40
0
 40
0
 40
0
 40
1
 40
1
 40
1
 40
1
 10
1257.825680
 20
725.001380
 30
0.0
 10
1257.825680
 20
725.001380
 30
0.0
 10
1251.002160
 20
767.996682
 30
0.0
 10
1231.273200
 20
780.966386
 30
0.0
  0
SPLINE
  5
120
100
AcDbEntity
  8
0
 62
1
100
AcDbSpline
 70
8
 71
3
 72
8
 73
4
 74
0
 40
0
 40
0
 40
0
 40
0
 40
1
 40
1
 40
1
 40
1
 10
1194.613200
 20
742.388876
 30
0.0
 10
1194.613200
 20
742.388876
 30
0.0
 10
1196.110800
 20
755.377532
 30
0.0
 10
1194.548400
 20
769.331386
 30
0.0
  0
SPLINE
  5
121
100
AcDbEntity
  8
0
 62
1
100
AcDbSpline
 70
8
 71
3
 72
8
 73
4
 74
0
 40
0
 40
0
 40
0
 40
0
 40
1
 40
1
 40
1
 40
1
 10
1171.050720
 20
748.596388
 30
0.0
 10
1176.433280
 20
725.772588
 30
0.0
 10
1194.592720
 20
700.042532
 30
0.0
 10
1232.053200
 20
669.458892
 30
0.0
  0
LWPOLYLINE
  5
122
100
AcDbEntity
  8
0
 62
1
100
AcDbPolyline
 90
2
 70
0
 10
1100.005760
 20
773.101378
 30
0.0
 10
1100.005680
 20
773.101378
 30
0.0
  0
SPLINE
  5
123
100
AcDbEntity
  8
0
 62
1
100
AcDbSpline
 70
8
 71
3
 72
8
 73
4
 74
0
 40
0
 40
0
 40
0
 40
0
 40
1
 40
1
 40
1
 40
1
 10
1251.683200
 20
680.606380
 30
0.0
 10
1263.484400
 20
681.101636
 30
0.0
 10
1279.625440
 20
708.214628
 30
0.0
 10
1273.945680
 20
728.511380
 30
0.0
  0
SPLINE
  5
124
100
AcDbEntity
  8
0
 62
1
100
AcDbSpline
 70
8
 71
3
 72
8
 73
4
 74
0
 40
0
 40
0
 40
0
 40
0
 40
1
 40
1
 40
1
 40
1
 10
1273.945680
 20
728.511380
 30
0.0
 10
1272.470560
 20
733.783140
 30
0.0
 10
1270.306000
 20
738.287724
 30
0.0
 10
1267.803200
 20
742.128892
 30
0.0
  0
SPLINE
  5
125
100
AcDbEntity
  8
0
 62
1
100
AcDbSpline
 70
8
 71
3
 72
8
 73
4
 74
0
 40
0
 40
0
 40
0
 40
0
 40
1
 40
1
 40
1
 40
1
 10
1247.133200
 20
760.296388
 30
0.0
 10
1245.880560
 20
760.898980
 30
0.0
 10
1245.150720
 20
761.173892
 30
0.0
 10
1245.150720
 20
761.173892
 30
0.0
  0
SPLINE
  5
126
100
AcDbEntity
  8
0
 62
1
100
AcDbSpline
 70
8
 71
3
 72
8
 73
4
 74
0
 40
0
 40
0
 40
0
 40
0
 40
1
 40
1
 40
1
 40
1
 10
1245.150720
 20
761.173892
 30
0.0
 10
1245.150720
 20
761.173892
 30
0.0
 10
1204.309600
 20
746.716204
 30
0.0
 10
1210.830720
 20
720.353892
 30
0.0
  0
SPLINE
  5
127
100
AcDbEntity
  8
0
 62
1
100
AcDbSpline
 70
8
 71
3
 72
8
 73
4
 74
0
 40
0
 40
0
 40
0
 40
0
 40
1
 40
1
 40
1
 40
1
 10
1210.830720
 20
720.353892
 30
0.0
 10
1219.167200
 20
686.652732
 30
0.0
 10
1243.607840
 20
686.103652
 30
0.0
 10
1245.150720
 20
684.018892
 30
0.0
  0
SPLINE
  5
128
100
AcDbEntity
  8
0
 62
1
100
AcDbSpline
 70
8
 71
3
 72
8
 73
4
 74
0
 40
0
 40
0
 40
0
 40
0
 40
1
 40
1
 40
1
 40
1
 10
1247.658000
 20
694.479812
 30
0.0
 10
1249.458080
 20
710.524940
 30
0.0
 10
1250.572800
 20
711.089156
 30
0.0
 10
1249.299440
 20
736.014676
 30
0.0
  0
SPLINE
  5
129
100
AcDbEntity
  8
0
 62
1
100
AcDbSpline
 70
8
 71
3
 72
8
 73
4
 74
0
 40
0
 40
0
 40
0
 40
0
 40
1
 40
1
 40
1
 40
1
 10
1249.299440
 20
736.014676
 30
0.0
 10
1248.658080
 20
748.569932
 30
0.0
 10
1245.420160
 20
753.186036
 30
0.0
 10
1241.298320
 20
746.837884
 30
0.0
  0
SPLINE
  5
12a
100
AcDbEntity
  8
0
 62
1
100
AcDbSpline
 70
8
 71
3
 72
8
 73
4
 74
0
 40
0
 40
0
 40
0
 40
0
 40
1
 40
1
 40
1
 40
1
 10
1241.298320
 20
746.837884
 30
0.0
 10
1237.028720
 20
740.261956
 30
0.0
 10
1237.208400
 20
729.560420
 30
0.0
 10
1240.305440
 20
714.945628
 30
0.0
  0
SPLINE
  5
12b
100
AcDbEntity
  8
0
 62
1
100
AcDbSpline
 70
8
 71
3
 72
8
 73
4
 74
0
 40
0
 40
0
 40
0
 40
0
 40
1
 40
1
 40
1
 40
1
 10
1240.305440
 20
714.945628
 30
0.0
 10
1243.668240
 20
699.076460
 30
0.0
 10
1247.658000
 20
694.479812
 30
0.0
 10
1247.658000
 20
694.479812
 30
0.0
  0
SPLINE
  5
12c
100
AcDbEntity
  8
0
 62
1
100
AcDbSpline
 70
8
 71
3
 72
8
 73
4
 74
0
 40
0
 40
0
 40
0
 40
0
 40
1
 40
1
 40
1
 40
1
 10
1476.388240
 20
717.396380
 30
0.0
 10
1476.388240
 20
717.396380
 30
0.0
 10
1468.297440
 20
757.545884
 30
0.0
 10
1483.148240
 20
775.116386
 30
0.0
  0
SPLINE
  5
12d
100
AcDbEntity
  8
0
 62
1
100
AcDbSpline
 70
8
 71
3
 72
8
 73
4
 74
0
 40
0
 40
0
 40
0
 40
0
 40
1
 40
1
 40
1
 40
1
 10
1416.198240
 20
778.301378
 30
0.0
 10
1441.849280
 20
762.504994
 30
0.0
 10
1476.388240
 20
717.396380
 30
0.0
 10
1476.388240
 20
717.396380
 30
0.0
  0
SPLINE
  5
12e
100
AcDbEntity
  8
0
 62
1
100
AcDbSpline
 70
8
 71
3
 72
8
 73
4
 74
0
 40
0
 40
0
 40
0
 40
0
 40
1
 40
1
 40
1
 40
1
 10
1356.170720
 20
717.721388
 30
0.0
 10
1356.170720
 20
717.721388
 30
0.0
 10
1366.452960
 20
754.366676
 30
0.0
 10
1386.330720
 20
773.003890
 30
0.0
  0
SPLINE
  5
12f
100
AcDbEntity
  8
0
 62
1
100
AcDbSpline
 70
8
 71
3
 72
8
 73
4
 74
0
 40
0
 40
0
 40
0
 40
0
 40
1
 40
1
 40
1
 40
1
 10
1325.328240
 20
776.546378
 30
0.0
 10
1343.901360
 20
759.279436
 30
0.0
 10
1356.170720
 20
717.721388
 30
0.0
 10
1356.170720
 20
717.721388
 30
0.0
  0
LWPOLYLINE
  5
130
100
AcDbEntity
  8
0
 62
1
100
AcDbPolyline
 90
2
 70
0
 10
1518.508240
 20
775.181386
 30
0.0
 10
1518.508240
 20
775.181386
 30
0.0
  0
SPLINE
  5
131
100
AcDbEntity
  8
0
 62
1
100
AcDbSpline
 70
8
 71
3
 72
8
 73
4
 74
0
 40
0
 40
0
 40
0
 40
0
 40
1
 40
1
 40
1
 40
1
 10
1149.145680
 20
724.156388
 30
0.0
 10
1149.145680
 20
724.156388
 30
0.0
 10
1170.594160
 20
751.463660
 30
0.0
 10
1194.548240
 20
769.363890
 30
0.0
  0
SPLINE
  5
132
100
AcDbEntity
  8
0
 62
1
100
AcDbSpline
 70
8
 71
3
 72
8
 73
4
 74
0
 40
0
 40
0
 40
0
 40
0
 40
1
 40
1
 40
1
 40
1
 10
1194.548240
 20
769.363890
 30
0.0
 10
1192.955360
 20
783.546890
 30
0.0
 10
1188.215360
 20
798.717358
 30
0.0
 10
1175.503200
 20
802.253889
 30
0.0
  0
SPLINE
  5
133
100
AcDbEntity
  8
0
 62
1
100
AcDbSpline
 70
8
 71
3
 72
8
 73
4
 74
0
 40
0
 40
0
 40
0
 40
0
 40
1
 40
1
 40
1
 40
1
 10
1175.503200
 20
802.253889
 30
0.0
 10
1164.800800
 20
799.644695
 30
0.0
 10
1152.154480
 20
790.691562
 30
0.0
 10
1140.175680
 20
780.023890
 30
0.0
  0
LWPOLYLINE
  5
134
100
AcDbEntity
  8
0
 62
1
100
AcDbPolyline
 90
2
 70
0
 10
1476.388240
 20
717.396380
 30
0.0
 10
1476.388240
 20
717.396380
 30
0.0
  0
SPLINE
  5
135
100
AcDbEntity
  8
0
 62
1
100
AcDbSpline
 70
8
 71
3
 72
8
 73
4
 74
0
 40
0
 40
0
 40
0
 40
0
 40
1
 40
1
 40
1
 40
1
 10
1257.825680
 20
725.001380
 30
0.0
 10
1257.825680
 20
725.001380
 30
0.0
 10
1274.198640
 20
758.237500
 30
0.0
 10
1296.630720
 20
774.856378
 30
0.0
  0
SPLINE
  5
136
100
AcDbEntity
  8
0
 62
1
100
AcDbSpline
 70
8
 71
3
 72
8
 73
4
 74
0
 40
0
 40
0
 40
0
 40
0
 40
1
 40
1
 40
1
 40
1
 10
1231.273200
 20
780.998874
 30
0.0
 10
1251.000800
 20
768.027282
 30
0.0
 10
1257.825680
 20
725.001380
 30
0.0
 10
1257.825680
 20
725.001380
 30
0.0
  0
LWPOLYLINE
  5
137
100
AcDbEntity
  8
0
 62
1
100
AcDbPolyline
 90
2
 70
0
 10
1356.170720
 20
717.721388
 30
0.0
 10
1356.170720
 20
717.721388
 30
0.0
  0
SPLINE
  5
138
100
AcDbEntity
  8
0
 62
1
100
AcDbSpline
 70
8
 71
3
 72
8
 73
4
 74
0
 40
0
 40
0
 40
0
 40
0
 40
1
 40
1
 40
1
 40
1
 10
1575.220720
 20
775.798890
 30
0.0
 10
1563.589520
 20
786.619090
 30
0.0
 10
1550.196720
 20
797.029082
 30
0.0
 10
1539.243200
 20
800.076389
 30
0.0
  0
SPLINE
  5
139
100
AcDbEntity
  8
0
 62
1
100
AcDbSpline
 70
8
 71
3
 72
8
 73
4
 74
0
 40
0
 40
0
 40
0
 40
0
 40
1
 40
1
 40
1
 40
1
 10
1539.243200
 20
800.076389
 30
0.0
 10
1526.193840
 20
796.895010
 30
0.0
 10
1520.284560
 20
784.923858
 30
0.0
 10
1517.825680
 20
772.061386
 30
0.0
  0
LWPOLYLINE
  5
13a
100
AcDbEntity
  8
0
 62
1
100
AcDbPolyline
 90
2
 70
0
 10
1149.145680
 20
724.156388
 30
0.0
 10
1149.145680
 20
724.156388
 30
0.0
  0
SPLINE
  5
13b
100
AcDbEntity
  8
0
 62
1
100
AcDbSpline
 70
8
 71
3
 72
8
 73
4
 74
0
 40
0
 40
0
 40
0
 40
0
 40
1
 40
1
 40
1
 40
1
 10
1100.168240
 20
768.908890
 30
0.0
 10
1099.952320
 20
783.518514
 30
0.0
 10
1096.962960
 20
797.959947
 30
0.0
 10
1086.843200
 20
802.286378
 30
0.0
  0
SPLINE
  5
13c
100
AcDbEntity
  8
0
 62
1
100
AcDbSpline
 70
8
 71
3
 72
8
 73
4
 74
0
 40
0
 40
0
 40
0
 40
0
 40
1
 40
1
 40
1
 40
1
 10
1086.843200
 20
802.286378
 30
0.0
 10
1085.141680
 20
802.262874
 30
0.0
 10
1083.442560
 20
802.213682
 30
0.0
 10
1081.740720
 20
802.188930
 30
0.0
  0
SPLINE
  5
13d
100
AcDbEntity
  8
0
 62
1
100
AcDbSpline
 70
8
 71
3
 72
8
 73
4
 74
0
 40
0
 40
0
 40
0
 40
0
 40
1
 40
1
 40
1
 40
1
 10
1081.740720
 20
802.188941
 30
0.0
 10
1070.838960
 20
799.049149
 30
0.0
 10
1059.168720
 20
791.096602
 30
0.0
 10
1048.558240
 20
782.038930
 30
0.0
  0
SPLINE
  5
13e
100
AcDbEntity
  8
0
 62
1
100
AcDbSpline
 70
8
 71
3
 72
8
 73
4
 74
0
 40
0
 40
0
 40
0
 40
0
 40
1
 40
1
 40
1
 40
1
 10
1048.558240
 20
782.038930
 30
0.0
 10
1066.056240
 20
770.552450
 30
0.0
 10
1063.345680
 20
736.116380
 30
0.0
 10
1063.345680
 20
736.116380
 30
0.0
  0
SPLINE
  5
13f
100
AcDbEntity
  8
0
 62
1
100
AcDbSpline
 70
8
 71
3
 72
8
 73
4
 74
0
 40
0
 40
0
 40
0
 40
0
 40
1
 40
1
 40
1
 40
1
 10
1661.963200
 20
738.716388
 30
0.0
 10
1661.963200
 20
738.716388
 30
0.0
 10
1655.757280
 20
762.711474
 30
0.0
 10
1667.488240
 20
775.213890
 30
0.0
  0
SPLINE
  5
140
100
AcDbEntity
  8
0
 62
1
100
AcDbSpline
 70
8
 71
3
 72
8
 73
4
 74
0
 40
0
 40
0
 40
0
 40
0
 40
1
 40
1
 40
1
 40
1
 10
1631.283200
 20
799.686389
 30
0.0
 10
1617.442320
 20
796.880258
 30
0.0
 10
1610.221120
 20
786.739234
 30
0.0
 10
1606.453200
 20
776.091386
 30
0.0
  0
LWPOLYLINE
  5
141
100
AcDbEntity
  8
0
 62
1
100
AcDbPolyline
 90
2
 70
0
 10
1257.825680
 20
725.001380
 30
0.0
 10
1257.825680
 20
725.001380
 30
0.0
  0
SPLINE
  5
142
100
AcDbEntity
  8
0
 62
1
100
AcDbSpline
 70
8
 71
3
 72
8
 73
4
 74
0
 40
0
 40
0
 40
0
 40
0
 40
1
 40
1
 40
1
 40
1
 10
1545.418240
 20
801.051378
 30
0.0
 10
1545.155600
 20
801.032450
 30
0.0
 10
1544.899520
 20
801.011962
 30
0.0
 10
1544.638240
 20
800.986378
 30
0.0
  0
LWPOLYLINE
  5
143
100
AcDbEntity
  8
0
 62
1
100
AcDbPolyline
 90
2
 70
0
 10
1063.345680
 20
736.116380
 30
0.0
 10
1063.345680
 20
736.116380
 30
0.0
  0
LWPOLYLINE
  5
144
100
AcDbEntity
  8
0
 62
1
100
AcDbPolyline
 90
2
 70
0
 10
1661.963200
 20
738.716388
 30
0.0
 10
1661.963200
 20
738.716388
 30
0.0
  0
LWPOLYLINE
  5
145
100
AcDbEntity
  8
0
 62
1
100
AcDbPolyline
 90
2
 70
0
 10
1688.678240
 20
800.466430
 30
0.0
 10
1688.678240
 20
800.466378
 30
0.0
  0
SPLINE
  5
146
100
AcDbEntity
  8
0
 62
1
100
AcDbSpline
 70
8
 71
3
 72
8
 73
4
 74
0
 40
0
 40
0
 40
0
 40
0
 40
1
 40
1
 40
1
 40
1
 10
1694.657840
 20
746.505332
 30
0.0
 10
1694.657840
 20
746.505332
 30
0.0
 10
1693.999840
 20
800.032833
 30
0.0
 10
1730.987600
 20
800.032833
 30
0.0
  0
SPLINE
  5
147
100
AcDbEntity
  8
0
 62
1
100
AcDbSpline
 70
8
 71
3
 72
8
 73
4
 74
0
 40
0
 40
0
 40
0
 40
0
 40
1
 40
1
 40
1
 40
1
 10
986.867520
 20
804.225333
 30
0.0
 10
1015.395040
 20
803.676359
 30
0.0
 10
1011.978400
 20
743.483220
 30
0.0
 10
1011.978400
 20
743.483220
 30
0.0
  0
SPLINE
  5
148
100
AcDbEntity
  8
0
 62
1
100
AcDbSpline
 70
8
 71
3
 72
8
 73
4
 74
0
 40
0
 40
0
 40
0
 40
0
 40
1
 40
1
 40
1
 40
1
 10
1194.628400
 20
742.378220
 30
0.0
 10
1194.628400
 20
742.378220
 30
0.0
 10
1235.313440
 20
795.319658
 30
0.0
 10
1267.537600
 20
801.852823
 30
0.0
  0
SPLINE
  5
149
100
AcDbEntity
  8
0
 62
1
100
AcDbSpline
 70
8
 71
3
 72
8
 73
4
 74
0
 40
0
 40
0
 40
0
 40
0
 40
1
 40
1
 40
1
 40
1
 10
1267.537600
 20
801.852823
 30
0.0
 10
1292.802720
 20
794.893354
 30
0.0
 10
1309.495040
 20
748.682828
 30
0.0
 10
1309.495040
 20
748.682828
 30
0.0
  0
SPLINE
  5
14a
100
AcDbEntity
  8
0
 62
1
100
AcDbSpline
 70
8
 71
3
 72
8
 73
4
 74
0
 40
0
 40
0
 40
0
 40
0
 40
1
 40
1
 40
1
 40
1
 10
1309.495040
 20
748.682828
 30
0.0
 10
1309.495040
 20
748.682828
 30
0.0
 10
1326.590880
 20
792.756890
 30
0.0
 10
1357.400080
 20
800.910333
 30
0.0
  0
SPLINE
  5
14b
100
AcDbEntity
  8
0
 62
1
100
AcDbSpline
 70
8
 71
3
 72
8
 73
4
 74
0
 40
0
 40
0
 40
0
 40
0
 40
1
 40
1
 40
1
 40
1
 10
1357.400080
 20
800.910333
 30
0.0
 10
1382.155280
 20
793.111354
 30
0.0
 10
1398.480080
 20
748.000332
 30
0.0
 10
1398.480080
 20
748.000332
 30
0.0
  0
SPLINE
  5
14c
100
AcDbEntity
  8
0
 62
1
100
AcDbSpline
 70
8
 71
3
 72
8
 73
4
 74
0
 40
0
 40
0
 40
0
 40
0
 40
1
 40
1
 40
1
 40
1
 10
1398.480080
 20
748.000332
 30
0.0
 10
1398.480080
 20
748.000332
 30
0.0
 10
1416.403440
 20
794.247170
 30
0.0
 10
1448.627600
 20
800.780333
 30
0.0
  0
SPLINE
  5
14d
100
AcDbEntity
  8
0
 62
1
100
AcDbSpline
 70
8
 71
3
 72
8
 73
4
 74
0
 40
0
 40
0
 40
0
 40
0
 40
1
 40
1
 40
1
 40
1
 10
1448.627600
 20
800.780333
 30
0.0
 10
1473.892720
 20
793.820842
 30
0.0
 10
1517.688400
 20
734.355660
 30
0.0
 10
1517.688400
 20
734.355660
 30
0.0
  0
SPLINE
  5
14e
100
AcDbEntity
  8
0
 62
1
100
AcDbSpline
 70
8
 71
3
 72
8
 73
4
 74
0
 40
0
 40
0
 40
0
 40
0
 40
1
 40
1
 40
1
 40
1
 10
1631.277600
 20
799.675333
 30
0.0
 10
1656.542720
 20
792.715842
 30
0.0
 10
1694.657840
 20
746.505332
 30
0.0
 10
1694.657840
 20
746.505332
 30
0.0
  0
LWPOLYLINE
  5
14f
100
AcDbEntity
  8
0
 62
1
100
AcDbPolyline
 90
2
 70
0
 10
1371.835680
 20
802.058982
 30
0.0
 10
1371.835680
 20
802.058878
 30
0.0
  0
SPLINE
  5
150
100
AcDbEntity
  8
0
 62
7
100
AcDbSpline
 70
8
 71
3
 72
8
 73
4
 74
0
 40
0
 40
0
 40
0
 40
0
 40
1
 40
1
 40
1
 40
1
 10
1490.525680
 20
620.221380
 30
0.0
 10
1482.882400
 20
675.809372
 30
0.0
 10
1498.164880
 20
686.054588
 30
0.0
 10
1497.123200
 20
721.231388
 30
0.0
  0
SPLINE
  5
151
100
AcDbEntity
  8
0
 62
7
100
AcDbSpline
 70
8
 71
3
 72
8
 73
4
 74
0
 40
0
 40
0
 40
0
 40
0
 40
1
 40
1
 40
1
 40
1
 10
1497.123200
 20
721.231388
 30
0.0
 10
1509.810000
 20
706.745220
 30
0.0
 10
1519.353200
 20
693.671388
 30
0.0
 10
1519.353200
 20
693.671388
 30
0.0
  0
SPLINE
  5
152
100
AcDbEntity
  8
0
 62
7
100
AcDbSpline
 70
8
 71
3
 72
8
 73
4
 74
0
 40
0
 40
0
 40
0
 40
0
 40
1
 40
1
 40
1
 40
1
 10
1514.283200
 20
737.871380
 30
0.0
 10
1514.967440
 20
737.303748
 30
0.0
 10
1515.670160
 20
736.732156
 30
0.0
 10
1516.363200
 20
736.148892
 30
0.0
  0
SPLINE
  5
153
100
AcDbEntity
  8
0
 62
7
100
AcDbSpline
 70
8
 71
3
 72
8
 73
4
 74
0
 40
0
 40
0
 40
0
 40
0
 40
1
 40
1
 40
1
 40
1
 10
1570.605760
 20
741.316380
 30
0.0
 10
1588.500640
 20
729.069108
 30
0.0
 10
1607.655760
 20
715.121380
 30
0.0
 10
1607.655760
 20
715.121380
 30
0.0
  0
SPLINE
  5
154
100
AcDbEntity
  8
0
 62
7
100
AcDbSpline
 70
8
 71
3
 72
8
 73
4
 74
0
 40
0
 40
0
 40
0
 40
0
 40
1
 40
1
 40
1
 40
1
 10
1607.655760
 20
715.121380
 30
0.0
 10
1607.655760
 20
715.121380
 30
0.0
 10
1605.766000
 20
756.936060
 30
0.0
 10
1640.123200
 20
758.898892
 30
0.0
  0
SPLINE
  5
155
100
AcDbEntity
  8
0
 62
7
100
AcDbSpline
 70
8
 71
3
 72
8
 73
4
 74
0
 40
0
 40
0
 40
0
 40
0
 40
1
 40
1
 40
1
 40
1
 10
1640.123200
 20
758.898892
 30
0.0
 10
1649.933680
 20
752.512812
 30
0.0
 10
1658.036800
 20
745.531132
 30
0.0
 10
1661.930800
 20
738.716388
 30
0.0
  0
SPLINE
  5
156
100
AcDbEntity
  8
0
 62
7
100
AcDbSpline
 70
8
 71
3
 72
8
 73
4
 74
0
 40
0
 40
0
 40
0
 40
0
 40
1
 40
1
 40
1
 40
1
 10
1661.930800
 20
738.716388
 30
0.0
 10
1661.930800
 20
738.716388
 30
0.0
 10
1655.714400
 20
762.753474
 30
0.0
 10
1667.488240
 20
775.246378
 30
0.0
  0
SPLINE
  5
157
100
AcDbEntity
  8
0
 62
7
100
AcDbSpline
 70
8
 71
3
 72
8
 73
4
 74
0
 40
0
 40
0
 40
0
 40
0
 40
1
 40
1
 40
1
 40
1
 10
1667.488240
 20
775.246378
 30
0.0
 10
1682.568640
 20
761.195020
 30
0.0
 10
1694.658240
 20
746.516388
 30
0.0
 10
1694.658240
 20
746.516388
 30
0.0
  0
SPLINE
  5
158
100
AcDbEntity
  8
0
 62
7
100
AcDbSpline
 70
8
 71
3
 72
8
 73
4
 74
0
 40
0
 40
0
 40
0
 40
0
 40
1
 40
1
 40
1
 40
1
 10
1694.658240
 20
746.516388
 30
0.0
 10
1694.658240
 20
746.516388
 30
0.0
 10
1694.005520
 20
800.043889
 30
0.0
 10
1730.993200
 20
800.043889
 30
0.0
  0
SPLINE
  5
159
100
AcDbEntity
  8
0
 62
7
100
AcDbSpline
 70
8
 71
3
 72
8
 73
4
 74
0
 40
0
 40
0
 40
0
 40
0
 40
1
 40
1
 40
1
 40
1
 10
1730.993200
 20
800.043889
 30
0.0
 10
1628.593600
 20
799.817772
 30
0.0
 10
1520.681200
 20
801.079895
 30
0.0
 10
1414.020800
 20
802.383889
 30
0.0
  0
LWPOLYLINE
  5
15a
100
AcDbEntity
  8
0
 62
1
100
AcDbPolyline
 90
2
 70
0
 10
1280.413200
 20
802.741378
 30
0.0
 10
1280.413200
 20
802.741378
 30
0.0
  0
SPLINE
  5
15b
100
AcDbEntity
  8
0
 62
7
100
AcDbSpline
 70
8
 71
3
 72
8
 73
4
 74
0
 40
0
 40
0
 40
0
 40
0
 40
1
 40
1
 40
1
 40
1
 10
1400.523840
 20
802.547033
 30
0.0
 10
1253.467600
 20
804.344465
 30
0.0
 10
1109.451920
 20
806.132655
 30
0.0
 10
986.873840
 20
804.236162
 30
0.0
  0
SPLINE
  5
15c
100
AcDbEntity
  8
0
 62
7
100
AcDbSpline
 70
8
 71
3
 72
8
 73
4
 74
0
 40
0
 40
0
 40
0
 40
0
 40
1
 40
1
 40
1
 40
1
 10
986.873200
 20
804.236389
 30
0.0
 10
1015.400880
 20
803.687404
 30
0.0
 10
1011.963200
 20
743.493876
 30
0.0
 10
1011.963200
 20
743.493876
 30
0.0
  0
SPLINE
  5
15d
100
AcDbEntity
  8
0
 62
7
100
AcDbSpline
 70
8
 71
3
 72
8
 73
4
 74
0
 40
0
 40
0
 40
0
 40
0
 40
1
 40
1
 40
1
 40
1
 10
1011.963200
 20
743.493876
 30
0.0
 10
1011.963200
 20
743.493876
 30
0.0
 10
1028.334640
 20
764.794178
 30
0.0
 10
1048.525760
 20
782.038874
 30
0.0
  0
SPLINE
  5
15e
100
AcDbEntity
  8
0
 62
7
100
AcDbSpline
 70
8
 71
3
 72
8
 73
4
 74
0
 40
0
 40
0
 40
0
 40
0
 40
1
 40
1
 40
1
 40
1
 10
1048.525760
 20
782.038874
 30
0.0
 10
1066.029680
 20
770.555970
 30
0.0
 10
1063.345760
 20
736.116380
 30
0.0
 10
1063.345760
 20
736.116380
 30
0.0
  0
SPLINE
  5
15f
100
AcDbEntity
  8
0
 62
7
100
AcDbSpline
 70
8
 71
3
 72
8
 73
4
 74
0
 40
0
 40
0
 40
0
 40
0
 40
1
 40
1
 40
1
 40
1
 10
1063.345760
 20
736.116380
 30
0.0
 10
1063.345760
 20
736.116380
 30
0.0
 10
1074.348960
 20
748.402444
 30
0.0
 10
1089.378240
 20
760.686380
 30
0.0
  0
SPLINE
  5
160
100
AcDbEntity
  8
0
 62
7
100
AcDbSpline
 70
8
 71
3
 72
8
 73
4
 74
0
 40
0
 40
0
 40
0
 40
0
 40
1
 40
1
 40
1
 40
1
 10
1089.378240
 20
760.686380
 30
0.0
 10
1093.570480
 20
760.271828
 30
0.0
 10
1097.019600
 20
759.301444
 30
0.0
 10
1099.875760
 20
757.891380
 30
0.0
  0
SPLINE
  5
161
100
AcDbEntity
  8
0
 62
7
100
AcDbSpline
 70
8
 71
3
 72
8
 73
4
 74
0
 40
0
 40
0
 40
0
 40
0
 40
1
 40
1
 40
1
 40
1
 10
1099.875760
 20
757.891380
 30
0.0
 10
1098.985200
 20
744.172636
 30
0.0
 10
1096.495760
 20
732.671380
 30
0.0
 10
1096.495760
 20
732.671380
 30
0.0
  0
SPLINE
  5
162
100
AcDbEntity
  8
0
 62
7
100
AcDbSpline
 70
8
 71
3
 72
8
 73
4
 74
0
 40
0
 40
0
 40
0
 40
0
 40
1
 40
1
 40
1
 40
1
 10
1096.495760
 20
732.671380
 30
0.0
 10
1096.495760
 20
732.671380
 30
0.0
 10
1101.534240
 20
739.193772
 30
0.0
 10
1109.333200
 20
748.206388
 30
0.0
  0
SPLINE
  5
163
100
AcDbEntity
  8
0
 62
7
100
AcDbSpline
 70
8
 71
3
 72
8
 73
4
 74
0
 40
0
 40
0
 40
0
 40
0
 40
1
 40
1
 40
1
 40
1
 10
1109.333200
 20
748.206388
 30
0.0
 10
1117.294560
 20
730.810716
 30
0.0
 10
1103.678240
 20
701.731380
 30
0.0
 10
1103.678240
 20
701.731380
 30
0.0
  0
SPLINE
  5
164
100
AcDbEntity
  8
0
 62
7
100
AcDbSpline
 70
8
 71
3
 72
8
 73
4
 74
0
 40
0
 40
0
 40
0
 40
0
 40
1
 40
1
 40
1
 40
1
 10
1103.678240
 20
701.731380
 30
0.0
 10
1103.678240
 20
701.731380
 30
0.0
 10
1125.585600
 20
728.672420
 30
0.0
 10
1149.828240
 20
746.223892
 30
0.0
  0
SPLINE
  5
165
100
AcDbEntity
  8
0
 62
7
100
AcDbSpline
 70
8
 71
3
 72
8
 73
4
 74
0
 40
0
 40
0
 40
0
 40
0
 40
1
 40
1
 40
1
 40
1
 10
1149.828240
 20
746.223892
 30
0.0
 10
1150.016720
 20
746.062836
 30
0.0
 10
1150.200160
 20
745.902132
 30
0.0
 10
1150.380800
 20
745.736388
 30
0.0
  0
SPLINE
  5
166
100
AcDbEntity
  8
0
 62
7
100
AcDbSpline
 70
8
 71
3
 72
8
 73
4
 74
0
 40
0
 40
0
 40
0
 40
0
 40
1
 40
1
 40
1
 40
1
 10
1150.380800
 20
745.736388
 30
0.0
 10
1150.623600
 20
733.986508
 30
0.0
 10
1149.145760
 20
724.156388
 30
0.0
 10
1149.145760
 20
724.156388
 30
0.0
  0
SPLINE
  5
167
100
AcDbEntity
  8
0
 62
7
100
AcDbSpline
 70
8
 71
3
 72
8
 73
4
 74
0
 40
0
 40
0
 40
0
 40
0
 40
1
 40
1
 40
1
 40
1
 10
1149.145760
 20
724.156388
 30
0.0
 10
1149.145760
 20
724.156388
 30
0.0
 10
1152.145360
 20
727.975676
 30
0.0
 10
1157.075760
 20
733.613876
 30
0.0
  0
SPLINE
  5
168
100
AcDbEntity
  8
0
 62
7
100
AcDbSpline
 70
8
 71
3
 72
8
 73
4
 74
0
 40
0
 40
0
 40
0
 40
0
 40
1
 40
1
 40
1
 40
1
 10
1157.075760
 20
733.613876
 30
0.0
 10
1160.933360
 20
716.318868
 30
0.0
 10
1150.088240
 20
693.573892
 30
0.0
 10
1150.088240
 20
693.573892
 30
0.0
  0
SPLINE
  5
169
100
AcDbEntity
  8
0
 62
7
100
AcDbSpline
 70
8
 71
3
 72
8
 73
4
 74
0
 40
0
 40
0
 40
0
 40
0
 40
1
 40
1
 40
1
 40
1
 10
1150.088240
 20
693.573892
 30
0.0
 10
1150.088240
 20
693.573892
 30
0.0
 10
1163.355920
 20
710.115868
 30
0.0
 10
1180.443200
 20
725.651380
 30
0.0
  0
SPLINE
  5
16a
100
AcDbEntity
  8
0
 62
7
100
AcDbSpline
 70
8
 71
3
 72
8
 73
4
 74
0
 40
0
 40
0
 40
0
 40
0
 40
1
 40
1
 40
1
 40
1
 10
1180.443200
 20
725.651380
 30
0.0
 10
1190.121440
 20
708.755092
 30
0.0
 10
1206.632960
 20
690.212700
 30
0.0
 10
1232.053200
 20
669.458892
 30
0.0
  0
LWPOLYLINE
  5
16b
100
AcDbEntity
  8
0
 62
1
100
AcDbPolyline
 90
2
 70
0
 10
1694.657840
 20
746.505332
 30
0.0
 10
1694.657840
 20
746.505332
 30
0.0
  0
LWPOLYLINE
  5
16c
100
AcDbEntity
  8
0
 62
7
100
AcDbPolyline
 90
4
 70
0
 10
1414.044560
 20
802.403188
 30
0.0
 10
1414.104560
 20
707.562148
 30
0.0
 10
1400.454000
 20
707.237028
 30
0.0
 10
1400.394000
 20
802.565753
 30
0.0
  0
SPLINE
  5
16d
100
AcDbEntity
  8
0
 62
7
100
AcDbSpline
 70
8
 71
3
 72
8
 73
4
 74
0
 40
0
 40
0
 40
0
 40
0
 40
1
 40
1
 40
1
 40
1
 10
660.148840
 20
301.803972
 30
0.0
 10
657.219768
 20
299.809972
 30
0.0
 10
654.714208
 20
296.979252
 30
0.0
 10
652.641344
 20
293.191572
 30
0.0
  0
SPLINE
  5
16e
100
AcDbEntity
  8
0
 62
7
100
AcDbSpline
 70
8
 71
3
 72
8
 73
4
 74
0
 40
0
 40
0
 40
0
 40
0
 40
1
 40
1
 40
1
 40
1
 10
988.914720
 20
208.055572
 30
0.0
 10
915.213920
 20
208.055572
 30
0.0
 10
871.158880
 20
196.600932
 30
0.0
 10
804.662800
 20
171.205172
 30
0.0
  0
SPLINE
  5
16f
100
AcDbEntity
  8
0
 62
7
100
AcDbSpline
 70
8
 71
3
 72
8
 73
4
 74
0
 40
0
 40
0
 40
0
 40
0
 40
1
 40
1
 40
1
 40
1
 10
652.641344
 20
293.191572
 30
0.0
 10
620.410808
 20
244.906052
 30
0.0
 10
583.560416
 20
97.504532
 30
0.0
 10
509.859624
 20
60.654132
 30
0.0
  0
LWPOLYLINE
  5
170
100
AcDbEntity
  8
0
 62
7
100
AcDbPolyline
 90
2
 70
0
 10
1414.020720
 20
802.383889
 30
0.0
 10
1414.020720
 20
802.546389
 30
0.0
  0
LWPOLYLINE
  5
171
100
AcDbEntity
  8
0
 62
7
100
AcDbPolyline
 90
2
 70
0
 10
848.049200
 20
242.585892
 30
0.0
 10
848.049200
 20
242.585892
 30
0.0
  0
LWPOLYLINE
  5
172
100
AcDbEntity
  8
0
 62
7
100
AcDbPolyline
 90
2
 70
0
 10
660.594760
 20
155.619012
 30
0.0
 10
660.594760
 20
301.803972
 30
0.0
  0
LWPOLYLINE
  5
173
100
AcDbEntity
  8
0
 62
7
100
AcDbPolyline
 90
3
 70
0
 10
509.859624
 20
60.654132
 30
0.0
 10
952.064320
 20
60.654132
 30
0.0
 10
988.914720
 20
60.654132
 30
0.0
  0
SPLINE
  5
174
100
AcDbEntity
  8
0
 62
7
100
AcDbSpline
 70
8
 71
3
 72
8
 73
4
 74
0
 40
0
 40
0
 40
0
 40
0
 40
1
 40
1
 40
1
 40
1
 10
804.662800
 20
171.205172
 30
0.0
 10
737.673776
 20
205.117092
 30
0.0
 10
694.111600
 20
281.756372
 30
0.0
 10
674.889000
 20
301.803972
 30
0.0
  0
LWPOLYLINE
  5
175
100
AcDbEntity
  8
0
 62
7
100
AcDbPolyline
 90
2
 70
0
 10
674.889000
 20
155.619012
 30
0.0
 10
674.889000
 20
301.803972
 30
0.0
  0
LWPOLYLINE
  5
176
100
AcDbEntity
  8
0
 62
7
100
AcDbPolyline
 90
2
 70
0
 10
674.918776
 20
155.619012
 30
0.0
 10
661.010896
 20
155.619012
 30
0.0
  0
SPLINE
  5
177
100
AcDbEntity
  8
0
 62
7
100
AcDbSpline
 70
8
 71
3
 72
8
 73
4
 74
0
 40
0
 40
0
 40
0
 40
0
 40
1
 40
1
 40
1
 40
1
 10
1317.680640
 20
301.803972
 30
0.0
 10
1320.609680
 20
299.809972
 30
0.0
 10
1323.115280
 20
296.979252
 30
0.0
 10
1325.188080
 20
293.191572
 30
0.0
  0
SPLINE
  5
178
100
AcDbEntity
  8
0
 62
7
100
AcDbSpline
 70
8
 71
3
 72
8
 73
4
 74
0
 40
0
 40
0
 40
0
 40
0
 40
1
 40
1
 40
1
 40
1
 10
988.914720
 20
208.055572
 30
0.0
 10
1062.615520
 20
208.055572
 30
0.0
 10
1106.670560
 20
196.600932
 30
0.0
 10
1173.166720
 20
171.205172
 30
0.0
  0
SPLINE
  5
179
100
AcDbEntity
  8
0
 62
7
100
AcDbSpline
 70
8
 71
3
 72
8
 73
4
 74
0
 40
0
 40
0
 40
0
 40
0
 40
1
 40
1
 40
1
 40
1
 10
1325.188080
 20
293.191572
 30
0.0
 10
1357.418640
 20
244.906052
 30
0.0
 10
1394.269040
 20
97.504532
 30
0.0
 10
1467.969840
 20
60.654132
 30
0.0
  0
LWPOLYLINE
  5
17a
100
AcDbEntity
  8
0
 62
7
100
AcDbPolyline
 90
2
 70
0
 10
1234.426240
 20
830.423381
 30
0.0
 10
1234.426240
 20
830.423381
 30
0.0
  0
LWPOLYLINE
  5
17b
100
AcDbEntity
  8
0
 62
7
100
AcDbPolyline
 90
2
 70
0
 10
1129.780320
 20
242.585892
 30
0.0
 10
1129.780320
 20
242.585892
 30
0.0
  0
LWPOLYLINE
  5
17c
100
AcDbEntity
  8
0
 62
7
100
AcDbPolyline
 90
2
 70
0
 10
1317.234720
 20
155.619012
 30
0.0
 10
1317.234720
 20
301.803972
 30
0.0
  0
LWPOLYLINE
  5
17d
100
AcDbEntity
  8
0
 62
7
100
AcDbPolyline
 90
3
 70
0
 10
1467.969840
 20
60.654132
 30
0.0
 10
1025.765120
 20
60.654132
 30
0.0
 10
988.914720
 20
60.654132
 30
0.0
  0
SPLINE
  5
17e
100
AcDbEntity
  8
0
 62
7
100
AcDbSpline
 70
8
 71
3
 72
8
 73
4
 74
0
 40
0
 40
0
 40
0
 40
0
 40
1
 40
1
 40
1
 40
1
 10
1173.166720
 20
171.205172
 30
0.0
 10
1240.155760
 20
205.117092
 30
0.0
 10
1283.717920
 20
281.756372
 30
0.0
 10
1302.940560
 20
301.803972
 30
0.0
  0
LWPOLYLINE
  5
17f
100
AcDbEntity
  8
0
 62
7
100
AcDbPolyline
 90
2
 70
0
 10
1302.940560
 20
155.619012
 30
0.0
 10
1302.940560
 20
301.803972
 30
0.0
  0
SPLINE
  5
180
100
AcDbEntity
  8
0
 62
1
100
AcDbSpline
 70
8
 71
3
 72
8
 73
4
 74
0
 40
0
 40
0
 40
0
 40
0
 40
1
 40
1
 40
1
 40
1
 10
1575.220720
 20
775.798890
 30
0.0
 10
1567.394960
 20
767.166786
 30
0.0
 10
1568.412960
 20
752.299444
 30
0.0
 10
1570.638240
 20
741.283892
 30
0.0
  0
LWPOLYLINE
  5
181
100
AcDbEntity
  8
0
 62
7
100
AcDbPolyline
 90
2
 70
0
 10
1302.921920
 20
155.619012
 30
0.0
 10
1317.141840
 20
155.619012
 30
0.0
  0
LWPOLYLINE
  5
182
100
AcDbEntity
  8
0
 62
1
100
AcDbPolyline
 90
2
 70
0
 10
1516.655680
 20
743.591388
 30
0.0
 10
1516.655680
 20
743.591388
 30
0.0
  0
LWPOLYLINE
  5
183
100
AcDbEntity
  8
0
 62
1
100
AcDbPolyline
 90
2
 70
0
 10
1517.858240
 20
772.158874
 30
0.0
 10
1517.858240
 20
772.158874
 30
0.0
  0
SPLINE
  5
184
100
AcDbEntity
  8
0
 62
7
100
AcDbSpline
 70
8
 71
3
 72
8
 73
4
 74
0
 40
0
 40
0
 40
0
 40
0
 40
1
 40
1
 40
1
 40
1
 10
1516.363200
 20
736.148892
 30
0.0
 10
1516.977360
 20
735.332636
 30
0.0
 10
1517.695680
 20
734.361380
 30
0.0
 10
1517.695680
 20
734.361380
 30
0.0
  0
SPLINE
  5
185
100
AcDbEntity
  8
0
 62
7
100
AcDbSpline
 70
8
 71
3
 72
8
 73
4
 74
0
 40
0
 40
0
 40
0
 40
0
 40
1
 40
1
 40
1
 40
1
 10
1517.695680
 20
734.361380
 30
0.0
 10
1517.695680
 20
734.361380
 30
0.0
 10
1517.620480
 20
734.933420
 30
0.0
 10
1517.597920
 20
735.076380
 30
0.0
  0
SPLINE
  5
186
100
AcDbEntity
  8
0
 62
7
100
AcDbSpline
 70
8
 71
3
 72
8
 73
4
 74
0
 40
0
 40
0
 40
0
 40
0
 40
1
 40
1
 40
1
 40
1
 10
1556.078240
 20
699.943892
 30
0.0
 10
1556.078240
 20
699.943892
 30
0.0
 10
1547.131200
 20
723.469124
 30
0.0
 10
1561.635760
 20
738.683876
 30
0.0
  0
SPLINE
  5
187
100
AcDbEntity
  8
0
 62
7
100
AcDbSpline
 70
8
 71
3
 72
8
 73
4
 74
0
 40
0
 40
0
 40
0
 40
0
 40
1
 40
1
 40
1
 40
1
 10
1561.635760
 20
738.683876
 30
0.0
 10
1569.405920
 20
732.012268
 30
0.0
 10
1574.505760
 20
727.276380
 30
0.0
 10
1574.505760
 20
727.276380
 30
0.0
  0
SPLINE
  5
188
100
AcDbEntity
  8
0
 62
7
100
AcDbSpline
 70
8
 71
3
 72
8
 73
4
 74
0
 40
0
 40
0
 40
0
 40
0
 40
1
 40
1
 40
1
 40
1
 10
1574.505760
 20
727.276380
 30
0.0
 10
1574.505760
 20
727.276380
 30
0.0
 10
1572.228720
 20
733.271108
 30
0.0
 10
1570.605760
 20
741.316380
 30
0.0
  0
SPLINE
  5
189
100
AcDbEntity
  8
0
 62
7
100
AcDbSpline
 70
8
 71
3
 72
8
 73
4
 74
0
 40
0
 40
0
 40
0
 40
0
 40
1
 40
1
 40
1
 40
1
 10
1556.078240
 20
699.943892
 30
0.0
 10
1556.078240
 20
699.943892
 30
0.0
 10
1547.131200
 20
723.469124
 30
0.0
 10
1561.635760
 20
738.683876
 30
0.0
  0
LWPOLYLINE
  5
18a
100
AcDbEntity
  8
0
 62
1
100
AcDbPolyline
 90
2
 70
0
 10
1574.505680
 20
727.276380
 30
0.0
 10
1574.505680
 20
727.276380
 30
0.0
  0
SPLINE
  5
18b
100
AcDbEntity
  8
0
 62
1
100
AcDbSpline
 70
8
 71
3
 72
8
 73
4
 74
0
 40
0
 40
0
 40
0
 40
0
 40
1
 40
1
 40
1
 40
1
 10
1672.493200
 20
195.608892
 30
0.0
 10
1681.257440
 20
195.945212
 30
0.0
 10
1640.767440
 20
216.144916
 30
0.0
 10
1593.550720
 20
256.546380
 30
0.0
  0
SPLINE
  5
18c
100
AcDbEntity
  8
0
 62
1
100
AcDbSpline
 70
8
 71
3
 72
8
 73
4
 74
0
 40
0
 40
0
 40
0
 40
0
 40
1
 40
1
 40
1
 40
1
 10
1593.550720
 20
256.546380
 30
0.0
 10
1617.024560
 20
297.271892
 30
0.0
 10
1587.849440
 20
359.207356
 30
0.0
 10
1559.620720
 20
413.813892
 30
0.0
  0
SPLINE
  5
18d
100
AcDbEntity
  8
0
 62
1
100
AcDbSpline
 70
8
 71
3
 72
8
 73
4
 74
0
 40
0
 40
0
 40
0
 40
0
 40
1
 40
1
 40
1
 40
1
 10
1559.620720
 20
413.813892
 30
0.0
 10
1522.969040
 20
502.514620
 30
0.0
 10
1502.168000
 20
537.817852
 30
0.0
 10
1490.525680
 20
620.221380
 30
0.0
  0
SPLINE
  5
18e
100
AcDbEntity
  8
0
 62
1
100
AcDbSpline
 70
8
 71
3
 72
8
 73
4
 74
0
 40
0
 40
0
 40
0
 40
0
 40
1
 40
1
 40
1
 40
1
 10
1232.053200
 20
669.458892
 30
0.0
 10
1264.727920
 20
642.782436
 30
0.0
 10
1265.766320
 20
627.288516
 30
0.0
 10
1253.015680
 20
597.828876
 30
0.0
  0
SPLINE
  5
18f
100
AcDbEntity
  8
0
 62
1
100
AcDbSpline
 70
8
 71
3
 72
8
 73
4
 74
0
 40
0
 40
0
 40
0
 40
0
 40
1
 40
1
 40
1
 40
1
 10
1253.015680
 20
597.828876
 30
0.0
 10
1220.774320
 20
572.541252
 30
0.0
 10
1216.380560
 20
567.067508
 30
0.0
 10
1202.673200
 20
561.526388
 30
0.0
  0
SPLINE
  5
190
100
AcDbEntity
  8
0
 62
1
100
AcDbSpline
 70
8
 71
3
 72
8
 73
4
 74
0
 40
0
 40
0
 40
0
 40
0
 40
1
 40
1
 40
1
 40
1
 10
1202.673200
 20
561.526388
 30
0.0
 10
1199.810000
 20
560.359884
 30
0.0
 10
1197.540800
 20
559.437148
 30
0.0
 10
1194.938240
 20
558.373892
 30
0.0
  0
SPLINE
  5
191
100
AcDbEntity
  8
0
 62
1
100
AcDbSpline
 70
8
 71
3
 72
8
 73
4
 74
0
 40
0
 40
0
 40
0
 40
0
 40
1
 40
1
 40
1
 40
1
 10
1194.938240
 20
558.373892
 30
0.0
 10
1219.449040
 20
592.016916
 30
0.0
 10
1247.943360
 20
623.342364
 30
0.0
 10
1250.968240
 20
640.111380
 30
0.0
  0
SPLINE
  5
192
100
AcDbEntity
  8
0
 62
1
100
AcDbSpline
 70
8
 71
3
 72
8
 73
4
 74
0
 40
0
 40
0
 40
0
 40
0
 40
1
 40
1
 40
1
 40
1
 10
1250.968240
 20
640.111380
 30
0.0
 10
1258.343520
 20
680.998076
 30
0.0
 10
1172.380400
 20
641.430244
 30
0.0
 10
1189.185680
 20
641.898892
 30
0.0
  0
SPLINE
  5
193
100
AcDbEntity
  8
0
 62
1
100
AcDbSpline
 70
8
 71
3
 72
8
 73
4
 74
0
 40
0
 40
0
 40
0
 40
0
 40
1
 40
1
 40
1
 40
1
 10
1189.185680
 20
641.898892
 30
0.0
 10
1208.036960
 20
642.424588
 30
0.0
 10
1255.017040
 20
662.871540
 30
0.0
 10
1223.505680
 20
618.336388
 30
0.0
  0
SPLINE
  5
194
100
AcDbEntity
  8
0
 62
1
100
AcDbSpline
 70
8
 71
3
 72
8
 73
4
 74
0
 40
0
 40
0
 40
0
 40
0
 40
1
 40
1
 40
1
 40
1
 10
1223.505680
 20
618.336388
 30
0.0
 10
1209.773280
 20
598.928252
 30
0.0
 10
1184.491040
 20
573.160572
 30
0.0
 10
1162.990720
 20
545.113876
 30
0.0
  0
SPLINE
  5
195
100
AcDbEntity
  8
0
 62
1
100
AcDbSpline
 70
8
 71
3
 72
8
 73
4
 74
0
 40
0
 40
0
 40
0
 40
0
 40
1
 40
1
 40
1
 40
1
 10
1162.990720
 20
545.113876
 30
0.0
 10
1144.897360
 20
537.386908
 30
0.0
 10
1137.069440
 20
533.352116
 30
0.0
 10
1125.030720
 20
526.491388
 30
0.0
  0
SPLINE
  5
196
100
AcDbEntity
  8
0
 62
1
100
AcDbSpline
 70
8
 71
3
 72
8
 73
4
 74
0
 40
0
 40
0
 40
0
 40
0
 40
1
 40
1
 40
1
 40
1
 10
1125.030720
 20
526.491388
 30
0.0
 10
1115.678560
 20
521.161700
 30
0.0
 10
1093.630080
 20
510.686092
 30
0.0
 10
1073.290720
 20
499.191380
 30
0.0
  0
SPLINE
  5
197
100
AcDbEntity
  8
0
 62
1
100
AcDbSpline
 70
8
 71
3
 72
8
 73
4
 74
0
 40
0
 40
0
 40
0
 40
0
 40
1
 40
1
 40
1
 40
1
 10
1073.290720
 20
499.191380
 30
0.0
 10
1051.293440
 20
498.063908
 30
0.0
 10
1023.450160
 20
493.568756
 30
0.0
 10
1005.690720
 20
480.146388
 30
0.0
  0
SPLINE
  5
198
100
AcDbEntity
  8
0
 62
1
100
AcDbSpline
 70
8
 71
3
 72
8
 73
4
 74
0
 40
0
 40
0
 40
0
 40
0
 40
1
 40
1
 40
1
 40
1
 10
1005.690720
 20
480.146388
 30
0.0
 10
986.240800
 20
465.446356
 30
0.0
 10
999.011200
 20
436.987980
 30
0.0
 10
1012.265840
 20
419.946268
 30
0.0
  0
SPLINE
  5
199
100
AcDbEntity
  8
0
 62
1
100
AcDbSpline
 70
8
 71
3
 72
8
 73
4
 74
0
 40
0
 40
0
 40
0
 40
0
 40
1
 40
1
 40
1
 40
1
 10
1012.265840
 20
419.946268
 30
0.0
 10
1025.520480
 20
402.904564
 30
0.0
 10
1005.010000
 20
461.187324
 30
0.0
 10
1016.448240
 20
464.253892
 30
0.0
  0
SPLINE
  5
19a
100
AcDbEntity
  8
0
 62
1
100
AcDbSpline
 70
8
 71
3
 72
8
 73
4
 74
0
 40
0
 40
0
 40
0
 40
0
 40
1
 40
1
 40
1
 40
1
 10
1016.448240
 20
464.253892
 30
0.0
 10
1021.535280
 20
465.617708
 30
0.0
 10
1027.050240
 20
466.975068
 30
0.0
 10
1032.860720
 20
468.218892
 30
0.0
  0
SPLINE
  5
19b
100
AcDbEntity
  8
0
 62
1
100
AcDbSpline
 70
8
 71
3
 72
8
 73
4
 74
0
 40
0
 40
0
 40
0
 40
0
 40
1
 40
1
 40
1
 40
1
 10
1032.860720
 20
468.218892
 30
0.0
 10
1031.137120
 20
464.883820
 30
0.0
 10
1031.079200
 20
461.862940
 30
0.0
 10
1033.218240
 20
459.281388
 30
0.0
  0
SPLINE
  5
19c
100
AcDbEntity
  8
0
 62
1
100
AcDbSpline
 70
8
 71
3
 72
8
 73
4
 74
0
 40
0
 40
0
 40
0
 40
0
 40
1
 40
1
 40
1
 40
1
 10
1033.218240
 20
459.281388
 30
0.0
 10
1044.323760
 20
445.878524
 30
0.0
 10
1152.493200
 20
405.298876
 30
0.0
 10
1152.493200
 20
405.298876
 30
0.0
  0
SPLINE
  5
19d
100
AcDbEntity
  8
0
 62
1
100
AcDbSpline
 70
8
 71
3
 72
8
 73
4
 74
0
 40
0
 40
0
 40
0
 40
0
 40
1
 40
1
 40
1
 40
1
 10
1152.493200
 20
405.298876
 30
0.0
 10
1152.493200
 20
405.298876
 30
0.0
 10
1236.000880
 20
376.299716
 30
0.0
 10
1256.168240
 20
361.261380
 30
0.0
  0
SPLINE
  5
19e
100
AcDbEntity
  8
0
 62
1
100
AcDbSpline
 70
8
 71
3
 72
8
 73
4
 74
0
 40
0
 40
0
 40
0
 40
0
 40
1
 40
1
 40
1
 40
1
 10
1256.168240
 20
361.261380
 30
0.0
 10
1264.651920
 20
354.935268
 30
0.0
 10
1228.709200
 20
386.048572
 30
0.0
 10
1187.528240
 20
410.986380
 30
0.0
  0
SPLINE
  5
19f
100
AcDbEntity
  8
0
 62
1
100
AcDbSpline
 70
8
 71
3
 72
8
 73
4
 74
0
 40
0
 40
0
 40
0
 40
0
 40
1
 40
1
 40
1
 40
1
 10
1187.528240
 20
410.986380
 30
0.0
 10
1135.364000
 20
442.575620
 30
0.0
 10
1090.090880
 20
454.335980
 30
0.0
 10
1081.480720
 20
474.426388
 30
0.0
  0
SPLINE
  5
1a0
100
AcDbEntity
  8
0
 62
1
100
AcDbSpline
 70
8
 71
3
 72
8
 73
4
 74
0
 40
0
 40
0
 40
0
 40
0
 40
1
 40
1
 40
1
 40
1
 10
1081.480720
 20
474.426388
 30
0.0
 10
1081.401520
 20
474.610540
 30
0.0
 10
1081.367840
 20
474.792212
 30
0.0
 10
1081.318240
 20
474.978876
 30
0.0
  0
SPLINE
  5
1a1
100
AcDbEntity
  8
0
 62
1
100
AcDbSpline
 70
8
 71
3
 72
8
 73
4
 74
0
 40
0
 40
0
 40
0
 40
0
 40
1
 40
1
 40
1
 40
1
 10
1081.318240
 20
474.978876
 30
0.0
 10
1091.745760
 20
475.556852
 30
0.0
 10
1101.633840
 20
475.407276
 30
0.0
 10
1110.113200
 20
474.166380
 30
0.0
  0
SPLINE
  5
1a2
100
AcDbEntity
  8
0
 62
1
100
AcDbSpline
 70
8
 71
3
 72
8
 73
4
 74
0
 40
0
 40
0
 40
0
 40
0
 40
1
 40
1
 40
1
 40
1
 10
1110.113200
 20
474.166380
 30
0.0
 10
1116.985120
 20
473.160740
 30
0.0
 10
1124.855440
 20
471.883276
 30
0.0
 10
1133.253200
 20
470.428892
 30
0.0
  0
SPLINE
  5
1a3
100
AcDbEntity
  8
0
 62
1
100
AcDbSpline
 70
8
 71
3
 72
8
 73
4
 74
0
 40
0
 40
0
 40
0
 40
0
 40
1
 40
1
 40
1
 40
1
 10
1133.253200
 20
470.428892
 30
0.0
 10
1133.465120
 20
467.814820
 30
0.0
 10
1133.884960
 20
465.340292
 30
0.0
 10
1134.520720
 20
463.051380
 30
0.0
  0
SPLINE
  5
1a4
100
AcDbEntity
  8
0
 62
1
100
AcDbSpline
 70
8
 71
3
 72
8
 73
4
 74
0
 40
0
 40
0
 40
0
 40
0
 40
1
 40
1
 40
1
 40
1
 10
1134.520720
 20
463.051380
 30
0.0
 10
1139.254560
 20
446.009668
 30
0.0
 10
1143.971920
 20
425.180372
 30
0.0
 10
1174.268240
 20
427.073876
 30
0.0
  0
SPLINE
  5
1a5
100
AcDbEntity
  8
0
 62
1
100
AcDbSpline
 70
8
 71
3
 72
8
 73
4
 74
0
 40
0
 40
0
 40
0
 40
0
 40
1
 40
1
 40
1
 40
1
 10
1174.268240
 20
427.073876
 30
0.0
 10
1195.710720
 20
428.414044
 30
0.0
 10
1214.272320
 20
444.429548
 30
0.0
 10
1223.310720
 20
453.691380
 30
0.0
  0
SPLINE
  5
1a6
100
AcDbEntity
  8
0
 62
1
100
AcDbSpline
 70
8
 71
3
 72
8
 73
4
 74
0
 40
0
 40
0
 40
0
 40
0
 40
1
 40
1
 40
1
 40
1
 10
1223.310720
 20
453.691380
 30
0.0
 10
1296.277520
 20
434.003692
 30
0.0
 10
1300.671360
 20
476.173916
 30
0.0
 10
1348.175680
 20
602.606388
 30
0.0
  0
SPLINE
  5
1a7
100
AcDbEntity
  8
0
 62
1
100
AcDbSpline
 70
8
 71
3
 72
8
 73
4
 74
0
 40
0
 40
0
 40
0
 40
0
 40
1
 40
1
 40
1
 40
1
 10
1348.175680
 20
602.606388
 30
0.0
 10
1339.448640
 20
569.398044
 30
0.0
 10
1342.507200
 20
526.522708
 30
0.0
 10
1326.108240
 20
497.338892
 30
0.0
  0
SPLINE
  5
1a8
100
AcDbEntity
  8
0
 62
1
100
AcDbSpline
 70
8
 71
3
 72
8
 73
4
 74
0
 40
0
 40
0
 40
0
 40
0
 40
1
 40
1
 40
1
 40
1
 10
1326.108240
 20
497.338892
 30
0.0
 10
1297.499280
 20
449.601612
 30
0.0
 10
1283.341360
 20
445.381620
 30
0.0
 10
1276.968240
 20
435.523892
 30
0.0
  0
SPLINE
  5
1a9
100
AcDbEntity
  8
0
 62
1
100
AcDbSpline
 70
8
 71
3
 72
8
 73
4
 74
0
 40
0
 40
0
 40
0
 40
0
 40
1
 40
1
 40
1
 40
1
 10
1276.968240
 20
435.523892
 30
0.0
 10
1270.332240
 20
425.259612
 30
0.0
 10
1261.813440
 20
417.007228
 30
0.0
 10
1255.290720
 20
407.248892
 30
0.0
  0
SPLINE
  5
1aa
100
AcDbEntity
  8
0
 62
1
100
AcDbSpline
 70
8
 71
3
 72
8
 73
4
 74
0
 40
0
 40
0
 40
0
 40
0
 40
1
 40
1
 40
1
 40
1
 10
1255.290720
 20
407.248892
 30
0.0
 10
1229.816400
 20
401.225812
 30
0.0
 10
1210.019920
 20
394.801100
 30
0.0
 10
1213.333200
 20
395.028892
 30
0.0
  0
SPLINE
  5
1ab
100
AcDbEntity
  8
0
 62
1
100
AcDbSpline
 70
8
 71
3
 72
8
 73
4
 74
0
 40
0
 40
0
 40
0
 40
0
 40
1
 40
1
 40
1
 40
1
 10
1213.333200
 20
395.028892
 30
0.0
 10
1223.819520
 20
395.749836
 30
0.0
 10
1237.301920
 20
398.274300
 30
0.0
 10
1251.358240
 20
400.618876
 30
0.0
  0
SPLINE
  5
1ac
100
AcDbEntity
  8
0
 62
1
100
AcDbSpline
 70
8
 71
3
 72
8
 73
4
 74
0
 40
0
 40
0
 40
0
 40
0
 40
1
 40
1
 40
1
 40
1
 10
1251.358240
 20
400.618876
 30
0.0
 10
1248.195360
 20
394.484052
 30
0.0
 10
1245.981840
 20
387.586660
 30
0.0
 10
1245.508240
 20
379.233892
 30
0.0
  0
SPLINE
  5
1ad
100
AcDbEntity
  8
0
 62
1
100
AcDbSpline
 70
8
 71
3
 72
8
 73
4
 74
0
 40
0
 40
0
 40
0
 40
0
 40
1
 40
1
 40
1
 40
1
 10
1245.508240
 20
379.233892
 30
0.0
 10
1244.361200
 20
359.004788
 30
0.0
 10
1297.285680
 20
343.131332
 30
0.0
 10
1310.735680
 20
339.453892
 30
0.0
  0
SPLINE
  5
1ae
100
AcDbEntity
  8
0
 62
1
100
AcDbSpline
 70
8
 71
3
 72
8
 73
4
 74
0
 40
0
 40
0
 40
0
 40
0
 40
1
 40
1
 40
1
 40
1
 10
1310.735680
 20
339.453892
 30
0.0
 10
1314.084160
 20
338.538380
 30
0.0
 10
1319.397760
 20
341.698900
 30
0.0
 10
1326.920720
 20
347.871388
 30
0.0
  0
SPLINE
  5
1af
100
AcDbEntity
  8
0
 62
1
100
AcDbSpline
 70
8
 71
3
 72
8
 73
4
 74
0
 40
0
 40
0
 40
0
 40
0
 40
1
 40
1
 40
1
 40
1
 10
1326.920720
 20
347.871388
 30
0.0
 10
1324.192240
 20
321.878868
 30
0.0
 10
1385.836720
 20
307.114996
 30
0.0
 10
1401.508240
 20
309.196380
 30
0.0
  0
SPLINE
  5
1b0
100
AcDbEntity
  8
0
 62
1
100
AcDbSpline
 70
8
 71
3
 72
8
 73
4
 74
0
 40
0
 40
0
 40
0
 40
0
 40
1
 40
1
 40
1
 40
1
 10
1401.508240
 20
309.196380
 30
0.0
 10
1427.506880
 20
312.649324
 30
0.0
 10
1427.670720
 20
334.787756
 30
0.0
 10
1427.670720
 20
346.148876
 30
0.0
  0
SPLINE
  5
1b1
100
AcDbEntity
  8
0
 62
1
100
AcDbSpline
 70
8
 71
3
 72
8
 73
4
 74
0
 40
0
 40
0
 40
0
 40
0
 40
1
 40
1
 40
1
 40
1
 10
1427.670720
 20
346.148876
 30
0.0
 10
1427.670720
 20
366.889124
 30
0.0
 10
1419.415280
 20
386.533204
 30
0.0
 10
1414.475680
 20
429.348876
 30
0.0
  0
SPLINE
  5
1b2
100
AcDbEntity
  8
0
 62
1
100
AcDbSpline
 70
8
 71
3
 72
8
 73
4
 74
0
 40
0
 40
0
 40
0
 40
0
 40
1
 40
1
 40
1
 40
1
 10
1414.475680
 20
429.348876
 30
0.0
 10
1415.438400
 20
430.267796
 30
0.0
 10
1419.448240
 20
434.093876
 30
0.0
 10
1419.448240
 20
434.093876
 30
0.0
  0
SPLINE
  5
1b3
100
AcDbEntity
  8
0
 62
1
100
AcDbSpline
 70
8
 71
3
 72
8
 73
4
 74
0
 40
0
 40
0
 40
0
 40
0
 40
1
 40
1
 40
1
 40
1
 10
1419.448240
 20
434.093876
 30
0.0
 10
1419.448240
 20
434.093876
 30
0.0
 10
1417.297600
 20
432.675348
 30
0.0
 10
1414.313200
 20
430.746380
 30
0.0
  0
SPLINE
  5
1b4
100
AcDbEntity
  8
0
 62
1
100
AcDbSpline
 70
8
 71
3
 72
8
 73
4
 74
0
 40
0
 40
0
 40
0
 40
0
 40
1
 40
1
 40
1
 40
1
 10
1414.313200
 20
430.746380
 30
0.0
 10
1414.166480
 20
432.052332
 30
0.0
 10
1413.998320
 20
433.297044
 30
0.0
 10
1413.858240
 20
434.646388
 30
0.0
  0
SPLINE
  5
1b5
100
AcDbEntity
  8
0
 62
1
100
AcDbSpline
 70
8
 71
3
 72
8
 73
4
 74
0
 40
0
 40
0
 40
0
 40
0
 40
1
 40
1
 40
1
 40
1
 10
1413.858240
 20
434.646388
 30
0.0
 10
1412.742640
 20
445.393116
 30
0.0
 10
1415.636880
 20
461.159452
 30
0.0
 10
1419.968240
 20
477.351388
 30
0.0
  0
SPLINE
  5
1b6
100
AcDbEntity
  8
0
 62
1
100
AcDbSpline
 70
8
 71
3
 72
8
 73
4
 74
0
 40
0
 40
0
 40
0
 40
0
 40
1
 40
1
 40
1
 40
1
 10
1419.968240
 20
477.351388
 30
0.0
 10
1422.120960
 20
442.750580
 30
0.0
 10
1431.822480
 20
402.341372
 30
0.0
 10
1443.140720
 20
382.581388
 30
0.0
  0
SPLINE
  5
1b7
100
AcDbEntity
  8
0
 62
1
100
AcDbSpline
 70
8
 71
3
 72
8
 73
4
 74
0
 40
0
 40
0
 40
0
 40
0
 40
1
 40
1
 40
1
 40
1
 10
1443.140720
 20
382.581388
 30
0.0
 10
1451.833920
 20
367.404460
 30
0.0
 10
1461.969680
 20
350.472932
 30
0.0
 10
1474.015680
 20
333.116380
 30
0.0
  0
SPLINE
  5
1b8
100
AcDbEntity
  8
0
 62
1
100
AcDbSpline
 70
8
 71
3
 72
8
 73
4
 74
0
 40
0
 40
0
 40
0
 40
0
 40
1
 40
1
 40
1
 40
1
 10
1474.015680
 20
333.116380
 30
0.0
 10
1466.621280
 20
333.775972
 30
0.0
 10
1433.133920
 20
326.142164
 30
0.0
 10
1415.223200
 20
312.803876
 30
0.0
  0
SPLINE
  5
1b9
100
AcDbEntity
  8
0
 62
1
100
AcDbSpline
 70
8
 71
3
 72
8
 73
4
 74
0
 40
0
 40
0
 40
0
 40
0
 40
1
 40
1
 40
1
 40
1
 10
1415.223200
 20
312.803876
 30
0.0
 10
1399.687600
 20
301.234380
 30
0.0
 10
1447.684640
 20
280.207980
 30
0.0
 10
1467.093200
 20
272.633876
 30
0.0
  0
SPLINE
  5
1ba
100
AcDbEntity
  8
0
 62
1
100
AcDbSpline
 70
8
 71
3
 72
8
 73
4
 74
0
 40
0
 40
0
 40
0
 40
0
 40
1
 40
1
 40
1
 40
1
 10
1467.093200
 20
272.633876
 30
0.0
 10
1505.910480
 20
257.485700
 30
0.0
 10
1522.691120
 20
247.189580
 30
0.0
 10
1568.135680
 20
232.041388
 30
0.0
  0
SPLINE
  5
1bb
100
AcDbEntity
  8
0
 62
1
100
AcDbSpline
 70
8
 71
3
 72
8
 73
4
 74
0
 40
0
 40
0
 40
0
 40
0
 40
1
 40
1
 40
1
 40
1
 10
1568.135680
 20
232.041388
 30
0.0
 10
1569.804640
 20
233.008260
 30
0.0
 10
1571.383280
 20
234.005292
 30
0.0
 10
1572.913200
 20
235.031388
 30
0.0
  0
SPLINE
  5
1bc
100
AcDbEntity
  8
0
 62
1
100
AcDbSpline
 70
8
 71
3
 72
8
 73
4
 74
0
 40
0
 40
0
 40
0
 40
0
 40
1
 40
1
 40
1
 40
1
 10
1572.913200
 20
235.031388
 30
0.0
 10
1599.848160
 20
217.958892
 30
0.0
 10
1631.374640
 20
204.167292
 30
0.0
 10
1668.495680
 20
196.063892
 30
0.0
  0
SPLINE
  5
1bd
100
AcDbEntity
  8
0
 62
1
100
AcDbSpline
 70
8
 71
3
 72
8
 73
4
 74
0
 40
0
 40
0
 40
0
 40
0
 40
1
 40
1
 40
1
 40
1
 10
1668.495680
 20
196.063892
 30
0.0
 10
1670.321520
 20
195.720284
 30
0.0
 10
1671.640000
 20
195.576140
 30
0.0
 10
1672.493200
 20
195.608892
 30
0.0
  0
SPLINE
  5
1be
100
AcDbEntity
  8
0
 62
1
100
AcDbSpline
 70
8
 71
3
 72
8
 73
4
 74
0
 40
0
 40
0
 40
0
 40
0
 40
1
 40
1
 40
1
 40
1
 10
1518.085680
 20
279.491388
 30
0.0
 10
1508.259680
 20
281.557212
 30
0.0
 10
1498.802560
 20
284.679932
 30
0.0
 10
1492.378240
 20
286.966380
 30
0.0
  0
SPLINE
  5
1bf
100
AcDbEntity
  8
0
 62
1
100
AcDbSpline
 70
8
 71
3
 72
8
 73
4
 74
0
 40
0
 40
0
 40
0
 40
0
 40
1
 40
1
 40
1
 40
1
 10
1492.378240
 20
286.966380
 30
0.0
 10
1468.400320
 20
295.500388
 30
0.0
 10
1394.876480
 20
304.877516
 30
0.0
 10
1456.595680
 20
324.373892
 30
0.0
  0
SPLINE
  5
1c0
100
AcDbEntity
  8
0
 62
1
100
AcDbSpline
 70
8
 71
3
 72
8
 73
4
 74
0
 40
0
 40
0
 40
0
 40
0
 40
1
 40
1
 40
1
 40
1
 10
1456.595680
 20
324.373892
 30
0.0
 10
1467.795680
 20
327.911796
 30
0.0
 10
1473.380160
 20
330.326500
 30
0.0
 10
1474.990720
 20
331.718876
 30
0.0
  0
SPLINE
  5
1c1
100
AcDbEntity
  8
0
 62
1
100
AcDbSpline
 70
8
 71
3
 72
8
 73
4
 74
0
 40
0
 40
0
 40
0
 40
0
 40
1
 40
1
 40
1
 40
1
 10
1474.990720
 20
331.718876
 30
0.0
 10
1487.193600
 20
314.266380
 30
0.0
 10
1501.358320
 20
296.415172
 30
0.0
 10
1518.085680
 20
279.491388
 30
0.0
  0
LWPOLYLINE
  5
1c2
100
AcDbEntity
  8
0
 62
1
100
AcDbPolyline
 90
2
 70
0
 10
1150.120720
 20
693.573892
 30
0.0
 10
1150.120720
 20
693.573892
 30
0.0
  0
SPLINE
  5
1c3
100
AcDbEntity
  8
0
 62
1
100
AcDbSpline
 70
8
 71
3
 72
8
 73
4
 74
0
 40
0
 40
0
 40
0
 40
0
 40
1
 40
1
 40
1
 40
1
 10
1559.003200
 20
289.111380
 30
0.0
 10
1523.495280
 20
326.174940
 30
0.0
 10
1489.878480
 20
374.325132
 30
0.0
 10
1475.348240
 20
433.703892
 30
0.0
  0
SPLINE
  5
1c4
100
AcDbEntity
  8
0
 62
1
100
AcDbSpline
 70
8
 71
3
 72
8
 73
4
 74
0
 40
0
 40
0
 40
0
 40
0
 40
1
 40
1
 40
1
 40
1
 10
1475.348240
 20
433.703892
 30
0.0
 10
1475.348240
 20
433.703892
 30
0.0
 10
1466.165680
 20
466.526068
 30
0.0
 10
1463.225680
 20
515.018892
 30
0.0
  0
SPLINE
  5
1c5
100
AcDbEntity
  8
0
 62
1
100
AcDbSpline
 70
8
 71
3
 72
8
 73
4
 74
0
 40
0
 40
0
 40
0
 40
0
 40
1
 40
1
 40
1
 40
1
 10
1463.225680
 20
515.018892
 30
0.0
 10
1466.147600
 20
502.647452
 30
0.0
 10
1469.504080
 20
489.198692
 30
0.0
 10
1472.488240
 20
480.081388
 30
0.0
  0
SPLINE
  5
1c6
100
AcDbEntity
  8
0
 62
1
100
AcDbSpline
 70
8
 71
3
 72
8
 73
4
 74
0
 40
0
 40
0
 40
0
 40
0
 40
1
 40
1
 40
1
 40
1
 10
1472.488240
 20
480.081388
 30
0.0
 10
1493.473840
 20
419.037516
 30
0.0
 10
1565.692960
 20
316.948724
 30
0.0
 10
1559.003200
 20
289.111380
 30
0.0
  0
LWPOLYLINE
  5
1c7
100
AcDbEntity
  8
0
 62
1
100
AcDbPolyline
 90
2
 70
0
 10
1672.493200
 20
195.608892
 30
0.0
 10
1672.493200
 20
195.608892
 30
0.0
  0
SPLINE
  5
1c8
100
AcDbEntity
  8
0
 62
1
100
AcDbSpline
 70
8
 71
3
 72
8
 73
4
 74
0
 40
0
 40
0
 40
0
 40
0
 40
1
 40
1
 40
1
 40
1
 10
1378.758240
 20
340.883876
 30
0.0
 10
1372.640000
 20
340.906756
 30
0.0
 10
1365.168800
 20
344.638412
 30
0.0
 10
1359.843200
 20
349.431380
 30
0.0
  0
SPLINE
  5
1c9
100
AcDbEntity
  8
0
 62
1
100
AcDbSpline
 70
8
 71
3
 72
8
 73
4
 74
0
 40
0
 40
0
 40
0
 40
0
 40
1
 40
1
 40
1
 40
1
 10
1359.843200
 20
349.431380
 30
0.0
 10
1353.440160
 20
355.194100
 30
0.0
 10
1351.964960
 20
362.677476
 30
0.0
 10
1352.075680
 20
370.588892
 30
0.0
  0
SPLINE
  5
1ca
100
AcDbEntity
  8
0
 62
1
100
AcDbSpline
 70
8
 71
3
 72
8
 73
4
 74
0
 40
0
 40
0
 40
0
 40
0
 40
1
 40
1
 40
1
 40
1
 10
1352.075680
 20
370.588892
 30
0.0
 10
1354.703520
 20
373.043372
 30
0.0
 10
1356.960240
 20
375.159356
 30
0.0
 10
1359.843200
 20
377.836388
 30
0.0
  0
SPLINE
  5
1cb
100
AcDbEntity
  8
0
 62
1
100
AcDbSpline
 70
8
 71
3
 72
8
 73
4
 74
0
 40
0
 40
0
 40
0
 40
0
 40
1
 40
1
 40
1
 40
1
 10
1359.843200
 20
377.836388
 30
0.0
 10
1365.672000
 20
383.248812
 30
0.0
 10
1371.804880
 20
389.023652
 30
0.0
 10
1377.848240
 20
394.703876
 30
0.0
  0
SPLINE
  5
1cc
100
AcDbEntity
  8
0
 62
1
100
AcDbSpline
 70
8
 71
3
 72
8
 73
4
 74
0
 40
0
 40
0
 40
0
 40
0
 40
1
 40
1
 40
1
 40
1
 10
1377.848240
 20
394.703876
 30
0.0
 10
1378.910080
 20
391.050196
 30
0.0
 10
1380.163040
 20
387.490844
 30
0.0
 10
1381.618240
 20
384.011380
 30
0.0
  0
SPLINE
  5
1cd
100
AcDbEntity
  8
0
 62
1
100
AcDbSpline
 70
8
 71
3
 72
8
 73
4
 74
0
 40
0
 40
0
 40
0
 40
0
 40
1
 40
1
 40
1
 40
1
 10
1381.618240
 20
384.011380
 30
0.0
 10
1395.365760
 20
351.138652
 30
0.0
 10
1388.955200
 20
340.845684
 30
0.0
 10
1378.758240
 20
340.883876
 30
0.0
  0
LWPOLYLINE
  5
1ce
100
AcDbEntity
  8
0
 62
1
100
AcDbPolyline
 90
2
 70
0
 10
1518.085680
 20
279.491388
 30
0.0
 10
1518.085680
 20
279.491388
 30
0.0
  0
SPLINE
  5
1cf
100
AcDbEntity
  8
0
 62
1
100
AcDbSpline
 70
8
 71
3
 72
8
 73
4
 74
0
 40
0
 40
0
 40
0
 40
0
 40
1
 40
1
 40
1
 40
1
 10
1302.545680
 20
374.813876
 30
0.0
 10
1292.964880
 20
375.305740
 30
0.0
 10
1293.723920
 20
389.510076
 30
0.0
 10
1301.635680
 20
404.648876
 30
0.0
  0
SPLINE
  5
1d0
100
AcDbEntity
  8
0
 62
1
100
AcDbSpline
 70
8
 71
3
 72
8
 73
4
 74
0
 40
0
 40
0
 40
0
 40
0
 40
1
 40
1
 40
1
 40
1
 10
1301.635680
 20
404.648876
 30
0.0
 10
1316.131520
 20
403.200772
 30
0.0
 10
1327.233600
 20
397.806540
 30
0.0
 10
1330.788240
 20
384.921388
 30
0.0
  0
SPLINE
  5
1d1
100
AcDbEntity
  8
0
 62
1
100
AcDbSpline
 70
8
 71
3
 72
8
 73
4
 74
0
 40
0
 40
0
 40
0
 40
0
 40
1
 40
1
 40
1
 40
1
 10
1330.788240
 20
384.921388
 30
0.0
 10
1323.426880
 20
381.654524
 30
0.0
 10
1316.024160
 20
378.590388
 30
0.0
 10
1308.720720
 20
375.951388
 30
0.0
  0
SPLINE
  5
1d2
100
AcDbEntity
  8
0
 62
1
100
AcDbSpline
 70
8
 71
3
 72
8
 73
4
 74
0
 40
0
 40
0
 40
0
 40
0
 40
1
 40
1
 40
1
 40
1
 10
1308.720720
 20
375.951388
 30
0.0
 10
1306.315680
 20
375.082356
 30
0.0
 10
1304.265600
 20
374.725596
 30
0.0
 10
1302.545680
 20
374.813876
 30
0.0
  0
LWPOLYLINE
  5
1d3
100
AcDbEntity
  8
0
 62
1
100
AcDbPolyline
 90
2
 70
0
 10
1559.003200
 20
289.111380
 30
0.0
 10
1559.003200
 20
289.111380
 30
0.0
  0
SPLINE
  5
1d4
100
AcDbEntity
  8
0
 62
1
100
AcDbSpline
 70
8
 71
3
 72
8
 73
4
 74
0
 40
0
 40
0
 40
0
 40
0
 40
1
 40
1
 40
1
 40
1
 10
1353.863200
 20
395.906388
 30
0.0
 10
1353.650240
 20
402.461788
 30
0.0
 10
1351.922720
 20
408.310628
 30
0.0
 10
1346.355680
 20
412.513892
 30
0.0
  0
SPLINE
  5
1d5
100
AcDbEntity
  8
0
 62
1
100
AcDbSpline
 70
8
 71
3
 72
8
 73
4
 74
0
 40
0
 40
0
 40
0
 40
0
 40
1
 40
1
 40
1
 40
1
 10
1346.355680
 20
412.513892
 30
0.0
 10
1339.825200
 20
417.444668
 30
0.0
 10
1325.916480
 20
418.161548
 30
0.0
 10
1309.435680
 20
416.706380
 30
0.0
  0
SPLINE
  5
1d6
100
AcDbEntity
  8
0
 62
1
100
AcDbSpline
 70
8
 71
3
 72
8
 73
4
 74
0
 40
0
 40
0
 40
0
 40
0
 40
1
 40
1
 40
1
 40
1
 10
1309.435680
 20
416.706380
 30
0.0
 10
1328.216960
 20
441.066644
 30
0.0
 10
1343.800800
 20
456.782228
 30
0.0
 10
1356.983200
 20
479.528876
 30
0.0
  0
SPLINE
  5
1d7
100
AcDbEntity
  8
0
 62
1
100
AcDbSpline
 70
8
 71
3
 72
8
 73
4
 74
0
 40
0
 40
0
 40
0
 40
0
 40
1
 40
1
 40
1
 40
1
 10
1356.983200
 20
479.528876
 30
0.0
 10
1379.398640
 20
520.786708
 30
0.0
 10
1386.331920
 20
557.601964
 30
0.0
 10
1400.175680
 20
601.436388
 30
0.0
  0
SPLINE
  5
1d8
100
AcDbEntity
  8
0
 62
1
100
AcDbSpline
 70
8
 71
3
 72
8
 73
4
 74
0
 40
0
 40
0
 40
0
 40
0
 40
1
 40
1
 40
1
 40
1
 10
1400.175680
 20
601.436388
 30
0.0
 10
1390.551600
 20
543.376892
 30
0.0
 10
1388.494720
 20
530.403004
 30
0.0
 10
1375.670720
 20
482.876380
 30
0.0
  0
SPLINE
  5
1d9
100
AcDbEntity
  8
0
 62
1
100
AcDbSpline
 70
8
 71
3
 72
8
 73
4
 74
0
 40
0
 40
0
 40
0
 40
0
 40
1
 40
1
 40
1
 40
1
 10
1375.670720
 20
482.876380
 30
0.0
 10
1368.431040
 20
455.796884
 30
0.0
 10
1371.154480
 20
430.113676
 30
0.0
 10
1375.020720
 20
407.183876
 30
0.0
  0
SPLINE
  5
1da
100
AcDbEntity
  8
0
 62
1
100
AcDbSpline
 70
8
 71
3
 72
8
 73
4
 74
0
 40
0
 40
0
 40
0
 40
0
 40
1
 40
1
 40
1
 40
1
 10
1375.020720
 20
407.183876
 30
0.0
 10
1368.370400
 20
403.476884
 30
0.0
 10
1361.252000
 20
399.664028
 30
0.0
 10
1353.863200
 20
395.906388
 30
0.0
  0
LWPOLYLINE
  5
1db
100
AcDbEntity
  8
0
 62
1
100
AcDbPolyline
 90
2
 70
0
 10
1378.758240
 20
340.883876
 30
0.0
 10
1378.758240
 20
340.883876
 30
0.0
  0
SPLINE
  5
1dc
100
AcDbEntity
  8
0
 62
1
100
AcDbSpline
 70
8
 71
3
 72
8
 73
4
 74
0
 40
0
 40
0
 40
0
 40
0
 40
1
 40
1
 40
1
 40
1
 10
1169.068240
 20
460.386388
 30
0.0
 10
1165.834240
 20
460.379988
 30
0.0
 10
1163.291280
 20
461.890196
 30
0.0
 10
1161.658240
 20
465.293892
 30
0.0
  0
SPLINE
  5
1dd
100
AcDbEntity
  8
0
 62
1
100
AcDbSpline
 70
8
 71
3
 72
8
 73
4
 74
0
 40
0
 40
0
 40
0
 40
0
 40
1
 40
1
 40
1
 40
1
 10
1161.658240
 20
465.293892
 30
0.0
 10
1166.658880
 20
464.363988
 30
0.0
 10
1171.667920
 20
463.411996
 30
0.0
 10
1176.673200
 20
462.466380
 30
0.0
  0
SPLINE
  5
1de
100
AcDbEntity
  8
0
 62
1
100
AcDbSpline
 70
8
 71
3
 72
8
 73
4
 74
0
 40
0
 40
0
 40
0
 40
0
 40
1
 40
1
 40
1
 40
1
 10
1176.673200
 20
462.466380
 30
0.0
 10
1173.867200
 20
461.126988
 30
0.0
 10
1171.306720
 20
460.390540
 30
0.0
 10
1169.068240
 20
460.386388
 30
0.0
  0
LWPOLYLINE
  5
1df
100
AcDbEntity
  8
0
 62
1
100
AcDbPolyline
 90
2
 70
0
 10
1302.545680
 20
374.813876
 30
0.0
 10
1302.545680
 20
374.813876
 30
0.0
  0
LWPOLYLINE
  5
1e0
100
AcDbEntity
  8
0
 62
1
100
AcDbPolyline
 90
2
 70
0
 10
1353.863200
 20
395.906388
 30
0.0
 10
1353.863200
 20
395.906388
 30
0.0
  0
SPLINE
  5
1e1
100
AcDbEntity
  8
0
 62
1
100
AcDbSpline
 70
8
 71
3
 72
8
 73
4
 74
0
 40
0
 40
0
 40
0
 40
0
 40
1
 40
1
 40
1
 40
1
 10
1257.598240
 20
494.283876
 30
0.0
 10
1266.609600
 20
510.167500
 30
0.0
 10
1276.571280
 20
524.685620
 30
0.0
 10
1286.523200
 20
539.166388
 30
0.0
  0
SPLINE
  5
1e2
100
AcDbEntity
  8
0
 62
1
100
AcDbSpline
 70
8
 71
3
 72
8
 73
4
 74
0
 40
0
 40
0
 40
0
 40
0
 40
1
 40
1
 40
1
 40
1
 10
1286.523200
 20
539.166388
 30
0.0
 10
1280.251840
 20
520.236516
 30
0.0
 10
1270.370960
 20
493.654804
 30
0.0
 10
1262.895680
 20
488.693892
 30
0.0
  0
SPLINE
  5
1e3
100
AcDbEntity
  8
0
 62
1
100
AcDbSpline
 70
8
 71
3
 72
8
 73
4
 74
0
 40
0
 40
0
 40
0
 40
0
 40
1
 40
1
 40
1
 40
1
 10
1262.895680
 20
488.693892
 30
0.0
 10
1260.952160
 20
487.404028
 30
0.0
 10
1256.655360
 20
486.634724
 30
0.0
 10
1250.935680
 20
486.321380
 30
0.0
  0
LWPOLYLINE
  5
1e4
100
AcDbEntity
  8
0
 62
1
100
AcDbPolyline
 90
2
 70
0
 10
1169.068240
 20
460.386388
 30
0.0
 10
1169.068240
 20
460.386388
 30
0.0
  0
SPLINE
  5
1e5
100
AcDbEntity
  8
0
 62
1
100
AcDbSpline
 70
8
 71
3
 72
8
 73
4
 74
0
 40
0
 40
0
 40
0
 40
0
 40
1
 40
1
 40
1
 40
1
 10
1208.360720
 20
489.961380
 30
0.0
 10
1204.459520
 20
490.723252
 30
0.0
 10
1200.591280
 20
491.597996
 30
0.0
 10
1196.823200
 20
492.593876
 30
0.0
  0
SPLINE
  5
1e6
100
AcDbEntity
  8
0
 62
1
100
AcDbSpline
 70
8
 71
3
 72
8
 73
4
 74
0
 40
0
 40
0
 40
0
 40
0
 40
1
 40
1
 40
1
 40
1
 10
1196.823200
 20
492.593876
 30
0.0
 10
1186.024080
 20
495.448076
 30
0.0
 10
1174.280480
 20
496.999020
 30
0.0
 10
1161.463200
 20
497.891388
 30
0.0
  0
SPLINE
  5
1e7
100
AcDbEntity
  8
0
 62
1
100
AcDbSpline
 70
8
 71
3
 72
8
 73
4
 74
0
 40
0
 40
0
 40
0
 40
0
 40
1
 40
1
 40
1
 40
1
 10
1161.463200
 20
497.891388
 30
0.0
 10
1162.882080
 20
502.880132
 30
0.0
 10
1164.859120
 20
507.982708
 30
0.0
 10
1167.215680
 20
513.166380
 30
0.0
  0
SPLINE
  5
1e8
100
AcDbEntity
  8
0
 62
1
100
AcDbSpline
 70
8
 71
3
 72
8
 73
4
 74
0
 40
0
 40
0
 40
0
 40
0
 40
1
 40
1
 40
1
 40
1
 10
1167.215680
 20
513.166380
 30
0.0
 10
1174.424960
 20
515.232892
 30
0.0
 10
1181.342640
 20
517.192660
 30
0.0
 10
1187.528240
 20
518.918876
 30
0.0
  0
SPLINE
  5
1e9
100
AcDbEntity
  8
0
 62
1
100
AcDbSpline
 70
8
 71
3
 72
8
 73
4
 74
0
 40
0
 40
0
 40
0
 40
0
 40
1
 40
1
 40
1
 40
1
 10
1187.528240
 20
518.918876
 30
0.0
 10
1207.340240
 20
524.447812
 30
0.0
 10
1229.803280
 20
533.763348
 30
0.0
 10
1247.685680
 20
541.896380
 30
0.0
  0
SPLINE
  5
1ea
100
AcDbEntity
  8
0
 62
1
100
AcDbSpline
 70
8
 71
3
 72
8
 73
4
 74
0
 40
0
 40
0
 40
0
 40
0
 40
1
 40
1
 40
1
 40
1
 10
1247.685680
 20
541.896380
 30
0.0
 10
1238.280000
 20
528.397668
 30
0.0
 10
1228.688800
 20
514.969972
 30
0.0
 10
1220.678240
 20
504.716388
 30
0.0
  0
SPLINE
  5
1eb
100
AcDbEntity
  8
0
 62
1
100
AcDbSpline
 70
8
 71
3
 72
8
 73
4
 74
0
 40
0
 40
0
 40
0
 40
0
 40
1
 40
1
 40
1
 40
1
 10
1220.678240
 20
504.716388
 30
0.0
 10
1216.696320
 20
499.619452
 30
0.0
 10
1212.527520
 20
494.654796
 30
0.0
 10
1208.360720
 20
489.961380
 30
0.0
  0
LWPOLYLINE
  5
1ec
100
AcDbEntity
  8
0
 62
1
100
AcDbPolyline
 90
2
 70
0
 10
1250.935680
 20
486.321380
 30
0.0
 10
1257.598240
 20
494.283876
 30
0.0
  0
SPLINE
  5
1ed
100
AcDbEntity
  8
0
 62
1
100
AcDbSpline
 70
8
 71
3
 72
8
 73
4
 74
0
 40
0
 40
0
 40
0
 40
0
 40
1
 40
1
 40
1
 40
1
 10
1136.893200
 20
498.898876
 30
0.0
 10
1132.096480
 20
498.998404
 30
0.0
 10
1127.142320
 20
499.073900
 30
0.0
 10
1122.073200
 20
499.126380
 30
0.0
  0
SPLINE
  5
1ee
100
AcDbEntity
  8
0
 62
1
100
AcDbSpline
 70
8
 71
3
 72
8
 73
4
 74
0
 40
0
 40
0
 40
0
 40
0
 40
1
 40
1
 40
1
 40
1
 10
1122.073200
 20
499.126380
 30
0.0
 10
1127.421120
 20
500.995044
 30
0.0
 10
1133.009360
 20
502.815164
 30
0.0
 10
1138.713200
 20
504.618892
 30
0.0
  0
SPLINE
  5
1ef
100
AcDbEntity
  8
0
 62
1
100
AcDbSpline
 70
8
 71
3
 72
8
 73
4
 74
0
 40
0
 40
0
 40
0
 40
0
 40
1
 40
1
 40
1
 40
1
 10
1138.713200
 20
504.618892
 30
0.0
 10
1138.051200
 20
502.736868
 30
0.0
 10
1137.456080
 20
500.831348
 30
0.0
 10
1136.893200
 20
498.898876
 30
0.0
  0
LWPOLYLINE
  5
1f0
100
AcDbEntity
  8
0
 62
1
100
AcDbPolyline
 90
2
 70
0
 10
1250.935680
 20
486.321380
 30
0.0
 10
1250.935680
 20
486.321380
 30
0.0
  0
SPLINE
  5
1f1
100
AcDbEntity
  8
0
 62
1
100
AcDbSpline
 70
8
 71
3
 72
8
 73
4
 74
0
 40
0
 40
0
 40
0
 40
0
 40
1
 40
1
 40
1
 40
1
 10
1245.150720
 20
684.018892
 30
0.0
 10
1246.993440
 20
681.528972
 30
0.0
 10
1249.233920
 20
680.503588
 30
0.0
 10
1251.683200
 20
680.606380
 30
0.0
  0
LWPOLYLINE
  5
1f2
100
AcDbEntity
  8
0
 62
1
100
AcDbPolyline
 90
2
 70
0
 10
1208.360720
 20
489.961380
 30
0.0
 10
1208.360720
 20
489.961380
 30
0.0
  0
LWPOLYLINE
  5
1f3
100
AcDbEntity
  8
0
 62
1
100
AcDbPolyline
 90
2
 70
0
 10
1136.893200
 20
498.898876
 30
0.0
 10
1136.893200
 20
498.898876
 30
0.0
  0
SPLINE
  5
1f4
100
AcDbEntity
  8
0
 62
1
100
AcDbSpline
 70
8
 71
3
 72
8
 73
4
 74
0
 40
0
 40
0
 40
0
 40
0
 40
1
 40
1
 40
1
 40
1
 10
1462.872640
 20
511.773964
 30
0.0
 10
1452.161200
 20
547.924908
 30
0.0
 10
1442.004400
 20
587.619228
 30
0.0
 10
1442.004400
 20
587.619228
 30
0.0
  0
SPLINE
  5
1f5
100
AcDbEntity
  8
0
 62
1
100
AcDbSpline
 70
8
 71
3
 72
8
 73
4
 74
0
 40
0
 40
0
 40
0
 40
0
 40
1
 40
1
 40
1
 40
1
 10
1442.004400
 20
587.619228
 30
0.0
 10
1435.309760
 20
526.028764
 30
0.0
 10
1433.970880
 20
542.095844
 30
0.0
 10
1419.242720
 20
475.149668
 30
0.0
  0
SPLINE
  5
1f6
100
AcDbEntity
  8
0
 62
1
100
AcDbSpline
 70
8
 71
3
 72
8
 73
4
 74
0
 40
0
 40
0
 40
0
 40
0
 40
1
 40
1
 40
1
 40
1
 10
1286.689360
 20
538.079068
 30
0.0
 10
1286.689360
 20
538.079068
 30
0.0
 10
1292.045040
 20
571.552148
 30
0.0
 10
1309.450960
 20
615.736628
 30
0.0
  0
SPLINE
  5
1f7
100
AcDbEntity
  8
0
 62
1
100
AcDbSpline
 70
8
 71
3
 72
8
 73
4
 74
0
 40
0
 40
0
 40
0
 40
0
 40
1
 40
1
 40
1
 40
1
 10
1309.450960
 20
615.736628
 30
0.0
 10
1284.593920
 20
569.017028
 30
0.0
 10
1274.639040
 20
555.485084
 30
0.0
 10
1246.521600
 20
540.756916
 30
0.0
  0
LWPOLYLINE
  5
1f8
100
AcDbEntity
  8
0
 62
1
100
AcDbPolyline
 90
2
 70
0
 10
1251.683200
 20
680.606380
 30
0.0
 10
1251.683200
 20
680.606380
 30
0.0
  0
LWPOLYLINE
  5
1f9
100
AcDbEntity
  8
0
 62
1
100
AcDbPolyline
 90
2
 70
0
 10
1247.658000
 20
694.479812
 30
0.0
 10
1247.658000
 20
694.479812
 30
0.0
  0
LWPOLYLINE
  5
1fa
100
AcDbEntity
  8
0
 62
1
100
AcDbPolyline
 90
2
 70
0
 10
1250.935680
 20
486.321380
 30
0.0
 10
1223.310720
 20
453.691380
 30
0.0
  0
LWPOLYLINE
  5
1fb
100
AcDbEntity
  8
0
 62
1
100
AcDbPolyline
 90
2
 70
0
 10
1208.360720
 20
489.961380
 30
0.0
 10
1176.673200
 20
462.466380
 30
0.0
  0
SPLINE
  5
1fc
100
AcDbEntity
  8
0
 62
1
100
AcDbSpline
 70
8
 71
3
 72
8
 73
4
 74
0
 40
0
 40
0
 40
0
 40
0
 40
1
 40
1
 40
1
 40
1
 10
1167.215680
 20
513.166380
 30
0.0
 10
1167.215680
 20
513.166380
 30
0.0
 10
1180.210080
 20
534.273276
 30
0.0
 10
1194.938240
 20
558.373892
 30
0.0
  0
SPLINE
  5
1fd
100
AcDbEntity
  8
0
 62
1
100
AcDbSpline
 70
8
 71
3
 72
8
 73
4
 74
0
 40
0
 40
0
 40
0
 40
0
 40
1
 40
1
 40
1
 40
1
 10
1162.990720
 20
545.113876
 30
0.0
 10
1152.279280
 20
530.385732
 30
0.0
 10
1146.746800
 20
519.347036
 30
0.0
 10
1138.713200
 20
504.618892
 30
0.0
  0
SPLINE
  5
1fe
100
AcDbEntity
  8
0
 62
1
100
AcDbSpline
 70
8
 71
3
 72
8
 73
4
 74
0
 40
0
 40
0
 40
0
 40
0
 40
1
 40
1
 40
1
 40
1
 10
1122.073200
 20
499.126380
 30
0.0
 10
1087.930640
 20
487.745548
 30
0.0
 10
1081.318240
 20
474.978876
 30
0.0
 10
1081.318240
 20
474.978876
 30
0.0
  0
SPLINE
  5
1ff
100
AcDbEntity
  8
0
 62
1
100
AcDbSpline
 70
8
 71
3
 72
8
 73
4
 74
0
 40
0
 40
0
 40
0
 40
0
 40
1
 40
1
 40
1
 40
1
 10
1073.290720
 20
499.191380
 30
0.0
 10
1036.470320
 20
483.124292
 30
0.0
 10
1032.860720
 20
468.218892
 30
0.0
 10
1032.860720
 20
468.218892
 30
0.0
  0
LWPOLYLINE
  5
200
100
AcDbEntity
  8
0
 62
1
100
AcDbPolyline
 90
2
 70
0
 10
1161.658240
 20
465.293892
 30
0.0
 10
1133.253200
 20
470.428892
 30
0.0
  0
LWPOLYLINE
  5
201
100
AcDbEntity
  8
0
 62
1
100
AcDbPolyline
 90
2
 70
0
 10
1161.463200
 20
497.891388
 30
0.0
 10
1136.893200
 20
498.898876
 30
0.0
  0
LWPOLYLINE
  5
202
100
AcDbEntity
  8
0
 62
1
100
AcDbPolyline
 90
2
 70
0
 10
1352.075680
 20
370.588892
 30
0.0
 10
1326.920720
 20
347.871388
 30
0.0
  0
SPLINE
  5
203
100
AcDbEntity
  8
0
 62
1
100
AcDbSpline
 70
8
 71
3
 72
8
 73
4
 74
0
 40
0
 40
0
 40
0
 40
0
 40
1
 40
1
 40
1
 40
1
 10
1255.290720
 20
407.248892
 30
0.0
 10
1255.290720
 20
407.248892
 30
0.0
 10
1287.343520
 20
416.036924
 30
0.0
 10
1309.435680
 20
416.706380
 30
0.0
  0
SPLINE
  5
204
100
AcDbEntity
  8
0
 62
1
100
AcDbSpline
 70
8
 71
3
 72
8
 73
4
 74
0
 40
0
 40
0
 40
0
 40
0
 40
1
 40
1
 40
1
 40
1
 10
1559.003200
 20
289.111380
 30
0.0
 10
1554.986480
 20
271.705388
 30
0.0
 10
1518.085680
 20
279.491388
 30
0.0
 10
1518.085680
 20
279.491388
 30
0.0
  0
SPLINE
  5
205
100
AcDbEntity
  8
0
 62
1
100
AcDbSpline
 70
8
 71
3
 72
8
 73
4
 74
0
 40
0
 40
0
 40
0
 40
0
 40
1
 40
1
 40
1
 40
1
 10
1593.550720
 20
256.546380
 30
0.0
 10
1589.534000
 20
241.818220
 30
0.0
 10
1572.913200
 20
235.031388
 30
0.0
 10
1572.913200
 20
235.031388
 30
0.0
  0
LWPOLYLINE
  5
206
100
AcDbEntity
  8
0
 62
1
100
AcDbPolyline
 90
2
 70
0
 10
1330.788240
 20
384.921388
 30
0.0
 10
1353.863200
 20
395.906388
 30
0.0
  0
SPLINE
  5
207
100
AcDbEntity
  8
0
 62
1
100
AcDbSpline
 70
8
 71
3
 72
8
 73
4
 74
0
 40
0
 40
0
 40
0
 40
0
 40
1
 40
1
 40
1
 40
1
 10
1414.475680
 20
429.348876
 30
0.0
 10
1414.315440
 20
431.574500
 30
0.0
 10
1414.313200
 20
430.746380
 30
0.0
 10
1414.313200
 20
430.746380
 30
0.0
  0
LWPOLYLINE
  5
208
100
AcDbEntity
  8
0
 62
1
100
AcDbPolyline
 90
2
 70
0
 10
1301.635680
 20
404.648876
 30
0.0
 10
1251.358240
 20
400.618876
 30
0.0
  0
SPLINE
  5
209
100
AcDbEntity
  8
0
 62
7
100
AcDbSpline
 70
8
 71
3
 72
8
 73
4
 74
0
 40
0
 40
0
 40
0
 40
0
 40
1
 40
1
 40
1
 40
1
 10
1672.493200
 20
195.608892
 30
0.0
 10
1681.257440
 20
195.945212
 30
0.0
 10
1640.767440
 20
216.144916
 30
0.0
 10
1593.550720
 20
256.546380
 30
0.0
  0
SPLINE
  5
20a
100
AcDbEntity
  8
0
 62
7
100
AcDbSpline
 70
8
 71
3
 72
8
 73
4
 74
0
 40
0
 40
0
 40
0
 40
0
 40
1
 40
1
 40
1
 40
1
 10
1593.550720
 20
256.546380
 30
0.0
 10
1617.024560
 20
297.271892
 30
0.0
 10
1587.849440
 20
359.207356
 30
0.0
 10
1559.620720
 20
413.813892
 30
0.0
  0
SPLINE
  5
20b
100
AcDbEntity
  8
0
 62
7
100
AcDbSpline
 70
8
 71
3
 72
8
 73
4
 74
0
 40
0
 40
0
 40
0
 40
0
 40
1
 40
1
 40
1
 40
1
 10
1559.620720
 20
413.813892
 30
0.0
 10
1522.969040
 20
502.514620
 30
0.0
 10
1502.168000
 20
537.817852
 30
0.0
 10
1490.525680
 20
620.221380
 30
0.0
  0
SPLINE
  5
20c
100
AcDbEntity
  8
0
 62
7
100
AcDbSpline
 70
8
 71
3
 72
8
 73
4
 74
0
 40
0
 40
0
 40
0
 40
0
 40
1
 40
1
 40
1
 40
1
 10
1232.053200
 20
669.458892
 30
0.0
 10
1264.727920
 20
642.782436
 30
0.0
 10
1265.766400
 20
627.321004
 30
0.0
 10
1253.015760
 20
597.861388
 30
0.0
  0
SPLINE
  5
20d
100
AcDbEntity
  8
0
 62
7
100
AcDbSpline
 70
8
 71
3
 72
8
 73
4
 74
0
 40
0
 40
0
 40
0
 40
0
 40
1
 40
1
 40
1
 40
1
 10
1253.015760
 20
597.861388
 30
0.0
 10
1220.774400
 20
572.573748
 30
0.0
 10
1216.380560
 20
567.067508
 30
0.0
 10
1202.673200
 20
561.526388
 30
0.0
  0
SPLINE
  5
20e
100
AcDbEntity
  8
0
 62
7
100
AcDbSpline
 70
8
 71
3
 72
8
 73
4
 74
0
 40
0
 40
0
 40
0
 40
0
 40
1
 40
1
 40
1
 40
1
 10
1202.673200
 20
561.526388
 30
0.0
 10
1199.810000
 20
560.359884
 30
0.0
 10
1197.540960
 20
559.437148
 30
0.0
 10
1194.938240
 20
558.373892
 30
0.0
  0
SPLINE
  5
20f
100
AcDbEntity
  8
0
 62
7
100
AcDbSpline
 70
8
 71
3
 72
8
 73
4
 74
0
 40
0
 40
0
 40
0
 40
0
 40
1
 40
1
 40
1
 40
1
 10
1194.938240
 20
558.373892
 30
0.0
 10
1219.449200
 20
592.016916
 30
0.0
 10
1247.943360
 20
623.342364
 30
0.0
 10
1250.968240
 20
640.111380
 30
0.0
  0
SPLINE
  5
210
100
AcDbEntity
  8
0
 62
7
100
AcDbSpline
 70
8
 71
3
 72
8
 73
4
 74
0
 40
0
 40
0
 40
0
 40
0
 40
1
 40
1
 40
1
 40
1
 10
1250.968240
 20
640.111380
 30
0.0
 10
1258.343600
 20
680.998076
 30
0.0
 10
1172.380560
 20
641.430244
 30
0.0
 10
1189.185760
 20
641.898892
 30
0.0
  0
SPLINE
  5
211
100
AcDbEntity
  8
0
 62
7
100
AcDbSpline
 70
8
 71
3
 72
8
 73
4
 74
0
 40
0
 40
0
 40
0
 40
0
 40
1
 40
1
 40
1
 40
1
 10
1189.185760
 20
641.898892
 30
0.0
 10
1208.036960
 20
642.424588
 30
0.0
 10
1255.017040
 20
662.871540
 30
0.0
 10
1223.505760
 20
618.336388
 30
0.0
  0
SPLINE
  5
212
100
AcDbEntity
  8
0
 62
7
100
AcDbSpline
 70
8
 71
3
 72
8
 73
4
 74
0
 40
0
 40
0
 40
0
 40
0
 40
1
 40
1
 40
1
 40
1
 10
1223.505760
 20
618.336388
 30
0.0
 10
1209.773280
 20
598.928252
 30
0.0
 10
1184.491120
 20
573.160572
 30
0.0
 10
1162.990800
 20
545.113876
 30
0.0
  0
SPLINE
  5
213
100
AcDbEntity
  8
0
 62
7
100
AcDbSpline
 70
8
 71
3
 72
8
 73
4
 74
0
 40
0
 40
0
 40
0
 40
0
 40
1
 40
1
 40
1
 40
1
 10
1162.990800
 20
545.113876
 30
0.0
 10
1144.897520
 20
537.386908
 30
0.0
 10
1137.069440
 20
533.352116
 30
0.0
 10
1125.030800
 20
526.491388
 30
0.0
  0
SPLINE
  5
214
100
AcDbEntity
  8
0
 62
7
100
AcDbSpline
 70
8
 71
3
 72
8
 73
4
 74
0
 40
0
 40
0
 40
0
 40
0
 40
1
 40
1
 40
1
 40
1
 10
1125.030800
 20
526.491388
 30
0.0
 10
1115.678720
 20
521.161700
 30
0.0
 10
1093.630160
 20
510.686092
 30
0.0
 10
1073.290800
 20
499.191380
 30
0.0
  0
SPLINE
  5
215
100
AcDbEntity
  8
0
 62
7
100
AcDbSpline
 70
8
 71
3
 72
8
 73
4
 74
0
 40
0
 40
0
 40
0
 40
0
 40
1
 40
1
 40
1
 40
1
 10
1073.290800
 20
499.191380
 30
0.0
 10
1051.293520
 20
498.063908
 30
0.0
 10
1022.184960
 20
495.096252
 30
0.0
 10
1005.690800
 20
480.146388
 30
0.0
  0
SPLINE
  5
216
100
AcDbEntity
  8
0
 62
7
100
AcDbSpline
 70
8
 71
3
 72
8
 73
4
 74
0
 40
0
 40
0
 40
0
 40
0
 40
1
 40
1
 40
1
 40
1
 10
1005.690800
 20
480.146388
 30
0.0
 10
985.294000
 20
461.659300
 30
0.0
 10
999.001120
 20
437.030612
 30
0.0
 10
1012.255760
 20
419.988876
 30
0.0
  0
SPLINE
  5
217
100
AcDbEntity
  8
0
 62
7
100
AcDbSpline
 70
8
 71
3
 72
8
 73
4
 74
0
 40
0
 40
0
 40
0
 40
0
 40
1
 40
1
 40
1
 40
1
 10
1012.255760
 20
419.988876
 30
0.0
 10
1025.510480
 20
402.947180
 30
0.0
 10
1005.010000
 20
461.187324
 30
0.0
 10
1016.448240
 20
464.253892
 30
0.0
  0
SPLINE
  5
218
100
AcDbEntity
  8
0
 62
7
100
AcDbSpline
 70
8
 71
3
 72
8
 73
4
 74
0
 40
0
 40
0
 40
0
 40
0
 40
1
 40
1
 40
1
 40
1
 10
1016.448240
 20
464.253892
 30
0.0
 10
1021.535360
 20
465.617708
 30
0.0
 10
1027.050240
 20
466.975068
 30
0.0
 10
1032.860800
 20
468.218892
 30
0.0
  0
SPLINE
  5
219
100
AcDbEntity
  8
0
 62
7
100
AcDbSpline
 70
8
 71
3
 72
8
 73
4
 74
0
 40
0
 40
0
 40
0
 40
0
 40
1
 40
1
 40
1
 40
1
 10
1032.860800
 20
468.218892
 30
0.0
 10
1031.137200
 20
464.883820
 30
0.0
 10
1031.079280
 20
461.862940
 30
0.0
 10
1033.218240
 20
459.281388
 30
0.0
  0
SPLINE
  5
21a
100
AcDbEntity
  8
0
 62
7
100
AcDbSpline
 70
8
 71
3
 72
8
 73
4
 74
0
 40
0
 40
0
 40
0
 40
0
 40
1
 40
1
 40
1
 40
1
 10
1033.218240
 20
459.281388
 30
0.0
 10
1044.323760
 20
445.878524
 30
0.0
 10
1152.493200
 20
405.298876
 30
0.0
 10
1152.493200
 20
405.298876
 30
0.0
  0
SPLINE
  5
21b
100
AcDbEntity
  8
0
 62
7
100
AcDbSpline
 70
8
 71
3
 72
8
 73
4
 74
0
 40
0
 40
0
 40
0
 40
0
 40
1
 40
1
 40
1
 40
1
 10
1152.493200
 20
405.298876
 30
0.0
 10
1152.493200
 20
405.298876
 30
0.0
 10
1236.000880
 20
376.299716
 30
0.0
 10
1256.168240
 20
361.261380
 30
0.0
  0
SPLINE
  5
21c
100
AcDbEntity
  8
0
 62
7
100
AcDbSpline
 70
8
 71
3
 72
8
 73
4
 74
0
 40
0
 40
0
 40
0
 40
0
 40
1
 40
1
 40
1
 40
1
 10
1256.168240
 20
361.261380
 30
0.0
 10
1264.651920
 20
354.935268
 30
0.0
 10
1228.709200
 20
386.048572
 30
0.0
 10
1187.528240
 20
410.986380
 30
0.0
  0
SPLINE
  5
21d
100
AcDbEntity
  8
0
 62
7
100
AcDbSpline
 70
8
 71
3
 72
8
 73
4
 74
0
 40
0
 40
0
 40
0
 40
0
 40
1
 40
1
 40
1
 40
1
 10
1187.528240
 20
410.986380
 30
0.0
 10
1135.364000
 20
442.575620
 30
0.0
 10
1090.090880
 20
454.335980
 30
0.0
 10
1081.480720
 20
474.426388
 30
0.0
  0
SPLINE
  5
21e
100
AcDbEntity
  8
0
 62
7
100
AcDbSpline
 70
8
 71
3
 72
8
 73
4
 74
0
 40
0
 40
0
 40
0
 40
0
 40
1
 40
1
 40
1
 40
1
 10
1081.480720
 20
474.426388
 30
0.0
 10
1081.401520
 20
474.610540
 30
0.0
 10
1081.367840
 20
474.792212
 30
0.0
 10
1081.318240
 20
474.978876
 30
0.0
  0
SPLINE
  5
21f
100
AcDbEntity
  8
0
 62
7
100
AcDbSpline
 70
8
 71
3
 72
8
 73
4
 74
0
 40
0
 40
0
 40
0
 40
0
 40
1
 40
1
 40
1
 40
1
 10
1081.318240
 20
474.978876
 30
0.0
 10
1091.745760
 20
475.556852
 30
0.0
 10
1101.633840
 20
475.407276
 30
0.0
 10
1110.113200
 20
474.166380
 30
0.0
  0
SPLINE
  5
220
100
AcDbEntity
  8
0
 62
7
100
AcDbSpline
 70
8
 71
3
 72
8
 73
4
 74
0
 40
0
 40
0
 40
0
 40
0
 40
1
 40
1
 40
1
 40
1
 10
1110.113200
 20
474.166380
 30
0.0
 10
1116.985120
 20
473.160740
 30
0.0
 10
1124.855440
 20
471.883276
 30
0.0
 10
1133.253200
 20
470.428892
 30
0.0
  0
SPLINE
  5
221
100
AcDbEntity
  8
0
 62
7
100
AcDbSpline
 70
8
 71
3
 72
8
 73
4
 74
0
 40
0
 40
0
 40
0
 40
0
 40
1
 40
1
 40
1
 40
1
 10
1133.253200
 20
470.428892
 30
0.0
 10
1133.465120
 20
467.814820
 30
0.0
 10
1133.884960
 20
465.340292
 30
0.0
 10
1134.520720
 20
463.051380
 30
0.0
  0
SPLINE
  5
222
100
AcDbEntity
  8
0
 62
7
100
AcDbSpline
 70
8
 71
3
 72
8
 73
4
 74
0
 40
0
 40
0
 40
0
 40
0
 40
1
 40
1
 40
1
 40
1
 10
1134.520720
 20
463.051380
 30
0.0
 10
1139.254560
 20
446.009668
 30
0.0
 10
1143.971920
 20
425.180372
 30
0.0
 10
1174.268240
 20
427.073876
 30
0.0
  0
SPLINE
  5
223
100
AcDbEntity
  8
0
 62
7
100
AcDbSpline
 70
8
 71
3
 72
8
 73
4
 74
0
 40
0
 40
0
 40
0
 40
0
 40
1
 40
1
 40
1
 40
1
 10
1174.268240
 20
427.073876
 30
0.0
 10
1195.710720
 20
428.414044
 30
0.0
 10
1214.272320
 20
444.429548
 30
0.0
 10
1223.310720
 20
453.691380
 30
0.0
  0
SPLINE
  5
224
100
AcDbEntity
  8
0
 62
7
100
AcDbSpline
 70
8
 71
3
 72
8
 73
4
 74
0
 40
0
 40
0
 40
0
 40
0
 40
1
 40
1
 40
1
 40
1
 10
1223.310720
 20
453.691380
 30
0.0
 10
1296.277520
 20
434.003692
 30
0.0
 10
1300.671360
 20
476.173916
 30
0.0
 10
1348.175680
 20
602.606388
 30
0.0
  0
SPLINE
  5
225
100
AcDbEntity
  8
0
 62
7
100
AcDbSpline
 70
8
 71
3
 72
8
 73
4
 74
0
 40
0
 40
0
 40
0
 40
0
 40
1
 40
1
 40
1
 40
1
 10
1348.175680
 20
602.606388
 30
0.0
 10
1339.448640
 20
569.398044
 30
0.0
 10
1342.507200
 20
526.522708
 30
0.0
 10
1326.108240
 20
497.338892
 30
0.0
  0
SPLINE
  5
226
100
AcDbEntity
  8
0
 62
7
100
AcDbSpline
 70
8
 71
3
 72
8
 73
4
 74
0
 40
0
 40
0
 40
0
 40
0
 40
1
 40
1
 40
1
 40
1
 10
1326.108240
 20
497.338892
 30
0.0
 10
1297.499280
 20
449.601612
 30
0.0
 10
1283.341360
 20
445.381620
 30
0.0
 10
1276.968240
 20
435.523892
 30
0.0
  0
SPLINE
  5
227
100
AcDbEntity
  8
0
 62
7
100
AcDbSpline
 70
8
 71
3
 72
8
 73
4
 74
0
 40
0
 40
0
 40
0
 40
0
 40
1
 40
1
 40
1
 40
1
 10
1276.968240
 20
435.523892
 30
0.0
 10
1270.332240
 20
425.259612
 30
0.0
 10
1261.813440
 20
417.007228
 30
0.0
 10
1255.290720
 20
407.248892
 30
0.0
  0
SPLINE
  5
228
100
AcDbEntity
  8
0
 62
7
100
AcDbSpline
 70
8
 71
3
 72
8
 73
4
 74
0
 40
0
 40
0
 40
0
 40
0
 40
1
 40
1
 40
1
 40
1
 10
1255.290720
 20
407.248892
 30
0.0
 10
1229.816400
 20
401.225812
 30
0.0
 10
1210.019920
 20
394.801100
 30
0.0
 10
1213.333200
 20
395.028892
 30
0.0
  0
SPLINE
  5
229
100
AcDbEntity
  8
0
 62
7
100
AcDbSpline
 70
8
 71
3
 72
8
 73
4
 74
0
 40
0
 40
0
 40
0
 40
0
 40
1
 40
1
 40
1
 40
1
 10
1213.333200
 20
395.028892
 30
0.0
 10
1223.819520
 20
395.749836
 30
0.0
 10
1237.301920
 20
398.274300
 30
0.0
 10
1251.358240
 20
400.618876
 30
0.0
  0
SPLINE
  5
22a
100
AcDbEntity
  8
0
 62
7
100
AcDbSpline
 70
8
 71
3
 72
8
 73
4
 74
0
 40
0
 40
0
 40
0
 40
0
 40
1
 40
1
 40
1
 40
1
 10
1251.358240
 20
400.618876
 30
0.0
 10
1248.195360
 20
394.484052
 30
0.0
 10
1245.981840
 20
387.586660
 30
0.0
 10
1245.508240
 20
379.233892
 30
0.0
  0
SPLINE
  5
22b
100
AcDbEntity
  8
0
 62
7
100
AcDbSpline
 70
8
 71
3
 72
8
 73
4
 74
0
 40
0
 40
0
 40
0
 40
0
 40
1
 40
1
 40
1
 40
1
 10
1245.508240
 20
379.233892
 30
0.0
 10
1244.361200
 20
359.004788
 30
0.0
 10
1297.285680
 20
343.131332
 30
0.0
 10
1310.735680
 20
339.453892
 30
0.0
  0
SPLINE
  5
22c
100
AcDbEntity
  8
0
 62
7
100
AcDbSpline
 70
8
 71
3
 72
8
 73
4
 74
0
 40
0
 40
0
 40
0
 40
0
 40
1
 40
1
 40
1
 40
1
 10
1310.735680
 20
339.453892
 30
0.0
 10
1314.084160
 20
338.538380
 30
0.0
 10
1319.397760
 20
341.698900
 30
0.0
 10
1326.920720
 20
347.871388
 30
0.0
  0
SPLINE
  5
22d
100
AcDbEntity
  8
0
 62
7
100
AcDbSpline
 70
8
 71
3
 72
8
 73
4
 74
0
 40
0
 40
0
 40
0
 40
0
 40
1
 40
1
 40
1
 40
1
 10
1326.920720
 20
347.871388
 30
0.0
 10
1324.192240
 20
321.878868
 30
0.0
 10
1385.836720
 20
307.114996
 30
0.0
 10
1401.508240
 20
309.196380
 30
0.0
  0
SPLINE
  5
22e
100
AcDbEntity
  8
0
 62
7
100
AcDbSpline
 70
8
 71
3
 72
8
 73
4
 74
0
 40
0
 40
0
 40
0
 40
0
 40
1
 40
1
 40
1
 40
1
 10
1401.508240
 20
309.196380
 30
0.0
 10
1427.506880
 20
312.649324
 30
0.0
 10
1427.670720
 20
334.787756
 30
0.0
 10
1427.670720
 20
346.148876
 30
0.0
  0
SPLINE
  5
22f
100
AcDbEntity
  8
0
 62
7
100
AcDbSpline
 70
8
 71
3
 72
8
 73
4
 74
0
 40
0
 40
0
 40
0
 40
0
 40
1
 40
1
 40
1
 40
1
 10
1427.670720
 20
346.148876
 30
0.0
 10
1427.670720
 20
366.889124
 30
0.0
 10
1419.415280
 20
386.533204
 30
0.0
 10
1414.475680
 20
429.348876
 30
0.0
  0
SPLINE
  5
230
100
AcDbEntity
  8
0
 62
7
100
AcDbSpline
 70
8
 71
3
 72
8
 73
4
 74
0
 40
0
 40
0
 40
0
 40
0
 40
1
 40
1
 40
1
 40
1
 10
1414.475680
 20
429.348876
 30
0.0
 10
1415.438400
 20
430.267796
 30
0.0
 10
1419.448240
 20
434.093876
 30
0.0
 10
1419.448240
 20
434.093876
 30
0.0
  0
SPLINE
  5
231
100
AcDbEntity
  8
0
 62
7
100
AcDbSpline
 70
8
 71
3
 72
8
 73
4
 74
0
 40
0
 40
0
 40
0
 40
0
 40
1
 40
1
 40
1
 40
1
 10
1419.448240
 20
434.093876
 30
0.0
 10
1419.448240
 20
434.093876
 30
0.0
 10
1417.297600
 20
432.675348
 30
0.0
 10
1414.313200
 20
430.746380
 30
0.0
  0
SPLINE
  5
232
100
AcDbEntity
  8
0
 62
7
100
AcDbSpline
 70
8
 71
3
 72
8
 73
4
 74
0
 40
0
 40
0
 40
0
 40
0
 40
1
 40
1
 40
1
 40
1
 10
1414.313200
 20
430.746380
 30
0.0
 10
1414.166480
 20
432.052332
 30
0.0
 10
1413.998320
 20
433.297044
 30
0.0
 10
1413.858240
 20
434.646388
 30
0.0
  0
SPLINE
  5
233
100
AcDbEntity
  8
0
 62
7
100
AcDbSpline
 70
8
 71
3
 72
8
 73
4
 74
0
 40
0
 40
0
 40
0
 40
0
 40
1
 40
1
 40
1
 40
1
 10
1413.858240
 20
434.646388
 30
0.0
 10
1412.742640
 20
445.393116
 30
0.0
 10
1415.636880
 20
461.159452
 30
0.0
 10
1419.968240
 20
477.351388
 30
0.0
  0
SPLINE
  5
234
100
AcDbEntity
  8
0
 62
7
100
AcDbSpline
 70
8
 71
3
 72
8
 73
4
 74
0
 40
0
 40
0
 40
0
 40
0
 40
1
 40
1
 40
1
 40
1
 10
1419.968240
 20
477.351388
 30
0.0
 10
1422.120960
 20
442.750580
 30
0.0
 10
1431.822480
 20
402.341372
 30
0.0
 10
1443.140720
 20
382.581388
 30
0.0
  0
SPLINE
  5
235
100
AcDbEntity
  8
0
 62
7
100
AcDbSpline
 70
8
 71
3
 72
8
 73
4
 74
0
 40
0
 40
0
 40
0
 40
0
 40
1
 40
1
 40
1
 40
1
 10
1443.140720
 20
382.581388
 30
0.0
 10
1451.833920
 20
367.404460
 30
0.0
 10
1461.969680
 20
350.472932
 30
0.0
 10
1474.015680
 20
333.116380
 30
0.0
  0
SPLINE
  5
236
100
AcDbEntity
  8
0
 62
7
100
AcDbSpline
 70
8
 71
3
 72
8
 73
4
 74
0
 40
0
 40
0
 40
0
 40
0
 40
1
 40
1
 40
1
 40
1
 10
1474.015680
 20
333.116380
 30
0.0
 10
1466.621280
 20
333.775972
 30
0.0
 10
1433.133920
 20
326.142164
 30
0.0
 10
1415.223200
 20
312.803876
 30
0.0
  0
SPLINE
  5
237
100
AcDbEntity
  8
0
 62
7
100
AcDbSpline
 70
8
 71
3
 72
8
 73
4
 74
0
 40
0
 40
0
 40
0
 40
0
 40
1
 40
1
 40
1
 40
1
 10
1415.223200
 20
312.803876
 30
0.0
 10
1399.687600
 20
301.234380
 30
0.0
 10
1447.684640
 20
280.207980
 30
0.0
 10
1467.093200
 20
272.633876
 30
0.0
  0
SPLINE
  5
238
100
AcDbEntity
  8
0
 62
7
100
AcDbSpline
 70
8
 71
3
 72
8
 73
4
 74
0
 40
0
 40
0
 40
0
 40
0
 40
1
 40
1
 40
1
 40
1
 10
1467.093200
 20
272.633876
 30
0.0
 10
1505.910480
 20
257.485700
 30
0.0
 10
1522.691120
 20
247.189580
 30
0.0
 10
1568.135680
 20
232.041388
 30
0.0
  0
SPLINE
  5
239
100
AcDbEntity
  8
0
 62
7
100
AcDbSpline
 70
8
 71
3
 72
8
 73
4
 74
0
 40
0
 40
0
 40
0
 40
0
 40
1
 40
1
 40
1
 40
1
 10
1568.135680
 20
232.041388
 30
0.0
 10
1569.804640
 20
233.008260
 30
0.0
 10
1571.383280
 20
234.005292
 30
0.0
 10
1572.913200
 20
235.031388
 30
0.0
  0
SPLINE
  5
23a
100
AcDbEntity
  8
0
 62
7
100
AcDbSpline
 70
8
 71
3
 72
8
 73
4
 74
0
 40
0
 40
0
 40
0
 40
0
 40
1
 40
1
 40
1
 40
1
 10
1572.913200
 20
235.031388
 30
0.0
 10
1599.848160
 20
217.958892
 30
0.0
 10
1631.374640
 20
204.167292
 30
0.0
 10
1668.495680
 20
196.063892
 30
0.0
  0
SPLINE
  5
23b
100
AcDbEntity
  8
0
 62
7
100
AcDbSpline
 70
8
 71
3
 72
8
 73
4
 74
0
 40
0
 40
0
 40
0
 40
0
 40
1
 40
1
 40
1
 40
1
 10
1668.495680
 20
196.063892
 30
0.0
 10
1670.321520
 20
195.720284
 30
0.0
 10
1671.640000
 20
195.576140
 30
0.0
 10
1672.493200
 20
195.608892
 30
0.0
  0
LWPOLYLINE
  5
23c
100
AcDbEntity
  8
0
 62
1
100
AcDbPolyline
 90
2
 70
0
 10
1375.020720
 20
407.183876
 30
0.0
 10
1377.848240
 20
394.703876
 30
0.0
  0
SPLINE
  5
23d
100
AcDbEntity
  8
0
 62
7
100
AcDbSpline
 70
8
 71
3
 72
8
 73
4
 74
0
 40
0
 40
0
 40
0
 40
0
 40
1
 40
1
 40
1
 40
1
 10
1518.085680
 20
279.491388
 30
0.0
 10
1508.259680
 20
281.557212
 30
0.0
 10
1498.802560
 20
284.679932
 30
0.0
 10
1492.378240
 20
286.966380
 30
0.0
  0
SPLINE
  5
23e
100
AcDbEntity
  8
0
 62
7
100
AcDbSpline
 70
8
 71
3
 72
8
 73
4
 74
0
 40
0
 40
0
 40
0
 40
0
 40
1
 40
1
 40
1
 40
1
 10
1492.378240
 20
286.966380
 30
0.0
 10
1468.400320
 20
295.500388
 30
0.0
 10
1394.876480
 20
304.877516
 30
0.0
 10
1456.595680
 20
324.373892
 30
0.0
  0
SPLINE
  5
23f
100
AcDbEntity
  8
0
 62
7
100
AcDbSpline
 70
8
 71
3
 72
8
 73
4
 74
0
 40
0
 40
0
 40
0
 40
0
 40
1
 40
1
 40
1
 40
1
 10
1456.595680
 20
324.373892
 30
0.0
 10
1467.795680
 20
327.911796
 30
0.0
 10
1473.380160
 20
330.326500
 30
0.0
 10
1474.990720
 20
331.718876
 30
0.0
  0
SPLINE
  5
240
100
AcDbEntity
  8
0
 62
7
100
AcDbSpline
 70
8
 71
3
 72
8
 73
4
 74
0
 40
0
 40
0
 40
0
 40
0
 40
1
 40
1
 40
1
 40
1
 10
1474.990720
 20
331.718876
 30
0.0
 10
1487.193600
 20
314.266380
 30
0.0
 10
1501.358320
 20
296.415172
 30
0.0
 10
1518.085680
 20
279.491388
 30
0.0
  0
SPLINE
  5
241
100
AcDbEntity
  8
0
 62
7
100
AcDbSpline
 70
8
 71
3
 72
8
 73
4
 74
0
 40
0
 40
0
 40
0
 40
0
 40
1
 40
1
 40
1
 40
1
 10
1559.003200
 20
289.111380
 30
0.0
 10
1523.495280
 20
326.174940
 30
0.0
 10
1489.878480
 20
374.325132
 30
0.0
 10
1475.348240
 20
433.703892
 30
0.0
  0
SPLINE
  5
242
100
AcDbEntity
  8
0
 62
7
100
AcDbSpline
 70
8
 71
3
 72
8
 73
4
 74
0
 40
0
 40
0
 40
0
 40
0
 40
1
 40
1
 40
1
 40
1
 10
1475.348240
 20
433.703892
 30
0.0
 10
1475.348240
 20
433.703892
 30
0.0
 10
1466.165680
 20
466.526068
 30
0.0
 10
1463.225680
 20
515.018892
 30
0.0
  0
SPLINE
  5
243
100
AcDbEntity
  8
0
 62
7
100
AcDbSpline
 70
8
 71
3
 72
8
 73
4
 74
0
 40
0
 40
0
 40
0
 40
0
 40
1
 40
1
 40
1
 40
1
 10
1463.225680
 20
515.018892
 30
0.0
 10
1466.147600
 20
502.647452
 30
0.0
 10
1469.504080
 20
489.198692
 30
0.0
 10
1472.488240
 20
480.081388
 30
0.0
  0
SPLINE
  5
244
100
AcDbEntity
  8
0
 62
7
100
AcDbSpline
 70
8
 71
3
 72
8
 73
4
 74
0
 40
0
 40
0
 40
0
 40
0
 40
1
 40
1
 40
1
 40
1
 10
1472.488240
 20
480.081388
 30
0.0
 10
1493.473840
 20
419.037516
 30
0.0
 10
1565.692960
 20
316.948724
 30
0.0
 10
1559.003200
 20
289.111380
 30
0.0
  0
LWPOLYLINE
  5
245
100
AcDbEntity
  8
0
 62
7
100
AcDbPolyline
 90
2
 70
0
 10
1672.493200
 20
195.608892
 30
0.0
 10
1672.493200
 20
195.608892
 30
0.0
  0
SPLINE
  5
246
100
AcDbEntity
  8
0
 62
7
100
AcDbSpline
 70
8
 71
3
 72
8
 73
4
 74
0
 40
0
 40
0
 40
0
 40
0
 40
1
 40
1
 40
1
 40
1
 10
1378.758240
 20
340.883876
 30
0.0
 10
1372.640000
 20
340.906756
 30
0.0
 10
1365.168800
 20
344.638412
 30
0.0
 10
1359.843200
 20
349.431380
 30
0.0
  0
SPLINE
  5
247
100
AcDbEntity
  8
0
 62
7
100
AcDbSpline
 70
8
 71
3
 72
8
 73
4
 74
0
 40
0
 40
0
 40
0
 40
0
 40
1
 40
1
 40
1
 40
1
 10
1359.843200
 20
349.431380
 30
0.0
 10
1353.440160
 20
355.194100
 30
0.0
 10
1351.964960
 20
362.677476
 30
0.0
 10
1352.075680
 20
370.588892
 30
0.0
  0
SPLINE
  5
248
100
AcDbEntity
  8
0
 62
7
100
AcDbSpline
 70
8
 71
3
 72
8
 73
4
 74
0
 40
0
 40
0
 40
0
 40
0
 40
1
 40
1
 40
1
 40
1
 10
1352.075680
 20
370.588892
 30
0.0
 10
1354.703520
 20
373.043372
 30
0.0
 10
1356.960240
 20
375.159356
 30
0.0
 10
1359.843200
 20
377.836388
 30
0.0
  0
SPLINE
  5
249
100
AcDbEntity
  8
0
 62
7
100
AcDbSpline
 70
8
 71
3
 72
8
 73
4
 74
0
 40
0
 40
0
 40
0
 40
0
 40
1
 40
1
 40
1
 40
1
 10
1359.843200
 20
377.836388
 30
0.0
 10
1365.672000
 20
383.248812
 30
0.0
 10
1371.804880
 20
389.023652
 30
0.0
 10
1377.848240
 20
394.703876
 30
0.0
  0
SPLINE
  5
24a
100
AcDbEntity
  8
0
 62
7
100
AcDbSpline
 70
8
 71
3
 72
8
 73
4
 74
0
 40
0
 40
0
 40
0
 40
0
 40
1
 40
1
 40
1
 40
1
 10
1377.848240
 20
394.703876
 30
0.0
 10
1378.910080
 20
391.050196
 30
0.0
 10
1380.163040
 20
387.490844
 30
0.0
 10
1381.618240
 20
384.011380
 30
0.0
  0
SPLINE
  5
24b
100
AcDbEntity
  8
0
 62
7
100
AcDbSpline
 70
8
 71
3
 72
8
 73
4
 74
0
 40
0
 40
0
 40
0
 40
0
 40
1
 40
1
 40
1
 40
1
 10
1381.618240
 20
384.011380
 30
0.0
 10
1395.365760
 20
351.138652
 30
0.0
 10
1388.955200
 20
340.845684
 30
0.0
 10
1378.758240
 20
340.883876
 30
0.0
  0
LWPOLYLINE
  5
24c
100
AcDbEntity
  8
0
 62
7
100
AcDbPolyline
 90
2
 70
0
 10
1518.085680
 20
279.491388
 30
0.0
 10
1518.085680
 20
279.491388
 30
0.0
  0
SPLINE
  5
24d
100
AcDbEntity
  8
0
 62
7
100
AcDbSpline
 70
8
 71
3
 72
8
 73
4
 74
0
 40
0
 40
0
 40
0
 40
0
 40
1
 40
1
 40
1
 40
1
 10
1302.545680
 20
374.813876
 30
0.0
 10
1292.964880
 20
375.305740
 30
0.0
 10
1293.723920
 20
389.510076
 30
0.0
 10
1301.635680
 20
404.648876
 30
0.0
  0
SPLINE
  5
24e
100
AcDbEntity
  8
0
 62
7
100
AcDbSpline
 70
8
 71
3
 72
8
 73
4
 74
0
 40
0
 40
0
 40
0
 40
0
 40
1
 40
1
 40
1
 40
1
 10
1301.635680
 20
404.648876
 30
0.0
 10
1316.131520
 20
403.200772
 30
0.0
 10
1327.233600
 20
397.806540
 30
0.0
 10
1330.788240
 20
384.921388
 30
0.0
  0
SPLINE
  5
24f
100
AcDbEntity
  8
0
 62
7
100
AcDbSpline
 70
8
 71
3
 72
8
 73
4
 74
0
 40
0
 40
0
 40
0
 40
0
 40
1
 40
1
 40
1
 40
1
 10
1330.788240
 20
384.921388
 30
0.0
 10
1323.426880
 20
381.654524
 30
0.0
 10
1316.024160
 20
378.590388
 30
0.0
 10
1308.720720
 20
375.951388
 30
0.0
  0
SPLINE
  5
250
100
AcDbEntity
  8
0
 62
7
100
AcDbSpline
 70
8
 71
3
 72
8
 73
4
 74
0
 40
0
 40
0
 40
0
 40
0
 40
1
 40
1
 40
1
 40
1
 10
1308.720720
 20
375.951388
 30
0.0
 10
1306.315680
 20
375.082356
 30
0.0
 10
1304.265600
 20
374.725596
 30
0.0
 10
1302.545680
 20
374.813876
 30
0.0
  0
LWPOLYLINE
  5
251
100
AcDbEntity
  8
0
 62
7
100
AcDbPolyline
 90
2
 70
0
 10
1559.003200
 20
289.111380
 30
0.0
 10
1559.003200
 20
289.111380
 30
0.0
  0
SPLINE
  5
252
100
AcDbEntity
  8
0
 62
7
100
AcDbSpline
 70
8
 71
3
 72
8
 73
4
 74
0
 40
0
 40
0
 40
0
 40
0
 40
1
 40
1
 40
1
 40
1
 10
1353.863200
 20
395.906388
 30
0.0
 10
1353.650240
 20
402.461788
 30
0.0
 10
1351.922720
 20
408.310628
 30
0.0
 10
1346.355680
 20
412.513892
 30
0.0
  0
SPLINE
  5
253
100
AcDbEntity
  8
0
 62
7
100
AcDbSpline
 70
8
 71
3
 72
8
 73
4
 74
0
 40
0
 40
0
 40
0
 40
0
 40
1
 40
1
 40
1
 40
1
 10
1346.355680
 20
412.513892
 30
0.0
 10
1339.825200
 20
417.444668
 30
0.0
 10
1325.916480
 20
418.161548
 30
0.0
 10
1309.435680
 20
416.706380
 30
0.0
  0
SPLINE
  5
254
100
AcDbEntity
  8
0
 62
7
100
AcDbSpline
 70
8
 71
3
 72
8
 73
4
 74
0
 40
0
 40
0
 40
0
 40
0
 40
1
 40
1
 40
1
 40
1
 10
1309.435680
 20
416.706380
 30
0.0
 10
1328.216960
 20
441.066644
 30
0.0
 10
1343.800800
 20
456.782228
 30
0.0
 10
1356.983200
 20
479.528876
 30
0.0
  0
SPLINE
  5
255
100
AcDbEntity
  8
0
 62
7
100
AcDbSpline
 70
8
 71
3
 72
8
 73
4
 74
0
 40
0
 40
0
 40
0
 40
0
 40
1
 40
1
 40
1
 40
1
 10
1356.983200
 20
479.528876
 30
0.0
 10
1379.398640
 20
520.786708
 30
0.0
 10
1386.331920
 20
557.601964
 30
0.0
 10
1400.175680
 20
601.436388
 30
0.0
  0
SPLINE
  5
256
100
AcDbEntity
  8
0
 62
7
100
AcDbSpline
 70
8
 71
3
 72
8
 73
4
 74
0
 40
0
 40
0
 40
0
 40
0
 40
1
 40
1
 40
1
 40
1
 10
1400.175680
 20
601.436388
 30
0.0
 10
1390.551600
 20
543.376892
 30
0.0
 10
1388.494720
 20
530.403004
 30
0.0
 10
1375.670720
 20
482.876380
 30
0.0
  0
SPLINE
  5
257
100
AcDbEntity
  8
0
 62
7
100
AcDbSpline
 70
8
 71
3
 72
8
 73
4
 74
0
 40
0
 40
0
 40
0
 40
0
 40
1
 40
1
 40
1
 40
1
 10
1375.670720
 20
482.876380
 30
0.0
 10
1368.431040
 20
455.796884
 30
0.0
 10
1371.154480
 20
430.113676
 30
0.0
 10
1375.020720
 20
407.183876
 30
0.0
  0
SPLINE
  5
258
100
AcDbEntity
  8
0
 62
7
100
AcDbSpline
 70
8
 71
3
 72
8
 73
4
 74
0
 40
0
 40
0
 40
0
 40
0
 40
1
 40
1
 40
1
 40
1
 10
1375.020720
 20
407.183876
 30
0.0
 10
1368.370400
 20
403.476884
 30
0.0
 10
1361.252000
 20
399.664028
 30
0.0
 10
1353.863200
 20
395.906388
 30
0.0
  0
LWPOLYLINE
  5
259
100
AcDbEntity
  8
0
 62
7
100
AcDbPolyline
 90
2
 70
0
 10
1378.758240
 20
340.883876
 30
0.0
 10
1378.758240
 20
340.883876
 30
0.0
  0
SPLINE
  5
25a
100
AcDbEntity
  8
0
 62
7
100
AcDbSpline
 70
8
 71
3
 72
8
 73
4
 74
0
 40
0
 40
0
 40
0
 40
0
 40
1
 40
1
 40
1
 40
1
 10
1169.068240
 20
460.386388
 30
0.0
 10
1165.834240
 20
460.379988
 30
0.0
 10
1163.291280
 20
461.890196
 30
0.0
 10
1161.658240
 20
465.293892
 30
0.0
  0
SPLINE
  5
25b
100
AcDbEntity
  8
0
 62
7
100
AcDbSpline
 70
8
 71
3
 72
8
 73
4
 74
0
 40
0
 40
0
 40
0
 40
0
 40
1
 40
1
 40
1
 40
1
 10
1161.658240
 20
465.293892
 30
0.0
 10
1166.658880
 20
464.363988
 30
0.0
 10
1171.667920
 20
463.411996
 30
0.0
 10
1176.673200
 20
462.466380
 30
0.0
  0
SPLINE
  5
25c
100
AcDbEntity
  8
0
 62
7
100
AcDbSpline
 70
8
 71
3
 72
8
 73
4
 74
0
 40
0
 40
0
 40
0
 40
0
 40
1
 40
1
 40
1
 40
1
 10
1176.673200
 20
462.466380
 30
0.0
 10
1173.867200
 20
461.126988
 30
0.0
 10
1171.306720
 20
460.390540
 30
0.0
 10
1169.068240
 20
460.386388
 30
0.0
  0
LWPOLYLINE
  5
25d
100
AcDbEntity
  8
0
 62
7
100
AcDbPolyline
 90
2
 70
0
 10
1302.545680
 20
374.813876
 30
0.0
 10
1302.545680
 20
374.813876
 30
0.0
  0
LWPOLYLINE
  5
25e
100
AcDbEntity
  8
0
 62
7
100
AcDbPolyline
 90
2
 70
0
 10
1353.863200
 20
395.906388
 30
0.0
 10
1353.863200
 20
395.906388
 30
0.0
  0
SPLINE
  5
25f
100
AcDbEntity
  8
0
 62
7
100
AcDbSpline
 70
8
 71
3
 72
8
 73
4
 74
0
 40
0
 40
0
 40
0
 40
0
 40
1
 40
1
 40
1
 40
1
 10
1257.598240
 20
494.283876
 30
0.0
 10
1266.609600
 20
510.167500
 30
0.0
 10
1276.571280
 20
524.685620
 30
0.0
 10
1286.523200
 20
539.166388
 30
0.0
  0
SPLINE
  5
260
100
AcDbEntity
  8
0
 62
7
100
AcDbSpline
 70
8
 71
3
 72
8
 73
4
 74
0
 40
0
 40
0
 40
0
 40
0
 40
1
 40
1
 40
1
 40
1
 10
1286.523200
 20
539.166388
 30
0.0
 10
1280.251840
 20
520.236516
 30
0.0
 10
1270.370960
 20
493.654804
 30
0.0
 10
1262.895680
 20
488.693892
 30
0.0
  0
SPLINE
  5
261
100
AcDbEntity
  8
0
 62
7
100
AcDbSpline
 70
8
 71
3
 72
8
 73
4
 74
0
 40
0
 40
0
 40
0
 40
0
 40
1
 40
1
 40
1
 40
1
 10
1262.895680
 20
488.693892
 30
0.0
 10
1260.952160
 20
487.404028
 30
0.0
 10
1256.655360
 20
486.634724
 30
0.0
 10
1250.935680
 20
486.321380
 30
0.0
  0
LWPOLYLINE
  5
262
100
AcDbEntity
  8
0
 62
7
100
AcDbPolyline
 90
2
 70
0
 10
1169.068240
 20
460.386388
 30
0.0
 10
1169.068240
 20
460.386388
 30
0.0
  0
SPLINE
  5
263
100
AcDbEntity
  8
0
 62
7
100
AcDbSpline
 70
8
 71
3
 72
8
 73
4
 74
0
 40
0
 40
0
 40
0
 40
0
 40
1
 40
1
 40
1
 40
1
 10
1208.360720
 20
489.961380
 30
0.0
 10
1204.459520
 20
490.723252
 30
0.0
 10
1200.591280
 20
491.597996
 30
0.0
 10
1196.823200
 20
492.593876
 30
0.0
  0
SPLINE
  5
264
100
AcDbEntity
  8
0
 62
7
100
AcDbSpline
 70
8
 71
3
 72
8
 73
4
 74
0
 40
0
 40
0
 40
0
 40
0
 40
1
 40
1
 40
1
 40
1
 10
1196.823200
 20
492.593876
 30
0.0
 10
1186.024080
 20
495.448076
 30
0.0
 10
1174.280480
 20
496.999020
 30
0.0
 10
1161.463200
 20
497.891388
 30
0.0
  0
SPLINE
  5
265
100
AcDbEntity
  8
0
 62
7
100
AcDbSpline
 70
8
 71
3
 72
8
 73
4
 74
0
 40
0
 40
0
 40
0
 40
0
 40
1
 40
1
 40
1
 40
1
 10
1161.463200
 20
497.891388
 30
0.0
 10
1162.882080
 20
502.880132
 30
0.0
 10
1164.859120
 20
507.982708
 30
0.0
 10
1167.215680
 20
513.166380
 30
0.0
  0
SPLINE
  5
266
100
AcDbEntity
  8
0
 62
7
100
AcDbSpline
 70
8
 71
3
 72
8
 73
4
 74
0
 40
0
 40
0
 40
0
 40
0
 40
1
 40
1
 40
1
 40
1
 10
1167.215680
 20
513.166380
 30
0.0
 10
1174.424960
 20
515.232892
 30
0.0
 10
1181.342640
 20
517.192660
 30
0.0
 10
1187.528240
 20
518.918876
 30
0.0
  0
SPLINE
  5
267
100
AcDbEntity
  8
0
 62
7
100
AcDbSpline
 70
8
 71
3
 72
8
 73
4
 74
0
 40
0
 40
0
 40
0
 40
0
 40
1
 40
1
 40
1
 40
1
 10
1187.528240
 20
518.918876
 30
0.0
 10
1207.340240
 20
524.447812
 30
0.0
 10
1229.803280
 20
533.763348
 30
0.0
 10
1247.685680
 20
541.896380
 30
0.0
  0
SPLINE
  5
268
100
AcDbEntity
  8
0
 62
7
100
AcDbSpline
 70
8
 71
3
 72
8
 73
4
 74
0
 40
0
 40
0
 40
0
 40
0
 40
1
 40
1
 40
1
 40
1
 10
1247.685680
 20
541.896380
 30
0.0
 10
1238.280000
 20
528.397668
 30
0.0
 10
1228.688800
 20
514.969972
 30
0.0
 10
1220.678240
 20
504.716388
 30
0.0
  0
SPLINE
  5
269
100
AcDbEntity
  8
0
 62
7
100
AcDbSpline
 70
8
 71
3
 72
8
 73
4
 74
0
 40
0
 40
0
 40
0
 40
0
 40
1
 40
1
 40
1
 40
1
 10
1220.678240
 20
504.716388
 30
0.0
 10
1216.696320
 20
499.619452
 30
0.0
 10
1212.527520
 20
494.654796
 30
0.0
 10
1208.360720
 20
489.961380
 30
0.0
  0
LWPOLYLINE
  5
26a
100
AcDbEntity
  8
0
 62
7
100
AcDbPolyline
 90
2
 70
0
 10
1250.935680
 20
486.321380
 30
0.0
 10
1257.598240
 20
494.283876
 30
0.0
  0
SPLINE
  5
26b
100
AcDbEntity
  8
0
 62
7
100
AcDbSpline
 70
8
 71
3
 72
8
 73
4
 74
0
 40
0
 40
0
 40
0
 40
0
 40
1
 40
1
 40
1
 40
1
 10
1136.893200
 20
498.898876
 30
0.0
 10
1132.096480
 20
498.998404
 30
0.0
 10
1127.142320
 20
499.073900
 30
0.0
 10
1122.073200
 20
499.126380
 30
0.0
  0
SPLINE
  5
26c
100
AcDbEntity
  8
0
 62
7
100
AcDbSpline
 70
8
 71
3
 72
8
 73
4
 74
0
 40
0
 40
0
 40
0
 40
0
 40
1
 40
1
 40
1
 40
1
 10
1122.073200
 20
499.126380
 30
0.0
 10
1127.421120
 20
500.995044
 30
0.0
 10
1133.009360
 20
502.815164
 30
0.0
 10
1138.713200
 20
504.618892
 30
0.0
  0
SPLINE
  5
26d
100
AcDbEntity
  8
0
 62
7
100
AcDbSpline
 70
8
 71
3
 72
8
 73
4
 74
0
 40
0
 40
0
 40
0
 40
0
 40
1
 40
1
 40
1
 40
1
 10
1138.713200
 20
504.618892
 30
0.0
 10
1138.051200
 20
502.736868
 30
0.0
 10
1137.456080
 20
500.831348
 30
0.0
 10
1136.893200
 20
498.898876
 30
0.0
  0
LWPOLYLINE
  5
26e
100
AcDbEntity
  8
0
 62
7
100
AcDbPolyline
 90
2
 70
0
 10
1250.935680
 20
486.321380
 30
0.0
 10
1250.935680
 20
486.321380
 30
0.0
  0
LWPOLYLINE
  5
26f
100
AcDbEntity
  8
0
 62
7
100
AcDbPolyline
 90
2
 70
0
 10
1208.360720
 20
489.961380
 30
0.0
 10
1208.360720
 20
489.961380
 30
0.0
  0
LWPOLYLINE
  5
270
100
AcDbEntity
  8
0
 62
7
100
AcDbPolyline
 90
2
 70
0
 10
1136.893200
 20
498.898876
 30
0.0
 10
1136.893200
 20
498.898876
 30
0.0
  0
LWPOLYLINE
  5
271
100
AcDbEntity
  8
0
 62
1
100
AcDbPolyline
 90
2
 70
0
 10
1556.078240
 20
699.911380
 30
0.0
 10
1556.078240
 20
699.911380
 30
0.0
  0
SPLINE
  5
272
100
AcDbEntity
  8
0
 62
7
100
AcDbSpline
 70
8
 71
3
 72
8
 73
4
 74
0
 40
0
 40
0
 40
0
 40
0
 40
1
 40
1
 40
1
 40
1
 10
1517.598240
 20
735.076380
 30
0.0
 10
1535.792960
 20
719.642188
 30
0.0
 10
1556.078240
 20
699.943892
 30
0.0
 10
1556.078240
 20
699.943892
 30
0.0
  0
SPLINE
  5
273
100
AcDbEntity
  8
0
 62
1
100
AcDbSpline
 70
8
 71
3
 72
8
 73
4
 74
0
 40
0
 40
0
 40
0
 40
0
 40
1
 40
1
 40
1
 40
1
 10
1517.825680
 20
772.061386
 30
0.0
 10
1543.707680
 20
755.750612
 30
0.0
 10
1574.505680
 20
727.276380
 30
0.0
 10
1574.505680
 20
727.276380
 30
0.0
  0
SPLINE
  5
274
100
AcDbEntity
  8
0
 62
1
100
AcDbSpline
 70
8
 71
3
 72
8
 73
4
 74
0
 40
0
 40
0
 40
0
 40
0
 40
1
 40
1
 40
1
 40
1
 10
1539.263840
 20
756.907724
 30
0.0
 10
1525.442880
 20
757.046268
 30
0.0
 10
1517.380240
 20
748.389148
 30
0.0
 10
1516.790080
 20
743.835268
 30
0.0
  0
SPLINE
  5
275
100
AcDbEntity
  8
0
 62
1
100
AcDbSpline
 70
8
 71
3
 72
8
 73
4
 74
0
 40
0
 40
0
 40
0
 40
0
 40
1
 40
1
 40
1
 40
1
 10
1517.825680
 20
772.061386
 30
0.0
 10
1515.866400
 20
761.811596
 30
0.0
 10
1516.093120
 20
750.999348
 30
0.0
 10
1514.398640
 20
738.095996
 30
0.0
  0
SPLINE
  5
276
100
AcDbEntity
  8
0
 62
7
100
AcDbSpline
 70
8
 71
3
 72
8
 73
4
 74
0
 40
0
 40
0
 40
0
 40
0
 40
1
 40
1
 40
1
 40
1
 10
1519.633920
 20
694.781500
 30
0.0
 10
1511.694027
 20
717.765420
 30
0.0
 10
1510.231413
 20
731.973662
 30
0.0
 10
1515.246080
 20
737.406228
 30
0.0
  0
SPLINE
  5
277
100
AcDbEntity
  8
0
 62
1
100
AcDbSpline
 70
8
 71
3
 72
8
 73
4
 74
0
 40
0
 40
0
 40
0
 40
0
 40
1
 40
1
 40
1
 40
1
 10
811.869200
 20
693.203252
 30
0.0
 10
811.869200
 20
693.203252
 30
0.0
 10
798.596552
 20
709.688788
 30
0.0
 10
781.514224
 20
725.215756
 30
0.0
  0
SPLINE
  5
278
100
AcDbEntity
  8
0
 62
1
100
AcDbSpline
 70
8
 71
3
 72
8
 73
4
 74
0
 40
0
 40
0
 40
0
 40
0
 40
1
 40
1
 40
1
 40
1
 10
811.641760
 20
746.210756
 30
0.0
 10
811.981520
 20
758.381060
 30
0.0
 10
814.214800
 20
772.391642
 30
0.0
 10
821.814240
 20
779.653255
 30
0.0
  0
SPLINE
  5
279
100
AcDbEntity
  8
0
 62
1
100
AcDbSpline
 70
8
 71
3
 72
8
 73
4
 74
0
 40
0
 40
0
 40
0
 40
0
 40
1
 40
1
 40
1
 40
1
 10
821.814240
 20
779.653255
 30
0.0
 10
833.529840
 20
769.219932
 30
0.0
 10
844.578640
 20
757.170212
 30
0.0
 10
852.656720
 20
747.835756
 30
0.0
  0
SPLINE
  5
27a
100
AcDbEntity
  8
0
 62
1
100
AcDbSpline
 70
8
 71
3
 72
8
 73
4
 74
0
 40
0
 40
0
 40
0
 40
0
 40
1
 40
1
 40
1
 40
1
 10
852.656720
 20
747.835756
 30
0.0
 10
844.675360
 20
730.445052
 30
0.0
 10
858.311760
 20
701.360756
 30
0.0
 10
858.311760
 20
701.360756
 30
0.0
  0
SPLINE
  5
27b
100
AcDbEntity
  8
0
 62
1
100
AcDbSpline
 70
8
 71
3
 72
8
 73
4
 74
0
 40
0
 40
0
 40
0
 40
0
 40
1
 40
1
 40
1
 40
1
 10
354.334224
 20
714.718252
 30
0.0
 10
354.334224
 20
714.718252
 30
0.0
 10
356.207824
 20
756.552556
 30
0.0
 10
321.866720
 20
758.528252
 30
0.0
  0
SPLINE
  5
27c
100
AcDbEntity
  8
0
 62
1
100
AcDbSpline
 70
8
 71
3
 72
8
 73
4
 74
0
 40
0
 40
0
 40
0
 40
0
 40
1
 40
1
 40
1
 40
1
 10
321.866720
 20
758.528252
 30
0.0
 10
332.175216
 20
765.226053
 30
0.0
 10
344.353664
 20
771.258425
 30
0.0
 10
355.536720
 20
775.720753
 30
0.0
  0
SPLINE
  5
27d
100
AcDbEntity
  8
0
 62
1
100
AcDbSpline
 70
8
 71
3
 72
8
 73
4
 74
0
 40
0
 40
0
 40
0
 40
0
 40
1
 40
1
 40
1
 40
1
 10
355.536720
 20
775.720753
 30
0.0
 10
360.541168
 20
761.578452
 30
0.0
 10
359.436720
 20
746.535756
 30
0.0
 10
359.436720
 20
746.535756
 30
0.0
  0
SPLINE
  5
27e
100
AcDbEntity
  8
0
 62
1
100
AcDbSpline
 70
8
 71
3
 72
8
 73
4
 74
0
 40
0
 40
0
 40
0
 40
0
 40
1
 40
1
 40
1
 40
1
 10
359.436720
 20
746.535756
 30
0.0
 10
359.436720
 20
746.535756
 30
0.0
 10
371.609776
 20
761.325812
 30
0.0
 10
386.769224
 20
775.428253
 30
0.0
  0
SPLINE
  5
27f
100
AcDbEntity
  8
0
 62
1
100
AcDbSpline
 70
8
 71
3
 72
8
 73
4
 74
0
 40
0
 40
0
 40
0
 40
0
 40
1
 40
1
 40
1
 40
1
 10
391.351720
 20
740.913252
 30
0.0
 10
373.470208
 20
728.673628
 30
0.0
 10
354.334224
 20
714.718252
 30
0.0
 10
354.334224
 20
714.718252
 30
0.0
  0
LWPOLYLINE
  5
280
100
AcDbEntity
  8
0
 62
1
100
AcDbPolyline
 90
2
 70
0
 10
1519.353200
 20
693.638876
 30
0.0
 10
1519.353200
 20
693.638876
 30
0.0
  0
SPLINE
  5
281
100
AcDbEntity
  8
0
 62
1
100
AcDbSpline
 70
8
 71
3
 72
8
 73
4
 74
0
 40
0
 40
0
 40
0
 40
0
 40
1
 40
1
 40
1
 40
1
 10
424.111720
 20
757.585756
 30
0.0
 10
430.729688
 20
762.627780
 30
0.0
 10
437.595760
 20
767.551305
 30
0.0
 10
444.164224
 20
771.690755
 30
0.0
  0
LWPOLYLINE
  5
282
100
AcDbEntity
  8
0
 62
1
100
AcDbPolyline
 90
2
 70
0
 10
858.311760
 20
701.360756
 30
0.0
 10
858.311760
 20
701.360756
 30
0.0
  0
SPLINE
  5
283
100
AcDbEntity
  8
0
 62
1
100
AcDbSpline
 70
8
 71
3
 72
8
 73
4
 74
0
 40
0
 40
0
 40
0
 40
0
 40
1
 40
1
 40
1
 40
1
 10
862.114240
 20
757.520756
 30
0.0
 10
861.881920
 20
761.098684
 30
0.0
 10
861.766800
 20
764.819225
 30
0.0
 10
861.821760
 20
768.538255
 30
0.0
  0
SPLINE
  5
284
100
AcDbEntity
  8
0
 62
1
100
AcDbSpline
 70
8
 71
3
 72
8
 73
4
 74
0
 40
0
 40
0
 40
0
 40
0
 40
1
 40
1
 40
1
 40
1
 10
861.821760
 20
768.538255
 30
0.0
 10
865.564080
 20
765.897703
 30
0.0
 10
869.171200
 20
763.098993
 30
0.0
 10
872.579200
 20
760.315756
 30
0.0
  0
SPLINE
  5
285
100
AcDbEntity
  8
0
 62
1
100
AcDbSpline
 70
8
 71
3
 72
8
 73
4
 74
0
 40
0
 40
0
 40
0
 40
0
 40
1
 40
1
 40
1
 40
1
 10
872.579200
 20
760.315756
 30
0.0
 10
868.403040
 20
759.899516
 30
0.0
 10
864.962160
 20
758.926276
 30
0.0
 10
862.114240
 20
757.520756
 30
0.0
  0
SPLINE
  5
286
100
AcDbEntity
  8
0
 62
1
100
AcDbSpline
 70
8
 71
3
 72
8
 73
4
 74
0
 40
0
 40
0
 40
0
 40
0
 40
1
 40
1
 40
1
 40
1
 10
861.854240
 20
769.188255
 30
0.0
 10
861.878240
 20
770.376234
 30
0.0
 10
861.919840
 20
771.552404
 30
0.0
 10
861.984240
 20
772.730753
 30
0.0
  0
SPLINE
  5
287
100
AcDbEntity
  8
0
 62
1
100
AcDbSpline
 70
8
 71
3
 72
8
 73
4
 74
0
 40
0
 40
0
 40
0
 40
0
 40
1
 40
1
 40
1
 40
1
 10
861.984240
 20
772.730753
 30
0.0
 10
861.917840
 20
771.556461
 30
0.0
 10
861.879040
 20
770.373409
 30
0.0
 10
861.854240
 20
769.188255
 30
0.0
  0
LWPOLYLINE
  5
288
100
AcDbEntity
  8
0
 62
1
100
AcDbPolyline
 90
2
 70
0
 10
354.334224
 20
714.718252
 30
0.0
 10
354.334224
 20
714.718252
 30
0.0
  0
SPLINE
  5
289
100
AcDbEntity
  8
0
 62
1
100
AcDbSpline
 70
8
 71
3
 72
8
 73
4
 74
0
 40
0
 40
0
 40
0
 40
0
 40
1
 40
1
 40
1
 40
1
 10
863.544240
 20
784.723253
 30
0.0
 10
863.555440
 20
784.723087
 30
0.0
 10
863.565840
 20
784.723419
 30
0.0
 10
863.577040
 20
784.723253
 30
0.0
  0
LWPOLYLINE
  5
28a
100
AcDbEntity
  8
0
 62
1
100
AcDbPolyline
 90
2
 70
0
 10
862.114240
 20
757.520756
 30
0.0
 10
862.114240
 20
757.520756
 30
0.0
  0
SPLINE
  5
28b
100
AcDbEntity
  8
0
 62
1
100
AcDbSpline
 70
8
 71
3
 72
8
 73
4
 74
0
 40
0
 40
0
 40
0
 40
0
 40
1
 40
1
 40
1
 40
1
 10
444.131720
 20
771.788253
 30
0.0
 10
443.935880
 20
772.802037
 30
0.0
 10
443.730344
 20
773.813665
 30
0.0
 10
443.481720
 20
774.810756
 30
0.0
  0
SPLINE
  5
28c
100
AcDbEntity
  8
0
 62
1
100
AcDbSpline
 70
8
 71
3
 72
8
 73
4
 74
0
 40
0
 40
0
 40
0
 40
0
 40
1
 40
1
 40
1
 40
1
 10
443.481720
 20
774.810756
 30
0.0
 10
443.722024
 20
773.811731
 30
0.0
 10
443.936328
 20
772.802619
 30
0.0
 10
444.131720
 20
771.788253
 30
0.0
  0
LWPOLYLINE
  5
28d
100
AcDbEntity
  8
0
 62
1
100
AcDbPolyline
 90
2
 70
0
 10
861.854240
 20
769.188255
 30
0.0
 10
861.854240
 20
769.188255
 30
0.0
  0
SPLINE
  5
28e
100
AcDbEntity
  8
0
 62
1
100
AcDbSpline
 70
8
 71
3
 72
8
 73
4
 74
0
 40
0
 40
0
 40
0
 40
0
 40
1
 40
1
 40
1
 40
1
 10
443.481720
 20
774.810756
 30
0.0
 10
443.224880
 20
775.840802
 30
0.0
 10
442.936576
 20
776.858724
 30
0.0
 10
442.636720
 20
777.865753
 30
0.0
  0
SPLINE
  5
28f
100
AcDbEntity
  8
0
 62
1
100
AcDbSpline
 70
8
 71
3
 72
8
 73
4
 74
0
 40
0
 40
0
 40
0
 40
0
 40
1
 40
1
 40
1
 40
1
 10
442.636720
 20
777.865753
 30
0.0
 10
442.647600
 20
777.865889
 30
0.0
 10
442.658320
 20
777.865621
 30
0.0
 10
442.669200
 20
777.865753
 30
0.0
  0
SPLINE
  5
290
100
AcDbEntity
  8
0
 62
1
100
AcDbSpline
 70
8
 71
3
 72
8
 73
4
 74
0
 40
0
 40
0
 40
0
 40
0
 40
1
 40
1
 40
1
 40
1
 10
442.669168
 20
777.865753
 30
0.0
 10
442.968968
 20
776.859324
 30
0.0
 10
443.233640
 20
775.841903
 30
0.0
 10
443.481672
 20
774.810756
 30
0.0
  0
SPLINE
  5
291
100
AcDbEntity
  8
0
 62
1
100
AcDbSpline
 70
8
 71
3
 72
8
 73
4
 74
0
 40
0
 40
0
 40
0
 40
0
 40
1
 40
1
 40
1
 40
1
 10
471.464224
 20
619.850756
 30
0.0
 10
481.739224
 20
694.578044
 30
0.0
 10
450.578232
 20
687.336412
 30
0.0
 10
473.381720
 20
768.960756
 30
0.0
  0
SPLINE
  5
292
100
AcDbEntity
  8
0
 62
1
100
AcDbSpline
 70
8
 71
3
 72
8
 73
4
 74
0
 40
0
 40
0
 40
0
 40
0
 40
1
 40
1
 40
1
 40
1
 10
473.381720
 20
768.960756
 30
0.0
 10
475.177664
 20
770.898054
 30
0.0
 10
476.986768
 20
772.847285
 30
0.0
 10
478.841720
 20
774.745755
 30
0.0
  0
SPLINE
  5
293
100
AcDbEntity
  8
0
 62
1
100
AcDbSpline
 70
8
 71
3
 72
8
 73
4
 74
0
 40
0
 40
0
 40
0
 40
0
 40
1
 40
1
 40
1
 40
1
 10
478.841720
 20
774.745755
 30
0.0
 10
493.691384
 20
757.174684
 30
0.0
 10
485.601720
 20
717.025756
 30
0.0
 10
485.601720
 20
717.025756
 30
0.0
  0
SPLINE
  5
294
100
AcDbEntity
  8
0
 62
1
100
AcDbSpline
 70
8
 71
3
 72
8
 73
4
 74
0
 40
0
 40
0
 40
0
 40
0
 40
1
 40
1
 40
1
 40
1
 10
485.601720
 20
717.025756
 30
0.0
 10
485.601720
 20
717.025756
 30
0.0
 10
520.172936
 20
762.114973
 30
0.0
 10
545.824224
 20
777.898255
 30
0.0
  0
SPLINE
  5
295
100
AcDbEntity
  8
0
 62
1
100
AcDbSpline
 70
8
 71
3
 72
8
 73
4
 74
0
 40
0
 40
0
 40
0
 40
0
 40
1
 40
1
 40
1
 40
1
 10
575.659224
 20
772.633255
 30
0.0
 10
595.537944
 20
753.997764
 30
0.0
 10
605.819224
 20
717.350756
 30
0.0
 10
605.819224
 20
717.350756
 30
0.0
  0
SPLINE
  5
296
100
AcDbEntity
  8
0
 62
1
100
AcDbSpline
 70
8
 71
3
 72
8
 73
4
 74
0
 40
0
 40
0
 40
0
 40
0
 40
1
 40
1
 40
1
 40
1
 10
605.819224
 20
717.350756
 30
0.0
 10
605.819224
 20
717.350756
 30
0.0
 10
618.089560
 20
758.905756
 30
0.0
 10
636.661720
 20
776.175753
 30
0.0
  0
SPLINE
  5
297
100
AcDbEntity
  8
0
 62
1
100
AcDbSpline
 70
8
 71
3
 72
8
 73
4
 74
0
 40
0
 40
0
 40
0
 40
0
 40
1
 40
1
 40
1
 40
1
 10
704.164224
 20
724.630756
 30
0.0
 10
704.164224
 20
724.630756
 30
0.0
 10
710.987848
 20
767.626049
 30
0.0
 10
730.716720
 20
780.595755
 30
0.0
  0
SPLINE
  5
298
100
AcDbEntity
  8
0
 62
1
100
AcDbSpline
 70
8
 71
3
 72
8
 73
4
 74
0
 40
0
 40
0
 40
0
 40
0
 40
1
 40
1
 40
1
 40
1
 10
767.376720
 20
742.018252
 30
0.0
 10
767.376720
 20
742.018252
 30
0.0
 10
765.879160
 20
755.006900
 30
0.0
 10
767.441680
 20
768.960756
 30
0.0
  0
SPLINE
  5
299
100
AcDbEntity
  8
0
 62
1
100
AcDbSpline
 70
8
 71
3
 72
8
 73
4
 74
0
 40
0
 40
0
 40
0
 40
0
 40
1
 40
1
 40
1
 40
1
 10
790.939224
 20
748.225756
 30
0.0
 10
785.556656
 20
725.401964
 30
0.0
 10
767.397176
 20
699.671908
 30
0.0
 10
729.936720
 20
669.088252
 30
0.0
  0
LWPOLYLINE
  5
29a
100
AcDbEntity
  8
0
 62
1
100
AcDbPolyline
 90
2
 70
0
 10
861.984160
 20
772.730753
 30
0.0
 10
861.984240
 20
772.730753
 30
0.0
  0
SPLINE
  5
29b
100
AcDbEntity
  8
0
 62
1
100
AcDbSpline
 70
8
 71
3
 72
8
 73
4
 74
0
 40
0
 40
0
 40
0
 40
0
 40
1
 40
1
 40
1
 40
1
 10
710.306720
 20
680.235756
 30
0.0
 10
698.505528
 20
680.731012
 30
0.0
 10
682.364504
 20
707.843996
 30
0.0
 10
688.044224
 20
728.140756
 30
0.0
  0
SPLINE
  5
29c
100
AcDbEntity
  8
0
 62
1
100
AcDbSpline
 70
8
 71
3
 72
8
 73
4
 74
0
 40
0
 40
0
 40
0
 40
0
 40
1
 40
1
 40
1
 40
1
 10
688.044224
 20
728.140756
 30
0.0
 10
689.519440
 20
733.412500
 30
0.0
 10
691.683912
 20
737.917092
 30
0.0
 10
694.186720
 20
741.758252
 30
0.0
  0
SPLINE
  5
29d
100
AcDbEntity
  8
0
 62
1
100
AcDbSpline
 70
8
 71
3
 72
8
 73
4
 74
0
 40
0
 40
0
 40
0
 40
0
 40
1
 40
1
 40
1
 40
1
 10
714.856720
 20
759.925756
 30
0.0
 10
716.109400
 20
760.528348
 30
0.0
 10
716.839216
 20
760.803252
 30
0.0
 10
716.839216
 20
760.803252
 30
0.0
  0
SPLINE
  5
29e
100
AcDbEntity
  8
0
 62
1
100
AcDbSpline
 70
8
 71
3
 72
8
 73
4
 74
0
 40
0
 40
0
 40
0
 40
0
 40
1
 40
1
 40
1
 40
1
 10
716.839216
 20
760.803252
 30
0.0
 10
716.839216
 20
760.803252
 30
0.0
 10
757.680360
 20
746.345572
 30
0.0
 10
751.159224
 20
719.983252
 30
0.0
  0
SPLINE
  5
29f
100
AcDbEntity
  8
0
 62
1
100
AcDbSpline
 70
8
 71
3
 72
8
 73
4
 74
0
 40
0
 40
0
 40
0
 40
0
 40
1
 40
1
 40
1
 40
1
 10
751.159224
 20
719.983252
 30
0.0
 10
742.822696
 20
686.282092
 30
0.0
 10
718.382160
 20
685.733020
 30
0.0
 10
716.839216
 20
683.648252
 30
0.0
  0
SPLINE
  5
2a0
100
AcDbEntity
  8
0
 62
1
100
AcDbSpline
 70
8
 71
3
 72
8
 73
4
 74
0
 40
0
 40
0
 40
0
 40
0
 40
1
 40
1
 40
1
 40
1
 10
714.331888
 20
694.109180
 30
0.0
 10
712.531872
 20
710.154308
 30
0.0
 10
711.417088
 20
710.718532
 30
0.0
 10
712.690464
 20
735.644044
 30
0.0
  0
SPLINE
  5
2a1
100
AcDbEntity
  8
0
 62
1
100
AcDbSpline
 70
8
 71
3
 72
8
 73
4
 74
0
 40
0
 40
0
 40
0
 40
0
 40
1
 40
1
 40
1
 40
1
 10
712.690464
 20
735.644044
 30
0.0
 10
713.331880
 20
748.199308
 30
0.0
 10
716.569800
 20
752.815404
 30
0.0
 10
720.691640
 20
746.467252
 30
0.0
  0
SPLINE
  5
2a2
100
AcDbEntity
  8
0
 62
1
100
AcDbSpline
 70
8
 71
3
 72
8
 73
4
 74
0
 40
0
 40
0
 40
0
 40
0
 40
1
 40
1
 40
1
 40
1
 10
720.691640
 20
746.467252
 30
0.0
 10
724.961304
 20
739.891316
 30
0.0
 10
724.781544
 20
729.189788
 30
0.0
 10
721.684512
 20
714.575004
 30
0.0
  0
SPLINE
  5
2a3
100
AcDbEntity
  8
0
 62
1
100
AcDbSpline
 70
8
 71
3
 72
8
 73
4
 74
0
 40
0
 40
0
 40
0
 40
0
 40
1
 40
1
 40
1
 40
1
 10
721.684512
 20
714.575004
 30
0.0
 10
718.321648
 20
698.705828
 30
0.0
 10
714.331888
 20
694.109180
 30
0.0
 10
714.331888
 20
694.109180
 30
0.0
  0
SPLINE
  5
2a4
100
AcDbEntity
  8
0
 62
1
100
AcDbSpline
 70
8
 71
3
 72
8
 73
4
 74
0
 40
0
 40
0
 40
0
 40
0
 40
1
 40
1
 40
1
 40
1
 10
485.601720
 20
717.025756
 30
0.0
 10
485.601720
 20
717.025756
 30
0.0
 10
493.692536
 20
757.175252
 30
0.0
 10
478.841720
 20
774.745755
 30
0.0
  0
SPLINE
  5
2a5
100
AcDbEntity
  8
0
 62
1
100
AcDbSpline
 70
8
 71
3
 72
8
 73
4
 74
0
 40
0
 40
0
 40
0
 40
0
 40
1
 40
1
 40
1
 40
1
 10
545.791720
 20
777.930753
 30
0.0
 10
520.140608
 20
762.134360
 30
0.0
 10
485.601720
 20
717.025756
 30
0.0
 10
485.601720
 20
717.025756
 30
0.0
  0
SPLINE
  5
2a6
100
AcDbEntity
  8
0
 62
1
100
AcDbSpline
 70
8
 71
3
 72
8
 73
4
 74
0
 40
0
 40
0
 40
0
 40
0
 40
1
 40
1
 40
1
 40
1
 10
605.819224
 20
717.350756
 30
0.0
 10
605.819224
 20
717.350756
 30
0.0
 10
595.537000
 20
753.996044
 30
0.0
 10
575.659224
 20
772.633255
 30
0.0
  0
SPLINE
  5
2a7
100
AcDbEntity
  8
0
 62
1
100
AcDbSpline
 70
8
 71
3
 72
8
 73
4
 74
0
 40
0
 40
0
 40
0
 40
0
 40
1
 40
1
 40
1
 40
1
 10
636.661720
 20
776.175753
 30
0.0
 10
618.088600
 20
758.908804
 30
0.0
 10
605.819224
 20
717.350756
 30
0.0
 10
605.819224
 20
717.350756
 30
0.0
  0
LWPOLYLINE
  5
2a8
100
AcDbEntity
  8
0
 62
1
100
AcDbPolyline
 90
2
 70
0
 10
443.481672
 20
774.810756
 30
0.0
 10
443.481720
 20
774.810756
 30
0.0
  0
SPLINE
  5
2a9
100
AcDbEntity
  8
0
 62
1
100
AcDbSpline
 70
8
 71
3
 72
8
 73
4
 74
0
 40
0
 40
0
 40
0
 40
0
 40
1
 40
1
 40
1
 40
1
 10
812.844240
 20
723.785756
 30
0.0
 10
812.844240
 20
723.785756
 30
0.0
 10
791.395800
 20
751.093028
 30
0.0
 10
767.441720
 20
768.993253
 30
0.0
  0
SPLINE
  5
2aa
100
AcDbEntity
  8
0
 62
1
100
AcDbSpline
 70
8
 71
3
 72
8
 73
4
 74
0
 40
0
 40
0
 40
0
 40
0
 40
1
 40
1
 40
1
 40
1
 10
767.441720
 20
768.993253
 30
0.0
 10
769.034560
 20
783.176256
 30
0.0
 10
773.774624
 20
798.346733
 30
0.0
 10
786.486720
 20
801.883255
 30
0.0
  0
SPLINE
  5
2ab
100
AcDbEntity
  8
0
 62
1
100
AcDbSpline
 70
8
 71
3
 72
8
 73
4
 74
0
 40
0
 40
0
 40
0
 40
0
 40
1
 40
1
 40
1
 40
1
 10
786.486720
 20
801.883255
 30
0.0
 10
797.189104
 20
799.274070
 30
0.0
 10
809.835440
 20
790.320939
 30
0.0
 10
821.814240
 20
779.653255
 30
0.0
  0
LWPOLYLINE
  5
2ac
100
AcDbEntity
  8
0
 62
1
100
AcDbPolyline
 90
2
 70
0
 10
485.601720
 20
717.025756
 30
0.0
 10
485.601720
 20
717.025756
 30
0.0
  0
SPLINE
  5
2ad
100
AcDbEntity
  8
0
 62
1
100
AcDbSpline
 70
8
 71
3
 72
8
 73
4
 74
0
 40
0
 40
0
 40
0
 40
0
 40
1
 40
1
 40
1
 40
1
 10
704.164224
 20
724.630756
 30
0.0
 10
704.164224
 20
724.630756
 30
0.0
 10
687.791352
 20
757.866868
 30
0.0
 10
665.359216
 20
774.485753
 30
0.0
  0
SPLINE
  5
2ae
100
AcDbEntity
  8
0
 62
1
100
AcDbSpline
 70
8
 71
3
 72
8
 73
4
 74
0
 40
0
 40
0
 40
0
 40
0
 40
1
 40
1
 40
1
 40
1
 10
730.716720
 20
780.628253
 30
0.0
 10
710.989200
 20
767.656645
 30
0.0
 10
704.164224
 20
724.630756
 30
0.0
 10
704.164224
 20
724.630756
 30
0.0
  0
LWPOLYLINE
  5
2af
100
AcDbEntity
  8
0
 62
1
100
AcDbPolyline
 90
2
 70
0
 10
605.819224
 20
717.350756
 30
0.0
 10
605.819224
 20
717.350756
 30
0.0
  0
SPLINE
  5
2b0
100
AcDbEntity
  8
0
 62
1
100
AcDbSpline
 70
8
 71
3
 72
8
 73
4
 74
0
 40
0
 40
0
 40
0
 40
0
 40
1
 40
1
 40
1
 40
1
 10
386.769224
 20
775.428253
 30
0.0
 10
398.400424
 20
786.248465
 30
0.0
 10
411.793184
 20
796.658459
 30
0.0
 10
422.746720
 20
799.705753
 30
0.0
  0
SPLINE
  5
2b1
100
AcDbEntity
  8
0
 62
1
100
AcDbSpline
 70
8
 71
3
 72
8
 73
4
 74
0
 40
0
 40
0
 40
0
 40
0
 40
1
 40
1
 40
1
 40
1
 10
422.746720
 20
799.705753
 30
0.0
 10
435.796136
 20
796.524382
 30
0.0
 10
441.705440
 20
784.553226
 30
0.0
 10
444.164224
 20
771.690755
 30
0.0
  0
LWPOLYLINE
  5
2b2
100
AcDbEntity
  8
0
 62
1
100
AcDbPolyline
 90
2
 70
0
 10
812.844240
 20
723.785756
 30
0.0
 10
812.844240
 20
723.785756
 30
0.0
  0
SPLINE
  5
2b3
100
AcDbEntity
  8
0
 62
1
100
AcDbSpline
 70
8
 71
3
 72
8
 73
4
 74
0
 40
0
 40
0
 40
0
 40
0
 40
1
 40
1
 40
1
 40
1
 10
861.821760
 20
768.538255
 30
0.0
 10
862.037600
 20
783.147885
 30
0.0
 10
865.027040
 20
797.589321
 30
0.0
 10
875.146720
 20
801.915753
 30
0.0
  0
SPLINE
  5
2b4
100
AcDbEntity
  8
0
 62
1
100
AcDbSpline
 70
8
 71
3
 72
8
 73
4
 74
0
 40
0
 40
0
 40
0
 40
0
 40
1
 40
1
 40
1
 40
1
 10
875.146720
 20
801.915753
 30
0.0
 10
876.848240
 20
801.892249
 30
0.0
 10
878.547440
 20
801.843057
 30
0.0
 10
880.249200
 20
801.818305
 30
0.0
  0
SPLINE
  5
2b5
100
AcDbEntity
  8
0
 62
1
100
AcDbSpline
 70
8
 71
3
 72
8
 73
4
 74
0
 40
0
 40
0
 40
0
 40
0
 40
1
 40
1
 40
1
 40
1
 10
880.249200
 20
801.818305
 30
0.0
 10
891.150960
 20
798.678524
 30
0.0
 10
902.821280
 20
790.725969
 30
0.0
 10
913.431760
 20
781.668305
 30
0.0
  0
SPLINE
  5
2b6
100
AcDbEntity
  8
0
 62
1
100
AcDbSpline
 70
8
 71
3
 72
8
 73
4
 74
0
 40
0
 40
0
 40
0
 40
0
 40
1
 40
1
 40
1
 40
1
 10
913.431760
 20
781.668305
 30
0.0
 10
895.933760
 20
770.181827
 30
0.0
 10
898.644240
 20
735.745756
 30
0.0
 10
898.644240
 20
735.745756
 30
0.0
  0
SPLINE
  5
2b7
100
AcDbEntity
  8
0
 62
1
100
AcDbSpline
 70
8
 71
3
 72
8
 73
4
 74
0
 40
0
 40
0
 40
0
 40
0
 40
1
 40
1
 40
1
 40
1
 10
300.026720
 20
738.345756
 30
0.0
 10
300.026720
 20
738.345756
 30
0.0
 10
306.232720
 20
762.340851
 30
0.0
 10
294.501720
 20
774.843253
 30
0.0
  0
SPLINE
  5
2b8
100
AcDbEntity
  8
0
 62
1
100
AcDbSpline
 70
8
 71
3
 72
8
 73
4
 74
0
 40
0
 40
0
 40
0
 40
0
 40
1
 40
1
 40
1
 40
1
 10
330.706720
 20
799.315755
 30
0.0
 10
344.547624
 20
796.509635
 30
0.0
 10
351.768832
 20
786.368605
 30
0.0
 10
355.536720
 20
775.720753
 30
0.0
  0
LWPOLYLINE
  5
2b9
100
AcDbEntity
  8
0
 62
1
100
AcDbPolyline
 90
2
 70
0
 10
704.164224
 20
724.630756
 30
0.0
 10
704.164224
 20
724.630756
 30
0.0
  0
SPLINE
  5
2ba
100
AcDbEntity
  8
0
 62
1
100
AcDbSpline
 70
8
 71
3
 72
8
 73
4
 74
0
 40
0
 40
0
 40
0
 40
0
 40
1
 40
1
 40
1
 40
1
 10
416.571720
 20
800.680753
 30
0.0
 10
416.834280
 20
800.661825
 30
0.0
 10
417.090440
 20
800.641337
 30
0.0
 10
417.351720
 20
800.615753
 30
0.0
  0
LWPOLYLINE
  5
2bb
100
AcDbEntity
  8
0
 62
1
100
AcDbPolyline
 90
2
 70
0
 10
898.644240
 20
735.745756
 30
0.0
 10
898.644240
 20
735.745756
 30
0.0
  0
LWPOLYLINE
  5
2bc
100
AcDbEntity
  8
0
 62
1
100
AcDbPolyline
 90
2
 70
0
 10
300.026720
 20
738.345756
 30
0.0
 10
300.026720
 20
738.345756
 30
0.0
  0
LWPOLYLINE
  5
2bd
100
AcDbEntity
  8
0
 62
1
100
AcDbPolyline
 90
2
 70
0
 10
273.311720
 20
800.095805
 30
0.0
 10
273.311720
 20
800.095753
 30
0.0
  0
SPLINE
  5
2be
100
AcDbEntity
  8
0
 62
1
100
AcDbSpline
 70
8
 71
3
 72
8
 73
4
 74
0
 40
0
 40
0
 40
0
 40
0
 40
1
 40
1
 40
1
 40
1
 10
267.332096
 20
746.134700
 30
0.0
 10
267.332096
 20
746.134700
 30
0.0
 10
267.990128
 20
799.662201
 30
0.0
 10
231.002376
 20
799.662201
 30
0.0
  0
SPLINE
  5
2bf
100
AcDbEntity
  8
0
 62
1
100
AcDbSpline
 70
8
 71
3
 72
8
 73
4
 74
0
 40
0
 40
0
 40
0
 40
0
 40
1
 40
1
 40
1
 40
1
 10
975.122400
 20
803.854700
 30
0.0
 10
946.594880
 20
803.305724
 30
0.0
 10
950.011600
 20
743.112588
 30
0.0
 10
950.011600
 20
743.112588
 30
0.0
  0
SPLINE
  5
2c0
100
AcDbEntity
  8
0
 62
1
100
AcDbSpline
 70
8
 71
3
 72
8
 73
4
 74
0
 40
0
 40
0
 40
0
 40
0
 40
1
 40
1
 40
1
 40
1
 10
767.361568
 20
742.007588
 30
0.0
 10
767.361568
 20
742.007588
 30
0.0
 10
726.676536
 20
794.949032
 30
0.0
 10
694.452368
 20
801.482197
 30
0.0
  0
SPLINE
  5
2c1
100
AcDbEntity
  8
0
 62
1
100
AcDbSpline
 70
8
 71
3
 72
8
 73
4
 74
0
 40
0
 40
0
 40
0
 40
0
 40
1
 40
1
 40
1
 40
1
 10
694.452368
 20
801.482197
 30
0.0
 10
669.187240
 20
794.522717
 30
0.0
 10
652.494872
 20
748.312196
 30
0.0
 10
652.494872
 20
748.312196
 30
0.0
  0
SPLINE
  5
2c2
100
AcDbEntity
  8
0
 62
1
100
AcDbSpline
 70
8
 71
3
 72
8
 73
4
 74
0
 40
0
 40
0
 40
0
 40
0
 40
1
 40
1
 40
1
 40
1
 10
652.494872
 20
748.312196
 30
0.0
 10
652.494872
 20
748.312196
 30
0.0
 10
635.399088
 20
792.386257
 30
0.0
 10
604.589872
 20
800.539701
 30
0.0
  0
SPLINE
  5
2c3
100
AcDbEntity
  8
0
 62
1
100
AcDbSpline
 70
8
 71
3
 72
8
 73
4
 74
0
 40
0
 40
0
 40
0
 40
0
 40
1
 40
1
 40
1
 40
1
 10
604.589872
 20
800.539701
 30
0.0
 10
579.834616
 20
792.740727
 30
0.0
 10
563.509872
 20
747.629700
 30
0.0
 10
563.509872
 20
747.629700
 30
0.0
  0
SPLINE
  5
2c4
100
AcDbEntity
  8
0
 62
1
100
AcDbSpline
 70
8
 71
3
 72
8
 73
4
 74
0
 40
0
 40
0
 40
0
 40
0
 40
1
 40
1
 40
1
 40
1
 10
563.509872
 20
747.629700
 30
0.0
 10
563.509872
 20
747.629700
 30
0.0
 10
545.586544
 20
793.876534
 30
0.0
 10
513.362368
 20
800.409700
 30
0.0
  0
SPLINE
  5
2c5
100
AcDbEntity
  8
0
 62
1
100
AcDbSpline
 70
8
 71
3
 72
8
 73
4
 74
0
 40
0
 40
0
 40
0
 40
0
 40
1
 40
1
 40
1
 40
1
 10
513.362368
 20
800.409700
 30
0.0
 10
488.097240
 20
793.450215
 30
0.0
 10
444.301528
 20
733.985036
 30
0.0
 10
444.301528
 20
733.985036
 30
0.0
  0
SPLINE
  5
2c6
100
AcDbEntity
  8
0
 62
1
100
AcDbSpline
 70
8
 71
3
 72
8
 73
4
 74
0
 40
0
 40
0
 40
0
 40
0
 40
1
 40
1
 40
1
 40
1
 10
330.712368
 20
799.304701
 30
0.0
 10
305.447240
 20
792.345216
 30
0.0
 10
267.332096
 20
746.134700
 30
0.0
 10
267.332096
 20
746.134700
 30
0.0
  0
LWPOLYLINE
  5
2c7
100
AcDbEntity
  8
0
 62
1
100
AcDbPolyline
 90
2
 70
0
 10
590.154224
 20
801.688357
 30
0.0
 10
590.154224
 20
801.688253
 30
0.0
  0
SPLINE
  5
2c8
100
AcDbEntity
  8
0
 62
7
100
AcDbSpline
 70
8
 71
3
 72
8
 73
4
 74
0
 40
0
 40
0
 40
0
 40
0
 40
1
 40
1
 40
1
 40
1
 10
471.464224
 20
619.850756
 30
0.0
 10
479.107568
 20
675.438732
 30
0.0
 10
463.825048
 20
685.683956
 30
0.0
 10
464.866720
 20
720.860756
 30
0.0
  0
SPLINE
  5
2c9
100
AcDbEntity
  8
0
 62
7
100
AcDbSpline
 70
8
 71
3
 72
8
 73
4
 74
0
 40
0
 40
0
 40
0
 40
0
 40
1
 40
1
 40
1
 40
1
 10
464.866720
 20
720.860756
 30
0.0
 10
452.180000
 20
706.374596
 30
0.0
 10
442.636720
 20
693.300756
 30
0.0
 10
442.636720
 20
693.300756
 30
0.0
  0
SPLINE
  5
2ca
100
AcDbEntity
  8
0
 62
7
100
AcDbSpline
 70
8
 71
3
 72
8
 73
4
 74
0
 40
0
 40
0
 40
0
 40
0
 40
1
 40
1
 40
1
 40
1
 10
447.706720
 20
737.500756
 30
0.0
 10
447.022528
 20
736.933116
 30
0.0
 10
446.319776
 20
736.361524
 30
0.0
 10
445.626720
 20
735.778252
 30
0.0
  0
SPLINE
  5
2cb
100
AcDbEntity
  8
0
 62
7
100
AcDbSpline
 70
8
 71
3
 72
8
 73
4
 74
0
 40
0
 40
0
 40
0
 40
0
 40
1
 40
1
 40
1
 40
1
 10
391.384168
 20
740.945756
 30
0.0
 10
373.489288
 20
728.698476
 30
0.0
 10
354.334168
 20
714.750756
 30
0.0
 10
354.334168
 20
714.750756
 30
0.0
  0
SPLINE
  5
2cc
100
AcDbEntity
  8
0
 62
7
100
AcDbSpline
 70
8
 71
3
 72
8
 73
4
 74
0
 40
0
 40
0
 40
0
 40
0
 40
1
 40
1
 40
1
 40
1
 10
354.334168
 20
714.750756
 30
0.0
 10
354.334168
 20
714.750756
 30
0.0
 10
356.223912
 20
756.565428
 30
0.0
 10
321.866672
 20
758.528252
 30
0.0
  0
SPLINE
  5
2cd
100
AcDbEntity
  8
0
 62
7
100
AcDbSpline
 70
8
 71
3
 72
8
 73
4
 74
0
 40
0
 40
0
 40
0
 40
0
 40
1
 40
1
 40
1
 40
1
 10
321.866672
 20
758.528252
 30
0.0
 10
312.056288
 20
752.142188
 30
0.0
 10
303.953128
 20
745.160500
 30
0.0
 10
300.059168
 20
738.345756
 30
0.0
  0
SPLINE
  5
2ce
100
AcDbEntity
  8
0
 62
7
100
AcDbSpline
 70
8
 71
3
 72
8
 73
4
 74
0
 40
0
 40
0
 40
0
 40
0
 40
1
 40
1
 40
1
 40
1
 10
300.059168
 20
738.345756
 30
0.0
 10
300.059168
 20
738.345756
 30
0.0
 10
306.275520
 20
762.382846
 30
0.0
 10
294.501672
 20
774.875753
 30
0.0
  0
SPLINE
  5
2cf
100
AcDbEntity
  8
0
 62
7
100
AcDbSpline
 70
8
 71
3
 72
8
 73
4
 74
0
 40
0
 40
0
 40
0
 40
0
 40
1
 40
1
 40
1
 40
1
 10
294.501672
 20
774.875753
 30
0.0
 10
279.421344
 20
760.824388
 30
0.0
 10
267.331672
 20
746.145756
 30
0.0
 10
267.331672
 20
746.145756
 30
0.0
  0
SPLINE
  5
2d0
100
AcDbEntity
  8
0
 62
7
100
AcDbSpline
 70
8
 71
3
 72
8
 73
4
 74
0
 40
0
 40
0
 40
0
 40
0
 40
1
 40
1
 40
1
 40
1
 10
267.331672
 20
746.145756
 30
0.0
 10
267.331672
 20
746.145756
 30
0.0
 10
267.984416
 20
799.673256
 30
0.0
 10
230.996672
 20
799.673256
 30
0.0
  0
SPLINE
  5
2d1
100
AcDbEntity
  8
0
 62
7
100
AcDbSpline
 70
8
 71
3
 72
8
 73
4
 74
0
 40
0
 40
0
 40
0
 40
0
 40
1
 40
1
 40
1
 40
1
 10
230.996672
 20
799.673256
 30
0.0
 10
333.396392
 20
799.447138
 30
0.0
 10
441.308720
 20
800.709260
 30
0.0
 10
547.969168
 20
802.013256
 30
0.0
  0
LWPOLYLINE
  5
2d2
100
AcDbEntity
  8
0
 62
1
100
AcDbPolyline
 90
2
 70
0
 10
681.576720
 20
802.370753
 30
0.0
 10
681.576720
 20
802.370753
 30
0.0
  0
SPLINE
  5
2d3
100
AcDbEntity
  8
0
 62
7
100
AcDbSpline
 70
8
 71
3
 72
8
 73
4
 74
0
 40
0
 40
0
 40
0
 40
0
 40
1
 40
1
 40
1
 40
1
 10
562.023152
 20
802.176106
 30
0.0
 10
708.881536
 20
803.973967
 30
0.0
 10
852.703440
 20
805.762569
 30
0.0
 10
975.116320
 20
803.865632
 30
0.0
  0
SPLINE
  5
2d4
100
AcDbEntity
  8
0
 62
7
100
AcDbSpline
 70
8
 71
3
 72
8
 73
4
 74
0
 40
0
 40
0
 40
0
 40
0
 40
1
 40
1
 40
1
 40
1
 10
975.116640
 20
803.865755
 30
0.0
 10
946.589120
 20
803.316779
 30
0.0
 10
950.026640
 20
743.123252
 30
0.0
 10
950.026640
 20
743.123252
 30
0.0
  0
SPLINE
  5
2d5
100
AcDbEntity
  8
0
 62
7
100
AcDbSpline
 70
8
 71
3
 72
8
 73
4
 74
0
 40
0
 40
0
 40
0
 40
0
 40
1
 40
1
 40
1
 40
1
 10
950.026640
 20
743.123252
 30
0.0
 10
950.026640
 20
743.123252
 30
0.0
 10
933.655360
 20
764.423547
 30
0.0
 10
913.464160
 20
781.668253
 30
0.0
  0
SPLINE
  5
2d6
100
AcDbEntity
  8
0
 62
7
100
AcDbSpline
 70
8
 71
3
 72
8
 73
4
 74
0
 40
0
 40
0
 40
0
 40
0
 40
1
 40
1
 40
1
 40
1
 10
913.464160
 20
781.668253
 30
0.0
 10
895.960240
 20
770.185335
 30
0.0
 10
898.644160
 20
735.745756
 30
0.0
 10
898.644160
 20
735.745756
 30
0.0
  0
SPLINE
  5
2d7
100
AcDbEntity
  8
0
 62
7
100
AcDbSpline
 70
8
 71
3
 72
8
 73
4
 74
0
 40
0
 40
0
 40
0
 40
0
 40
1
 40
1
 40
1
 40
1
 10
898.644160
 20
735.745756
 30
0.0
 10
898.644160
 20
735.745756
 30
0.0
 10
887.640960
 20
748.031812
 30
0.0
 10
872.611680
 20
760.315756
 30
0.0
  0
SPLINE
  5
2d8
100
AcDbEntity
  8
0
 62
7
100
AcDbSpline
 70
8
 71
3
 72
8
 73
4
 74
0
 40
0
 40
0
 40
0
 40
0
 40
1
 40
1
 40
1
 40
1
 10
872.611680
 20
760.315756
 30
0.0
 10
868.419520
 20
759.901188
 30
0.0
 10
864.970320
 20
758.930812
 30
0.0
 10
862.114160
 20
757.520756
 30
0.0
  0
SPLINE
  5
2d9
100
AcDbEntity
  8
0
 62
7
100
AcDbSpline
 70
8
 71
3
 72
8
 73
4
 74
0
 40
0
 40
0
 40
0
 40
0
 40
1
 40
1
 40
1
 40
1
 10
862.114160
 20
757.520756
 30
0.0
 10
863.004720
 20
743.802004
 30
0.0
 10
865.494160
 20
732.300756
 30
0.0
 10
865.494160
 20
732.300756
 30
0.0
  0
SPLINE
  5
2da
100
AcDbEntity
  8
0
 62
7
100
AcDbSpline
 70
8
 71
3
 72
8
 73
4
 74
0
 40
0
 40
0
 40
0
 40
0
 40
1
 40
1
 40
1
 40
1
 10
865.494160
 20
732.300756
 30
0.0
 10
865.494160
 20
732.300756
 30
0.0
 10
860.455760
 20
738.823140
 30
0.0
 10
852.656640
 20
747.835756
 30
0.0
  0
SPLINE
  5
2db
100
AcDbEntity
  8
0
 62
7
100
AcDbSpline
 70
8
 71
3
 72
8
 73
4
 74
0
 40
0
 40
0
 40
0
 40
0
 40
1
 40
1
 40
1
 40
1
 10
852.656640
 20
747.835756
 30
0.0
 10
844.695440
 20
730.440084
 30
0.0
 10
858.311680
 20
701.360756
 30
0.0
 10
858.311680
 20
701.360756
 30
0.0
  0
SPLINE
  5
2dc
100
AcDbEntity
  8
0
 62
7
100
AcDbSpline
 70
8
 71
3
 72
8
 73
4
 74
0
 40
0
 40
0
 40
0
 40
0
 40
1
 40
1
 40
1
 40
1
 10
858.311680
 20
701.360756
 30
0.0
 10
858.311680
 20
701.360756
 30
0.0
 10
836.404320
 20
728.301796
 30
0.0
 10
812.161680
 20
745.853252
 30
0.0
  0
SPLINE
  5
2dd
100
AcDbEntity
  8
0
 62
7
100
AcDbSpline
 70
8
 71
3
 72
8
 73
4
 74
0
 40
0
 40
0
 40
0
 40
0
 40
1
 40
1
 40
1
 40
1
 10
812.161680
 20
745.853252
 30
0.0
 10
811.973280
 20
745.692204
 30
0.0
 10
811.789760
 20
745.531508
 30
0.0
 10
811.609200
 20
745.365756
 30
0.0
  0
SPLINE
  5
2de
100
AcDbEntity
  8
0
 62
7
100
AcDbSpline
 70
8
 71
3
 72
8
 73
4
 74
0
 40
0
 40
0
 40
0
 40
0
 40
1
 40
1
 40
1
 40
1
 10
811.609200
 20
745.365756
 30
0.0
 10
811.366320
 20
733.615884
 30
0.0
 10
812.844160
 20
723.785756
 30
0.0
 10
812.844160
 20
723.785756
 30
0.0
  0
SPLINE
  5
2df
100
AcDbEntity
  8
0
 62
7
100
AcDbSpline
 70
8
 71
3
 72
8
 73
4
 74
0
 40
0
 40
0
 40
0
 40
0
 40
1
 40
1
 40
1
 40
1
 10
812.844160
 20
723.785756
 30
0.0
 10
812.844160
 20
723.785756
 30
0.0
 10
809.844560
 20
727.605044
 30
0.0
 10
804.914160
 20
733.243252
 30
0.0
  0
SPLINE
  5
2e0
100
AcDbEntity
  8
0
 62
7
100
AcDbSpline
 70
8
 71
3
 72
8
 73
4
 74
0
 40
0
 40
0
 40
0
 40
0
 40
1
 40
1
 40
1
 40
1
 10
804.914160
 20
733.243252
 30
0.0
 10
801.056560
 20
715.948236
 30
0.0
 10
811.901680
 20
693.203252
 30
0.0
 10
811.901680
 20
693.203252
 30
0.0
  0
SPLINE
  5
2e1
100
AcDbEntity
  8
0
 62
7
100
AcDbSpline
 70
8
 71
3
 72
8
 73
4
 74
0
 40
0
 40
0
 40
0
 40
0
 40
1
 40
1
 40
1
 40
1
 10
811.901680
 20
693.203252
 30
0.0
 10
811.901680
 20
693.203252
 30
0.0
 10
798.634008
 20
709.745244
 30
0.0
 10
781.546672
 20
725.280756
 30
0.0
  0
SPLINE
  5
2e2
100
AcDbEntity
  8
0
 62
7
100
AcDbSpline
 70
8
 71
3
 72
8
 73
4
 74
0
 40
0
 40
0
 40
0
 40
0
 40
1
 40
1
 40
1
 40
1
 10
781.546672
 20
725.280756
 30
0.0
 10
771.868448
 20
708.384460
 30
0.0
 10
755.357024
 20
689.842068
 30
0.0
 10
729.936664
 20
669.088252
 30
0.0
  0
LWPOLYLINE
  5
2e3
100
AcDbEntity
  8
0
 62
1
100
AcDbPolyline
 90
2
 70
0
 10
267.332096
 20
746.134700
 30
0.0
 10
267.332096
 20
746.134700
 30
0.0
  0
LWPOLYLINE
  5
2e4
100
AcDbEntity
  8
0
 62
7
100
AcDbPolyline
 90
4
 70
0
 10
547.945400
 20
802.032554
 30
0.0
 10
547.885160
 20
707.191524
 30
0.0
 10
561.535656
 20
706.866396
 30
0.0
 10
561.595976
 20
802.195120
 30
0.0
  0
SPLINE
  5
2e5
100
AcDbEntity
  8
0
 62
1
100
AcDbSpline
 70
8
 71
3
 72
8
 73
4
 74
0
 40
0
 40
0
 40
0
 40
0
 40
1
 40
1
 40
1
 40
1
 10
386.769224
 20
775.428253
 30
0.0
 10
394.594952
 20
766.796160
 30
0.0
 10
393.577016
 20
751.928812
 30
0.0
 10
391.351720
 20
740.913252
 30
0.0
  0
LWPOLYLINE
  5
2e6
100
AcDbEntity
  8
0
 62
7
100
AcDbPolyline
 90
2
 70
0
 10
547.969224
 20
802.013256
 30
0.0
 10
547.969224
 20
802.175755
 30
0.0
  0
LWPOLYLINE
  5
2e7
100
AcDbEntity
  8
0
 62
1
100
AcDbPolyline
 90
2
 70
0
 10
445.334224
 20
743.220756
 30
0.0
 10
445.334224
 20
743.220756
 30
0.0
  0
LWPOLYLINE
  5
2e8
100
AcDbEntity
  8
0
 62
1
100
AcDbPolyline
 90
2
 70
0
 10
444.131720
 20
771.788253
 30
0.0
 10
444.131720
 20
771.788253
 30
0.0
  0
SPLINE
  5
2e9
100
AcDbEntity
  8
0
 62
7
100
AcDbSpline
 70
8
 71
3
 72
8
 73
4
 74
0
 40
0
 40
0
 40
0
 40
0
 40
1
 40
1
 40
1
 40
1
 10
445.626720
 20
735.778252
 30
0.0
 10
445.012552
 20
734.962004
 30
0.0
 10
444.294224
 20
733.990756
 30
0.0
 10
444.294224
 20
733.990756
 30
0.0
  0
SPLINE
  5
2ea
100
AcDbEntity
  8
0
 62
7
100
AcDbSpline
 70
8
 71
3
 72
8
 73
4
 74
0
 40
0
 40
0
 40
0
 40
0
 40
1
 40
1
 40
1
 40
1
 10
444.294224
 20
733.990756
 30
0.0
 10
444.294224
 20
733.990756
 30
0.0
 10
444.369184
 20
734.562788
 30
0.0
 10
444.391672
 20
734.705756
 30
0.0
  0
SPLINE
  5
2eb
100
AcDbEntity
  8
0
 62
7
100
AcDbSpline
 70
8
 71
3
 72
8
 73
4
 74
0
 40
0
 40
0
 40
0
 40
0
 40
1
 40
1
 40
1
 40
1
 10
405.911672
 20
699.573252
 30
0.0
 10
405.911672
 20
699.573252
 30
0.0
 10
414.858776
 20
723.098492
 30
0.0
 10
400.354168
 20
738.313252
 30
0.0
  0
SPLINE
  5
2ec
100
AcDbEntity
  8
0
 62
7
100
AcDbSpline
 70
8
 71
3
 72
8
 73
4
 74
0
 40
0
 40
0
 40
0
 40
0
 40
1
 40
1
 40
1
 40
1
 10
400.354168
 20
738.313252
 30
0.0
 10
392.584040
 20
731.641644
 30
0.0
 10
387.484168
 20
726.905756
 30
0.0
 10
387.484168
 20
726.905756
 30
0.0
  0
SPLINE
  5
2ed
100
AcDbEntity
  8
0
 62
7
100
AcDbSpline
 70
8
 71
3
 72
8
 73
4
 74
0
 40
0
 40
0
 40
0
 40
0
 40
1
 40
1
 40
1
 40
1
 10
387.484168
 20
726.905756
 30
0.0
 10
387.484168
 20
726.905756
 30
0.0
 10
389.761200
 20
732.900468
 30
0.0
 10
391.384168
 20
740.945756
 30
0.0
  0
SPLINE
  5
2ee
100
AcDbEntity
  8
0
 62
7
100
AcDbSpline
 70
8
 71
3
 72
8
 73
4
 74
0
 40
0
 40
0
 40
0
 40
0
 40
1
 40
1
 40
1
 40
1
 10
405.911672
 20
699.573252
 30
0.0
 10
405.911672
 20
699.573252
 30
0.0
 10
414.858776
 20
723.098492
 30
0.0
 10
400.354168
 20
738.313252
 30
0.0
  0
LWPOLYLINE
  5
2ef
100
AcDbEntity
  8
0
 62
1
100
AcDbPolyline
 90
2
 70
0
 10
387.484216
 20
726.905756
 30
0.0
 10
387.484216
 20
726.905756
 30
0.0
  0
SPLINE
  5
2f0
100
AcDbEntity
  8
0
 62
1
100
AcDbSpline
 70
8
 71
3
 72
8
 73
4
 74
0
 40
0
 40
0
 40
0
 40
0
 40
1
 40
1
 40
1
 40
1
 10
289.496720
 20
195.238252
 30
0.0
 10
280.732544
 20
195.574580
 30
0.0
 10
321.222536
 20
215.774292
 30
0.0
 10
368.439224
 20
256.175756
 30
0.0
  0
SPLINE
  5
2f1
100
AcDbEntity
  8
0
 62
1
100
AcDbSpline
 70
8
 71
3
 72
8
 73
4
 74
0
 40
0
 40
0
 40
0
 40
0
 40
1
 40
1
 40
1
 40
1
 10
368.439224
 20
256.175756
 30
0.0
 10
344.965400
 20
296.901260
 30
0.0
 10
374.140584
 20
358.836724
 30
0.0
 10
402.369224
 20
413.443252
 30
0.0
  0
SPLINE
  5
2f2
100
AcDbEntity
  8
0
 62
1
100
AcDbSpline
 70
8
 71
3
 72
8
 73
4
 74
0
 40
0
 40
0
 40
0
 40
0
 40
1
 40
1
 40
1
 40
1
 10
402.369224
 20
413.443252
 30
0.0
 10
439.020944
 20
502.143980
 30
0.0
 10
459.821952
 20
537.447220
 30
0.0
 10
471.464224
 20
619.850756
 30
0.0
  0
SPLINE
  5
2f3
100
AcDbEntity
  8
0
 62
1
100
AcDbSpline
 70
8
 71
3
 72
8
 73
4
 74
0
 40
0
 40
0
 40
0
 40
0
 40
1
 40
1
 40
1
 40
1
 10
729.936720
 20
669.088252
 30
0.0
 10
697.262000
 20
642.411796
 30
0.0
 10
696.223656
 20
626.917876
 30
0.0
 10
708.974224
 20
597.458252
 30
0.0
  0
SPLINE
  5
2f4
100
AcDbEntity
  8
0
 62
1
100
AcDbSpline
 70
8
 71
3
 72
8
 73
4
 74
0
 40
0
 40
0
 40
0
 40
0
 40
1
 40
1
 40
1
 40
1
 10
708.974224
 20
597.458252
 30
0.0
 10
741.215576
 20
572.170612
 30
0.0
 10
745.609424
 20
566.696876
 30
0.0
 10
759.316720
 20
561.155756
 30
0.0
  0
SPLINE
  5
2f5
100
AcDbEntity
  8
0
 62
1
100
AcDbSpline
 70
8
 71
3
 72
8
 73
4
 74
0
 40
0
 40
0
 40
0
 40
0
 40
1
 40
1
 40
1
 40
1
 10
759.316720
 20
561.155756
 30
0.0
 10
762.179976
 20
559.989252
 30
0.0
 10
764.449096
 20
559.066516
 30
0.0
 10
767.051720
 20
558.003252
 30
0.0
  0
SPLINE
  5
2f6
100
AcDbEntity
  8
0
 62
1
100
AcDbSpline
 70
8
 71
3
 72
8
 73
4
 74
0
 40
0
 40
0
 40
0
 40
0
 40
1
 40
1
 40
1
 40
1
 10
767.051720
 20
558.003252
 30
0.0
 10
742.540888
 20
591.646284
 30
0.0
 10
714.046568
 20
622.971740
 30
0.0
 10
711.021720
 20
639.740756
 30
0.0
  0
SPLINE
  5
2f7
100
AcDbEntity
  8
0
 62
1
100
AcDbSpline
 70
8
 71
3
 72
8
 73
4
 74
0
 40
0
 40
0
 40
0
 40
0
 40
1
 40
1
 40
1
 40
1
 10
711.021720
 20
639.740756
 30
0.0
 10
703.646448
 20
680.627436
 30
0.0
 10
789.609520
 20
641.059612
 30
0.0
 10
772.804224
 20
641.528252
 30
0.0
  0
SPLINE
  5
2f8
100
AcDbEntity
  8
0
 62
1
100
AcDbSpline
 70
8
 71
3
 72
8
 73
4
 74
0
 40
0
 40
0
 40
0
 40
0
 40
1
 40
1
 40
1
 40
1
 10
772.804224
 20
641.528252
 30
0.0
 10
753.953024
 20
642.053956
 30
0.0
 10
706.972920
 20
662.500908
 30
0.0
 10
738.484216
 20
617.965756
 30
0.0
  0
SPLINE
  5
2f9
100
AcDbEntity
  8
0
 62
1
100
AcDbSpline
 70
8
 71
3
 72
8
 73
4
 74
0
 40
0
 40
0
 40
0
 40
0
 40
1
 40
1
 40
1
 40
1
 10
738.484216
 20
617.965756
 30
0.0
 10
752.216664
 20
598.557620
 30
0.0
 10
777.498896
 20
572.789932
 30
0.0
 10
798.999224
 20
544.743252
 30
0.0
  0
SPLINE
  5
2fa
100
AcDbEntity
  8
0
 62
1
100
AcDbSpline
 70
8
 71
3
 72
8
 73
4
 74
0
 40
0
 40
0
 40
0
 40
0
 40
1
 40
1
 40
1
 40
1
 10
798.999224
 20
544.743252
 30
0.0
 10
817.092560
 20
537.016284
 30
0.0
 10
824.920560
 20
532.981492
 30
0.0
 10
836.959200
 20
526.120756
 30
0.0
  0
SPLINE
  5
2fb
100
AcDbEntity
  8
0
 62
1
100
AcDbSpline
 70
8
 71
3
 72
8
 73
4
 74
0
 40
0
 40
0
 40
0
 40
0
 40
1
 40
1
 40
1
 40
1
 10
836.959200
 20
526.120756
 30
0.0
 10
846.311280
 20
520.791076
 30
0.0
 10
868.359840
 20
510.315460
 30
0.0
 10
888.699200
 20
498.820756
 30
0.0
  0
SPLINE
  5
2fc
100
AcDbEntity
  8
0
 62
1
100
AcDbSpline
 70
8
 71
3
 72
8
 73
4
 74
0
 40
0
 40
0
 40
0
 40
0
 40
1
 40
1
 40
1
 40
1
 10
888.699200
 20
498.820756
 30
0.0
 10
910.696480
 20
497.693276
 30
0.0
 10
938.539840
 20
493.198116
 30
0.0
 10
956.299200
 20
479.775756
 30
0.0
  0
SPLINE
  5
2fd
100
AcDbEntity
  8
0
 62
1
100
AcDbSpline
 70
8
 71
3
 72
8
 73
4
 74
0
 40
0
 40
0
 40
0
 40
0
 40
1
 40
1
 40
1
 40
1
 10
956.299200
 20
479.775756
 30
0.0
 10
975.749120
 20
465.075716
 30
0.0
 10
962.978720
 20
436.617356
 30
0.0
 10
949.724080
 20
419.575636
 30
0.0
  0
SPLINE
  5
2fe
100
AcDbEntity
  8
0
 62
1
100
AcDbSpline
 70
8
 71
3
 72
8
 73
4
 74
0
 40
0
 40
0
 40
0
 40
0
 40
1
 40
1
 40
1
 40
1
 10
949.724080
 20
419.575636
 30
0.0
 10
936.469440
 20
402.533924
 30
0.0
 10
956.980000
 20
460.816700
 30
0.0
 10
945.541760
 20
463.883252
 30
0.0
  0
SPLINE
  5
2ff
100
AcDbEntity
  8
0
 62
1
100
AcDbSpline
 70
8
 71
3
 72
8
 73
4
 74
0
 40
0
 40
0
 40
0
 40
0
 40
1
 40
1
 40
1
 40
1
 10
945.541760
 20
463.883252
 30
0.0
 10
940.454640
 20
465.247076
 30
0.0
 10
934.939760
 20
466.604444
 30
0.0
 10
929.129200
 20
467.848252
 30
0.0
  0
SPLINE
  5
300
100
AcDbEntity
  8
0
 62
1
100
AcDbSpline
 70
8
 71
3
 72
8
 73
4
 74
0
 40
0
 40
0
 40
0
 40
0
 40
1
 40
1
 40
1
 40
1
 10
929.129200
 20
467.848252
 30
0.0
 10
930.852880
 20
464.513180
 30
0.0
 10
930.910800
 20
461.492316
 30
0.0
 10
928.771760
 20
458.910756
 30
0.0
  0
SPLINE
  5
301
100
AcDbEntity
  8
0
 62
1
100
AcDbSpline
 70
8
 71
3
 72
8
 73
4
 74
0
 40
0
 40
0
 40
0
 40
0
 40
1
 40
1
 40
1
 40
1
 10
928.771760
 20
458.910756
 30
0.0
 10
917.666240
 20
445.507900
 30
0.0
 10
809.496720
 20
404.928252
 30
0.0
 10
809.496720
 20
404.928252
 30
0.0
  0
SPLINE
  5
302
100
AcDbEntity
  8
0
 62
1
100
AcDbSpline
 70
8
 71
3
 72
8
 73
4
 74
0
 40
0
 40
0
 40
0
 40
0
 40
1
 40
1
 40
1
 40
1
 10
809.496720
 20
404.928252
 30
0.0
 10
809.496720
 20
404.928252
 30
0.0
 10
725.989080
 20
375.929084
 30
0.0
 10
705.821720
 20
360.890756
 30
0.0
  0
SPLINE
  5
303
100
AcDbEntity
  8
0
 62
1
100
AcDbSpline
 70
8
 71
3
 72
8
 73
4
 74
0
 40
0
 40
0
 40
0
 40
0
 40
1
 40
1
 40
1
 40
1
 10
705.821720
 20
360.890756
 30
0.0
 10
697.337992
 20
354.564628
 30
0.0
 10
733.280696
 20
385.677948
 30
0.0
 10
774.461720
 20
410.615756
 30
0.0
  0
SPLINE
  5
304
100
AcDbEntity
  8
0
 62
1
100
AcDbSpline
 70
8
 71
3
 72
8
 73
4
 74
0
 40
0
 40
0
 40
0
 40
0
 40
1
 40
1
 40
1
 40
1
 10
774.461720
 20
410.615756
 30
0.0
 10
826.625920
 20
442.204996
 30
0.0
 10
871.899040
 20
453.965356
 30
0.0
 10
880.509200
 20
474.055756
 30
0.0
  0
SPLINE
  5
305
100
AcDbEntity
  8
0
 62
1
100
AcDbSpline
 70
8
 71
3
 72
8
 73
4
 74
0
 40
0
 40
0
 40
0
 40
0
 40
1
 40
1
 40
1
 40
1
 10
880.509200
 20
474.055756
 30
0.0
 10
880.588400
 20
474.239908
 30
0.0
 10
880.622080
 20
474.421588
 30
0.0
 10
880.671760
 20
474.608252
 30
0.0
  0
SPLINE
  5
306
100
AcDbEntity
  8
0
 62
1
100
AcDbSpline
 70
8
 71
3
 72
8
 73
4
 74
0
 40
0
 40
0
 40
0
 40
0
 40
1
 40
1
 40
1
 40
1
 10
880.671760
 20
474.608252
 30
0.0
 10
870.244160
 20
475.186220
 30
0.0
 10
860.356160
 20
475.036652
 30
0.0
 10
851.876720
 20
473.795756
 30
0.0
  0
SPLINE
  5
307
100
AcDbEntity
  8
0
 62
1
100
AcDbSpline
 70
8
 71
3
 72
8
 73
4
 74
0
 40
0
 40
0
 40
0
 40
0
 40
1
 40
1
 40
1
 40
1
 10
851.876720
 20
473.795756
 30
0.0
 10
845.004800
 20
472.790108
 30
0.0
 10
837.134560
 20
471.512644
 30
0.0
 10
828.736720
 20
470.058252
 30
0.0
  0
SPLINE
  5
308
100
AcDbEntity
  8
0
 62
1
100
AcDbSpline
 70
8
 71
3
 72
8
 73
4
 74
0
 40
0
 40
0
 40
0
 40
0
 40
1
 40
1
 40
1
 40
1
 10
828.736720
 20
470.058252
 30
0.0
 10
828.524880
 20
467.444180
 30
0.0
 10
828.105040
 20
464.969668
 30
0.0
 10
827.469200
 20
462.680756
 30
0.0
  0
SPLINE
  5
309
100
AcDbEntity
  8
0
 62
1
100
AcDbSpline
 70
8
 71
3
 72
8
 73
4
 74
0
 40
0
 40
0
 40
0
 40
0
 40
1
 40
1
 40
1
 40
1
 10
827.469200
 20
462.680756
 30
0.0
 10
822.735440
 20
445.639036
 30
0.0
 10
818.018080
 20
424.809740
 30
0.0
 10
787.721720
 20
426.703252
 30
0.0
  0
SPLINE
  5
30a
100
AcDbEntity
  8
0
 62
1
100
AcDbSpline
 70
8
 71
3
 72
8
 73
4
 74
0
 40
0
 40
0
 40
0
 40
0
 40
1
 40
1
 40
1
 40
1
 10
787.721720
 20
426.703252
 30
0.0
 10
766.279192
 20
428.043420
 30
0.0
 10
747.717552
 20
444.058916
 30
0.0
 10
738.679224
 20
453.320756
 30
0.0
  0
SPLINE
  5
30b
100
AcDbEntity
  8
0
 62
1
100
AcDbSpline
 70
8
 71
3
 72
8
 73
4
 74
0
 40
0
 40
0
 40
0
 40
0
 40
1
 40
1
 40
1
 40
1
 10
738.679224
 20
453.320756
 30
0.0
 10
665.712416
 20
433.633052
 30
0.0
 10
661.318520
 20
475.803284
 30
0.0
 10
613.814224
 20
602.235756
 30
0.0
  0
SPLINE
  5
30c
100
AcDbEntity
  8
0
 62
1
100
AcDbSpline
 70
8
 71
3
 72
8
 73
4
 74
0
 40
0
 40
0
 40
0
 40
0
 40
1
 40
1
 40
1
 40
1
 10
613.814224
 20
602.235756
 30
0.0
 10
622.541376
 20
569.027420
 30
0.0
 10
619.482760
 20
526.152076
 30
0.0
 10
635.881720
 20
496.968252
 30
0.0
  0
SPLINE
  5
30d
100
AcDbEntity
  8
0
 62
1
100
AcDbSpline
 70
8
 71
3
 72
8
 73
4
 74
0
 40
0
 40
0
 40
0
 40
0
 40
1
 40
1
 40
1
 40
1
 10
635.881720
 20
496.968252
 30
0.0
 10
664.490672
 20
449.230972
 30
0.0
 10
678.648544
 20
445.010996
 30
0.0
 10
685.021720
 20
435.153252
 30
0.0
  0
SPLINE
  5
30e
100
AcDbEntity
  8
0
 62
1
100
AcDbSpline
 70
8
 71
3
 72
8
 73
4
 74
0
 40
0
 40
0
 40
0
 40
0
 40
1
 40
1
 40
1
 40
1
 10
685.021720
 20
435.153252
 30
0.0
 10
691.657720
 20
424.888980
 30
0.0
 10
700.176480
 20
416.636596
 30
0.0
 10
706.699224
 20
406.878252
 30
0.0
  0
SPLINE
  5
30f
100
AcDbEntity
  8
0
 62
1
100
AcDbSpline
 70
8
 71
3
 72
8
 73
4
 74
0
 40
0
 40
0
 40
0
 40
0
 40
1
 40
1
 40
1
 40
1
 10
706.699224
 20
406.878252
 30
0.0
 10
732.173528
 20
400.855188
 30
0.0
 10
751.970008
 20
394.430460
 30
0.0
 10
748.656720
 20
394.658252
 30
0.0
  0
SPLINE
  5
310
100
AcDbEntity
  8
0
 62
1
100
AcDbSpline
 70
8
 71
3
 72
8
 73
4
 74
0
 40
0
 40
0
 40
0
 40
0
 40
1
 40
1
 40
1
 40
1
 10
748.656720
 20
394.658252
 30
0.0
 10
738.170376
 20
395.379204
 30
0.0
 10
724.688072
 20
397.903668
 30
0.0
 10
710.631720
 20
400.248252
 30
0.0
  0
SPLINE
  5
311
100
AcDbEntity
  8
0
 62
1
100
AcDbSpline
 70
8
 71
3
 72
8
 73
4
 74
0
 40
0
 40
0
 40
0
 40
0
 40
1
 40
1
 40
1
 40
1
 10
710.631720
 20
400.248252
 30
0.0
 10
713.794600
 20
394.113428
 30
0.0
 10
716.008104
 20
387.216036
 30
0.0
 10
716.481720
 20
378.863252
 30
0.0
  0
SPLINE
  5
312
100
AcDbEntity
  8
0
 62
1
100
AcDbSpline
 70
8
 71
3
 72
8
 73
4
 74
0
 40
0
 40
0
 40
0
 40
0
 40
1
 40
1
 40
1
 40
1
 10
716.481720
 20
378.863252
 30
0.0
 10
717.628760
 20
358.634156
 30
0.0
 10
664.704304
 20
342.760692
 30
0.0
 10
651.254224
 20
339.083252
 30
0.0
  0
SPLINE
  5
313
100
AcDbEntity
  8
0
 62
1
100
AcDbSpline
 70
8
 71
3
 72
8
 73
4
 74
0
 40
0
 40
0
 40
0
 40
0
 40
1
 40
1
 40
1
 40
1
 10
651.254224
 20
339.083252
 30
0.0
 10
647.905776
 20
338.167740
 30
0.0
 10
642.592256
 20
341.328260
 30
0.0
 10
635.069224
 20
347.500756
 30
0.0
  0
SPLINE
  5
314
100
AcDbEntity
  8
0
 62
1
100
AcDbSpline
 70
8
 71
3
 72
8
 73
4
 74
0
 40
0
 40
0
 40
0
 40
0
 40
1
 40
1
 40
1
 40
1
 10
635.069224
 20
347.500756
 30
0.0
 10
637.797736
 20
321.508244
 30
0.0
 10
576.153280
 20
306.744372
 30
0.0
 10
560.481720
 20
308.825756
 30
0.0
  0
SPLINE
  5
315
100
AcDbEntity
  8
0
 62
1
100
AcDbSpline
 70
8
 71
3
 72
8
 73
4
 74
0
 40
0
 40
0
 40
0
 40
0
 40
1
 40
1
 40
1
 40
1
 10
560.481720
 20
308.825756
 30
0.0
 10
534.483040
 20
312.278692
 30
0.0
 10
534.319216
 20
334.417116
 30
0.0
 10
534.319216
 20
345.778252
 30
0.0
  0
SPLINE
  5
316
100
AcDbEntity
  8
0
 62
1
100
AcDbSpline
 70
8
 71
3
 72
8
 73
4
 74
0
 40
0
 40
0
 40
0
 40
0
 40
1
 40
1
 40
1
 40
1
 10
534.319216
 20
345.778252
 30
0.0
 10
534.319216
 20
366.518484
 30
0.0
 10
542.574680
 20
386.162580
 30
0.0
 10
547.514224
 20
428.978252
 30
0.0
  0
SPLINE
  5
317
100
AcDbEntity
  8
0
 62
1
100
AcDbSpline
 70
8
 71
3
 72
8
 73
4
 74
0
 40
0
 40
0
 40
0
 40
0
 40
1
 40
1
 40
1
 40
1
 10
547.514224
 20
428.978252
 30
0.0
 10
546.551576
 20
429.897164
 30
0.0
 10
542.541720
 20
433.723252
 30
0.0
 10
542.541720
 20
433.723252
 30
0.0
  0
SPLINE
  5
318
100
AcDbEntity
  8
0
 62
1
100
AcDbSpline
 70
8
 71
3
 72
8
 73
4
 74
0
 40
0
 40
0
 40
0
 40
0
 40
1
 40
1
 40
1
 40
1
 10
542.541720
 20
433.723252
 30
0.0
 10
542.541720
 20
433.723252
 30
0.0
 10
544.692368
 20
432.304724
 30
0.0
 10
547.676720
 20
430.375756
 30
0.0
  0
SPLINE
  5
319
100
AcDbEntity
  8
0
 62
1
100
AcDbSpline
 70
8
 71
3
 72
8
 73
4
 74
0
 40
0
 40
0
 40
0
 40
0
 40
1
 40
1
 40
1
 40
1
 10
547.676720
 20
430.375756
 30
0.0
 10
547.823416
 20
431.681700
 30
0.0
 10
547.991648
 20
432.926412
 30
0.0
 10
548.131720
 20
434.275756
 30
0.0
  0
SPLINE
  5
31a
100
AcDbEntity
  8
0
 62
1
100
AcDbSpline
 70
8
 71
3
 72
8
 73
4
 74
0
 40
0
 40
0
 40
0
 40
0
 40
1
 40
1
 40
1
 40
1
 10
548.131720
 20
434.275756
 30
0.0
 10
549.247320
 20
445.022476
 30
0.0
 10
546.353104
 20
460.788820
 30
0.0
 10
542.021720
 20
476.980756
 30
0.0
  0
SPLINE
  5
31b
100
AcDbEntity
  8
0
 62
1
100
AcDbSpline
 70
8
 71
3
 72
8
 73
4
 74
0
 40
0
 40
0
 40
0
 40
0
 40
1
 40
1
 40
1
 40
1
 10
542.021720
 20
476.980756
 30
0.0
 10
539.869064
 20
442.379948
 30
0.0
 10
530.167520
 20
401.970740
 30
0.0
 10
518.849224
 20
382.210756
 30
0.0
  0
SPLINE
  5
31c
100
AcDbEntity
  8
0
 62
1
100
AcDbSpline
 70
8
 71
3
 72
8
 73
4
 74
0
 40
0
 40
0
 40
0
 40
0
 40
1
 40
1
 40
1
 40
1
 10
518.849224
 20
382.210756
 30
0.0
 10
510.156048
 20
367.033836
 30
0.0
 10
500.020288
 20
350.102300
 30
0.0
 10
487.974224
 20
332.745756
 30
0.0
  0
SPLINE
  5
31d
100
AcDbEntity
  8
0
 62
1
100
AcDbSpline
 70
8
 71
3
 72
8
 73
4
 74
0
 40
0
 40
0
 40
0
 40
0
 40
1
 40
1
 40
1
 40
1
 10
487.974224
 20
332.745756
 30
0.0
 10
495.368632
 20
333.405340
 30
0.0
 10
528.856024
 20
325.771524
 30
0.0
 10
546.766720
 20
312.433252
 30
0.0
  0
SPLINE
  5
31e
100
AcDbEntity
  8
0
 62
1
100
AcDbSpline
 70
8
 71
3
 72
8
 73
4
 74
0
 40
0
 40
0
 40
0
 40
0
 40
1
 40
1
 40
1
 40
1
 10
546.766720
 20
312.433252
 30
0.0
 10
562.302328
 20
300.863740
 30
0.0
 10
514.305344
 20
279.837356
 30
0.0
 10
494.896720
 20
272.263252
 30
0.0
  0
SPLINE
  5
31f
100
AcDbEntity
  8
0
 62
1
100
AcDbSpline
 70
8
 71
3
 72
8
 73
4
 74
0
 40
0
 40
0
 40
0
 40
0
 40
1
 40
1
 40
1
 40
1
 10
494.896720
 20
272.263252
 30
0.0
 10
456.079488
 20
257.115060
 30
0.0
 10
439.298800
 20
246.818948
 30
0.0
 10
393.854224
 20
231.670756
 30
0.0
  0
SPLINE
  5
320
100
AcDbEntity
  8
0
 62
1
100
AcDbSpline
 70
8
 71
3
 72
8
 73
4
 74
0
 40
0
 40
0
 40
0
 40
0
 40
1
 40
1
 40
1
 40
1
 10
393.854224
 20
231.670756
 30
0.0
 10
392.185272
 20
232.637628
 30
0.0
 10
390.606656
 20
233.634660
 30
0.0
 10
389.076720
 20
234.660756
 30
0.0
  0
SPLINE
  5
321
100
AcDbEntity
  8
0
 62
1
100
AcDbSpline
 70
8
 71
3
 72
8
 73
4
 74
0
 40
0
 40
0
 40
0
 40
0
 40
1
 40
1
 40
1
 40
1
 10
389.076720
 20
234.660756
 30
0.0
 10
362.141800
 20
217.588268
 30
0.0
 10
330.615336
 20
203.796660
 30
0.0
 10
293.494224
 20
195.693252
 30
0.0
  0
SPLINE
  5
322
100
AcDbEntity
  8
0
 62
1
100
AcDbSpline
 70
8
 71
3
 72
8
 73
4
 74
0
 40
0
 40
0
 40
0
 40
0
 40
1
 40
1
 40
1
 40
1
 10
293.494224
 20
195.693252
 30
0.0
 10
291.668400
 20
195.349652
 30
0.0
 10
290.349944
 20
195.205516
 30
0.0
 10
289.496720
 20
195.238252
 30
0.0
  0
SPLINE
  5
323
100
AcDbEntity
  8
0
 62
1
100
AcDbSpline
 70
8
 71
3
 72
8
 73
4
 74
0
 40
0
 40
0
 40
0
 40
0
 40
1
 40
1
 40
1
 40
1
 10
443.904224
 20
279.120756
 30
0.0
 10
453.730248
 20
281.186580
 30
0.0
 10
463.187472
 20
284.309292
 30
0.0
 10
469.611720
 20
286.595756
 30
0.0
  0
SPLINE
  5
324
100
AcDbEntity
  8
0
 62
1
100
AcDbSpline
 70
8
 71
3
 72
8
 73
4
 74
0
 40
0
 40
0
 40
0
 40
0
 40
1
 40
1
 40
1
 40
1
 10
469.611720
 20
286.595756
 30
0.0
 10
493.589600
 20
295.129756
 30
0.0
 10
567.113512
 20
304.506884
 30
0.0
 10
505.394224
 20
324.003252
 30
0.0
  0
SPLINE
  5
325
100
AcDbEntity
  8
0
 62
1
100
AcDbSpline
 70
8
 71
3
 72
8
 73
4
 74
0
 40
0
 40
0
 40
0
 40
0
 40
1
 40
1
 40
1
 40
1
 10
505.394224
 20
324.003252
 30
0.0
 10
494.194344
 20
327.541156
 30
0.0
 10
488.609856
 20
329.955860
 30
0.0
 10
486.999224
 20
331.348252
 30
0.0
  0
SPLINE
  5
326
100
AcDbEntity
  8
0
 62
1
100
AcDbSpline
 70
8
 71
3
 72
8
 73
4
 74
0
 40
0
 40
0
 40
0
 40
0
 40
1
 40
1
 40
1
 40
1
 10
486.999224
 20
331.348252
 30
0.0
 10
474.796344
 20
313.895748
 30
0.0
 10
460.631600
 20
296.044548
 30
0.0
 10
443.904224
 20
279.120756
 30
0.0
  0
LWPOLYLINE
  5
327
100
AcDbEntity
  8
0
 62
1
100
AcDbPolyline
 90
2
 70
0
 10
811.869200
 20
693.203252
 30
0.0
 10
811.869200
 20
693.203252
 30
0.0
  0
SPLINE
  5
328
100
AcDbEntity
  8
0
 62
1
100
AcDbSpline
 70
8
 71
3
 72
8
 73
4
 74
0
 40
0
 40
0
 40
0
 40
0
 40
1
 40
1
 40
1
 40
1
 10
402.986720
 20
288.740756
 30
0.0
 10
438.494720
 20
325.804316
 30
0.0
 10
472.111488
 20
373.954508
 30
0.0
 10
486.641720
 20
433.333252
 30
0.0
  0
SPLINE
  5
329
100
AcDbEntity
  8
0
 62
1
100
AcDbSpline
 70
8
 71
3
 72
8
 73
4
 74
0
 40
0
 40
0
 40
0
 40
0
 40
1
 40
1
 40
1
 40
1
 10
486.641720
 20
433.333252
 30
0.0
 10
486.641720
 20
433.333252
 30
0.0
 10
495.824328
 20
466.155436
 30
0.0
 10
498.764224
 20
514.648252
 30
0.0
  0
SPLINE
  5
32a
100
AcDbEntity
  8
0
 62
1
100
AcDbSpline
 70
8
 71
3
 72
8
 73
4
 74
0
 40
0
 40
0
 40
0
 40
0
 40
1
 40
1
 40
1
 40
1
 10
498.764224
 20
514.648252
 30
0.0
 10
495.842352
 20
502.276828
 30
0.0
 10
492.485872
 20
488.828068
 30
0.0
 10
489.501720
 20
479.710756
 30
0.0
  0
SPLINE
  5
32b
100
AcDbEntity
  8
0
 62
1
100
AcDbSpline
 70
8
 71
3
 72
8
 73
4
 74
0
 40
0
 40
0
 40
0
 40
0
 40
1
 40
1
 40
1
 40
1
 10
489.501720
 20
479.710756
 30
0.0
 10
468.516088
 20
418.666884
 30
0.0
 10
396.297032
 20
316.578100
 30
0.0
 10
402.986720
 20
288.740756
 30
0.0
  0
LWPOLYLINE
  5
32c
100
AcDbEntity
  8
0
 62
1
100
AcDbPolyline
 90
2
 70
0
 10
289.496720
 20
195.238252
 30
0.0
 10
289.496720
 20
195.238252
 30
0.0
  0
SPLINE
  5
32d
100
AcDbEntity
  8
0
 62
1
100
AcDbSpline
 70
8
 71
3
 72
8
 73
4
 74
0
 40
0
 40
0
 40
0
 40
0
 40
1
 40
1
 40
1
 40
1
 10
583.231720
 20
340.513252
 30
0.0
 10
589.349944
 20
340.536132
 30
0.0
 10
596.821184
 20
344.267780
 30
0.0
 10
602.146720
 20
349.060756
 30
0.0
  0
SPLINE
  5
32e
100
AcDbEntity
  8
0
 62
1
100
AcDbSpline
 70
8
 71
3
 72
8
 73
4
 74
0
 40
0
 40
0
 40
0
 40
0
 40
1
 40
1
 40
1
 40
1
 10
602.146720
 20
349.060756
 30
0.0
 10
608.549752
 20
354.823476
 30
0.0
 10
610.024984
 20
362.306844
 30
0.0
 10
609.914224
 20
370.218252
 30
0.0
  0
SPLINE
  5
32f
100
AcDbEntity
  8
0
 62
1
100
AcDbSpline
 70
8
 71
3
 72
8
 73
4
 74
0
 40
0
 40
0
 40
0
 40
0
 40
1
 40
1
 40
1
 40
1
 10
609.914224
 20
370.218252
 30
0.0
 10
607.286360
 20
372.672740
 30
0.0
 10
605.029688
 20
374.788724
 30
0.0
 10
602.146720
 20
377.465756
 30
0.0
  0
SPLINE
  5
330
100
AcDbEntity
  8
0
 62
1
100
AcDbSpline
 70
8
 71
3
 72
8
 73
4
 74
0
 40
0
 40
0
 40
0
 40
0
 40
1
 40
1
 40
1
 40
1
 10
602.146720
 20
377.465756
 30
0.0
 10
596.317960
 20
382.878172
 30
0.0
 10
590.185008
 20
388.653012
 30
0.0
 10
584.141720
 20
394.333252
 30
0.0
  0
SPLINE
  5
331
100
AcDbEntity
  8
0
 62
1
100
AcDbSpline
 70
8
 71
3
 72
8
 73
4
 74
0
 40
0
 40
0
 40
0
 40
0
 40
1
 40
1
 40
1
 40
1
 10
584.141720
 20
394.333252
 30
0.0
 10
583.079920
 20
390.679556
 30
0.0
 10
581.826848
 20
387.120220
 30
0.0
 10
580.371720
 20
383.640756
 30
0.0
  0
SPLINE
  5
332
100
AcDbEntity
  8
0
 62
1
100
AcDbSpline
 70
8
 71
3
 72
8
 73
4
 74
0
 40
0
 40
0
 40
0
 40
0
 40
1
 40
1
 40
1
 40
1
 10
580.371720
 20
383.640756
 30
0.0
 10
566.624160
 20
350.768028
 30
0.0
 10
573.034688
 20
340.475044
 30
0.0
 10
583.231720
 20
340.513252
 30
0.0
  0
LWPOLYLINE
  5
333
100
AcDbEntity
  8
0
 62
1
100
AcDbPolyline
 90
2
 70
0
 10
443.904224
 20
279.120756
 30
0.0
 10
443.904224
 20
279.120756
 30
0.0
  0
SPLINE
  5
334
100
AcDbEntity
  8
0
 62
1
100
AcDbSpline
 70
8
 71
3
 72
8
 73
4
 74
0
 40
0
 40
0
 40
0
 40
0
 40
1
 40
1
 40
1
 40
1
 10
659.444224
 20
374.443252
 30
0.0
 10
669.025072
 20
374.935100
 30
0.0
 10
668.266096
 20
389.139444
 30
0.0
 10
660.354224
 20
404.278252
 30
0.0
  0
SPLINE
  5
335
100
AcDbEntity
  8
0
 62
1
100
AcDbSpline
 70
8
 71
3
 72
8
 73
4
 74
0
 40
0
 40
0
 40
0
 40
0
 40
1
 40
1
 40
1
 40
1
 10
660.354224
 20
404.278252
 30
0.0
 10
645.858392
 20
402.830148
 30
0.0
 10
634.756320
 20
397.435908
 30
0.0
 10
631.201720
 20
384.550756
 30
0.0
  0
SPLINE
  5
336
100
AcDbEntity
  8
0
 62
1
100
AcDbSpline
 70
8
 71
3
 72
8
 73
4
 74
0
 40
0
 40
0
 40
0
 40
0
 40
1
 40
1
 40
1
 40
1
 10
631.201720
 20
384.550756
 30
0.0
 10
638.563056
 20
381.283892
 30
0.0
 10
645.965720
 20
378.219756
 30
0.0
 10
653.269224
 20
375.580756
 30
0.0
  0
SPLINE
  5
337
100
AcDbEntity
  8
0
 62
1
100
AcDbSpline
 70
8
 71
3
 72
8
 73
4
 74
0
 40
0
 40
0
 40
0
 40
0
 40
1
 40
1
 40
1
 40
1
 10
653.269224
 20
375.580756
 30
0.0
 10
655.674272
 20
374.711732
 30
0.0
 10
657.724360
 20
374.354956
 30
0.0
 10
659.444224
 20
374.443252
 30
0.0
  0
LWPOLYLINE
  5
338
100
AcDbEntity
  8
0
 62
1
100
AcDbPolyline
 90
2
 70
0
 10
402.986720
 20
288.740756
 30
0.0
 10
402.986720
 20
288.740756
 30
0.0
  0
SPLINE
  5
339
100
AcDbEntity
  8
0
 62
1
100
AcDbSpline
 70
8
 71
3
 72
8
 73
4
 74
0
 40
0
 40
0
 40
0
 40
0
 40
1
 40
1
 40
1
 40
1
 10
608.126720
 20
395.535756
 30
0.0
 10
608.339744
 20
402.091156
 30
0.0
 10
610.067264
 20
407.939988
 30
0.0
 10
615.634216
 20
412.143252
 30
0.0
  0
SPLINE
  5
33a
100
AcDbEntity
  8
0
 62
1
100
AcDbSpline
 70
8
 71
3
 72
8
 73
4
 74
0
 40
0
 40
0
 40
0
 40
0
 40
1
 40
1
 40
1
 40
1
 10
615.634216
 20
412.143252
 30
0.0
 10
622.164736
 20
417.074036
 30
0.0
 10
636.073528
 20
417.790916
 30
0.0
 10
652.554224
 20
416.335756
 30
0.0
  0
SPLINE
  5
33b
100
AcDbEntity
  8
0
 62
1
100
AcDbSpline
 70
8
 71
3
 72
8
 73
4
 74
0
 40
0
 40
0
 40
0
 40
0
 40
1
 40
1
 40
1
 40
1
 10
652.554224
 20
416.335756
 30
0.0
 10
633.772976
 20
440.696004
 30
0.0
 10
618.189128
 20
456.411604
 30
0.0
 10
605.006720
 20
479.158252
 30
0.0
  0
SPLINE
  5
33c
100
AcDbEntity
  8
0
 62
1
100
AcDbSpline
 70
8
 71
3
 72
8
 73
4
 74
0
 40
0
 40
0
 40
0
 40
0
 40
1
 40
1
 40
1
 40
1
 10
605.006720
 20
479.158252
 30
0.0
 10
582.591304
 20
520.416076
 30
0.0
 10
575.657976
 20
557.231324
 30
0.0
 10
561.814216
 20
601.065756
 30
0.0
  0
SPLINE
  5
33d
100
AcDbEntity
  8
0
 62
1
100
AcDbSpline
 70
8
 71
3
 72
8
 73
4
 74
0
 40
0
 40
0
 40
0
 40
0
 40
1
 40
1
 40
1
 40
1
 10
561.814216
 20
601.065756
 30
0.0
 10
571.438352
 20
543.006260
 30
0.0
 10
573.495240
 20
530.032380
 30
0.0
 10
586.319224
 20
482.505756
 30
0.0
  0
SPLINE
  5
33e
100
AcDbEntity
  8
0
 62
1
100
AcDbSpline
 70
8
 71
3
 72
8
 73
4
 74
0
 40
0
 40
0
 40
0
 40
0
 40
1
 40
1
 40
1
 40
1
 10
586.319224
 20
482.505756
 30
0.0
 10
593.558872
 20
455.426244
 30
0.0
 10
590.835424
 20
429.743036
 30
0.0
 10
586.969216
 20
406.813252
 30
0.0
  0
SPLINE
  5
33f
100
AcDbEntity
  8
0
 62
1
100
AcDbSpline
 70
8
 71
3
 72
8
 73
4
 74
0
 40
0
 40
0
 40
0
 40
0
 40
1
 40
1
 40
1
 40
1
 10
586.969216
 20
406.813252
 30
0.0
 10
593.619592
 20
403.106244
 30
0.0
 10
600.737936
 20
399.293388
 30
0.0
 10
608.126720
 20
395.535756
 30
0.0
  0
LWPOLYLINE
  5
340
100
AcDbEntity
  8
0
 62
1
100
AcDbPolyline
 90
2
 70
0
 10
583.231720
 20
340.513252
 30
0.0
 10
583.231720
 20
340.513252
 30
0.0
  0
SPLINE
  5
341
100
AcDbEntity
  8
0
 62
1
100
AcDbSpline
 70
8
 71
3
 72
8
 73
4
 74
0
 40
0
 40
0
 40
0
 40
0
 40
1
 40
1
 40
1
 40
1
 10
792.921720
 20
460.015756
 30
0.0
 10
796.155744
 20
460.009356
 30
0.0
 10
798.698672
 20
461.519572
 30
0.0
 10
800.331760
 20
464.923252
 30
0.0
  0
SPLINE
  5
342
100
AcDbEntity
  8
0
 62
1
100
AcDbSpline
 70
8
 71
3
 72
8
 73
4
 74
0
 40
0
 40
0
 40
0
 40
0
 40
1
 40
1
 40
1
 40
1
 10
800.331760
 20
464.923252
 30
0.0
 10
795.331056
 20
463.993348
 30
0.0
 10
790.322064
 20
463.041364
 30
0.0
 10
785.316720
 20
462.095756
 30
0.0
  0
SPLINE
  5
343
100
AcDbEntity
  8
0
 62
1
100
AcDbSpline
 70
8
 71
3
 72
8
 73
4
 74
0
 40
0
 40
0
 40
0
 40
0
 40
1
 40
1
 40
1
 40
1
 10
785.316720
 20
462.095756
 30
0.0
 10
788.122712
 20
460.756348
 30
0.0
 10
790.683248
 20
460.019908
 30
0.0
 10
792.921720
 20
460.015756
 30
0.0
  0
LWPOLYLINE
  5
344
100
AcDbEntity
  8
0
 62
1
100
AcDbPolyline
 90
2
 70
0
 10
659.444224
 20
374.443252
 30
0.0
 10
659.444224
 20
374.443252
 30
0.0
  0
LWPOLYLINE
  5
345
100
AcDbEntity
  8
0
 62
1
100
AcDbPolyline
 90
2
 70
0
 10
608.126720
 20
395.535756
 30
0.0
 10
608.126720
 20
395.535756
 30
0.0
  0
SPLINE
  5
346
100
AcDbEntity
  8
0
 62
1
100
AcDbSpline
 70
8
 71
3
 72
8
 73
4
 74
0
 40
0
 40
0
 40
0
 40
0
 40
1
 40
1
 40
1
 40
1
 10
704.391720
 20
493.913252
 30
0.0
 10
695.380328
 20
509.796868
 30
0.0
 10
685.418712
 20
524.314980
 30
0.0
 10
675.466720
 20
538.795756
 30
0.0
  0
SPLINE
  5
347
100
AcDbEntity
  8
0
 62
1
100
AcDbSpline
 70
8
 71
3
 72
8
 73
4
 74
0
 40
0
 40
0
 40
0
 40
0
 40
1
 40
1
 40
1
 40
1
 10
675.466720
 20
538.795756
 30
0.0
 10
681.738096
 20
519.865884
 30
0.0
 10
691.618984
 20
493.284172
 30
0.0
 10
699.094224
 20
488.323252
 30
0.0
  0
SPLINE
  5
348
100
AcDbEntity
  8
0
 62
1
100
AcDbSpline
 70
8
 71
3
 72
8
 73
4
 74
0
 40
0
 40
0
 40
0
 40
0
 40
1
 40
1
 40
1
 40
1
 10
699.094224
 20
488.323252
 30
0.0
 10
701.037824
 20
487.033396
 30
0.0
 10
705.334600
 20
486.264092
 30
0.0
 10
711.054224
 20
485.950756
 30
0.0
  0
LWPOLYLINE
  5
349
100
AcDbEntity
  8
0
 62
1
100
AcDbPolyline
 90
2
 70
0
 10
792.921720
 20
460.015756
 30
0.0
 10
792.921720
 20
460.015756
 30
0.0
  0
SPLINE
  5
34a
100
AcDbEntity
  8
0
 62
1
100
AcDbSpline
 70
8
 71
3
 72
8
 73
4
 74
0
 40
0
 40
0
 40
0
 40
0
 40
1
 40
1
 40
1
 40
1
 10
753.629224
 20
489.590756
 30
0.0
 10
757.530408
 20
490.352620
 30
0.0
 10
761.398656
 20
491.227364
 30
0.0
 10
765.166720
 20
492.223252
 30
0.0
  0
SPLINE
  5
34b
100
AcDbEntity
  8
0
 62
1
100
AcDbSpline
 70
8
 71
3
 72
8
 73
4
 74
0
 40
0
 40
0
 40
0
 40
0
 40
1
 40
1
 40
1
 40
1
 10
765.166720
 20
492.223252
 30
0.0
 10
775.965872
 20
495.077452
 30
0.0
 10
787.709448
 20
496.628380
 30
0.0
 10
800.526720
 20
497.520756
 30
0.0
  0
SPLINE
  5
34c
100
AcDbEntity
  8
0
 62
1
100
AcDbSpline
 70
8
 71
3
 72
8
 73
4
 74
0
 40
0
 40
0
 40
0
 40
0
 40
1
 40
1
 40
1
 40
1
 10
800.526720
 20
497.520756
 30
0.0
 10
799.107856
 20
502.509500
 30
0.0
 10
797.130776
 20
507.612084
 30
0.0
 10
794.774224
 20
512.795756
 30
0.0
  0
SPLINE
  5
34d
100
AcDbEntity
  8
0
 62
1
100
AcDbSpline
 70
8
 71
3
 72
8
 73
4
 74
0
 40
0
 40
0
 40
0
 40
0
 40
1
 40
1
 40
1
 40
1
 10
794.774224
 20
512.795756
 30
0.0
 10
787.565032
 20
514.862260
 30
0.0
 10
780.647336
 20
516.822028
 30
0.0
 10
774.461720
 20
518.548252
 30
0.0
  0
SPLINE
  5
34e
100
AcDbEntity
  8
0
 62
1
100
AcDbSpline
 70
8
 71
3
 72
8
 73
4
 74
0
 40
0
 40
0
 40
0
 40
0
 40
1
 40
1
 40
1
 40
1
 10
774.461720
 20
518.548252
 30
0.0
 10
754.649720
 20
524.077180
 30
0.0
 10
732.186624
 20
533.392716
 30
0.0
 10
714.304224
 20
541.525756
 30
0.0
  0
SPLINE
  5
34f
100
AcDbEntity
  8
0
 62
1
100
AcDbSpline
 70
8
 71
3
 72
8
 73
4
 74
0
 40
0
 40
0
 40
0
 40
0
 40
1
 40
1
 40
1
 40
1
 10
714.304224
 20
541.525756
 30
0.0
 10
723.709896
 20
528.027036
 30
0.0
 10
733.301112
 20
514.599332
 30
0.0
 10
741.311720
 20
504.345756
 30
0.0
  0
SPLINE
  5
350
100
AcDbEntity
  8
0
 62
1
100
AcDbSpline
 70
8
 71
3
 72
8
 73
4
 74
0
 40
0
 40
0
 40
0
 40
0
 40
1
 40
1
 40
1
 40
1
 10
741.311720
 20
504.345756
 30
0.0
 10
745.293704
 20
499.248820
 30
0.0
 10
749.462432
 20
494.284156
 30
0.0
 10
753.629224
 20
489.590756
 30
0.0
  0
LWPOLYLINE
  5
351
100
AcDbEntity
  8
0
 62
1
100
AcDbPolyline
 90
2
 70
0
 10
711.054224
 20
485.950756
 30
0.0
 10
704.391720
 20
493.913252
 30
0.0
  0
SPLINE
  5
352
100
AcDbEntity
  8
0
 62
1
100
AcDbSpline
 70
8
 71
3
 72
8
 73
4
 74
0
 40
0
 40
0
 40
0
 40
0
 40
1
 40
1
 40
1
 40
1
 10
825.096720
 20
498.528252
 30
0.0
 10
829.893520
 20
498.627780
 30
0.0
 10
834.847600
 20
498.703268
 30
0.0
 10
839.916720
 20
498.755756
 30
0.0
  0
SPLINE
  5
353
100
AcDbEntity
  8
0
 62
1
100
AcDbSpline
 70
8
 71
3
 72
8
 73
4
 74
0
 40
0
 40
0
 40
0
 40
0
 40
1
 40
1
 40
1
 40
1
 10
839.916720
 20
498.755756
 30
0.0
 10
834.568800
 20
500.624404
 30
0.0
 10
828.980560
 20
502.444540
 30
0.0
 10
823.276720
 20
504.248252
 30
0.0
  0
SPLINE
  5
354
100
AcDbEntity
  8
0
 62
1
100
AcDbSpline
 70
8
 71
3
 72
8
 73
4
 74
0
 40
0
 40
0
 40
0
 40
0
 40
1
 40
1
 40
1
 40
1
 10
823.276720
 20
504.248252
 30
0.0
 10
823.938800
 20
502.366228
 30
0.0
 10
824.533920
 20
500.460708
 30
0.0
 10
825.096720
 20
498.528252
 30
0.0
  0
LWPOLYLINE
  5
355
100
AcDbEntity
  8
0
 62
1
100
AcDbPolyline
 90
2
 70
0
 10
711.054224
 20
485.950756
 30
0.0
 10
711.054224
 20
485.950756
 30
0.0
  0
SPLINE
  5
356
100
AcDbEntity
  8
0
 62
1
100
AcDbSpline
 70
8
 71
3
 72
8
 73
4
 74
0
 40
0
 40
0
 40
0
 40
0
 40
1
 40
1
 40
1
 40
1
 10
716.839216
 20
683.648252
 30
0.0
 10
714.996472
 20
681.158348
 30
0.0
 10
712.756024
 20
680.132956
 30
0.0
 10
710.306720
 20
680.235756
 30
0.0
  0
LWPOLYLINE
  5
357
100
AcDbEntity
  8
0
 62
1
100
AcDbPolyline
 90
2
 70
0
 10
753.629224
 20
489.590756
 30
0.0
 10
753.629224
 20
489.590756
 30
0.0
  0
LWPOLYLINE
  5
358
100
AcDbEntity
  8
0
 62
1
100
AcDbPolyline
 90
2
 70
0
 10
825.096720
 20
498.528252
 30
0.0
 10
825.096720
 20
498.528252
 30
0.0
  0
SPLINE
  5
359
100
AcDbEntity
  8
0
 62
1
100
AcDbSpline
 70
8
 71
3
 72
8
 73
4
 74
0
 40
0
 40
0
 40
0
 40
0
 40
1
 40
1
 40
1
 40
1
 10
499.117368
 20
511.403340
 30
0.0
 10
509.828752
 20
547.554268
 30
0.0
 10
519.985528
 20
587.248604
 30
0.0
 10
519.985528
 20
587.248604
 30
0.0
  0
SPLINE
  5
35a
100
AcDbEntity
  8
0
 62
1
100
AcDbSpline
 70
8
 71
3
 72
8
 73
4
 74
0
 40
0
 40
0
 40
0
 40
0
 40
1
 40
1
 40
1
 40
1
 10
519.985528
 20
587.248604
 30
0.0
 10
526.680144
 20
525.658132
 30
0.0
 10
528.019064
 20
541.725204
 30
0.0
 10
542.747224
 20
474.779036
 30
0.0
  0
SPLINE
  5
35b
100
AcDbEntity
  8
0
 62
1
100
AcDbSpline
 70
8
 71
3
 72
8
 73
4
 74
0
 40
0
 40
0
 40
0
 40
0
 40
1
 40
1
 40
1
 40
1
 10
675.300648
 20
537.708436
 30
0.0
 10
675.300648
 20
537.708436
 30
0.0
 10
669.944944
 20
571.181524
 30
0.0
 10
652.538944
 20
615.365996
 30
0.0
  0
SPLINE
  5
35c
100
AcDbEntity
  8
0
 62
1
100
AcDbSpline
 70
8
 71
3
 72
8
 73
4
 74
0
 40
0
 40
0
 40
0
 40
0
 40
1
 40
1
 40
1
 40
1
 10
652.538944
 20
615.365996
 30
0.0
 10
677.396016
 20
568.646404
 30
0.0
 10
687.350952
 20
555.114444
 30
0.0
 10
715.468344
 20
540.386276
 30
0.0
  0
LWPOLYLINE
  5
35d
100
AcDbEntity
  8
0
 62
1
100
AcDbPolyline
 90
2
 70
0
 10
710.306720
 20
680.235756
 30
0.0
 10
710.306720
 20
680.235756
 30
0.0
  0
LWPOLYLINE
  5
35e
100
AcDbEntity
  8
0
 62
1
100
AcDbPolyline
 90
2
 70
0
 10
714.331888
 20
694.109180
 30
0.0
 10
714.331888
 20
694.109180
 30
0.0
  0
LWPOLYLINE
  5
35f
100
AcDbEntity
  8
0
 62
1
100
AcDbPolyline
 90
2
 70
0
 10
711.054224
 20
485.950756
 30
0.0
 10
738.679224
 20
453.320756
 30
0.0
  0
LWPOLYLINE
  5
360
100
AcDbEntity
  8
0
 62
1
100
AcDbPolyline
 90
2
 70
0
 10
753.629224
 20
489.590756
 30
0.0
 10
785.316720
 20
462.095756
 30
0.0
  0
SPLINE
  5
361
100
AcDbEntity
  8
0
 62
1
100
AcDbSpline
 70
8
 71
3
 72
8
 73
4
 74
0
 40
0
 40
0
 40
0
 40
0
 40
1
 40
1
 40
1
 40
1
 10
794.774224
 20
512.795756
 30
0.0
 10
794.774224
 20
512.795756
 30
0.0
 10
781.779880
 20
533.902636
 30
0.0
 10
767.051720
 20
558.003252
 30
0.0
  0
SPLINE
  5
362
100
AcDbEntity
  8
0
 62
1
100
AcDbSpline
 70
8
 71
3
 72
8
 73
4
 74
0
 40
0
 40
0
 40
0
 40
0
 40
1
 40
1
 40
1
 40
1
 10
798.999224
 20
544.743252
 30
0.0
 10
809.710640
 20
530.015100
 30
0.0
 10
815.243200
 20
518.976412
 30
0.0
 10
823.276720
 20
504.248252
 30
0.0
  0
SPLINE
  5
363
100
AcDbEntity
  8
0
 62
1
100
AcDbSpline
 70
8
 71
3
 72
8
 73
4
 74
0
 40
0
 40
0
 40
0
 40
0
 40
1
 40
1
 40
1
 40
1
 10
839.916720
 20
498.755756
 30
0.0
 10
874.059280
 20
487.374908
 30
0.0
 10
880.671760
 20
474.608252
 30
0.0
 10
880.671760
 20
474.608252
 30
0.0
  0
SPLINE
  5
364
100
AcDbEntity
  8
0
 62
1
100
AcDbSpline
 70
8
 71
3
 72
8
 73
4
 74
0
 40
0
 40
0
 40
0
 40
0
 40
1
 40
1
 40
1
 40
1
 10
888.699200
 20
498.820756
 30
0.0
 10
925.519600
 20
482.753668
 30
0.0
 10
929.129200
 20
467.848252
 30
0.0
 10
929.129200
 20
467.848252
 30
0.0
  0
LWPOLYLINE
  5
365
100
AcDbEntity
  8
0
 62
1
100
AcDbPolyline
 90
2
 70
0
 10
800.331760
 20
464.923252
 30
0.0
 10
828.736720
 20
470.058252
 30
0.0
  0
LWPOLYLINE
  5
366
100
AcDbEntity
  8
0
 62
1
100
AcDbPolyline
 90
2
 70
0
 10
800.526720
 20
497.520756
 30
0.0
 10
825.096720
 20
498.528252
 30
0.0
  0
LWPOLYLINE
  5
367
100
AcDbEntity
  8
0
 62
1
100
AcDbPolyline
 90
2
 70
0
 10
609.914224
 20
370.218252
 30
0.0
 10
635.069224
 20
347.500756
 30
0.0
  0
SPLINE
  5
368
100
AcDbEntity
  8
0
 62
1
100
AcDbSpline
 70
8
 71
3
 72
8
 73
4
 74
0
 40
0
 40
0
 40
0
 40
0
 40
1
 40
1
 40
1
 40
1
 10
706.699224
 20
406.878252
 30
0.0
 10
706.699224
 20
406.878252
 30
0.0
 10
674.646464
 20
415.666292
 30
0.0
 10
652.554224
 20
416.335756
 30
0.0
  0
SPLINE
  5
369
100
AcDbEntity
  8
0
 62
1
100
AcDbSpline
 70
8
 71
3
 72
8
 73
4
 74
0
 40
0
 40
0
 40
0
 40
0
 40
1
 40
1
 40
1
 40
1
 10
402.986720
 20
288.740756
 30
0.0
 10
407.003496
 20
271.334756
 30
0.0
 10
443.904224
 20
279.120756
 30
0.0
 10
443.904224
 20
279.120756
 30
0.0
  0
SPLINE
  5
36a
100
AcDbEntity
  8
0
 62
1
100
AcDbSpline
 70
8
 71
3
 72
8
 73
4
 74
0
 40
0
 40
0
 40
0
 40
0
 40
1
 40
1
 40
1
 40
1
 10
368.439224
 20
256.175756
 30
0.0
 10
372.455992
 20
241.447596
 30
0.0
 10
389.076720
 20
234.660756
 30
0.0
 10
389.076720
 20
234.660756
 30
0.0
  0
LWPOLYLINE
  5
36b
100
AcDbEntity
  8
0
 62
1
100
AcDbPolyline
 90
2
 70
0
 10
631.201720
 20
384.550756
 30
0.0
 10
608.126720
 20
395.535756
 30
0.0
  0
SPLINE
  5
36c
100
AcDbEntity
  8
0
 62
1
100
AcDbSpline
 70
8
 71
3
 72
8
 73
4
 74
0
 40
0
 40
0
 40
0
 40
0
 40
1
 40
1
 40
1
 40
1
 10
547.514224
 20
428.978252
 30
0.0
 10
547.674560
 20
431.203876
 30
0.0
 10
547.676720
 20
430.375756
 30
0.0
 10
547.676720
 20
430.375756
 30
0.0
  0
LWPOLYLINE
  5
36d
100
AcDbEntity
  8
0
 62
1
100
AcDbPolyline
 90
2
 70
0
 10
660.354224
 20
404.278252
 30
0.0
 10
710.631720
 20
400.248252
 30
0.0
  0
SPLINE
  5
36e
100
AcDbEntity
  8
0
 62
7
100
AcDbSpline
 70
8
 71
3
 72
8
 73
4
 74
0
 40
0
 40
0
 40
0
 40
0
 40
1
 40
1
 40
1
 40
1
 10
289.496720
 20
195.238252
 30
0.0
 10
280.732544
 20
195.574580
 30
0.0
 10
321.222536
 20
215.774292
 30
0.0
 10
368.439224
 20
256.175756
 30
0.0
  0
SPLINE
  5
36f
100
AcDbEntity
  8
0
 62
7
100
AcDbSpline
 70
8
 71
3
 72
8
 73
4
 74
0
 40
0
 40
0
 40
0
 40
0
 40
1
 40
1
 40
1
 40
1
 10
368.439224
 20
256.175756
 30
0.0
 10
344.965400
 20
296.901260
 30
0.0
 10
374.140584
 20
358.836724
 30
0.0
 10
402.369224
 20
413.443252
 30
0.0
  0
SPLINE
  5
370
100
AcDbEntity
  8
0
 62
7
100
AcDbSpline
 70
8
 71
3
 72
8
 73
4
 74
0
 40
0
 40
0
 40
0
 40
0
 40
1
 40
1
 40
1
 40
1
 10
402.369224
 20
413.443252
 30
0.0
 10
439.020944
 20
502.143980
 30
0.0
 10
459.821952
 20
537.447220
 30
0.0
 10
471.464224
 20
619.850756
 30
0.0
  0
SPLINE
  5
371
100
AcDbEntity
  8
0
 62
7
100
AcDbSpline
 70
8
 71
3
 72
8
 73
4
 74
0
 40
0
 40
0
 40
0
 40
0
 40
1
 40
1
 40
1
 40
1
 10
729.936664
 20
669.088252
 30
0.0
 10
697.261952
 20
642.411796
 30
0.0
 10
696.223600
 20
626.950372
 30
0.0
 10
708.974168
 20
597.490756
 30
0.0
  0
SPLINE
  5
372
100
AcDbEntity
  8
0
 62
7
100
AcDbSpline
 70
8
 71
3
 72
8
 73
4
 74
0
 40
0
 40
0
 40
0
 40
0
 40
1
 40
1
 40
1
 40
1
 10
708.974168
 20
597.490756
 30
0.0
 10
741.215520
 20
572.203116
 30
0.0
 10
745.609376
 20
566.696876
 30
0.0
 10
759.316672
 20
561.155756
 30
0.0
  0
SPLINE
  5
373
100
AcDbEntity
  8
0
 62
7
100
AcDbSpline
 70
8
 71
3
 72
8
 73
4
 74
0
 40
0
 40
0
 40
0
 40
0
 40
1
 40
1
 40
1
 40
1
 10
759.316672
 20
561.155756
 30
0.0
 10
762.179928
 20
559.989252
 30
0.0
 10
764.449048
 20
559.066516
 30
0.0
 10
767.051672
 20
558.003252
 30
0.0
  0
SPLINE
  5
374
100
AcDbEntity
  8
0
 62
7
100
AcDbSpline
 70
8
 71
3
 72
8
 73
4
 74
0
 40
0
 40
0
 40
0
 40
0
 40
1
 40
1
 40
1
 40
1
 10
767.051672
 20
558.003252
 30
0.0
 10
742.540832
 20
591.646284
 30
0.0
 10
714.046520
 20
622.971740
 30
0.0
 10
711.021672
 20
639.740756
 30
0.0
  0
SPLINE
  5
375
100
AcDbEntity
  8
0
 62
7
100
AcDbSpline
 70
8
 71
3
 72
8
 73
4
 74
0
 40
0
 40
0
 40
0
 40
0
 40
1
 40
1
 40
1
 40
1
 10
711.021672
 20
639.740756
 30
0.0
 10
703.646392
 20
680.627436
 30
0.0
 10
789.609464
 20
641.059612
 30
0.0
 10
772.804168
 20
641.528252
 30
0.0
  0
SPLINE
  5
376
100
AcDbEntity
  8
0
 62
7
100
AcDbSpline
 70
8
 71
3
 72
8
 73
4
 74
0
 40
0
 40
0
 40
0
 40
0
 40
1
 40
1
 40
1
 40
1
 10
772.804168
 20
641.528252
 30
0.0
 10
753.952976
 20
642.053956
 30
0.0
 10
706.972864
 20
662.500908
 30
0.0
 10
738.484168
 20
617.965756
 30
0.0
  0
SPLINE
  5
377
100
AcDbEntity
  8
0
 62
7
100
AcDbSpline
 70
8
 71
3
 72
8
 73
4
 74
0
 40
0
 40
0
 40
0
 40
0
 40
1
 40
1
 40
1
 40
1
 10
738.484168
 20
617.965756
 30
0.0
 10
752.216608
 20
598.557620
 30
0.0
 10
777.498848
 20
572.789932
 30
0.0
 10
798.999168
 20
544.743252
 30
0.0
  0
SPLINE
  5
378
100
AcDbEntity
  8
0
 62
7
100
AcDbSpline
 70
8
 71
3
 72
8
 73
4
 74
0
 40
0
 40
0
 40
0
 40
0
 40
1
 40
1
 40
1
 40
1
 10
798.999168
 20
544.743252
 30
0.0
 10
817.092480
 20
537.016284
 30
0.0
 10
824.920480
 20
532.981492
 30
0.0
 10
836.959200
 20
526.120756
 30
0.0
  0
SPLINE
  5
379
100
AcDbEntity
  8
0
 62
7
100
AcDbSpline
 70
8
 71
3
 72
8
 73
4
 74
0
 40
0
 40
0
 40
0
 40
0
 40
1
 40
1
 40
1
 40
1
 10
836.959200
 20
526.120756
 30
0.0
 10
846.311280
 20
520.791076
 30
0.0
 10
868.359760
 20
510.315460
 30
0.0
 10
888.699200
 20
498.820756
 30
0.0
  0
SPLINE
  5
37a
100
AcDbEntity
  8
0
 62
7
100
AcDbSpline
 70
8
 71
3
 72
8
 73
4
 74
0
 40
0
 40
0
 40
0
 40
0
 40
1
 40
1
 40
1
 40
1
 10
888.699200
 20
498.820756
 30
0.0
 10
910.696400
 20
497.693276
 30
0.0
 10
939.804960
 20
494.725620
 30
0.0
 10
956.299200
 20
479.775756
 30
0.0
  0
SPLINE
  5
37b
100
AcDbEntity
  8
0
 62
7
100
AcDbSpline
 70
8
 71
3
 72
8
 73
4
 74
0
 40
0
 40
0
 40
0
 40
0
 40
1
 40
1
 40
1
 40
1
 10
956.299200
 20
479.775756
 30
0.0
 10
976.695920
 20
461.288668
 30
0.0
 10
962.988880
 20
436.659972
 30
0.0
 10
949.734160
 20
419.618252
 30
0.0
  0
SPLINE
  5
37c
100
AcDbEntity
  8
0
 62
7
100
AcDbSpline
 70
8
 71
3
 72
8
 73
4
 74
0
 40
0
 40
0
 40
0
 40
0
 40
1
 40
1
 40
1
 40
1
 10
949.734160
 20
419.618252
 30
0.0
 10
936.479520
 20
402.576548
 30
0.0
 10
956.979920
 20
460.816700
 30
0.0
 10
945.541680
 20
463.883252
 30
0.0
  0
SPLINE
  5
37d
100
AcDbEntity
  8
0
 62
7
100
AcDbSpline
 70
8
 71
3
 72
8
 73
4
 74
0
 40
0
 40
0
 40
0
 40
0
 40
1
 40
1
 40
1
 40
1
 10
945.541680
 20
463.883252
 30
0.0
 10
940.454560
 20
465.247076
 30
0.0
 10
934.939760
 20
466.604444
 30
0.0
 10
929.129200
 20
467.848252
 30
0.0
  0
SPLINE
  5
37e
100
AcDbEntity
  8
0
 62
7
100
AcDbSpline
 70
8
 71
3
 72
8
 73
4
 74
0
 40
0
 40
0
 40
0
 40
0
 40
1
 40
1
 40
1
 40
1
 10
929.129200
 20
467.848252
 30
0.0
 10
930.852800
 20
464.513180
 30
0.0
 10
930.910720
 20
461.492316
 30
0.0
 10
928.771680
 20
458.910756
 30
0.0
  0
SPLINE
  5
37f
100
AcDbEntity
  8
0
 62
7
100
AcDbSpline
 70
8
 71
3
 72
8
 73
4
 74
0
 40
0
 40
0
 40
0
 40
0
 40
1
 40
1
 40
1
 40
1
 10
928.771680
 20
458.910756
 30
0.0
 10
917.666240
 20
445.507900
 30
0.0
 10
809.496720
 20
404.928252
 30
0.0
 10
809.496720
 20
404.928252
 30
0.0
  0
SPLINE
  5
380
100
AcDbEntity
  8
0
 62
7
100
AcDbSpline
 70
8
 71
3
 72
8
 73
4
 74
0
 40
0
 40
0
 40
0
 40
0
 40
1
 40
1
 40
1
 40
1
 10
809.496720
 20
404.928252
 30
0.0
 10
809.496720
 20
404.928252
 30
0.0
 10
725.989080
 20
375.929084
 30
0.0
 10
705.821720
 20
360.890756
 30
0.0
  0
SPLINE
  5
381
100
AcDbEntity
  8
0
 62
7
100
AcDbSpline
 70
8
 71
3
 72
8
 73
4
 74
0
 40
0
 40
0
 40
0
 40
0
 40
1
 40
1
 40
1
 40
1
 10
705.821720
 20
360.890756
 30
0.0
 10
697.337992
 20
354.564628
 30
0.0
 10
733.280696
 20
385.677948
 30
0.0
 10
774.461720
 20
410.615756
 30
0.0
  0
SPLINE
  5
382
100
AcDbEntity
  8
0
 62
7
100
AcDbSpline
 70
8
 71
3
 72
8
 73
4
 74
0
 40
0
 40
0
 40
0
 40
0
 40
1
 40
1
 40
1
 40
1
 10
774.461720
 20
410.615756
 30
0.0
 10
826.625920
 20
442.204996
 30
0.0
 10
871.899040
 20
453.965356
 30
0.0
 10
880.509200
 20
474.055756
 30
0.0
  0
SPLINE
  5
383
100
AcDbEntity
  8
0
 62
7
100
AcDbSpline
 70
8
 71
3
 72
8
 73
4
 74
0
 40
0
 40
0
 40
0
 40
0
 40
1
 40
1
 40
1
 40
1
 10
880.509200
 20
474.055756
 30
0.0
 10
880.588400
 20
474.239908
 30
0.0
 10
880.622080
 20
474.421588
 30
0.0
 10
880.671760
 20
474.608252
 30
0.0
  0
SPLINE
  5
384
100
AcDbEntity
  8
0
 62
7
100
AcDbSpline
 70
8
 71
3
 72
8
 73
4
 74
0
 40
0
 40
0
 40
0
 40
0
 40
1
 40
1
 40
1
 40
1
 10
880.671760
 20
474.608252
 30
0.0
 10
870.244160
 20
475.186220
 30
0.0
 10
860.356160
 20
475.036652
 30
0.0
 10
851.876720
 20
473.795756
 30
0.0
  0
SPLINE
  5
385
100
AcDbEntity
  8
0
 62
7
100
AcDbSpline
 70
8
 71
3
 72
8
 73
4
 74
0
 40
0
 40
0
 40
0
 40
0
 40
1
 40
1
 40
1
 40
1
 10
851.876720
 20
473.795756
 30
0.0
 10
845.004800
 20
472.790108
 30
0.0
 10
837.134560
 20
471.512644
 30
0.0
 10
828.736720
 20
470.058252
 30
0.0
  0
SPLINE
  5
386
100
AcDbEntity
  8
0
 62
7
100
AcDbSpline
 70
8
 71
3
 72
8
 73
4
 74
0
 40
0
 40
0
 40
0
 40
0
 40
1
 40
1
 40
1
 40
1
 10
828.736720
 20
470.058252
 30
0.0
 10
828.524880
 20
467.444180
 30
0.0
 10
828.105040
 20
464.969668
 30
0.0
 10
827.469200
 20
462.680756
 30
0.0
  0
SPLINE
  5
387
100
AcDbEntity
  8
0
 62
7
100
AcDbSpline
 70
8
 71
3
 72
8
 73
4
 74
0
 40
0
 40
0
 40
0
 40
0
 40
1
 40
1
 40
1
 40
1
 10
827.469200
 20
462.680756
 30
0.0
 10
822.735440
 20
445.639036
 30
0.0
 10
818.018080
 20
424.809740
 30
0.0
 10
787.721720
 20
426.703252
 30
0.0
  0
SPLINE
  5
388
100
AcDbEntity
  8
0
 62
7
100
AcDbSpline
 70
8
 71
3
 72
8
 73
4
 74
0
 40
0
 40
0
 40
0
 40
0
 40
1
 40
1
 40
1
 40
1
 10
787.721720
 20
426.703252
 30
0.0
 10
766.279192
 20
428.043420
 30
0.0
 10
747.717552
 20
444.058916
 30
0.0
 10
738.679224
 20
453.320756
 30
0.0
  0
SPLINE
  5
389
100
AcDbEntity
  8
0
 62
7
100
AcDbSpline
 70
8
 71
3
 72
8
 73
4
 74
0
 40
0
 40
0
 40
0
 40
0
 40
1
 40
1
 40
1
 40
1
 10
738.679224
 20
453.320756
 30
0.0
 10
665.712416
 20
433.633052
 30
0.0
 10
661.318520
 20
475.803284
 30
0.0
 10
613.814224
 20
602.235756
 30
0.0
  0
SPLINE
  5
38a
100
AcDbEntity
  8
0
 62
7
100
AcDbSpline
 70
8
 71
3
 72
8
 73
4
 74
0
 40
0
 40
0
 40
0
 40
0
 40
1
 40
1
 40
1
 40
1
 10
613.814224
 20
602.235756
 30
0.0
 10
622.541376
 20
569.027420
 30
0.0
 10
619.482760
 20
526.152076
 30
0.0
 10
635.881720
 20
496.968252
 30
0.0
  0
SPLINE
  5
38b
100
AcDbEntity
  8
0
 62
7
100
AcDbSpline
 70
8
 71
3
 72
8
 73
4
 74
0
 40
0
 40
0
 40
0
 40
0
 40
1
 40
1
 40
1
 40
1
 10
635.881720
 20
496.968252
 30
0.0
 10
664.490672
 20
449.230972
 30
0.0
 10
678.648544
 20
445.010996
 30
0.0
 10
685.021720
 20
435.153252
 30
0.0
  0
SPLINE
  5
38c
100
AcDbEntity
  8
0
 62
7
100
AcDbSpline
 70
8
 71
3
 72
8
 73
4
 74
0
 40
0
 40
0
 40
0
 40
0
 40
1
 40
1
 40
1
 40
1
 10
685.021720
 20
435.153252
 30
0.0
 10
691.657720
 20
424.888980
 30
0.0
 10
700.176480
 20
416.636596
 30
0.0
 10
706.699224
 20
406.878252
 30
0.0
  0
SPLINE
  5
38d
100
AcDbEntity
  8
0
 62
7
100
AcDbSpline
 70
8
 71
3
 72
8
 73
4
 74
0
 40
0
 40
0
 40
0
 40
0
 40
1
 40
1
 40
1
 40
1
 10
706.699224
 20
406.878252
 30
0.0
 10
732.173528
 20
400.855188
 30
0.0
 10
751.970008
 20
394.430460
 30
0.0
 10
748.656720
 20
394.658252
 30
0.0
  0
SPLINE
  5
38e
100
AcDbEntity
  8
0
 62
7
100
AcDbSpline
 70
8
 71
3
 72
8
 73
4
 74
0
 40
0
 40
0
 40
0
 40
0
 40
1
 40
1
 40
1
 40
1
 10
748.656720
 20
394.658252
 30
0.0
 10
738.170376
 20
395.379204
 30
0.0
 10
724.688072
 20
397.903668
 30
0.0
 10
710.631720
 20
400.248252
 30
0.0
  0
SPLINE
  5
38f
100
AcDbEntity
  8
0
 62
7
100
AcDbSpline
 70
8
 71
3
 72
8
 73
4
 74
0
 40
0
 40
0
 40
0
 40
0
 40
1
 40
1
 40
1
 40
1
 10
710.631720
 20
400.248252
 30
0.0
 10
713.794600
 20
394.113428
 30
0.0
 10
716.008104
 20
387.216036
 30
0.0
 10
716.481720
 20
378.863252
 30
0.0
  0
SPLINE
  5
390
100
AcDbEntity
  8
0
 62
7
100
AcDbSpline
 70
8
 71
3
 72
8
 73
4
 74
0
 40
0
 40
0
 40
0
 40
0
 40
1
 40
1
 40
1
 40
1
 10
716.481720
 20
378.863252
 30
0.0
 10
717.628760
 20
358.634156
 30
0.0
 10
664.704304
 20
342.760692
 30
0.0
 10
651.254224
 20
339.083252
 30
0.0
  0
SPLINE
  5
391
100
AcDbEntity
  8
0
 62
7
100
AcDbSpline
 70
8
 71
3
 72
8
 73
4
 74
0
 40
0
 40
0
 40
0
 40
0
 40
1
 40
1
 40
1
 40
1
 10
651.254224
 20
339.083252
 30
0.0
 10
647.905776
 20
338.167740
 30
0.0
 10
642.592256
 20
341.328260
 30
0.0
 10
635.069224
 20
347.500756
 30
0.0
  0
SPLINE
  5
392
100
AcDbEntity
  8
0
 62
7
100
AcDbSpline
 70
8
 71
3
 72
8
 73
4
 74
0
 40
0
 40
0
 40
0
 40
0
 40
1
 40
1
 40
1
 40
1
 10
635.069224
 20
347.500756
 30
0.0
 10
637.797736
 20
321.508244
 30
0.0
 10
576.153280
 20
306.744372
 30
0.0
 10
560.481720
 20
308.825756
 30
0.0
  0
SPLINE
  5
393
100
AcDbEntity
  8
0
 62
7
100
AcDbSpline
 70
8
 71
3
 72
8
 73
4
 74
0
 40
0
 40
0
 40
0
 40
0
 40
1
 40
1
 40
1
 40
1
 10
560.481720
 20
308.825756
 30
0.0
 10
534.483040
 20
312.278692
 30
0.0
 10
534.319216
 20
334.417116
 30
0.0
 10
534.319216
 20
345.778252
 30
0.0
  0
SPLINE
  5
394
100
AcDbEntity
  8
0
 62
7
100
AcDbSpline
 70
8
 71
3
 72
8
 73
4
 74
0
 40
0
 40
0
 40
0
 40
0
 40
1
 40
1
 40
1
 40
1
 10
534.319216
 20
345.778252
 30
0.0
 10
534.319216
 20
366.518484
 30
0.0
 10
542.574680
 20
386.162580
 30
0.0
 10
547.514224
 20
428.978252
 30
0.0
  0
SPLINE
  5
395
100
AcDbEntity
  8
0
 62
7
100
AcDbSpline
 70
8
 71
3
 72
8
 73
4
 74
0
 40
0
 40
0
 40
0
 40
0
 40
1
 40
1
 40
1
 40
1
 10
547.514224
 20
428.978252
 30
0.0
 10
546.551576
 20
429.897164
 30
0.0
 10
542.541720
 20
433.723252
 30
0.0
 10
542.541720
 20
433.723252
 30
0.0
  0
SPLINE
  5
396
100
AcDbEntity
  8
0
 62
7
100
AcDbSpline
 70
8
 71
3
 72
8
 73
4
 74
0
 40
0
 40
0
 40
0
 40
0
 40
1
 40
1
 40
1
 40
1
 10
542.541720
 20
433.723252
 30
0.0
 10
542.541720
 20
433.723252
 30
0.0
 10
544.692368
 20
432.304724
 30
0.0
 10
547.676720
 20
430.375756
 30
0.0
  0
SPLINE
  5
397
100
AcDbEntity
  8
0
 62
7
100
AcDbSpline
 70
8
 71
3
 72
8
 73
4
 74
0
 40
0
 40
0
 40
0
 40
0
 40
1
 40
1
 40
1
 40
1
 10
547.676720
 20
430.375756
 30
0.0
 10
547.823416
 20
431.681700
 30
0.0
 10
547.991648
 20
432.926412
 30
0.0
 10
548.131720
 20
434.275756
 30
0.0
  0
SPLINE
  5
398
100
AcDbEntity
  8
0
 62
7
100
AcDbSpline
 70
8
 71
3
 72
8
 73
4
 74
0
 40
0
 40
0
 40
0
 40
0
 40
1
 40
1
 40
1
 40
1
 10
548.131720
 20
434.275756
 30
0.0
 10
549.247320
 20
445.022476
 30
0.0
 10
546.353104
 20
460.788820
 30
0.0
 10
542.021720
 20
476.980756
 30
0.0
  0
SPLINE
  5
399
100
AcDbEntity
  8
0
 62
7
100
AcDbSpline
 70
8
 71
3
 72
8
 73
4
 74
0
 40
0
 40
0
 40
0
 40
0
 40
1
 40
1
 40
1
 40
1
 10
542.021720
 20
476.980756
 30
0.0
 10
539.869064
 20
442.379948
 30
0.0
 10
530.167520
 20
401.970740
 30
0.0
 10
518.849224
 20
382.210756
 30
0.0
  0
SPLINE
  5
39a
100
AcDbEntity
  8
0
 62
7
100
AcDbSpline
 70
8
 71
3
 72
8
 73
4
 74
0
 40
0
 40
0
 40
0
 40
0
 40
1
 40
1
 40
1
 40
1
 10
518.849224
 20
382.210756
 30
0.0
 10
510.156048
 20
367.033836
 30
0.0
 10
500.020288
 20
350.102300
 30
0.0
 10
487.974224
 20
332.745756
 30
0.0
  0
SPLINE
  5
39b
100
AcDbEntity
  8
0
 62
7
100
AcDbSpline
 70
8
 71
3
 72
8
 73
4
 74
0
 40
0
 40
0
 40
0
 40
0
 40
1
 40
1
 40
1
 40
1
 10
487.974224
 20
332.745756
 30
0.0
 10
495.368632
 20
333.405340
 30
0.0
 10
528.856024
 20
325.771524
 30
0.0
 10
546.766720
 20
312.433252
 30
0.0
  0
SPLINE
  5
39c
100
AcDbEntity
  8
0
 62
7
100
AcDbSpline
 70
8
 71
3
 72
8
 73
4
 74
0
 40
0
 40
0
 40
0
 40
0
 40
1
 40
1
 40
1
 40
1
 10
546.766720
 20
312.433252
 30
0.0
 10
562.302328
 20
300.863740
 30
0.0
 10
514.305344
 20
279.837356
 30
0.0
 10
494.896720
 20
272.263252
 30
0.0
  0
SPLINE
  5
39d
100
AcDbEntity
  8
0
 62
7
100
AcDbSpline
 70
8
 71
3
 72
8
 73
4
 74
0
 40
0
 40
0
 40
0
 40
0
 40
1
 40
1
 40
1
 40
1
 10
494.896720
 20
272.263252
 30
0.0
 10
456.079488
 20
257.115060
 30
0.0
 10
439.298800
 20
246.818948
 30
0.0
 10
393.854224
 20
231.670756
 30
0.0
  0
SPLINE
  5
39e
100
AcDbEntity
  8
0
 62
7
100
AcDbSpline
 70
8
 71
3
 72
8
 73
4
 74
0
 40
0
 40
0
 40
0
 40
0
 40
1
 40
1
 40
1
 40
1
 10
393.854224
 20
231.670756
 30
0.0
 10
392.185272
 20
232.637628
 30
0.0
 10
390.606656
 20
233.634660
 30
0.0
 10
389.076720
 20
234.660756
 30
0.0
  0
SPLINE
  5
39f
100
AcDbEntity
  8
0
 62
7
100
AcDbSpline
 70
8
 71
3
 72
8
 73
4
 74
0
 40
0
 40
0
 40
0
 40
0
 40
1
 40
1
 40
1
 40
1
 10
389.076720
 20
234.660756
 30
0.0
 10
362.141800
 20
217.588268
 30
0.0
 10
330.615336
 20
203.796660
 30
0.0
 10
293.494224
 20
195.693252
 30
0.0
  0
SPLINE
  5
3a0
100
AcDbEntity
  8
0
 62
7
100
AcDbSpline
 70
8
 71
3
 72
8
 73
4
 74
0
 40
0
 40
0
 40
0
 40
0
 40
1
 40
1
 40
1
 40
1
 10
293.494224
 20
195.693252
 30
0.0
 10
291.668400
 20
195.349652
 30
0.0
 10
290.349944
 20
195.205516
 30
0.0
 10
289.496720
 20
195.238252
 30
0.0
  0
LWPOLYLINE
  5
3a1
100
AcDbEntity
  8
0
 62
1
100
AcDbPolyline
 90
2
 70
0
 10
586.969216
 20
406.813252
 30
0.0
 10
584.141720
 20
394.333252
 30
0.0
  0
SPLINE
  5
3a2
100
AcDbEntity
  8
0
 62
7
100
AcDbSpline
 70
8
 71
3
 72
8
 73
4
 74
0
 40
0
 40
0
 40
0
 40
0
 40
1
 40
1
 40
1
 40
1
 10
443.904224
 20
279.120756
 30
0.0
 10
453.730248
 20
281.186580
 30
0.0
 10
463.187472
 20
284.309292
 30
0.0
 10
469.611720
 20
286.595756
 30
0.0
  0
SPLINE
  5
3a3
100
AcDbEntity
  8
0
 62
7
100
AcDbSpline
 70
8
 71
3
 72
8
 73
4
 74
0
 40
0
 40
0
 40
0
 40
0
 40
1
 40
1
 40
1
 40
1
 10
469.611720
 20
286.595756
 30
0.0
 10
493.589600
 20
295.129756
 30
0.0
 10
567.113512
 20
304.506884
 30
0.0
 10
505.394224
 20
324.003252
 30
0.0
  0
SPLINE
  5
3a4
100
AcDbEntity
  8
0
 62
7
100
AcDbSpline
 70
8
 71
3
 72
8
 73
4
 74
0
 40
0
 40
0
 40
0
 40
0
 40
1
 40
1
 40
1
 40
1
 10
505.394224
 20
324.003252
 30
0.0
 10
494.194344
 20
327.541156
 30
0.0
 10
488.609856
 20
329.955860
 30
0.0
 10
486.999224
 20
331.348252
 30
0.0
  0
SPLINE
  5
3a5
100
AcDbEntity
  8
0
 62
7
100
AcDbSpline
 70
8
 71
3
 72
8
 73
4
 74
0
 40
0
 40
0
 40
0
 40
0
 40
1
 40
1
 40
1
 40
1
 10
486.999224
 20
331.348252
 30
0.0
 10
474.796344
 20
313.895748
 30
0.0
 10
460.631600
 20
296.044548
 30
0.0
 10
443.904224
 20
279.120756
 30
0.0
  0
SPLINE
  5
3a6
100
AcDbEntity
  8
0
 62
7
100
AcDbSpline
 70
8
 71
3
 72
8
 73
4
 74
0
 40
0
 40
0
 40
0
 40
0
 40
1
 40
1
 40
1
 40
1
 10
402.986720
 20
288.740756
 30
0.0
 10
438.494720
 20
325.804316
 30
0.0
 10
472.111488
 20
373.954508
 30
0.0
 10
486.641720
 20
433.333252
 30
0.0
  0
SPLINE
  5
3a7
100
AcDbEntity
  8
0
 62
7
100
AcDbSpline
 70
8
 71
3
 72
8
 73
4
 74
0
 40
0
 40
0
 40
0
 40
0
 40
1
 40
1
 40
1
 40
1
 10
486.641720
 20
433.333252
 30
0.0
 10
486.641720
 20
433.333252
 30
0.0
 10
495.824328
 20
466.155436
 30
0.0
 10
498.764224
 20
514.648252
 30
0.0
  0
SPLINE
  5
3a8
100
AcDbEntity
  8
0
 62
7
100
AcDbSpline
 70
8
 71
3
 72
8
 73
4
 74
0
 40
0
 40
0
 40
0
 40
0
 40
1
 40
1
 40
1
 40
1
 10
498.764224
 20
514.648252
 30
0.0
 10
495.842352
 20
502.276828
 30
0.0
 10
492.485872
 20
488.828068
 30
0.0
 10
489.501720
 20
479.710756
 30
0.0
  0
SPLINE
  5
3a9
100
AcDbEntity
  8
0
 62
7
100
AcDbSpline
 70
8
 71
3
 72
8
 73
4
 74
0
 40
0
 40
0
 40
0
 40
0
 40
1
 40
1
 40
1
 40
1
 10
489.501720
 20
479.710756
 30
0.0
 10
468.516088
 20
418.666884
 30
0.0
 10
396.297032
 20
316.578100
 30
0.0
 10
402.986720
 20
288.740756
 30
0.0
  0
LWPOLYLINE
  5
3aa
100
AcDbEntity
  8
0
 62
7
100
AcDbPolyline
 90
2
 70
0
 10
289.496720
 20
195.238252
 30
0.0
 10
289.496720
 20
195.238252
 30
0.0
  0
SPLINE
  5
3ab
100
AcDbEntity
  8
0
 62
7
100
AcDbSpline
 70
8
 71
3
 72
8
 73
4
 74
0
 40
0
 40
0
 40
0
 40
0
 40
1
 40
1
 40
1
 40
1
 10
583.231720
 20
340.513252
 30
0.0
 10
589.349944
 20
340.536132
 30
0.0
 10
596.821184
 20
344.267780
 30
0.0
 10
602.146720
 20
349.060756
 30
0.0
  0
SPLINE
  5
3ac
100
AcDbEntity
  8
0
 62
7
100
AcDbSpline
 70
8
 71
3
 72
8
 73
4
 74
0
 40
0
 40
0
 40
0
 40
0
 40
1
 40
1
 40
1
 40
1
 10
602.146720
 20
349.060756
 30
0.0
 10
608.549752
 20
354.823476
 30
0.0
 10
610.024984
 20
362.306844
 30
0.0
 10
609.914224
 20
370.218252
 30
0.0
  0
SPLINE
  5
3ad
100
AcDbEntity
  8
0
 62
7
100
AcDbSpline
 70
8
 71
3
 72
8
 73
4
 74
0
 40
0
 40
0
 40
0
 40
0
 40
1
 40
1
 40
1
 40
1
 10
609.914224
 20
370.218252
 30
0.0
 10
607.286360
 20
372.672740
 30
0.0
 10
605.029688
 20
374.788724
 30
0.0
 10
602.146720
 20
377.465756
 30
0.0
  0
SPLINE
  5
3ae
100
AcDbEntity
  8
0
 62
7
100
AcDbSpline
 70
8
 71
3
 72
8
 73
4
 74
0
 40
0
 40
0
 40
0
 40
0
 40
1
 40
1
 40
1
 40
1
 10
602.146720
 20
377.465756
 30
0.0
 10
596.317960
 20
382.878172
 30
0.0
 10
590.185008
 20
388.653012
 30
0.0
 10
584.141720
 20
394.333252
 30
0.0
  0
SPLINE
  5
3af
100
AcDbEntity
  8
0
 62
7
100
AcDbSpline
 70
8
 71
3
 72
8
 73
4
 74
0
 40
0
 40
0
 40
0
 40
0
 40
1
 40
1
 40
1
 40
1
 10
584.141720
 20
394.333252
 30
0.0
 10
583.079920
 20
390.679556
 30
0.0
 10
581.826848
 20
387.120220
 30
0.0
 10
580.371720
 20
383.640756
 30
0.0
  0
SPLINE
  5
3b0
100
AcDbEntity
  8
0
 62
7
100
AcDbSpline
 70
8
 71
3
 72
8
 73
4
 74
0
 40
0
 40
0
 40
0
 40
0
 40
1
 40
1
 40
1
 40
1
 10
580.371720
 20
383.640756
 30
0.0
 10
566.624160
 20
350.768028
 30
0.0
 10
573.034688
 20
340.475044
 30
0.0
 10
583.231720
 20
340.513252
 30
0.0
  0
LWPOLYLINE
  5
3b1
100
AcDbEntity
  8
0
 62
7
100
AcDbPolyline
 90
2
 70
0
 10
443.904224
 20
279.120756
 30
0.0
 10
443.904224
 20
279.120756
 30
0.0
  0
SPLINE
  5
3b2
100
AcDbEntity
  8
0
 62
7
100
AcDbSpline
 70
8
 71
3
 72
8
 73
4
 74
0
 40
0
 40
0
 40
0
 40
0
 40
1
 40
1
 40
1
 40
1
 10
659.444224
 20
374.443252
 30
0.0
 10
669.025072
 20
374.935100
 30
0.0
 10
668.266096
 20
389.139444
 30
0.0
 10
660.354224
 20
404.278252
 30
0.0
  0
SPLINE
  5
3b3
100
AcDbEntity
  8
0
 62
7
100
AcDbSpline
 70
8
 71
3
 72
8
 73
4
 74
0
 40
0
 40
0
 40
0
 40
0
 40
1
 40
1
 40
1
 40
1
 10
660.354224
 20
404.278252
 30
0.0
 10
645.858392
 20
402.830148
 30
0.0
 10
634.756320
 20
397.435908
 30
0.0
 10
631.201720
 20
384.550756
 30
0.0
  0
SPLINE
  5
3b4
100
AcDbEntity
  8
0
 62
7
100
AcDbSpline
 70
8
 71
3
 72
8
 73
4
 74
0
 40
0
 40
0
 40
0
 40
0
 40
1
 40
1
 40
1
 40
1
 10
631.201720
 20
384.550756
 30
0.0
 10
638.563056
 20
381.283892
 30
0.0
 10
645.965720
 20
378.219756
 30
0.0
 10
653.269224
 20
375.580756
 30
0.0
  0
SPLINE
  5
3b5
100
AcDbEntity
  8
0
 62
7
100
AcDbSpline
 70
8
 71
3
 72
8
 73
4
 74
0
 40
0
 40
0
 40
0
 40
0
 40
1
 40
1
 40
1
 40
1
 10
653.269224
 20
375.580756
 30
0.0
 10
655.674272
 20
374.711732
 30
0.0
 10
657.724360
 20
374.354956
 30
0.0
 10
659.444224
 20
374.443252
 30
0.0
  0
LWPOLYLINE
  5
3b6
100
AcDbEntity
  8
0
 62
7
100
AcDbPolyline
 90
2
 70
0
 10
402.986720
 20
288.740756
 30
0.0
 10
402.986720
 20
288.740756
 30
0.0
  0
SPLINE
  5
3b7
100
AcDbEntity
  8
0
 62
7
100
AcDbSpline
 70
8
 71
3
 72
8
 73
4
 74
0
 40
0
 40
0
 40
0
 40
0
 40
1
 40
1
 40
1
 40
1
 10
608.126720
 20
395.535756
 30
0.0
 10
608.339744
 20
402.091156
 30
0.0
 10
610.067264
 20
407.939988
 30
0.0
 10
615.634216
 20
412.143252
 30
0.0
  0
SPLINE
  5
3b8
100
AcDbEntity
  8
0
 62
7
100
AcDbSpline
 70
8
 71
3
 72
8
 73
4
 74
0
 40
0
 40
0
 40
0
 40
0
 40
1
 40
1
 40
1
 40
1
 10
615.634216
 20
412.143252
 30
0.0
 10
622.164736
 20
417.074036
 30
0.0
 10
636.073528
 20
417.790916
 30
0.0
 10
652.554224
 20
416.335756
 30
0.0
  0
SPLINE
  5
3b9
100
AcDbEntity
  8
0
 62
7
100
AcDbSpline
 70
8
 71
3
 72
8
 73
4
 74
0
 40
0
 40
0
 40
0
 40
0
 40
1
 40
1
 40
1
 40
1
 10
652.554224
 20
416.335756
 30
0.0
 10
633.772976
 20
440.696004
 30
0.0
 10
618.189128
 20
456.411604
 30
0.0
 10
605.006720
 20
479.158252
 30
0.0
  0
SPLINE
  5
3ba
100
AcDbEntity
  8
0
 62
7
100
AcDbSpline
 70
8
 71
3
 72
8
 73
4
 74
0
 40
0
 40
0
 40
0
 40
0
 40
1
 40
1
 40
1
 40
1
 10
605.006720
 20
479.158252
 30
0.0
 10
582.591304
 20
520.416076
 30
0.0
 10
575.657976
 20
557.231324
 30
0.0
 10
561.814216
 20
601.065756
 30
0.0
  0
SPLINE
  5
3bb
100
AcDbEntity
  8
0
 62
7
100
AcDbSpline
 70
8
 71
3
 72
8
 73
4
 74
0
 40
0
 40
0
 40
0
 40
0
 40
1
 40
1
 40
1
 40
1
 10
561.814216
 20
601.065756
 30
0.0
 10
571.438352
 20
543.006260
 30
0.0
 10
573.495240
 20
530.032380
 30
0.0
 10
586.319224
 20
482.505756
 30
0.0
  0
SPLINE
  5
3bc
100
AcDbEntity
  8
0
 62
7
100
AcDbSpline
 70
8
 71
3
 72
8
 73
4
 74
0
 40
0
 40
0
 40
0
 40
0
 40
1
 40
1
 40
1
 40
1
 10
586.319224
 20
482.505756
 30
0.0
 10
593.558872
 20
455.426244
 30
0.0
 10
590.835424
 20
429.743036
 30
0.0
 10
586.969216
 20
406.813252
 30
0.0
  0
SPLINE
  5
3bd
100
AcDbEntity
  8
0
 62
7
100
AcDbSpline
 70
8
 71
3
 72
8
 73
4
 74
0
 40
0
 40
0
 40
0
 40
0
 40
1
 40
1
 40
1
 40
1
 10
586.969216
 20
406.813252
 30
0.0
 10
593.619592
 20
403.106244
 30
0.0
 10
600.737936
 20
399.293388
 30
0.0
 10
608.126720
 20
395.535756
 30
0.0
  0
LWPOLYLINE
  5
3be
100
AcDbEntity
  8
0
 62
7
100
AcDbPolyline
 90
2
 70
0
 10
583.231720
 20
340.513252
 30
0.0
 10
583.231720
 20
340.513252
 30
0.0
  0
SPLINE
  5
3bf
100
AcDbEntity
  8
0
 62
7
100
AcDbSpline
 70
8
 71
3
 72
8
 73
4
 74
0
 40
0
 40
0
 40
0
 40
0
 40
1
 40
1
 40
1
 40
1
 10
792.921720
 20
460.015756
 30
0.0
 10
796.155744
 20
460.009356
 30
0.0
 10
798.698672
 20
461.519572
 30
0.0
 10
800.331760
 20
464.923252
 30
0.0
  0
SPLINE
  5
3c0
100
AcDbEntity
  8
0
 62
7
100
AcDbSpline
 70
8
 71
3
 72
8
 73
4
 74
0
 40
0
 40
0
 40
0
 40
0
 40
1
 40
1
 40
1
 40
1
 10
800.331760
 20
464.923252
 30
0.0
 10
795.331056
 20
463.993348
 30
0.0
 10
790.322064
 20
463.041364
 30
0.0
 10
785.316720
 20
462.095756
 30
0.0
  0
SPLINE
  5
3c1
100
AcDbEntity
  8
0
 62
7
100
AcDbSpline
 70
8
 71
3
 72
8
 73
4
 74
0
 40
0
 40
0
 40
0
 40
0
 40
1
 40
1
 40
1
 40
1
 10
785.316720
 20
462.095756
 30
0.0
 10
788.122712
 20
460.756348
 30
0.0
 10
790.683248
 20
460.019908
 30
0.0
 10
792.921720
 20
460.015756
 30
0.0
  0
LWPOLYLINE
  5
3c2
100
AcDbEntity
  8
0
 62
7
100
AcDbPolyline
 90
2
 70
0
 10
659.444224
 20
374.443252
 30
0.0
 10
659.444224
 20
374.443252
 30
0.0
  0
LWPOLYLINE
  5
3c3
100
AcDbEntity
  8
0
 62
7
100
AcDbPolyline
 90
2
 70
0
 10
608.126720
 20
395.535756
 30
0.0
 10
608.126720
 20
395.535756
 30
0.0
  0
SPLINE
  5
3c4
100
AcDbEntity
  8
0
 62
7
100
AcDbSpline
 70
8
 71
3
 72
8
 73
4
 74
0
 40
0
 40
0
 40
0
 40
0
 40
1
 40
1
 40
1
 40
1
 10
704.391720
 20
493.913252
 30
0.0
 10
695.380328
 20
509.796868
 30
0.0
 10
685.418712
 20
524.314980
 30
0.0
 10
675.466720
 20
538.795756
 30
0.0
  0
SPLINE
  5
3c5
100
AcDbEntity
  8
0
 62
7
100
AcDbSpline
 70
8
 71
3
 72
8
 73
4
 74
0
 40
0
 40
0
 40
0
 40
0
 40
1
 40
1
 40
1
 40
1
 10
675.466720
 20
538.795756
 30
0.0
 10
681.738096
 20
519.865884
 30
0.0
 10
691.618984
 20
493.284172
 30
0.0
 10
699.094224
 20
488.323252
 30
0.0
  0
SPLINE
  5
3c6
100
AcDbEntity
  8
0
 62
7
100
AcDbSpline
 70
8
 71
3
 72
8
 73
4
 74
0
 40
0
 40
0
 40
0
 40
0
 40
1
 40
1
 40
1
 40
1
 10
699.094224
 20
488.323252
 30
0.0
 10
701.037824
 20
487.033396
 30
0.0
 10
705.334600
 20
486.264092
 30
0.0
 10
711.054224
 20
485.950756
 30
0.0
  0
LWPOLYLINE
  5
3c7
100
AcDbEntity
  8
0
 62
7
100
AcDbPolyline
 90
2
 70
0
 10
792.921720
 20
460.015756
 30
0.0
 10
792.921720
 20
460.015756
 30
0.0
  0
SPLINE
  5
3c8
100
AcDbEntity
  8
0
 62
7
100
AcDbSpline
 70
8
 71
3
 72
8
 73
4
 74
0
 40
0
 40
0
 40
0
 40
0
 40
1
 40
1
 40
1
 40
1
 10
753.629224
 20
489.590756
 30
0.0
 10
757.530408
 20
490.352620
 30
0.0
 10
761.398656
 20
491.227364
 30
0.0
 10
765.166720
 20
492.223252
 30
0.0
  0
SPLINE
  5
3c9
100
AcDbEntity
  8
0
 62
7
100
AcDbSpline
 70
8
 71
3
 72
8
 73
4
 74
0
 40
0
 40
0
 40
0
 40
0
 40
1
 40
1
 40
1
 40
1
 10
765.166720
 20
492.223252
 30
0.0
 10
775.965872
 20
495.077452
 30
0.0
 10
787.709448
 20
496.628380
 30
0.0
 10
800.526720
 20
497.520756
 30
0.0
  0
SPLINE
  5
3ca
100
AcDbEntity
  8
0
 62
7
100
AcDbSpline
 70
8
 71
3
 72
8
 73
4
 74
0
 40
0
 40
0
 40
0
 40
0
 40
1
 40
1
 40
1
 40
1
 10
800.526720
 20
497.520756
 30
0.0
 10
799.107856
 20
502.509500
 30
0.0
 10
797.130776
 20
507.612084
 30
0.0
 10
794.774224
 20
512.795756
 30
0.0
  0
SPLINE
  5
3cb
100
AcDbEntity
  8
0
 62
7
100
AcDbSpline
 70
8
 71
3
 72
8
 73
4
 74
0
 40
0
 40
0
 40
0
 40
0
 40
1
 40
1
 40
1
 40
1
 10
794.774224
 20
512.795756
 30
0.0
 10
787.565032
 20
514.862260
 30
0.0
 10
780.647336
 20
516.822028
 30
0.0
 10
774.461720
 20
518.548252
 30
0.0
  0
SPLINE
  5
3cc
100
AcDbEntity
  8
0
 62
7
100
AcDbSpline
 70
8
 71
3
 72
8
 73
4
 74
0
 40
0
 40
0
 40
0
 40
0
 40
1
 40
1
 40
1
 40
1
 10
774.461720
 20
518.548252
 30
0.0
 10
754.649720
 20
524.077180
 30
0.0
 10
732.186624
 20
533.392716
 30
0.0
 10
714.304224
 20
541.525756
 30
0.0
  0
SPLINE
  5
3cd
100
AcDbEntity
  8
0
 62
7
100
AcDbSpline
 70
8
 71
3
 72
8
 73
4
 74
0
 40
0
 40
0
 40
0
 40
0
 40
1
 40
1
 40
1
 40
1
 10
714.304224
 20
541.525756
 30
0.0
 10
723.709896
 20
528.027036
 30
0.0
 10
733.301112
 20
514.599332
 30
0.0
 10
741.311720
 20
504.345756
 30
0.0
  0
SPLINE
  5
3ce
100
AcDbEntity
  8
0
 62
7
100
AcDbSpline
 70
8
 71
3
 72
8
 73
4
 74
0
 40
0
 40
0
 40
0
 40
0
 40
1
 40
1
 40
1
 40
1
 10
741.311720
 20
504.345756
 30
0.0
 10
745.293704
 20
499.248820
 30
0.0
 10
749.462432
 20
494.284156
 30
0.0
 10
753.629224
 20
489.590756
 30
0.0
  0
LWPOLYLINE
  5
3cf
100
AcDbEntity
  8
0
 62
7
100
AcDbPolyline
 90
2
 70
0
 10
711.054224
 20
485.950756
 30
0.0
 10
704.391720
 20
493.913252
 30
0.0
  0
SPLINE
  5
3d0
100
AcDbEntity
  8
0
 62
7
100
AcDbSpline
 70
8
 71
3
 72
8
 73
4
 74
0
 40
0
 40
0
 40
0
 40
0
 40
1
 40
1
 40
1
 40
1
 10
825.096720
 20
498.528252
 30
0.0
 10
829.893520
 20
498.627780
 30
0.0
 10
834.847600
 20
498.703268
 30
0.0
 10
839.916720
 20
498.755756
 30
0.0
  0
SPLINE
  5
3d1
100
AcDbEntity
  8
0
 62
7
100
AcDbSpline
 70
8
 71
3
 72
8
 73
4
 74
0
 40
0
 40
0
 40
0
 40
0
 40
1
 40
1
 40
1
 40
1
 10
839.916720
 20
498.755756
 30
0.0
 10
834.568800
 20
500.624404
 30
0.0
 10
828.980560
 20
502.444540
 30
0.0
 10
823.276720
 20
504.248252
 30
0.0
  0
SPLINE
  5
3d2
100
AcDbEntity
  8
0
 62
7
100
AcDbSpline
 70
8
 71
3
 72
8
 73
4
 74
0
 40
0
 40
0
 40
0
 40
0
 40
1
 40
1
 40
1
 40
1
 10
823.276720
 20
504.248252
 30
0.0
 10
823.938800
 20
502.366228
 30
0.0
 10
824.533920
 20
500.460708
 30
0.0
 10
825.096720
 20
498.528252
 30
0.0
  0
LWPOLYLINE
  5
3d3
100
AcDbEntity
  8
0
 62
7
100
AcDbPolyline
 90
2
 70
0
 10
711.054224
 20
485.950756
 30
0.0
 10
711.054224
 20
485.950756
 30
0.0
  0
LWPOLYLINE
  5
3d4
100
AcDbEntity
  8
0
 62
7
100
AcDbPolyline
 90
2
 70
0
 10
753.629224
 20
489.590756
 30
0.0
 10
753.629224
 20
489.590756
 30
0.0
  0
LWPOLYLINE
  5
3d5
100
AcDbEntity
  8
0
 62
7
100
AcDbPolyline
 90
2
 70
0
 10
825.096720
 20
498.528252
 30
0.0
 10
825.096720
 20
498.528252
 30
0.0
  0
LWPOLYLINE
  5
3d6
100
AcDbEntity
  8
0
 62
1
100
AcDbPolyline
 90
2
 70
0
 10
405.911720
 20
699.540756
 30
0.0
 10
405.911720
 20
699.540756
 30
0.0
  0
SPLINE
  5
3d7
100
AcDbEntity
  8
0
 62
7
100
AcDbSpline
 70
8
 71
3
 72
8
 73
4
 74
0
 40
0
 40
0
 40
0
 40
0
 40
1
 40
1
 40
1
 40
1
 10
444.391672
 20
734.705756
 30
0.0
 10
426.197024
 20
719.271556
 30
0.0
 10
405.911672
 20
699.573252
 30
0.0
 10
405.911672
 20
699.573252
 30
0.0
  0
SPLINE
  5
3d8
100
AcDbEntity
  8
0
 62
1
100
AcDbSpline
 70
8
 71
3
 72
8
 73
4
 74
0
 40
0
 40
0
 40
0
 40
0
 40
1
 40
1
 40
1
 40
1
 10
444.164224
 20
771.690755
 30
0.0
 10
418.282312
 20
755.379980
 30
0.0
 10
387.484216
 20
726.905756
 30
0.0
 10
387.484216
 20
726.905756
 30
0.0
  0
SPLINE
  5
3d9
100
AcDbEntity
  8
0
 62
1
100
AcDbSpline
 70
8
 71
3
 72
8
 73
4
 74
0
 40
0
 40
0
 40
0
 40
0
 40
1
 40
1
 40
1
 40
1
 10
422.726096
 20
756.537100
 30
0.0
 10
436.547128
 20
756.675628
 30
0.0
 10
444.609688
 20
748.018524
 30
0.0
 10
445.199912
 20
743.464636
 30
0.0
  0
SPLINE
  5
3da
100
AcDbEntity
  8
0
 62
1
100
AcDbSpline
 70
8
 71
3
 72
8
 73
4
 74
0
 40
0
 40
0
 40
0
 40
0
 40
1
 40
1
 40
1
 40
1
 10
444.164224
 20
771.690755
 30
0.0
 10
446.123560
 20
761.440964
 30
0.0
 10
445.896768
 20
750.628716
 30
0.0
 10
447.591304
 20
737.725372
 30
0.0
  0
SPLINE
  5
3db
100
AcDbEntity
  8
0
 62
7
100
AcDbSpline
 70
8
 71
3
 72
8
 73
4
 74
0
 40
0
 40
0
 40
0
 40
0
 40
1
 40
1
 40
1
 40
1
 10
442.356024
 20
694.410868
 30
0.0
 10
450.295923
 20
717.394793
 30
0.0
 10
451.758536
 20
731.603038
 30
0.0
 10
446.743864
 20
737.035604
 30
0.0
  0
LWPOLYLINE
  5
3dc
100
AcDbEntity
  8
0
 62
1
100
AcDbPolyline
 90
2
 70
0
 10
442.636720
 20
693.268252
 30
0.0
 10
442.636720
 20
693.268252
 30
0.0
  0
ENDSEC
  0
SECTION
  2
OBJECTS
  0
DICTIONARY
  5
C
330
0
100
AcDbDictionary
  3
ACAD_GROUP
350
D
  3
ACAD_MLINESTYLE
350
17
  0
DICTIONARY
  5
D
330
C
100
AcDbDictionary
  0
DICTIONARY
  5
1A
330
C
100
AcDbDictionary
  0
DICTIONARY
  5
17
330
C
100
AcDbDictionary
  3
STANDARD
350
18
  0
DICTIONARY
  5
19
330
C
100
AcDbDictionary
  0
ENDSEC
  0
EOF
