  0
SECTION
  2
HEADER
  9
$ACADVER
  1
AC1009
  9
$INSBASE
 10
0.0
 20
0.0
 30
0.0
  9
$EXTMIN
 10
-0.0000550559418286
 20
-0.0000066112596784
 30
0.0
  9
$EXTMAX
 10
479.58916610249469
 20
1133.3528340455759
 30
0.0
  9
$LIMMIN
 10
0.0
 20
0.0
  9
$LIMMAX
 10
12.0
 20
9.0
  9
$ORTHOMODE
 70
     0
  9
$REGENMODE
 70
     1
  9
$FILLMODE
 70
     1
  9
$QTEXTMODE
 70
     0
  9
$MIRRTEXT
 70
     0
  9
$DRAGMODE
 70
     2
  9
$LTSCALE
 40
1.0
  9
$OSMODE
 70
   167
  9
$ATTMODE
 70
     1
  9
$TEXTSIZE
 40
0.2
  9
$TRACEWID
 40
0.05
  9
$TEXTSTYLE
  7
STANDARD
  9
$CLAYER
  8
0
  9
$CELTYPE
  6
CONTINUOUS
  9
$CECOLOR
 62
   256
  9
$DIMSCALE
 40
1.0
  9
$DIMASZ
 40
0.18
  9
$DIMEXO
 40
0.0625
  9
$DIMDLI
 40
0.38
  9
$DIMRND
 40
0.0
  9
$DIMDLE
 40
0.0
  9
$DIMEXE
 40
0.18
  9
$DIMTP
 40
0.0
  9
$DIMTM
 40
0.0
  9
$DIMTXT
 40
0.18
  9
$DIMCEN
 40
0.09
  9
$DIMTSZ
 40
0.0
  9
$DIMTOL
 70
     0
  9
$DIMLIM
 70
     0
  9
$DIMTIH
 70
     1
  9
$DIMTOH
 70
     1
  9
$DIMSE1
 70
     0
  9
$DIMSE2
 70
     0
  9
$DIMTAD
 70
     0
  9
$DIMZIN
 70
     0
  9
$DIMBLK
  1

  9
$DIMASO
 70
     1
  9
$DIMSHO
 70
     1
  9
$DIMPOST
  1

  9
$DIMAPOST
  1

  9
$DIMALT
 70
     0
  9
$DIMALTD
 70
     2
  9
$DIMALTF
 40
25.399999999999999
  9
$DIMLFAC
 40
1.0
  9
$DIMTOFL
 70
     0
  9
$DIMTVP
 40
0.0
  9
$DIMTIX
 70
     0
  9
$DIMSOXD
 70
     0
  9
$DIMSAH
 70
     0
  9
$DIMBLK1
  1

  9
$DIMBLK2
  1

  9
$DIMSTYLE
  2
STANDARD
  9
$DIMCLRD
 70
     0
  9
$DIMCLRE
 70
     0
  9
$DIMCLRT
 70
     0
  9
$DIMTFAC
 40
1.0
  9
$DIMGAP
 40
0.09
  9
$LUNITS
 70
     2
  9
$LUPREC
 70
     4
  9
$SKETCHINC
 40
0.1
  9
$FILLETRAD
 40
0.0
  9
$AUNITS
 70
     0
  9
$AUPREC
 70
     0
  9
$MENU
  1
.
  9
$ELEVATION
 40
0.0
  9
$PELEVATION
 40
0.0
  9
$THICKNESS
 40
0.0
  9
$LIMCHECK
 70
     0
  9
$BLIPMODE
 70
     0
  9
$CHAMFERA
 40
0.0
  9
$CHAMFERB
 40
0.0
  9
$SKPOLY
 70
     0
  9
$TDCREATE
 40
2455328.7757608099
  9
$TDUPDATE
 40
2455328.7759535881
  9
$TDINDWG
 40
0.0001933218
  9
$TDUSRTIMER
 40
0.0001933218
  9
$USRTIMER
 70
     1
  9
$ANGBASE
 50
0.0
  9
$ANGDIR
 70
     0
  9
$PDMODE
 70
     0
  9
$PDSIZE
 40
0.0
  9
$PLINEWID
 40
0.0
  9
$COORDS
 70
     1
  9
$SPLFRAME
 70
     0
  9
$SPLINETYPE
 70
     6
  9
$SPLINESEGS
 70
     8
  9
$ATTDIA
 70
     0
  9
$ATTREQ
 70
     1
  9
$HANDLING
 70
     1
  9
$HANDSEED
  5
9BF
  9
$SURFTAB1
 70
     6
  9
$SURFTAB2
 70
     6
  9
$SURFTYPE
 70
     6
  9
$SURFU
 70
     6
  9
$SURFV
 70
     6
  9
$UCSNAME
  2

  9
$UCSORG
 10
0.0
 20
0.0
 30
0.0
  9
$UCSXDIR
 10
1.0
 20
0.0
 30
0.0
  9
$UCSYDIR
 10
0.0
 20
1.0
 30
0.0
  9
$PUCSNAME
  2

  9
$PUCSORG
 10
0.0
 20
0.0
 30
0.0
  9
$PUCSXDIR
 10
1.0
 20
0.0
 30
0.0
  9
$PUCSYDIR
 10
0.0
 20
1.0
 30
0.0
  9
$USERI1
 70
     0
  9
$USERI2
 70
     0
  9
$USERI3
 70
     0
  9
$USERI4
 70
     0
  9
$USERI5
 70
     0
  9
$USERR1
 40
0.0
  9
$USERR2
 40
0.0
  9
$USERR3
 40
0.0
  9
$USERR4
 40
0.0
  9
$USERR5
 40
0.0
  9
$WORLDVIEW
 70
     1
  9
$SHADEDGE
 70
     3
  9
$SHADEDIF
 70
    70
  9
$TILEMODE
 70
     1
  9
$MAXACTVP
 70
    64
  9
$PLIMCHECK
 70
     0
  9
$PEXTMIN
 10
1.0000000000000000E+020
 20
1.0000000000000000E+020
 30
1.0000000000000000E+020
  9
$PEXTMAX
 10
-1.0000000000000000E+020
 20
-1.0000000000000000E+020
 30
-1.0000000000000000E+020
  9
$PLIMMIN
 10
0.0
 20
0.0
  9
$PLIMMAX
 10
12.0
 20
9.0
  9
$UNITMODE
 70
     0
  9
$VISRETAIN
 70
     1
  9
$PLINEGEN
 70
     0
  9
$PSLTSCALE
 70
     1
  0
ENDSEC
  0
SECTION
  2
TABLES
  0
TABLE
  2
VPORT
 70
     1
  0
VPORT
  2
*ACTIVE
 70
     0
 10
0.0
 20
0.0
 11
1.0
 21
1.0
 12
7.8038793103448274
 22
4.5
 13
0.0
 23
0.0
 14
1.0
 24
1.0
 15
0.0
 25
0.0
 16
0.0
 26
0.0
 36
1.0
 17
0.0
 27
0.0
 37
0.0
 40
9.0
 41
1.7341954022988499
 42
50.0
 43
0.0
 44
0.0
 50
0.0
 51
0.0
 71
     0
 72
   100
 73
     1
 74
     1
 75
     0
 76
     0
 77
     0
 78
     0
  0
ENDTAB
  0
TABLE
  2
LTYPE
 70
     1
  0
LTYPE
  2
CONTINUOUS
 70
     0
  3
Solid line
 72
    65
 73
     0
 40
0.0
  0
ENDTAB
  0
TABLE
  2
LAYER
 70
     2
  0
LAYER
  2
0
 70
     0
 62
     7
  6
CONTINUOUS
  0
LAYER
  2
CYAN
 70
     0
 62
     1
  6
CONTINUOUS
  0
ENDTAB
  0
TABLE
  2
STYLE
 70
     2
  0
STYLE
  2
STANDARD
 70
     0
 40
0.0
 41
1.0
 50
0.0
 71
     0
 42
0.2
  3
txt
  4

  0
STYLE
  2
ANNOTATIVE
 70
     0
 40
0.0
 41
1.0
 50
0.0
 71
     0
 42
0.2
  3
txt
  4

  0
ENDTAB
  0
TABLE
  2
VIEW
 70
     0
  0
ENDTAB
  0
TABLE
  2
UCS
 70
     0
  0
ENDTAB
  0
TABLE
  2
APPID
 70
     3
  0
APPID
  2
ACAD
 70
     0
  0
APPID
  2
ACADANNOTATIVE
 70
     0
  0
APPID
  2
ACAD_MLEADERVER
 70
     0
  0
ENDTAB
  0
TABLE
  2
DIMSTYLE
 70
     2
  0
DIMSTYLE
  2
STANDARD
 70
     0
  3

  4

  5

  6

  7

 40
1.0
 41
0.18
 42
0.0625
 43
0.38
 44
0.18
 45
0.0
 46
0.0
 47
0.0
 48
0.0
140
0.18
141
0.09
142
0.0
143
25.399999999999999
144
1.0
145
0.0
146
1.0
147
0.09
 71
     0
 72
     0
 73
     1
 74
     1
 75
     0
 76
     0
 77
     0
 78
     0
170
     0
171
     2
172
     0
173
     0
174
     0
175
     0
176
     0
177
     0
178
     0
  0
DIMSTYLE
  2
ANNOTATIVE
 70
     0
  3

  4

  5

  6

  7

 40
1.0
 41
0.18
 42
0.0625
 43
0.38
 44
0.18
 45
0.0
 46
0.0
 47
0.0
 48
0.0
140
0.18
141
0.09
142
0.0
143
25.399999999999999
144
1.0
145
0.0
146
1.0
147
0.09
 71
     0
 72
     0
 73
     1
 74
     1
 75
     0
 76
     0
 77
     0
 78
     0
170
     0
171
     2
172
     0
173
     0
174
     0
175
     0
176
     0
177
     0
178
     0
  0
ENDTAB
  0
ENDSEC
  0
SECTION
  2
BLOCKS
  0
BLOCK
  8
0
  2
$MODEL_SPACE
 70
     0
 10
0.0
 20
0.0
 30
0.0
  3
$MODEL_SPACE
  1

  0
ENDBLK
  5
76
  8
0
  0
BLOCK
 67
     1
  8
0
  2
$PAPER_SPACE
 70
     0
 10
0.0
 20
0.0
 30
0.0
  3
$PAPER_SPACE
  1

  0
ENDBLK
  5
72
 67
     1
  8
0
  0
ENDSEC
  0
SECTION
  2
ENTITIES
  0
POLYLINE
  5
7B
  8
CYAN
 66
     1
 10
0.0
 20
0.0
 30
0.0
 70
     1
  0
VERTEX
  5
547
  8
CYAN
 10
12.67389161
 20
353.19223877000002
 30
0.0
  0
VERTEX
  5
548
  8
CYAN
 10
3.3564204200000001
 20
353.22731506000002
 30
0.0
 42
-0.20252394
  0
VERTEX
  5
549
  8
CYAN
 10
1.7342799250000001
 20
353.60172598499997
 30
0.0
 42
-0.20252394
  0
VERTEX
  5
54A
  8
CYAN
 10
0.8716913849999999
 20
355.02561655
 30
0.0
 42
-0.20252394
  0
VERTEX
  5
54B
  8
CYAN
 10
1.291004859999999
 20
356.63673403000001
 30
0.0
 42
-0.20252394
  0
VERTEX
  5
54C
  8
CYAN
 10
2.738300419999999
 20
357.45944837000002
 30
0.0
  0
VERTEX
  5
54D
  8
CYAN
 10
11.65612471
 20
360.15867437999998
 30
0.0
 42
0.1619264
  0
VERTEX
  5
54E
  8
CYAN
 10
15.694891500000001
 20
363.01145876999999
 30
0.0
 42
-0.14057401
  0
VERTEX
  5
54F
  8
CYAN
 10
20.214925310000002
 20
366.49581737
 30
0.0
  0
VERTEX
  5
550
  8
CYAN
 10
31.253231469999999
 20
370.87203223
 30
0.0
 42
-0.12881075
  0
VERTEX
  5
551
  8
CYAN
 10
36.430899510000003
 20
371.50272673000001
 30
0.0
 42
-0.32901168
  0
VERTEX
  5
552
  8
CYAN
 10
38.475742480000001
 20
369.51697078000001
 30
0.0
  0
VERTEX
  5
553
  8
CYAN
 10
39.626540519999999
 20
362.21877440999998
 30
0.0
  0
VERTEX
  5
554
  8
CYAN
 10
24.672573440000001
 20
360.03398078999999
 30
0.0
  0
VERTEX
  5
555
  8
CYAN
 10
25.1106266
 20
357.03578972999998
 30
0.0
  0
VERTEX
  5
556
  8
CYAN
 10
40.064470460000003
 20
359.22059951
 30
0.0
  0
VERTEX
  5
557
  8
CYAN
 10
41.046914630000003
 20
351.92217184999998
 30
0.0
 42
-0.3317873599999999
  0
VERTEX
  5
558
  8
CYAN
 10
39.65859691
 20
349.41054930000001
 30
0.0
 42
-0.12881059
  0
VERTEX
  5
559
  8
CYAN
 10
34.516990919999998
 20
348.53351882999999
 30
0.0
  0
VERTEX
  5
55A
  8
CYAN
 10
22.687957780000001
 20
349.56848502000003
 30
0.0
 42
-0.14057417
  0
VERTEX
  5
55B
  8
CYAN
 10
17.359998709999999
 20
351.61405216000009
 30
0.0
 42
0.16192619
  0
VERTEX
  5
55C
  8
CYAN
 10
12.67389161
 20
353.19223877000002
 30
0.0
  0
SEQEND
  5
55D
  8
CYAN
  0
POLYLINE
  5
93
  8
CYAN
 66
     1
 10
0.0
 20
0.0
 30
0.0
 70
     1
  0
VERTEX
  5
55E
  8
CYAN
 10
40.059292190000001
 20
302.94188753999998
 30
0.0
 42
-0.10362512
  0
VERTEX
  5
55F
  8
CYAN
 10
30.893776509999999
 20
290.29729252999999
 30
0.0
 42
-0.10560999
  0
VERTEX
  5
560
  8
CYAN
 10
21.996911740000002
 20
285.12458662
 30
0.0
 42
-0.04100401
  0
VERTEX
  5
561
  8
CYAN
 10
15.251105580000001
 20
283.51493042999999
 30
0.0
 42
-0.17094225
  0
VERTEX
  5
562
  8
CYAN
 10
5.2692180100000003
 20
285.39678263000002
 30
0.0
 42
-0.2708349
  0
VERTEX
  5
563
  8
CYAN
 10
1.384628135
 20
293.396978585
 30
0.0
 42
-0.2708349
  0
VERTEX
  5
564
  8
CYAN
 10
6.4496686399999987
 20
300.70714537999999
 30
0.0
  0
VERTEX
  5
565
  8
CYAN
 10
6.4634773599999988
 20
309.60829457
 30
0.0
  0
VERTEX
  5
566
  8
CYAN
 10
26.75637716
 20
309.56608262999998
 30
0.0
  0
VERTEX
  5
567
  8
CYAN
 10
26.7626028
 20
312.59608263000001
 30
0.0
  0
VERTEX
  5
568
  8
CYAN
 10
6.4681617400000002
 20
312.63829457000003
 30
0.0
  0
VERTEX
  5
569
  8
CYAN
 10
6.4820320699999989
 20
321.60696124999998
 30
0.0
 42
-0.27083424
  0
VERTEX
  5
56A
  8
CYAN
 10
1.439678155
 20
328.93274554999999
 30
0.0
 42
-0.27083424
  0
VERTEX
  5
56B
  8
CYAN
 10
5.3489878099999988
 20
336.92084586999999
 30
0.0
 42
-0.17114092
  0
VERTEX
  5
56C
  8
CYAN
 10
15.3369778
 20
338.70417257000003
 30
0.0
 42
-0.04100398
  0
VERTEX
  5
56D
  8
CYAN
 10
22.077790520000001
 20
337.07355686
 30
0.0
 42
-0.10560994
  0
VERTEX
  5
56E
  8
CYAN
 10
30.958442770000001
 20
331.8731416
 30
0.0
 42
-0.10362499
  0
VERTEX
  5
56F
  8
CYAN
 10
40.084505829999998
 20
319.20010499
 30
0.0
 42
0.27314722
  0
VERTEX
  5
570
  8
CYAN
 10
44.859628270000002
 20
315.79163173000001
 30
0.0
  0
VERTEX
  5
571
  8
CYAN
 10
75.174299529999999
 20
313.15841325999997
 30
0.0
 42
-0.38950222
  0
VERTEX
  5
572
  8
CYAN
 10
77.138078890000003
 20
311.01328840000002
 30
0.0
 42
-0.3895057
  0
VERTEX
  5
573
  8
CYAN
 10
75.167580000000001
 20
308.87425080999998
 30
0.0
  0
VERTEX
  5
574
  8
CYAN
 10
44.84483277999999
 20
306.33545723999998
 30
0.0
 42
0.27314675
  0
VERTEX
  5
575
  8
CYAN
 10
40.059292190000001
 20
302.94188753999998
 30
0.0
  0
SEQEND
  5
576
  8
CYAN
  0
POLYLINE
  5
AD
  8
CYAN
 66
     1
 10
0.0
 20
0.0
 30
0.0
 70
     1
  0
VERTEX
  5
577
  8
CYAN
 10
188.2166881
 20
416.84235089999999
 30
0.0
 42
0.2728950399999999
  0
VERTEX
  5
578
  8
CYAN
 10
184.52234529500001
 20
411.33410328999997
 30
0.0
 42
0.2728950399999999
  0
VERTEX
  5
579
  8
CYAN
 10
187.55470783999999
 20
405.4354816
 30
0.0
 42
0.01775201
  0
VERTEX
  5
57A
  8
CYAN
 10
199.30045738999999
 20
394.98100391999998
 30
0.0
 42
0.27216409
  0
VERTEX
  5
57B
  8
CYAN
 10
203.00861986999999
 20
394.15293522000002
 30
0.0
 42
0.02257099
  0
VERTEX
  5
57C
  8
CYAN
 10
206.74578652
 20
395.54644737000001
 30
0.0
  0
VERTEX
  5
57D
  8
CYAN
 10
197.80429086000001
 20
403.82625667999991
 30
0.0
  0
VERTEX
  5
57E
  8
CYAN
 10
199.86297285000001
 20
406.04943938999992
 30
0.0
  0
VERTEX
  5
57F
  8
CYAN
 10
214.62010608
 20
392.38437269999997
 30
0.0
 42
0.25798586
  0
VERTEX
  5
580
  8
CYAN
 10
220.36065923999999
 20
392.88457923999999
 30
0.0
 42
0.0319709
  0
VERTEX
  5
581
  8
CYAN
 10
224.83606115000001
 20
396.32789750000001
 30
0.0
  0
VERTEX
  5
582
  8
CYAN
 10
216.21811192000001
 20
405.50483223999998
 30
0.0
  0
VERTEX
  5
583
  8
CYAN
 10
218.42680920999999
 20
407.57903490000001
 30
0.0
  0
VERTEX
  5
584
  8
CYAN
 10
227.04485034999999
 20
398.40209915000003
 30
0.0
 42
0.0319709
  0
VERTEX
  5
585
  8
CYAN
 10
230.76216747000001
 20
402.65257204
 30
0.0
 42
0.25798595
  0
VERTEX
  5
586
  8
CYAN
 10
231.6216603
 20
408.35043553000003
 30
0.0
  0
VERTEX
  5
587
  8
CYAN
 10
218.9097094
 20
423.93606872999987
 30
0.0
  0
VERTEX
  5
588
  8
CYAN
 10
221.25775537999999
 20
425.85120952
 30
0.0
  0
VERTEX
  5
589
  8
CYAN
 10
228.96005375999999
 20
416.40768830999991
 30
0.0
 42
0.02257098
  0
VERTEX
  5
58A
  8
CYAN
 10
230.58527606999999
 20
420.05001292999992
 30
0.0
 42
0.2721649
  0
VERTEX
  5
58B
  8
CYAN
 10
229.99166069
 20
423.80285276000001
 30
0.0
 42
0.01775201
  0
VERTEX
  5
58C
  8
CYAN
 10
220.29488298999999
 20
436.18164101999992
 30
0.0
 42
0.27289346
  0
VERTEX
  5
58D
  8
CYAN
 10
214.598186035
 20
439.57814576499999
 30
0.0
 42
0.27289346
  0
VERTEX
  5
58E
  8
CYAN
 10
208.86898124999999
 20
436.23676682000001
 30
0.0
 42
-0.20664139
  0
VERTEX
  5
58F
  8
CYAN
 10
206.06469513499999
 20
434.13758186500002
 30
0.0
 42
-0.20664139
  0
VERTEX
  5
590
  8
CYAN
 10
202.61374925999999
 20
434.73888935000002
 30
0.0
 42
0.29884095
  0
VERTEX
  5
591
  8
CYAN
 10
192.92773008
 20
434.73190822999999
 30
0.0
  0
VERTEX
  5
592
  8
CYAN
 10
201.83855708999999
 20
425.24310770999989
 30
0.0
  0
VERTEX
  5
593
  8
CYAN
 10
199.62986081
 20
423.16892121000001
 30
0.0
  0
VERTEX
  5
594
  8
CYAN
 10
190.71897118000001
 20
432.65772172999988
 30
0.0
 42
0.29883933
  0
VERTEX
  5
595
  8
CYAN
 10
190.10414983999999
 20
422.99122786999988
 30
0.0
 42
-0.20664252
  0
VERTEX
  5
596
  8
CYAN
 10
190.487715485
 20
419.50936191499989
 30
0.0
 42
-0.20664252
  0
VERTEX
  5
597
  8
CYAN
 10
188.2166881
 20
416.84235089999999
 30
0.0
  0
SEQEND
  5
598
  8
CYAN
  0
POLYLINE
  5
D0
  8
CYAN
 66
     1
 10
0.0
 20
0.0
 30
0.0
 70
     1
  0
VERTEX
  5
599
  8
CYAN
 10
123.0187035
 20
255.87318478
 30
0.0
 42
-0.01897284
  0
VERTEX
  5
59A
  8
CYAN
 10
123.60455198
 20
261.55508219000001
 30
0.0
 42
-0.1780004
  0
VERTEX
  5
59B
  8
CYAN
 10
126.89694593999999
 20
267.68322386
 30
0.0
 42
-0.11318592
  0
VERTEX
  5
59C
  8
CYAN
 10
169.57745928
 20
291.00395822000002
 30
0.0
 42
0.15408603
  0
VERTEX
  5
59D
  8
CYAN
 10
187.95420121999999
 20
303.05514591000002
 30
0.0
 42
0.2047621
  0
VERTEX
  5
59E
  8
CYAN
 10
190.02264234500001
 20
310.23066187000001
 30
0.0
 42
0.2047621
  0
VERTEX
  5
59F
  8
CYAN
 10
186.26536103000001
 20
316.68428992999998
 30
0.0
 42
0.02657599
  0
VERTEX
  5
5A0
  8
CYAN
 10
160.12634084999999
 20
337.39198663000002
 30
0.0
 42
-0.24458541
  0
VERTEX
  5
5A1
  8
CYAN
 10
155.43465451
 20
345.09782910000001
 30
0.0
  0
VERTEX
  5
5A2
  8
CYAN
 10
154.38270517000001
 20
360.73895877000001
 30
0.0
 42
0.2929398
  0
VERTEX
  5
5A3
  8
CYAN
 10
152.99919505
 20
362.60843645
 30
0.0
 42
0.07815276
  0
VERTEX
  5
5A4
  8
CYAN
 10
149.74366508
 20
363.29470519
 30
0.0
  0
VERTEX
  5
5A5
  8
CYAN
 10
149.74366508
 20
350.62041921000002
 30
0.0
  0
VERTEX
  5
5A6
  8
CYAN
 10
146.71375699000001
 20
350.62041921000002
 30
0.0
  0
VERTEX
  5
5A7
  8
CYAN
 10
146.71375699000001
 20
363.01887217000001
 30
0.0
 42
0.09760617
  0
VERTEX
  5
5A8
  8
CYAN
 10
142.945953
 20
361.30036424000002
 30
0.0
 42
0.26256318
  0
VERTEX
  5
5A9
  8
CYAN
 10
141.31928235000001
 20
357.79743578
 30
0.0
  0
VERTEX
  5
5AA
  8
CYAN
 10
141.83525499000001
 20
351.26278122999997
 30
0.0
 42
-0.29460178
  0
VERTEX
  5
5AB
  8
CYAN
 10
137.86867491999999
 20
343.90084274999998
 30
0.0
 42
0.26706155
  0
VERTEX
  5
5AC
  8
CYAN
 10
135.53412387
 20
340.05215738999999
 30
0.0
 42
0.26706155
  0
VERTEX
  5
5AD
  8
CYAN
 10
137.68682038
 20
336.09887959000002
 30
0.0
 42
0.05711304
  0
VERTEX
  5
5AE
  8
CYAN
 10
173.02233394999999
 20
316.93600414999997
 30
0.0
 42
-0.26641112
  0
VERTEX
  5
5AF
  8
CYAN
 10
178.39492096999999
 20
310.64381840499999
 30
0.0
 42
-0.26641112
  0
VERTEX
  5
5B0
  8
CYAN
 10
175.67685130000001
 20
302.82919174
 30
0.0
 42
-0.10725692
  0
VERTEX
  5
5B1
  8
CYAN
 10
164.75092480999999
 20
296.83712535000001
 30
0.0
 42
0.12746501
  0
VERTEX
  5
5B2
  8
CYAN
 10
118.99044677000001
 20
269.31329215
 30
0.0
 42
0.15090316
  0
VERTEX
  5
5B3
  8
CYAN
 10
117.69317954
 20
266.79810127000002
 30
0.0
 42
0.13156
  0
VERTEX
  5
5B4
  8
CYAN
 10
118.67630142
 20
255.25727667999999
 30
0.0
 42
0.3551707
  0
VERTEX
  5
5B5
  8
CYAN
 10
121.097833255
 20
253.80029704500001
 30
0.0
 42
0.3551707
  0
VERTEX
  5
5B6
  8
CYAN
 10
123.0187035
 20
255.87318478
 30
0.0
  0
SEQEND
  5
5B7
  8
CYAN
  0
POLYLINE
  5
F0
  8
CYAN
 66
     1
 10
0.0
 20
0.0
 30
0.0
 70
     1
  0
VERTEX
  5
5B8
  8
CYAN
 10
167.06213811000001
 20
424.80075498000002
 30
0.0
 42
-0.11147967
  0
VERTEX
  5
5B9
  8
CYAN
 10
163.71965724
 20
423.86274171999997
 30
0.0
  0
VERTEX
  5
5BA
  8
CYAN
 10
135.59787071
 20
444.69755197000001
 30
0.0
  0
VERTEX
  5
5BB
  8
CYAN
 10
132.95824076
 20
446.91201231999992
 30
0.0
 42
-0.39984298
  0
VERTEX
  5
5BC
  8
CYAN
 10
132.58565479000001
 20
450.22397906999998
 30
0.0
  0
VERTEX
  5
5BD
  8
CYAN
 10
137.41326895
 20
456.65314316000001
 30
0.0
  0
VERTEX
  5
5BE
  8
CYAN
 10
152.38455854
 20
445.56102015999988
 30
0.0
  0
VERTEX
  5
5BF
  8
CYAN
 10
154.18827511999999
 20
447.99564838999987
 30
0.0
  0
VERTEX
  5
5C0
  8
CYAN
 10
139.21735519000001
 20
459.08817134999993
 30
0.0
  0
VERTEX
  5
5C1
  8
CYAN
 10
143.96165546
 20
465.57848790999992
 30
0.0
 42
-0.39984245
  0
VERTEX
  5
5C2
  8
CYAN
 10
147.2384227
 20
466.18649780999988
 30
0.0
  0
VERTEX
  5
5C3
  8
CYAN
 10
150.12278473999999
 20
464.30806647999998
 30
0.0
  0
VERTEX
  5
5C4
  8
CYAN
 10
178.24706799000001
 20
443.47139177000003
 30
0.0
 42
-0.11149536
  0
VERTEX
  5
5C5
  8
CYAN
 10
178.32313916999999
 20
440.00016418000001
 30
0.0
 42
0.22984935
  0
VERTEX
  5
5C6
  8
CYAN
 10
180.13055437
 20
432.97192869000003
 30
0.0
 42
-0.34845642
  0
VERTEX
  5
5C7
  8
CYAN
 10
180.29160290999999
 20
428.08701521
 30
0.0
  0
VERTEX
  5
5C8
  8
CYAN
 10
179.03215412
 20
426.38715592
 30
0.0
 42
-0.34845842
  0
VERTEX
  5
5C9
  8
CYAN
 10
174.31211203000001
 20
425.11855350000002
 30
0.0
 42
0.22985083
  0
VERTEX
  5
5CA
  8
CYAN
 10
167.06213811000001
 20
424.80075498000002
 30
0.0
  0
SEQEND
  5
5CB
  8
CYAN
  0
POLYLINE
  5
105
  8
CYAN
 66
     1
 10
0.0
 20
0.0
 30
0.0
 70
     1
  0
VERTEX
  5
5CC
  8
CYAN
 10
59.08513082999999
 20
253.71224029000001
 30
0.0
 42
-0.25234001
  0
VERTEX
  5
5CD
  8
CYAN
 10
61.955036739999997
 20
268.53172789000001
 30
0.0
 42
-0.14266689
  0
VERTEX
  5
5CE
  8
CYAN
 10
111.25288827999999
 20
302.38341814
 30
0.0
 42
0.06887508
  0
VERTEX
  5
5CF
  8
CYAN
 10
120.02969838999999
 20
306.68644436
 30
0.0
 42
0.27648737
  0
VERTEX
  5
5D0
  8
CYAN
 10
121.9168518
 20
310.71651700000001
 30
0.0
 42
0.27648737
  0
VERTEX
  5
5D1
  8
CYAN
 10
119.25555359000001
 20
314.28307351000001
 30
0.0
 42
-0.03677697
  0
VERTEX
  5
5D2
  8
CYAN
 10
78.167312319999994
 20
334.83337483999998
 30
0.0
 42
-0.27252708
  0
VERTEX
  5
5D3
  8
CYAN
 10
75.96000368
 20
338.86062987499997
 30
0.0
 42
-0.27252708
  0
VERTEX
  5
5D4
  8
CYAN
 10
78.410688989999997
 20
342.74458869
 30
0.0
 42
0.26682061
  0
VERTEX
  5
5D5
  8
CYAN
 10
81.974045750000002
 20
348.26115313999998
 30
0.0
  0
VERTEX
  5
5D6
  8
CYAN
 10
82.369193100000004
 20
355.85022344999999
 30
0.0
 42
-0.22781566
  0
VERTEX
  5
5D7
  8
CYAN
 10
84.879275399999983
 20
360.44478717999999
 30
0.0
 42
-0.09796902
  0
VERTEX
  5
5D8
  8
CYAN
 10
87.728962120000006
 20
361.74302603000001
 30
0.0
  0
VERTEX
  5
5D9
  8
CYAN
 10
87.728962120000006
 20
348.72876495999998
 30
0.0
  0
VERTEX
  5
5DA
  8
CYAN
 10
90.759023729999996
 20
348.72876495999998
 30
0.0
  0
VERTEX
  5
5DB
  8
CYAN
 10
90.759023729999996
 20
361.87366751000002
 30
0.0
 42
-0.11339348
  0
VERTEX
  5
5DC
  8
CYAN
 10
94.124992149999997
 20
360.56103515000001
 30
0.0
 42
-0.24202464
  0
VERTEX
  5
5DD
  8
CYAN
 10
95.533345240000003
 20
357.97212336000001
 30
0.0
  0
VERTEX
  5
5DE
  8
CYAN
 10
95.896005939999995
 20
342.42148968999999
 30
0.0
 42
0.23985225
  0
VERTEX
  5
5DF
  8
CYAN
 10
99.538577000000004
 20
335.65985582000002
 30
0.0
 42
0.01152698
  0
VERTEX
  5
5E0
  8
CYAN
 10
129.10400905
 20
316.17068977999998
 30
0.0
 42
-0.26677284
  0
VERTEX
  5
5E1
  8
CYAN
 10
133.12976029500001
 20
308.61674353500001
 30
0.0
 42
-0.26677284
  0
VERTEX
  5
5E2
  8
CYAN
 10
128.63266730000001
 20
301.33354838999998
 30
0.0
 42
-0.059899
  0
VERTEX
  5
5E3
  8
CYAN
 10
113.97028318
 20
295.53528786999999
 30
0.0
 42
0.14622903
  0
VERTEX
  5
5E4
  8
CYAN
 10
67.917514170000004
 20
267.46942100000001
 30
0.0
 42
0.15928769
  0
VERTEX
  5
5E5
  8
CYAN
 10
64.546182650000006
 20
259.86192627000003
 30
0.0
 42
-0.04412897
  0
VERTEX
  5
5E6
  8
CYAN
 10
63.377506599999997
 20
253.76681160000001
 30
0.0
 42
-0.33151137
  0
VERTEX
  5
5E7
  8
CYAN
 10
61.251643405000003
 20
252.14086171
 30
0.0
 42
-0.33151137
  0
VERTEX
  5
5E8
  8
CYAN
 10
59.08513082999999
 20
253.71224029000001
 30
0.0
  0
SEQEND
  5
5E9
  8
CYAN
  0
POLYLINE
  5
124
  8
CYAN
 66
     1
 10
0.0
 20
0.0
 30
0.0
 70
     1
  0
VERTEX
  5
5EA
  8
CYAN
 10
169.63867336000001
 20
251.93747334
 30
0.0
 42
0.35454427
  0
VERTEX
  5
5EB
  8
CYAN
 10
172.102585955
 20
250.56133611999999
 30
0.0
 42
0.35454427
  0
VERTEX
  5
5EC
  8
CYAN
 10
173.95771212
 20
252.68810028999999
 30
0.0
  0
VERTEX
  5
5ED
  8
CYAN
 10
174.17507422
 20
257.77937192000002
 30
0.0
 42
-0.21900755
  0
VERTEX
  5
5EE
  8
CYAN
 10
177.69164172000001
 20
264.52261974999999
 30
0.0
 42
-0.08969297
  0
VERTEX
  5
5EF
  8
CYAN
 10
215.63177056000001
 20
284.27330104999999
 30
0.0
 42
0.19422983
  0
VERTEX
  5
5F0
  8
CYAN
 10
236.86966575
 20
301.61503033999998
 30
0.0
 42
0.3352638
  0
VERTEX
  5
5F1
  8
CYAN
 10
234.12563917
 20
320.45808928000002
 30
0.0
 42
0.05474598
  0
VERTEX
  5
5F2
  8
CYAN
 10
209.63751550000001
 20
343.39943431
 30
0.0
 42
-0.2459595
  0
VERTEX
  5
5F3
  8
CYAN
 10
205.97774515
 20
349.93980647000001
 30
0.0
  0
VERTEX
  5
5F4
  8
CYAN
 10
205.55340778999999
 20
365.19016512000002
 30
0.0
 42
0.370189
  0
VERTEX
  5
5F5
  8
CYAN
 10
202.46851328
 20
368.58989986
 30
0.0
 42
0.02278002
  0
VERTEX
  5
5F6
  8
CYAN
 10
200.65718332
 20
368.73376526999999
 30
0.0
  0
VERTEX
  5
5F7
  8
CYAN
 10
200.65718332
 20
355.32022696000001
 30
0.0
  0
VERTEX
  5
5F8
  8
CYAN
 10
197.62715201
 20
355.32022696000001
 30
0.0
  0
VERTEX
  5
5F9
  8
CYAN
 10
197.62715201
 20
368.60524984
 30
0.0
 42
0.04094498
  0
VERTEX
  5
5FA
  8
CYAN
 10
194.43040101
 20
367.95627636
 30
0.0
 42
0.34320433
  0
VERTEX
  5
5FB
  8
CYAN
 10
192.32042920000001
 20
365.04682389999999
 30
0.0
  0
VERTEX
  5
5FC
  8
CYAN
 10
192.63972251999999
 20
355.59920310000001
 30
0.0
 42
-0.29422599
  0
VERTEX
  5
5FD
  8
CYAN
 10
189.51962749
 20
350.37673448999999
 30
0.0
 42
0.26823787
  0
VERTEX
  5
5FE
  8
CYAN
 10
186.95347261000001
 20
346.516503855
 30
0.0
 42
0.26823787
  0
VERTEX
  5
5FF
  8
CYAN
 10
189.01792513999999
 20
342.36625480999999
 30
0.0
 42
0.02714402
  0
VERTEX
  5
600
  8
CYAN
 10
221.75138176999999
 20
320.62095683000001
 30
0.0
 42
-0.21841247
  0
VERTEX
  5
601
  8
CYAN
 10
228.64789848000001
 20
311.65549717499999
 30
0.0
 42
-0.21841247
  0
VERTEX
  5
602
  8
CYAN
 10
226.35146212000001
 20
300.579948
 30
0.0
 42
-0.15395008
  0
VERTEX
  5
603
  8
CYAN
 10
212.83485229999999
 20
290.70868371
 30
0.0
 42
0.09330297
  0
VERTEX
  5
604
  8
CYAN
 10
171.35013755
 20
267.43056124999998
 30
0.0
 42
0.17261656
  0
VERTEX
  5
605
  8
CYAN
 10
168.60534135
 20
262.76227054999998
 30
0.0
 42
0.14338692
  0
VERTEX
  5
606
  8
CYAN
 10
169.63867336000001
 20
251.93747334
 30
0.0
  0
SEQEND
  5
607
  8
CYAN
  0
POLYLINE
  5
143
  8
CYAN
 66
     1
 10
0.0
 20
0.0
 30
0.0
 70
     1
  0
VERTEX
  5
608
  8
CYAN
 10
140.73975243000001
 20
253.00396365
 30
0.0
 42
0.35454482
  0
VERTEX
  5
609
  8
CYAN
 10
143.20363473500001
 20
251.62787982500001
 30
0.0
 42
0.35454482
  0
VERTEX
  5
60A
  8
CYAN
 10
145.05869827000001
 20
253.75462898000001
 30
0.0
  0
VERTEX
  5
60B
  8
CYAN
 10
145.27609168000001
 20
258.84590061
 30
0.0
 42
-0.21900728
  0
VERTEX
  5
60C
  8
CYAN
 10
148.79272079
 20
265.58911006
 30
0.0
 42
-0.08969297
  0
VERTEX
  5
60D
  8
CYAN
 10
186.73275772
 20
285.33979135999999
 30
0.0
 42
0.19423018
  0
VERTEX
  5
60E
  8
CYAN
 10
207.97071351
 20
302.68152064999998
 30
0.0
 42
0.3352638
  0
VERTEX
  5
60F
  8
CYAN
 10
205.22674853999999
 20
321.52457150999999
 30
0.0
 42
0.05474598
  0
VERTEX
  5
610
  8
CYAN
 10
180.73859457
 20
344.46594785000002
 30
0.0
 42
-0.2459605
  0
VERTEX
  5
611
  8
CYAN
 10
177.07873129999999
 20
351.00633515999999
 30
0.0
  0
VERTEX
  5
612
  8
CYAN
 10
176.65448685999999
 20
366.25669482000001
 30
0.0
 42
0.37018879
  0
VERTEX
  5
613
  8
CYAN
 10
173.56949943000001
 20
369.65635178999997
 30
0.0
 42
0.02278002
  0
VERTEX
  5
614
  8
CYAN
 10
171.75820078000001
 20
369.80021720000002
 30
0.0
  0
VERTEX
  5
615
  8
CYAN
 10
171.75820078000001
 20
356.38667787999998
 30
0.0
  0
VERTEX
  5
616
  8
CYAN
 10
168.72826239
 20
356.38667787999998
 30
0.0
  0
VERTEX
  5
617
  8
CYAN
 10
168.72826239
 20
369.67176338000002
 30
0.0
 42
0.04094498
  0
VERTEX
  5
618
  8
CYAN
 10
165.53138817000001
 20
369.02272828999998
 30
0.0
 42
0.34320246
  0
VERTEX
  5
619
  8
CYAN
 10
163.42150827
 20
366.11335359999998
 30
0.0
  0
VERTEX
  5
61A
  8
CYAN
 10
163.74070867
 20
356.66573179
 30
0.0
 42
-0.29422621
  0
VERTEX
  5
61B
  8
CYAN
 10
160.62070656
 20
351.44318642000002
 30
0.0
 42
0.2682407
  0
VERTEX
  5
61C
  8
CYAN
 10
158.054545945
 20
347.58299643999999
 30
0.0
 42
0.2682407
  0
VERTEX
  5
61D
  8
CYAN
 10
160.11900421000001
 20
343.43278450999998
 30
0.0
 42
0.0271439
  0
VERTEX
  5
61E
  8
CYAN
 10
192.85255376000001
 20
321.68740875999998
 30
0.0
 42
-0.21841228
  0
VERTEX
  5
61F
  8
CYAN
 10
199.749017815
 20
312.72197238000001
 30
0.0
 42
-0.21841228
  0
VERTEX
  5
620
  8
CYAN
 10
197.4525725
 20
301.64647668999999
 30
0.0
 42
-0.15395008
  0
VERTEX
  5
621
  8
CYAN
 10
183.93590107
 20
291.77517402000001
 30
0.0
 42
0.09330297
  0
VERTEX
  5
622
  8
CYAN
 10
142.45121662
 20
268.49712125000002
 30
0.0
 42
0.17261621
  0
VERTEX
  5
623
  8
CYAN
 10
139.70632749999999
 20
263.82879924000002
 30
0.0
 42
0.14338703
  0
VERTEX
  5
624
  8
CYAN
 10
140.73975243000001
 20
253.00396365
 30
0.0
  0
SEQEND
  5
625
  8
CYAN
  0
POLYLINE
  5
162
  8
CYAN
 66
     1
 10
0.0
 20
0.0
 30
0.0
 70
     1
  0
VERTEX
  5
626
  8
CYAN
 10
91.007332230000003
 20
255.87318478
 30
0.0
 42
-0.35517068
  0
VERTEX
  5
627
  8
CYAN
 10
89.086477119999998
 20
253.800309465
 30
0.0
 42
-0.35517068
  0
VERTEX
  5
628
  8
CYAN
 10
86.664960449999995
 20
255.25727667999999
 30
0.0
 42
-0.13156
  0
VERTEX
  5
629
  8
CYAN
 10
85.681838569999996
 20
266.79810127000002
 30
0.0
 42
-0.15090316
  0
VERTEX
  5
62A
  8
CYAN
 10
86.979105799999999
 20
269.31329215
 30
0.0
 42
-0.12746501
  0
VERTEX
  5
62B
  8
CYAN
 10
132.73961413999999
 20
296.83712535000001
 30
0.0
 42
0.10725704
  0
VERTEX
  5
62C
  8
CYAN
 10
143.66544872
 20
302.82919174
 30
0.0
 42
0.26640998
  0
VERTEX
  5
62D
  8
CYAN
 10
146.38349843500001
 20
310.64381465500003
 30
0.0
 42
0.26640998
  0
VERTEX
  5
62E
  8
CYAN
 10
141.01093137000001
 20
316.93600414999997
 30
0.0
 42
-0.05711304
  0
VERTEX
  5
62F
  8
CYAN
 10
105.6753875
 20
336.09887959000002
 30
0.0
 42
-0.26706154
  0
VERTEX
  5
630
  8
CYAN
 10
103.52275261
 20
340.05219282500002
 30
0.0
 42
-0.26706154
  0
VERTEX
  5
631
  8
CYAN
 10
105.85736525999999
 20
343.90084274999998
 30
0.0
 42
0.29460176
  0
VERTEX
  5
632
  8
CYAN
 10
109.82388372
 20
351.26278122999997
 30
0.0
  0
VERTEX
  5
633
  8
CYAN
 10
109.30791007000001
 20
357.79743578
 30
0.0
 42
-0.26256316
  0
VERTEX
  5
634
  8
CYAN
 10
110.93461203
 20
361.30036424000002
 30
0.0
 42
-0.0976057
  0
VERTEX
  5
635
  8
CYAN
 10
114.7022625
 20
363.01887217000001
 30
0.0
  0
VERTEX
  5
636
  8
CYAN
 10
114.7022625
 20
350.62041921000002
 30
0.0
  0
VERTEX
  5
637
  8
CYAN
 10
117.73232410999999
 20
350.62041921000002
 30
0.0
  0
VERTEX
  5
638
  8
CYAN
 10
117.73232410999999
 20
363.29470519
 30
0.0
 42
-0.07815274
  0
VERTEX
  5
639
  8
CYAN
 10
120.98782276999999
 20
362.60843645
 30
0.0
 42
-0.2929398
  0
VERTEX
  5
63A
  8
CYAN
 10
122.37133289000001
 20
360.73895877000001
 30
0.0
  0
VERTEX
  5
63B
  8
CYAN
 10
123.42325193000001
 20
345.09782910000001
 30
0.0
 42
0.24458539
  0
VERTEX
  5
63C
  8
CYAN
 10
128.11503017999999
 20
337.39198663000002
 30
0.0
 42
-0.02657599
  0
VERTEX
  5
63D
  8
CYAN
 10
154.25398976
 20
316.68428992999998
 30
0.0
 42
-0.20476279
  0
VERTEX
  5
63E
  8
CYAN
 10
158.01123522
 20
310.23064332500002
 30
0.0
 42
-0.20476279
  0
VERTEX
  5
63F
  8
CYAN
 10
155.94273702999999
 20
303.05514591000002
 30
0.0
 42
-0.15408602
  0
VERTEX
  5
640
  8
CYAN
 10
137.56605669999999
 20
291.00395822000002
 30
0.0
 42
0.11318592
  0
VERTEX
  5
641
  8
CYAN
 10
94.885512050000003
 20
267.68322386
 30
0.0
 42
0.17800039
  0
VERTEX
  5
642
  8
CYAN
 10
91.593149399999987
 20
261.55508219000001
 30
0.0
 42
0.01897284
  0
VERTEX
  5
643
  8
CYAN
 10
91.007332230000003
 20
255.87318478
 30
0.0
  0
SEQEND
  5
644
  8
CYAN
  0
POLYLINE
  5
182
  8
CYAN
 66
     1
 10
0.0
 20
0.0
 30
0.0
 70
     1
  0
VERTEX
  5
645
  8
CYAN
 10
29.98031332
 20
253.71224029000001
 30
0.0
 42
-0.25234002
  0
VERTEX
  5
646
  8
CYAN
 10
32.850220239999999
 20
268.53172789000001
 30
0.0
 42
-0.14266689
  0
VERTEX
  5
647
  8
CYAN
 10
82.148132380000007
 20
302.38341814
 30
0.0
 42
0.06887508
  0
VERTEX
  5
648
  8
CYAN
 10
90.924912190000015
 20
306.68644436
 30
0.0
 42
0.27648737
  0
VERTEX
  5
649
  8
CYAN
 10
92.812065599999997
 20
310.71651700000001
 30
0.0
 42
0.27648737
  0
VERTEX
  5
64A
  8
CYAN
 10
90.150767389999984
 20
314.28307351000001
 30
0.0
 42
-0.03677697
  0
VERTEX
  5
64B
  8
CYAN
 10
49.062495820000002
 20
334.83337483999998
 30
0.0
 42
-0.27252705
  0
VERTEX
  5
64C
  8
CYAN
 10
46.855186940000003
 20
338.86062957000001
 30
0.0
 42
-0.27252705
  0
VERTEX
  5
64D
  8
CYAN
 10
49.30587148
 20
342.74458869
 30
0.0
 42
0.26682153
  0
VERTEX
  5
64E
  8
CYAN
 10
52.869352470000003
 20
348.26115313999998
 30
0.0
  0
VERTEX
  5
64F
  8
CYAN
 10
53.264376599999991
 20
355.85022344999999
 30
0.0
 42
-0.22781706
  0
VERTEX
  5
650
  8
CYAN
 10
55.774582119999991
 20
360.44478717999999
 30
0.0
 42
-0.09796891
  0
VERTEX
  5
651
  8
CYAN
 10
58.624207230000003
 20
361.74302603000001
 30
0.0
  0
VERTEX
  5
652
  8
CYAN
 10
58.624207230000003
 20
348.72876495999998
 30
0.0
  0
VERTEX
  5
653
  8
CYAN
 10
61.654207229999997
 20
348.72876495999998
 30
0.0
  0
VERTEX
  5
654
  8
CYAN
 10
61.654207229999997
 20
361.87366751000002
 30
0.0
 42
-0.11339345
  0
VERTEX
  5
655
  8
CYAN
 10
65.020174639999993
 20
360.56103515000001
 30
0.0
 42
-0.24202229
  0
VERTEX
  5
656
  8
CYAN
 10
66.428651959999996
 20
357.97212336000001
 30
0.0
  0
VERTEX
  5
657
  8
CYAN
 10
66.791188430000005
 20
342.42148968999999
 30
0.0
 42
0.23985226
  0
VERTEX
  5
658
  8
CYAN
 10
70.433822109999994
 20
335.65985582000002
 30
0.0
 42
0.01152698
  0
VERTEX
  5
659
  8
CYAN
 10
99.999192550000004
 20
316.17068977999998
 30
0.0
 42
-0.26677282
  0
VERTEX
  5
65A
  8
CYAN
 10
104.02497434999999
 20
308.61676124000002
 30
0.0
 42
-0.26677282
  0
VERTEX
  5
65B
  8
CYAN
 10
99.527912409999985
 20
301.33354838999998
 30
0.0
 42
-0.059899
  0
VERTEX
  5
65C
  8
CYAN
 10
84.865466679999997
 20
295.53528786999999
 30
0.0
 42
0.14622903
  0
VERTEX
  5
65D
  8
CYAN
 10
38.81275827000001
 20
267.46942100000001
 30
0.0
 42
0.15928768
  0
VERTEX
  5
65E
  8
CYAN
 10
35.44136615
 20
259.86192627000003
 30
0.0
 42
-0.04412897
  0
VERTEX
  5
65F
  8
CYAN
 10
34.272751710000001
 20
253.76681160000001
 30
0.0
 42
-0.3315126
  0
VERTEX
  5
660
  8
CYAN
 10
32.146857300000001
 20
252.14083099000001
 30
0.0
 42
-0.3315126
  0
VERTEX
  5
661
  8
CYAN
 10
29.98031332
 20
253.71224029000001
 30
0.0
  0
SEQEND
  5
662
  8
CYAN
  0
POLYLINE
  5
1A1
  8
CYAN
 66
     1
 10
0.0
 20
0.0
 30
0.0
 70
     1
  0
VERTEX
  5
663
  8
CYAN
 10
212.14414561999999
 20
27.38389458
 30
0.0
  0
VERTEX
  5
664
  8
CYAN
 10
215.97676938999999
 20
20.7327133
 30
0.0
  0
VERTEX
  5
665
  8
CYAN
 10
218.60206744000001
 20
22.245509479999999
 30
0.0
  0
VERTEX
  5
666
  8
CYAN
 10
214.76941135000001
 20
28.896721060000001
 30
0.0
 42
0.35549625
  0
VERTEX
  5
667
  8
CYAN
 10
218.05610386000001
 20
42.859644829999993
 30
0.0
 42
0.12800193
  0
VERTEX
  5
668
  8
CYAN
 10
208.15796144999999
 20
54.455626530000004
 30
0.0
 42
-0.3874036
  0
VERTEX
  5
669
  8
CYAN
 10
207.48378295500001
 20
57.442478444999999
 30
0.0
 42
-0.3874036
  0
VERTEX
  5
66A
  8
CYAN
 10
210.39569320999999
 20
58.389357359999991
 30
0.0
 42
-0.17637897
  0
VERTEX
  5
66B
  8
CYAN
 10
233.3838275
 20
35.920640820000003
 30
0.0
 42
-0.392384
  0
VERTEX
  5
66C
  8
CYAN
 10
224.85334439499999
 20
8.3624657599999992
 30
0.0
 42
-0.392384
  0
VERTEX
  5
66D
  8
CYAN
 10
196.73279903
 20
14.80118328
 30
0.0
 42
-0.17637913
  0
VERTEX
  5
66E
  8
CYAN
 10
188.82072163000001
 20
45.957207769999989
 30
0.0
 42
-0.38740182
  0
VERTEX
  5
66F
  8
CYAN
 10
191.100129985
 20
48.00172207
 30
0.0
 42
-0.38740182
  0
VERTEX
  5
670
  8
CYAN
 10
193.34624176
 20
45.920683140000001
 30
0.0
 42
0.12800193
  0
VERTEX
  5
671
  8
CYAN
 10
198.41553680000001
 20
31.542115079999999
 30
0.0
 42
0.35549692
  0
VERTEX
  5
672
  8
CYAN
 10
212.14414561999999
 20
27.38389458
 30
0.0
  0
SEQEND
  5
673
  8
CYAN
  0
POLYLINE
  5
1B3
  8
CYAN
 66
     1
 10
0.0
 20
0.0
 30
0.0
 70
     1
  0
VERTEX
  5
674
  8
CYAN
 10
205.49684880000001
 20
45.371760260000002
 30
0.0
 42
-0.18014607
  0
VERTEX
  5
675
  8
CYAN
 10
184.75748153000001
 20
70.030656750000006
 30
0.0
 42
-0.39778822
  0
VERTEX
  5
676
  8
CYAN
 10
198.16526448499999
 20
100.5124522
 30
0.0
 42
-0.39778822
  0
VERTEX
  5
677
  8
CYAN
 10
229.35443047999999
 20
88.844358020000001
 30
0.0
 42
-0.18014594
  0
VERTEX
  5
678
  8
CYAN
 10
232.54372262999999
 20
56.781820150000001
 30
0.0
 42
-0.37384612
  0
VERTEX
  5
679
  8
CYAN
 10
230.07949916999999
 20
55.103321944999998
 30
0.0
 42
-0.37384612
  0
VERTEX
  5
67A
  8
CYAN
 10
228.07408378
 20
57.309690590000002
 30
0.0
 42
0.10696897
  0
VERTEX
  5
67B
  8
CYAN
 10
223.99601788999999
 20
74.319003629999997
 30
0.0
 42
0.36792648
  0
VERTEX
  5
67C
  8
CYAN
 10
207.83811363999999
 20
81.481272180000005
 30
0.0
  0
VERTEX
  5
67D
  8
CYAN
 10
204.86094471999999
 20
88.538434069999994
 30
0.0
  0
VERTEX
  5
67E
  8
CYAN
 10
202.06923502999999
 20
87.360673070000004
 30
0.0
  0
VERTEX
  5
67F
  8
CYAN
 10
205.04628174000001
 20
80.303511180000001
 30
0.0
 42
0.36792758
  0
VERTEX
  5
680
  8
CYAN
 10
198.90074787
 20
63.73226644999999
 30
0.0
 42
0.10696908
  0
VERTEX
  5
681
  8
CYAN
 10
208.23779286000001
 20
48.941513350000001
 30
0.0
 42
-0.3738466
  0
VERTEX
  5
682
  8
CYAN
 10
208.41868096499999
 20
45.965464404999999
 30
0.0
 42
-0.3738466
  0
VERTEX
  5
683
  8
CYAN
 10
205.49684880000001
 20
45.371760260000002
 30
0.0
  0
SEQEND
  5
684
  8
CYAN
  0
POLYLINE
  5
1C5
  8
CYAN
 66
     1
 10
0.0
 20
0.0
 30
0.0
 70
     1
  0
VERTEX
  5
685
  8
CYAN
 10
63.245030960000001
 20
20.869690510000002
 30
0.0
 42
0.36305486
  0
VERTEX
  5
686
  8
CYAN
 10
80.739039969999993
 20
21.05981998
 30
0.0
 42
0.13418295
  0
VERTEX
  5
687
  8
CYAN
 10
90.660144729999999
 20
35.66655411
 30
0.0
 42
-0.37038098
  0
VERTEX
  5
688
  8
CYAN
 10
93.212338950000003
 20
37.167073369999997
 30
0.0
 42
-0.37038098
  0
VERTEX
  5
689
  8
CYAN
 10
95.081853019999997
 20
34.871388179999997
 30
0.0
 42
-0.28414577
  0
VERTEX
  5
68A
  8
CYAN
 10
73.698444100000003
 20
2.210858599999999
 30
0.0
 42
-0.31878419
  0
VERTEX
  5
68B
  8
CYAN
 10
46.955392985000003
 20
7.0713849800000004
 30
0.0
 42
-0.31878419
  0
VERTEX
  5
68C
  8
CYAN
 10
42.715905290000002
 20
33.919890410000001
 30
0.0
 42
-0.28414598
  0
VERTEX
  5
68D
  8
CYAN
 10
75.863249819999993
 20
54.540689739999998
 30
0.0
 42
-0.37037777
  0
VERTEX
  5
68E
  8
CYAN
 10
78.114965440000006
 20
52.618462684999997
 30
0.0
 42
-0.37037777
  0
VERTEX
  5
68F
  8
CYAN
 10
76.555713900000001
 20
50.101735699999999
 30
0.0
 42
0.13418294
  0
VERTEX
  5
690
  8
CYAN
 10
61.723003380000002
 20
40.521816010000002
 30
0.0
 42
0.36305441
  0
VERTEX
  5
691
  8
CYAN
 10
61.12750737999999
 20
23.03694548
 30
0.0
  0
VERTEX
  5
692
  8
CYAN
 10
55.64907144
 20
17.684004059999999
 30
0.0
  0
VERTEX
  5
693
  8
CYAN
 10
57.76665663
 20
15.516794539999999
 30
0.0
  0
VERTEX
  5
694
  8
CYAN
 10
63.245030960000001
 20
20.869690510000002
 30
0.0
  0
SEQEND
  5
695
  8
CYAN
  0
POLYLINE
  5
1D7
  8
CYAN
 66
     1
 10
0.0
 20
0.0
 30
0.0
 70
     1
  0
VERTEX
  5
696
  8
CYAN
 10
71.885264829999997
 20
37.230084609999999
 30
0.0
 42
0.205257
  0
VERTEX
  5
697
  8
CYAN
 10
99.607804419999994
 20
47.387229400000002
 30
0.0
 42
0.40176865
  0
VERTEX
  5
698
  8
CYAN
 10
101.30585696
 20
80.885542685000004
 30
0.0
 42
0.40176865
  0
VERTEX
  5
699
  8
CYAN
 10
67.910486590000005
 20
84.011180780000004
 30
0.0
 42
0.20525688
  0
VERTEX
  5
69A
  8
CYAN
 10
53.88095534
 20
58.032869779999999
 30
0.0
 42
0.38111934
  0
VERTEX
  5
69B
  8
CYAN
 10
55.682545439999998
 20
55.602857919999998
 30
0.0
 42
0.38111934
  0
VERTEX
  5
69C
  8
CYAN
 10
58.302170750000002
 20
57.115553439999999
 30
0.0
 42
-0.14955099
  0
VERTEX
  5
69D
  8
CYAN
 10
66.618889499999995
 20
68.869663770000003
 30
0.0
 42
-0.36620647
  0
VERTEX
  5
69E
  8
CYAN
 10
84.21301072
 20
68.095666429999994
 30
0.0
  0
VERTEX
  5
69F
  8
CYAN
 10
90.004544640000006
 20
73.108070190000007
 30
0.0
  0
VERTEX
  5
6A0
  8
CYAN
 10
91.987434210000004
 20
70.817030630000005
 30
0.0
  0
VERTEX
  5
6A1
  8
CYAN
 10
86.195900289999983
 20
65.804549100000003
 30
0.0
 42
-0.36620657
  0
VERTEX
  5
6A2
  8
CYAN
 10
84.437585229999996
 20
48.28141269999999
 30
0.0
 42
-0.14955105
  0
VERTEX
  5
6A3
  8
CYAN
 10
71.611805309999994
 20
41.737110629999989
 30
0.0
 42
0.38111626
  0
VERTEX
  5
6A4
  8
CYAN
 10
69.738941490000002
 20
39.361667439999998
 30
0.0
 42
0.38111626
  0
VERTEX
  5
6A5
  8
CYAN
 10
71.885264829999997
 20
37.230084609999999
 30
0.0
  0
SEQEND
  5
6A6
  8
CYAN
  0
POLYLINE
  5
1E9
  8
CYAN
 66
     1
 10
0.0
 20
0.0
 30
0.0
 70
     1
  0
VERTEX
  5
6A7
  8
CYAN
 10
155.22589256000001
 20
3.3742169999999989
 30
0.0
 42
-0.23280262
  0
VERTEX
  5
6A8
  8
CYAN
 10
135.17371262
 20
2.442947264999999
 30
0.0
 42
-0.23280262
  0
VERTEX
  5
6A9
  8
CYAN
 10
122.20667865
 20
17.766563479999999
 30
0.0
 42
-0.4107973400000001
  0
VERTEX
  5
6AA
  8
CYAN
 10
143.85497824999999
 20
54.317378740000002
 30
0.0
 42
-0.38739795
  0
VERTEX
  5
6AB
  8
CYAN
 10
146.56706692
 20
52.896155825000001
 30
0.0
 42
-0.38739795
  0
VERTEX
  5
6AC
  8
CYAN
 10
145.40218715
 20
50.06448589
 30
0.0
 42
0.06857606
  0
VERTEX
  5
6AD
  8
CYAN
 10
138.62253791000001
 20
43.114918289999999
 30
0.0
 42
0.22139704
  0
VERTEX
  5
6AE
  8
CYAN
 10
135.68179996999999
 20
31.993523284999998
 30
0.0
 42
0.22139704
  0
VERTEX
  5
6AF
  8
CYAN
 10
142.30033979000001
 20
22.584575569999998
 30
0.0
  0
VERTEX
  5
6B0
  8
CYAN
 10
139.23304453
 20
15.54757126
 30
0.0
  0
VERTEX
  5
6B1
  8
CYAN
 10
142.01066775000001
 20
14.33686911
 30
0.0
  0
VERTEX
  5
6B2
  8
CYAN
 10
145.07118187
 20
21.358277000000001
 30
0.0
 42
0.22141516
  0
VERTEX
  5
6B3
  8
CYAN
 10
156.47637596999999
 20
22.920104134999999
 30
0.0
 42
0.22141516
  0
VERTEX
  5
6B4
  8
CYAN
 10
162.62144182
 20
32.654369500000001
 30
0.0
 42
0.068576
  0
VERTEX
  5
6B5
  8
CYAN
 10
163.09765379000001
 20
42.35143909
 30
0.0
 42
-0.38739778
  0
VERTEX
  5
6B6
  8
CYAN
 10
164.37913842
 20
45.132246334999998
 30
0.0
 42
-0.38739778
  0
VERTEX
  5
6B7
  8
CYAN
 10
167.26633889999999
 20
44.112851820000003
 30
0.0
 42
-0.41079683
  0
VERTEX
  5
6B8
  8
CYAN
 10
155.22589256000001
 20
3.3742169999999989
 30
0.0
  0
SEQEND
  5
6B9
  8
CYAN
  0
POLYLINE
  5
1FD
  8
CYAN
 66
     1
 10
0.0
 20
0.0
 30
0.0
 70
     1
  0
VERTEX
  5
6BA
  8
CYAN
 10
147.46777451
 20
46.74386647
 30
0.0
 42
0.38786824
  0
VERTEX
  5
6BB
  8
CYAN
 10
146.7516186
 20
43.764075734999992
 30
0.0
 42
0.38786824
  0
VERTEX
  5
6BC
  8
CYAN
 10
149.65421746000001
 20
42.780738579999991
 30
0.0
 42
0.22024889
  0
VERTEX
  5
6BD
  8
CYAN
 10
169.53698958999999
 20
65.274806119999994
 30
0.0
 42
0.4003031100000001
  0
VERTEX
  5
6BE
  8
CYAN
 10
154.34923198499999
 20
95.081224239999983
 30
0.0
 42
0.4003031100000001
  0
VERTEX
  5
6BF
  8
CYAN
 10
123.85218175999999
 20
81.332752690000007
 30
0.0
 42
0.22024909
  0
VERTEX
  5
6C0
  8
CYAN
 10
125.28809068
 20
51.345325469999999
 30
0.0
 42
0.38786818
  0
VERTEX
  5
6C1
  8
CYAN
 10
128.16759364999999
 20
50.296280785
 30
0.0
 42
0.38786818
  0
VERTEX
  5
6C2
  8
CYAN
 10
129.47335797
 20
53.06882684
 30
0.0
 42
-0.18063103
  0
VERTEX
  5
6C3
  8
CYAN
 10
130.31663828000001
 20
67.704895410000006
 30
0.0
 42
-0.36007773
  0
VERTEX
  5
6C4
  8
CYAN
 10
145.85861120000001
 20
75.494083079999996
 30
0.0
  0
VERTEX
  5
6C5
  8
CYAN
 10
148.3985289
 20
82.720099799999986
 30
0.0
  0
VERTEX
  5
6C6
  8
CYAN
 10
151.25709251000001
 20
81.715370989999997
 30
0.0
  0
VERTEX
  5
6C7
  8
CYAN
 10
148.71723642000001
 20
74.489322959999996
 30
0.0
 42
-0.36007825
  0
VERTEX
  5
6C8
  8
CYAN
 10
155.96748808999999
 20
58.68873954
 30
0.0
 42
-0.18063091
  0
VERTEX
  5
6C9
  8
CYAN
 10
147.46777451
 20
46.74386647
 30
0.0
  0
SEQEND
  5
6CA
  8
CYAN
  0
POLYLINE
  5
20F
  8
CYAN
 66
     1
 10
0.0
 20
0.0
 30
0.0
 70
     1
  0
VERTEX
  5
6CB
  8
CYAN
 10
0.01381532
 20
66.067783379999995
 30
0.0
 42
-0.21074593
  0
VERTEX
  5
6CC
  8
CYAN
 10
10.63885069
 20
92.120962649999996
 30
0.0
 42
-0.4184982500000001
  0
VERTEX
  5
6CD
  8
CYAN
 10
13.87507645
 20
92.041457829999985
 30
0.0
 42
-0.4184982500000001
  0
VERTEX
  5
6CE
  8
CYAN
 10
13.748311429999999
 20
88.806738550000006
 30
0.0
 42
0.23543869
  0
VERTEX
  5
6CF
  8
CYAN
 10
9.60387111
 20
78.103051315000002
 30
0.0
 42
0.23543869
  0
VERTEX
  5
6D0
  8
CYAN
 10
15.65691853
 20
68.350824750000001
 30
0.0
 42
0.09609202
  0
VERTEX
  5
6D1
  8
CYAN
 10
19.704993479999999
 20
66.821276710000006
 30
0.0
  0
VERTEX
  5
6D2
  8
CYAN
 10
19.429253379999999
 20
59.14977828
 30
0.0
  0
VERTEX
  5
6D3
  8
CYAN
 10
22.45734246
 20
59.040935629999993
 30
0.0
  0
VERTEX
  5
6D4
  8
CYAN
 10
22.73302095
 20
66.712425980000006
 30
0.0
 42
0.09609203
  0
VERTEX
  5
6D5
  8
CYAN
 10
26.880468789999998
 20
67.947363080000002
 30
0.0
 42
0.23543798
  0
VERTEX
  5
6D6
  8
CYAN
 10
33.618106034999997
 20
77.239820409999993
 30
0.0
 42
0.23543798
  0
VERTEX
  5
6D7
  8
CYAN
 10
30.2529103
 20
88.213469599999996
 30
0.0
 42
-0.4185030600000001
  0
VERTEX
  5
6D8
  8
CYAN
 10
30.358702600000001
 20
91.448968519999994
 30
0.0
 42
-0.4185030600000001
  0
VERTEX
  5
6D9
  8
CYAN
 10
33.59230865
 20
91.295876480000004
 30
0.0
 42
-0.21074607
  0
VERTEX
  5
6DA
  8
CYAN
 10
42.319339900000003
 20
64.547080919999999
 30
0.0
 42
-0.39555758
  0
VERTEX
  5
6DB
  8
CYAN
 10
20.453476250000001
 20
45.46914821499999
 30
0.0
 42
-0.39555758
  0
VERTEX
  5
6DC
  8
CYAN
 10
0.01381532
 20
66.067783379999995
 30
0.0
  0
SEQEND
  5
6DD
  8
CYAN
  0
POLYLINE
  5
223
  8
CYAN
 66
     1
 10
0.0
 20
0.0
 30
0.0
 70
     1
  0
VERTEX
  5
6DE
  8
CYAN
 10
45.186965229999998
 20
92.914717609999997
 30
0.0
  0
VERTEX
  5
6DF
  8
CYAN
 10
37.883760270000003
 20
107.90216619
 30
0.0
 42
0.26782095
  0
VERTEX
  5
6E0
  8
CYAN
 10
32.094631159999999
 20
111.81197113
 30
0.0
  0
VERTEX
  5
6E1
  8
CYAN
 10
25.30370022
 20
112.29257457999999
 30
0.0
  0
VERTEX
  5
6E2
  8
CYAN
 10
20.792666520000001
 20
126.17625678
 30
0.0
  0
VERTEX
  5
6E3
  8
CYAN
 10
17.91098603
 20
125.23996961
 30
0.0
  0
VERTEX
  5
6E4
  8
CYAN
 10
22.666690209999999
 20
110.60305667999999
 30
0.0
  0
VERTEX
  5
6E5
  8
CYAN
 10
21.368066550000002
 20
109.84002390000001
 30
0.0
 42
-0.07418991
  0
VERTEX
  5
6E6
  8
CYAN
 10
17.710761609999999
 20
108.36607232
 30
0.0
  0
VERTEX
  5
6E7
  8
CYAN
 10
16.73626917
 20
108.13274414
 30
0.0
  0
VERTEX
  5
6E8
  8
CYAN
 10
12.308642280000001
 20
118.56347975
 30
0.0
  0
VERTEX
  5
6E9
  8
CYAN
 10
9.5194909200000009
 20
117.37955472
 30
0.0
  0
VERTEX
  5
6EA
  8
CYAN
 10
13.743194770000001
 20
107.42902159
 30
0.0
 42
-0.28248502
  0
VERTEX
  5
6EB
  8
CYAN
 10
8.4602978600000007
 20
108.59558573
 30
0.0
 42
-0.03837996
  0
VERTEX
  5
6EC
  8
CYAN
 10
2.8865583199999989
 20
122.03925335
 30
0.0
 42
-0.17085493
  0
VERTEX
  5
6ED
  8
CYAN
 10
3.0182330300000002
 20
127.9865121
 30
0.0
 42
0.15707669
  0
VERTEX
  5
6EE
  8
CYAN
 10
3.2207996400000001
 20
132.11973510000001
 30
0.0
 42
-0.33420095
  0
VERTEX
  5
6EF
  8
CYAN
 10
7.2506895399999989
 20
142.13874824999999
 30
0.0
 42
-0.05597798
  0
VERTEX
  5
6F0
  8
CYAN
 10
11.814368480000001
 20
144.72686618
 30
0.0
  0
VERTEX
  5
6F1
  8
CYAN
 10
23.872723130000001
 20
149.11594844000001
 30
0.0
  0
VERTEX
  5
6F2
  8
CYAN
 10
26.233375930000001
 20
129.69852674000001
 30
0.0
  0
VERTEX
  5
6F3
  8
CYAN
 10
29.24118421
 20
130.06418916000001
 30
0.0
  0
VERTEX
  5
6F4
  8
CYAN
 10
26.772220019999999
 20
150.1712833
 30
0.0
  0
VERTEX
  5
6F5
  8
CYAN
 10
38.159439769999999
 20
154.31599403999999
 30
0.0
  0
VERTEX
  5
6F6
  8
CYAN
 10
37.123117149999999
 20
157.16327089999999
 30
0.0
  0
VERTEX
  5
6F7
  8
CYAN
 10
26.393284179999998
 20
153.25779684
 30
0.0
  0
VERTEX
  5
6F8
  8
CYAN
 10
25.939389169999998
 20
156.95405344
 30
0.0
 42
-0.34161682
  0
VERTEX
  5
6F9
  8
CYAN
 10
27.104180759999998
 20
158.91947102
 30
0.0
 42
-0.03752797
  0
VERTEX
  5
6FA
  8
CYAN
 10
44.490988369999997
 20
166.55738694999999
 30
0.0
 42
-0.2217706
  0
VERTEX
  5
6FB
  8
CYAN
 10
49.647264610000001
 20
166.05263743
 30
0.0
  0
VERTEX
  5
6FC
  8
CYAN
 10
54.192695880000002
 20
163.36455778000001
 30
0.0
 42
0.26471557
  0
VERTEX
  5
6FD
  8
CYAN
 10
56.231605899999998
 20
163.33092672999999
 30
0.0
 42
0.26471557
  0
VERTEX
  5
6FE
  8
CYAN
 10
57.301232470000002
 20
165.06706731
 30
0.0
  0
VERTEX
  5
6FF
  8
CYAN
 10
57.537766390000002
 20
171.89901334000001
 30
0.0
 42
-0.20548533
  0
VERTEX
  5
700
  8
CYAN
 10
59.476290400000003
 20
176.01734500500001
 30
0.0
 42
-0.20548533
  0
VERTEX
  5
701
  8
CYAN
 10
63.796697000000002
 20
177.45004101000001
 30
0.0
 42
-0.14216431
  0
VERTEX
  5
702
  8
CYAN
 10
66.961021950000003
 20
176.69673452999999
 30
0.0
 42
-0.2599528
  0
VERTEX
  5
703
  8
CYAN
 10
70.589353020000004
 20
170.78037470999999
 30
0.0
  0
VERTEX
  5
704
  8
CYAN
 10
71.822201440000001
 20
153.15041768
 30
0.0
 42
-0.20681193
  0
VERTEX
  5
705
  8
CYAN
 10
70.686506649999984
 20
149.77369637999999
 30
0.0
 42
-0.20681193
  0
VERTEX
  5
706
  8
CYAN
 10
67.449130710000006
 20
148.28660310000001
 30
0.0
  0
VERTEX
  5
707
  8
CYAN
 10
66.603354690000003
 20
160.38039359999999
 30
0.0
  0
VERTEX
  5
708
  8
CYAN
 10
63.580751929999998
 20
160.16901171000001
 30
0.0
  0
VERTEX
  5
709
  8
CYAN
 10
64.358595350000002
 20
149.04662708999999
 30
0.0
 42
0.06366618
  0
VERTEX
  5
70A
  8
CYAN
 10
63.097019500000002
 20
149.19114496
 30
0.0
 42
0.24093558
  0
VERTEX
  5
70B
  8
CYAN
 10
44.05138514499999
 20
140.27488991499999
 30
0.0
 42
0.24093558
  0
VERTEX
  5
70C
  8
CYAN
 10
40.136965230000001
 20
119.61301417999999
 30
0.0
  0
VERTEX
  5
70D
  8
CYAN
 10
50.055481360000002
 20
95.082043279999994
 30
0.0
 42
-0.40411554
  0
VERTEX
  5
70E
  8
CYAN
 10
48.668025980000003
 20
91.646922230000015
 30
0.0
 42
-0.40411554
  0
VERTEX
  5
70F
  8
CYAN
 10
45.186965229999998
 20
92.914717609999997
 30
0.0
  0
SEQEND
  5
710
  8
CYAN
  0
POLYLINE
  5
257
  8
CYAN
 66
     1
 10
0.0
 20
0.0
 30
0.0
 70
     1
  0
VERTEX
  5
711
  8
CYAN
 10
171.46815806999999
 20
126.59615923
 30
0.0
 42
0.39199276
  0
VERTEX
  5
712
  8
CYAN
 10
183.84130547999999
 20
124.14423171999999
 30
0.0
  0
VERTEX
  5
713
  8
CYAN
 10
186.89112471000001
 20
126.02058245000001
 30
0.0
 42
-0.38002162
  0
VERTEX
  5
714
  8
CYAN
 10
194.81596245
 20
124.62105271999999
 30
0.0
  0
VERTEX
  5
715
  8
CYAN
 10
198.01425470999999
 20
120.58137188000001
 30
0.0
 42
0.21051797
  0
VERTEX
  5
716
  8
CYAN
 10
216.35465685
 20
110.88930784999999
 30
0.0
  0
VERTEX
  5
717
  8
CYAN
 10
221.23174080999999
 20
110.54158808
 30
0.0
 42
0.23207471
  0
VERTEX
  5
718
  8
CYAN
 10
231.16341825000001
 20
114.56500994
 30
0.0
 42
0.15261174
  0
VERTEX
  5
719
  8
CYAN
 10
233.83411681000001
 20
123.01674751
 30
0.0
 42
0.22167856
  0
VERTEX
  5
71A
  8
CYAN
 10
232.979867775
 20
126.26144505000001
 30
0.0
 42
0.22167856
  0
VERTEX
  5
71B
  8
CYAN
 10
229.94527239999999
 20
127.69288994999999
 30
0.0
  0
VERTEX
  5
71C
  8
CYAN
 10
214.91011748
 20
129.41833253999999
 30
0.0
  0
VERTEX
  5
71D
  8
CYAN
 10
215.25557889000001
 20
132.42855270000001
 30
0.0
  0
VERTEX
  5
71E
  8
CYAN
 10
226.25766847
 20
131.16594463000001
 30
0.0
  0
VERTEX
  5
71F
  8
CYAN
 10
226.09224259000001
 20
152.06422025000001
 30
0.0
  0
VERTEX
  5
720
  8
CYAN
 10
215.11142057999999
 20
150.62751746999999
 30
0.0
  0
VERTEX
  5
721
  8
CYAN
 10
214.71840029000001
 20
153.63193720000001
 30
0.0
  0
VERTEX
  5
722
  8
CYAN
 10
229.86094043
 20
155.61309664000001
 30
0.0
 42
0.21539894
  0
VERTEX
  5
723
  8
CYAN
 10
232.73517837
 20
157.16986251
 30
0.0
 42
0.21539894
  0
VERTEX
  5
724
  8
CYAN
 10
233.46692525
 20
160.35566072
 30
0.0
 42
0.15261204
  0
VERTEX
  5
725
  8
CYAN
 10
230.63058466999999
 20
168.75326835000001
 30
0.0
 42
0.23207468
  0
VERTEX
  5
726
  8
CYAN
 10
220.62166647000001
 20
172.58061183999999
 30
0.0
  0
VERTEX
  5
727
  8
CYAN
 10
215.75241102000001
 20
172.13703903000001
 30
0.0
 42
0.21051814
  0
VERTEX
  5
728
  8
CYAN
 10
197.60616218999999
 20
162.08620683999999
 30
0.0
  0
VERTEX
  5
729
  8
CYAN
 10
194.48794677000001
 20
157.98439686
 30
0.0
 42
-0.38002106
  0
VERTEX
  5
72A
  8
CYAN
 10
186.5921132
 20
156.42934026
 30
0.0
  0
VERTEX
  5
72B
  8
CYAN
 10
183.50592286
 20
158.24532328999999
 30
0.0
 42
0.39199202
  0
VERTEX
  5
72C
  8
CYAN
 10
171.18341785999999
 20
155.55056249
 30
0.0
 42
-0.24957744
  0
VERTEX
  5
72D
  8
CYAN
 10
160.07668520999999
 20
149.86246671000001
 30
0.0
 42
0.39023305
  0
VERTEX
  5
72E
  8
CYAN
 10
157.58619909999999
 20
147.64143382500001
 30
0.0
 42
0.39023305
  0
VERTEX
  5
72F
  8
CYAN
 10
159.59427790000001
 20
144.97626446999999
 30
0.0
 42
0.23228602
  0
VERTEX
  5
730
  8
CYAN
 10
174.65372029
 20
149.23345689000001
 30
0.0
 42
-0.22241254
  0
VERTEX
  5
731
  8
CYAN
 10
179.73615344500001
 20
150.77383563500001
 30
0.0
 42
-0.22241254
  0
VERTEX
  5
732
  8
CYAN
 10
184.17511553
 20
147.8584439
 30
0.0
  0
VERTEX
  5
733
  8
CYAN
 10
185.64714911999999
 20
145.46806074
 30
0.0
 42
-0.08843597
  0
VERTEX
  5
734
  8
CYAN
 10
186.70853084999999
 20
142.77608956
 30
0.0
  0
VERTEX
  5
735
  8
CYAN
 10
206.70408362000001
 20
142.93444543999999
 30
0.0
  0
VERTEX
  5
736
  8
CYAN
 10
206.73382710999999
 20
139.90459189000001
 30
0.0
  0
VERTEX
  5
737
  8
CYAN
 10
186.75192953999999
 20
139.74634811999999
 30
0.0
 42
-0.09069894
  0
VERTEX
  5
738
  8
CYAN
 10
185.73083267000001
 20
136.96112667
 30
0.0
  0
VERTEX
  5
739
  8
CYAN
 10
184.30605091999999
 20
134.54226858000001
 30
0.0
 42
-0.22241289
  0
VERTEX
  5
73A
  8
CYAN
 10
179.92526579
 20
131.54013356999999
 30
0.0
 42
-0.22241289
  0
VERTEX
  5
73B
  8
CYAN
 10
174.81350633
 20
132.98027529999999
 30
0.0
 42
0.23228607
  0
VERTEX
  5
73C
  8
CYAN
 10
159.67324575999999
 20
136.94057620000001
 30
0.0
 42
0.39023418
  0
VERTEX
  5
73D
  8
CYAN
 10
157.71794678000001
 20
134.23640240500001
 30
0.0
 42
0.39023418
  0
VERTEX
  5
73E
  8
CYAN
 10
160.25166569000001
 20
132.06476282
 30
0.0
 42
-0.2495772
  0
VERTEX
  5
73F
  8
CYAN
 10
171.46815806999999
 20
126.59615923
 30
0.0
  0
SEQEND
  5
740
  8
CYAN
  0
POLYLINE
  5
288
  8
CYAN
 66
     1
 10
0.0
 20
0.0
 30
0.0
 70
     1
  0
VERTEX
  5
741
  8
CYAN
 10
23.93584813
 20
199.62688471999991
 30
0.0
 42
0.06795893
  0
VERTEX
  5
742
  8
CYAN
 10
35.639679649999998
 20
197.52997826999999
 30
0.0
 42
0.045527
  0
VERTEX
  5
743
  8
CYAN
 10
91.349218239999999
 20
198.96521554
 30
0.0
  0
VERTEX
  5
744
  8
CYAN
 10
105.50943743000001
 20
200.99661338999999
 30
0.0
 42
-0.09467997
  0
VERTEX
  5
745
  8
CYAN
 10
126.91436036
 20
200.00465804999999
 30
0.0
  0
VERTEX
  5
746
  8
CYAN
 10
138.78466513000001
 20
197.16130806999999
 30
0.0
 42
0.2146734
  0
VERTEX
  5
747
  8
CYAN
 10
142.10515311
 20
197.792399445
 30
0.0
 42
0.2146734
  0
VERTEX
  5
748
  8
CYAN
 10
143.83454191000001
 20
200.69638483
 30
0.0
  0
VERTEX
  5
749
  8
CYAN
 10
146.11804586
 20
220.60659462000001
 30
0.0
 42
0.39739997
  0
VERTEX
  5
74A
  8
CYAN
 10
142.42893197999999
 20
225.53723787000001
 30
0.0
  0
VERTEX
  5
74B
  8
CYAN
 10
139.22204058
 20
226.09505279000001
 30
0.0
 42
0.20371299
  0
VERTEX
  5
74C
  8
CYAN
 10
135.91506039999999
 20
225.32169809499999
 30
0.0
 42
0.20371299
  0
VERTEX
  5
74D
  8
CYAN
 10
134.17706432
 20
222.40389669000001
 30
0.0
  0
VERTEX
  5
74E
  8
CYAN
 10
133.44372958
 20
217.01680010000001
 30
0.0
 42
-0.27146552
  0
VERTEX
  5
74F
  8
CYAN
 10
131.08355130000001
 20
214.00972827999999
 30
0.0
 42
-0.27146552
  0
VERTEX
  5
750
  8
CYAN
 10
127.30667264
 20
214.59973678
 30
0.0
 42
0.06238999
  0
VERTEX
  5
751
  8
CYAN
 10
82.970113810000001
 20
242.42687803000001
 30
0.0
 42
0.20720882
  0
VERTEX
  5
752
  8
CYAN
 10
59.273950329999991
 20
243.07247204999999
 30
0.0
 42
0.04451884
  0
VERTEX
  5
753
  8
CYAN
 10
20.151060990000001
 20
223.18083414
 30
0.0
 42
0.30134582
  0
VERTEX
  5
754
  8
CYAN
 10
14.236638755
 20
210.149414345
 30
0.0
 42
0.30134582
  0
VERTEX
  5
755
  8
CYAN
 10
23.93584813
 20
199.62688471999991
 30
0.0
  0
SEQEND
  5
756
  8
CYAN
  0
POLYLINE
  5
29F
  8
CYAN
 66
     1
 10
0.0
 20
0.0
 30
0.0
 70
     1
  0
VERTEX
  5
757
  8
CYAN
 10
63.751449000000001
 20
233.29794455000001
 30
0.0
 42
-0.3612333
  0
VERTEX
  5
758
  8
CYAN
 10
61.177889604999997
 20
236.75134783499999
 30
0.0
 42
-0.3612333
  0
VERTEX
  5
759
  8
CYAN
 10
64.101471570000001
 20
239.91392127
 30
0.0
  0
VERTEX
  5
75A
  8
CYAN
 10
65.898315100000005
 20
240.15128743
 30
0.0
 42
-0.11896878
  0
VERTEX
  5
75B
  8
CYAN
 10
71.070558430000006
 20
239.60367553
 30
0.0
 42
-0.03135189
  0
VERTEX
  5
75C
  8
CYAN
 10
85.646576440000004
 20
233.35508227
 30
0.0
 42
-0.39732741
  0
VERTEX
  5
75D
  8
CYAN
 10
87.153368514999997
 20
229.18474155499999
 30
0.0
 42
-0.39732741
  0
VERTEX
  5
75E
  8
CYAN
 10
83.077376819999998
 20
227.43875881
 30
0.0
 42
0.02866701
  0
VERTEX
  5
75F
  8
CYAN
 10
63.751449000000001
 20
233.29794455000001
 30
0.0
  0
SEQEND
  5
760
  8
CYAN
  0
POLYLINE
  5
2AA
  8
CYAN
 66
     1
 10
0.0
 20
0.0
 30
0.0
 70
     1
  0
VERTEX
  5
761
  8
CYAN
 10
92.432699779999979
 20
220.99133997999999
 30
0.0
 42
-0.4102233
  0
VERTEX
  5
762
  8
CYAN
 10
90.059316684999999
 20
227.03129634499999
 30
0.0
 42
-0.4102233
  0
VERTEX
  5
763
  8
CYAN
 10
96.066332340000002
 20
229.48685802
 30
0.0
 42
-0.05736105
  0
VERTEX
  5
764
  8
CYAN
 10
114.03377885
 20
219.5514052
 30
0.0
 42
-0.35161223
  0
VERTEX
  5
765
  8
CYAN
 10
114.91110496
 20
216.44033640000001
 30
0.0
 42
-0.35161223
  0
VERTEX
  5
766
  8
CYAN
 10
112.06395766999999
 20
214.90991081000001
 30
0.0
 42
-0.0587729
  0
VERTEX
  5
767
  8
CYAN
 10
92.432699779999979
 20
220.99133997999999
 30
0.0
  0
SEQEND
  5
768
  8
CYAN
  0
POLYLINE
  5
2B3
  8
CYAN
 66
     1
 10
0.0
 20
0.0
 30
0.0
 70
     1
  0
VERTEX
  5
769
  8
CYAN
 10
91.595799639999996
 20
205.08128771
 30
0.0
 42
0.073246
  0
VERTEX
  5
76A
  8
CYAN
 10
113.73788016
 20
205.56126495999999
 30
0.0
 42
0.34153946
  0
VERTEX
  5
76B
  8
CYAN
 10
115.66711823999999
 20
207.654479455
 30
0.0
 42
0.34153946
  0
VERTEX
  5
76C
  8
CYAN
 10
114.12661704
 20
210.04829702000001
 30
0.0
 42
0.03802194
  0
VERTEX
  5
76D
  8
CYAN
 10
93.273235920000005
 20
215.70178515000001
 30
0.0
 42
0.2030848
  0
VERTEX
  5
76E
  8
CYAN
 10
89.170800240000005
 20
214.81885477
 30
0.0
 42
0.2030848
  0
VERTEX
  5
76F
  8
CYAN
 10
86.951106390000007
 20
211.25760445
 30
0.0
 42
0.2030848
  0
VERTEX
  5
770
  8
CYAN
 10
87.965179259999985
 20
207.18560238500001
 30
0.0
 42
0.2030848
  0
VERTEX
  5
771
  8
CYAN
 10
91.595799639999996
 20
205.08128771
 30
0.0
  0
SEQEND
  5
772
  8
CYAN
  0
POLYLINE
  5
2BE
  8
CYAN
 66
     1
 10
0.0
 20
0.0
 30
0.0
 70
     1
  0
VERTEX
  5
773
  8
CYAN
 10
59.250463789999998
 20
217.85175699999999
 30
0.0
 42
0.07414108
  0
VERTEX
  5
774
  8
CYAN
 10
82.674338340000006
 20
217.98354381999999
 30
0.0
 42
0.34637759
  0
VERTEX
  5
775
  8
CYAN
 10
84.801300244999993
 20
220.26545034
 30
0.0
 42
0.34637759
  0
VERTEX
  5
776
  8
CYAN
 10
83.082616700000003
 20
222.86875423999999
 30
0.0
 42
0.09840594
  0
VERTEX
  5
777
  8
CYAN
 10
59.530704450000002
 20
225.80920562
 30
0.0
 42
0.38316065
  0
VERTEX
  5
778
  8
CYAN
 10
55.816950325000001
 20
221.956335405
 30
0.0
 42
0.38316065
  0
VERTEX
  5
779
  8
CYAN
 10
59.250463789999998
 20
217.85175699999999
 30
0.0
  0
SEQEND
  5
77A
  8
CYAN
  0
POLYLINE
  5
2C7
  8
CYAN
 66
     1
 10
0.0
 20
0.0
 30
0.0
 70
     1
  0
VERTEX
  5
77B
  8
CYAN
 10
58.938290969999997
 20
204.58398693999999
 30
0.0
 42
0.107224
  0
VERTEX
  5
77C
  8
CYAN
 10
79.768061320000001
 20
206.44118201000001
 30
0.0
 42
0.35704099
  0
VERTEX
  5
77D
  8
CYAN
 10
81.759069909999994
 20
209.46440297999999
 30
0.0
 42
0.35704099
  0
VERTEX
  5
77E
  8
CYAN
 10
79.189271730000002
 20
212.01393579
 30
0.0
 42
0.03456498
  0
VERTEX
  5
77F
  8
CYAN
 10
59.290348690000002
 20
212.54110428000001
 30
0.0
 42
0.39313648
  0
VERTEX
  5
780
  8
CYAN
 10
56.315212899999999
 20
209.52780462999999
 30
0.0
  0
VERTEX
  5
781
  8
CYAN
 10
56.260964790000003
 20
207.71079544
 30
0.0
 42
0.38669835
  0
VERTEX
  5
782
  8
CYAN
 10
58.938290969999997
 20
204.58398693999999
 30
0.0
  0
SEQEND
  5
783
  8
CYAN
  0
POLYLINE
  5
2D1
  8
CYAN
 66
     1
 10
0.0
 20
0.0
 30
0.0
 70
     1
  0
VERTEX
  5
784
  8
CYAN
 10
26.98409479
 20
205.97720315999999
 30
0.0
 42
0.04616086
  0
VERTEX
  5
785
  8
CYAN
 10
46.261077
 20
205.66354261000001
 30
0.0
 42
0.33082537
  0
VERTEX
  5
786
  8
CYAN
 10
48.841373490000002
 20
207.90379229999999
 30
0.0
  0
VERTEX
  5
787
  8
CYAN
 10
49.293419190000002
 20
209.95603654999999
 30
0.0
 42
0.23722871
  0
VERTEX
  5
788
  8
CYAN
 10
48.626110410000003
 20
212.58030528500001
 30
0.0
 42
0.23722871
  0
VERTEX
  5
789
  8
CYAN
 10
46.121758609999993
 20
213.61001859000001
 30
0.0
 42
0.05102594
  0
VERTEX
  5
78A
  8
CYAN
 10
26.629633269999999
 20
210.10881420000001
 30
0.0
 42
0.35844247
  0
VERTEX
  5
78B
  8
CYAN
 10
25.107595419999999
 20
207.89722406000001
 30
0.0
 42
0.35844247
  0
VERTEX
  5
78C
  8
CYAN
 10
26.98409479
 20
205.97720315999999
 30
0.0
  0
SEQEND
  5
78D
  8
CYAN
  0
POLYLINE
  5
2DC
  8
CYAN
 66
     1
 10
0.0
 20
0.0
 30
0.0
 70
     1
  0
VERTEX
  5
78E
  8
CYAN
 10
27.427757490000001
 20
214.77221750999999
 30
0.0
 42
-0.29767045
  0
VERTEX
  5
78F
  8
CYAN
 10
25.00365627
 20
215.20769852500001
 30
0.0
 42
-0.29767045
  0
VERTEX
  5
790
  8
CYAN
 10
24.428334230000001
 20
217.60246677999999
 30
0.0
 42
-0.1723934
  0
VERTEX
  5
791
  8
CYAN
 10
27.120947770000001
 20
220.90311749
 30
0.0
 42
-0.05114187
  0
VERTEX
  5
792
  8
CYAN
 10
45.909636390000003
 20
229.81472321000001
 30
0.0
 42
-0.24169269
  0
VERTEX
  5
793
  8
CYAN
 10
48.678584735000001
 20
229.442555865
 30
0.0
 42
-0.24169269
  0
VERTEX
  5
794
  8
CYAN
 10
49.990014170000002
 20
226.97562735
 30
0.0
  0
VERTEX
  5
795
  8
CYAN
 10
50.034953109999996
 20
223.84041464000001
 30
0.0
 42
-0.36929672
  0
VERTEX
  5
796
  8
CYAN
 10
47.362065880000003
 20
220.62296167
 30
0.0
 42
0.05777501
  0
VERTEX
  5
797
  8
CYAN
 10
27.427757490000001
 20
214.77221750999999
 30
0.0
  0
SEQEND
  5
798
  8
CYAN
  0
POLYLINE
  5
2E8
  8
CYAN
 66
     1
 10
0.0
 20
0.0
 30
0.0
 70
     1
  0
VERTEX
  5
799
  8
CYAN
 10
5.5390405200000004
 20
452.3554032799999
 30
0.0
  0
VERTEX
  5
79A
  8
CYAN
 10
12.482852129999999
 20
507.3053764199999
 30
0.0
 42
0.23476818
  0
VERTEX
  5
79B
  8
CYAN
 10
9.6414261999999997
 20
515.42341200999988
 30
0.0
  0
VERTEX
  5
79C
  8
CYAN
 10
7.6840583200000001
 20
517.33245037999995
 30
0.0
 42
-0.27940226
  0
VERTEX
  5
79D
  8
CYAN
 10
6.076589789999999
 20
523.55100219999986
 30
0.0
 42
-0.15530783
  0
VERTEX
  5
79E
  8
CYAN
 10
10.065609029999999
 20
529.38060200999985
 30
0.0
  0
VERTEX
  5
79F
  8
CYAN
 10
10.54138872
 20
529.80983989000003
 30
0.0
 42
-0.34194212
  0
VERTEX
  5
7A0
  8
CYAN
 10
15.52955854
 20
530.54607232000001
 30
0.0
  0
VERTEX
  5
7A1
  8
CYAN
 10
32.996319769999999
 20
520.72051759999999
 30
0.0
 42
-0.39739909
  0
VERTEX
  5
7A2
  8
CYAN
 10
34.82706799000001
 20
514.84101570999985
 30
0.0
  0
VERTEX
  5
7A3
  8
CYAN
 10
33.185633160000002
 20
511.48078106000003
 30
0.0
 42
-0.12831479
  0
VERTEX
  5
7A4
  8
CYAN
 10
31.709469680000002
 20
509.76204284999989
 30
0.0
  0
VERTEX
  5
7A5
  8
CYAN
 10
29.920948549999999
 20
508.52281325000001
 30
0.0
 42
0.25843973
  0
VERTEX
  5
7A6
  8
CYAN
 10
28.109252560000002
 20
504.85726919000001
 30
0.0
 42
0.25843973
  0
VERTEX
  5
7A7
  8
CYAN
 10
30.255437319999999
 20
501.37698952
 30
0.0
  0
VERTEX
  5
7A8
  8
CYAN
 10
34.24396368
 20
499.13340177999987
 30
0.0
 42
-0.31177314
  0
VERTEX
  5
7A9
  8
CYAN
 10
42.607409070000003
 20
481.99305335999998
 30
0.0
 42
-0.17759812
  0
VERTEX
  5
7AA
  8
CYAN
 10
21.62562059
 20
443.77006391999998
 30
0.0
 42
-0.31138841
  0
VERTEX
  5
7AB
  8
CYAN
 10
10.621904385000001
 20
442.51570386999998
 30
0.0
 42
-0.31138841
  0
VERTEX
  5
7AC
  8
CYAN
 10
5.5390405200000004
 20
452.3554032799999
 30
0.0
  0
SEQEND
  5
7AD
  8
CYAN
  0
POLYLINE
  5
2FE
  8
CYAN
 66
     1
 10
0.0
 20
0.0
 30
0.0
 70
     1
  0
VERTEX
  5
7AE
  8
CYAN
 10
21.095407959999999
 20
465.03307882000001
 30
0.0
 42
-0.4124142700000001
  0
VERTEX
  5
7AF
  8
CYAN
 10
19.369642169999999
 20
461.96861963999999
 30
0.0
 42
-0.1007276
  0
VERTEX
  5
7B0
  8
CYAN
 10
16.882862589999998
 20
461.78226454000003
 30
0.0
 42
-0.31257586
  0
VERTEX
  5
7B1
  8
CYAN
 10
13.023668750000001
 20
465.24908549999992
 30
0.0
 42
-0.16285721
  0
VERTEX
  5
7B2
  8
CYAN
 10
14.182850800000001
 20
478.11068103000002
 30
0.0
 42
-0.33220873
  0
VERTEX
  5
7B3
  8
CYAN
 10
16.455278385
 20
479.40140066999999
 30
0.0
 42
-0.33220873
  0
VERTEX
  5
7B4
  8
CYAN
 10
18.338004940000001
 20
477.5888817
 30
0.0
 42
0.026632
  0
VERTEX
  5
7B5
  8
CYAN
 10
21.095407959999999
 20
465.03307882000001
 30
0.0
  0
SEQEND
  5
7B6
  8
CYAN
  0
POLYLINE
  5
308
  8
CYAN
 66
     1
 10
0.0
 20
0.0
 30
0.0
 70
     1
  0
VERTEX
  5
7B7
  8
CYAN
 10
23.01615829
 20
391.37868742000001
 30
0.0
  0
VERTEX
  5
7B8
  8
CYAN
 10
47.1793488
 20
386.83844957000002
 30
0.0
 42
0.23396322
  0
VERTEX
  5
7B9
  8
CYAN
 10
51.672557435000002
 20
388.10094616999999
 30
0.0
 42
0.23396322
  0
VERTEX
  5
7BA
  8
CYAN
 10
53.39315362
 20
392.43942174
 30
0.0
  0
VERTEX
  5
7BB
  8
CYAN
 10
34.42131766
 20
396.00415007999999
 30
0.0
  0
VERTEX
  5
7BC
  8
CYAN
 10
34.980873819999999
 20
398.98207549
 30
0.0
  0
VERTEX
  5
7BD
  8
CYAN
 10
51.766945550000003
 20
395.82799799999998
 30
0.0
 42
-0.36129745
  0
VERTEX
  5
7BE
  8
CYAN
 10
64.428932759999995
 20
398.84841209000001
 30
0.0
 42
0.14618135
  0
VERTEX
  5
7BF
  8
CYAN
 10
69.748447220000003
 20
397.94108262999998
 30
0.0
 42
-0.05525202
  0
VERTEX
  5
7C0
  8
CYAN
 10
98.113702329999995
 20
398.25243936999999
 30
0.0
 42
0.28145138
  0
VERTEX
  5
7C1
  8
CYAN
 10
106.47246334
 20
402.28286860999992
 30
0.0
 42
-0.05024297
  0
VERTEX
  5
7C2
  8
CYAN
 10
114.3854659
 20
412.20537524999992
 30
0.0
 42
-0.25799634
  0
VERTEX
  5
7C3
  8
CYAN
 10
125.94797518999999
 20
415.68356982
 30
0.0
 42
-0.09320195
  0
VERTEX
  5
7C4
  8
CYAN
 10
138.76527818
 20
410.28508749999992
 30
0.0
 42
-0.07543302
  0
VERTEX
  5
7C5
  8
CYAN
 10
155.41277084000001
 20
395.23378166999998
 30
0.0
 42
0.21952375
  0
VERTEX
  5
7C6
  8
CYAN
 10
167.71083383999999
 20
389.24035885000001
 30
0.0
 42
0.27544312
  0
VERTEX
  5
7C7
  8
CYAN
 10
173.12765325500001
 20
392.31505780499998
 30
0.0
 42
0.27544312
  0
VERTEX
  5
7C8
  8
CYAN
 10
172.99943321000001
 20
398.54235784999997
 30
0.0
 42
0.01260999
  0
VERTEX
  5
7C9
  8
CYAN
 10
168.53639067
 20
405.3046845799999
 30
0.0
  0
VERTEX
  5
7CA
  8
CYAN
 10
163.66895321999999
 20
401.9770294999999
 30
0.0
  0
VERTEX
  5
7CB
  8
CYAN
 10
161.95890707000001
 20
404.47838843
 30
0.0
  0
VERTEX
  5
7CC
  8
CYAN
 10
166.78044911000001
 20
407.77463554000002
 30
0.0
 42
0.01746398
  0
VERTEX
  5
7CD
  8
CYAN
 10
159.8807138999999
 20
416.62156692000002
 30
0.0
  0
VERTEX
  5
7CE
  8
CYAN
 10
156.43645634000001
 20
412.60898437999992
 30
0.0
  0
VERTEX
  5
7CF
  8
CYAN
 10
154.13717113999999
 20
414.58247287
 30
0.0
  0
VERTEX
  5
7D0
  8
CYAN
 10
157.88913227
 20
418.95346299999989
 30
0.0
 42
0.01130994
  0
VERTEX
  5
7D1
  8
CYAN
 10
152.99450966000001
 20
424.32485206999991
 30
0.0
  0
VERTEX
  5
7D2
  8
CYAN
 10
151.45546863000001
 20
425.84826637999993
 30
0.0
  0
VERTEX
  5
7D3
  8
CYAN
 10
149.01085352000001
 20
421.37238674000002
 30
0.0
  0
VERTEX
  5
7D4
  8
CYAN
 10
146.35165179000001
 20
422.82476976999988
 30
0.0
  0
VERTEX
  5
7D5
  8
CYAN
 10
149.10609651999999
 20
427.86808155
 30
0.0
 42
0.06853895
  0
VERTEX
  5
7D6
  8
CYAN
 10
140.28604225000001
 20
433.05875636999991
 30
0.0
  0
VERTEX
  5
7D7
  8
CYAN
 10
138.72622552000001
 20
427.66542201999999
 30
0.0
  0
VERTEX
  5
7D8
  8
CYAN
 10
135.81557115999999
 20
428.50728328000002
 30
0.0
  0
VERTEX
  5
7D9
  8
CYAN
 10
137.43700193000001
 20
434.11354179
 30
0.0
 42
0.04743082
  0
VERTEX
  5
7DA
  8
CYAN
 10
130.50746161999999
 20
435.65766917999991
 30
0.0
  0
VERTEX
  5
7DB
  8
CYAN
 10
127.32673831
 20
435.97854920999998
 30
0.0
  0
VERTEX
  5
7DC
  8
CYAN
 10
126.95427657
 20
430.12560122999992
 30
0.0
  0
VERTEX
  5
7DD
  8
CYAN
 10
123.93034869
 20
430.31805874999992
 30
0.0
  0
VERTEX
  5
7DE
  8
CYAN
 10
124.30105303000001
 20
436.14207931999988
 30
0.0
 42
0.02301988
  0
VERTEX
  5
7DF
  8
CYAN
 10
118.14781488
 20
436.05158432999991
 30
0.0
 42
0.04445397
  0
VERTEX
  5
7E0
  8
CYAN
 10
113.65330276
 20
435.37420763
 30
0.0
  0
VERTEX
  5
7E1
  8
CYAN
 10
114.60288961000001
 20
429.29614579999992
 30
0.0
  0
VERTEX
  5
7E2
  8
CYAN
 10
111.60919911000001
 20
428.82839459999991
 30
0.0
  0
VERTEX
  5
7E3
  8
CYAN
 10
110.72705198
 20
434.47466122999992
 30
0.0
 42
0.09659694
  0
VERTEX
  5
7E4
  8
CYAN
 10
102.37137349
 20
429.34459953999988
 30
0.0
  0
VERTEX
  5
7E5
  8
CYAN
 10
105.01140340000001
 20
421.84140043999992
 30
0.0
  0
VERTEX
  5
7E6
  8
CYAN
 10
102.15320945000001
 20
420.83571617000001
 30
0.0
  0
VERTEX
  5
7E7
  8
CYAN
 10
100.0257
 20
426.88221549999992
 30
0.0
 42
0.05155088
  0
VERTEX
  5
7E8
  8
CYAN
 10
97.087797859999995
 20
422.51026990999992
 30
0.0
 42
0.03213792
  0
VERTEX
  5
7E9
  8
CYAN
 10
94.240762389999986
 20
418.62566244999999
 30
0.0
 42
-0.19887428
  0
VERTEX
  5
7EA
  8
CYAN
 10
86.614781629999996
 20
413.29627018999992
 30
0.0
 42
-0.12291007
  0
VERTEX
  5
7EB
  8
CYAN
 10
76.282069550000003
 20
413.57811371999992
 30
0.0
 42
-0.21675455
  0
VERTEX
  5
7EC
  8
CYAN
 10
72.271925019999998
 20
416.94741522999999
 30
0.0
 42
-0.21675455
  0
VERTEX
  5
7ED
  8
CYAN
 10
72.176540750000001
 20
422.18424191000003
 30
0.0
  0
VERTEX
  5
7EE
  8
CYAN
 10
72.321037410000002
 20
422.51797520000002
 30
0.0
  0
VERTEX
  5
7EF
  8
CYAN
 10
53.56311036000001
 20
428.12488112
 30
0.0
  0
VERTEX
  5
7F0
  8
CYAN
 10
54.430894279999997
 20
431.02795341000001
 30
0.0
  0
VERTEX
  5
7F1
  8
CYAN
 10
73.533604019999984
 20
425.31797598000003
 30
0.0
  0
VERTEX
  5
7F2
  8
CYAN
 10
74.034289299999998
 20
426.4737523099999
 30
0.0
 42
0.21320622
  0
VERTEX
  5
7F3
  8
CYAN
 10
73.994478430000001
 20
429.95512890499998
 30
0.0
 42
0.21320622
  0
VERTEX
  5
7F4
  8
CYAN
 10
71.374963339999994
 20
432.24853437000002
 30
0.0
  0
VERTEX
  5
7F5
  8
CYAN
 10
50.323762610000003
 20
438.84813293000002
 30
0.0
 42
0.30486487
  0
VERTEX
  5
7F6
  8
CYAN
 10
42.70789194999999
 20
436.63142229999988
 30
0.0
  0
VERTEX
  5
7F7
  8
CYAN
 10
30.36602929
 20
422.25308452000002
 30
0.0
 42
-0.20681185
  0
VERTEX
  5
7F8
  8
CYAN
 10
27.185246124999999
 20
420.64856769499988
 30
0.0
 42
-0.20681185
  0
VERTEX
  5
7F9
  8
CYAN
 10
23.83690752
 20
421.86531925999992
 30
0.0
  0
VERTEX
  5
7FA
  8
CYAN
 10
15.940610360000001
 20
412.66616047999992
 30
0.0
  0
VERTEX
  5
7FB
  8
CYAN
 10
13.641479690000001
 20
414.63964896999988
 30
0.0
  0
VERTEX
  5
7FC
  8
CYAN
 10
22.171923530000001
 20
424.57770657999993
 30
0.0
 42
0.21443302
  0
VERTEX
  5
7FD
  8
CYAN
 10
18.778659600000001
 20
426.888779145
 30
0.0
 42
0.21443302
  0
VERTEX
  5
7FE
  8
CYAN
 10
14.79776506
 20
425.88489908000003
 30
0.0
 42
0.07999187
  0
VERTEX
  5
7FF
  8
CYAN
 10
7.9526476199999987
 20
418.41318571999989
 30
0.0
 42
0.15322521
  0
VERTEX
  5
800
  8
CYAN
 10
6.0297389199999989
 20
411.67346784
 30
0.0
 42
-0.2163833
  0
VERTEX
  5
801
  8
CYAN
 10
4.4253529099999991
 20
407.8793715299999
 30
0.0
 42
0.41134662
  0
VERTEX
  5
802
  8
CYAN
 10
4.2064827200000003
 20
403.09635920499989
 30
0.0
 42
0.41134662
  0
VERTEX
  5
803
  8
CYAN
 10
8.9871209299999997
 20
402.83063504
 30
0.0
  0
VERTEX
  5
804
  8
CYAN
 10
11.667960900000001
 20
405.20552782999999
 30
0.0
 42
-0.30877501
  0
VERTEX
  5
805
  8
CYAN
 10
15.806042485000001
 20
405.72969802
 30
0.0
 42
-0.30877501
  0
VERTEX
  5
806
  8
CYAN
 10
17.801565660000001
 20
402.06686294000002
 30
0.0
  0
VERTEX
  5
807
  8
CYAN
 10
17.472070330000001
 20
398.78676674000002
 30
0.0
 42
0.38935724
  0
VERTEX
  5
808
  8
CYAN
 10
23.01615829
 20
391.37868742000001
 30
0.0
  0
SEQEND
  5
809
  8
CYAN
  0
POLYLINE
  5
35C
  8
CYAN
 66
     1
 10
0.0
 20
0.0
 30
0.0
 70
     1
  0
VERTEX
  5
80A
  8
CYAN
 10
104.85248192
 20
117.10218852
 30
0.0
 42
-0.20517912
  0
VERTEX
  5
80B
  8
CYAN
 10
154.88798292000001
 20
109.84468606
 30
0.0
 42
0.14186507
  0
VERTEX
  5
80C
  8
CYAN
 10
177.27072623999999
 20
103.7239184
 30
0.0
 42
0.4105056900000001
  0
VERTEX
  5
80D
  8
CYAN
 10
180.66179399500001
 20
107.17359641500001
 30
0.0
 42
0.4105056900000001
  0
VERTEX
  5
80E
  8
CYAN
 10
177.25537727
 20
110.6081188
 30
0.0
 42
-0.09280999
  0
VERTEX
  5
80F
  8
CYAN
 10
161.72927751
 20
113.68347891000001
 30
0.0
 42
0.00980802
  0
VERTEX
  5
810
  8
CYAN
 10
139.66160368999999
 20
122.01546987
 30
0.0
 42
0.08589002
  0
VERTEX
  5
811
  8
CYAN
 10
124.00755915000001
 20
124.703295
 30
0.0
 42
0.03740301
  0
VERTEX
  5
812
  8
CYAN
 10
106.88758445000001
 20
123.39815582999999
 30
0.0
 42
-0.25142652
  0
VERTEX
  5
813
  8
CYAN
 10
105.27939741
 20
123.97024015
 30
0.0
 42
-0.25142652
  0
VERTEX
  5
814
  8
CYAN
 10
104.86746123
 20
125.62669861000001
 30
0.0
 42
0.10944068
  0
VERTEX
  5
815
  8
CYAN
 10
104.93323748
 20
127.75277891
 30
0.0
 42
0.10944104
  0
VERTEX
  5
816
  8
CYAN
 10
104.09485769
 20
129.70770056999999
 30
0.0
 42
-0.25142976
  0
VERTEX
  5
817
  8
CYAN
 10
103.87269659499999
 20
131.40006207499999
 30
0.0
 42
-0.25142976
  0
VERTEX
  5
818
  8
CYAN
 10
105.16040062
 20
132.52044653999999
 30
0.0
 42
0.03740301
  0
VERTEX
  5
819
  8
CYAN
 10
121.57249965
 20
137.56419363000001
 30
0.0
 42
0.08589018
  0
VERTEX
  5
81A
  8
CYAN
 10
135.16043364999999
 20
145.78869433
 30
0.0
 42
0.00980802
  0
VERTEX
  5
81B
  8
CYAN
 10
152.65475071
 20
161.61125636
 30
0.0
 42
-0.09280998
  0
VERTEX
  5
81C
  8
CYAN
 10
165.9818926099999
 20
170.14964082
 30
0.0
 42
0.41050105
  0
VERTEX
  5
81D
  8
CYAN
 10
167.89697254500001
 20
174.59166702499999
 30
0.0
 42
0.41050105
  0
VERTEX
  5
81E
  8
CYAN
 10
163.47960953
 20
176.56296911999999
 30
0.0
 42
0.14186499
  0
VERTEX
  5
81F
  8
CYAN
 10
144.88356426999999
 20
162.68336227
 30
0.0
 42
-0.20519613
  0
VERTEX
  5
820
  8
CYAN
 10
100.96018432
 20
137.63622985999999
 30
0.0
  0
VERTEX
  5
821
  8
CYAN
 10
65.055620590000004
 20
130.83797541000001
 30
0.0
 42
0.30023429
  0
VERTEX
  5
822
  8
CYAN
 10
60.265148170000003
 20
126.18840505999999
 30
0.0
 42
0.07439907
  0
VERTEX
  5
823
  8
CYAN
 10
59.893425749999999
 20
120.76695635
 30
0.0
  0
VERTEX
  5
824
  8
CYAN
 10
71.800502600000002
 20
123.02140967
 30
0.0
  0
VERTEX
  5
825
  8
CYAN
 10
72.364189659999994
 20
120.04433165
 30
0.0
  0
VERTEX
  5
826
  8
CYAN
 10
60.457112809999991
 20
117.78987832999999
 30
0.0
 42
0.07439806
  0
VERTEX
  5
827
  8
CYAN
 10
62.78490828999999
 20
112.87960173
 30
0.0
 42
0.30023795
  0
VERTEX
  5
828
  8
CYAN
 10
68.943726690000005
 20
110.30312001
 30
0.0
  0
VERTEX
  5
829
  8
CYAN
 10
104.85248192
 20
117.10218852
 30
0.0
  0
SEQEND
  5
82A
  8
CYAN
  0
POLYLINE
  5
37E
  8
CYAN
 66
     1
 10
0.0
 20
0.0
 30
0.0
 70
     1
  0
VERTEX
  5
82B
  8
CYAN
 10
191.42817196999999
 20
525.37410674
 30
0.0
  0
VERTEX
  5
82C
  8
CYAN
 10
190.42732660999999
 20
522.01254596000001
 30
0.0
 42
0.25292132
  0
VERTEX
  5
82D
  8
CYAN
 10
191.33296128999999
 20
517.68065494999985
 30
0.0
  0
VERTEX
  5
82E
  8
CYAN
 10
199.49007983999999
 20
525.10261975000003
 30
0.0
  0
VERTEX
  5
82F
  8
CYAN
 10
201.51294622
 20
522.87940573000003
 30
0.0
  0
VERTEX
  5
830
  8
CYAN
 10
193.0391856
 20
515.16940206000004
 30
0.0
 42
0.15288818
  0
VERTEX
  5
831
  8
CYAN
 10
203.91477773
 20
508.07406520000001
 30
0.0
  0
VERTEX
  5
832
  8
CYAN
 10
208.31676071999999
 20
521.62263848999987
 30
0.0
  0
VERTEX
  5
833
  8
CYAN
 10
211.17541725000001
 20
520.69382531999986
 30
0.0
  0
VERTEX
  5
834
  8
CYAN
 10
206.92545239
 20
507.61304969000003
 30
0.0
 42
0.37564757
  0
VERTEX
  5
835
  8
CYAN
 10
214.62361987
 20
510.82225297999992
 30
0.0
 42
0.11395995
  0
VERTEX
  5
836
  8
CYAN
 10
217.00683505999999
 20
520.99077137999996
 30
0.0
 42
-0.22415578
  0
VERTEX
  5
837
  8
CYAN
 10
218.94194712500001
 20
525.05587313499996
 30
0.0
 42
-0.22415578
  0
VERTEX
  5
838
  8
CYAN
 10
223.31027334000001
 20
526.14556898000001
 30
0.0
  0
VERTEX
  5
839
  8
CYAN
 10
232.11309802
 20
524.39249380000001
 30
0.0
 42
0.36831989
  0
VERTEX
  5
83A
  8
CYAN
 10
235.10703495999999
 20
526.06416601000001
 30
0.0
 42
0.04045892
  0
VERTEX
  5
83B
  8
CYAN
 10
236.01892659000001
 20
529.23132704
 30
0.0
  0
VERTEX
  5
83C
  8
CYAN
 10
223.53786876000001
 20
531.59013154000002
 30
0.0
  0
VERTEX
  5
83D
  8
CYAN
 10
224.10053773999999
 20
534.56739337999988
 30
0.0
  0
VERTEX
  5
83E
  8
CYAN
 10
236.39743014999999
 20
532.24345003999986
 30
0.0
 42
0.02926196
  0
VERTEX
  5
83F
  8
CYAN
 10
236.37841184999999
 20
534.62882360000003
 30
0.0
 42
0.34260981
  0
VERTEX
  5
840
  8
CYAN
 10
233.12738243999999
 20
538.25977461000002
 30
0.0
 42
-0.21114677
  0
VERTEX
  5
841
  8
CYAN
 10
224.47941096
 20
544.13295793999987
 30
0.0
  0
VERTEX
  5
842
  8
CYAN
 10
209.05102062
 20
536.84072561999994
 30
0.0
  0
VERTEX
  5
843
  8
CYAN
 10
207.76657433
 20
539.55815183000004
 30
0.0
  0
VERTEX
  5
844
  8
CYAN
 10
223.19496568
 20
546.85041546000002
 30
0.0
 42
-0.21114612
  0
VERTEX
  5
845
  8
CYAN
 10
224.14649476
 20
557.26076926999997
 30
0.0
 42
0.3438574
  0
VERTEX
  5
846
  8
CYAN
 10
223.39167631000001
 20
562.08992468999986
 30
0.0
 42
0.02904404
  0
VERTEX
  5
847
  8
CYAN
 10
221.57347329999999
 20
563.60671238999998
 30
0.0
  0
VERTEX
  5
848
  8
CYAN
 10
215.56334407
 20
552.62980514000003
 30
0.0
  0
VERTEX
  5
849
  8
CYAN
 10
212.90562098000001
 20
554.08497779000004
 30
0.0
  0
VERTEX
  5
84A
  8
CYAN
 10
219.00584524000001
 20
565.22629385000005
 30
0.0
 42
0.04066403
  0
VERTEX
  5
84B
  8
CYAN
 10
215.96400904999999
 20
566.53746272000001
 30
0.0
 42
0.36653164
  0
VERTEX
  5
84C
  8
CYAN
 10
212.78760147
 20
565.27995615999998
 30
0.0
  0
VERTEX
  5
84D
  8
CYAN
 10
208.55406527
 20
557.36528912000006
 30
0.0
 42
-0.22415395
  0
VERTEX
  5
84E
  8
CYAN
 10
204.93916852500001
 20
554.68167788999995
 30
0.0
 42
-0.22415395
  0
VERTEX
  5
84F
  8
CYAN
 10
200.56976983999999
 20
555.76685200999998
 30
0.0
 42
0.11396009
  0
VERTEX
  5
850
  8
CYAN
 10
191.19996044999999
 20
560.38021689000004
 30
0.0
 42
0.37564491
  0
VERTEX
  5
851
  8
CYAN
 10
183.83347696999999
 20
556.46911813999986
 30
0.0
  0
VERTEX
  5
852
  8
CYAN
 10
194.24642041999999
 20
552.38732231999995
 30
0.0
  0
VERTEX
  5
853
  8
CYAN
 10
193.14946952
 20
549.58883148999985
 30
0.0
  0
VERTEX
  5
854
  8
CYAN
 10
182.27865367999999
 20
553.85026287999995
 30
0.0
 42
0.15288776
  0
VERTEX
  5
855
  8
CYAN
 10
180.85735441
 20
540.94286485999987
 30
0.0
  0
VERTEX
  5
856
  8
CYAN
 10
194.73631688
 20
542.96690182999998
 30
0.0
  0
VERTEX
  5
857
  8
CYAN
 10
195.17002400999999
 20
539.99266090000003
 30
0.0
  0
VERTEX
  5
858
  8
CYAN
 10
181.71462826999999
 20
538.03032987999995
 30
0.0
 42
0.25292568
  0
VERTEX
  5
859
  8
CYAN
 10
184.48701161
 20
534.58061629999986
 30
0.0
  0
VERTEX
  5
85A
  8
CYAN
 10
187.71979436000001
 20
533.22006954000005
 30
0.0
 42
-0.38263548
  0
VERTEX
  5
85B
  8
CYAN
 10
191.42817196999999
 20
525.37410674
 30
0.0
  0
SEQEND
  5
85C
  8
CYAN
  0
POLYLINE
  5
3B1
  8
CYAN
 66
     1
 10
0.0
 20
0.0
 30
0.0
 70
     1
  0
VERTEX
  5
85D
  8
CYAN
 10
144.72556693999999
 20
502.20482692999991
 30
0.0
  0
VERTEX
  5
85E
  8
CYAN
 10
144.98383000000001
 20
528.22363892999999
 30
0.0
  0
VERTEX
  5
85F
  8
CYAN
 10
150.45730381000001
 20
528.96868663999999
 30
0.0
  0
VERTEX
  5
860
  8
CYAN
 10
152.75156526999999
 20
516.58977617000005
 30
0.0
  0
VERTEX
  5
861
  8
CYAN
 10
155.73086125
 20
517.14193408000006
 30
0.0
  0
VERTEX
  5
862
  8
CYAN
 10
151.10032838999999
 20
542.12630407999995
 30
0.0
 42
0.10592392
  0
VERTEX
  5
863
  8
CYAN
 10
147.73836764999999
 20
550.51943236
 30
0.0
 42
-0.27400682
  0
VERTEX
  5
864
  8
CYAN
 10
147.48210742000001
 20
554.99591295000005
 30
0.0
 42
-0.07912476
  0
VERTEX
  5
865
  8
CYAN
 10
154.53167108
 20
564.55090584000004
 30
0.0
 42
-0.24828672
  0
VERTEX
  5
866
  8
CYAN
 10
158.35622090999999
 20
565.69427532999998
 30
0.0
  0
VERTEX
  5
867
  8
CYAN
 10
165.52904497
 20
564.26847651000003
 30
0.0
 42
0.13926664
  0
VERTEX
  5
868
  8
CYAN
 10
168.95635068999999
 20
564.54501855000001
 30
0.0
  0
VERTEX
  5
869
  8
CYAN
 10
173.28519048999999
 20
566.16099329999997
 30
0.0
 42
-0.28364827
  0
VERTEX
  5
86A
  8
CYAN
 10
175.31083626500001
 20
565.75988065000001
 30
0.0
 42
-0.28364827
  0
VERTEX
  5
86B
  8
CYAN
 10
175.86114094999999
 20
563.76957993999986
 30
0.0
 42
-0.1681802
  0
VERTEX
  5
86C
  8
CYAN
 10
170.48223041
 20
556.17488392999985
 30
0.0
 42
-0.37204187
  0
VERTEX
  5
86D
  8
CYAN
 10
168.41205159
 20
556.36385796000002
 30
0.0
  0
VERTEX
  5
86E
  8
CYAN
 10
166.46556343
 20
558.38176221000003
 30
0.0
 42
0.14412421
  0
VERTEX
  5
86F
  8
CYAN
 10
164.01549331000001
 20
559.77519759999996
 30
0.0
 42
0.21655232
  0
VERTEX
  5
870
  8
CYAN
 10
158.89414454000001
 20
558.76004388000001
 30
0.0
 42
0.21655232
  0
VERTEX
  5
871
  8
CYAN
 10
156.29054063000001
 20
554.23456080999995
 30
0.0
 42
0.07381499
  0
VERTEX
  5
872
  8
CYAN
 10
156.45587459999999
 20
551.04486769000005
 30
0.0
 42
0.15019406
  0
VERTEX
  5
873
  8
CYAN
 10
161.38696023
 20
541.96093981000001
 30
0.0
 42
0.40864795
  0
VERTEX
  5
874
  8
CYAN
 10
168.80180554
 20
541.96519393000005
 30
0.0
 42
-0.39619222
  0
VERTEX
  5
875
  8
CYAN
 10
172.462265315
 20
542.04576480499998
 30
0.0
 42
-0.39619222
  0
VERTEX
  5
876
  8
CYAN
 10
172.76918653999999
 20
538.39730529999997
 30
0.0
 42
0.078353
  0
VERTEX
  5
877
  8
CYAN
 10
167.96354998000001
 20
529.88822195
 30
0.0
 42
0.35139488
  0
VERTEX
  5
878
  8
CYAN
 10
173.8914743
 20
511.88634655999988
 30
0.0
  0
VERTEX
  5
879
  8
CYAN
 10
176.08777989999999
 20
510.45731169999999
 30
0.0
 42
-0.34502616
  0
VERTEX
  5
87A
  8
CYAN
 10
178.47953237999999
 20
503.46265196000002
 30
0.0
 42
-0.34502616
  0
VERTEX
  5
87B
  8
CYAN
 10
172.26125855000001
 20
499.46530091
 30
0.0
 42
0.00729702
  0
VERTEX
  5
87C
  8
CYAN
 10
146.52897446
 20
501.49081854000002
 30
0.0
 42
-0.15781277
  0
VERTEX
  5
87D
  8
CYAN
 10
144.72556693999999
 20
502.20482692999991
 30
0.0
  0
SEQEND
  5
87E
  8
CYAN
  0
POLYLINE
  5
3D4
  8
CYAN
 66
     1
 10
0.0
 20
0.0
 30
0.0
 70
     1
  0
VERTEX
  5
87F
  8
CYAN
 10
81.605590680000006
 20
436.08174394000002
 30
0.0
 42
0.10592409
  0
VERTEX
  5
880
  8
CYAN
 10
77.515349240000006
 20
444.14502339000001
 30
0.0
  0
VERTEX
  5
881
  8
CYAN
 10
61.792107579999993
 20
464.10608466000002
 30
0.0
  0
VERTEX
  5
882
  8
CYAN
 10
59.411913300000002
 20
462.23116712000001
 30
0.0
  0
VERTEX
  5
883
  8
CYAN
 10
67.202241259999994
 20
452.34110167999989
 30
0.0
  0
VERTEX
  5
884
  8
CYAN
 10
63.031613919999991
 20
448.71881142000001
 30
0.0
  0
VERTEX
  5
885
  8
CYAN
 10
43.306099799999998
 20
465.68790827999987
 30
0.0
 42
-0.15781265
  0
VERTEX
  5
886
  8
CYAN
 10
43.959048639999999
 20
467.51431047
 30
0.0
 42
0.00729712
  0
VERTEX
  5
887
  8
CYAN
 10
59.411049749999997
 20
488.19046083000001
 30
0.0
 42
-0.34502564
  0
VERTEX
  5
888
  8
CYAN
 10
66.517240615000006
 20
490.22698467999999
 30
0.0
 42
-0.34502564
  0
VERTEX
  5
889
  8
CYAN
 10
70.196424640000004
 20
483.81535595999998
 30
0.0
  0
VERTEX
  5
88A
  8
CYAN
 10
69.821743929999997
 20
481.22195977000001
 30
0.0
 42
0.35139314
  0
VERTEX
  5
88B
  8
CYAN
 10
79.441155629999997
 20
464.89184950999999
 30
0.0
 42
0.0783529
  0
VERTEX
  5
88C
  8
CYAN
 10
89.006442440000001
 20
462.89068197
 30
0.0
 42
-0.39618721
  0
VERTEX
  5
88D
  8
CYAN
 10
91.546035485000004
 20
460.25332173499987
 30
0.0
 42
-0.39618721
  0
VERTEX
  5
88E
  8
CYAN
 10
89.070922859999996
 20
457.55535595999999
 30
0.0
 42
0.4086491900000001
  0
VERTEX
  5
88F
  8
CYAN
 10
84.176516390000003
 20
451.98534533999992
 30
0.0
 42
0.15019385
  0
VERTEX
  5
890
  8
CYAN
 10
87.75103163
 20
442.28705768999998
 30
0.0
 42
0.07381469
  0
VERTEX
  5
891
  8
CYAN
 10
90.039251269999994
 20
440.05875831999998
 30
0.0
 42
0.2165537
  0
VERTEX
  5
892
  8
CYAN
 10
95.158006714999999
 20
439.03034537500002
 30
0.0
 42
0.2165537
  0
VERTEX
  5
893
  8
CYAN
 10
99.299269620000004
 20
442.20984722999998
 30
0.0
 42
0.14412276
  0
VERTEX
  5
894
  8
CYAN
 10
99.868072330000004
 20
444.97039438000002
 30
0.0
  0
VERTEX
  5
895
  8
CYAN
 10
99.635545080000014
 20
447.76438465000001
 30
0.0
 42
-0.37204433
  0
VERTEX
  5
896
  8
CYAN
 10
100.85908533999999
 20
449.4449337499999
 30
0.0
 42
-0.16818041
  0
VERTEX
  5
897
  8
CYAN
 10
110.11528185
 20
448.47786986
 30
0.0
 42
-0.28364366
  0
VERTEX
  5
898
  8
CYAN
 10
111.24812070999999
 20
446.75133411500002
 30
0.0
 42
-0.28364366
  0
VERTEX
  5
899
  8
CYAN
 10
110.21335992
 20
444.96429196000003
 30
0.0
  0
VERTEX
  5
89A
  8
CYAN
 10
106.14333868
 20
442.77686224000001
 30
0.0
 42
0.13926608
  0
VERTEX
  5
89B
  8
CYAN
 10
103.67462093
 20
440.38338342999998
 30
0.0
  0
VERTEX
  5
89C
  8
CYAN
 10
100.01472735999999
 20
434.05189644000001
 30
0.0
 42
-0.24828814
  0
VERTEX
  5
89D
  8
CYAN
 10
96.63260803
 20
431.93167615999988
 30
0.0
 42
-0.07912505
  0
VERTEX
  5
89E
  8
CYAN
 10
84.80104686
 20
432.93626660000001
 30
0.0
 42
-0.27400741
  0
VERTEX
  5
89F
  8
CYAN
 10
81.605590680000006
 20
436.08174394000002
 30
0.0
  0
SEQEND
  5
8A0
  8
CYAN
  0
POLYLINE
  5
3F7
  8
CYAN
 66
     1
 10
0.0
 20
0.0
 30
0.0
 70
     1
  0
VERTEX
  5
8A1
  8
CYAN
 10
218.14064995000001
 20
227.47806599
 30
0.0
  0
VERTEX
  5
8A2
  8
CYAN
 10
170.76142369999999
 20
198.79266007000001
 30
0.0
 42
-0.31138814
  0
VERTEX
  5
8A3
  8
CYAN
 10
159.70487521000001
 20
199.43547734000001
 30
0.0
 42
-0.31138814
  0
VERTEX
  5
8A4
  8
CYAN
 10
156.37656738000001
 20
209.99875551
 30
0.0
 42
-0.17759792
  0
VERTEX
  5
8A5
  8
CYAN
 10
182.76682405
 20
244.70874376
 30
0.0
 42
-0.31177328
  0
VERTEX
  5
8A6
  8
CYAN
 10
201.82702996
 20
244.03672309000001
 30
0.0
  0
VERTEX
  5
8A7
  8
CYAN
 10
205.49842036000001
 20
241.30489832000001
 30
0.0
 42
0.25844059
  0
VERTEX
  5
8A8
  8
CYAN
 10
209.55060108500001
 20
240.759167655
 30
0.0
 42
0.25844059
  0
VERTEX
  5
8A9
  8
CYAN
 10
212.16282355000001
 20
243.90468579
 30
0.0
  0
VERTEX
  5
8AA
  8
CYAN
 10
212.56792748000001
 20
246.04258308999999
 30
0.0
 42
-0.12831442
  0
VERTEX
  5
8AB
  8
CYAN
 10
213.53795066999999
 20
248.08998439000001
 30
0.0
  0
VERTEX
  5
8AC
  8
CYAN
 10
215.94061442
 20
250.95586847999999
 30
0.0
 42
-0.39740229
  0
VERTEX
  5
8AD
  8
CYAN
 10
222.05652701
 20
251.67379263999999
 30
0.0
  0
VERTEX
  5
8AE
  8
CYAN
 10
238.13493921
 20
239.71072240000001
 30
0.0
 42
-0.34193898
  0
VERTEX
  5
8AF
  8
CYAN
 10
239.49043193
 20
234.85417376000001
 30
0.0
  0
VERTEX
  5
8B0
  8
CYAN
 10
239.29168615
 20
234.24494680999999
 30
0.0
 42
-0.15530848
  0
VERTEX
  5
8B1
  8
CYAN
 10
235.58756165
 20
228.23030692
 30
0.0
 42
-0.27940013
  0
VERTEX
  5
8B2
  8
CYAN
 10
229.25262348999999
 20
227.1706432
 30
0.0
  0
VERTEX
  5
8B3
  8
CYAN
 10
226.71264317000001
 20
228.18270865
 30
0.0
 42
0.23476801
  0
VERTEX
  5
8B4
  8
CYAN
 10
218.14064995000001
 20
227.47806599
 30
0.0
  0
SEQEND
  5
8B5
  8
CYAN
  0
POLYLINE
  5
40D
  8
CYAN
 66
     1
 10
0.0
 20
0.0
 30
0.0
 70
     1
  0
VERTEX
  5
8B6
  8
CYAN
 10
174.30983144999999
 20
206.65436170000001
 30
0.0
 42
-0.21436625
  0
VERTEX
  5
8B7
  8
CYAN
 10
169.56497381
 20
203.349866045
 30
0.0
 42
-0.21436625
  0
VERTEX
  5
8B8
  8
CYAN
 10
163.94356433999999
 20
204.70379409
 30
0.0
 42
-0.21436625
  0
VERTEX
  5
8B9
  8
CYAN
 10
161.22353200000001
 20
209.80622386499999
 30
0.0
 42
-0.21436625
  0
VERTEX
  5
8BA
  8
CYAN
 10
163.2329039
 20
215.22801233000001
 30
0.0
  0
VERTEX
  5
8BB
  8
CYAN
 10
174.30983144999999
 20
206.65436170000001
 30
0.0
  0
SEQEND
  5
8BC
  8
CYAN
  0
POLYLINE
  5
415
  8
CYAN
 66
     1
 10
0.0
 20
0.0
 30
0.0
 70
     1
  0
VERTEX
  5
8BD
  8
CYAN
 10
179.49745505999999
 20
210.87280042
 30
0.0
 42
-0.31257846
  0
VERTEX
  5
8BE
  8
CYAN
 10
174.76107622000001
 20
212.98908270999999
 30
0.0
 42
-0.10072719
  0
VERTEX
  5
8BF
  8
CYAN
 10
173.92023202999999
 20
215.33674791999999
 30
0.0
 42
-0.41241639
  0
VERTEX
  5
8C0
  8
CYAN
 10
176.01830604
 20
218.15947672999999
 30
0.0
 42
0.02663205
  0
VERTEX
  5
8C1
  8
CYAN
 10
188.61063354999999
 20
220.745205
 30
0.0
 42
-0.33220462
  0
VERTEX
  5
8C2
  8
CYAN
 10
191.03199942000001
 20
219.762029165
 30
0.0
 42
-0.33220462
  0
VERTEX
  5
8C3
  8
CYAN
 10
190.77670277999999
 20
217.1611695
 30
0.0
 42
-0.16285692
  0
VERTEX
  5
8C4
  8
CYAN
 10
179.49745505999999
 20
210.87280042
 30
0.0
  0
SEQEND
  5
8C5
  8
CYAN
  0
POLYLINE
  5
41F
  8
CYAN
 66
     1
 10
0.0
 20
0.0
 30
0.0
 70
     1
  0
VERTEX
  5
8C6
  8
CYAN
 10
171.93324286999999
 20
221.37348055000001
 30
0.0
 42
-0.3918607599999999
  0
VERTEX
  5
8C7
  8
CYAN
 10
168.75832503500001
 20
223.57498788500001
 30
0.0
 42
-0.3918607599999999
  0
VERTEX
  5
8C8
  8
CYAN
 10
170.70936325
 20
226.90968243
 30
0.0
 42
-0.04807997
  0
VERTEX
  5
8C9
  8
CYAN
 10
185.7857898
 20
229.94085403
 30
0.0
 42
-0.37298481
  0
VERTEX
  5
8CA
  8
CYAN
 10
188.30566082000001
 20
228.17339318500001
 30
0.0
 42
-0.37298481
  0
VERTEX
  5
8CB
  8
CYAN
 10
186.91476578000001
 20
225.42765489000001
 30
0.0
 42
-0.06189719
  0
VERTEX
  5
8CC
  8
CYAN
 10
171.93324286999999
 20
221.37348055000001
 30
0.0
  0
SEQEND
  5
8CD
  8
CYAN
  0
POLYLINE
  5
428
  8
CYAN
 66
     1
 10
0.0
 20
0.0
 30
0.0
 70
     1
  0
VERTEX
  5
8CE
  8
CYAN
 10
185.4030018199999
 20
234.06409418999999
 30
0.0
 42
0.26976977
  0
VERTEX
  5
8CF
  8
CYAN
 10
187.92587577
 20
233.28899089999999
 30
0.0
 42
0.03753595
  0
VERTEX
  5
8D0
  8
CYAN
 10
198.46035251999999
 20
236.59327053999999
 30
0.0
 42
0.30071571
  0
VERTEX
  5
8D1
  8
CYAN
 10
199.80996625500001
 20
238.534256615
 30
0.0
 42
0.30071571
  0
VERTEX
  5
8D2
  8
CYAN
 10
198.55245138999999
 20
240.53614085999999
 30
0.0
 42
0.18768674
  0
VERTEX
  5
8D3
  8
CYAN
 10
184.94026022
 20
241.28045632000001
 30
0.0
 42
0.33752657
  0
VERTEX
  5
8D4
  8
CYAN
 10
183.3479871399999
 20
238.96952784000001
 30
0.0
 42
0.17628843
  0
VERTEX
  5
8D5
  8
CYAN
 10
185.4030018199999
 20
234.06409418999999
 30
0.0
  0
SEQEND
  5
8D6
  8
CYAN
  0
POLYLINE
  5
432
  8
CYAN
 66
     1
 10
0.0
 20
0.0
 30
0.0
 70
     1
  0
VERTEX
  5
8D7
  8
CYAN
 10
197.76190923999999
 20
223.81047015999999
 30
0.0
 42
-0.38237555
  0
VERTEX
  5
8D8
  8
CYAN
 10
193.93461726000001
 20
225.38636811000001
 30
0.0
  0
VERTEX
  5
8D9
  8
CYAN
 10
193.44139183999999
 20
226.40804976999999
 30
0.0
 42
-0.20511859
  0
VERTEX
  5
8DA
  8
CYAN
 10
193.34600424999999
 20
228.52051474500001
 30
0.0
 42
-0.20511859
  0
VERTEX
  5
8DB
  8
CYAN
 10
194.80912071
 20
230.04724238
 30
0.0
 42
-0.06172403
  0
VERTEX
  5
8DC
  8
CYAN
 10
207.05879157999999
 20
233.55318063999999
 30
0.0
 42
-0.35040917
  0
VERTEX
  5
8DD
  8
CYAN
 10
209.55510150000001
 20
232.12843415500001
 30
0.0
 42
-0.35040917
  0
VERTEX
  5
8DE
  8
CYAN
 10
208.71671667999999
 20
229.37914757999999
 30
0.0
 42
-0.06531187
  0
VERTEX
  5
8DF
  8
CYAN
 10
197.76190923999999
 20
223.81047015999999
 30
0.0
  0
SEQEND
  5
8E0
  8
CYAN
  0
POLYLINE
  5
43D
  8
CYAN
 66
     1
 10
0.0
 20
0.0
 30
0.0
 70
     1
  0
VERTEX
  5
8E1
  8
CYAN
 10
81.219134379999986
 20
485.64169654
 30
0.0
  0
VERTEX
  5
8E2
  8
CYAN
 10
80.955969789999983
 20
483.69807577
 30
0.0
 42
0.35554097
  0
VERTEX
  5
8E3
  8
CYAN
 10
83.926173750000004
 20
478.83899101999998
 30
0.0
  0
VERTEX
  5
8E4
  8
CYAN
 10
90.358328449999988
 20
486.99490766999998
 30
0.0
  0
VERTEX
  5
8E5
  8
CYAN
 10
92.737412739999996
 20
485.11857309999999
 30
0.0
  0
VERTEX
  5
8E6
  8
CYAN
 10
86.382932089999997
 20
477.0611657899999
 30
0.0
 42
0.02986806
  0
VERTEX
  5
8E7
  8
CYAN
 10
89.142924750000006
 20
475.7681516699999
 30
0.0
 42
0.29121397
  0
VERTEX
  5
8E8
  8
CYAN
 10
94.596332889999999
 20
476.80764871999997
 30
0.0
  0
VERTEX
  5
8E9
  8
CYAN
 10
95.408390060000002
 20
477.57192986000001
 30
0.0
 42
-0.24484348
  0
VERTEX
  5
8EA
  8
CYAN
 10
98.308883159999993
 20
478.38990352500002
 30
0.0
 42
-0.24484348
  0
VERTEX
  5
8EB
  8
CYAN
 10
100.64153841
 20
476.48185201000001
 30
0.0
  0
VERTEX
  5
8EC
  8
CYAN
 10
102.08040663
 20
473.12506953999991
 30
0.0
 42
0.28053088
  0
VERTEX
  5
8ED
  8
CYAN
 10
109.56768510000001
 20
467.79285635000002
 30
0.0
 42
0.03045009
  0
VERTEX
  5
8EE
  8
CYAN
 10
129.67783650999999
 20
467.57222689999992
 30
0.0
 42
0.35131199
  0
VERTEX
  5
8EF
  8
CYAN
 10
136.12592598000001
 20
473.29188214999999
 30
0.0
  0
VERTEX
  5
8F0
  8
CYAN
 10
136.99485018999999
 20
478.36872896
 30
0.0
 42
-0.27054124
  0
VERTEX
  5
8F1
  8
CYAN
 10
140.02916490999999
 20
481.98630251999998
 30
0.0
  0
VERTEX
  5
8F2
  8
CYAN
 10
146.88362182
 20
484.44509600999987
 30
0.0
 42
0.32896726
  0
VERTEX
  5
8F3
  8
CYAN
 10
150.52055684999999
 20
489.86825099499993
 30
0.0
 42
0.32896726
  0
VERTEX
  5
8F4
  8
CYAN
 10
146.41203363
 20
494.9434794
 30
0.0
 42
0.02239798
  0
VERTEX
  5
8F5
  8
CYAN
 10
124.11818243
 20
499.69178634000002
 30
0.0
 42
-0.32133227
  0
VERTEX
  5
8F6
  8
CYAN
 10
121.749358675
 20
502.06766524499989
 30
0.0
 42
-0.32133227
  0
VERTEX
  5
8F7
  8
CYAN
 10
123.23800783
 20
505.07433287999999
 30
0.0
  0
VERTEX
  5
8F8
  8
CYAN
 10
125.25464756
 20
506.14804368
 30
0.0
 42
0.25779002
  0
VERTEX
  5
8F9
  8
CYAN
 10
126.74495912
 20
508.43789749999991
 30
0.0
 42
0.09066794
  0
VERTEX
  5
8FA
  8
CYAN
 10
126.0993146
 20
514.36693079999986
 30
0.0
  0
VERTEX
  5
8FB
  8
CYAN
 10
111.1440224
 20
505.82298730000002
 30
0.0
  0
VERTEX
  5
8FC
  8
CYAN
 10
108.13794021
 20
511.08480147
 30
0.0
  0
VERTEX
  5
8FD
  8
CYAN
 10
123.33426688999999
 20
519.76652310999998
 30
0.0
 42
0.03589904
  0
VERTEX
  5
8FE
  8
CYAN
 10
121.75025460000001
 20
521.53994069999987
 30
0.0
 42
0.31683578
  0
VERTEX
  5
8FF
  8
CYAN
 10
115.17705642999999
 20
522.57607848999999
 30
0.0
 42
0.07907203
  0
VERTEX
  5
900
  8
CYAN
 10
99.902346679999994
 20
511.78309022000002
 30
0.0
 42
0.22417239
  0
VERTEX
  5
901
  8
CYAN
 10
97.994850580000005
 20
506.66580402
 30
0.0
  0
VERTEX
  5
902
  8
CYAN
 10
98.354490369999994
 20
502.4082884
 30
0.0
 42
-0.23563724
  0
VERTEX
  5
903
  8
CYAN
 10
96.650463290000005
 20
498.12436487000002
 30
0.0
 42
-0.23563724
  0
VERTEX
  5
904
  8
CYAN
 10
92.20288438
 20
496.90997162000002
 30
0.0
  0
VERTEX
  5
905
  8
CYAN
 10
87.516901509999997
 20
497.84174308000001
 30
0.0
 42
0.24015133
  0
VERTEX
  5
906
  8
CYAN
 10
82.601264185000005
 20
496.45430678500003
 30
0.0
 42
0.24015133
  0
VERTEX
  5
907
  8
CYAN
 10
80.835699999999989
 20
491.66147329
 30
0.0
  0
VERTEX
  5
908
  8
CYAN
 10
81.240279740000005
 20
488.26150725999997
 30
0.0
 42
-0.06333115
  0
VERTEX
  5
909
  8
CYAN
 10
81.219134379999986
 20
485.64169654
 30
0.0
  0
SEQEND
  5
90A
  8
CYAN
  0
POLYLINE
  5
468
  8
CYAN
 66
     1
 10
0.0
 20
0.0
 30
0.0
 70
     1
  0
VERTEX
  5
90B
  8
CYAN
 10
178.46298175000001
 20
451.0837486399999
 30
0.0
 42
-0.32896842
  0
VERTEX
  5
90C
  8
CYAN
 10
172.64689881000001
 20
454.05195167499988
 30
0.0
 42
-0.32896842
  0
VERTEX
  5
90D
  8
CYAN
 10
173.76679586
 20
460.48490438999988
 30
0.0
 42
-0.022398
  0
VERTEX
  5
90E
  8
CYAN
 10
190.93319016000001
 20
475.48088343000001
 30
0.0
 42
0.32133076
  0
VERTEX
  5
90F
  8
CYAN
 10
191.846609935
 20
478.70913594500001
 30
0.0
 42
0.32133076
  0
VERTEX
  5
910
  8
CYAN
 10
189.08311559000001
 20
480.61151576999993
 30
0.0
  0
VERTEX
  5
911
  8
CYAN
 10
186.79890262000001
 20
480.56830190999989
 30
0.0
 42
-0.25778771
  0
VERTEX
  5
912
  8
CYAN
 10
184.38267658999999
 20
481.84362385999992
 30
0.0
 42
-0.09066804
  0
VERTEX
  5
913
  8
CYAN
 10
182.06178446000001
 20
487.33774914000003
 30
0.0
  0
VERTEX
  5
914
  8
CYAN
 10
199.28464584
 20
487.15013154000002
 30
0.0
  0
VERTEX
  5
915
  8
CYAN
 10
199.35066853000001
 20
493.20976087000003
 30
0.0
  0
VERTEX
  5
916
  8
CYAN
 10
181.85024804
 20
493.40036908000002
 30
0.0
 42
-0.03589892
  0
VERTEX
  5
917
  8
CYAN
 10
182.37112221000001
 20
495.72036736000001
 30
0.0
 42
-0.31683615
  0
VERTEX
  5
918
  8
CYAN
 10
187.60960335999999
 20
499.82389332999992
 30
0.0
 42
-0.07907198
  0
VERTEX
  5
919
  8
CYAN
 10
206.20586476
 20
497.82707182000001
 30
0.0
 42
-0.22417157
  0
VERTEX
  5
91A
  8
CYAN
 10
210.36215817999999
 20
494.28452005000003
 30
0.0
  0
VERTEX
  5
91B
  8
CYAN
 10
212.119641
 20
490.39000348000002
 30
0.0
 42
0.23563749
  0
VERTEX
  5
91C
  8
CYAN
 10
215.69273577999999
 20
487.47651532999998
 30
0.0
 42
0.23563749
  0
VERTEX
  5
91D
  8
CYAN
 10
220.16918849000001
 20
488.57959766999988
 30
0.0
  0
VERTEX
  5
91E
  8
CYAN
 10
223.80975570999999
 20
491.67380236000002
 30
0.0
 42
-0.24015088
  0
VERTEX
  5
91F
  8
CYAN
 10
228.77932333499999
 20
492.85346543000003
 30
0.0
 42
-0.24015088
  0
VERTEX
  5
920
  8
CYAN
 10
232.65382172
 20
489.52533238000001
 30
0.0
  0
VERTEX
  5
921
  8
CYAN
 10
233.95469566
 20
486.35810973999992
 30
0.0
 42
0.0633309
  0
VERTEX
  5
922
  8
CYAN
 10
235.24789562000001
 20
484.07959922999999
 30
0.0
  0
VERTEX
  5
923
  8
CYAN
 10
236.42347502000001
 20
482.50964210000001
 30
0.0
 42
-0.35554106
  0
VERTEX
  5
924
  8
CYAN
 10
236.19301322000001
 20
476.81933038
 30
0.0
  0
VERTEX
  5
925
  8
CYAN
 10
226.60513372
 20
480.81497623000001
 30
0.0
  0
VERTEX
  5
926
  8
CYAN
 10
225.43960179999999
 20
478.01811958000002
 30
0.0
  0
VERTEX
  5
927
  8
CYAN
 10
234.91164945
 20
474.07077293999993
 30
0.0
 42
-0.02986801
  0
VERTEX
  5
928
  8
CYAN
 10
233.12950950000001
 20
471.59817174
 30
0.0
 42
-0.29121613
  0
VERTEX
  5
929
  8
CYAN
 10
227.85940323
 20
469.85280286
 30
0.0
  0
VERTEX
  5
92A
  8
CYAN
 10
226.77811036
 20
470.12539882999999
 30
0.0
 42
0.24484395
  0
VERTEX
  5
92B
  8
CYAN
 10
223.84611726
 20
469.42874329
 30
0.0
 42
0.24484395
  0
VERTEX
  5
92C
  8
CYAN
 10
222.73660040999999
 20
466.62680024000002
 30
0.0
  0
VERTEX
  5
92D
  8
CYAN
 10
223.1129153
 20
462.99412314
 30
0.0
 42
-0.28053161
  0
VERTEX
  5
92E
  8
CYAN
 10
219.16630798
 20
454.69250792999998
 30
0.0
 42
-0.03044993
  0
VERTEX
  5
92F
  8
CYAN
 10
201.70450887999999
 20
444.71475025000001
 30
0.0
 42
-0.35131115
  0
VERTEX
  5
930
  8
CYAN
 10
193.28823342000001
 20
446.57416429
 30
0.0
  0
VERTEX
  5
931
  8
CYAN
 10
190.05890184
 20
450.58676299000001
 30
0.0
 42
0.27053985
  0
VERTEX
  5
932
  8
CYAN
 10
185.64764199999999
 20
452.27079457000002
 30
0.0
  0
VERTEX
  5
933
  8
CYAN
 10
178.46298175000001
 20
451.0837486399999
 30
0.0
  0
SEQEND
  5
934
  8
CYAN
  0
POLYLINE
  5
493
  8
CYAN
 66
     1
 10
0.0
 20
0.0
 30
0.0
 70
     1
  0
VERTEX
  5
935
  8
CYAN
 10
97.587619590000003
 20
561.00810763000004
 30
0.0
 42
0.09468021
  0
VERTEX
  5
936
  8
CYAN
 10
118.99251221999999
 20
561.99998317999984
 30
0.0
  0
VERTEX
  5
937
  8
CYAN
 10
130.86278669000001
 20
564.84338264999985
 30
0.0
 42
-0.21467567
  0
VERTEX
  5
938
  8
CYAN
 10
134.18334209
 20
564.21233974999996
 30
0.0
 42
-0.21467567
  0
VERTEX
  5
939
  8
CYAN
 10
135.91278668999999
 20
561.30832104000001
 30
0.0
  0
VERTEX
  5
93A
  8
CYAN
 10
138.19619771999999
 20
541.39814761000002
 30
0.0
 42
-0.39739807
  0
VERTEX
  5
93B
  8
CYAN
 10
134.50708384000001
 20
536.46749324999985
 30
0.0
  0
VERTEX
  5
93C
  8
CYAN
 10
131.30019243999999
 20
535.90969347999999
 30
0.0
 42
-0.20371325
  0
VERTEX
  5
93D
  8
CYAN
 10
127.99321931999999
 20
536.68302748500003
 30
0.0
 42
-0.20371325
  0
VERTEX
  5
93E
  8
CYAN
 10
126.25521618000001
 20
539.60081119999995
 30
0.0
  0
VERTEX
  5
93F
  8
CYAN
 10
125.52188144
 20
544.98788860000002
 30
0.0
 42
0.27146516
  0
VERTEX
  5
940
  8
CYAN
 10
123.16171862500001
 20
547.99498587999994
 30
0.0
 42
0.27146516
  0
VERTEX
  5
941
  8
CYAN
 10
119.38482449999999
 20
547.40500847999988
 30
0.0
 42
-0.06239003
  0
VERTEX
  5
942
  8
CYAN
 10
75.048234359999995
 20
519.57782582000004
 30
0.0
 42
-0.20720911
  0
VERTEX
  5
943
  8
CYAN
 10
51.352132490000002
 20
518.93230452
 30
0.0
 42
-0.044519
  0
VERTEX
  5
944
  8
CYAN
 10
12.229181540000001
 20
538.82389293999995
 30
0.0
 42
-0.30134591
  0
VERTEX
  5
945
  8
CYAN
 10
6.3147575399999987
 20
551.85531166500004
 30
0.0
 42
-0.30134591
  0
VERTEX
  5
946
  8
CYAN
 10
16.013968680000001
 20
562.37783933000003
 30
0.0
 42
-0.06795901
  0
VERTEX
  5
947
  8
CYAN
 10
27.717800199999999
 20
564.47471143999985
 30
0.0
 42
-0.04552701
  0
VERTEX
  5
948
  8
CYAN
 10
83.427338789999979
 20
563.03951154000003
 30
0.0
  0
VERTEX
  5
949
  8
CYAN
 10
97.587619590000003
 20
561.00810763000004
 30
0.0
  0
SEQEND
  5
94A
  8
CYAN
  0
POLYLINE
  5
4AA
  8
CYAN
 66
     1
 10
0.0
 20
0.0
 30
0.0
 70
     1
  0
VERTEX
  5
94B
  8
CYAN
 10
56.179593130000001
 20
522.09083611000005
 30
0.0
  0
VERTEX
  5
94C
  8
CYAN
 10
57.976497260000002
 20
521.85340833999987
 30
0.0
 42
0.11896931
  0
VERTEX
  5
94D
  8
CYAN
 10
63.14867898
 20
522.40100509000001
 30
0.0
 42
0.03135206
  0
VERTEX
  5
94E
  8
CYAN
 10
77.724698000000004
 20
528.64964077000002
 30
0.0
 42
0.39732666
  0
VERTEX
  5
94F
  8
CYAN
 10
79.231504145000002
 20
532.81994018
 30
0.0
 42
0.39732666
  0
VERTEX
  5
950
  8
CYAN
 10
75.155558979999995
 20
534.56594503999986
 30
0.0
 42
-0.02866679
  0
VERTEX
  5
951
  8
CYAN
 10
55.829631159999998
 20
528.70675525999991
 30
0.0
 42
0.36123861
  0
VERTEX
  5
952
  8
CYAN
 10
53.256012855000002
 20
525.25340315499989
 30
0.0
 42
0.36123861
  0
VERTEX
  5
953
  8
CYAN
 10
56.179593130000001
 20
522.09083611000005
 30
0.0
  0
SEQEND
  5
954
  8
CYAN
  0
POLYLINE
  5
4B5
  8
CYAN
 66
     1
 10
0.0
 20
0.0
 30
0.0
 70
     1
  0
VERTEX
  5
955
  8
CYAN
 10
19.505879050000001
 20
547.23243179999997
 30
0.0
 42
0.29767695
  0
VERTEX
  5
956
  8
CYAN
 10
17.081777290000002
 20
546.79701353999985
 30
0.0
 42
0.29767695
  0
VERTEX
  5
957
  8
CYAN
 10
16.506454779999999
 20
544.40225625999994
 30
0.0
 42
0.17239345
  0
VERTEX
  5
958
  8
CYAN
 10
19.19906933
 20
541.10160151000002
 30
0.0
 42
0.05114191
  0
VERTEX
  5
959
  8
CYAN
 10
37.98781855
 20
532.19000387000006
 30
0.0
 42
0.24169403
  0
VERTEX
  5
95A
  8
CYAN
 10
40.756791114999999
 20
532.56212713000002
 30
0.0
 42
0.24169403
  0
VERTEX
  5
95B
  8
CYAN
 10
42.068257940000002
 20
535.02905629999987
 30
0.0
  0
VERTEX
  5
95C
  8
CYAN
 10
42.113073659999991
 20
538.16428516999986
 30
0.0
 42
0.36930006
  0
VERTEX
  5
95D
  8
CYAN
 10
39.440186429999997
 20
541.38168764
 30
0.0
 42
-0.05777487
  0
VERTEX
  5
95E
  8
CYAN
 10
19.505879050000001
 20
547.23243179999997
 30
0.0
  0
SEQEND
  5
95F
  8
CYAN
  0
POLYLINE
  5
4C1
  8
CYAN
 66
     1
 10
0.0
 20
0.0
 30
0.0
 70
     1
  0
VERTEX
  5
960
  8
CYAN
 10
10.083547640000001
 20
334.34333900000001
 30
0.0
 42
0.37387173
  0
VERTEX
  5
961
  8
CYAN
 10
5.4930285449999987
 20
330.103530955
 30
0.0
 42
0.37387173
  0
VERTEX
  5
962
  8
CYAN
 10
9.0524649000000004
 20
324.96745749000002
 30
0.0
 42
0.07183412
  0
VERTEX
  5
963
  8
CYAN
 10
28.410387499999999
 20
322.91221252999998
 30
0.0
 42
0.30509462
  0
VERTEX
  5
964
  8
CYAN
 10
30.554691649999999
 20
324.47532439999998
 30
0.0
 42
0.30509462
  0
VERTEX
  5
965
  8
CYAN
 10
29.914661299999999
 20
327.05053703999999
 30
0.0
 42
0.19364396
  0
VERTEX
  5
966
  8
CYAN
 10
10.083547640000001
 20
334.34333900000001
 30
0.0
  0
SEQEND
  5
967
  8
CYAN
  0
POLYLINE
  5
4CA
  8
CYAN
 66
     1
 10
0.0
 20
0.0
 30
0.0
 70
     1
  0
VERTEX
  5
968
  8
CYAN
 10
29.86614595
 20
295.86336516
 30
0.0
 42
0.30509815
  0
VERTEX
  5
969
  8
CYAN
 10
30.514175130000002
 20
298.43660247499997
 30
0.0
 42
0.30509815
  0
VERTEX
  5
96A
  8
CYAN
 10
28.374694099999999
 20
300.00635183000003
 30
0.0
 42
0.07183406
  0
VERTEX
  5
96B
  8
CYAN
 10
9.0104842499999993
 20
298.01139578999999
 30
0.0
 42
0.37387182
  0
VERTEX
  5
96C
  8
CYAN
 10
5.435049714999999
 20
292.88642671999997
 30
0.0
 42
0.37387182
  0
VERTEX
  5
96D
  8
CYAN
 10
10.01234668
 20
288.63232369000002
 30
0.0
 42
0.19364405
  0
VERTEX
  5
96E
  8
CYAN
 10
29.86614595
 20
295.86336516
 30
0.0
  0
SEQEND
  5
96F
  8
CYAN
  0
POLYLINE
  5
4D3
  8
CYAN
 66
     1
 10
0.0
 20
0.0
 30
0.0
 70
     1
  0
VERTEX
  5
970
  8
CYAN
 10
11.27873114
 20
458.79443103
 30
0.0
 42
0.21436611
  0
VERTEX
  5
971
  8
CYAN
 10
10.188846549999999
 20
453.11585612999988
 30
0.0
 42
0.21436611
  0
VERTEX
  5
972
  8
CYAN
 10
13.711402485000001
 20
448.53048145000002
 30
0.0
 42
0.21436611
  0
VERTEX
  5
973
  8
CYAN
 10
19.479030099999999
 20
448.11995376499999
 30
0.0
 42
0.21436611
  0
VERTEX
  5
974
  8
CYAN
 10
23.615537740000001
 20
452.16017229999989
 30
0.0
  0
VERTEX
  5
975
  8
CYAN
 10
11.27873114
 20
458.79443103
 30
0.0
  0
SEQEND
  5
976
  8
CYAN
  0
POLYLINE
  5
4DB
  8
CYAN
 66
     1
 10
0.0
 20
0.0
 30
0.0
 70
     1
  0
VERTEX
  5
977
  8
CYAN
 10
25.692683540000001
 20
462.60766784999993
 30
0.0
 42
0.3918545
  0
VERTEX
  5
978
  8
CYAN
 10
28.99484824
 20
460.602154665
 30
0.0
 42
0.3918545
  0
VERTEX
  5
979
  8
CYAN
 10
31.24823803
 20
463.74040405999989
 30
0.0
 42
0.04807998
  0
VERTEX
  5
97A
  8
CYAN
 10
27.887818549999999
 20
478.74686185000002
 30
0.0
 42
0.37298228
  0
VERTEX
  5
97B
  8
CYAN
 10
25.248498120000001
 20
480.33041627499989
 30
0.0
 42
0.37298228
  0
VERTEX
  5
97C
  8
CYAN
 10
23.305460669999999
 20
477.94331291999998
 30
0.0
 42
0.06189705
  0
VERTEX
  5
97D
  8
CYAN
 10
25.692683540000001
 20
462.60766784999993
 30
0.0
  0
SEQEND
  5
97E
  8
CYAN
  0
POLYLINE
  5
4E4
  8
CYAN
 66
     1
 10
0.0
 20
0.0
 30
0.0
 70
     1
  0
VERTEX
  5
97F
  8
CYAN
 10
31.64807077
 20
482.29443837000002
 30
0.0
 42
0.17628874
  0
VERTEX
  5
980
  8
CYAN
 10
36.965366260000003
 20
482.41134890000001
 30
0.0
 42
0.33753515
  0
VERTEX
  5
981
  8
CYAN
 10
38.42926228000001
 20
484.80562965000001
 30
0.0
 42
0.1876868
  0
VERTEX
  5
982
  8
CYAN
 10
32.214839339999997
 20
496.93934545000002
 30
0.0
 42
0.30072225
  0
VERTEX
  5
983
  8
CYAN
 10
29.874553155000001
 20
497.27435923000002
 30
0.0
 42
0.30072225
  0
VERTEX
  5
984
  8
CYAN
 10
28.64994132
 20
495.25210813000001
 30
0.0
 42
0.03753599
  0
VERTEX
  5
985
  8
CYAN
 10
29.91429063
 20
484.28413937999989
 30
0.0
 42
0.26977343
  0
VERTEX
  5
986
  8
CYAN
 10
31.64807077
 20
482.29443837000002
 30
0.0
  0
SEQEND
  5
987
  8
CYAN
  0
POLYLINE
  5
4EE
  8
CYAN
 66
     1
 10
0.0
 20
0.0
 30
0.0
 70
     1
  0
VERTEX
  5
988
  8
CYAN
 10
20.41360847
 20
484.33999035999989
 30
0.0
  0
VERTEX
  5
989
  8
CYAN
 10
21.54751628
 20
484.30475954000002
 30
0.0
 42
0.20512105
  0
VERTEX
  5
98A
  8
CYAN
 10
23.516325429999998
 20
485.07647365999992
 30
0.0
 42
0.20512105
  0
VERTEX
  5
98B
  8
CYAN
 10
24.316324219999998
 20
487.03396033000001
 30
0.0
 42
0.061724
  0
VERTEX
  5
98C
  8
CYAN
 10
22.53896056
 20
499.65091568000003
 30
0.0
 42
0.35041393
  0
VERTEX
  5
98D
  8
CYAN
 10
20.22226002
 20
501.35237394000001
 30
0.0
 42
0.35041393
  0
VERTEX
  5
98E
  8
CYAN
 10
18.051291190000001
 20
499.46850664999988
 30
0.0
 42
0.06531204
  0
VERTEX
  5
98F
  8
CYAN
 10
17.417760609999998
 20
487.19593402999999
 30
0.0
 42
0.38237714
  0
VERTEX
  5
990
  8
CYAN
 10
20.41360847
 20
484.33999035999989
 30
0.0
  0
SEQEND
  5
991
  8
CYAN
  0
POLYLINE
  5
4F9
  8
CYAN
 66
     1
 10
0.0
 20
0.0
 30
0.0
 70
     1
  0
VERTEX
  5
992
  8
CYAN
 10
84.510820330000001
 20
541.01332549000006
 30
0.0
 42
0.4102233100000001
  0
VERTEX
  5
993
  8
CYAN
 10
82.137511294999996
 20
534.97344429500004
 30
0.0
 42
0.4102233100000001
  0
VERTEX
  5
994
  8
CYAN
 10
88.144452889999997
 20
532.51795793999986
 30
0.0
 42
0.05736097
  0
VERTEX
  5
995
  8
CYAN
 10
106.1118994
 20
542.45330268999987
 30
0.0
 42
0.35161353
  0
VERTEX
  5
996
  8
CYAN
 10
106.98923877
 20
545.56438077999985
 30
0.0
 42
0.35161353
  0
VERTEX
  5
997
  8
CYAN
 10
104.14207822
 20
547.09480818999987
 30
0.0
 42
0.05877301
  0
VERTEX
  5
998
  8
CYAN
 10
84.510820330000001
 20
541.01332549000006
 30
0.0
  0
SEQEND
  5
999
  8
CYAN
  0
POLYLINE
  5
502
  8
CYAN
 66
     1
 10
0.0
 20
0.0
 30
0.0
 70
     1
  0
VERTEX
  5
99A
  8
CYAN
 10
83.673981800000007
 20
556.92338382000003
 30
0.0
 42
0.20308473
  0
VERTEX
  5
99B
  8
CYAN
 10
80.043391924999995
 20
554.81905364999989
 30
0.0
 42
0.20308473
  0
VERTEX
  5
99C
  8
CYAN
 10
79.029350350000001
 20
550.74706298499996
 30
0.0
 42
0.20308473
  0
VERTEX
  5
99D
  8
CYAN
 10
81.249056859999996
 20
547.18584250499987
 30
0.0
 42
0.20308473
  0
VERTEX
  5
99E
  8
CYAN
 10
85.351479690000005
 20
546.30294091999986
 30
0.0
 42
0.03802199
  0
VERTEX
  5
99F
  8
CYAN
 10
106.20473758999999
 20
551.95638966000001
 30
0.0
 42
0.34153983
  0
VERTEX
  5
9A0
  8
CYAN
 10
107.74527980000001
 20
554.35019370999999
 30
0.0
 42
0.34153983
  0
VERTEX
  5
9A1
  8
CYAN
 10
105.81606232
 20
556.44344192000005
 30
0.0
 42
0.073246
  0
VERTEX
  5
9A2
  8
CYAN
 10
83.673981800000007
 20
556.92338382000003
 30
0.0
  0
SEQEND
  5
9A3
  8
CYAN
  0
POLYLINE
  5
50D
  8
CYAN
 66
     1
 10
0.0
 20
0.0
 30
0.0
 70
     1
  0
VERTEX
  5
9A4
  8
CYAN
 10
75.160860470000003
 20
539.13597284000002
 30
0.0
 42
0.346382
  0
VERTEX
  5
9A5
  8
CYAN
 10
76.879549280000006
 20
541.73930874999985
 30
0.0
 42
0.346382
  0
VERTEX
  5
9A6
  8
CYAN
 10
74.752521509999994
 20
544.02119436999988
 30
0.0
 42
0.074141
  0
VERTEX
  5
9A7
  8
CYAN
 10
51.328645950000002
 20
544.15293068999995
 30
0.0
 42
0.38315802
  0
VERTEX
  5
9A8
  8
CYAN
 10
47.895196224999999
 20
540.04832577499985
 30
0.0
 42
0.38315802
  0
VERTEX
  5
9A9
  8
CYAN
 10
51.608948220000002
 20
536.19548207000003
 30
0.0
 42
0.09840598
  0
VERTEX
  5
9AA
  8
CYAN
 10
75.160860470000003
 20
539.13597284000002
 30
0.0
  0
SEQEND
  5
9AB
  8
CYAN
  0
POLYLINE
  5
516
  8
CYAN
 66
     1
 10
0.0
 20
0.0
 30
0.0
 70
     1
  0
VERTEX
  5
9AC
  8
CYAN
 10
51.368592460000002
 20
549.46362986999986
 30
0.0
 42
0.03456502
  0
VERTEX
  5
9AD
  8
CYAN
 10
71.267453889999985
 20
549.99076099000001
 30
0.0
 42
0.35704105
  0
VERTEX
  5
9AE
  8
CYAN
 10
73.837234155000004
 20
552.54033411
 30
0.0
 42
0.35704105
  0
VERTEX
  5
9AF
  8
CYAN
 10
71.846181869999995
 20
555.56354507000003
 30
0.0
 42
0.10722401
  0
VERTEX
  5
9B0
  8
CYAN
 10
51.016411519999998
 20
557.42070882999985
 30
0.0
 42
0.38670493
  0
VERTEX
  5
9B1
  8
CYAN
 10
48.33908533999999
 20
554.29392557999995
 30
0.0
  0
VERTEX
  5
9B2
  8
CYAN
 10
48.393395060000003
 20
552.47692345999985
 30
0.0
 42
0.39313649
  0
VERTEX
  5
9B3
  8
CYAN
 10
51.368592460000002
 20
549.46362986999986
 30
0.0
  0
SEQEND
  5
9B4
  8
CYAN
  0
POLYLINE
  5
520
  8
CYAN
 66
     1
 10
0.0
 20
0.0
 30
0.0
 70
     1
  0
VERTEX
  5
9B5
  8
CYAN
 10
41.37166397
 20
552.04864205000001
 30
0.0
  0
VERTEX
  5
9B6
  8
CYAN
 10
40.919494039999996
 20
554.10091356999999
 30
0.0
 42
0.33082567
  0
VERTEX
  5
9B7
  8
CYAN
 10
38.339197550000002
 20
556.34117234999985
 30
0.0
 42
0.04616105
  0
VERTEX
  5
9B8
  8
CYAN
 10
19.06221635
 20
556.02748957999995
 30
0.0
 42
0.35844219
  0
VERTEX
  5
9B9
  8
CYAN
 10
17.18573314
 20
554.10748712500003
 30
0.0
 42
0.35844219
  0
VERTEX
  5
9BA
  8
CYAN
 10
18.707753820000001
 20
551.89591489999987
 30
0.0
 42
0.05102598
  0
VERTEX
  5
9BB
  8
CYAN
 10
38.199879160000002
 20
548.39466606999997
 30
0.0
 42
0.23723182
  0
VERTEX
  5
9BC
  8
CYAN
 10
40.704305044999991
 20
549.42433340000002
 30
0.0
 42
0.23723182
  0
VERTEX
  5
9BD
  8
CYAN
 10
41.37166397
 20
552.04864205000001
 30
0.0
  0
SEQEND
  5
9BE
  8
CYAN
  0
ENDSEC
  0
EOF
