  0
SECTION
  2
HEADER
  9
$ACADVER
  1
AC1014
  9
$HANDSEED
  5
FFFF
  9
$MEASUREMENT
 70
     1
  0
ENDSEC
  0
SECTION
  2
TABLES
  0
TABLE
  2
VPORT
  5
8
330
0
100
AcDbSymbolTable
 70
     4
  0
VPORT
  5
2E
330
8
100
AcDbSymbolTableRecord
100
AcDbViewportTableRecord
  2
*ACTIVE
 70
     0
 10
0.0
 20
0.0
 11
1.0
 21
1.0
 12
210.0
 22
148.5
 13
0.0
 23
0.0
 14
10.0
 24
10.0
 15
10.0
 25
10.0
 16
0.0
 26
0.0
 36
1.0
 17
0.0
 27
0.0
 37
0.0
 40
341.0
 41
1.24
 42
50.0
 43
0.0
 44
0.0
 50
0.0
 51
0.0
 71
     0
 72
   100
 73
     1
 74
     3
 75
     0
 76
     0
 77
     0
 78
     0
  0
ENDTAB
  0
TABLE
  2
LTYPE
  5
5
330
0
100
AcDbSymbolTable
 70
     1
  0
LTYPE
  5
14
330
5
100
AcDbSymbolTableRecord
100
AcDbLinetypeTableRecord
  2
BYBLOCK
 70
     0
  3

 72
    65
 73
     0
 40
0.0
  0
LTYPE
  5
15
330
5
100
AcDbSymbolTableRecord
100
AcDbLinetypeTableRecord
  2
BYLAYER
 70
     0
  3

 72
    65
 73
     0
 40
0.0
  0
LTYPE
  5
16
330
5
100
AcDbSymbolTableRecord
100
AcDbLinetypeTableRecord
  2
CONTINUOUS
 70
     0
  3
Solid line
 72
    65
 73
     0
 40
0.0
  0
ENDTAB
  0
TABLE
  2
LAYER
  5
2
100
AcDbSymbolTable
 70
2
  0
LAYER
  5
50
100
AcDbSymbolTableRecord
100
AcDbLayerTableRecord
  2
0
 70
0
  6
CONTINUOUS
  0
LAYER
  5
51
100
AcDbSymbolTableRecord
100
AcDbLayerTableRecord
  2
Layer_1
 70
0
  6
CONTINUOUS
  0
ENDTAB
  0
TABLE
  2
STYLE
  5
3
330
0
100
AcDbSymbolTable
 70
     1
  0
STYLE
  5
11
330
3
100
AcDbSymbolTableRecord
100
AcDbTextStyleTableRecord
  2
STANDARD
 70
     0
 40
0.0
 41
1.0
 50
0.0
 71
     0
 42
2.5
  3
txt
  4

  0
ENDTAB
  0
TABLE
  2
VIEW
  5
6
330
0
100
AcDbSymbolTable
 70
     0
  0
ENDTAB
  0
TABLE
  2
UCS
  5
7
330
0
100
AcDbSymbolTable
 70
     0
  0
ENDTAB
  0
TABLE
  2
APPID
  5
9
330
0
100
AcDbSymbolTable
 70
     2
  0
APPID
  5
12
330
9
100
AcDbSymbolTableRecord
100
AcDbRegAppTableRecord
  2
ACAD
 70
     0
  0
ENDTAB
  0
TABLE
  2
DIMSTYLE
  5
A
330
0
100
AcDbSymbolTable
 70
     1
  0
DIMSTYLE
105
27
330
A
100
AcDbSymbolTableRecord
100
AcDbDimStyleTableRecord
  2
ISO-25
 70
     0
  3

  4

  5

  6

  7

 40
1.0
 41
2.5
 42
0.625
 43
3.75
 44
1.25
 45
0.0
 46
0.0
 47
0.0
 48
0.0
140
2.5
141
2.5
142
0.0
143
0.03937007874016
144
1.0
145
0.0
146
1.0
147
0.625
 71
     0
 72
     0
 73
     0
 74
     0
 75
     0
 76
     0
 77
     1
 78
     8
170
     0
171
     3
172
     1
173
     0
174
     0
175
     0
176
     0
177
     0
178
     0
270
     2
271
     2
272
     2
273
     2
274
     3
340
11
275
     0
280
     0
281
     0
282
     0
283
     0
284
     8
285
     0
286
     0
287
     3
288
     0
  0
ENDTAB
  0
TABLE
  2
BLOCK_RECORD
  5
1
330
0
100
AcDbSymbolTable
 70
     1
  0
BLOCK_RECORD
  5
1F
330
1
100
AcDbSymbolTableRecord
100
AcDbBlockTableRecord
  2
*MODEL_SPACE
  0
BLOCK_RECORD
  5
1B
330
1
100
AcDbSymbolTableRecord
100
AcDbBlockTableRecord
  2
*PAPER_SPACE
  0
ENDTAB
  0
ENDSEC
  0
SECTION
  2
BLOCKS
  0
BLOCK
  5
20
330
1F
100
AcDbEntity
  8
0
100
AcDbBlockBegin
  2
*MODEL_SPACE
 70
     0
 10
0.0
 20
0.0
 30
0.0
  3
*MODEL_SPACE
  1

  0
ENDBLK
  5
21
330
1F
100
AcDbEntity
  8
0
100
AcDbBlockEnd
  0
BLOCK
  5
1C
330
1B
100
AcDbEntity
 67
     1
  8
0
100
AcDbBlockBegin
  2
*PAPER_SPACE
  1

  0
ENDBLK
  5
1D
330
1B
100
AcDbEntity
 67
     1
  8
0
100
AcDbBlockEnd
  0
ENDSEC
  0
SECTION
  2
ENTITIES
  0
SPLINE
  5
100
100
AcDbEntity
  8
Layer_1
 62
7
100
AcDbSpline
 70
8
 71
3
 72
8
 73
4
 74
0
 40
0
 40
0
 40
0
 40
0
 40
1
 40
1
 40
1
 40
1
 10
-8.568805
 20
4.616635
 30
0.0
 10
-8.568805
 20
4.225716
 30
0.0
 10
-8.787994
 20
3.864493
 30
0.0
 10
-9.143805
 20
3.669033
 30
0.0
  0
SPLINE
  5
101
100
AcDbEntity
  8
Layer_1
 62
7
100
AcDbSpline
 70
8
 71
3
 72
8
 73
4
 74
0
 40
0
 40
0
 40
0
 40
0
 40
1
 40
1
 40
1
 40
1
 10
-9.143805
 20
3.669033
 30
0.0
 10
-9.499616
 20
3.473574
 30
0.0
 10
-9.937994
 20
3.473574
 30
0.0
 10
-10.293805
 20
3.669033
 30
0.0
  0
SPLINE
  5
102
100
AcDbEntity
  8
Layer_1
 62
7
100
AcDbSpline
 70
8
 71
3
 72
8
 73
4
 74
0
 40
0
 40
0
 40
0
 40
0
 40
1
 40
1
 40
1
 40
1
 10
-10.293805
 20
3.669033
 30
0.0
 10
-10.649616
 20
3.864493
 30
0.0
 10
-10.868805
 20
4.225716
 30
0.0
 10
-10.868805
 20
4.616635
 30
0.0
  0
SPLINE
  5
103
100
AcDbEntity
  8
Layer_1
 62
7
100
AcDbSpline
 70
8
 71
3
 72
8
 73
4
 74
0
 40
0
 40
0
 40
0
 40
0
 40
1
 40
1
 40
1
 40
1
 10
-10.868805
 20
4.616635
 30
0.0
 10
-10.868805
 20
5.007554
 30
0.0
 10
-10.649616
 20
5.368778
 30
0.0
 10
-10.293805
 20
5.564237
 30
0.0
  0
SPLINE
  5
104
100
AcDbEntity
  8
Layer_1
 62
7
100
AcDbSpline
 70
8
 71
3
 72
8
 73
4
 74
0
 40
0
 40
0
 40
0
 40
0
 40
1
 40
1
 40
1
 40
1
 10
-10.293805
 20
5.564237
 30
0.0
 10
-9.937994
 20
5.759696
 30
0.0
 10
-9.499616
 20
5.759696
 30
0.0
 10
-9.143805
 20
5.564237
 30
0.0
  0
SPLINE
  5
105
100
AcDbEntity
  8
Layer_1
 62
7
100
AcDbSpline
 70
8
 71
3
 72
8
 73
4
 74
0
 40
0
 40
0
 40
0
 40
0
 40
1
 40
1
 40
1
 40
1
 10
-9.143805
 20
5.564237
 30
0.0
 10
-8.787994
 20
5.368778
 30
0.0
 10
-8.568805
 20
5.007554
 30
0.0
 10
-8.568805
 20
4.616635
 30
0.0
  0
SPLINE
  5
106
100
AcDbEntity
  8
Layer_1
 62
7
100
AcDbSpline
 70
8
 71
3
 72
8
 73
4
 74
0
 40
0
 40
0
 40
0
 40
0
 40
1
 40
1
 40
1
 40
1
 10
-9.678861
 20
4.453533
 30
0.0
 10
-9.820737
 20
4.446502
 30
0.0
 10
-9.968629
 20
4.433394
 30
0.0
 10
-10.094636
 20
4.361873
 30
0.0
  0
SPLINE
  5
107
100
AcDbEntity
  8
Layer_1
 62
7
100
AcDbSpline
 70
8
 71
3
 72
8
 73
4
 74
0
 40
0
 40
0
 40
0
 40
0
 40
1
 40
1
 40
1
 40
1
 10
-10.094636
 20
4.361873
 30
0.0
 10
-10.181992
 20
4.290244
 30
0.0
 10
-10.219736
 20
4.178783
 30
0.0
 10
-10.258289
 20
4.076520
 30
0.0
  0
SPLINE
  5
108
100
AcDbEntity
  8
Layer_1
 62
7
100
AcDbSpline
 70
8
 71
3
 72
8
 73
4
 74
0
 40
0
 40
0
 40
0
 40
0
 40
1
 40
1
 40
1
 40
1
 10
-10.258289
 20
4.076520
 30
0.0
 10
-10.288148
 20
3.996193
 30
0.0
 10
-10.308786
 20
3.897467
 30
0.0
 10
-10.254215
 20
3.822517
 30
0.0
  0
SPLINE
  5
109
100
AcDbEntity
  8
Layer_1
 62
7
100
AcDbSpline
 70
8
 71
3
 72
8
 73
4
 74
0
 40
0
 40
0
 40
0
 40
0
 40
1
 40
1
 40
1
 40
1
 10
-10.254215
 20
3.822517
 30
0.0
 10
-10.215439
 20
3.764330
 30
0.0
 10
-10.098424
 20
3.737095
 30
0.0
 10
-10.029532
 20
3.748488
 30
0.0
  0
SPLINE
  5
10a
100
AcDbEntity
  8
Layer_1
 62
7
100
AcDbSpline
 70
8
 71
3
 72
8
 73
4
 74
0
 40
0
 40
0
 40
0
 40
0
 40
1
 40
1
 40
1
 40
1
 10
-10.029532
 20
3.748488
 30
0.0
 10
-9.757653
 20
4.020269
 30
0.0
 10
-9.563961
 20
4.010610
 30
0.0
 10
-9.326928
 20
3.743740
 30
0.0
  0
SPLINE
  5
10b
100
AcDbEntity
  8
Layer_1
 62
7
100
AcDbSpline
 70
8
 71
3
 72
8
 73
4
 74
0
 40
0
 40
0
 40
0
 40
0
 40
1
 40
1
 40
1
 40
1
 10
-9.326928
 20
3.743740
 30
0.0
 10
-9.225023
 20
3.742543
 30
0.0
 10
-9.064616
 20
3.840270
 30
0.0
 10
-9.067378
 20
3.938613
 30
0.0
  0
SPLINE
  5
10c
100
AcDbEntity
  8
Layer_1
 62
7
100
AcDbSpline
 70
8
 71
3
 72
8
 73
4
 74
0
 40
0
 40
0
 40
0
 40
0
 40
1
 40
1
 40
1
 40
1
 10
-9.067378
 20
3.938613
 30
0.0
 10
-9.075371
 20
4.024299
 30
0.0
 10
-9.106904
 20
4.106618
 30
0.0
 10
-9.140787
 20
4.185207
 30
0.0
  0
SPLINE
  5
10d
100
AcDbEntity
  8
Layer_1
 62
7
100
AcDbSpline
 70
8
 71
3
 72
8
 73
4
 74
0
 40
0
 40
0
 40
0
 40
0
 40
1
 40
1
 40
1
 40
1
 10
-9.140787
 20
4.185207
 30
0.0
 10
-9.177983
 20
4.261564
 30
0.0
 10
-9.218331
 20
4.347541
 30
0.0
 10
-9.301462
 20
4.382765
 30
0.0
  0
SPLINE
  5
10e
100
AcDbEntity
  8
Layer_1
 62
7
100
AcDbSpline
 70
8
 71
3
 72
8
 73
4
 74
0
 40
0
 40
0
 40
0
 40
0
 40
1
 40
1
 40
1
 40
1
 10
-9.301462
 20
4.382765
 30
0.0
 10
-9.419431
 20
4.435510
 30
0.0
 10
-9.551276
 20
4.446906
 30
0.0
 10
-9.678861
 20
4.453533
 30
0.0
  0
LWPOLYLINE
  5
10f
100
AcDbEntity
  8
Layer_1
 62
7
100
AcDbPolyline
 90
1
 70
1
 10
-8.568805
 20
4.616635
 30
0.0
  0
SPLINE
  5
110
100
AcDbEntity
  8
Layer_1
 62
7
100
AcDbSpline
 70
8
 71
3
 72
8
 73
4
 74
0
 40
0
 40
0
 40
0
 40
0
 40
1
 40
1
 40
1
 40
1
 10
-10.414208
 20
4.439615
 30
0.0
 10
-10.559498
 20
4.478847
 30
0.0
 10
-10.661810
 20
4.651631
 30
0.0
 10
-10.633557
 20
4.810048
 30
0.0
  0
SPLINE
  5
111
100
AcDbEntity
  8
Layer_1
 62
7
100
AcDbSpline
 70
8
 71
3
 72
8
 73
4
 74
0
 40
0
 40
0
 40
0
 40
0
 40
1
 40
1
 40
1
 40
1
 10
-10.633557
 20
4.810048
 30
0.0
 10
-10.623082
 20
4.868780
 30
0.0
 10
-10.593756
 20
4.909854
 30
0.0
 10
-10.546482
 20
4.932008
 30
0.0
  0
SPLINE
  5
112
100
AcDbEntity
  8
Layer_1
 62
7
100
AcDbSpline
 70
8
 71
3
 72
8
 73
4
 74
0
 40
0
 40
0
 40
0
 40
0
 40
1
 40
1
 40
1
 40
1
 10
-10.546482
 20
4.932008
 30
0.0
 10
-10.527422
 20
4.940940
 30
0.0
 10
-10.520566
 20
4.942078
 30
0.0
 10
-10.485777
 20
4.942078
 30
0.0
  0
SPLINE
  5
113
100
AcDbEntity
  8
Layer_1
 62
7
100
AcDbSpline
 70
8
 71
3
 72
8
 73
4
 74
0
 40
0
 40
0
 40
0
 40
0
 40
1
 40
1
 40
1
 40
1
 10
-10.485777
 20
4.942078
 30
0.0
 10
-10.449244
 20
4.942078
 30
0.0
 10
-10.444797
 20
4.941243
 30
0.0
 10
-10.420812
 20
4.929884
 30
0.0
  0
SPLINE
  5
114
100
AcDbEntity
  8
Layer_1
 62
7
100
AcDbSpline
 70
8
 71
3
 72
8
 73
4
 74
0
 40
0
 40
0
 40
0
 40
0
 40
1
 40
1
 40
1
 40
1
 10
-10.420812
 20
4.929884
 30
0.0
 10
-10.291135
 20
4.868472
 30
0.0
 10
-10.209195
 20
4.713272
 30
0.0
 10
-10.233312
 20
4.574747
 30
0.0
  0
SPLINE
  5
115
100
AcDbEntity
  8
Layer_1
 62
7
100
AcDbSpline
 70
8
 71
3
 72
8
 73
4
 74
0
 40
0
 40
0
 40
0
 40
0
 40
1
 40
1
 40
1
 40
1
 10
-10.233312
 20
4.574747
 30
0.0
 10
-10.240772
 20
4.531898
 30
0.0
 10
-10.252753
 20
4.505754
 30
0.0
 10
-10.277175
 20
4.479032
 30
0.0
  0
SPLINE
  5
116
100
AcDbEntity
  8
Layer_1
 62
7
100
AcDbSpline
 70
8
 71
3
 72
8
 73
4
 74
0
 40
0
 40
0
 40
0
 40
0
 40
1
 40
1
 40
1
 40
1
 10
-10.277175
 20
4.479032
 30
0.0
 10
-10.313819
 20
4.438938
 30
0.0
 10
-10.361214
 20
4.425305
 30
0.0
 10
-10.414208
 20
4.439615
 30
0.0
  0
LWPOLYLINE
  5
117
100
AcDbEntity
  8
Layer_1
 62
7
100
AcDbPolyline
 90
1
 70
1
 10
-9.678861
 20
4.453533
 30
0.0
  0
SPLINE
  5
118
100
AcDbEntity
  8
Layer_1
 62
7
100
AcDbSpline
 70
8
 71
3
 72
8
 73
4
 74
0
 40
0
 40
0
 40
0
 40
0
 40
1
 40
1
 40
1
 40
1
 10
-9.097144
 20
4.441962
 30
0.0
 10
-9.144852
 20
4.459369
 30
0.0
 10
-9.181977
 20
4.502991
 30
0.0
 10
-9.199597
 20
4.562348
 30
0.0
  0
SPLINE
  5
119
100
AcDbEntity
  8
Layer_1
 62
7
100
AcDbSpline
 70
8
 71
3
 72
8
 73
4
 74
0
 40
0
 40
0
 40
0
 40
0
 40
1
 40
1
 40
1
 40
1
 10
-9.199597
 20
4.562348
 30
0.0
 10
-9.221903
 20
4.637485
 30
0.0
 10
-9.198393
 20
4.753128
 30
0.0
 10
-9.144780
 20
4.831983
 30
0.0
  0
SPLINE
  5
11a
100
AcDbEntity
  8
Layer_1
 62
7
100
AcDbSpline
 70
8
 71
3
 72
8
 73
4
 74
0
 40
0
 40
0
 40
0
 40
0
 40
1
 40
1
 40
1
 40
1
 10
-9.144780
 20
4.831983
 30
0.0
 10
-9.093879
 20
4.906850
 30
0.0
 10
-9.019853
 20
4.952838
 30
0.0
 10
-8.949906
 20
4.953048
 30
0.0
  0
SPLINE
  5
11b
100
AcDbEntity
  8
Layer_1
 62
7
100
AcDbSpline
 70
8
 71
3
 72
8
 73
4
 74
0
 40
0
 40
0
 40
0
 40
0
 40
1
 40
1
 40
1
 40
1
 10
-8.949906
 20
4.953048
 30
0.0
 10
-8.860586
 20
4.953324
 30
0.0
 10
-8.793320
 20
4.859025
 30
0.0
 10
-8.799780
 20
4.742605
 30
0.0
  0
SPLINE
  5
11c
100
AcDbEntity
  8
Layer_1
 62
7
100
AcDbSpline
 70
8
 71
3
 72
8
 73
4
 74
0
 40
0
 40
0
 40
0
 40
0
 40
1
 40
1
 40
1
 40
1
 10
-8.799780
 20
4.742605
 30
0.0
 10
-8.807210
 20
4.608702
 30
0.0
 10
-8.889229
 20
4.483664
 30
0.0
 10
-8.993389
 20
4.447446
 30
0.0
  0
SPLINE
  5
11d
100
AcDbEntity
  8
Layer_1
 62
7
100
AcDbSpline
 70
8
 71
3
 72
8
 73
4
 74
0
 40
0
 40
0
 40
0
 40
0
 40
1
 40
1
 40
1
 40
1
 10
-8.993389
 20
4.447446
 30
0.0
 10
-9.025209
 20
4.436381
 30
0.0
 10
-9.074683
 20
4.433767
 30
0.0
 10
-9.097144
 20
4.441962
 30
0.0
  0
LWPOLYLINE
  5
11e
100
AcDbEntity
  8
Layer_1
 62
7
100
AcDbPolyline
 90
1
 70
1
 10
-10.414208
 20
4.439615
 30
0.0
  0
SPLINE
  5
11f
100
AcDbEntity
  8
Layer_1
 62
7
100
AcDbSpline
 70
8
 71
3
 72
8
 73
4
 74
0
 40
0
 40
0
 40
0
 40
0
 40
1
 40
1
 40
1
 40
1
 10
-9.993873
 20
4.706702
 30
0.0
 10
-10.040692
 20
4.726450
 30
0.0
 10
-10.074033
 20
4.751970
 30
0.0
 10
-10.107599
 20
4.793752
 30
0.0
  0
SPLINE
  5
120
100
AcDbEntity
  8
Layer_1
 62
7
100
AcDbSpline
 70
8
 71
3
 72
8
 73
4
 74
0
 40
0
 40
0
 40
0
 40
0
 40
1
 40
1
 40
1
 40
1
 10
-10.107599
 20
4.793752
 30
0.0
 10
-10.188061
 20
4.893911
 30
0.0
 10
-10.210771
 20
5.067206
 30
0.0
 10
-10.156885
 20
5.169841
 30
0.0
  0
SPLINE
  5
121
100
AcDbEntity
  8
Layer_1
 62
7
100
AcDbSpline
 70
8
 71
3
 72
8
 73
4
 74
0
 40
0
 40
0
 40
0
 40
0
 40
1
 40
1
 40
1
 40
1
 10
-10.156885
 20
5.169841
 30
0.0
 10
-10.140470
 20
5.201106
 30
0.0
 10
-10.100740
 20
5.240757
 30
0.0
 10
-10.073191
 20
5.253369
 30
0.0
  0
SPLINE
  5
122
100
AcDbEntity
  8
Layer_1
 62
7
100
AcDbSpline
 70
8
 71
3
 72
8
 73
4
 74
0
 40
0
 40
0
 40
0
 40
0
 40
1
 40
1
 40
1
 40
1
 10
-10.073191
 20
5.253369
 30
0.0
 10
-10.026038
 20
5.274957
 30
0.0
 10
-9.971235
 20
5.267527
 30
0.0
 10
-9.917181
 20
5.232219
 30
0.0
  0
SPLINE
  5
123
100
AcDbEntity
  8
Layer_1
 62
7
100
AcDbSpline
 70
8
 71
3
 72
8
 73
4
 74
0
 40
0
 40
0
 40
0
 40
0
 40
1
 40
1
 40
1
 40
1
 10
-9.917181
 20
5.232219
 30
0.0
 10
-9.840386
 20
5.182056
 30
0.0
 10
-9.789593
 20
5.087369
 30
0.0
 10
-9.776527
 20
4.970016
 30
0.0
  0
SPLINE
  5
124
100
AcDbEntity
  8
Layer_1
 62
7
100
AcDbSpline
 70
8
 71
3
 72
8
 73
4
 74
0
 40
0
 40
0
 40
0
 40
0
 40
1
 40
1
 40
1
 40
1
 10
-9.776527
 20
4.970016
 30
0.0
 10
-9.763660
 20
4.854457
 30
0.0
 10
-9.808926
 20
4.748220
 30
0.0
 10
-9.886837
 20
4.711126
 30
0.0
  0
SPLINE
  5
125
100
AcDbEntity
  8
Layer_1
 62
7
100
AcDbSpline
 70
8
 71
3
 72
8
 73
4
 74
0
 40
0
 40
0
 40
0
 40
0
 40
1
 40
1
 40
1
 40
1
 10
-9.886837
 20
4.711126
 30
0.0
 10
-9.918941
 20
4.695840
 30
0.0
 10
-9.963734
 20
4.693989
 30
0.0
 10
-9.993873
 20
4.706702
 30
0.0
  0
LWPOLYLINE
  5
126
100
AcDbEntity
  8
Layer_1
 62
7
100
AcDbPolyline
 90
1
 70
1
 10
-9.097144
 20
4.441962
 30
0.0
  0
SPLINE
  5
127
100
AcDbEntity
  8
Layer_1
 62
7
100
AcDbSpline
 70
8
 71
3
 72
8
 73
4
 74
0
 40
0
 40
0
 40
0
 40
0
 40
1
 40
1
 40
1
 40
1
 10
-9.520709
 20
4.705946
 30
0.0
 10
-9.567561
 20
4.722057
 30
0.0
 10
-9.600847
 20
4.752451
 30
0.0
 10
-9.627471
 20
4.803431
 30
0.0
  0
SPLINE
  5
128
100
AcDbEntity
  8
Layer_1
 62
7
100
AcDbSpline
 70
8
 71
3
 72
8
 73
4
 74
0
 40
0
 40
0
 40
0
 40
0
 40
1
 40
1
 40
1
 40
1
 10
-9.627471
 20
4.803431
 30
0.0
 10
-9.651587
 20
4.849607
 30
0.0
 10
-9.658449
 20
4.880897
 30
0.0
 10
-9.658425
 20
4.944566
 30
0.0
  0
SPLINE
  5
129
100
AcDbEntity
  8
Layer_1
 62
7
100
AcDbSpline
 70
8
 71
3
 72
8
 73
4
 74
0
 40
0
 40
0
 40
0
 40
0
 40
1
 40
1
 40
1
 40
1
 10
-9.658425
 20
4.944566
 30
0.0
 10
-9.658397
 20
5.005106
 30
0.0
 10
-9.651380
 20
5.044760
 30
0.0
 10
-9.631712
 20
5.095410
 30
0.0
  0
SPLINE
  5
12a
100
AcDbEntity
  8
Layer_1
 62
7
100
AcDbSpline
 70
8
 71
3
 72
8
 73
4
 74
0
 40
0
 40
0
 40
0
 40
0
 40
1
 40
1
 40
1
 40
1
 10
-9.631712
 20
5.095410
 30
0.0
 10
-9.589554
 20
5.203982
 30
0.0
 10
-9.496799
 20
5.279523
 30
0.0
 10
-9.414934
 20
5.271957
 30
0.0
  0
SPLINE
  5
12b
100
AcDbEntity
  8
Layer_1
 62
7
100
AcDbSpline
 70
8
 71
3
 72
8
 73
4
 74
0
 40
0
 40
0
 40
0
 40
0
 40
1
 40
1
 40
1
 40
1
 10
-9.414934
 20
5.271957
 30
0.0
 10
-9.366158
 20
5.267449
 30
0.0
 10
-9.314387
 20
5.231905
 30
0.0
 10
-9.284388
 20
5.182327
 30
0.0
  0
SPLINE
  5
12c
100
AcDbEntity
  8
Layer_1
 62
7
100
AcDbSpline
 70
8
 71
3
 72
8
 73
4
 74
0
 40
0
 40
0
 40
0
 40
0
 40
1
 40
1
 40
1
 40
1
 10
-9.284388
 20
5.182327
 30
0.0
 10
-9.266310
 20
5.152452
 30
0.0
 10
-9.254969
 20
5.116069
 30
0.0
 10
-9.249864
 20
5.071570
 30
0.0
  0
SPLINE
  5
12d
100
AcDbEntity
  8
Layer_1
 62
7
100
AcDbSpline
 70
8
 71
3
 72
8
 73
4
 74
0
 40
0
 40
0
 40
0
 40
0
 40
1
 40
1
 40
1
 40
1
 10
-9.249864
 20
5.071570
 30
0.0
 10
-9.233414
 20
4.928194
 30
0.0
 10
-9.292960
 20
4.787608
 30
0.0
 10
-9.396620
 20
4.725089
 30
0.0
  0
SPLINE
  5
12e
100
AcDbEntity
  8
Layer_1
 62
7
100
AcDbSpline
 70
8
 71
3
 72
8
 73
4
 74
0
 40
0
 40
0
 40
0
 40
0
 40
1
 40
1
 40
1
 40
1
 10
-9.396620
 20
4.725089
 30
0.0
 10
-9.441761
 20
4.697863
 30
0.0
 10
-9.480033
 20
4.691959
 30
0.0
 10
-9.520709
 20
4.705946
 30
0.0
  0
LWPOLYLINE
  5
12f
100
AcDbEntity
  8
Layer_1
 62
7
100
AcDbPolyline
 90
1
 70
1
 10
-9.993873
 20
4.706702
 30
0.0
  0
SPLINE
  5
130
100
AcDbEntity
  8
Layer_1
 62
7
100
AcDbSpline
 70
8
 71
3
 72
8
 73
4
 74
0
 40
0
 40
0
 40
0
 40
0
 40
1
 40
1
 40
1
 40
1
 10
-9.618805
 20
5.457143
 30
0.0
 10
-9.618805
 20
5.421416
 30
0.0
 10
-9.637865
 20
5.388403
 30
0.0
 10
-9.668805
 20
5.370540
 30
0.0
  0
SPLINE
  5
131
100
AcDbEntity
  8
Layer_1
 62
7
100
AcDbSpline
 70
8
 71
3
 72
8
 73
4
 74
0
 40
0
 40
0
 40
0
 40
0
 40
1
 40
1
 40
1
 40
1
 10
-9.668805
 20
5.370540
 30
0.0
 10
-9.699745
 20
5.352677
 30
0.0
 10
-9.737865
 20
5.352677
 30
0.0
 10
-9.768805
 20
5.370540
 30
0.0
  0
SPLINE
  5
132
100
AcDbEntity
  8
Layer_1
 62
7
100
AcDbSpline
 70
8
 71
3
 72
8
 73
4
 74
0
 40
0
 40
0
 40
0
 40
0
 40
1
 40
1
 40
1
 40
1
 10
-9.768805
 20
5.370540
 30
0.0
 10
-9.799745
 20
5.388403
 30
0.0
 10
-9.818805
 20
5.421416
 30
0.0
 10
-9.818805
 20
5.457143
 30
0.0
  0
SPLINE
  5
133
100
AcDbEntity
  8
Layer_1
 62
7
100
AcDbSpline
 70
8
 71
3
 72
8
 73
4
 74
0
 40
0
 40
0
 40
0
 40
0
 40
1
 40
1
 40
1
 40
1
 10
-9.818805
 20
5.457143
 30
0.0
 10
-9.818805
 20
5.512371
 30
0.0
 10
-9.774034
 20
5.557143
 30
0.0
 10
-9.718805
 20
5.557143
 30
0.0
  0
SPLINE
  5
134
100
AcDbEntity
  8
Layer_1
 62
7
100
AcDbSpline
 70
8
 71
3
 72
8
 73
4
 74
0
 40
0
 40
0
 40
0
 40
0
 40
1
 40
1
 40
1
 40
1
 10
-9.718805
 20
5.557143
 30
0.0
 10
-9.663577
 20
5.557143
 30
0.0
 10
-9.618805
 20
5.512371
 30
0.0
 10
-9.618805
 20
5.457143
 30
0.0
  0
LWPOLYLINE
  5
135
100
AcDbEntity
  8
Layer_1
 62
7
100
AcDbPolyline
 90
1
 70
1
 10
-9.520709
 20
4.705946
 30
0.0
  0
LWPOLYLINE
  5
136
100
AcDbEntity
  8
Layer_1
 62
7
100
AcDbPolyline
 90
1
 70
1
 10
-9.618805
 20
5.457143
 30
0.0
  0
ENDSEC
  0
SECTION
  2
OBJECTS
  0
DICTIONARY
  5
C
330
0
100
AcDbDictionary
  3
ACAD_GROUP
350
D
  3
ACAD_MLINESTYLE
350
17
  0
DICTIONARY
  5
D
330
C
100
AcDbDictionary
  0
DICTIONARY
  5
1A
330
C
100
AcDbDictionary
  0
DICTIONARY
  5
17
330
C
100
AcDbDictionary
  3
STANDARD
350
18
  0
DICTIONARY
  5
19
330
C
100
AcDbDictionary
  0
ENDSEC
  0
EOF
