  0
SECTION
  2
HEADER
  9
$ACADVER
  1
AC1015
  9
$ACADMAINTVER
 70
     6
  9
$DWGCODEPAGE
  3
DOS850
  9
$INSBASE
 10
0.0
 20
0.0
 30
0.0
  9
$EXTMIN
 10
-4.97571
 20
-5.6673
 30
1.000000E 20
  9
$EXTMAX
 10
4.98192
 20
5.66163
 30
-1.000000E 20
  9
$LIMMIN
 10
0.0
 20
0.0
  9
$LIMMAX
 10
0.0
 20
0.0
  9
$ORTHOMODE
 70
     0
  9
$REGENMODE
 70
     1
  9
$FILLMODE
 70
     1
  9
$QTEXTMODE
 70
     0
  9
$MIRRTEXT
 70
     1
  9
$LTSCALE
 40
1.0
  9
$ATTMODE
 70
     1
  9
$TEXTSIZE
 40
0.2
  9
$TRACEWID
 40
0.05
  9
$TEXTSTYLE
  7
Standard
  9
$CLAYER
  8
0
  9
$CELTYPE
  6
Continuous
  9
$CECOLOR
 62
   256
  9
$CELTSCALE
 40
1.0
  9
$DISPSILH
 70
     0
  9
$DIMSCALE
 40
1.0
  9
$DIMASZ
 40
0.18
  9
$DIMEXO
 40
0.0625
  9
$DIMDLI
 40
0.38
  9
$DIMRND
 40
0.0
  9
$DIMDLE
 40
0.0
  9
$DIMEXE
 40
0.18
  9
$DIMTP
 40
0.0
  9
$DIMTM
 40
0.0
  9
$DIMTXT
 40
0.18
  9
$DIMCEN
 40
0.09
  9
$DIMTSZ
 40
0.0
  9
$DIMTOL
 70
     0
  9
$DIMLIM
 70
     0
  9
$DIMTIH
 70
     1
  9
$DIMTOH
 70
     1
  9
$DIMSE1
 70
     0
  9
$DIMSE2
 70
     0
  9
$DIMTAD
 70
     0
  9
$DIMZIN
 70
     0
  9
$DIMBLK
  1

  9
$DIMASO
 70
     1
  9
$DIMSHO
 70
     1
  9
$DIMPOST
  1

  9
$DIMAPOST
  1

  9
$DIMALT
 70
     0
  9
$DIMALTD
 70
     2
  9
$DIMALTF
 40
25.4
  9
$DIMLFAC
 40
1.0
  9
$DIMTOFL
 70
     0
  9
$DIMTVP
 40
0.0
  9
$DIMTIX
 70
     0
  9
$DIMSOXD
 70
     0
  9
$DIMSAH
 70
     0
  9
$DIMBLK1
  1

  9
$DIMBLK2
  1

  9
$DIMSTYLE
  2
Standard
  9
$DIMCLRD
 70
     0
  9
$DIMCLRE
 70
     0
  9
$DIMCLRT
 70
     0
  9
$DIMTFAC
 40
1.0
  9
$DIMGAP
 40
0.09
  9
$DIMJUST
 70
     0
  9
$DIMSD1
 70
     0
  9
$DIMSD2
 70
     0
  9
$DIMTOLJ
 70
     1
  9
$DIMTZIN
 70
     0
  9
$DIMALTZ
 70
     0
  9
$DIMALTTZ
 70
     0
  9
$DIMUPT
 70
     0
  9
$DIMDEC
 70
     4
  9
$DIMTDEC
 70
     4
  9
$DIMALTU
 70
     2
  9
$DIMALTTD
 70
     2
  9
$DIMTXSTY
  7
Standard
  9
$DIMAUNIT
 70
     0
  9
$DIMADEC
 70
     0
  9
$DIMALTRND
 40
0.0
  9
$DIMAZIN
 70
     0
  9
$DIMDSEP
 70
     0
  9
$DIMATFIT
 70
     3
  9
$DIMFRAC
 70
     0
  9
$DIMLDRBLK
  1

  9
$DIMLUNIT
 70
     2
  9
$DIMLWD
 70
     0
  9
$DIMLWE
 70
     0
  9
$DIMTMOVE
 70
     0
  9
$LUNITS
 70
     2
  9
$LUPREC
 70
     4
  9
$SKETCHINC
 40
0.1
  9
$FILLETRAD
 40
0.0
  9
$AUNITS
 70
     0
  9
$AUPREC
 70
     0
  9
$MENU
  1
acad
  9
$ELEVATION
 40
0.0
  9
$PELEVATION
 40
0.0
  9
$THICKNESS
 40
0.0
  9
$LIMCHECK
 70
     0
  9
$CHAMFERA
 40
0.0
  9
$CHAMFERB
 40
0.0
  9
$CHAMFERC
 40
0.0
  9
$CHAMFERD
 40
0.0
  9
$SKPOLY
 70
     0
  9
$TDCREATE
 40
0.000000000
  9
$TDUCREATE
 40
0.000000000
  9
$TDUPDATE
 40
0.000000000
  9
$TDUUPDATE
 40
0.000000000
  9
$TDINDWG
 40
0.0000000000
  9
$TDUSRTIMER
 40
0.0000000000
  9
$USRTIMER
 70
     1
  9
$ANGBASE
 50
0.0
  9
$ANGDIR
 70
     0
  9
$PDMODE
 70
     0
  9
$PDSIZE
 40
0.0
  9
$PLINEWID
 40
0.0
  9
$SPLFRAME
 70
     0
  9
$SPLINETYPE
 70
     6
  9
$SPLINESEGS
 70
     8
  9
$HANDSEED
  5
3F
  9
$SURFTAB1
 70
     6
  9
$SURFTAB2
 70
     6
  9
$SURFTYPE
 70
     6
  9
$SURFU
 70
     6
  9
$SURFV
 70
     6
  9
$UCSBASE
  2

  9
$UCSNAME
  2

  9
$UCSORG
 10
0.0
 20
0.0
 30
0.0
  9
$UCSXDIR
 10
1.0
 20
0.0
 30
0.0
  9
$UCSYDIR
 10
0.0
 20
1.0
 30
0.0
  9
$UCSORTHOREF
  2

  9
$UCSORTHOVIEW
 70
     0
  9
$UCSORGTOP
 10
0.0
 20
0.0
 30
0.0
  9
$UCSORGBOTTOM
 10
0.0
 20
0.0
 30
0.0
  9
$UCSORGLEFT
 10
0.0
 20
0.0
 30
0.0
  9
$UCSORGRIGHT
 10
0.0
 20
0.0
 30
0.0
  9
$UCSORGFRONT
 10
0.0
 20
0.0
 30
0.0
  9
$UCSORGBACK
 10
0.0
 20
0.0
 30
0.0
  9
$PUCSBASE
  2

  9
$PUCSNAME
  2

  9
$PUCSORG
 10
0.0
 20
0.0
 30
0.0
  9
$PUCSXDIR
 10
1.0
 20
0.0
 30
0.0
  9
$PUCSYDIR
 10
0.0
 20
1.0
 30
0.0
  9
$PUCSORTHOREF
  2

  9
$PUCSORTHOVIEW
 70
     0
  9
$PUCSORGTOP
 10
0.0
 20
0.0
 30
0.0
  9
$PUCSORGBOTTOM
 10
0.0
 20
0.0
 30
0.0
  9
$PUCSORGLEFT
 10
0.0
 20
0.0
 30
0.0
  9
$PUCSORGRIGHT
 10
0.0
 20
0.0
 30
0.0
  9
$PUCSORGFRONT
 10
0.0
 20
0.0
 30
0.0
  9
$PUCSORGBACK
 10
0.0
 20
0.0
 30
0.0
  9
$USERI1
 70
     0
  9
$USERI2
 70
     0
  9
$USERI3
 70
     0
  9
$USERI4
 70
     0
  9
$USERI5
 70
     0
  9
$USERR1
 40
0.0
  9
$USERR2
 40
0.0
  9
$USERR3
 40
0.0
  9
$USERR4
 40
0.0
  9
$USERR5
 40
0.0
  9
$WORLDVIEW
 70
     1
  9
$SHADEDGE
 70
     3
  9
$SHADEDIF
 70
    70
  9
$TILEMODE
 70
     1
  9
$MAXACTVP
 70
    16
  9
$PINSBASE
 10
0.0
 20
0.0
 30
0.0
  9
$PLIMCHECK
 70
     0
  9
$PEXTMIN
 10
1.000000E 20
 20
1.000000E 20
 30
1.000000E 20
  9
$PEXTMAX
 10
-1.000000E 20
 20
-1.000000E 20
 30
-1.000000E 20
  9
$PLIMMIN
 10
0.0
 20
0.0
  9
$PLIMMAX
 10
12.0
 20
9.0
  9
$UNITMODE
 70
     0
  9
$VISRETAIN
 70
     0
  9
$PLINEGEN
 70
     1
  9
$PSLTSCALE
 70
     0
  9
$TREEDEPTH
 70
  3020
  9
$CMLSTYLE
  2
Standard
  9
$CMLJUST
 70
     0
  9
$CMLSCALE
 40
1.0
  9
$PROXYGRAPHICS
 70
     0
  9
$MEASUREMENT
 70
     0
  9
$CELWEIGHT
370
     0
  9
$ENDCAPS
280
     0
  9
$JOINSTYLE
280
     0
  9
$LWDISPLAY
290
     0
  9
$INSUNITS
 70
     5
  9
$HYPERLINKBASE
  1

  9
$XEDIT
290
     1
  9
$CEPSNTYPE
380
     0
  9
$PSTYLEMODE
290
     1
  9
$FINGERPRINTGUID
  2

  9
$VERSIONGUID
  2

  9
$EXTNAMES
290
     1
  9
$PSVPSCALE
 40
0.0
  0
ENDSEC
  0
SECTION
  2
CLASSES
  0
CLASS
  1
LWPOLYLINE
  2
AcDbPolyline
  3
AutoCAD 2000
 90
    32768
280
     0
281
     1
  0
CLASS
  1
IMAGE
  2
AcDbRasterImage
  3
ISM
 90
    32895
280
     0
281
     1
  0
CLASS
  1
OLE2FRAME
  2
AcDbOle2Frame
  3
AutoCAD 2000
 90
    32768
280
     0
281
     1
  0
CLASS
  1
HATCH
  2
AcDbHatch
  3
AutoCAD 2000
 90
    32768
280
     0
281
     1
  0
CLASS
  1
DICTIONARYVAR
  2
AcDbDictionaryVar
  3
AutoCAD 2000
 90
    32768
280
     0
281
     0
  0
CLASS
  1
RASTERVARIABLES
  2
AcDbRasterVariables
  3
ISM
 90
    32768
280
     0
281
     0
  0
CLASS
  1
IMAGEDEF
  2
AcDbRasterImageDef
  3
ISM
 90
    32768
280
     0
281
     0
  0
CLASS
  1
IMAGEDEF_REACTOR
  2
AcDbRasterImageDefReactor
  3
ISM
 90
    32769
280
     0
281
     0
  0
CLASS
  1
IDBUFFER
  2
AcDbIdBuffer
  3
AutoCAD 2000
 90
    32768
280
     0
281
     0
  0
CLASS
  1
SPATIAL_FILTER
  2
AcDbSpatialFilter
  3
AutoCAD 2000
 90
    32768
280
     0
281
     0
  0
CLASS
  1
XRECORD
  2
AcDbXrecord
  3
AutoCAD 2000
 90
    32768
280
     0
281
     0
  0
CLASS
  1
SORTENTSTABLE
  2
AcDbSortentsTable
  3
AutoCAD 2000
 90
    32768
280
     0
281
     0
  0
CLASS
  1
LAYER_INDEX
  2
AcDbLayerIndex
  3
AutoCAD 2000
 90
    32768
280
     0
281
     0
  0
CLASS
  1
SPATIAL_INDEX
  2
AcDbSpatialIndex
  3
AutoCAD 2000
 90
    32768
280
     0
281
     0
  0
CLASS
  1
OBJECT_PTR
  2
CAseDLPNTableRecord
  3
\"ASE-LPNTableRecord\"
 90
    32769
280
     0
281
     0
  0
CLASS
  1
LAYOUT
  2
AcDbLayout
  3
AutoCAD 2000
 90
        0
280
     0
281
     0
  0
CLASS
  1
PLOTSETTINGS
  2
AcDbPlotSettings
  3
AutoCAD 2000
 90
    32768
280
     0
281
     0
  0
CLASS
  1
ACDBDICTIONARYWDFLT
  2
AcDbDictionaryWithDefault
  3
AutoCAD 2000
 90
        0
280
     0
281
     0
  0
CLASS
  1
ACDBPLACEHOLDER
  2
AcDbPlaceHolder
  3
AutoCAD 2000
 90
        0
280
     0
281
     0
  0
CLASS
  1
VBA_PROJECT
  2
AcDbVbaProject
  3
acadvba
 90
    32768
280
     0
281
     0
  0
CLASS
  1
WIPEOUT
  2
AcDbWipeout
  3
WipeOut|AutoCAD Express Tool|expresstools@autodesk.com
 90
    32895
280
     0
281
     1
  0
CLASS
  1
WIPEOUTVARIABLES
  2
AcDbWipeoutVariables
  3
WipeOut|AutoCAD Express Tool|expresstools@autodesk.com
 90
        0
280
     0
281
     0
  0
CLASS
  1
RTEXT
  2
RText
  3
RText|AutoCAD Express Tool|expresstools@autodesk.com
 90
    32768
280
     0
281
     1
  0
CLASS
  1
ARCALIGNEDTEXT
  2
AcDbArcAlignedText
  3
ATEXT|AutoCAD Express Tool|expresstools@autodesk.com
 90
    32768
280
     0
281
     1
  0
ENDSEC
  0
SECTION
  2
TABLES
  0
TABLE
  2
VPORT
  5
7
100
AcDbSymbolTable
 70
     1
  0
VPORT
  5
15
100
AcDbSymbolTableRecord
100
AcDbViewportTableRecord
  2
*ACTIVE
 70
     0
 10
0.0
 20
0.0
 11
1.0
 21
1.0
 12
6.591288
 22
4.579184
 13
0.0
 23
0.0
 14
1.0
 24
1.0
 15
0.0
 25
0.0
 16
0.0
 26
0.0
 36
1.0
 17
0.0
 27
0.0
 37
0.0
 40
9.158369
 41
0.688564
 42
50.0
 43
0.0
 44
0.0
 50
0.0
 51
0.0
 71
     0
 72
   100
 73
     1
 74
     1
 75
     0
 76
     0
 77
     0
 78
     0
281
     0
 65
     0
110
0.0
120
0.0
130
0.0
111
1.0
121
0.0
131
0.0
112
0.0
122
1.0
132
0.0
345
0
346
0
 79
     0
146
0.0
  0
ENDTAB
  0
TABLE
  2
LTYPE
  5
4
100
AcDbSymbolTable
 70
     3
  0
LTYPE
  5
11
100
AcDbSymbolTableRecord
100
AcDbLinetypeTableRecord
  2
ByBlock
 70
    64
  3

 72
    65
 73
     0
 40
0.0
  0
LTYPE
  5
12
100
AcDbSymbolTableRecord
100
AcDbLinetypeTableRecord
  2
ByLayer
 70
    64
  3

 72
    65
 73
     0
 40
0.0
  0
LTYPE
  5
13
100
AcDbSymbolTableRecord
100
AcDbLinetypeTableRecord
  2
Continuous
 70
    64
  3
Solid line
 72
    65
 73
     0
 40
0.0
  0
ENDTAB
  0
TABLE
  2
LAYER
  5
2
100
AcDbSymbolTable
 70
     2
  0
LAYER
  5
14
100
AcDbSymbolTableRecord
100
AcDbLayerTableRecord
  2
0
 70
     0
 62
     7
  6
Continuous
290
     1
370
    -3
390
1D
  0
LAYER
  5
24
100
AcDbSymbolTableRecord
100
AcDbLayerTableRecord
  2
Ebene 1
 70
     0
 62
     7
  6
Continuous
290
     1
370
    -3
390
1F
  0
ENDTAB
  0
TABLE
  2
STYLE
  5
3
100
AcDbSymbolTable
 70
     1
  0
STYLE
  5
17
100
AcDbSymbolTableRecord
100
AcDbTextStyleTableRecord
  2
Standard
 70
     0
 40
0.0
 41
1.0
 50
0.0
 71
     0
 42
0.0
  3
txt
  4

  0
ENDTAB
  0
TABLE
  2
VIEW
  5
5
100
AcDbSymbolTable
 70
     0
  0
ENDTAB
  0
TABLE
  2
UCS
  5
6
100
AcDbSymbolTable
 70
     0
  0
ENDTAB
  0
TABLE
  2
APPID
  5
8
100
AcDbSymbolTable
 70
     1
  0
APPID
  5
16
100
AcDbSymbolTableRecord
100
AcDbRegAppTableRecord
  2
ACAD
 70
     0
  0
ENDTAB
  0
TABLE
  2
DIMSTYLE
  5
9
100
AcDbSymbolTable
 70
     1
100
AcDbDimStyleTable
 71
     0
  0
DIMSTYLE
105
18
100
AcDbSymbolTableRecord
100
AcDbDimStyleTableRecord
  2
Standard
 70
     0
  3

  4

 40
1.0
 41
0.18
 42
0.0625
 43
0.38
 44
0.18
 45
0.0
 46
0.0
 47
0.0
 48
0.0
 71
     0
 72
     0
 73
     1
 74
     1
 75
     0
 76
     0
 77
     0
 78
     0
 79
     0
140
0.18
141
0.09
142
0.0
143
25.4
144
1.0
145
0.0
146
1.0
147
0.09
148
0.0
170
     0
171
     2
172
     0
173
     0
174
     0
175
     0
176
     0
177
     0
178
     0
179
     0
271
     4
272
     4
273
     2
274
     2
275
     0
276
     0
277
     2
278
    46
279
     0
280
     0
281
     0
282
     0
283
     1
284
     0
285
     0
286
     0
288
     0
340
17
341
0
342
0
343
0
344
0
371
    -2
372
    -2
  0
ENDTAB
  0
TABLE
  2
BLOCK_RECORD
  5
1
100
AcDbSymbolTable
 70
     0
  0
BLOCK_RECORD
  5
A
100
AcDbSymbolTableRecord
100
AcDbBlockTableRecord
  2
*MODEL_SPACE
340
20
  0
BLOCK_RECORD
  5
B
100
AcDbSymbolTableRecord
100
AcDbBlockTableRecord
  2
*PAPER_SPACE
340
21
  0
ENDTAB
  0
ENDSEC
  0
SECTION
  2
BLOCKS
  0
BLOCK
  5
D
100
AcDbEntity
  8
0
100
AcDbBlockBegin
  2
*MODEL_SPACE
 70
     0
 10
0.0
 20
0.0
 30
0.0
  3
*MODEL_SPACE
  1

  0
ENDBLK
  5
E
100
AcDbEntity
  8
0
100
AcDbBlockEnd
  0
BLOCK
  5
F
100
AcDbEntity
 67
     1
  8
0
100
AcDbBlockBegin
  2
*PAPER_SPACE
 70
     0
 10
0.0
 20
0.0
 30
0.0
  3
*PAPER_SPACE
  1

  0
ENDBLK
  5
10
100
AcDbEntity
 67
     1
  8
0
100
AcDbBlockEnd
  0
ENDSEC
  0
SECTION
  2
ENTITIES
  0
SPLINE
  5
25
100
AcDbEntity
  8
Ebene 1
100
AcDbSpline
210
0.0
220
0.0
230
1.0
 70
     1
 71
     3
 72
   152
 73
   148
 74
     0
 42
0.0000000001
 43
0.0000000001
 40
0.0
 40
0.0
 40
0.0
 40
0.0
 40
0.027027027027027
 40
0.027027027027027
 40
0.027027027027027
 40
0.027027027027027
 40
0.0540540540540541
 40
0.0540540540540541
 40
0.0540540540540541
 40
0.0540540540540541
 40
0.0810810810810811
 40
0.0810810810810811
 40
0.0810810810810811
 40
0.0810810810810811
 40
0.1081081081081081
 40
0.1081081081081081
 40
0.1081081081081081
 40
0.1081081081081081
 40
0.1351351351351351
 40
0.1351351351351351
 40
0.1351351351351351
 40
0.1351351351351351
 40
0.1621621621621622
 40
0.1621621621621622
 40
0.1621621621621622
 40
0.1621621621621622
 40
0.1891891891891892
 40
0.1891891891891892
 40
0.1891891891891892
 40
0.1891891891891892
 40
0.2162162162162162
 40
0.2162162162162162
 40
0.2162162162162162
 40
0.2162162162162162
 40
0.2432432432432433
 40
0.2432432432432433
 40
0.2432432432432433
 40
0.2432432432432433
 40
0.2702702702702703
 40
0.2702702702702703
 40
0.2702702702702703
 40
0.2702702702702703
 40
0.2972972972972973
 40
0.2972972972972973
 40
0.2972972972972973
 40
0.2972972972972973
 40
0.3243243243243243
 40
0.3243243243243243
 40
0.3243243243243243
 40
0.3243243243243243
 40
0.3513513513513514
 40
0.3513513513513514
 40
0.3513513513513514
 40
0.3513513513513514
 40
0.3783783783783784
 40
0.3783783783783784
 40
0.3783783783783784
 40
0.3783783783783784
 40
0.4054054054054054
 40
0.4054054054054054
 40
0.4054054054054054
 40
0.4054054054054054
 40
0.4324324324324325
 40
0.4324324324324325
 40
0.4324324324324325
 40
0.4324324324324325
 40
0.4594594594594595
 40
0.4594594594594595
 40
0.4594594594594595
 40
0.4594594594594595
 40
0.4864864864864865
 40
0.4864864864864865
 40
0.4864864864864865
 40
0.4864864864864865
 40
0.5135135135135136
 40
0.5135135135135136
 40
0.5135135135135136
 40
0.5135135135135136
 40
0.5405405405405406
 40
0.5405405405405406
 40
0.5405405405405406
 40
0.5405405405405406
 40
0.5675675675675675
 40
0.5675675675675675
 40
0.5675675675675675
 40
0.5675675675675675
 40
0.5945945945945945
 40
0.5945945945945945
 40
0.5945945945945945
 40
0.5945945945945945
 40
0.6216216216216215
 40
0.6216216216216215
 40
0.6216216216216215
 40
0.6216216216216215
 40
0.6486486486486485
 40
0.6486486486486485
 40
0.6486486486486485
 40
0.6486486486486485
 40
0.6756756756756754
 40
0.6756756756756754
 40
0.6756756756756754
 40
0.6756756756756754
 40
0.7027027027027024
 40
0.7027027027027024
 40
0.7027027027027024
 40
0.7027027027027024
 40
0.7297297297297294
 40
0.7297297297297294
 40
0.7297297297297294
 40
0.7297297297297294
 40
0.7567567567567564
 40
0.7567567567567564
 40
0.7567567567567564
 40
0.7567567567567564
 40
0.7837837837837833
 40
0.7837837837837833
 40
0.7837837837837833
 40
0.7837837837837833
 40
0.8108108108108103
 40
0.8108108108108103
 40
0.8108108108108103
 40
0.8108108108108103
 40
0.8378378378378373
 40
0.8378378378378373
 40
0.8378378378378373
 40
0.8378378378378373
 40
0.8648648648648643
 40
0.8648648648648643
 40
0.8648648648648643
 40
0.8648648648648643
 40
0.8918918918918912
 40
0.8918918918918912
 40
0.8918918918918912
 40
0.8918918918918912
 40
0.9189189189189182
 40
0.9189189189189182
 40
0.9189189189189182
 40
0.9189189189189182
 40
0.9459459459459452
 40
0.9459459459459452
 40
0.9459459459459452
 40
0.9459459459459452
 40
0.9729729729729721
 40
0.9729729729729721
 40
0.9729729729729721
 40
0.9729729729729721
 40
1.0
 40
1.0
 40
1.0
 40
1.0
 10
1.3412600000000001
 20
5.6560100000000002
 30
0.0
 10
1.6613000000000002
 20
5.6839500000000003
 30
0.0
 10
1.9711800000000002
 20
5.6102900000000009
 30
0.0
 10
2.2023200000000003
 20
5.3842300000000005
 30
0.0
 10
2.2023200000000003
 20
5.3842300000000005
 30
0.0
 10
2.2810600000000001
 20
5.2546900000000001
 30
0.0
 10
2.2658200000000002
 20
5.1073700000000004
 30
0.0
 10
2.25312
 20
4.9600500000000007
 30
0.0
 10
2.25312
 20
4.9600500000000007
 30
0.0
 10
1.6892400000000001
 20
4.0227900000000005
 30
0.0
 10
1.11012
 20
2.8797900000000003
 30
0.0
 10
1.6765400000000001
 20
1.7901300000000002
 30
0.0
 10
1.6765400000000001
 20
1.7901300000000002
 30
0.0
 10
1.7527400000000002
 20
1.6682100000000002
 30
0.0
 10
1.7908400000000002
 20
1.5158100000000001
 30
0.0
 10
1.9330800000000001
 20
1.4573900000000002
 30
0.0
 10
1.9330800000000001
 20
1.4573900000000002
 30
0.0
 10
2.5630000000000002
 20
1.5843900000000002
 30
0.0
 10
3.2056200000000001
 20
1.4167500000000002
 30
0.0
 10
3.7060000000000004
 20
1.0332100000000002
 30
0.0
 10
3.7060000000000004
 20
1.0332100000000002
 30
0.0
 10
4.1428799999999999
 20
0.9163700000000001
 30
0.0
 10
4.7347000000000001
 20
0.8173100000000001
 30
0.0
 10
4.9404400000000006
 20
0.34487
 30
0.0
 10
4.9404400000000006
 20
0.34487
 30
0.0
 10
5.1969800000000008
 20
-0.7320800000000001
 30
0.0
 10
4.2216200000000006
 20
-1.6617200000000001
 30
0.0
 10
3.5637600000000003
 20
-2.39832
 30
0.0
 10
3.5637600000000003
 20
-2.39832
 30
0.0
 10
3.4113600000000002
 20
-2.4719800000000003
 30
0.0
 10
3.2310200000000004
 20
-2.48468
 30
0.0
 10
3.0633800000000004
 20
-2.5075400000000001
 30
0.0
 10
3.0633800000000004
 20
-2.5075400000000001
 30
0.0
 10
3.1268800000000003
 20
-2.7666200000000001
 30
0.0
 10
2.8830400000000003
 20
-2.9825200000000001
 30
0.0
 10
2.6519000000000004
 20
-3.0333200000000002
 30
0.0
 10
2.6519000000000004
 20
-3.0333200000000002
 30
0.0
 10
2.4334600000000002
 20
-2.9723600000000001
 30
0.0
 10
2.4080600000000003
 20
-2.6269200000000001
 30
0.0
 10
2.1134200000000001
 20
-2.64724
 30
0.0
 10
2.1134200000000001
 20
-2.64724
 30
0.0
 10
1.9965800000000002
 20
-2.6294600000000004
 30
0.0
 10
1.8949800000000001
 20
-2.69042
 30
0.0
 10
1.8035400000000001
 20
-2.7513800000000002
 30
0.0
 10
1.8035400000000001
 20
-2.7513800000000002
 30
0.0
 10
1.9711800000000002
 20
-3.5032200000000002
 30
0.0
 10
1.1228200000000002
 20
-3.8842200000000005
 30
0.0
 10
1.3539600000000001
 20
-4.5725600000000002
 30
0.0
 10
1.3539600000000001
 20
-4.5725600000000002
 30
0.0
 10
1.2498200000000002
 20
-4.4328600000000007
 30
0.0
 10
1.0974200000000001
 20
-4.3033200000000003
 30
0.0
 10
0.9297800000000001
 20
-4.2550600000000003
 30
0.0
 10
0.9297800000000001
 20
-4.2550600000000003
 30
0.0
 10
0.89168
 20
-4.4049200000000006
 30
0.0
 10
0.9424800000000001
 20
-4.6132
 30
0.0
 10
0.78754
 20
-4.7148000000000003
 30
0.0
 10
0.78754
 20
-4.7148000000000003
 30
0.0
 10
0.78754
 20
-4.7148000000000003
 30
0.0
 10
0.37606
 20
-4.2042600000000006
 30
0.0
 10
0.37606
 20
-4.2042600000000006
 30
0.0
 10
0.37606
 20
-4.2042600000000006
 30
0.0
 10
0.3887600000000001
 20
-4.3592000000000004
 30
0.0
 10
0.404
 20
-4.5624000000000002
 30
0.0
 10
0.36336
 20
-4.7325800000000005
 30
0.0
 10
0.36336
 20
-4.7325800000000005
 30
0.0
 10
0.36336
 20
-4.7325800000000005
 30
0.0
 10
0.31256
 20
-4.9180000000000001
 30
0.0
 10
0.31256
 20
-4.9180000000000001
 30
0.0
 10
0.31256
 20
-4.9180000000000001
 30
0.0
 10
0.31256
 20
-4.9180000000000001
 30
0.0
 10
0.03062
 20
-4.3185600000000006
 30
0.0
 10
0.03062
 20
-4.3185600000000006
 30
0.0
 10
0.03062
 20
-4.3185600000000006
 30
0.0
 10
-0.02017
 20
-4.4658800000000003
 30
0.0
 10
-0.12177
 20
-4.6157400000000006
 30
0.0
 10
-0.27671
 20
-4.6741600000000005
 30
0.0
 10
-0.27671
 20
-4.6741600000000005
 30
0.0
 10
-0.15987
 20
-4.31602
 30
0.0
 10
-0.3656100000000001
 20
-4.1382200000000005
 30
0.0
 10
-0.7262900000000001
 20
-4.2779199999999999
 30
0.0
 10
-0.7262900000000001
 20
-4.2779199999999999
 30
0.0
 10
-1.5848100000000001
 20
-4.3769800000000005
 30
0.0
 10
-1.9886700000000002
 20
-5.1288200000000002
 30
0.0
 10
-2.6262100000000004
 20
-5.5479200000000004
 30
0.0
 10
-2.6262100000000004
 20
-5.5479200000000004
 30
0.0
 10
-2.6744700000000003
 20
-5.4666400000000008
 30
0.0
 10
-2.5652500000000003
 20
-5.3167800000000005
 30
0.0
 10
-2.6262100000000004
 20
-5.2583600000000006
 30
0.0
 10
-2.6262100000000004
 20
-5.2583600000000006
 30
0.0
 10
-2.6897100000000003
 20
-5.4514000000000005
 30
0.0
 10
-2.8700500000000004
 20
-5.5504600000000002
 30
0.0
 10
-3.0275300000000001
 20
-5.6673000000000009
 30
0.0
 10
-3.0275300000000001
 20
-5.6673000000000009
 30
0.0
 10
-3.0453100000000002
 20
-5.4818800000000003
 30
0.0
 10
-2.9310100000000001
 20
-5.2380400000000007
 30
0.0
 10
-2.9259300000000001
 20
-5.0272200000000007
 30
0.0
 10
-2.9259300000000001
 20
-5.0272200000000007
 30
0.0
 10
-3.3678900000000005
 20
-4.9281600000000001
 30
0.0
 10
-3.8403300000000002
 20
-4.8418000000000001
 30
0.0
 10
-3.8758900000000005
 20
-5.4869600000000007
 30
0.0
 10
-3.8758900000000005
 20
-5.4869600000000007
 30
0.0
 10
-4.10703
 20
-5.3523400000000008
 30
0.0
 10
-4.18323
 20
-5.07294
 30
0.0
 10
-4.1984700000000004
 20
-4.8214800000000002
 30
0.0
 10
-4.1984700000000004
 20
-4.8214800000000002
 30
0.0
 10
-4.35595
 20
-5.0907200000000001
 30
0.0
 10
-4.6353500000000007
 20
-5.4361600000000001
 30
0.0
 10
-4.5591500000000007
 20
-4.8722800000000008
 30
0.0
 10
-4.5591500000000007
 20
-4.8722800000000008
 30
0.0
 10
-4.6709100000000001
 20
-4.93832
 30
0.0
 10
-4.7318700000000007
 20
-5.1516800000000007
 30
0.0
 10
-4.8614100000000002
 20
-5.1237400000000006
 30
0.0
 10
-4.8614100000000002
 20
-5.1237400000000006
 30
0.0
 10
-4.86395
 20
-5.0272200000000007
 30
0.0
 10
-4.8918900000000001
 20
-4.9154600000000004
 30
0.0
 10
-4.85379
 20
-4.8189400000000004
 30
0.0
 10
-4.85379
 20
-4.8189400000000004
 30
0.0
 10
-4.8842700000000008
 20
-4.7605200000000005
 30
0.0
 10
-4.91221
 20
-4.9459400000000002
 30
0.0
 10
-4.9757100000000003
 20
-4.9180000000000001
 30
0.0
 10
-4.9757100000000003
 20
-4.9180000000000001
 30
0.0
 10
-4.9757100000000003
 20
-4.3693600000000004
 30
0.0
 10
-4.3838900000000001
 20
-3.9223200000000005
 30
0.0
 10
-4.56677
 20
-3.3305000000000002
 30
0.0
 10
-4.56677
 20
-3.3305000000000002
 30
0.0
 10
-4.31785
 20
-2.9901400000000002
 30
0.0
 10
-3.8885900000000002
 20
-2.9342600000000001
 30
0.0
 10
-3.4923500000000001
 20
-2.9241000000000001
 30
0.0
 10
-3.4923500000000001
 20
-2.9241000000000001
 30
0.0
 10
-2.94625
 20
-2.6878800000000003
 30
0.0
 10
-2.9056100000000002
 20
-2.06304
 30
0.0
 10
-2.7024100000000004
 20
-1.5956800000000002
 30
0.0
 10
-2.7024100000000004
 20
-1.5956800000000002
 30
0.0
 10
-2.1867900000000002
 20
-1.1918200000000001
 30
0.0
 10
-1.4806700000000002
 20
-0.8032
 30
0.0
 10
-1.6483100000000002
 20
-0.03866
 30
0.0
 10
-1.6483100000000002
 20
-0.03866
 30
0.0
 10
-1.5670300000000001
 20
0.11881
 30
0.0
 10
-1.46035
 20
0.28645
 30
0.0
 10
-1.3054100000000002
 20
0.38551
 30
0.0
 10
-1.3054100000000002
 20
0.38551
 30
0.0
 10
-1.3054100000000002
 20
0.38551
 30
0.0
 10
-1.6660900000000001
 20
1.3735700000000002
 30
0.0
 10
-1.6660900000000001
 20
1.3735700000000002
 30
0.0
 10
-1.6660900000000001
 20
1.3735700000000002
 30
0.0
 10
-2.8548100000000001
 20
3.4487500000000004
 30
0.0
 10
-0.8329700000000001
 20
5.7703100000000003
 30
0.0
 10
1.3412600000000001
 20
5.6560100000000002
 30
0.0
  0
SPLINE
  5
26
100
AcDbEntity
  8
Ebene 1
 62
     7
100
AcDbSpline
210
0.0
220
0.0
230
1.0
 70
     1
 71
     3
 72
   256
 73
   252
 74
     0
 42
0.0000000001
 43
0.0000000001
 40
0.0
 40
0.0
 40
0.0
 40
0.0
 40
0.0158730158730159
 40
0.0158730158730159
 40
0.0158730158730159
 40
0.0158730158730159
 40
0.0317460317460317
 40
0.0317460317460317
 40
0.0317460317460317
 40
0.0317460317460317
 40
0.0476190476190476
 40
0.0476190476190476
 40
0.0476190476190476
 40
0.0476190476190476
 40
0.0634920634920635
 40
0.0634920634920635
 40
0.0634920634920635
 40
0.0634920634920635
 40
0.0793650793650794
 40
0.0793650793650794
 40
0.0793650793650794
 40
0.0793650793650794
 40
0.0952380952380952
 40
0.0952380952380952
 40
0.0952380952380952
 40
0.0952380952380952
 40
0.1111111111111111
 40
0.1111111111111111
 40
0.1111111111111111
 40
0.1111111111111111
 40
0.126984126984127
 40
0.126984126984127
 40
0.126984126984127
 40
0.126984126984127
 40
0.1428571428571429
 40
0.1428571428571429
 40
0.1428571428571429
 40
0.1428571428571429
 40
0.1587301587301587
 40
0.1587301587301587
 40
0.1587301587301587
 40
0.1587301587301587
 40
0.1746031746031746
 40
0.1746031746031746
 40
0.1746031746031746
 40
0.1746031746031746
 40
0.1904761904761905
 40
0.1904761904761905
 40
0.1904761904761905
 40
0.1904761904761905
 40
0.2063492063492063
 40
0.2063492063492063
 40
0.2063492063492063
 40
0.2063492063492063
 40
0.2222222222222222
 40
0.2222222222222222
 40
0.2222222222222222
 40
0.2222222222222222
 40
0.2380952380952381
 40
0.2380952380952381
 40
0.2380952380952381
 40
0.2380952380952381
 40
0.253968253968254
 40
0.253968253968254
 40
0.253968253968254
 40
0.253968253968254
 40
0.2698412698412698
 40
0.2698412698412698
 40
0.2698412698412698
 40
0.2698412698412698
 40
0.2857142857142857
 40
0.2857142857142857
 40
0.2857142857142857
 40
0.2857142857142857
 40
0.3015873015873016
 40
0.3015873015873016
 40
0.3015873015873016
 40
0.3015873015873016
 40
0.3174603174603174
 40
0.3174603174603174
 40
0.3174603174603174
 40
0.3174603174603174
 40
0.3333333333333333
 40
0.3333333333333333
 40
0.3333333333333333
 40
0.3333333333333333
 40
0.3492063492063492
 40
0.3492063492063492
 40
0.3492063492063492
 40
0.3492063492063492
 40
0.3650793650793651
 40
0.3650793650793651
 40
0.3650793650793651
 40
0.3650793650793651
 40
0.3809523809523809
 40
0.3809523809523809
 40
0.3809523809523809
 40
0.3809523809523809
 40
0.3968253968253968
 40
0.3968253968253968
 40
0.3968253968253968
 40
0.3968253968253968
 40
0.4126984126984127
 40
0.4126984126984127
 40
0.4126984126984127
 40
0.4126984126984127
 40
0.4285714285714286
 40
0.4285714285714286
 40
0.4285714285714286
 40
0.4285714285714286
 40
0.4444444444444444
 40
0.4444444444444444
 40
0.4444444444444444
 40
0.4444444444444444
 40
0.4603174603174603
 40
0.4603174603174603
 40
0.4603174603174603
 40
0.4603174603174603
 40
0.4761904761904762
 40
0.4761904761904762
 40
0.4761904761904762
 40
0.4761904761904762
 40
0.492063492063492
 40
0.492063492063492
 40
0.492063492063492
 40
0.492063492063492
 40
0.5079365079365079
 40
0.5079365079365079
 40
0.5079365079365079
 40
0.5079365079365079
 40
0.5238095238095237
 40
0.5238095238095237
 40
0.5238095238095237
 40
0.5238095238095237
 40
0.5396825396825395
 40
0.5396825396825395
 40
0.5396825396825395
 40
0.5396825396825395
 40
0.5555555555555554
 40
0.5555555555555554
 40
0.5555555555555554
 40
0.5555555555555554
 40
0.5714285714285712
 40
0.5714285714285712
 40
0.5714285714285712
 40
0.5714285714285712
 40
0.587301587301587
 40
0.587301587301587
 40
0.587301587301587
 40
0.587301587301587
 40
0.6031746031746028
 40
0.6031746031746028
 40
0.6031746031746028
 40
0.6031746031746028
 40
0.6190476190476186
 40
0.6190476190476186
 40
0.6190476190476186
 40
0.6190476190476186
 40
0.6349206349206344
 40
0.6349206349206344
 40
0.6349206349206344
 40
0.6349206349206344
 40
0.6507936507936503
 40
0.6507936507936503
 40
0.6507936507936503
 40
0.6507936507936503
 40
0.6666666666666661
 40
0.6666666666666661
 40
0.6666666666666661
 40
0.6666666666666661
 40
0.6825396825396819
 40
0.6825396825396819
 40
0.6825396825396819
 40
0.6825396825396819
 40
0.6984126984126977
 40
0.6984126984126977
 40
0.6984126984126977
 40
0.6984126984126977
 40
0.7142857142857135
 40
0.7142857142857135
 40
0.7142857142857135
 40
0.7142857142857135
 40
0.7301587301587293
 40
0.7301587301587293
 40
0.7301587301587293
 40
0.7301587301587293
 40
0.7460317460317452
 40
0.7460317460317452
 40
0.7460317460317452
 40
0.7460317460317452
 40
0.761904761904761
 40
0.761904761904761
 40
0.761904761904761
 40
0.761904761904761
 40
0.7777777777777768
 40
0.7777777777777768
 40
0.7777777777777768
 40
0.7777777777777768
 40
0.7936507936507926
 40
0.7936507936507926
 40
0.7936507936507926
 40
0.7936507936507926
 40
0.8095238095238084
 40
0.8095238095238084
 40
0.8095238095238084
 40
0.8095238095238084
 40
0.8253968253968242
 40
0.8253968253968242
 40
0.8253968253968242
 40
0.8253968253968242
 40
0.8412698412698401
 40
0.8412698412698401
 40
0.8412698412698401
 40
0.8412698412698401
 40
0.8571428571428559
 40
0.8571428571428559
 40
0.8571428571428559
 40
0.8571428571428559
 40
0.8730158730158717
 40
0.8730158730158717
 40
0.8730158730158717
 40
0.8730158730158717
 40
0.8888888888888875
 40
0.8888888888888875
 40
0.8888888888888875
 40
0.8888888888888875
 40
0.9047619047619033
 40
0.9047619047619033
 40
0.9047619047619033
 40
0.9047619047619033
 40
0.9206349206349191
 40
0.9206349206349191
 40
0.9206349206349191
 40
0.9206349206349191
 40
0.936507936507935
 40
0.936507936507935
 40
0.936507936507935
 40
0.936507936507935
 40
0.9523809523809508
 40
0.9523809523809508
 40
0.9523809523809508
 40
0.9523809523809508
 40
0.9682539682539666
 40
0.9682539682539666
 40
0.9682539682539666
 40
0.9682539682539666
 40
0.9841269841269824
 40
0.9841269841269824
 40
0.9841269841269824
 40
0.9841269841269824
 40
1.0
 40
1.0
 40
1.0
 40
1.0
 10
4.3613200000000001
 20
-1.16896
 30
0.0
 10
4.3613200000000001
 20
-0.8590800000000001
 30
0.0
 10
4.4654600000000002
 20
-0.53396
 30
0.0
 10
4.4527600000000005
 20
-0.2571
 30
0.0
 10
4.4527600000000005
 20
-0.2571
 30
0.0
 10
4.28512
 20
-0.8616200000000001
 30
0.0
 10
4.24702
 20
-1.7709400000000002
 30
0.0
 10
3.5383600000000004
 20
-1.9919200000000001
 30
0.0
 10
3.5383600000000004
 20
-1.9919200000000001
 30
0.0
 10
3.13958
 20
-1.8217400000000001
 30
0.0
 10
3.5256600000000002
 20
-1.2756400000000001
 30
0.0
 10
3.1929200000000004
 20
-1.00132
 30
0.0
 10
3.1929200000000004
 20
-1.00132
 30
0.0
 10
2.8195400000000004
 20
-0.39172
 30
0.0
 10
3.7060000000000004
 20
-0.09708
 30
0.0
 10
3.5637600000000003
 20
-0.63556
 30
0.0
 10
3.5637600000000003
 20
-0.63556
 30
0.0
 10
3.7009200000000004
 20
-0.6381
 30
0.0
 10
3.6602800000000002
 20
-0.4222
 30
0.0
 10
3.6526600000000005
 20
-0.3587
 30
0.0
 10
3.6526600000000005
 20
-0.3587
 30
0.0
 10
3.6272600000000002
 20
-0.11232
 30
0.0
 10
3.3402400000000001
 20
-0.16058
 30
0.0
 10
3.13958
 20
-0.29266
 30
0.0
 10
3.13958
 20
-0.29266
 30
0.0
 10
2.8779600000000003
 20
-0.4603
 30
0.0
 10
2.6925400000000002
 20
-0.8540000000000001
 30
0.0
 10
2.6392000000000002
 20
-1.1003800000000001
 30
0.0
 10
2.6392000000000002
 20
-1.1003800000000001
 30
0.0
 10
2.7687400000000002
 20
-1.0546600000000002
 30
0.0
 10
2.8830400000000003
 20
-0.88956
 30
0.0
 10
3.0379800000000001
 20
-0.95052
 30
0.0
 10
3.0379800000000001
 20
-0.95052
 30
0.0
 10
3.1141800000000002
 20
-1.0826
 30
0.0
 10
3.1929200000000004
 20
-1.2299200000000001
 30
0.0
 10
3.13958
 20
-1.3874000000000002
 30
0.0
 10
3.13958
 20
-1.3874000000000002
 30
0.0
 10
2.6773000000000002
 20
-1.8750800000000001
 30
0.0
 10
3.1141800000000002
 20
-2.52786
 30
0.0
 10
2.7687400000000002
 20
-2.9368000000000003
 30
0.0
 10
2.7687400000000002
 20
-2.9368000000000003
 30
0.0
 10
2.7687400000000002
 20
-2.9368000000000003
 30
0.0
 10
2.6011000000000002
 20
-2.9418800000000003
 30
0.0
 10
2.6011000000000002
 20
-2.9418800000000003
 30
0.0
 10
2.6011000000000002
 20
-2.9418800000000003
 30
0.0
 10
2.8195400000000004
 20
-2.26878
 30
0.0
 10
1.8162400000000001
 20
-2.8352000000000004
 30
0.0
 10
1.4708000000000001
 20
-2.3780000000000001
 30
0.0
 10
1.4708000000000001
 20
-2.3780000000000001
 30
0.0
 10
1.4581000000000002
 20
-2.7361400000000002
 30
0.0
 10
1.9965800000000002
 20
-3.1577800000000003
 30
0.0
 10
1.5724
 20
-3.4905200000000001
 30
0.0
 10
1.5724
 20
-3.4905200000000001
 30
0.0
 10
1.5724
 20
-3.4905200000000001
 30
0.0
 10
1.5216000000000001
 20
-3.1857200000000003
 30
0.0
 10
1.5216000000000001
 20
-3.1857200000000003
 30
0.0
 10
1.5216000000000001
 20
-3.1857200000000003
 30
0.0
 10
1.4708000000000001
 20
-3.1831800000000001
 30
0.0
 10
1.5089000000000001
 20
-3.2517600000000004
 30
0.0
 10
1.4809600000000001
 20
-3.2746200000000001
 30
0.0
 10
1.4809600000000001
 20
-3.2746200000000001
 30
0.0
 10
1.6486000000000001
 20
-3.9909000000000003
 30
0.0
 10
0.8408800000000001
 20
-4.0594800000000006
 30
0.0
 10
0.6072000000000001
 20
-3.6226000000000003
 30
0.0
 10
0.6072000000000001
 20
-3.6226000000000003
 30
0.0
 10
0.4827400000000001
 20
-3.5743400000000003
 30
0.0
 10
0.6326000000000001
 20
-3.7115000000000005
 30
0.0
 10
0.63514
 20
-3.7546800000000005
 30
0.0
 10
0.63514
 20
-3.7546800000000005
 30
0.0
 10
0.64022
 20
-3.9477200000000003
 30
0.0
 10
0.34304
 20
-4.0518600000000005
 30
0.0
 10
0.31256
 20
-3.7673800000000002
 30
0.0
 10
0.31256
 20
-3.7673800000000002
 30
0.0
 10
0.17286
 20
-3.6886400000000004
 30
0.0
 10
0.27192
 20
-3.8334200000000003
 30
0.0
 10
0.27192
 20
-3.8689800000000005
 30
0.0
 10
0.27192
 20
-3.8689800000000005
 30
0.0
 10
0.27446
 20
-4.1229800000000001
 30
0.0
 10
-0.02017
 20
-3.9502600000000001
 30
0.0
 10
-0.10907
 20
-3.7394400000000001
 30
0.0
 10
-0.10907
 20
-3.7394400000000001
 30
0.0
 10
-0.22083
 20
-3.7191200000000002
 30
0.0
 10
-0.10907
 20
-3.8181800000000004
 30
0.0
 10
-0.10399
 20
-3.8512000000000004
 30
0.0
 10
-0.10399
 20
-3.8512000000000004
 30
0.0
 10
-0.01001
 20
-4.34396
 30
0.0
 10
-0.95235
 20
-4.1077400000000006
 30
0.0
 10
-1.3257300000000001
 20
-4.3769800000000005
 30
0.0
 10
-1.3257300000000001
 20
-4.3769800000000005
 30
0.0
 10
-1.2215900000000002
 20
-4.1229800000000001
 30
0.0
 10
-0.9167900000000001
 20
-4.0315400000000006
 30
0.0
 10
-0.6881900000000001
 20
-3.9197800000000003
 30
0.0
 10
-0.6881900000000001
 20
-3.9197800000000003
 30
0.0
 10
-0.10907
 20
-3.6251400000000005
 30
0.0
 10
-1.1403100000000002
 20
-4.0036000000000005
 30
0.0
 10
-1.3181100000000001
 20
-4.1890200000000002
 30
0.0
 10
-1.3181100000000001
 20
-4.1890200000000002
 30
0.0
 10
-1.6838700000000002
 20
-4.3515800000000002
 30
0.0
 10
-2.3544300000000002
 20
-5.6266600000000002
 30
0.0
 10
-2.19441
 20
-4.6614600000000008
 30
0.0
 10
-2.19441
 20
-4.6614600000000008
 30
0.0
 10
-2.1055100000000002
 20
-4.4430200000000006
 30
0.0
 10
-2.2553700000000001
 20
-4.6665400000000004
 30
0.0
 10
-2.2807700000000004
 20
-4.7681400000000007
 30
0.0
 10
-2.2807700000000004
 20
-4.7681400000000007
 30
0.0
 10
-2.3061700000000003
 20
-4.8164000000000007
 30
0.0
 10
-2.3366500000000001
 20
-4.8672000000000004
 30
0.0
 10
-2.3442700000000003
 20
-4.9205400000000008
 30
0.0
 10
-2.3442700000000003
 20
-4.9205400000000008
 30
0.0
 10
-2.3417300000000001
 20
-5.0018200000000004
 30
0.0
 10
-2.4331700000000001
 20
-4.9561000000000002
 30
0.0
 10
-2.4763500000000001
 20
-4.9815000000000005
 30
0.0
 10
-2.4763500000000001
 20
-4.9815000000000005
 30
0.0
 10
-2.61097
 20
-5.0551600000000008
 30
0.0
 10
-2.3290300000000004
 20
-4.5750999999999999
 30
0.0
 10
-2.4636500000000003
 20
-4.7249600000000003
 30
0.0
 10
-2.4636500000000003
 20
-4.7249600000000003
 30
0.0
 10
-2.4636500000000003
 20
-4.7249600000000003
 30
0.0
 10
-2.5119100000000003
 20
-4.8443400000000008
 30
0.0
 10
-2.5119100000000003
 20
-4.8443400000000008
 30
0.0
 10
-2.5119100000000003
 20
-4.8443400000000008
 30
0.0
 10
-2.5957300000000001
 20
-5.2075600000000009
 30
0.0
 10
-2.8116300000000001
 20
-4.6767000000000003
 30
0.0
 10
-2.5779500000000004
 20
-4.5750999999999999
 30
0.0
 10
-2.5779500000000004
 20
-4.5750999999999999
 30
0.0
 10
-2.6820900000000001
 20
-4.4658800000000003
 30
0.0
 10
-2.7074900000000004
 20
-4.6919400000000007
 30
0.0
 10
-2.7709900000000003
 20
-4.7452800000000002
 30
0.0
 10
-2.7709900000000003
 20
-4.7452800000000002
 30
0.0
 10
-3.0503900000000002
 20
-4.9713400000000005
 30
0.0
 10
-3.4136100000000003
 20
-4.94848
 30
0.0
 10
-3.2154900000000004
 20
-4.5928800000000001
 30
0.0
 10
-3.2154900000000004
 20
-4.5928800000000001
 30
0.0
 10
-3.1900900000000001
 20
-4.5497000000000005
 30
0.0
 10
-2.9767300000000003
 20
-4.3668200000000006
 30
0.0
 10
-3.15707
 20
-4.4481000000000002
 30
0.0
 10
-3.15707
 20
-4.4481000000000002
 30
0.0
 10
-3.3907500000000002
 20
-4.7046400000000004
 30
0.0
 10
-3.5228300000000004
 20
-4.8189400000000004
 30
0.0
 10
-3.6726900000000002
 20
-4.4227000000000007
 30
0.0
 10
-3.6726900000000002
 20
-4.4227000000000007
 30
0.0
 10
-3.8555700000000002
 20
-4.6335200000000007
 30
0.0
 10
-4.1959300000000006
 20
-4.5471600000000008
 30
0.0
 10
-3.9927300000000003
 20
-4.2372800000000002
 30
0.0
 10
-3.9927300000000003
 20
-4.2372800000000002
 30
0.0
 10
-3.9012900000000004
 20
-4.01884
 30
0.0
 10
-3.4821900000000001
 20
-3.6683200000000005
 30
0.0
 10
-3.9114500000000003
 20
-3.9477200000000003
 30
0.0
 10
-3.9114500000000003
 20
-3.9477200000000003
 30
0.0
 10
-3.9927300000000003
 20
-3.5464000000000002
 30
0.0
 10
-4.1705300000000003
 20
-4.8849800000000005
 30
0.0
 10
-4.3127700000000004
 20
-4.3820600000000001
 30
0.0
 10
-4.3127700000000004
 20
-4.3820600000000001
 30
0.0
 10
-4.3127700000000004
 20
-4.3820600000000001
 30
0.0
 10
-4.2441900000000006
 20
-4.1534599999999999
 30
0.0
 10
-4.2441900000000006
 20
-4.1534599999999999
 30
0.0
 10
-4.2441900000000006
 20
-4.1534599999999999
 30
0.0
 10
-4.2187900000000003
 20
-4.0874200000000007
 30
0.0
 10
-4.2772100000000002
 20
-4.0696400000000006
 30
0.0
 10
-4.2899100000000008
 20
-4.1458400000000006
 30
0.0
 10
-4.2899100000000008
 20
-4.1458400000000006
 30
0.0
 10
-4.2899100000000008
 20
-4.1458400000000006
 30
0.0
 10
-4.3483300000000007
 20
-4.2550600000000003
 30
0.0
 10
-4.3483300000000007
 20
-4.2550600000000003
 30
0.0
 10
-4.3483300000000007
 20
-4.2550600000000003
 30
0.0
 10
-4.3711900000000004
 20
-4.4125400000000008
 30
0.0
 10
-4.4499300000000002
 20
-4.3998400000000002
 30
0.0
 10
-4.56677
 20
-4.3388800000000005
 30
0.0
 10
-4.56677
 20
-4.3388800000000005
 30
0.0
 10
-4.3915100000000002
 20
-3.9020000000000001
 30
0.0
 10
-4.6632900000000008
 20
-3.9858200000000004
 30
0.0
 10
-4.1603700000000003
 20
-3.5743400000000003
 30
0.0
 10
-4.1603700000000003
 20
-3.5743400000000003
 30
0.0
 10
-4.2619700000000007
 20
-3.5489400000000004
 30
0.0
 10
-4.4346900000000007
 20
-3.6911800000000001
 30
0.0
 10
-4.4677100000000003
 20
-3.5337000000000005
 30
0.0
 10
-4.4677100000000003
 20
-3.5337000000000005
 30
0.0
 10
-4.4931100000000006
 20
-3.0968200000000001
 30
0.0
 10
-3.5279100000000003
 20
-2.8860000000000001
 30
0.0
 10
-3.8276300000000005
 20
-3.3508200000000001
 30
0.0
 10
-3.8276300000000005
 20
-3.3508200000000001
 30
0.0
 10
-2.7582900000000001
 20
-2.3678400000000002
 30
0.0
 10
-2.8446500000000001
 20
-2.8555200000000003
 30
0.0
 10
-2.5982700000000003
 20
-1.6591800000000001
 30
0.0
 10
-2.5982700000000003
 20
-1.6591800000000001
 30
0.0
 10
-2.4103100000000004
 20
-1.4382000000000001
 30
0.0
 10
-1.6229100000000001
 20
-0.8286000000000001
 30
0.0
 10
-1.8210300000000001
 20
-1.3061200000000002
 30
0.0
 10
-1.8210300000000001
 20
-1.3061200000000002
 30
0.0
 10
-1.7727700000000002
 20
-1.29088
 30
0.0
 10
-1.7473700000000001
 20
-1.24516
 30
0.0
 10
-1.7270500000000002
 20
-1.21214
 30
0.0
 10
-1.7270500000000002
 20
-1.21214
 30
0.0
 10
-1.5314700000000001
 20
-0.88956
 30
0.0
 10
-1.58735
 20
-0.48316
 30
0.0
 10
-1.5568700000000002
 20
-0.1174
 30
0.0
 10
-1.5568700000000002
 20
-0.1174
 30
0.0
 10
-1.5086100000000002
 20
-0.03866
 30
0.0
 10
-1.4324100000000002
 20
0.02229
 30
0.0
 10
-1.3435100000000002
 20
0.03753
 30
0.0
 10
-1.3435100000000002
 20
0.03753
 30
0.0
 10
-0.9675900000000001
 20
0.01467
 30
0.0
 10
-1.0666500000000001
 20
-0.6254000000000001
 30
0.0
 10
-0.9828300000000001
 20
-0.67874
 30
0.0
 10
-0.9828300000000001
 20
-0.67874
 30
0.0
 10
-0.9675900000000001
 20
-0.34854
 30
0.0
 10
-0.9853700000000001
 20
-0.02342
 30
0.0
 10
-1.08951
 20
0.27883
 30
0.0
 10
-1.08951
 20
0.27883
 30
0.0
 10
-1.20889
 20
0.53791
 30
0.0
 10
-1.3282700000000001
 20
0.7969900000000001
 30
0.0
 10
-1.4349500000000002
 20
1.06369
 30
0.0
 10
-1.4349500000000002
 20
1.06369
 30
0.0
 10
-2.9132300000000004
 20
3.1591900000000002
 30
0.0
 10
-0.4595900000000001
 20
6.2249700000000008
 30
0.0
 10
1.8010000000000002
 20
5.35121
 30
0.0
 10
1.8010000000000002
 20
5.35121
 30
0.0
 10
1.8645
 20
5.3258100000000006
 30
0.0
 10
1.9407000000000001
 20
5.2826300000000002
 30
0.0
 10
1.9838800000000001
 20
5.2165900000000001
 30
0.0
 10
1.9838800000000001
 20
5.2165900000000001
 30
0.0
 10
2.1845400000000001
 20
4.7924100000000003
 30
0.0
 10
1.6511400000000001
 20
4.2209099999999999
 30
0.0
 10
1.4708000000000001
 20
3.6824300000000001
 30
0.0
 10
1.4708000000000001
 20
3.6824300000000001
 30
0.0
 10
1.2447400000000002
 20
3.01187
 30
0.0
 10
1.1761600000000001
 20
2.2676500000000002
 30
0.0
 10
1.5470000000000002
 20
1.56915
 30
0.0
 10
1.5470000000000002
 20
1.56915
 30
0.0
 10
1.5597000000000001
 20
1.4396100000000001
 30
0.0
 10
1.5343000000000002
 20
1.32277
 30
0.0
 10
1.5216000000000001
 20
1.1983100000000002
 30
0.0
 10
1.5216000000000001
 20
1.1983100000000002
 30
0.0
 10
0.5818000000000001
 20
0.31439
 30
0.0
 10
0.00268
 20
1.7774300000000001
 30
0.0
 10
-0.04557
 20
2.54705
 30
0.0
 10
-0.04557
 20
2.54705
 30
0.0
 10
-0.17257
 20
1.9780900000000001
 30
0.0
 10
0.3252600000000001
 20
1.2237100000000001
 30
0.0
 10
0.5691000000000001
 20
0.6547500000000001
 30
0.0
 10
0.5691000000000001
 20
0.6547500000000001
 30
0.0
 10
1.52668
 20
0.68269
 30
0.0
 10
1.3844400000000001
 20
1.1805300000000001
 30
0.0
 10
1.9407000000000001
 20
1.3303900000000002
 30
0.0
 10
1.9407000000000001
 20
1.3303900000000002
 30
0.0
 10
2.5884
 20
1.5081900000000001
 30
0.0
 10
3.3402400000000001
 20
1.4294500000000001
 30
0.0
 10
3.5129600000000001
 20
0.9189100000000001
 30
0.0
 10
3.5129600000000001
 20
0.9189100000000001
 30
0.0
 10
4.7753400000000008
 20
1.0916300000000001
 30
0.0
 10
5.3900200000000007
 20
-0.32314
 30
0.0
 10
4.3613200000000001
 20
-1.16896
 30
0.0
  0
SPLINE
  5
27
100
AcDbEntity
  8
Ebene 1
100
AcDbSpline
210
0.0
220
0.0
230
1.0
 70
     1
 71
     3
 72
    36
 73
    32
 74
     0
 42
0.0000000001
 43
0.0000000001
 40
0.0
 40
0.0
 40
0.0
 40
0.0
 40
0.125
 40
0.125
 40
0.125
 40
0.125
 40
0.25
 40
0.25
 40
0.25
 40
0.25
 40
0.375
 40
0.375
 40
0.375
 40
0.375
 40
0.5
 40
0.5
 40
0.5
 40
0.5
 40
0.625
 40
0.625
 40
0.625
 40
0.625
 40
0.75
 40
0.75
 40
0.75
 40
0.75
 40
0.875
 40
0.875
 40
0.875
 40
0.875
 40
1.0
 40
1.0
 40
1.0
 40
1.0
 10
0.9805800000000001
 20
5.1937300000000004
 30
0.0
 10
1.1990200000000002
 20
5.2292900000000007
 30
0.0
 10
1.8162400000000001
 20
5.2115100000000005
 30
0.0
 10
1.4708000000000001
 20
4.9067100000000003
 30
0.0
 10
1.4708000000000001
 20
4.9067100000000003
 30
0.0
 10
1.1990200000000002
 20
4.7416100000000005
 30
0.0
 10
1.8797400000000002
 20
4.8508300000000002
 30
0.0
 10
1.5470000000000002
 20
4.6882700000000002
 30
0.0
 10
1.5470000000000002
 20
4.6882700000000002
 30
0.0
 10
1.5470000000000002
 20
4.6882700000000002
 30
0.0
 10
1.4174600000000002
 20
4.6298500000000002
 30
0.0
 10
1.4174600000000002
 20
4.6298500000000002
 30
0.0
 10
1.4174600000000002
 20
4.6298500000000002
 30
0.0
 10
1.3412600000000001
 20
4.5993700000000004
 30
0.0
 10
1.2498200000000002
 20
4.6171500000000005
 30
0.0
 10
1.1609200000000002
 20
4.6298500000000002
 30
0.0
 10
1.1609200000000002
 20
4.6298500000000002
 30
0.0
 10
1.0720200000000002
 20
4.6679500000000003
 30
0.0
 10
1.18632
 20
4.7898700000000005
 30
0.0
 10
1.11012
 20
4.84321
 30
0.0
 10
1.11012
 20
4.84321
 30
0.0
 10
0.13222
 20
4.9702100000000007
 30
0.0
 10
-0.9650500000000001
 20
4.3275900000000007
 30
0.0
 10
-1.3511300000000002
 20
3.4360500000000003
 30
0.0
 10
-1.3511300000000002
 20
3.4360500000000003
 30
0.0
 10
-1.3892300000000002
 20
3.9770700000000003
 30
0.0
 10
-0.8609100000000001
 20
4.3707700000000003
 30
0.0
 10
-0.4697500000000001
 20
4.6882700000000002
 30
0.0
 10
-0.4697500000000001
 20
4.6882700000000002
 30
0.0
 10
-0.03033
 20
4.9854500000000002
 30
0.0
 10
0.4802
 20
5.0997500000000002
 30
0.0
 10
0.9805800000000001
 20
5.1937300000000004
 30
0.0
  0
SPLINE
  5
28
100
AcDbEntity
  8
Ebene 1
100
AcDbSpline
210
0.0
220
0.0
230
1.0
 70
     1
 71
     3
 72
    20
 73
    16
 74
     0
 42
0.0000000001
 43
0.0000000001
 40
0.0
 40
0.0
 40
0.0
 40
0.0
 40
0.25
 40
0.25
 40
0.25
 40
0.25
 40
0.5
 40
0.5
 40
0.5
 40
0.5
 40
0.75
 40
0.75
 40
0.75
 40
0.75
 40
1.0
 40
1.0
 40
1.0
 40
1.0
 10
-1.2393700000000001
 20
2.8543900000000004
 30
0.0
 10
-1.2292100000000001
 20
2.8518500000000002
 30
0.0
 10
-1.20381
 20
2.8620100000000002
 30
0.0
 10
-1.2012700000000001
 20
2.8416900000000003
 30
0.0
 10
-1.2012700000000001
 20
2.8416900000000003
 30
0.0
 10
-1.08189
 20
1.9857100000000001
 30
0.0
 10
-0.32751
 20
1.27959
 30
0.0
 10
-0.39101
 20
0.39821
 30
0.0
 10
-0.39101
 20
0.39821
 30
0.0
 10
-0.39101
 20
0.39821
 30
0.0
 10
-0.43165
 20
0.42361
 30
0.0
 10
-0.43165
 20
0.42361
 30
0.0
 10
-0.43165
 20
0.42361
 30
0.0
 10
-0.5205500000000001
 20
1.2948300000000001
 30
0.0
 10
-1.3943100000000002
 20
1.9323700000000001
 30
0.0
 10
-1.2393700000000001
 20
2.8543900000000004
 30
0.0
  0
SPLINE
  5
29
100
AcDbEntity
  8
Ebene 1
100
AcDbSpline
210
0.0
220
0.0
230
1.0
 70
     1
 71
     3
 72
    24
 73
    20
 74
     0
 42
0.0000000001
 43
0.0000000001
 40
0.0
 40
0.0
 40
0.0
 40
0.0
 40
0.2
 40
0.2
 40
0.2
 40
0.2
 40
0.4
 40
0.4
 40
0.4
 40
0.4
 40
0.6000000000000001
 40
0.6000000000000001
 40
0.6000000000000001
 40
0.6000000000000001
 40
0.8
 40
0.8
 40
0.8
 40
0.8
 40
1.0
 40
1.0
 40
1.0
 40
1.0
 10
1.9584800000000002
 20
0.78429
 30
0.0
 10
1.9584800000000002
 20
0.78429
 30
0.0
 10
2.2023200000000003
 20
0.68015
 30
0.0
 10
2.2023200000000003
 20
0.68015
 30
0.0
 10
2.2023200000000003
 20
0.68015
 30
0.0
 10
2.2023200000000003
 20
0.68015
 30
0.0
 10
2.1261200000000002
 20
0.6039500000000001
 30
0.0
 10
2.1261200000000002
 20
0.6039500000000001
 30
0.0
 10
2.1261200000000002
 20
0.6039500000000001
 30
0.0
 10
1.2117200000000001
 20
0.5201300000000001
 30
0.0
 10
0.6859400000000001
 20
-0.3637800000000001
 30
0.0
 10
-0.08367
 20
-0.7397
 30
0.0
 10
-0.08367
 20
-0.7397
 30
0.0
 10
-0.08367
 20
-0.7397
 30
0.0
 10
-0.22591
 20
-0.7397
 30
0.0
 10
-0.22591
 20
-0.7397
 30
0.0
 10
-0.22591
 20
-0.7397
 30
0.0
 10
0.5564
 20
-0.3714
 30
0.0
 10
1.01868
 20
0.6547500000000001
 30
0.0
 10
1.9584800000000002
 20
0.78429
 30
0.0
  0
SPLINE
  5
2A
100
AcDbEntity
  8
Ebene 1
100
AcDbSpline
210
0.0
220
0.0
230
1.0
 70
     1
 71
     3
 72
    20
 73
    16
 74
     0
 42
0.0000000001
 43
0.0000000001
 40
0.0
 40
0.0
 40
0.0
 40
0.0
 40
0.25
 40
0.25
 40
0.25
 40
0.25
 40
0.5
 40
0.5
 40
0.5
 40
0.5
 40
0.75
 40
0.75
 40
0.75
 40
0.75
 40
1.0
 40
1.0
 40
1.0
 40
1.0
 10
2.29122
 20
0.7182500000000001
 30
0.0
 10
2.6900000000000004
 20
0.78429
 30
0.0
 10
3.1014800000000005
 20
0.4109100000000001
 30
0.0
 10
3.1014800000000005
 20
0.02991
 30
0.0
 10
3.1014800000000005
 20
0.02991
 30
0.0
 10
3.0633800000000004
 20
0.02229
 30
0.0
 10
3.0252800000000004
 20
0.02229
 30
0.0
 10
2.9871800000000004
 20
0.04261
 30
0.0
 10
2.9871800000000004
 20
0.04261
 30
0.0
 10
2.8957400000000004
 20
0.3270900000000001
 30
0.0
 10
2.6519000000000004
 20
0.7106300000000001
 30
0.0
 10
2.3039200000000002
 20
0.68015
 30
0.0
 10
2.3039200000000002
 20
0.68015
 30
0.0
 10
2.2810600000000001
 20
0.68269
 30
0.0
 10
2.29122
 20
0.7080900000000001
 30
0.0
 10
2.29122
 20
0.7182500000000001
 30
0.0
  0
SPLINE
  5
2B
100
AcDbEntity
  8
Ebene 1
100
AcDbSpline
210
0.0
220
0.0
230
1.0
 70
     1
 71
     3
 72
    32
 73
    28
 74
     0
 42
0.0000000001
 43
0.0000000001
 40
0.0
 40
0.0
 40
0.0
 40
0.0
 40
0.1428571428571429
 40
0.1428571428571429
 40
0.1428571428571429
 40
0.1428571428571429
 40
0.2857142857142857
 40
0.2857142857142857
 40
0.2857142857142857
 40
0.2857142857142857
 40
0.4285714285714286
 40
0.4285714285714286
 40
0.4285714285714286
 40
0.4285714285714286
 40
0.5714285714285714
 40
0.5714285714285714
 40
0.5714285714285714
 40
0.5714285714285714
 40
0.7142857142857142
 40
0.7142857142857142
 40
0.7142857142857142
 40
0.7142857142857142
 40
0.857142857142857
 40
0.857142857142857
 40
0.857142857142857
 40
0.857142857142857
 40
1.0
 40
1.0
 40
1.0
 40
1.0
 10
0.4929000000000001
 20
0.61665
 30
0.0
 10
0.5437000000000001
 20
0.6293500000000001
 30
0.0
 10
0.531
 20
0.5836300000000001
 30
0.0
 10
0.5056000000000001
 20
0.5683900000000001
 30
0.0
 10
0.5056000000000001
 20
0.5683900000000001
 30
0.0
 10
-0.09637
 20
0.3804300000000001
 30
0.0
 10
-0.22591
 20
-0.43998
 30
0.0
 10
-0.8126500000000001
 20
-0.6889000000000001
 30
0.0
 10
-0.8126500000000001
 20
-0.6889000000000001
 30
0.0
 10
-0.8126500000000001
 20
-0.6889000000000001
 30
0.0
 10
-0.7135900000000001
 20
-0.3333
 30
0.0
 10
-0.7135900000000001
 20
-0.3333
 30
0.0
 10
-0.7135900000000001
 20
-0.3333
 30
0.0
 10
-0.63485
 20
-0.19106
 30
0.0
 10
-0.63485
 20
0.13913
 30
0.0
 10
-0.49515
 20
0.15437
 30
0.0
 10
-0.49515
 20
0.15437
 30
0.0
 10
-0.53325
 20
0.05023
 30
0.0
 10
-0.5840500000000001
 20
-0.1047
 30
0.0
 10
-0.5205500000000001
 20
-0.21392
 30
0.0
 10
-0.5205500000000001
 20
-0.21392
 30
0.0
 10
-0.09637
 20
-0.12756
 30
0.0
 10
-0.14717
 20
0.5404500000000001
 30
0.0
 10
0.3252600000000001
 20
0.5429900000000001
 30
0.0
 10
0.3252600000000001
 20
0.5429900000000001
 30
0.0
 10
0.3252600000000001
 20
0.5429900000000001
 30
0.0
 10
0.4929000000000001
 20
0.61665
 30
0.0
 10
0.4929000000000001
 20
0.61665
 30
0.0
  0
SPLINE
  5
2C
100
AcDbEntity
  8
Ebene 1
100
AcDbSpline
210
0.0
220
0.0
230
1.0
 70
     1
 71
     3
 72
    64
 73
    60
 74
     0
 42
0.0000000001
 43
0.0000000001
 40
0.0
 40
0.0
 40
0.0
 40
0.0
 40
0.0666666666666667
 40
0.0666666666666667
 40
0.0666666666666667
 40
0.0666666666666667
 40
0.1333333333333333
 40
0.1333333333333333
 40
0.1333333333333333
 40
0.1333333333333333
 40
0.2
 40
0.2
 40
0.2
 40
0.2
 40
0.2666666666666667
 40
0.2666666666666667
 40
0.2666666666666667
 40
0.2666666666666667
 40
0.3333333333333333
 40
0.3333333333333333
 40
0.3333333333333333
 40
0.3333333333333333
 40
0.4
 40
0.4
 40
0.4
 40
0.4
 40
0.4666666666666666
 40
0.4666666666666666
 40
0.4666666666666666
 40
0.4666666666666666
 40
0.5333333333333333
 40
0.5333333333333333
 40
0.5333333333333333
 40
0.5333333333333333
 40
0.6
 40
0.6
 40
0.6
 40
0.6
 40
0.6666666666666666
 40
0.6666666666666666
 40
0.6666666666666666
 40
0.6666666666666666
 40
0.7333333333333333
 40
0.7333333333333333
 40
0.7333333333333333
 40
0.7333333333333333
 40
0.7999999999999999
 40
0.7999999999999999
 40
0.7999999999999999
 40
0.7999999999999999
 40
0.8666666666666666
 40
0.8666666666666666
 40
0.8666666666666666
 40
0.8666666666666666
 40
0.9333333333333332
 40
0.9333333333333332
 40
0.9333333333333332
 40
0.9333333333333332
 40
1.0
 40
1.0
 40
1.0
 40
1.0
 10
2.04738
 20
-0.16566
 30
0.0
 10
2.3572600000000001
 20
-0.21138
 30
0.0
 10
2.3572600000000001
 20
-0.6431800000000001
 30
0.0
 10
2.08548
 20
-0.7397
 30
0.0
 10
2.08548
 20
-0.7397
 30
0.0
 10
2.08548
 20
-0.7397
 30
0.0
 10
2.1642200000000003
 20
-0.6279400000000001
 30
0.0
 10
2.1642200000000003
 20
-0.6279400000000001
 30
0.0
 10
2.1642200000000003
 20
-0.6279400000000001
 30
0.0
 10
2.1642200000000003
 20
-0.6279400000000001
 30
0.0
 10
2.1896200000000001
 20
-0.4222
 30
0.0
 10
2.1896200000000001
 20
-0.4222
 30
0.0
 10
2.1896200000000001
 20
-0.4222
 30
0.0
 10
2.1896200000000001
 20
-0.4044200000000001
 30
0.0
 10
2.1134200000000001
 20
-0.3714
 30
0.0
 10
2.08548
 20
-0.3714
 30
0.0
 10
2.08548
 20
-0.3714
 30
0.0
 10
2.04738
 20
-0.8336800000000001
 30
0.0
 10
1.4809600000000001
 20
-0.9454400000000001
 30
0.0
 10
1.11012
 20
-0.9784600000000001
 30
0.0
 10
1.11012
 20
-0.9784600000000001
 30
0.0
 10
1.0720200000000002
 20
-1.0216400000000001
 30
0.0
 10
1.0313800000000002
 20
-1.07498
 30
0.0
 10
1.01868
 20
-1.12578
 30
0.0
 10
1.01868
 20
-1.12578
 30
0.0
 10
1.3412600000000001
 20
-1.1003800000000001
 30
0.0
 10
1.6613000000000002
 20
-0.8946400000000001
 30
0.0
 10
1.9584800000000002
 20
-0.8489200000000001
 30
0.0
 10
1.9584800000000002
 20
-0.8489200000000001
 30
0.0
 10
1.5343000000000002
 20
-1.1359400000000002
 30
0.0
 10
0.9805800000000001
 20
-1.16388
 30
0.0
 10
0.6224400000000001
 20
-1.5550400000000002
 30
0.0
 10
0.6224400000000001
 20
-1.5550400000000002
 30
0.0
 10
0.9805800000000001
 20
-1.6845800000000002
 30
0.0
 10
1.1228200000000002
 20
-2.0859000000000001
 30
0.0
 10
1.3920600000000001
 20
-2.3094200000000003
 30
0.0
 10
1.3920600000000001
 20
-2.3094200000000003
 30
0.0
 10
1.3920600000000001
 20
-2.3094200000000003
 30
0.0
 10
1.1990200000000002
 20
-2.2332200000000002
 30
0.0
 10
1.1990200000000002
 20
-2.2332200000000002
 30
0.0
 10
1.1990200000000002
 20
-2.2332200000000002
 30
0.0
 10
1.0440800000000001
 20
-2.19258
 30
0.0
 10
1.0847200000000001
 20
-2.3830800000000001
 30
0.0
 10
0.9932800000000001
 20
-2.4415
 30
0.0
 10
0.9932800000000001
 20
-2.4415
 30
0.0
 10
0.9805800000000001
 20
-2.3526000000000002
 30
0.0
 10
0.9805800000000001
 20
-2.2383000000000002
 30
0.0
 10
0.9805800000000001
 20
-2.1316200000000003
 30
0.0
 10
0.9805800000000001
 20
-2.1316200000000003
 30
0.0
 10
0.9805800000000001
 20
-1.3289800000000001
 30
0.0
 10
-0.35291
 20
-1.9284200000000002
 30
0.0
 10
-0.21321
 20
-1.11816
 30
0.0
 10
-0.21321
 20
-1.11816
 30
0.0
 10
-0.14717
 20
-1.12832
 30
0.0
 10
-0.17257
 20
-1.3112000000000001
 30
0.0
 10
-0.08367
 20
-1.3569200000000001
 30
0.0
 10
-0.08367
 20
-1.3569200000000001
 30
0.0
 10
0.95518
 20
-1.8344400000000001
 30
0.0
 10
1.0974200000000001
 20
-0.09708
 30
0.0
 10
2.04738
 20
-0.16566
 30
0.0
  0
SPLINE
  5
2D
100
AcDbEntity
  8
Ebene 1
 62
     7
100
AcDbSpline
210
0.0
220
0.0
230
1.0
 70
     1
 71
     3
 72
    16
 73
    12
 74
     0
 42
0.0000000001
 43
0.0000000001
 40
0.0
 40
0.0
 40
0.0
 40
0.0
 40
0.3333333333333333
 40
0.3333333333333333
 40
0.3333333333333333
 40
0.3333333333333333
 40
0.6666666666666666
 40
0.6666666666666666
 40
0.6666666666666666
 40
0.6666666666666666
 40
1.0
 40
1.0
 40
1.0
 40
1.0
 10
1.7400400000000003
 20
-0.5111
 30
0.0
 10
1.7400400000000003
 20
-0.5111
 30
0.0
 10
1.7781400000000001
 20
-0.5136400000000001
 30
0.0
 10
1.7781400000000001
 20
-0.5136400000000001
 30
0.0
 10
1.7781400000000001
 20
-0.5136400000000001
 30
0.0
 10
1.6765400000000001
 20
-0.65588
 30
0.0
 10
1.5089000000000001
 20
-0.8184400000000001
 30
0.0
 10
1.3285600000000002
 20
-0.7651000000000001
 30
0.0
 10
1.3285600000000002
 20
-0.7651000000000001
 30
0.0
 10
1.3285600000000002
 20
-0.7651000000000001
 30
0.0
 10
1.7400400000000003
 20
-0.5111
 30
0.0
 10
1.7400400000000003
 20
-0.5111
 30
0.0
  0
SPLINE
  5
2E
100
AcDbEntity
  8
Ebene 1
100
AcDbSpline
210
0.0
220
0.0
230
1.0
 70
     1
 71
     3
 72
    32
 73
    28
 74
     0
 42
0.0000000001
 43
0.0000000001
 40
0.0
 40
0.0
 40
0.0
 40
0.0
 40
0.1428571428571429
 40
0.1428571428571429
 40
0.1428571428571429
 40
0.1428571428571429
 40
0.2857142857142857
 40
0.2857142857142857
 40
0.2857142857142857
 40
0.2857142857142857
 40
0.4285714285714286
 40
0.4285714285714286
 40
0.4285714285714286
 40
0.4285714285714286
 40
0.5714285714285714
 40
0.5714285714285714
 40
0.5714285714285714
 40
0.5714285714285714
 40
0.7142857142857142
 40
0.7142857142857142
 40
0.7142857142857142
 40
0.7142857142857142
 40
0.857142857142857
 40
0.857142857142857
 40
0.857142857142857
 40
0.857142857142857
 40
1.0
 40
1.0
 40
1.0
 40
1.0
 10
-1.2800100000000001
 20
-0.9606800000000001
 30
0.0
 10
-1.2368300000000001
 20
-1.0724400000000001
 30
0.0
 10
-1.4476500000000001
 20
-1.21214
 30
0.0
 10
-1.46035
 20
-1.3569200000000001
 30
0.0
 10
-1.46035
 20
-1.3569200000000001
 30
0.0
 10
-1.5390900000000001
 20
-1.4712200000000002
 30
0.0
 10
-1.5568700000000002
 20
-1.6642600000000001
 30
0.0
 10
-1.67371
 20
-1.7176000000000002
 30
0.0
 10
-1.67371
 20
-1.7176000000000002
 30
0.0
 10
-1.6152900000000001
 20
-1.58552
 30
0.0
 10
-1.5746500000000001
 20
-1.4407400000000001
 30
0.0
 10
-1.5517900000000002
 20
-1.2985000000000002
 30
0.0
 10
-1.5517900000000002
 20
-1.2985000000000002
 30
0.0
 10
-2.0902700000000003
 20
-1.7303000000000002
 30
0.0
 10
-2.2096500000000003
 20
-2.5405600000000002
 30
0.0
 10
-2.7151100000000001
 20
-2.9368000000000003
 30
0.0
 10
-2.7151100000000001
 20
-2.9368000000000003
 30
0.0
 10
-2.7151100000000001
 20
-2.9368000000000003
 30
0.0
 10
-2.3849100000000001
 20
-2.4288000000000003
 30
0.0
 10
-2.3849100000000001
 20
-2.4288000000000003
 30
0.0
 10
-2.3849100000000001
 20
-2.4288000000000003
 30
0.0
 10
-2.2121900000000001
 20
-2.1722600000000001
 30
0.0
 10
-2.1994900000000004
 20
-1.8674600000000001
 30
0.0
 10
-2.05979
 20
-1.6083800000000001
 30
0.0
 10
-2.05979
 20
-1.6083800000000001
 30
0.0
 10
-2.05979
 20
-1.6083800000000001
 30
0.0
 10
-1.2800100000000001
 20
-0.9606800000000001
 30
0.0
 10
-1.2800100000000001
 20
-0.9606800000000001
 30
0.0
  0
SPLINE
  5
2F
100
AcDbEntity
  8
Ebene 1
100
AcDbSpline
210
0.0
220
0.0
230
1.0
 70
     1
 71
     3
 72
    24
 73
    20
 74
     0
 42
0.0000000001
 43
0.0000000001
 40
0.0
 40
0.0
 40
0.0
 40
0.0
 40
0.2
 40
0.2
 40
0.2
 40
0.2
 40
0.4
 40
0.4
 40
0.4
 40
0.4
 40
0.6000000000000001
 40
0.6000000000000001
 40
0.6000000000000001
 40
0.6000000000000001
 40
0.8
 40
0.8
 40
0.8
 40
0.8
 40
1.0
 40
1.0
 40
1.0
 40
1.0
 10
-0.39101
 20
-1.5017
 30
0.0
 10
-0.28941
 20
-1.5245600000000001
 30
0.0
 10
-0.14717
 20
-1.54488
 30
0.0
 10
-0.09637
 20
-1.62616
 30
0.0
 10
-0.09637
 20
-1.62616
 30
0.0
 10
-0.5459500000000001
 20
-1.5982200000000002
 30
0.0
 10
-0.8786900000000001
 20
-2.0325600000000001
 30
0.0
 10
-1.21143
 20
-2.2814800000000002
 30
0.0
 10
-1.21143
 20
-2.2814800000000002
 30
0.0
 10
-1.21143
 20
-2.2814800000000002
 30
0.0
 10
-1.1072900000000001
 20
-2.0833600000000003
 30
0.0
 10
-1.1072900000000001
 20
-2.0833600000000003
 30
0.0
 10
-1.1072900000000001
 20
-2.0833600000000003
 30
0.0
 10
-1.0183900000000001
 20
-1.9995400000000001
 30
0.0
 10
-0.94981
 20
-1.8954000000000002
 30
0.0
 10
-0.8431300000000001
 20
-1.8319000000000001
 30
0.0
 10
-0.8431300000000001
 20
-1.8319000000000001
 30
0.0
 10
-0.8431300000000001
 20
-1.8319000000000001
 30
0.0
 10
-0.39101
 20
-1.5017
 30
0.0
 10
-0.39101
 20
-1.5017
 30
0.0
  0
SPLINE
  5
30
100
AcDbEntity
  8
Ebene 1
100
AcDbSpline
210
0.0
220
0.0
230
1.0
 70
     1
 71
     3
 72
    24
 73
    20
 74
     0
 42
0.0000000001
 43
0.0000000001
 40
0.0
 40
0.0
 40
0.0
 40
0.0
 40
0.2
 40
0.2
 40
0.2
 40
0.2
 40
0.4
 40
0.4
 40
0.4
 40
0.4
 40
0.6000000000000001
 40
0.6000000000000001
 40
0.6000000000000001
 40
0.6000000000000001
 40
0.8
 40
0.8
 40
0.8
 40
0.8
 40
1.0
 40
1.0
 40
1.0
 40
1.0
 10
2.0727800000000003
 20
-1.9639800000000001
 30
0.0
 10
2.29122
 20
-1.9208000000000001
 30
0.0
 10
2.4715600000000002
 20
-2.0833600000000003
 30
0.0
 10
2.6773000000000002
 20
-2.0706600000000002
 30
0.0
 10
2.6773000000000002
 20
-2.0706600000000002
 30
0.0
 10
2.6696800000000001
 20
-2.27386
 30
0.0
 10
3.0659200000000002
 20
-2.4135600000000004
 30
0.0
 10
2.7281000000000004
 20
-2.8606000000000003
 30
0.0
 10
2.7281000000000004
 20
-2.8606000000000003
 30
0.0
 10
2.7103200000000003
 20
-2.8021800000000003
 30
0.0
 10
2.7357200000000002
 20
-2.7310600000000003
 30
0.0
 10
2.7458800000000001
 20
-2.6853400000000001
 30
0.0
 10
2.7458800000000001
 20
-2.6853400000000001
 30
0.0
 10
2.8246200000000004
 20
-2.27894
 30
0.0
 10
2.3369400000000002
 20
-1.9309600000000002
 30
0.0
 10
1.9330800000000001
 20
-2.06304
 30
0.0
 10
1.9330800000000001
 20
-2.06304
 30
0.0
 10
1.9330800000000001
 20
-1.9843000000000002
 30
0.0
 10
2.0219800000000001
 20
-1.9868400000000002
 30
0.0
 10
2.0727800000000003
 20
-1.9639800000000001
 30
0.0
  0
SPLINE
  5
31
100
AcDbEntity
  8
Ebene 1
100
AcDbSpline
210
0.0
220
0.0
230
1.0
 70
     1
 71
     3
 72
    24
 73
    20
 74
     0
 42
0.0000000001
 43
0.0000000001
 40
0.0
 40
0.0
 40
0.0
 40
0.0
 40
0.2
 40
0.2
 40
0.2
 40
0.2
 40
0.4
 40
0.4
 40
0.4
 40
0.4
 40
0.6000000000000001
 40
0.6000000000000001
 40
0.6000000000000001
 40
0.6000000000000001
 40
0.8
 40
0.8
 40
0.8
 40
0.8
 40
1.0
 40
1.0
 40
1.0
 40
1.0
 10
0.00268
 20
-2.06812
 30
0.0
 10
0.5691000000000001
 20
-1.9766800000000002
 30
0.0
 10
1.05932
 20
-2.5964400000000003
 30
0.0
 10
0.7748400000000001
 20
-3.1044400000000003
 30
0.0
 10
0.7748400000000001
 20
-3.1044400000000003
 30
0.0
 10
0.72404
 20
-3.1628600000000002
 30
0.0
 10
0.66054
 20
-3.2187400000000004
 30
0.0
 10
0.5945
 20
-3.2466800000000005
 30
0.0
 10
0.5945
 20
-3.2466800000000005
 30
0.0
 10
0.03062
 20
-3.2670000000000003
 30
0.0
 10
-0.50785
 20
-3.5997400000000002
 30
0.0
 10
-1.04379
 20
-3.4905200000000001
 30
0.0
 10
-1.04379
 20
-3.4905200000000001
 30
0.0
 10
-1.12253
 20
-3.4600400000000002
 30
0.0
 10
-1.1911100000000001
 20
-3.3965400000000003
 30
0.0
 10
-1.2368300000000001
 20
-3.3228800000000001
 30
0.0
 10
-1.2368300000000001
 20
-3.3228800000000001
 30
0.0
 10
-1.2825500000000001
 20
-2.6396200000000003
 30
0.0
 10
-0.6500900000000001
 20
-2.0757400000000001
 30
0.0
 10
0.00268
 20
-2.06812
 30
0.0
  0
SPLINE
  5
32
100
AcDbEntity
  8
Ebene 1
 62
     7
100
AcDbSpline
210
0.0
220
0.0
230
1.0
 70
     1
 71
     3
 72
    92
 73
    88
 74
     0
 42
0.0000000001
 43
0.0000000001
 40
0.0
 40
0.0
 40
0.0
 40
0.0
 40
0.0454545454545455
 40
0.0454545454545455
 40
0.0454545454545455
 40
0.0454545454545455
 40
0.0909090909090909
 40
0.0909090909090909
 40
0.0909090909090909
 40
0.0909090909090909
 40
0.1363636363636364
 40
0.1363636363636364
 40
0.1363636363636364
 40
0.1363636363636364
 40
0.1818181818181818
 40
0.1818181818181818
 40
0.1818181818181818
 40
0.1818181818181818
 40
0.2272727272727273
 40
0.2272727272727273
 40
0.2272727272727273
 40
0.2272727272727273
 40
0.2727272727272728
 40
0.2727272727272728
 40
0.2727272727272728
 40
0.2727272727272728
 40
0.3181818181818182
 40
0.3181818181818182
 40
0.3181818181818182
 40
0.3181818181818182
 40
0.3636363636363637
 40
0.3636363636363637
 40
0.3636363636363637
 40
0.3636363636363637
 40
0.4090909090909092
 40
0.4090909090909092
 40
0.4090909090909092
 40
0.4090909090909092
 40
0.4545454545454546
 40
0.4545454545454546
 40
0.4545454545454546
 40
0.4545454545454546
 40
0.5000000000000001
 40
0.5000000000000001
 40
0.5000000000000001
 40
0.5000000000000001
 40
0.5454545454545455
 40
0.5454545454545455
 40
0.5454545454545455
 40
0.5454545454545455
 40
0.5909090909090909
 40
0.5909090909090909
 40
0.5909090909090909
 40
0.5909090909090909
 40
0.6363636363636364
 40
0.6363636363636364
 40
0.6363636363636364
 40
0.6363636363636364
 40
0.6818181818181818
 40
0.6818181818181818
 40
0.6818181818181818
 40
0.6818181818181818
 40
0.7272727272727272
 40
0.7272727272727272
 40
0.7272727272727272
 40
0.7272727272727272
 40
0.7727272727272726
 40
0.7727272727272726
 40
0.7727272727272726
 40
0.7727272727272726
 40
0.818181818181818
 40
0.818181818181818
 40
0.818181818181818
 40
0.818181818181818
 40
0.8636363636363634
 40
0.8636363636363634
 40
0.8636363636363634
 40
0.8636363636363634
 40
0.9090909090909088
 40
0.9090909090909088
 40
0.9090909090909088
 40
0.9090909090909088
 40
0.9545454545454543
 40
0.9545454545454543
 40
0.9545454545454543
 40
0.9545454545454543
 40
1.0
 40
1.0
 40
1.0
 40
1.0
 10
-0.4926100000000001
 20
-3.0739600000000005
 30
0.0
 10
-0.6856500000000001
 20
-3.0917400000000002
 30
0.0
 10
-0.8075700000000001
 20
-3.2085800000000004
 30
0.0
 10
-0.99299
 20
-3.2212800000000001
 30
0.0
 10
-0.99299
 20
-3.2212800000000001
 30
0.0
 10
-0.9599700000000001
 20
-2.9876
 30
0.0
 10
-0.6881900000000001
 20
-2.9571200000000002
 30
0.0
 10
-0.50785
 20
-2.8860000000000001
 30
0.0
 10
-0.50785
 20
-2.8860000000000001
 30
0.0
 10
-0.50785
 20
-2.8860000000000001
 30
0.0
 10
-0.25131
 20
-2.7894800000000002
 30
0.0
 10
-0.25131
 20
-2.7894800000000002
 30
0.0
 10
-0.25131
 20
-2.7894800000000002
 30
0.0
 10
-0.32751
 20
-2.7539200000000004
 30
0.0
 10
-0.40371
 20
-2.8377400000000002
 30
0.0
 10
-0.4824500000000001
 20
-2.8377400000000002
 30
0.0
 10
-0.4824500000000001
 20
-2.8377400000000002
 30
0.0
 10
-0.6094500000000001
 20
-2.8885400000000003
 30
0.0
 10
-0.7516900000000001
 20
-2.9190200000000002
 30
0.0
 10
-0.88885
 20
-2.9241000000000001
 30
0.0
 10
-0.88885
 20
-2.9241000000000001
 30
0.0
 10
-0.6881900000000001
 20
-2.5862800000000004
 30
0.0
 10
-0.23861
 20
-2.5989800000000001
 30
0.0
 10
0.11952
 20
-2.5685000000000002
 30
0.0
 10
0.11952
 20
-2.5685000000000002
 30
0.0
 10
0.11952
 20
-2.5685000000000002
 30
0.0
 10
0.20842
 20
-2.5558000000000001
 30
0.0
 10
0.20842
 20
-2.5558000000000001
 30
0.0
 10
0.20842
 20
-2.5558000000000001
 30
0.0
 10
-0.07097
 20
-2.5177
 30
0.0
 10
-0.3656100000000001
 20
-2.5583400000000003
 30
0.0
 10
-0.6627900000000001
 20
-2.5786600000000002
 30
0.0
 10
-0.6627900000000001
 20
-2.5786600000000002
 30
0.0
 10
-0.40371
 20
-2.2408400000000004
 30
0.0
 10
0.05602
 20
-2.2433800000000002
 30
0.0
 10
0.3887600000000001
 20
-2.4999200000000004
 30
0.0
 10
0.3887600000000001
 20
-2.4999200000000004
 30
0.0
 10
0.3887600000000001
 20
-2.4999200000000004
 30
0.0
 10
0.28716
 20
-2.3729200000000001
 30
0.0
 10
0.28716
 20
-2.3729200000000001
 30
0.0
 10
0.28716
 20
-2.3729200000000001
 30
0.0
 10
0.28716
 20
-2.3729200000000001
 30
0.0
 10
0.04332
 20
-2.2103600000000001
 30
0.0
 10
0.04332
 20
-2.2103600000000001
 30
0.0
 10
0.04332
 20
-2.2103600000000001
 30
0.0
 10
0.37606
 20
-2.13924
 30
0.0
 10
0.72404
 20
-2.4211800000000001
 30
0.0
 10
0.7494400000000001
 20
-2.7615400000000001
 30
0.0
 10
0.7494400000000001
 20
-2.7615400000000001
 30
0.0
 10
0.7367400000000001
 20
-2.9241000000000001
 30
0.0
 10
0.63514
 20
-3.0765000000000002
 30
0.0
 10
0.4675
 20
-3.0968200000000001
 30
0.0
 10
0.4675
 20
-3.0968200000000001
 30
0.0
 10
0.4675
 20
-3.0968200000000001
 30
0.0
 10
0.4167
 20
-3.11206
 30
0.0
 10
0.4167
 20
-3.11206
 30
0.0
 10
0.4167
 20
-3.11206
 30
0.0
 10
0.33796
 20
-3.1654000000000004
 30
0.0
 10
0.4294000000000001
 20
-3.0409400000000004
 30
0.0
 10
0.4395600000000001
 20
-3.0079200000000004
 30
0.0
 10
0.4395600000000001
 20
-3.0079200000000004
 30
0.0
 10
0.4675
 20
-2.9850600000000003
 30
0.0
 10
0.4802
 20
-2.9469600000000002
 30
0.0
 10
0.4294000000000001
 20
-2.94442
 30
0.0
 10
0.4294000000000001
 20
-2.94442
 30
0.0
 10
0.27446
 20
-3.1222200000000004
 30
0.0
 10
0.04332
 20
-3.1882600000000001
 30
0.0
 10
-0.17257
 20
-3.2339800000000003
 30
0.0
 10
-0.17257
 20
-3.2339800000000003
 30
0.0
 10
-0.13447
 20
-3.1730200000000002
 30
0.0
 10
-0.05827
 20
-3.1298400000000002
 30
0.0
 10
-0.00747
 20
-3.0841200000000004
 30
0.0
 10
-0.00747
 20
-3.0841200000000004
 30
0.0
 10
-0.00747
 20
-3.0841200000000004
 30
0.0
 10
0.23636
 20
-2.8809200000000001
 30
0.0
 10
0.23636
 20
-2.8809200000000001
 30
0.0
 10
0.23636
 20
-2.8809200000000001
 30
0.0
 10
-0.10907
 20
-2.9723600000000001
 30
0.0
 10
-0.37831
 20
-3.3254200000000003
 30
0.0
 10
-0.7516900000000001
 20
-3.3355800000000002
 30
0.0
 10
-0.7516900000000001
 20
-3.3355800000000002
 30
0.0
 10
-0.7516900000000001
 20
-3.3355800000000002
 30
0.0
 10
-0.6881900000000001
 20
-3.2517600000000004
 30
0.0
 10
-0.6881900000000001
 20
-3.2517600000000004
 30
0.0
 10
-0.6881900000000001
 20
-3.2517600000000004
 30
0.0
 10
-0.14209
 20
-2.9799800000000003
 30
0.0
 10
-0.3757700000000001
 20
-3.0130000000000003
 30
0.0
 10
-0.4926100000000001
 20
-3.0739600000000005
 30
0.0
  0
SPLINE
  5
33
100
AcDbEntity
  8
Ebene 1
100
AcDbSpline
210
0.0
220
0.0
230
1.0
 70
     1
 71
     3
 72
    32
 73
    28
 74
     0
 42
0.0000000001
 43
0.0000000001
 40
0.0
 40
0.0
 40
0.0
 40
0.0
 40
0.1428571428571429
 40
0.1428571428571429
 40
0.1428571428571429
 40
0.1428571428571429
 40
0.2857142857142857
 40
0.2857142857142857
 40
0.2857142857142857
 40
0.2857142857142857
 40
0.4285714285714286
 40
0.4285714285714286
 40
0.4285714285714286
 40
0.4285714285714286
 40
0.5714285714285714
 40
0.5714285714285714
 40
0.5714285714285714
 40
0.5714285714285714
 40
0.7142857142857142
 40
0.7142857142857142
 40
0.7142857142857142
 40
0.7142857142857142
 40
0.857142857142857
 40
0.857142857142857
 40
0.857142857142857
 40
0.857142857142857
 40
1.0
 40
1.0
 40
1.0
 40
1.0
 10
-2.10297
 20
-3.4041600000000001
 30
0.0
 10
-1.8642100000000001
 20
-3.4625800000000004
 30
0.0
 10
-1.5543300000000002
 20
-3.4117800000000003
 30
0.0
 10
-1.3892300000000002
 20
-3.6327600000000002
 30
0.0
 10
-1.3892300000000002
 20
-3.6327600000000002
 30
0.0
 10
-1.3485900000000002
 20
-3.6810200000000002
 30
0.0
 10
-1.33843
 20
-3.7521400000000003
 30
0.0
 10
-1.33335
 20
-3.8054800000000002
 30
0.0
 10
-1.33335
 20
-3.8054800000000002
 30
0.0
 10
-1.3028700000000002
 20
-3.9274000000000004
 30
0.0
 10
-1.5695700000000001
 20
-4.0442400000000003
 30
0.0
 10
-1.4705100000000002
 20
-3.8664400000000003
 30
0.0
 10
-1.4705100000000002
 20
-3.8664400000000003
 30
0.0
 10
-1.4451100000000001
 20
-3.8054800000000002
 30
0.0
 10
-1.46543
 20
-3.7394400000000001
 30
0.0
 10
-1.4755900000000002
 20
-3.6784800000000004
 30
0.0
 10
-1.4755900000000002
 20
-3.6784800000000004
 30
0.0
 10
-1.9302500000000002
 20
-3.2847800000000005
 30
0.0
 10
-2.5220700000000003
 20
-3.6429200000000002
 30
0.0
 10
-2.8954500000000003
 20
-3.9909000000000003
 30
0.0
 10
-2.8954500000000003
 20
-3.9909000000000003
 30
0.0
 10
-2.8802100000000004
 20
-3.8791400000000005
 30
0.0
 10
-2.69225
 20
-3.8207200000000001
 30
0.0
 10
-2.6185900000000002
 20
-3.7089600000000003
 30
0.0
 10
-2.6185900000000002
 20
-3.7089600000000003
 30
0.0
 10
-2.4661900000000001
 20
-3.5768800000000005
 30
0.0
 10
-2.2909300000000004
 20
-3.4473400000000001
 30
0.0
 10
-2.10297
 20
-3.4041600000000001
 30
0.0
  0
SPLINE
  5
34
100
AcDbEntity
  8
Ebene 1
100
AcDbSpline
210
0.0
220
0.0
230
1.0
 70
     1
 71
     3
 72
    32
 73
    28
 74
     0
 42
0.0000000001
 43
0.0000000001
 40
0.0
 40
0.0
 40
0.0
 40
0.0
 40
0.1428571428571429
 40
0.1428571428571429
 40
0.1428571428571429
 40
0.1428571428571429
 40
0.2857142857142857
 40
0.2857142857142857
 40
0.2857142857142857
 40
0.2857142857142857
 40
0.4285714285714286
 40
0.4285714285714286
 40
0.4285714285714286
 40
0.4285714285714286
 40
0.5714285714285714
 40
0.5714285714285714
 40
0.5714285714285714
 40
0.5714285714285714
 40
0.7142857142857142
 40
0.7142857142857142
 40
0.7142857142857142
 40
0.7142857142857142
 40
0.857142857142857
 40
0.857142857142857
 40
0.857142857142857
 40
0.857142857142857
 40
1.0
 40
1.0
 40
1.0
 40
1.0
 10
-2.0242300000000002
 20
-3.7140400000000002
 30
0.0
 10
-1.8667500000000001
 20
-3.7394400000000001
 30
0.0
 10
-1.6864100000000002
 20
-3.7572200000000002
 30
0.0
 10
-1.54925
 20
-3.8156400000000001
 30
0.0
 10
-1.54925
 20
-3.8156400000000001
 30
0.0
 10
-1.5644900000000002
 20
-3.8537400000000002
 30
0.0
 10
-1.6127500000000001
 20
-3.8537400000000002
 30
0.0
 10
-1.6483100000000002
 20
-3.8562800000000004
 30
0.0
 10
-1.6483100000000002
 20
-3.8562800000000004
 30
0.0
 10
-1.7321300000000002
 20
-4.2347400000000004
 30
0.0
 10
-2.2096500000000003
 20
-4.0620200000000004
 30
0.0
 10
-2.44333
 20
-4.1966400000000004
 30
0.0
 10
-2.44333
 20
-4.1966400000000004
 30
0.0
 10
-2.4763500000000001
 20
-4.1585400000000003
 30
0.0
 10
-2.3925300000000003
 20
-4.1255200000000007
 30
0.0
 10
-2.4357100000000003
 20
-4.0975800000000007
 30
0.0
 10
-2.4357100000000003
 20
-4.0975800000000007
 30
0.0
 10
-2.5119100000000003
 20
-4.1306000000000003
 30
0.0
 10
-2.51953
 20
-4.2372800000000002
 30
0.0
 10
-2.5779500000000004
 20
-4.2652200000000002
 30
0.0
 10
-2.5779500000000004
 20
-4.2652200000000002
 30
0.0
 10
-2.69225
 20
-4.1712400000000001
 30
0.0
 10
-2.4890500000000002
 20
-4.0721800000000004
 30
0.0
 10
-2.4509500000000002
 20
-3.9782000000000002
 30
0.0
 10
-2.4509500000000002
 20
-3.9782000000000002
 30
0.0
 10
-2.31887
 20
-3.8766000000000003
 30
0.0
 10
-2.1639300000000001
 20
-3.7978600000000005
 30
0.0
 10
-2.0242300000000002
 20
-3.7140400000000002
 30
0.0
  0
SPLINE
  5
35
100
AcDbEntity
  8
Ebene 1
 62
     7
100
AcDbSpline
210
0.0
220
0.0
230
1.0
 70
     1
 71
     3
 72
    20
 73
    16
 74
     0
 42
0.0000000001
 43
0.0000000001
 40
0.0
 40
0.0
 40
0.0
 40
0.0
 40
0.25
 40
0.25
 40
0.25
 40
0.25
 40
0.5
 40
0.5
 40
0.5
 40
0.5
 40
0.75
 40
0.75
 40
0.75
 40
0.75
 40
1.0
 40
1.0
 40
1.0
 40
1.0
 10
0.9297800000000001
 20
-3.9070800000000001
 30
0.0
 10
1.0974200000000001
 20
-3.9858200000000004
 30
0.0
 10
1.2244200000000001
 20
-4.1636200000000008
 30
0.0
 10
1.2498200000000002
 20
-4.3515800000000002
 30
0.0
 10
1.2498200000000002
 20
-4.3515800000000002
 30
0.0
 10
0.9704200000000001
 20
-4.2322000000000006
 30
0.0
 10
1.10504
 20
-4.09504
 30
0.0
 10
0.9374000000000001
 20
-4.0417000000000005
 30
0.0
 10
0.9374000000000001
 20
-4.0417000000000005
 30
0.0
 10
0.9374000000000001
 20
-4.0417000000000005
 30
0.0
 10
0.9247000000000001
 20
-4.0061400000000003
 30
0.0
 10
0.9247000000000001
 20
-4.0061400000000003
 30
0.0
 10
0.9247000000000001
 20
-4.0061400000000003
 30
0.0
 10
0.9247000000000001
 20
-4.0061400000000003
 30
0.0
 10
0.9297800000000001
 20
-3.9070800000000001
 30
0.0
 10
0.9297800000000001
 20
-3.9070800000000001
 30
0.0
  0
SPLINE
  5
36
100
AcDbEntity
  8
Ebene 1
 62
     7
100
AcDbSpline
210
0.0
220
0.0
230
1.0
 70
     1
 71
     3
 72
    16
 73
    12
 74
     0
 42
0.0000000001
 43
0.0000000001
 40
0.0
 40
0.0
 40
0.0
 40
0.0
 40
0.3333333333333333
 40
0.3333333333333333
 40
0.3333333333333333
 40
0.3333333333333333
 40
0.6666666666666666
 40
0.6666666666666666
 40
0.6666666666666666
 40
0.6666666666666666
 40
1.0
 40
1.0
 40
1.0
 40
1.0
 10
0.5945
 20
-3.9451800000000001
 30
0.0
 10
0.8129400000000001
 20
-4.0061400000000003
 30
0.0
 10
0.8662800000000001
 20
-4.3134800000000002
 30
0.0
 10
0.8002400000000001
 20
-4.4938200000000004
 30
0.0
 10
0.8002400000000001
 20
-4.4938200000000004
 30
0.0
 10
0.8002400000000001
 20
-4.4938200000000004
 30
0.0
 10
0.5056000000000001
 20
-4.2093400000000001
 30
0.0
 10
0.5056000000000001
 20
-4.2093400000000001
 30
0.0
 10
0.5056000000000001
 20
-4.2093400000000001
 30
0.0
 10
0.4929000000000001
 20
-4.1102800000000004
 30
0.0
 10
0.5056000000000001
 20
-3.9985200000000005
 30
0.0
 10
0.5945
 20
-3.9451800000000001
 30
0.0
  0
SPLINE
  5
37
100
AcDbEntity
  8
Ebene 1
 62
     7
100
AcDbSpline
210
0.0
220
0.0
230
1.0
 70
     1
 71
     3
 72
    12
 73
     8
 74
     0
 42
0.0000000001
 43
0.0000000001
 40
0.0
 40
0.0
 40
0.0
 40
0.0
 40
0.5
 40
0.5
 40
0.5
 40
0.5
 40
1.0
 40
1.0
 40
1.0
 40
1.0
 10
0.13222
 20
-4.00868
 30
0.0
 10
0.4167
 20
-4.0518600000000005
 30
0.0
 10
0.3252600000000001
 20
-4.3998400000000002
 30
0.0
 10
0.28716
 20
-4.5979600000000005
 30
0.0
 10
0.28716
 20
-4.5979600000000005
 30
0.0
 10
0.20842
 20
-4.4201600000000001
 30
0.0
 10
0.06872
 20
-4.2220400000000007
 30
0.0
 10
0.13222
 20
-4.00868
 30
0.0
  0
SPLINE
  5
38
100
AcDbEntity
  8
Ebene 1
 62
     7
100
AcDbSpline
210
0.0
220
0.0
230
1.0
 70
     1
 71
     3
 72
    16
 73
    12
 74
     0
 42
0.0000000001
 43
0.0000000001
 40
0.0
 40
0.0
 40
0.0
 40
0.0
 40
0.3333333333333333
 40
0.3333333333333333
 40
0.3333333333333333
 40
0.3333333333333333
 40
0.6666666666666666
 40
0.6666666666666666
 40
0.6666666666666666
 40
0.6666666666666666
 40
1.0
 40
1.0
 40
1.0
 40
1.0
 10
-0.09637
 20
-4.1102800000000004
 30
0.0
 10
0.05602
 20
-4.1991800000000001
 30
0.0
 10
-0.09637
 20
-4.4125400000000008
 30
0.0
 10
-0.17257
 20
-4.5090600000000007
 30
0.0
 10
-0.17257
 20
-4.5090600000000007
 30
0.0
 10
-0.19797
 20
-4.4252400000000005
 30
0.0
 10
-0.18527
 20
-4.3033200000000003
 30
0.0
 10
-0.18527
 20
-4.2042600000000006
 30
0.0
 10
-0.18527
 20
-4.2042600000000006
 30
0.0
 10
-0.14717
 20
-4.1864800000000004
 30
0.0
 10
-0.10907
 20
-4.1509200000000002
 30
0.0
 10
-0.09637
 20
-4.1102800000000004
 30
0.0
  0
SPLINE
  5
39
100
AcDbEntity
  8
Ebene 1
 62
     7
100
AcDbSpline
210
0.0
220
0.0
230
1.0
 70
     1
 71
     3
 72
    16
 73
    12
 74
     0
 42
0.0000000001
 43
0.0000000001
 40
0.0
 40
0.0
 40
0.0
 40
0.0
 40
0.3333333333333333
 40
0.3333333333333333
 40
0.3333333333333333
 40
0.3333333333333333
 40
0.6666666666666666
 40
0.6666666666666666
 40
0.6666666666666666
 40
0.6666666666666666
 40
1.0
 40
1.0
 40
1.0
 40
1.0
 10
-4.5439100000000003
 20
-4.4201600000000001
 30
0.0
 10
-4.5159700000000003
 20
-4.4125400000000008
 30
0.0
 10
-4.49057
 20
-4.4354000000000005
 30
0.0
 10
-4.48041
 20
-4.4582600000000001
 30
0.0
 10
-4.48041
 20
-4.4582600000000001
 30
0.0
 10
-4.5743900000000002
 20
-4.6462200000000005
 30
0.0
 10
-4.6810700000000001
 20
-4.8468800000000005
 30
0.0
 10
-4.7979100000000008
 20
-5.0221400000000003
 30
0.0
 10
-4.7979100000000008
 20
-5.0221400000000003
 30
0.0
 10
-4.8207700000000004
 20
-4.8037000000000001
 30
0.0
 10
-4.8055300000000001
 20
-4.4811200000000007
 30
0.0
 10
-4.5439100000000003
 20
-4.4201600000000001
 30
0.0
  0
SPLINE
  5
3A
100
AcDbEntity
  8
Ebene 1
 62
     7
100
AcDbSpline
210
0.0
220
0.0
230
1.0
 70
     1
 71
     3
 72
    12
 73
     8
 74
     0
 42
0.0000000001
 43
0.0000000001
 40
0.0
 40
0.0
 40
0.0
 40
0.0
 40
0.5
 40
0.5
 40
0.5
 40
0.5
 40
1.0
 40
1.0
 40
1.0
 40
1.0
 10
-4.7471100000000002
 20
-4.4227000000000007
 30
0.0
 10
-4.7471100000000002
 20
-4.4227000000000007
 30
0.0
 10
-4.91221
 20
-4.7554400000000001
 30
0.0
 10
-4.91221
 20
-4.7554400000000001
 30
0.0
 10
-4.91221
 20
-4.7554400000000001
 30
0.0
 10
-4.9172900000000004
 20
-4.6284400000000003
 30
0.0
 10
-4.8385500000000006
 20
-4.5065200000000001
 30
0.0
 10
-4.7471100000000002
 20
-4.4227000000000007
 30
0.0
  0
SPLINE
  5
3B
100
AcDbEntity
  8
Ebene 1
 62
     7
100
AcDbSpline
210
0.0
220
0.0
230
1.0
 70
     1
 71
     3
 72
    24
 73
    20
 74
     0
 42
0.0000000001
 43
0.0000000001
 40
0.0
 40
0.0
 40
0.0
 40
0.0
 40
0.2
 40
0.2
 40
0.2
 40
0.2
 40
0.4
 40
0.4
 40
0.4
 40
0.4
 40
0.6000000000000001
 40
0.6000000000000001
 40
0.6000000000000001
 40
0.6000000000000001
 40
0.8
 40
0.8
 40
0.8
 40
0.8
 40
1.0
 40
1.0
 40
1.0
 40
1.0
 10
-3.7590500000000002
 20
-4.5370000000000008
 30
0.0
 10
-3.7590500000000002
 20
-4.5370000000000008
 30
0.0
 10
-3.7234900000000004
 20
-4.5395400000000006
 30
0.0
 10
-3.7234900000000004
 20
-4.5395400000000006
 30
0.0
 10
-3.7234900000000004
 20
-4.5395400000000006
 30
0.0
 10
-3.6472900000000004
 20
-4.8037000000000001
 30
0.0
 10
-3.8555700000000002
 20
-5.02468
 30
0.0
 10
-3.9012900000000004
 20
-5.2685200000000005
 30
0.0
 10
-3.9012900000000004
 20
-5.2685200000000005
 30
0.0
 10
-4.1425900000000002
 20
-5.1770800000000001
 30
0.0
 10
-4.2467300000000003
 20
-4.6132
 30
0.0
 10
-3.9165300000000003
 20
-4.6284400000000003
 30
0.0
 10
-3.9165300000000003
 20
-4.6284400000000003
 30
0.0
 10
-3.9165300000000003
 20
-4.6284400000000003
 30
0.0
 10
-3.9038300000000001
 20
-4.7122600000000006
 30
0.0
 10
-3.9038300000000001
 20
-4.7122600000000006
 30
0.0
 10
-3.9038300000000001
 20
-4.7122600000000006
 30
0.0
 10
-3.9038300000000001
 20
-4.7122600000000006
 30
0.0
 10
-3.7590500000000002
 20
-4.5370000000000008
 30
0.0
 10
-3.7590500000000002
 20
-4.5370000000000008
 30
0.0
  0
SPLINE
  5
3C
100
AcDbEntity
  8
Ebene 1
 62
     7
100
AcDbSpline
210
0.0
220
0.0
230
1.0
 70
     1
 71
     3
 72
    16
 73
    12
 74
     0
 42
0.0000000001
 43
0.0000000001
 40
0.0
 40
0.0
 40
0.0
 40
0.0
 40
0.3333333333333333
 40
0.3333333333333333
 40
0.3333333333333333
 40
0.3333333333333333
 40
0.6666666666666666
 40
0.6666666666666666
 40
0.6666666666666666
 40
0.6666666666666666
 40
1.0
 40
1.0
 40
1.0
 40
1.0
 10
-4.3635700000000002
 20
-4.5624000000000002
 30
0.0
 10
-4.3635700000000002
 20
-4.5624000000000002
 30
0.0
 10
-4.2518100000000008
 20
-4.60304
 30
0.0
 10
-4.2518100000000008
 20
-4.60304
 30
0.0
 10
-4.2518100000000008
 20
-4.60304
 30
0.0
 10
-4.3026100000000005
 20
-4.7656000000000001
 30
0.0
 10
-4.3991300000000004
 20
-4.9332400000000005
 30
0.0
 10
-4.4931100000000006
 20
-5.0754800000000007
 30
0.0
 10
-4.4931100000000006
 20
-5.0754800000000007
 30
0.0
 10
-4.4854900000000004
 20
-4.9154600000000004
 30
0.0
 10
-4.49057
 20
-4.6970200000000002
 30
0.0
 10
-4.3635700000000002
 20
-4.5624000000000002
 30
0.0
  0
SPLINE
  5
3D
100
AcDbEntity
  8
Ebene 1
 62
     7
100
AcDbSpline
210
0.0
220
0.0
230
1.0
 70
     1
 71
     3
 72
    20
 73
    16
 74
     0
 42
0.0000000001
 43
0.0000000001
 40
0.0
 40
0.0
 40
0.0
 40
0.0
 40
0.25
 40
0.25
 40
0.25
 40
0.25
 40
0.5
 40
0.5
 40
0.5
 40
0.5
 40
0.75
 40
0.75
 40
0.75
 40
0.75
 40
1.0
 40
1.0
 40
1.0
 40
1.0
 10
-2.6287500000000001
 20
-5.1389800000000001
 30
0.0
 10
-2.6287500000000001
 20
-5.1389800000000001
 30
0.0
 10
-2.7913100000000002
 20
-5.3625000000000007
 30
0.0
 10
-2.7913100000000002
 20
-5.3625000000000007
 30
0.0
 10
-2.7913100000000002
 20
-5.3625000000000007
 30
0.0
 10
-2.7913100000000002
 20
-5.3625000000000007
 30
0.0
 10
-2.8827500000000001
 20
-5.4463200000000001
 30
0.0
 10
-2.8827500000000001
 20
-5.4463200000000001
 30
0.0
 10
-2.8827500000000001
 20
-5.4463200000000001
 30
0.0
 10
-2.8725900000000002
 20
-5.2583600000000006
 30
0.0
 10
-2.8141700000000003
 20
-5.0754800000000007
 30
0.0
 10
-2.7659100000000003
 20
-4.90022
 30
0.0
 10
-2.7659100000000003
 20
-4.90022
 30
0.0
 10
-2.6693900000000004
 20
-4.9027600000000007
 30
0.0
 10
-2.6287500000000001
 20
-5.0526200000000001
 30
0.0
 10
-2.6287500000000001
 20
-5.1389800000000001
 30
0.0
  0
SPLINE
  5
3E
100
AcDbEntity
  8
Ebene 1
 62
     7
100
AcDbSpline
210
0.0
220
0.0
230
1.0
 70
     1
 71
     3
 72
    16
 73
    12
 74
     0
 42
0.0000000001
 43
0.0000000001
 40
0.0
 40
0.0
 40
0.0
 40
0.0
 40
0.3333333333333333
 40
0.3333333333333333
 40
0.3333333333333333
 40
0.3333333333333333
 40
0.6666666666666666
 40
0.6666666666666666
 40
0.6666666666666666
 40
0.6666666666666666
 40
1.0
 40
1.0
 40
1.0
 40
1.0
 10
-2.48651
 20
-5.0500800000000003
 30
0.0
 10
-2.2502900000000001
 20
-5.0627800000000001
 30
0.0
 10
-2.4661900000000001
 20
-5.3371000000000004
 30
0.0
 10
-2.5525500000000001
 20
-5.4234600000000004
 30
0.0
 10
-2.5525500000000001
 20
-5.4234600000000004
 30
0.0
 10
-2.5525500000000001
 20
-5.4234600000000004
 30
0.0
 10
-2.5347700000000004
 20
-5.0780200000000004
 30
0.0
 10
-2.5347700000000004
 20
-5.0780200000000004
 30
0.0
 10
-2.5347700000000004
 20
-5.0780200000000004
 30
0.0
 10
-2.5347700000000004
 20
-5.0780200000000004
 30
0.0
 10
-2.48651
 20
-5.0500800000000003
 30
0.0
 10
-2.48651
 20
-5.0500800000000003
 30
0.0
  0
ENDSEC
  0
SECTION
  2
OBJECTS
  0
DICTIONARY
  5
19
100
AcDbDictionary
280
     0
281
     1
  3
ACAD_GROUP
350
1A
  3
ACAD_MLINESTYLE
350
1B
  3
ACAD_LAYOUT
350
1E
  3
ACAD_PLOTSETTINGS
350
22
  3
ACAD_PLOTSTYLENAME
350
1F
  3
ACAD_WIPEOUT_VARS
350
23
  0
DICTIONARY
  5
1A
102
{ACAD_REACTORS
330
19
102
}
100
AcDbDictionary
280
     0
281
     1
  0
DICTIONARY
  5
1B
102
{ACAD_REACTORS
330
19
102
}
100
AcDbDictionary
280
     0
281
     1
  3
Standard
350
1C
  0
MLINESTYLE
  5
1C
102
{ACAD_REACTORS
330
1B
102
}
100
AcDbMlineStyle
  2
Standard
 70
     0
  3

 62
     0
 51
90.0
 52
90.0
 71
     2
 49
0.5
 62
   256
  6
BYLAYER
 49
-0.5
 62
   256
  6
BYLAYER
  0
ACDBDICTIONARYWDFLT
  5
1F
102
{ACAD_REACTORS
330
19
102
}
100
AcDbDictionary
281
     1
  3
Normal
350
1D
100
AcDbDictionaryWithDefault
340
1D
  0
ACDBPLACEHOLDER
  5
1D
102
{ACAD_REACTORS
330
1F
102
}
  0
LAYOUT
  5
20
102
{ACAD_REACTORS
330
1E
102
}
100
AcDbPlotSettings
  1

  2

  4

  6

 40
0.0
 41
0.0
 42
0.0
 43
0.0
 44
0.0
 45
0.0
 46
0.0
 47
0.0
 48
0.0
 49
0.0
140
0.0
141
0.0
142
1.0
143
1.0
 70
  1024
 72
     0
 73
     0
 74
     0
  7

 75
     0
147
1.0
148
0.0
149
0.0
100
AcDbLayout
  1
Model
 70
     0
 71
     0
 10
0.0
 20
0.0
 11
0.0
 21
0.0
 12
0.0
 22
0.0
 32
0.0
 14
0.0
 24
0.0
 34
0.0
 15
0.0
 25
0.0
 35
0.0
146
0.0
 13
0.0
 23
0.0
 33
0.0
 16
0.0
 26
0.0
 36
0.0
 17
0.0
 27
0.0
 37
0.0
 76
     0
330
A
331
0
345
0
346
0
  0
LAYOUT
  5
21
102
{ACAD_REACTORS
330
1E
102
}
100
AcDbPlotSettings
  1

  2

  4

  6

 40
0.0
 41
0.0
 42
0.0
 43
0.0
 44
0.0
 45
0.0
 46
0.0
 47
0.0
 48
0.0
 49
0.0
140
0.0
141
0.0
142
1.0
143
1.0
 70
     0
 72
     0
 73
     0
 74
     0
  7

 75
     0
147
1.0
148
0.0
149
0.0
100
AcDbLayout
  1
Layout1
 70
     0
 71
     0
 10
0.0
 20
0.0
 11
0.0
 21
0.0
 12
0.0
 22
0.0
 32
0.0
 14
0.0
 24
0.0
 34
0.0
 15
0.0
 25
0.0
 35
0.0
146
0.0
 13
0.0
 23
0.0
 33
0.0
 16
0.0
 26
0.0
 36
0.0
 17
0.0
 27
0.0
 37
0.0
 76
     0
330
B
331
0
345
0
346
0
  0
DICTIONARY
  5
1E
102
{ACAD_REACTORS
330
19
102
}
100
AcDbDictionary
280
     0
281
     1
  3
Layout1
350
21
  3
Model
350
20
  0
DICTIONARY
  5
22
102
{ACAD_REACTORS
330
19
102
}
100
AcDbDictionary
280
     0
281
     1
  0
WIPEOUTVARIABLES
  5
23
100
AcDbWipeoutVariables
 70
     1
  0
ENDSEC
  0
EOF
