  0
SECTION
  2
HEADER
  9
$ACADVER
  1
AC1015
  9
$ACADMAINTVER
 70
     6
  9
$DWGCODEPAGE
  3
DOS850
  9
$INSBASE
 10
0.0
 20
0.0
 30
0.0
  9
$EXTMIN
 10
-4.76997
 20
-6.73062
 30
1.000000E+20
  9
$EXTMAX
 10
4.77406
 20
6.72577
 30
-1.000000E+20
  9
$LIMMIN
 10
0.0
 20
0.0
  9
$LIMMAX
 10
0.0
 20
0.0
  9
$ORTHOMODE
 70
     0
  9
$REGENMODE
 70
     1
  9
$FILLMODE
 70
     1
  9
$QTEXTMODE
 70
     0
  9
$MIRRTEXT
 70
     1
  9
$LTSCALE
 40
1.0
  9
$ATTMODE
 70
     1
  9
$TEXTSIZE
 40
0.2
  9
$TRACEWID
 40
0.05
  9
$TEXTSTYLE
  7
Standard
  9
$CLAYER
  8
0
  9
$CELTYPE
  6
Continuous
  9
$CECOLOR
 62
   256
  9
$CELTSCALE
 40
1.0
  9
$DISPSILH
 70
     0
  9
$DIMSCALE
 40
1.0
  9
$DIMASZ
 40
0.18
  9
$DIMEXO
 40
0.0625
  9
$DIMDLI
 40
0.38
  9
$DIMRND
 40
0.0
  9
$DIMDLE
 40
0.0
  9
$DIMEXE
 40
0.18
  9
$DIMTP
 40
0.0
  9
$DIMTM
 40
0.0
  9
$DIMTXT
 40
0.18
  9
$DIMCEN
 40
0.09
  9
$DIMTSZ
 40
0.0
  9
$DIMTOL
 70
     0
  9
$DIMLIM
 70
     0
  9
$DIMTIH
 70
     1
  9
$DIMTOH
 70
     1
  9
$DIMSE1
 70
     0
  9
$DIMSE2
 70
     0
  9
$DIMTAD
 70
     0
  9
$DIMZIN
 70
     0
  9
$DIMBLK
  1

  9
$DIMASO
 70
     1
  9
$DIMSHO
 70
     1
  9
$DIMPOST
  1

  9
$DIMAPOST
  1

  9
$DIMALT
 70
     0
  9
$DIMALTD
 70
     2
  9
$DIMALTF
 40
25.4
  9
$DIMLFAC
 40
1.0
  9
$DIMTOFL
 70
     0
  9
$DIMTVP
 40
0.0
  9
$DIMTIX
 70
     0
  9
$DIMSOXD
 70
     0
  9
$DIMSAH
 70
     0
  9
$DIMBLK1
  1

  9
$DIMBLK2
  1

  9
$DIMSTYLE
  2
Standard
  9
$DIMCLRD
 70
     0
  9
$DIMCLRE
 70
     0
  9
$DIMCLRT
 70
     0
  9
$DIMTFAC
 40
1.0
  9
$DIMGAP
 40
0.09
  9
$DIMJUST
 70
     0
  9
$DIMSD1
 70
     0
  9
$DIMSD2
 70
     0
  9
$DIMTOLJ
 70
     1
  9
$DIMTZIN
 70
     0
  9
$DIMALTZ
 70
     0
  9
$DIMALTTZ
 70
     0
  9
$DIMUPT
 70
     0
  9
$DIMDEC
 70
     4
  9
$DIMTDEC
 70
     4
  9
$DIMALTU
 70
     2
  9
$DIMALTTD
 70
     2
  9
$DIMTXSTY
  7
Standard
  9
$DIMAUNIT
 70
     0
  9
$DIMADEC
 70
     0
  9
$DIMALTRND
 40
0.0
  9
$DIMAZIN
 70
     0
  9
$DIMDSEP
 70
     0
  9
$DIMATFIT
 70
     3
  9
$DIMFRAC
 70
     0
  9
$DIMLDRBLK
  1

  9
$DIMLUNIT
 70
     2
  9
$DIMLWD
 70
     0
  9
$DIMLWE
 70
     0
  9
$DIMTMOVE
 70
     0
  9
$LUNITS
 70
     2
  9
$LUPREC
 70
     4
  9
$SKETCHINC
 40
0.1
  9
$FILLETRAD
 40
0.0
  9
$AUNITS
 70
     0
  9
$AUPREC
 70
     0
  9
$MENU
  1
acad
  9
$ELEVATION
 40
0.0
  9
$PELEVATION
 40
0.0
  9
$THICKNESS
 40
0.0
  9
$LIMCHECK
 70
     0
  9
$CHAMFERA
 40
0.0
  9
$CHAMFERB
 40
0.0
  9
$CHAMFERC
 40
0.0
  9
$CHAMFERD
 40
0.0
  9
$SKPOLY
 70
     0
  9
$TDCREATE
 40
0.000000000
  9
$TDUCREATE
 40
0.000000000
  9
$TDUPDATE
 40
0.000000000
  9
$TDUUPDATE
 40
0.000000000
  9
$TDINDWG
 40
0.0000000000
  9
$TDUSRTIMER
 40
0.0000000000
  9
$USRTIMER
 70
     1
  9
$ANGBASE
 50
0.0
  9
$ANGDIR
 70
     0
  9
$PDMODE
 70
     0
  9
$PDSIZE
 40
0.0
  9
$PLINEWID
 40
0.0
  9
$SPLFRAME
 70
     0
  9
$SPLINETYPE
 70
     6
  9
$SPLINESEGS
 70
     8
  9
$HANDSEED
  5
6A
  9
$SURFTAB1
 70
     6
  9
$SURFTAB2
 70
     6
  9
$SURFTYPE
 70
     6
  9
$SURFU
 70
     6
  9
$SURFV
 70
     6
  9
$UCSBASE
  2

  9
$UCSNAME
  2

  9
$UCSORG
 10
0.0
 20
0.0
 30
0.0
  9
$UCSXDIR
 10
1.0
 20
0.0
 30
0.0
  9
$UCSYDIR
 10
0.0
 20
1.0
 30
0.0
  9
$UCSORTHOREF
  2

  9
$UCSORTHOVIEW
 70
     0
  9
$UCSORGTOP
 10
0.0
 20
0.0
 30
0.0
  9
$UCSORGBOTTOM
 10
0.0
 20
0.0
 30
0.0
  9
$UCSORGLEFT
 10
0.0
 20
0.0
 30
0.0
  9
$UCSORGRIGHT
 10
0.0
 20
0.0
 30
0.0
  9
$UCSORGFRONT
 10
0.0
 20
0.0
 30
0.0
  9
$UCSORGBACK
 10
0.0
 20
0.0
 30
0.0
  9
$PUCSBASE
  2

  9
$PUCSNAME
  2

  9
$PUCSORG
 10
0.0
 20
0.0
 30
0.0
  9
$PUCSXDIR
 10
1.0
 20
0.0
 30
0.0
  9
$PUCSYDIR
 10
0.0
 20
1.0
 30
0.0
  9
$PUCSORTHOREF
  2

  9
$PUCSORTHOVIEW
 70
     0
  9
$PUCSORGTOP
 10
0.0
 20
0.0
 30
0.0
  9
$PUCSORGBOTTOM
 10
0.0
 20
0.0
 30
0.0
  9
$PUCSORGLEFT
 10
0.0
 20
0.0
 30
0.0
  9
$PUCSORGRIGHT
 10
0.0
 20
0.0
 30
0.0
  9
$PUCSORGFRONT
 10
0.0
 20
0.0
 30
0.0
  9
$PUCSORGBACK
 10
0.0
 20
0.0
 30
0.0
  9
$USERI1
 70
     0
  9
$USERI2
 70
     0
  9
$USERI3
 70
     0
  9
$USERI4
 70
     0
  9
$USERI5
 70
     0
  9
$USERR1
 40
0.0
  9
$USERR2
 40
0.0
  9
$USERR3
 40
0.0
  9
$USERR4
 40
0.0
  9
$USERR5
 40
0.0
  9
$WORLDVIEW
 70
     1
  9
$SHADEDGE
 70
     3
  9
$SHADEDIF
 70
    70
  9
$TILEMODE
 70
     1
  9
$MAXACTVP
 70
    16
  9
$PINSBASE
 10
0.0
 20
0.0
 30
0.0
  9
$PLIMCHECK
 70
     0
  9
$PEXTMIN
 10
1.000000E+20
 20
1.000000E+20
 30
1.000000E+20
  9
$PEXTMAX
 10
-1.000000E+20
 20
-1.000000E+20
 30
-1.000000E+20
  9
$PLIMMIN
 10
0.0
 20
0.0
  9
$PLIMMAX
 10
12.0
 20
9.0
  9
$UNITMODE
 70
     0
  9
$VISRETAIN
 70
     0
  9
$PLINEGEN
 70
     1
  9
$PSLTSCALE
 70
     0
  9
$TREEDEPTH
 70
  3020
  9
$CMLSTYLE
  2
Standard
  9
$CMLJUST
 70
     0
  9
$CMLSCALE
 40
1.0
  9
$PROXYGRAPHICS
 70
     0
  9
$MEASUREMENT
 70
     0
  9
$CELWEIGHT
370
     0
  9
$ENDCAPS
280
     0
  9
$JOINSTYLE
280
     0
  9
$LWDISPLAY
290
     0
  9
$INSUNITS
 70
     5
  9
$HYPERLINKBASE
  1

  9
$XEDIT
290
     1
  9
$CEPSNTYPE
380
     0
  9
$PSTYLEMODE
290
     1
  9
$FINGERPRINTGUID
  2

  9
$VERSIONGUID
  2

  9
$EXTNAMES
290
     1
  9
$PSVPSCALE
 40
0.0
  0
ENDSEC
  0
SECTION
  2
CLASSES
  0
CLASS
  1
LWPOLYLINE
  2
AcDbPolyline
  3
AutoCAD 2000
 90
    32768
280
     0
281
     1
  0
CLASS
  1
IMAGE
  2
AcDbRasterImage
  3
ISM
 90
    32895
280
     0
281
     1
  0
CLASS
  1
OLE2FRAME
  2
AcDbOle2Frame
  3
AutoCAD 2000
 90
    32768
280
     0
281
     1
  0
CLASS
  1
HATCH
  2
AcDbHatch
  3
AutoCAD 2000
 90
    32768
280
     0
281
     1
  0
CLASS
  1
DICTIONARYVAR
  2
AcDbDictionaryVar
  3
AutoCAD 2000
 90
    32768
280
     0
281
     0
  0
CLASS
  1
RASTERVARIABLES
  2
AcDbRasterVariables
  3
ISM
 90
    32768
280
     0
281
     0
  0
CLASS
  1
IMAGEDEF
  2
AcDbRasterImageDef
  3
ISM
 90
    32768
280
     0
281
     0
  0
CLASS
  1
IMAGEDEF_REACTOR
  2
AcDbRasterImageDefReactor
  3
ISM
 90
    32769
280
     0
281
     0
  0
CLASS
  1
IDBUFFER
  2
AcDbIdBuffer
  3
AutoCAD 2000
 90
    32768
280
     0
281
     0
  0
CLASS
  1
SPATIAL_FILTER
  2
AcDbSpatialFilter
  3
AutoCAD 2000
 90
    32768
280
     0
281
     0
  0
CLASS
  1
XRECORD
  2
AcDbXrecord
  3
AutoCAD 2000
 90
    32768
280
     0
281
     0
  0
CLASS
  1
SORTENTSTABLE
  2
AcDbSortentsTable
  3
AutoCAD 2000
 90
    32768
280
     0
281
     0
  0
CLASS
  1
LAYER_INDEX
  2
AcDbLayerIndex
  3
AutoCAD 2000
 90
    32768
280
     0
281
     0
  0
CLASS
  1
SPATIAL_INDEX
  2
AcDbSpatialIndex
  3
AutoCAD 2000
 90
    32768
280
     0
281
     0
  0
CLASS
  1
OBJECT_PTR
  2
CAseDLPNTableRecord
  3
"ASE-LPNTableRecord"
 90
    32769
280
     0
281
     0
  0
CLASS
  1
LAYOUT
  2
AcDbLayout
  3
AutoCAD 2000
 90
        0
280
     0
281
     0
  0
CLASS
  1
PLOTSETTINGS
  2
AcDbPlotSettings
  3
AutoCAD 2000
 90
    32768
280
     0
281
     0
  0
CLASS
  1
ACDBDICTIONARYWDFLT
  2
AcDbDictionaryWithDefault
  3
AutoCAD 2000
 90
        0
280
     0
281
     0
  0
CLASS
  1
ACDBPLACEHOLDER
  2
AcDbPlaceHolder
  3
AutoCAD 2000
 90
        0
280
     0
281
     0
  0
CLASS
  1
VBA_PROJECT
  2
AcDbVbaProject
  3
acadvba
 90
    32768
280
     0
281
     0
  0
CLASS
  1
WIPEOUT
  2
AcDbWipeout
  3
WipeOut|AutoCAD Express Tool|expresstools@autodesk.com
 90
    32895
280
     0
281
     1
  0
CLASS
  1
WIPEOUTVARIABLES
  2
AcDbWipeoutVariables
  3
WipeOut|AutoCAD Express Tool|expresstools@autodesk.com
 90
        0
280
     0
281
     0
  0
CLASS
  1
RTEXT
  2
RText
  3
RText|AutoCAD Express Tool|expresstools@autodesk.com
 90
    32768
280
     0
281
     1
  0
CLASS
  1
ARCALIGNEDTEXT
  2
AcDbArcAlignedText
  3
ATEXT|AutoCAD Express Tool|expresstools@autodesk.com
 90
    32768
280
     0
281
     1
  0
ENDSEC
  0
SECTION
  2
TABLES
  0
TABLE
  2
VPORT
  5
7
100
AcDbSymbolTable
 70
     1
  0
VPORT
  5
15
100
AcDbSymbolTableRecord
100
AcDbViewportTableRecord
  2
*ACTIVE
 70
     0
 10
0.0
 20
0.0
 11
1.0
 21
1.0
 12
6.591288
 22
4.579184
 13
0.0
 23
0.0
 14
1.0
 24
1.0
 15
0.0
 25
0.0
 16
0.0
 26
0.0
 36
1.0
 17
0.0
 27
0.0
 37
0.0
 40
9.158369
 41
0.688564
 42
50.0
 43
0.0
 44
0.0
 50
0.0
 51
0.0
 71
     0
 72
   100
 73
     1
 74
     1
 75
     0
 76
     0
 77
     0
 78
     0
281
     0
 65
     0
110
0.0
120
0.0
130
0.0
111
1.0
121
0.0
131
0.0
112
0.0
122
1.0
132
0.0
345
0
346
0
 79
     0
146
0.0
  0
ENDTAB
  0
TABLE
  2
LTYPE
  5
4
100
AcDbSymbolTable
 70
     3
  0
LTYPE
  5
11
100
AcDbSymbolTableRecord
100
AcDbLinetypeTableRecord
  2
ByBlock
 70
    64
  3

 72
    65
 73
     0
 40
0.0
  0
LTYPE
  5
12
100
AcDbSymbolTableRecord
100
AcDbLinetypeTableRecord
  2
ByLayer
 70
    64
  3

 72
    65
 73
     0
 40
0.0
  0
LTYPE
  5
13
100
AcDbSymbolTableRecord
100
AcDbLinetypeTableRecord
  2
Continuous
 70
    64
  3
Solid line
 72
    65
 73
     0
 40
0.0
  0
ENDTAB
  0
TABLE
  2
LAYER
  5
2
100
AcDbSymbolTable
 70
     2
  0
LAYER
  5
14
100
AcDbSymbolTableRecord
100
AcDbLayerTableRecord
  2
0
 70
     0
 62
     7
  6
Continuous
290
     1
370
    -3
390
1D
  0
LAYER
  5
24
100
AcDbSymbolTableRecord
100
AcDbLayerTableRecord
  2
Ebene 1
 70
     0
 62
     7
  6
Continuous
290
     1
370
    -3
390
1F
  0
ENDTAB
  0
TABLE
  2
STYLE
  5
3
100
AcDbSymbolTable
 70
     1
  0
STYLE
  5
17
100
AcDbSymbolTableRecord
100
AcDbTextStyleTableRecord
  2
Standard
 70
     0
 40
0.0
 41
1.0
 50
0.0
 71
     0
 42
0.0
  3
txt
  4

  0
ENDTAB
  0
TABLE
  2
VIEW
  5
5
100
AcDbSymbolTable
 70
     0
  0
ENDTAB
  0
TABLE
  2
UCS
  5
6
100
AcDbSymbolTable
 70
     0
  0
ENDTAB
  0
TABLE
  2
APPID
  5
8
100
AcDbSymbolTable
 70
     1
  0
APPID
  5
16
100
AcDbSymbolTableRecord
100
AcDbRegAppTableRecord
  2
ACAD
 70
     0
  0
ENDTAB
  0
TABLE
  2
DIMSTYLE
  5
9
100
AcDbSymbolTable
 70
     1
100
AcDbDimStyleTable
 71
     0
  0
DIMSTYLE
105
18
100
AcDbSymbolTableRecord
100
AcDbDimStyleTableRecord
  2
Standard
 70
     0
  3

  4

 40
1.0
 41
0.18
 42
0.0625
 43
0.38
 44
0.18
 45
0.0
 46
0.0
 47
0.0
 48
0.0
 71
     0
 72
     0
 73
     1
 74
     1
 75
     0
 76
     0
 77
     0
 78
     0
 79
     0
140
0.18
141
0.09
142
0.0
143
25.4
144
1.0
145
0.0
146
1.0
147
0.09
148
0.0
170
     0
171
     2
172
     0
173
     0
174
     0
175
     0
176
     0
177
     0
178
     0
179
     0
271
     4
272
     4
273
     2
274
     2
275
     0
276
     0
277
     2
278
    46
279
     0
280
     0
281
     0
282
     0
283
     1
284
     0
285
     0
286
     0
288
     0
340
17
341
0
342
0
343
0
344
0
371
    -2
372
    -2
  0
ENDTAB
  0
TABLE
  2
BLOCK_RECORD
  5
1
100
AcDbSymbolTable
 70
     0
  0
BLOCK_RECORD
  5
A
100
AcDbSymbolTableRecord
100
AcDbBlockTableRecord
  2
*MODEL_SPACE
340
20
  0
BLOCK_RECORD
  5
B
100
AcDbSymbolTableRecord
100
AcDbBlockTableRecord
  2
*PAPER_SPACE
340
21
  0
ENDTAB
  0
ENDSEC
  0
SECTION
  2
BLOCKS
  0
BLOCK
  5
D
100
AcDbEntity
  8
0
100
AcDbBlockBegin
  2
*MODEL_SPACE
 70
     0
 10
0.0
 20
0.0
 30
0.0
  3
*MODEL_SPACE
  1

  0
ENDBLK
  5
E
100
AcDbEntity
  8
0
100
AcDbBlockEnd
  0
BLOCK
  5
F
100
AcDbEntity
 67
     1
  8
0
100
AcDbBlockBegin
  2
*PAPER_SPACE
 70
     0
 10
0.0
 20
0.0
 30
0.0
  3
*PAPER_SPACE
  1

  0
ENDBLK
  5
10
100
AcDbEntity
 67
     1
  8
0
100
AcDbBlockEnd
  0
ENDSEC
  0
SECTION
  2
ENTITIES
  0
SPLINE
  5
25
100
AcDbEntity
  8
Ebene 1
100
AcDbSpline
210
0.0
220
0.0
230
1.0
 70
     1
 71
     3
 72
   120
 73
   116
 74
     0
 42
0.0000000001
 43
0.0000000001
 40
0.0
 40
0.0
 40
0.0
 40
0.0
 40
0.0344827586206897
 40
0.0344827586206897
 40
0.0344827586206897
 40
0.0344827586206897
 40
0.0689655172413793
 40
0.0689655172413793
 40
0.0689655172413793
 40
0.0689655172413793
 40
0.103448275862069
 40
0.103448275862069
 40
0.103448275862069
 40
0.103448275862069
 40
0.1379310344827586
 40
0.1379310344827586
 40
0.1379310344827586
 40
0.1379310344827586
 40
0.1724137931034483
 40
0.1724137931034483
 40
0.1724137931034483
 40
0.1724137931034483
 40
0.206896551724138
 40
0.206896551724138
 40
0.206896551724138
 40
0.206896551724138
 40
0.2413793103448276
 40
0.2413793103448276
 40
0.2413793103448276
 40
0.2413793103448276
 40
0.2758620689655173
 40
0.2758620689655173
 40
0.2758620689655173
 40
0.2758620689655173
 40
0.310344827586207
 40
0.310344827586207
 40
0.310344827586207
 40
0.310344827586207
 40
0.3448275862068966
 40
0.3448275862068966
 40
0.3448275862068966
 40
0.3448275862068966
 40
0.3793103448275863
 40
0.3793103448275863
 40
0.3793103448275863
 40
0.3793103448275863
 40
0.413793103448276
 40
0.413793103448276
 40
0.413793103448276
 40
0.413793103448276
 40
0.4482758620689656
 40
0.4482758620689656
 40
0.4482758620689656
 40
0.4482758620689656
 40
0.4827586206896553
 40
0.4827586206896553
 40
0.4827586206896553
 40
0.4827586206896553
 40
0.517241379310345
 40
0.517241379310345
 40
0.517241379310345
 40
0.517241379310345
 40
0.5517241379310346
 40
0.5517241379310346
 40
0.5517241379310346
 40
0.5517241379310346
 40
0.5862068965517242
 40
0.5862068965517242
 40
0.5862068965517242
 40
0.5862068965517242
 40
0.6206896551724138
 40
0.6206896551724138
 40
0.6206896551724138
 40
0.6206896551724138
 40
0.6551724137931034
 40
0.6551724137931034
 40
0.6551724137931034
 40
0.6551724137931034
 40
0.689655172413793
 40
0.689655172413793
 40
0.689655172413793
 40
0.689655172413793
 40
0.7241379310344827
 40
0.7241379310344827
 40
0.7241379310344827
 40
0.7241379310344827
 40
0.7586206896551723
 40
0.7586206896551723
 40
0.7586206896551723
 40
0.7586206896551723
 40
0.7931034482758619
 40
0.7931034482758619
 40
0.7931034482758619
 40
0.7931034482758619
 40
0.8275862068965515
 40
0.8275862068965515
 40
0.8275862068965515
 40
0.8275862068965515
 40
0.8620689655172411
 40
0.8620689655172411
 40
0.8620689655172411
 40
0.8620689655172411
 40
0.8965517241379307
 40
0.8965517241379307
 40
0.8965517241379307
 40
0.8965517241379307
 40
0.9310344827586203
 40
0.9310344827586203
 40
0.9310344827586203
 40
0.9310344827586203
 40
0.9655172413793099
 40
0.9655172413793099
 40
0.9655172413793099
 40
0.9655172413793099
 40
1.0
 40
1.0
 40
1.0
 40
1.0
 10
0.25922
 20
6.7228100000000008
 30
0.0
 10
0.7062600000000001
 20
6.7482100000000003
 30
0.0
 10
1.11266
 20
6.6059700000000001
 30
0.0
 10
1.5749400000000002
 20
6.5780300000000009
 30
0.0
 10
1.5749400000000002
 20
6.5780300000000009
 30
0.0
 10
2.6671400000000003
 20
5.7296700000000005
 30
0.0
 10
4.7194600000000007
 20
5.0489500000000005
 30
0.0
 10
4.3740200000000007
 20
3.4944700000000002
 30
0.0
 10
4.3740200000000007
 20
3.4944700000000002
 30
0.0
 10
4.4908600000000005
 20
3.1185500000000004
 30
0.0
 10
4.6534200000000006
 20
3.1236300000000004
 30
0.0
 10
4.7118400000000005
 20
2.8975700000000004
 30
0.0
 10
4.7118400000000005
 20
2.8975700000000004
 30
0.0
 10
4.9404400000000006
 20
2.0161900000000004
 30
0.0
 10
4.5238800000000001
 20
0.9239900000000001
 30
0.0
 10
3.7161600000000004
 20
0.32963
 30
0.0
 10
3.7161600000000004
 20
0.32963
 30
0.0
 10
4.0514400000000004
 20
-0.9733800000000001
 30
0.0
 10
3.9498400000000005
 20
-2.4338800000000003
 30
0.0
 10
3.2513400000000003
 20
-3.7165800000000004
 30
0.0
 10
3.2513400000000003
 20
-3.7165800000000004
 30
0.0
 10
3.2513400000000003
 20
-3.7165800000000004
 30
0.0
 10
3.1726000000000001
 20
-2.64724
 30
0.0
 10
3.1726000000000001
 20
-2.64724
 30
0.0
 10
3.1726000000000001
 20
-2.64724
 30
0.0
 10
3.13958
 20
-2.4948400000000004
 30
0.0
 10
2.6341200000000002
 20
-2.5177
 30
0.0
 10
2.7458800000000001
 20
-2.7539200000000004
 30
0.0
 10
2.7458800000000001
 20
-2.7539200000000004
 30
0.0
 10
2.6671400000000003
 20
-3.0663400000000003
 30
0.0
 10
2.5325200000000003
 20
-3.5235400000000001
 30
0.0
 10
2.3166200000000003
 20
-3.7750000000000004
 30
0.0
 10
2.3166200000000003
 20
-3.7750000000000004
 30
0.0
 10
2.2988400000000002
 20
-3.0333200000000002
 30
0.0
 10
2.0880200000000002
 20
-2.10114
 30
0.0
 10
1.23204
 20
-1.6947400000000001
 30
0.0
 10
1.23204
 20
-1.6947400000000001
 30
0.0
 10
1.2422000000000002
 20
-1.7582400000000002
 30
0.0
 10
1.19648
 20
-1.8293600000000001
 30
0.0
 10
1.10504
 20
-1.8649200000000001
 30
0.0
 10
1.10504
 20
-1.8649200000000001
 30
0.0
 10
1.0415400000000001
 20
-2.0046200000000001
 30
0.0
 10
1.0136000000000001
 20
-2.1494
 30
0.0
 10
0.9907400000000001
 20
-2.2916400000000001
 30
0.0
 10
0.9907400000000001
 20
-2.2916400000000001
 30
0.0
 10
1.1380600000000001
 20
-2.2433800000000002
 30
0.0
 10
1.2625200000000001
 20
-2.0071600000000003
 30
0.0
 10
1.4123800000000002
 20
-2.0325600000000001
 30
0.0
 10
1.4123800000000002
 20
-2.0325600000000001
 30
0.0
 10
1.4123800000000002
 20
-2.0325600000000001
 30
0.0
 10
1.23712
 20
-2.6828000000000003
 30
0.0
 10
1.23712
 20
-2.6828000000000003
 30
0.0
 10
1.23712
 20
-2.6828000000000003
 30
0.0
 10
1.7832200000000002
 20
-2.2281400000000002
 30
0.0
 10
1.5089000000000001
 20
-2.7590000000000003
 30
0.0
 10
1.3514200000000001
 20
-3.0612600000000003
 30
0.0
 10
1.3514200000000001
 20
-3.0612600000000003
 30
0.0
 10
1.8213200000000001
 20
-2.5989800000000001
 30
0.0
 10
1.5216000000000001
 20
-3.2847800000000005
 30
0.0
 10
1.2930000000000001
 20
-3.4803600000000001
 30
0.0
 10
1.2930000000000001
 20
-3.4803600000000001
 30
0.0
 10
1.1990200000000002
 20
-3.5540200000000004
 30
0.0
 10
1.31586
 20
-3.9985200000000005
 30
0.0
 10
1.4352400000000001
 20
-3.8258000000000005
 30
0.0
 10
1.4352400000000001
 20
-3.8258000000000005
 30
0.0
 10
1.4352400000000001
 20
-3.8258000000000005
 30
0.0
 10
1.8035400000000001
 20
-3.5387800000000005
 30
0.0
 10
1.8035400000000001
 20
-3.5387800000000005
 30
0.0
 10
1.8035400000000001
 20
-3.5387800000000005
 30
0.0
 10
1.4454
 20
-4.1356800000000007
 30
0.0
 10
1.6232000000000002
 20
-4.6843200000000005
 30
0.0
 10
1.9381600000000001
 20
-5.2609000000000004
 30
0.0
 10
1.9381600000000001
 20
-5.2609000000000004
 30
0.0
 10
2.1413600000000002
 20
-5.0424600000000002
 30
0.0
 10
2.20994
 20
-4.7681400000000007
 30
0.0
 10
2.3166200000000003
 20
-4.51668
 30
0.0
 10
2.3166200000000003
 20
-4.51668
 30
0.0
 10
2.3547200000000004
 20
-4.3820600000000001
 30
0.0
 10
2.4563200000000003
 20
-4.2372800000000002
 30
0.0
 10
2.4537800000000001
 20
-4.4735000000000005
 30
0.0
 10
2.4537800000000001
 20
-4.4735000000000005
 30
0.0
 10
2.4512400000000003
 20
-5.2177200000000008
 30
0.0
 10
2.7408000000000001
 20
-6.0076600000000004
 30
0.0
 10
2.4309200000000004
 20
-6.6960000000000006
 30
0.0
 10
2.4309200000000004
 20
-6.6960000000000006
 30
0.0
 10
1.7730600000000001
 20
-6.3962800000000009
 30
0.0
 10
1.1736200000000001
 20
-6.7950600000000003
 30
0.0
 10
0.4954400000000001
 20
-6.7214000000000009
 30
0.0
 10
0.4954400000000001
 20
-6.7214000000000009
 30
0.0
 10
-1.0539500000000002
 20
-5.5301400000000003
 30
0.0
 10
-1.46543
 20
-3.6378400000000002
 30
0.0
 10
-3.3043900000000002
 20
-2.6828000000000003
 30
0.0
 10
-3.3043900000000002
 20
-2.6828000000000003
 30
0.0
 10
-3.3983700000000003
 20
-1.92334
 30
0.0
 10
-2.9868900000000003
 20
-1.0953000000000002
 30
0.0
 10
-3.2764500000000001
 20
-0.2952
 30
0.0
 10
-3.2764500000000001
 20
-0.2952
 30
0.0
 10
-3.9698700000000002
 20
-0.11232
 30
0.0
 10
-3.6803100000000004
 20
0.51251
 30
0.0
 10
-3.7844500000000001
 20
0.9443100000000001
 30
0.0
 10
-3.7844500000000001
 20
0.9443100000000001
 30
0.0
 10
-3.7844500000000001
 20
0.9443100000000001
 30
0.0
 10
-3.8682700000000003
 20
1.06115
 30
0.0
 10
-3.8682700000000003
 20
1.06115
 30
0.0
 10
-3.8682700000000003
 20
1.06115
 30
0.0
 10
-4.35595
 20
0.7538100000000001
 30
0.0
 10
-4.2949900000000003
 20
1.3735700000000002
 30
0.0
 10
-4.7699700000000007
 20
1.3811900000000001
 30
0.0
 10
-4.7699700000000007
 20
1.3811900000000001
 30
0.0
 10
-4.7115500000000008
 20
1.8129900000000001
 30
0.0
 10
-4.3788100000000005
 20
2.1914500000000001
 30
0.0
 10
-4.04861
 20
2.5394300000000003
 30
0.0
 10
-4.04861
 20
2.5394300000000003
 30
0.0
 10
-4.3838900000000001
 20
4.64255
 30
0.0
 10
-1.75753
 20
5.9760500000000008
 30
0.0
 10
0.25922
 20
6.7228100000000008
 30
0.0
  0
SPLINE
  5
26
100
AcDbEntity
  8
Ebene 1
100
AcDbSpline
210
0.0
220
0.0
230
1.0
 70
     1
 71
     3
 72
    72
 73
    68
 74
     0
 42
0.0000000001
 43
0.0000000001
 40
0.0
 40
0.0
 40
0.0
 40
0.0
 40
0.0588235294117647
 40
0.0588235294117647
 40
0.0588235294117647
 40
0.0588235294117647
 40
0.1176470588235294
 40
0.1176470588235294
 40
0.1176470588235294
 40
0.1176470588235294
 40
0.1764705882352941
 40
0.1764705882352941
 40
0.1764705882352941
 40
0.1764705882352941
 40
0.2352941176470588
 40
0.2352941176470588
 40
0.2352941176470588
 40
0.2352941176470588
 40
0.2941176470588235
 40
0.2941176470588235
 40
0.2941176470588235
 40
0.2941176470588235
 40
0.3529411764705883
 40
0.3529411764705883
 40
0.3529411764705883
 40
0.3529411764705883
 40
0.411764705882353
 40
0.411764705882353
 40
0.411764705882353
 40
0.411764705882353
 40
0.4705882352941177
 40
0.4705882352941177
 40
0.4705882352941177
 40
0.4705882352941177
 40
0.5294117647058824
 40
0.5294117647058824
 40
0.5294117647058824
 40
0.5294117647058824
 40
0.5882352941176471
 40
0.5882352941176471
 40
0.5882352941176471
 40
0.5882352941176471
 40
0.6470588235294118
 40
0.6470588235294118
 40
0.6470588235294118
 40
0.6470588235294118
 40
0.7058823529411765
 40
0.7058823529411765
 40
0.7058823529411765
 40
0.7058823529411765
 40
0.7647058823529412
 40
0.7647058823529412
 40
0.7647058823529412
 40
0.7647058823529412
 40
0.823529411764706
 40
0.823529411764706
 40
0.823529411764706
 40
0.823529411764706
 40
0.8823529411764707
 40
0.8823529411764707
 40
0.8823529411764707
 40
0.8823529411764707
 40
0.9411764705882354
 40
0.9411764705882354
 40
0.9411764705882354
 40
0.9411764705882354
 40
1.0
 40
1.0
 40
1.0
 40
1.0
 10
-1.8438900000000003
 20
-1.1054600000000001
 30
0.0
 10
-2.06995
 20
-1.5652000000000001
 30
0.0
 10
-1.7930900000000001
 20
-2.0224000000000002
 30
0.0
 10
-1.6406900000000002
 20
-2.4618200000000003
 30
0.0
 10
-1.6406900000000002
 20
-2.4618200000000003
 30
0.0
 10
-1.5340100000000001
 20
-2.3907000000000003
 30
0.0
 10
-1.4349500000000002
 20
-2.0274800000000002
 30
0.0
 10
-1.2368300000000001
 20
-2.1798800000000003
 30
0.0
 10
-1.2368300000000001
 20
-2.1798800000000003
 30
0.0
 10
-1.33081
 20
-2.39832
 30
0.0
 10
-1.3206500000000001
 20
-2.6828000000000003
 30
0.0
 10
-1.2673100000000002
 20
-2.8961600000000001
 30
0.0
 10
-1.2673100000000002
 20
-2.8961600000000001
 30
0.0
 10
-1.1911100000000001
 20
-2.7920200000000004
 30
0.0
 10
-1.1352300000000002
 20
-2.6294600000000004
 30
0.0
 10
-0.9752100000000001
 20
-2.57104
 30
0.0
 10
-0.9752100000000001
 20
-2.57104
 30
0.0
 10
-1.00569
 20
-2.85806
 30
0.0
 10
-1.0082300000000002
 20
-3.2187400000000004
 30
0.0
 10
-0.8558300000000001
 20
-3.4981400000000002
 30
0.0
 10
-0.8558300000000001
 20
-3.4981400000000002
 30
0.0
 10
-0.7110500000000001
 20
-3.3990800000000001
 30
0.0
 10
-0.6627900000000001
 20
-3.0892000000000004
 30
0.0
 10
-0.4900700000000001
 20
-3.0587200000000001
 30
0.0
 10
-0.4900700000000001
 20
-3.0587200000000001
 30
0.0
 10
-0.61453
 20
-3.5260800000000003
 30
0.0
 10
-0.46721
 20
-3.9629600000000003
 30
0.0
 10
-0.19797
 20
-4.3744400000000008
 30
0.0
 10
-0.19797
 20
-4.3744400000000008
 30
0.0
 10
-0.06843
 20
-4.2830000000000004
 30
0.0
 10
-0.10399
 20
-3.7419800000000003
 30
0.0
 10
0.09412
 20
-3.8512000000000004
 30
0.0
 10
0.09412
 20
-3.8512000000000004
 30
0.0
 10
0.30748
 20
-4.30586
 30
0.0
 10
0.00776
 20
-5.1034200000000007
 30
0.0
 10
0.8180200000000001
 20
-5.1923200000000005
 30
0.0
 10
0.8180200000000001
 20
-5.1923200000000005
 30
0.0
 10
0.8180200000000001
 20
-5.1923200000000005
 30
0.0
 10
0.65546
 20
-4.7910000000000004
 30
0.0
 10
0.65546
 20
-4.7910000000000004
 30
0.0
 10
0.65546
 20
-4.7910000000000004
 30
0.0
 10
0.6707000000000001
 20
-3.5743400000000003
 30
0.0
 10
-0.84567
 20
-2.7107400000000004
 30
0.0
 10
-0.53071
 20
-1.4737600000000002
 30
0.0
 10
-0.53071
 20
-1.4737600000000002
 30
0.0
 10
-0.6881900000000001
 20
-1.5575800000000002
 30
0.0
 10
-0.7745500000000001
 20
-1.7531600000000001
 30
0.0
 10
-0.8583700000000001
 20
-1.8979400000000002
 30
0.0
 10
-0.8583700000000001
 20
-1.8979400000000002
 30
0.0
 10
-0.91171
 20
-1.9462000000000002
 30
0.0
 10
-0.8913900000000001
 20
-2.0478000000000001
 30
0.0
 10
-0.9879100000000001
 20
-2.05796
 30
0.0
 10
-0.9879100000000001
 20
-2.05796
 30
0.0
 10
-1.1098300000000001
 20
-1.8090400000000002
 30
0.0
 10
-1.08951
 20
-1.4331200000000002
 30
0.0
 10
-0.9269500000000001
 20
-1.1943600000000001
 30
0.0
 10
-0.9269500000000001
 20
-1.1943600000000001
 30
0.0
 10
-0.8177300000000001
 20
-1.0597400000000001
 30
0.0
 10
-1.3409700000000002
 20
-1.29088
 30
0.0
 10
-1.4527300000000001
 20
-1.2832600000000001
 30
0.0
 10
-1.4527300000000001
 20
-1.2832600000000001
 30
0.0
 10
-1.6559300000000001
 20
-1.4686800000000002
 30
0.0
 10
-1.5924300000000002
 20
-1.7455400000000001
 30
0.0
 10
-1.75753
 20
-1.92334
 30
0.0
 10
-1.75753
 20
-1.92334
 30
0.0
 10
-1.9378700000000002
 20
-1.6922000000000001
 30
0.0
 10
-1.7803900000000001
 20
-1.3289800000000001
 30
0.0
 10
-1.8438900000000003
 20
-1.1054600000000001
 30
0.0
  0
SPLINE
  5
27
100
AcDbEntity
  8
Ebene 1
 62
     7
100
AcDbSpline
210
0.0
220
0.0
230
1.0
 70
     1
 71
     3
 72
   492
 73
   488
 74
     0
 42
0.0000000001
 43
0.0000000001
 40
0.0
 40
0.0
 40
0.0
 40
0.0
 40
0.0081967213114754
 40
0.0081967213114754
 40
0.0081967213114754
 40
0.0081967213114754
 40
0.0163934426229508
 40
0.0163934426229508
 40
0.0163934426229508
 40
0.0163934426229508
 40
0.0245901639344262
 40
0.0245901639344262
 40
0.0245901639344262
 40
0.0245901639344262
 40
0.0327868852459016
 40
0.0327868852459016
 40
0.0327868852459016
 40
0.0327868852459016
 40
0.0409836065573771
 40
0.0409836065573771
 40
0.0409836065573771
 40
0.0409836065573771
 40
0.0491803278688525
 40
0.0491803278688525
 40
0.0491803278688525
 40
0.0491803278688525
 40
0.0573770491803279
 40
0.0573770491803279
 40
0.0573770491803279
 40
0.0573770491803279
 40
0.0655737704918033
 40
0.0655737704918033
 40
0.0655737704918033
 40
0.0655737704918033
 40
0.0737704918032787
 40
0.0737704918032787
 40
0.0737704918032787
 40
0.0737704918032787
 40
0.0819672131147541
 40
0.0819672131147541
 40
0.0819672131147541
 40
0.0819672131147541
 40
0.0901639344262295
 40
0.0901639344262295
 40
0.0901639344262295
 40
0.0901639344262295
 40
0.0983606557377049
 40
0.0983606557377049
 40
0.0983606557377049
 40
0.0983606557377049
 40
0.1065573770491803
 40
0.1065573770491803
 40
0.1065573770491803
 40
0.1065573770491803
 40
0.1147540983606557
 40
0.1147540983606557
 40
0.1147540983606557
 40
0.1147540983606557
 40
0.1229508196721311
 40
0.1229508196721311
 40
0.1229508196721311
 40
0.1229508196721311
 40
0.1311475409836065
 40
0.1311475409836065
 40
0.1311475409836065
 40
0.1311475409836065
 40
0.139344262295082
 40
0.139344262295082
 40
0.139344262295082
 40
0.139344262295082
 40
0.1475409836065574
 40
0.1475409836065574
 40
0.1475409836065574
 40
0.1475409836065574
 40
0.1557377049180328
 40
0.1557377049180328
 40
0.1557377049180328
 40
0.1557377049180328
 40
0.1639344262295082
 40
0.1639344262295082
 40
0.1639344262295082
 40
0.1639344262295082
 40
0.1721311475409836
 40
0.1721311475409836
 40
0.1721311475409836
 40
0.1721311475409836
 40
0.1803278688524591
 40
0.1803278688524591
 40
0.1803278688524591
 40
0.1803278688524591
 40
0.1885245901639345
 40
0.1885245901639345
 40
0.1885245901639345
 40
0.1885245901639345
 40
0.1967213114754099
 40
0.1967213114754099
 40
0.1967213114754099
 40
0.1967213114754099
 40
0.2049180327868853
 40
0.2049180327868853
 40
0.2049180327868853
 40
0.2049180327868853
 40
0.2131147540983607
 40
0.2131147540983607
 40
0.2131147540983607
 40
0.2131147540983607
 40
0.2213114754098361
 40
0.2213114754098361
 40
0.2213114754098361
 40
0.2213114754098361
 40
0.2295081967213116
 40
0.2295081967213116
 40
0.2295081967213116
 40
0.2295081967213116
 40
0.237704918032787
 40
0.237704918032787
 40
0.237704918032787
 40
0.237704918032787
 40
0.2459016393442624
 40
0.2459016393442624
 40
0.2459016393442624
 40
0.2459016393442624
 40
0.2540983606557378
 40
0.2540983606557378
 40
0.2540983606557378
 40
0.2540983606557378
 40
0.2622950819672132
 40
0.2622950819672132
 40
0.2622950819672132
 40
0.2622950819672132
 40
0.2704918032786887
 40
0.2704918032786887
 40
0.2704918032786887
 40
0.2704918032786887
 40
0.2786885245901641
 40
0.2786885245901641
 40
0.2786885245901641
 40
0.2786885245901641
 40
0.2868852459016395
 40
0.2868852459016395
 40
0.2868852459016395
 40
0.2868852459016395
 40
0.2950819672131149
 40
0.2950819672131149
 40
0.2950819672131149
 40
0.2950819672131149
 40
0.3032786885245903
 40
0.3032786885245903
 40
0.3032786885245903
 40
0.3032786885245903
 40
0.3114754098360658
 40
0.3114754098360658
 40
0.3114754098360658
 40
0.3114754098360658
 40
0.3196721311475412
 40
0.3196721311475412
 40
0.3196721311475412
 40
0.3196721311475412
 40
0.3278688524590166
 40
0.3278688524590166
 40
0.3278688524590166
 40
0.3278688524590166
 40
0.336065573770492
 40
0.336065573770492
 40
0.336065573770492
 40
0.336065573770492
 40
0.3442622950819674
 40
0.3442622950819674
 40
0.3442622950819674
 40
0.3442622950819674
 40
0.3524590163934429
 40
0.3524590163934429
 40
0.3524590163934429
 40
0.3524590163934429
 40
0.3606557377049183
 40
0.3606557377049183
 40
0.3606557377049183
 40
0.3606557377049183
 40
0.3688524590163937
 40
0.3688524590163937
 40
0.3688524590163937
 40
0.3688524590163937
 40
0.3770491803278691
 40
0.3770491803278691
 40
0.3770491803278691
 40
0.3770491803278691
 40
0.3852459016393445
 40
0.3852459016393445
 40
0.3852459016393445
 40
0.3852459016393445
 40
0.3934426229508199
 40
0.3934426229508199
 40
0.3934426229508199
 40
0.3934426229508199
 40
0.4016393442622954
 40
0.4016393442622954
 40
0.4016393442622954
 40
0.4016393442622954
 40
0.4098360655737708
 40
0.4098360655737708
 40
0.4098360655737708
 40
0.4098360655737708
 40
0.4180327868852462
 40
0.4180327868852462
 40
0.4180327868852462
 40
0.4180327868852462
 40
0.4262295081967216
 40
0.4262295081967216
 40
0.4262295081967216
 40
0.4262295081967216
 40
0.434426229508197
 40
0.434426229508197
 40
0.434426229508197
 40
0.434426229508197
 40
0.4426229508196725
 40
0.4426229508196725
 40
0.4426229508196725
 40
0.4426229508196725
 40
0.4508196721311479
 40
0.4508196721311479
 40
0.4508196721311479
 40
0.4508196721311479
 40
0.4590163934426233
 40
0.4590163934426233
 40
0.4590163934426233
 40
0.4590163934426233
 40
0.4672131147540987
 40
0.4672131147540987
 40
0.4672131147540987
 40
0.4672131147540987
 40
0.4754098360655741
 40
0.4754098360655741
 40
0.4754098360655741
 40
0.4754098360655741
 40
0.4836065573770496
 40
0.4836065573770496
 40
0.4836065573770496
 40
0.4836065573770496
 40
0.491803278688525
 40
0.491803278688525
 40
0.491803278688525
 40
0.491803278688525
 40
0.5000000000000003
 40
0.5000000000000003
 40
0.5000000000000003
 40
0.5000000000000003
 40
0.5081967213114758
 40
0.5081967213114758
 40
0.5081967213114758
 40
0.5081967213114758
 40
0.5163934426229512
 40
0.5163934426229512
 40
0.5163934426229512
 40
0.5163934426229512
 40
0.5245901639344266
 40
0.5245901639344266
 40
0.5245901639344266
 40
0.5245901639344266
 40
0.532786885245902
 40
0.532786885245902
 40
0.532786885245902
 40
0.532786885245902
 40
0.5409836065573774
 40
0.5409836065573774
 40
0.5409836065573774
 40
0.5409836065573774
 40
0.5491803278688529
 40
0.5491803278688529
 40
0.5491803278688529
 40
0.5491803278688529
 40
0.5573770491803283
 40
0.5573770491803283
 40
0.5573770491803283
 40
0.5573770491803283
 40
0.5655737704918037
 40
0.5655737704918037
 40
0.5655737704918037
 40
0.5655737704918037
 40
0.5737704918032791
 40
0.5737704918032791
 40
0.5737704918032791
 40
0.5737704918032791
 40
0.5819672131147545
 40
0.5819672131147545
 40
0.5819672131147545
 40
0.5819672131147545
 40
0.5901639344262299
 40
0.5901639344262299
 40
0.5901639344262299
 40
0.5901639344262299
 40
0.5983606557377054
 40
0.5983606557377054
 40
0.5983606557377054
 40
0.5983606557377054
 40
0.6065573770491808
 40
0.6065573770491808
 40
0.6065573770491808
 40
0.6065573770491808
 40
0.6147540983606562
 40
0.6147540983606562
 40
0.6147540983606562
 40
0.6147540983606562
 40
0.6229508196721316
 40
0.6229508196721316
 40
0.6229508196721316
 40
0.6229508196721316
 40
0.631147540983607
 40
0.631147540983607
 40
0.631147540983607
 40
0.631147540983607
 40
0.6393442622950825
 40
0.6393442622950825
 40
0.6393442622950825
 40
0.6393442622950825
 40
0.6475409836065579
 40
0.6475409836065579
 40
0.6475409836065579
 40
0.6475409836065579
 40
0.6557377049180333
 40
0.6557377049180333
 40
0.6557377049180333
 40
0.6557377049180333
 40
0.6639344262295087
 40
0.6639344262295087
 40
0.6639344262295087
 40
0.6639344262295087
 40
0.6721311475409841
 40
0.6721311475409841
 40
0.6721311475409841
 40
0.6721311475409841
 40
0.6803278688524596
 40
0.6803278688524596
 40
0.6803278688524596
 40
0.6803278688524596
 40
0.688524590163935
 40
0.688524590163935
 40
0.688524590163935
 40
0.688524590163935
 40
0.6967213114754104
 40
0.6967213114754104
 40
0.6967213114754104
 40
0.6967213114754104
 40
0.7049180327868858
 40
0.7049180327868858
 40
0.7049180327868858
 40
0.7049180327868858
 40
0.7131147540983612
 40
0.7131147540983612
 40
0.7131147540983612
 40
0.7131147540983612
 40
0.7213114754098366
 40
0.7213114754098366
 40
0.7213114754098366
 40
0.7213114754098366
 40
0.7295081967213121
 40
0.7295081967213121
 40
0.7295081967213121
 40
0.7295081967213121
 40
0.7377049180327875
 40
0.7377049180327875
 40
0.7377049180327875
 40
0.7377049180327875
 40
0.7459016393442629
 40
0.7459016393442629
 40
0.7459016393442629
 40
0.7459016393442629
 40
0.7540983606557383
 40
0.7540983606557383
 40
0.7540983606557383
 40
0.7540983606557383
 40
0.7622950819672137
 40
0.7622950819672137
 40
0.7622950819672137
 40
0.7622950819672137
 40
0.7704918032786892
 40
0.7704918032786892
 40
0.7704918032786892
 40
0.7704918032786892
 40
0.7786885245901646
 40
0.7786885245901646
 40
0.7786885245901646
 40
0.7786885245901646
 40
0.78688524590164
 40
0.78688524590164
 40
0.78688524590164
 40
0.78688524590164
 40
0.7950819672131154
 40
0.7950819672131154
 40
0.7950819672131154
 40
0.7950819672131154
 40
0.8032786885245908
 40
0.8032786885245908
 40
0.8032786885245908
 40
0.8032786885245908
 40
0.8114754098360663
 40
0.8114754098360663
 40
0.8114754098360663
 40
0.8114754098360663
 40
0.8196721311475417
 40
0.8196721311475417
 40
0.8196721311475417
 40
0.8196721311475417
 40
0.8278688524590171
 40
0.8278688524590171
 40
0.8278688524590171
 40
0.8278688524590171
 40
0.8360655737704925
 40
0.8360655737704925
 40
0.8360655737704925
 40
0.8360655737704925
 40
0.8442622950819679
 40
0.8442622950819679
 40
0.8442622950819679
 40
0.8442622950819679
 40
0.8524590163934434
 40
0.8524590163934434
 40
0.8524590163934434
 40
0.8524590163934434
 40
0.8606557377049188
 40
0.8606557377049188
 40
0.8606557377049188
 40
0.8606557377049188
 40
0.8688524590163942
 40
0.8688524590163942
 40
0.8688524590163942
 40
0.8688524590163942
 40
0.8770491803278696
 40
0.8770491803278696
 40
0.8770491803278696
 40
0.8770491803278696
 40
0.885245901639345
 40
0.885245901639345
 40
0.885245901639345
 40
0.885245901639345
 40
0.8934426229508204
 40
0.8934426229508204
 40
0.8934426229508204
 40
0.8934426229508204
 40
0.9016393442622959
 40
0.9016393442622959
 40
0.9016393442622959
 40
0.9016393442622959
 40
0.9098360655737713
 40
0.9098360655737713
 40
0.9098360655737713
 40
0.9098360655737713
 40
0.9180327868852467
 40
0.9180327868852467
 40
0.9180327868852467
 40
0.9180327868852467
 40
0.9262295081967221
 40
0.9262295081967221
 40
0.9262295081967221
 40
0.9262295081967221
 40
0.9344262295081975
 40
0.9344262295081975
 40
0.9344262295081975
 40
0.9344262295081975
 40
0.942622950819673
 40
0.942622950819673
 40
0.942622950819673
 40
0.942622950819673
 40
0.9508196721311484
 40
0.9508196721311484
 40
0.9508196721311484
 40
0.9508196721311484
 40
0.9590163934426238
 40
0.9590163934426238
 40
0.9590163934426238
 40
0.9590163934426238
 40
0.9672131147540992
 40
0.9672131147540992
 40
0.9672131147540992
 40
0.9672131147540992
 40
0.9754098360655746
 40
0.9754098360655746
 40
0.9754098360655746
 40
0.9754098360655746
 40
0.9836065573770501
 40
0.9836065573770501
 40
0.9836065573770501
 40
0.9836065573770501
 40
0.9918032786885255
 40
0.9918032786885255
 40
0.9918032786885255
 40
0.9918032786885255
 40
1.0
 40
1.0
 40
1.0
 40
1.0
 10
2.8932000000000002
 20
1.7164700000000002
 30
0.0
 10
2.50712
 20
1.6504300000000001
 30
0.0
 10
2.4868000000000001
 20
1.27959
 30
0.0
 10
2.71286
 20
1.06115
 30
0.0
 10
2.71286
 20
1.06115
 30
0.0
 10
2.6773000000000002
 20
0.9951100000000001
 30
0.0
 10
2.6239600000000003
 20
1.19323
 30
0.0
 10
2.5528400000000002
 20
1.07131
 30
0.0
 10
2.5528400000000002
 20
1.07131
 30
0.0
 10
2.7382600000000004
 20
0.8833500000000001
 30
0.0
 10
2.6290400000000003
 20
0.66237
 30
0.0
 10
2.5807800000000003
 20
0.44647
 30
0.0
 10
2.5807800000000003
 20
0.44647
 30
0.0
 10
2.5909400000000002
 20
0.38805
 30
0.0
 10
2.6341200000000002
 20
0.3905900000000001
 30
0.0
 10
2.6773000000000002
 20
0.43885
 30
0.0
 10
2.6773000000000002
 20
0.43885
 30
0.0
 10
2.8627200000000004
 20
0.80969
 30
0.0
 10
2.6773000000000002
 20
0.13913
 30
0.0
 10
2.5325200000000003
 20
0.02991
 30
0.0
 10
2.5325200000000003
 20
0.02991
 30
0.0
 10
2.5325200000000003
 20
-0.04374
 30
0.0
 10
2.6061800000000002
 20
0.04007
 30
0.0
 10
2.63158
 20
0.05531
 30
0.0
 10
2.63158
 20
0.05531
 30
0.0
 10
2.9313000000000002
 20
0.22295
 30
0.0
 10
2.76112
 20
0.09595
 30
0.0
 10
2.5782400000000001
 20
-0.19868
 30
0.0
 10
2.5782400000000001
 20
-0.19868
 30
0.0
 10
2.24804
 20
0.18231
 30
0.0
 10
1.6714600000000002
 20
0.18739
 30
0.0
 10
1.1710800000000001
 20
0.07309
 30
0.0
 10
1.1710800000000001
 20
0.07309
 30
0.0
 10
1.2549000000000001
 20
0.16961
 30
0.0
 10
1.4682600000000001
 20
0.14929
 30
0.0
 10
1.5978000000000001
 20
0.22295
 30
0.0
 10
1.5978000000000001
 20
0.22295
 30
0.0
 10
1.5419200000000002
 20
0.31947
 30
0.0
 10
1.8035400000000001
 20
0.3474100000000001
 30
0.0
 10
1.9178400000000002
 20
0.33979
 30
0.0
 10
1.9178400000000002
 20
0.33979
 30
0.0
 10
2.5884
 20
0.19501
 30
0.0
 10
2.1362800000000002
 20
0.47695
 30
0.0
 10
1.6765400000000001
 20
0.35503
 30
0.0
 10
1.6765400000000001
 20
0.35503
 30
0.0
 10
1.1253600000000001
 20
0.19755
 30
0.0
 10
0.61736
 20
-0.02342
 30
0.0
 10
0.06872
 20
-0.2698
 30
0.0
 10
0.06872
 20
-0.2698
 30
0.0
 10
0.06872
 20
-0.2698
 30
0.0
 10
-0.13447
 20
-0.3942600000000001
 30
0.0
 10
-0.13447
 20
-0.3942600000000001
 30
0.0
 10
-0.13447
 20
-0.3942600000000001
 30
0.0
 10
-0.5002300000000001
 20
-0.7016000000000001
 30
0.0
 10
0.55894
 20
-0.12502
 30
0.0
 10
0.27192
 20
-0.35616
 30
0.0
 10
0.27192
 20
-0.35616
 30
0.0
 10
0.0103
 20
-0.57206
 30
0.0
 10
-0.55357
 20
-0.9124200000000001
 30
0.0
 10
-0.23099
 20
-1.2223000000000002
 30
0.0
 10
-0.23099
 20
-1.2223000000000002
 30
0.0
 10
0.02554
 20
-0.7092200000000001
 30
0.0
 10
1.0364600000000002
 20
-0.33584
 30
0.0
 10
1.7883000000000002
 20
-0.5390400000000001
 30
0.0
 10
1.7883000000000002
 20
-0.5390400000000001
 30
0.0
 10
1.7984600000000002
 20
-0.43998
 30
0.0
 10
1.6689200000000002
 20
-0.38156
 30
0.0
 10
1.5597000000000001
 20
-0.3739400000000001
 30
0.0
 10
1.5597000000000001
 20
-0.3739400000000001
 30
0.0
 10
1.3768200000000002
 20
-0.3739400000000001
 30
0.0
 10
1.1380600000000001
 20
-0.45522
 30
0.0
 10
0.9831200000000001
 20
-0.3739400000000001
 30
0.0
 10
0.9831200000000001
 20
-0.3739400000000001
 30
0.0
 10
1.5622400000000001
 20
-0.1047
 30
0.0
 10
2.1921600000000003
 20
-0.39172
 30
0.0
 10
2.6468200000000004
 20
-0.6863600000000001
 30
0.0
 10
2.6468200000000004
 20
-0.6863600000000001
 30
0.0
 10
2.9084400000000001
 20
-0.29012
 30
0.0
 10
3.3783400000000001
 20
-0.49586
 30
0.0
 10
3.5967800000000003
 20
-0.80066
 30
0.0
 10
3.5967800000000003
 20
-0.80066
 30
0.0
 10
3.4799400000000005
 20
-0.4882400000000001
 30
0.0
 10
3.5205800000000003
 20
-0.13264
 30
0.0
 10
3.2183200000000003
 20
0.11881
 30
0.0
 10
3.2183200000000003
 20
0.11881
 30
0.0
 10
2.9211400000000003
 20
0.14421
 30
0.0
 10
2.7890600000000001
 20
0.39567
 30
0.0
 10
3.1370400000000003
 20
0.3270900000000001
 30
0.0
 10
3.1370400000000003
 20
0.3270900000000001
 30
0.0
 10
3.1548200000000004
 20
0.25343
 30
0.0
 10
3.2869000000000002
 20
0.24073
 30
0.0
 10
3.2716600000000002
 20
0.15945
 30
0.0
 10
3.2716600000000002
 20
0.15945
 30
0.0
 10
3.4850200000000005
 20
0.08833
 30
0.0
 10
3.0405200000000003
 20
0.4210700000000001
 30
0.0
 10
3.1548200000000004
 20
0.53029
 30
0.0
 10
3.1548200000000004
 20
0.53029
 30
0.0
 10
3.6069400000000003
 20
0.22803
 30
0.0
 10
3.6755200000000001
 20
-0.6381
 30
0.0
 10
3.6958400000000005
 20
-1.08768
 30
0.0
 10
3.6958400000000005
 20
-1.08768
 30
0.0
 10
3.5739200000000002
 20
-0.6254000000000001
 30
0.0
 10
2.6341200000000002
 20
-0.34854
 30
0.0
 10
2.8068400000000002
 20
-0.9962400000000001
 30
0.0
 10
2.8068400000000002
 20
-0.9962400000000001
 30
0.0
 10
2.2201
 20
-0.4171200000000001
 30
0.0
 10
2.3471000000000002
 20
-1.7658600000000002
 30
0.0
 10
2.0702400000000001
 20
-2.0859000000000001
 30
0.0
 10
2.0702400000000001
 20
-2.0859000000000001
 30
0.0
 10
2.0702400000000001
 20
-2.0859000000000001
 30
0.0
 10
1.9686400000000002
 20
-1.8649200000000001
 30
0.0
 10
1.9686400000000002
 20
-1.8649200000000001
 30
0.0
 10
1.9686400000000002
 20
-1.8649200000000001
 30
0.0
 10
1.7019400000000002
 20
-2.2433800000000002
 30
0.0
 10
1.3641200000000002
 20
-1.3493000000000002
 30
0.0
 10
0.8739000000000001
 20
-1.6363200000000002
 30
0.0
 10
0.8739000000000001
 20
-1.6363200000000002
 30
0.0
 10
0.9247000000000001
 20
-1.08514
 30
0.0
 10
-0.02017
 20
-1.20452
 30
0.0
 10
-0.3960900000000001
 20
-1.3924800000000002
 30
0.0
 10
-0.3960900000000001
 20
-1.3924800000000002
 30
0.0
 10
-0.29195
 20
-1.0165600000000001
 30
0.0
 10
-0.95235
 20
-0.9987800000000001
 30
0.0
 10
-1.3130300000000001
 20
-1.20452
 30
0.0
 10
-1.3130300000000001
 20
-1.20452
 30
0.0
 10
-1.3130300000000001
 20
-0.8184400000000001
 30
0.0
 10
-1.9099300000000001
 20
-0.9124200000000001
 30
0.0
 10
-2.10805
 20
-0.6609600000000001
 30
0.0
 10
-2.10805
 20
-0.6609600000000001
 30
0.0
 10
-2.1105900000000002
 20
-0.3739400000000001
 30
0.0
 10
-1.9480300000000002
 20
-0.1301
 30
0.0
 10
-1.6584700000000001
 20
0.04007
 30
0.0
 10
-1.6584700000000001
 20
0.04007
 30
0.0
 10
-1.3968500000000001
 20
-0.00564
 30
0.0
 10
-2.1588500000000002
 20
-0.4247400000000001
 30
0.0
 10
-1.8591300000000002
 20
-0.6228600000000001
 30
0.0
 10
-1.8591300000000002
 20
-0.6228600000000001
 30
0.0
 10
-1.8362700000000001
 20
-0.30536
 30
0.0
 10
-1.4755900000000002
 20
-0.15042
 30
0.0
 10
-1.1961900000000001
 20
0.08071
 30
0.0
 10
-1.1961900000000001
 20
0.08071
 30
0.0
 10
-1.0234700000000001
 20
0.14167
 30
0.0
 10
-0.76185
 20
0.24327
 30
0.0
 10
-1.0209300000000001
 20
0.05531
 30
0.0
 10
-1.0209300000000001
 20
0.05531
 30
0.0
 10
-1.4730500000000002
 20
-0.16566
 30
0.0
 10
-1.7016500000000001
 20
-0.7549400000000001
 30
0.0
 10
-1.2673100000000002
 20
-0.9886200000000001
 30
0.0
 10
-1.2673100000000002
 20
-0.9886200000000001
 30
0.0
 10
-0.93203
 20
-0.7066800000000001
 30
0.0
 10
-0.5586500000000001
 20
-0.44252
 30
0.0
 10
-0.15987
 20
-0.1936
 30
0.0
 10
-0.15987
 20
-0.1936
 30
0.0
 10
-0.11923
 20
-0.26218
 30
0.0
 10
-0.41895
 20
-0.3968
 30
0.0
 10
-0.51293
 20
-0.4882400000000001
 30
0.0
 10
-0.51293
 20
-0.4882400000000001
 30
0.0
 10
-0.6653300000000001
 20
-0.5974600000000001
 30
0.0
 10
-0.8786900000000001
 20
-0.7854200000000001
 30
0.0
 10
-0.80249
 20
-0.9454400000000001
 30
0.0
 10
-0.80249
 20
-0.9454400000000001
 30
0.0
 10
-0.4367300000000001
 20
-0.5415800000000001
 30
0.0
 10
0.03062
 20
-0.1555
 30
0.0
 10
0.5208400000000001
 20
0.19755
 30
0.0
 10
0.5208400000000001
 20
0.19755
 30
0.0
 10
0.5208400000000001
 20
0.19755
 30
0.0
 10
0.277
 20
0.12135
 30
0.0
 10
0.277
 20
0.12135
 30
0.0
 10
0.277
 20
0.12135
 30
0.0
 10
0.277
 20
0.12135
 30
0.0
 10
0.10174
 20
-0.00056
 30
0.0
 10
0.10174
 20
-0.00056
 30
0.0
 10
0.10174
 20
-0.00056
 30
0.0
 10
0.10174
 20
-0.00056
 30
0.0
 10
-1.11999
 20
-0.7270000000000001
 30
0.0
 10
-1.11999
 20
-0.7270000000000001
 30
0.0
 10
-1.11999
 20
-0.7270000000000001
 30
0.0
 10
-1.3663700000000001
 20
-0.5212600000000001
 30
0.0
 10
-1.04125
 20
-0.3104400000000001
 30
0.0
 10
-0.8507500000000001
 20
-0.15296
 30
0.0
 10
-0.8507500000000001
 20
-0.15296
 30
0.0
 10
-0.8507500000000001
 20
-0.15296
 30
0.0
 10
-0.74407
 20
-0.09454
 30
0.0
 10
-0.74407
 20
-0.09454
 30
0.0
 10
-0.74407
 20
-0.09454
 30
0.0
 10
-0.78471
 20
-0.0285
 30
0.0
 10
-1.0234700000000001
 20
-0.25964
 30
0.0
 10
-1.1479300000000001
 20
-0.29012
 30
0.0
 10
-1.1479300000000001
 20
-0.29012
 30
0.0
 10
-0.7745500000000001
 20
0.3169300000000001
 30
0.0
 10
0.33034
 20
0.36011
 30
0.0
 10
0.9018400000000001
 20
0.8147700000000001
 30
0.0
 10
0.9018400000000001
 20
0.8147700000000001
 30
0.0
 10
0.28208
 20
0.8630300000000001
 30
0.0
 10
-0.8837700000000001
 20
0.42869
 30
0.0
 10
-1.7448300000000001
 20
0.74873
 30
0.0
 10
-1.7448300000000001
 20
0.74873
 30
0.0
 10
-1.7930900000000001
 20
0.8757300000000001
 30
0.0
 10
-1.6559300000000001
 20
0.9392300000000001
 30
0.0
 10
-1.5263900000000001
 20
1.0078100000000001
 30
0.0
 10
-1.5263900000000001
 20
1.0078100000000001
 30
0.0
 10
-1.4578100000000001
 20
0.9900300000000001
 30
0.0
 10
-1.1123700000000001
 20
0.60141
 30
0.0
 10
-0.82535
 20
0.8046100000000001
 30
0.0
 10
-0.82535
 20
0.8046100000000001
 30
0.0
 10
-0.57135
 20
0.89097
 30
0.0
 10
-1.1479300000000001
 20
0.76651
 30
0.0
 10
-1.2292100000000001
 20
0.8960500000000001
 30
0.0
 10
-1.2292100000000001
 20
0.8960500000000001
 30
0.0
 10
-1.24953
 20
1.5793100000000002
 30
0.0
 10
-1.3892300000000002
 20
2.8670900000000001
 30
0.0
 10
-2.2985500000000001
 20
2.6537300000000004
 30
0.0
 10
-2.2985500000000001
 20
2.6537300000000004
 30
0.0
 10
-2.2604500000000001
 20
2.08731
 30
0.0
 10
-2.36205
 20
1.4954900000000002
 30
0.0
 10
-2.8090900000000003
 20
1.0332100000000002
 30
0.0
 10
-2.8090900000000003
 20
1.0332100000000002
 30
0.0
 10
-2.9995900000000004
 20
0.6750700000000001
 30
0.0
 10
-3.9901900000000001
 20
0.01467
 30
0.0
 10
-3.3450300000000004
 20
0.7385700000000001
 30
0.0
 10
-3.3450300000000004
 20
0.7385700000000001
 30
0.0
 10
-2.8446500000000001
 20
1.10941
 30
0.0
 10
-2.2553700000000001
 20
1.6377300000000001
 30
0.0
 10
-2.51953
 20
2.1990700000000003
 30
0.0
 10
-2.51953
 20
2.1990700000000003
 30
0.0
 10
-2.6998700000000002
 20
1.8104500000000001
 30
0.0
 10
-2.8014700000000001
 20
1.2821300000000002
 30
0.0
 10
-3.2535900000000004
 20
0.9874900000000001
 30
0.0
 10
-3.2535900000000004
 20
0.9874900000000001
 30
0.0
 10
-3.2535900000000004
 20
0.9874900000000001
 30
0.0
 10
-3.1621500000000005
 20
1.1830700000000001
 30
0.0
 10
-3.1621500000000005
 20
1.1830700000000001
 30
0.0
 10
-3.1621500000000005
 20
1.1830700000000001
 30
0.0
 10
-3.1621500000000005
 20
1.1830700000000001
 30
0.0
 10
-3.3602700000000003
 20
1.53105
 30
0.0
 10
-3.3602700000000003
 20
1.53105
 30
0.0
 10
-3.3602700000000003
 20
1.53105
 30
0.0
 10
-3.5431500000000002
 20
1.6885300000000001
 30
0.0
 10
-4.1044900000000002
 20
1.5081900000000001
 30
0.0
 10
-3.6218900000000005
 20
1.6758300000000002
 30
0.0
 10
-3.6218900000000005
 20
1.6758300000000002
 30
0.0
 10
-3.6218900000000005
 20
1.6758300000000002
 30
0.0
 10
-3.1773900000000004
 20
1.8206100000000001
 30
0.0
 10
-3.1773900000000004
 20
1.8206100000000001
 30
0.0
 10
-3.1773900000000004
 20
1.8206100000000001
 30
0.0
 10
-3.1926300000000003
 20
1.6504300000000001
 30
0.0
 10
-2.9005300000000003
 20
1.6072500000000001
 30
0.0
 10
-2.9335500000000003
 20
1.4192900000000002
 30
0.0
 10
-2.9335500000000003
 20
1.4192900000000002
 30
0.0
 10
-2.7430500000000002
 20
1.8307700000000002
 30
0.0
 10
-2.7379700000000002
 20
2.4022700000000001
 30
0.0
 10
-2.4712700000000001
 20
2.7324700000000002
 30
0.0
 10
-2.4712700000000001
 20
2.7324700000000002
 30
0.0
 10
-2.9919700000000002
 20
2.50387
 30
0.0
 10
-3.4059900000000001
 20
2.08731
 30
0.0
 10
-3.9673300000000005
 20
1.8993500000000001
 30
0.0
 10
-3.9673300000000005
 20
1.8993500000000001
 30
0.0
 10
-3.9673300000000005
 20
1.8993500000000001
 30
0.0
 10
-3.7565100000000005
 20
2.2092300000000002
 30
0.0
 10
-3.7565100000000005
 20
2.2092300000000002
 30
0.0
 10
-3.7565100000000005
 20
2.2092300000000002
 30
0.0
 10
-3.9546300000000003
 20
2.2473300000000003
 30
0.0
 10
-4.04861
 20
2.04413
 30
0.0
 10
-4.1502100000000004
 20
1.9425300000000001
 30
0.0
 10
-4.1502100000000004
 20
1.9425300000000001
 30
0.0
 10
-4.1502100000000004
 20
1.9425300000000001
 30
0.0
 10
-4.5540700000000003
 20
1.4980300000000002
 30
0.0
 10
-4.5540700000000003
 20
1.4980300000000002
 30
0.0
 10
-4.5540700000000003
 20
1.4980300000000002
 30
0.0
 10
-4.3254700000000001
 20
2.29305
 30
0.0
 10
-3.1926300000000003
 20
2.4530700000000003
 30
0.0
 10
-2.56779
 20
3.0220300000000004
 30
0.0
 10
-2.56779
 20
3.0220300000000004
 30
0.0
 10
-2.56779
 20
3.0220300000000004
 30
0.0
 10
-2.01153
 20
2.8035900000000002
 30
0.0
 10
-2.01153
 20
2.8035900000000002
 30
0.0
 10
-2.01153
 20
2.8035900000000002
 30
0.0
 10
-1.9353300000000002
 20
3.3928700000000003
 30
0.0
 10
-1.2393700000000001
 20
3.9516700000000005
 30
0.0
 10
-0.36307
 20
3.7560900000000004
 30
0.0
 10
-0.36307
 20
3.7560900000000004
 30
0.0
 10
-0.5865900000000001
 20
3.9008700000000003
 30
0.0
 10
-0.9650500000000001
 20
3.8322900000000004
 30
0.0
 10
-1.2292100000000001
 20
3.7713300000000003
 30
0.0
 10
-1.2292100000000001
 20
3.7713300000000003
 30
0.0
 10
-1.00569
 20
4.1167700000000007
 30
0.0
 10
-1.33843
 20
4.6146100000000008
 30
0.0
 10
-1.7905500000000001
 20
4.7797100000000006
 30
0.0
 10
-1.7905500000000001
 20
4.7797100000000006
 30
0.0
 10
-1.75753
 20
4.8635300000000008
 30
0.0
 10
-1.9150100000000001
 20
4.8863900000000005
 30
0.0
 10
-1.8972300000000002
 20
4.9473500000000001
 30
0.0
 10
-1.8972300000000002
 20
4.9473500000000001
 30
0.0
 10
-1.9480300000000002
 20
5.0489500000000005
 30
0.0
 10
-1.8362700000000001
 20
5.1226100000000008
 30
0.0
 10
-1.7600700000000002
 20
5.0083100000000007
 30
0.0
 10
-1.7600700000000002
 20
5.0083100000000007
 30
0.0
 10
-1.79817
 20
4.8660700000000006
 30
0.0
 10
-1.37907
 20
4.8127300000000002
 30
0.0
 10
-1.2876300000000001
 20
4.64255
 30
0.0
 10
-1.2876300000000001
 20
4.64255
 30
0.0
 10
-1.1428500000000001
 20
4.4164900000000005
 30
0.0
 10
-1.0107700000000002
 20
4.1751900000000006
 30
0.0
 10
-0.88885
 20
3.9516700000000005
 30
0.0
 10
-0.88885
 20
3.9516700000000005
 30
0.0
 10
-0.88631
 20
4.1294700000000004
 30
0.0
 10
-0.88885
 20
4.3555300000000008
 30
0.0
 10
-0.9828300000000001
 20
4.5307900000000005
 30
0.0
 10
-0.9828300000000001
 20
4.5307900000000005
 30
0.0
 10
-1.13015
 20
4.8101900000000004
 30
0.0
 10
-1.4781300000000002
 20
4.9905300000000006
 30
0.0
 10
-1.7905500000000001
 20
5.1454700000000004
 30
0.0
 10
-1.7905500000000001
 20
5.1454700000000004
 30
0.0
 10
-1.67371
 20
5.2775500000000006
 30
0.0
 10
-1.3460500000000002
 20
5.5036100000000001
 30
0.0
 10
-1.7118100000000001
 20
5.5315500000000002
 30
0.0
 10
-1.7118100000000001
 20
5.5315500000000002
 30
0.0
 10
-1.7118100000000001
 20
5.5315500000000002
 30
0.0
 10
-1.1047500000000001
 20
5.8846100000000003
 30
0.0
 10
-1.1047500000000001
 20
5.8846100000000003
 30
0.0
 10
-1.1047500000000001
 20
5.8846100000000003
 30
0.0
 10
-0.8634500000000001
 20
5.6204500000000008
 30
0.0
 10
-0.57135
 20
5.6306100000000008
 30
0.0
 10
-0.47737
 20
5.2699300000000004
 30
0.0
 10
-0.47737
 20
5.2699300000000004
 30
0.0
 10
-0.26909
 20
5.5798100000000002
 30
0.0
 10
-0.63739
 20
5.8465100000000003
 30
0.0
 10
-0.33005
 20
6.0801900000000009
 30
0.0
 10
-0.33005
 20
6.0801900000000009
 30
0.0
 10
-0.22083
 20
5.3613700000000009
 30
0.0
 10
0.7342000000000001
 20
4.9879900000000008
 30
0.0
 10
0.7494400000000001
 20
4.2564700000000002
 30
0.0
 10
0.7494400000000001
 20
4.2564700000000002
 30
0.0
 10
0.8027800000000001
 20
4.2742500000000003
 30
0.0
 10
0.8129400000000001
 20
4.4114100000000001
 30
0.0
 10
0.7926200000000001
 20
4.4952300000000003
 30
0.0
 10
0.7926200000000001
 20
4.4952300000000003
 30
0.0
 10
0.6224400000000001
 20
5.1810300000000007
 30
0.0
 10
-0.5230900000000001
 20
5.7322100000000002
 30
0.0
 10
-0.15987
 20
6.4865900000000005
 30
0.0
 10
-0.15987
 20
6.4865900000000005
 30
0.0
 10
-0.04049
 20
6.5907300000000006
 30
0.0
 10
0.11952
 20
6.6186700000000007
 30
0.0
 10
0.29224
 20
6.6313700000000004
 30
0.0
 10
0.29224
 20
6.6313700000000004
 30
0.0
 10
0.9653400000000001
 20
6.6059700000000001
 30
0.0
 10
1.7451200000000002
 20
6.4865900000000005
 30
0.0
 10
2.0270600000000001
 20
5.9252500000000001
 30
0.0
 10
2.0270600000000001
 20
5.9252500000000001
 30
0.0
 10
2.0270600000000001
 20
5.9252500000000001
 30
0.0
 10
2.0880200000000002
 20
5.8719100000000006
 30
0.0
 10
2.0880200000000002
 20
5.8719100000000006
 30
0.0
 10
2.0880200000000002
 20
5.8719100000000006
 30
0.0
 10
2.1108800000000003
 20
5.9506500000000004
 30
0.0
 10
1.9432400000000001
 20
6.0293900000000002
 30
0.0
 10
1.9762600000000001
 20
6.1335300000000004
 30
0.0
 10
1.9762600000000001
 20
6.1335300000000004
 30
0.0
 10
2.3293200000000001
 20
5.9252500000000001
 30
0.0
 10
2.3852000000000002
 20
5.5213900000000002
 30
0.0
 10
2.6036400000000004
 20
5.2369100000000008
 30
0.0
 10
2.6036400000000004
 20
5.2369100000000008
 30
0.0
 10
2.6036400000000004
 20
5.4096300000000008
 30
0.0
 10
2.46902
 20
5.5950500000000005
 30
0.0
 10
2.4055200000000001
 20
5.7677700000000005
 30
0.0
 10
2.4055200000000001
 20
5.7677700000000005
 30
0.0
 10
2.4055200000000001
 20
5.7677700000000005
 30
0.0
 10
2.3725000000000001
 20
5.9125500000000004
 30
0.0
 10
2.3725000000000001
 20
5.9125500000000004
 30
0.0
 10
2.3725000000000001
 20
5.9125500000000004
 30
0.0
 10
2.8957400000000004
 20
5.7550700000000008
 30
0.0
 10
3.0354400000000004
 20
5.2089700000000008
 30
0.0
 10
3.1624400000000001
 20
4.8178100000000006
 30
0.0
 10
3.1624400000000001
 20
4.8178100000000006
 30
0.0
 10
3.1624400000000001
 20
4.8178100000000006
 30
0.0
 10
3.1573600000000002
 20
5.0083100000000007
 30
0.0
 10
3.1573600000000002
 20
5.0083100000000007
 30
0.0
 10
3.1573600000000002
 20
5.0083100000000007
 30
0.0
 10
3.1624400000000001
 20
5.2343700000000002
 30
0.0
 10
2.9440000000000004
 20
5.4045500000000004
 30
0.0
 10
2.9313000000000002
 20
5.6204500000000008
 30
0.0
 10
2.9313000000000002
 20
5.6204500000000008
 30
0.0
 10
4.0793800000000005
 20
5.14039
 30
0.0
 10
3.9473000000000003
 20
3.9491300000000003
 30
0.0
 10
3.6145600000000004
 20
3.0931500000000001
 30
0.0
 10
3.6145600000000004
 20
3.0931500000000001
 30
0.0
 10
3.3859600000000003
 20
3.0474300000000003
 30
0.0
 10
3.2081600000000003
 20
3.2049100000000004
 30
0.0
 10
2.9160600000000003
 20
3.0601300000000005
 30
0.0
 10
2.9160600000000003
 20
3.0601300000000005
 30
0.0
 10
3.2462600000000004
 20
2.9839300000000004
 30
0.0
 10
3.0938600000000003
 20
2.2295500000000001
 30
0.0
 10
2.6519000000000004
 20
2.0593700000000004
 30
0.0
 10
2.6519000000000004
 20
2.0593700000000004
 30
0.0
 10
2.6823800000000002
 20
2.21177
 30
0.0
 10
2.5960200000000002
 20
2.8264500000000004
 30
0.0
 10
2.4664800000000002
 20
2.6308700000000003
 30
0.0
 10
2.4664800000000002
 20
2.6308700000000003
 30
0.0
 10
2.4893400000000003
 20
2.5267300000000001
 30
0.0
 10
2.4893400000000003
 20
2.4073500000000001
 30
0.0
 10
2.4664800000000002
 20
2.30321
 30
0.0
 10
2.4664800000000002
 20
2.30321
 30
0.0
 10
2.2277200000000001
 20
1.8206100000000001
 30
0.0
 10
2.1159600000000003
 20
3.4411300000000002
 30
0.0
 10
2.1489800000000003
 20
2.6410300000000002
 30
0.0
 10
2.1489800000000003
 20
2.6410300000000002
 30
0.0
 10
2.1489800000000003
 20
2.6410300000000002
 30
0.0
 10
2.1515200000000001
 20
2.3819500000000002
 30
0.0
 10
2.1515200000000001
 20
2.3819500000000002
 30
0.0
 10
2.1515200000000001
 20
2.3819500000000002
 30
0.0
 10
2.2226400000000002
 20
2.25495
 30
0.0
 10
2.1261200000000002
 20
2.1762100000000002
 30
0.0
 10
2.0677000000000003
 20
2.08731
 30
0.0
 10
2.0677000000000003
 20
2.08731
 30
0.0
 10
1.4835
 20
2.4860900000000004
 30
0.0
 10
1.9178400000000002
 20
3.09823
 30
0.0
 10
2.1693000000000002
 20
3.5198700000000005
 30
0.0
 10
2.1693000000000002
 20
3.5198700000000005
 30
0.0
 10
2.2404200000000003
 20
3.3369900000000001
 30
0.0
 10
2.3115400000000004
 20
2.9001100000000002
 30
0.0
 10
2.2861400000000001
 20
3.3496900000000003
 30
0.0
 10
2.2861400000000001
 20
3.3496900000000003
 30
0.0
 10
2.38774
 20
3.5630500000000005
 30
0.0
 10
2.5655400000000004
 20
2.8264500000000004
 30
0.0
 10
2.5655400000000004
 20
3.1007700000000002
 30
0.0
 10
2.5655400000000004
 20
3.1007700000000002
 30
0.0
 10
2.5655400000000004
 20
3.1896700000000004
 30
0.0
 10
2.5960200000000002
 20
3.2328500000000004
 30
0.0
 10
2.6849200000000004
 20
3.1439500000000002
 30
0.0
 10
2.6849200000000004
 20
3.1439500000000002
 30
0.0
 10
2.6849200000000004
 20
3.1439500000000002
 30
0.0
 10
2.8576400000000004
 20
2.9102700000000001
 30
0.0
 10
2.8576400000000004
 20
2.9102700000000001
 30
0.0
 10
2.8576400000000004
 20
2.9102700000000001
 30
0.0
 10
2.6950800000000004
 20
3.4030300000000002
 30
0.0
 10
3.2538800000000001
 20
3.9973900000000002
 30
0.0
 10
2.79922
 20
4.6146100000000008
 30
0.0
 10
2.79922
 20
4.6146100000000008
 30
0.0
 10
2.8297000000000003
 20
4.3275900000000007
 30
0.0
 10
3.0684600000000004
 20
3.5325700000000002
 30
0.0
 10
2.5960200000000002
 20
3.3369900000000001
 30
0.0
 10
2.5960200000000002
 20
3.3369900000000001
 30
0.0
 10
2.0702400000000001
 20
3.8830900000000002
 30
0.0
 10
1.8797400000000002
 20
4.5511100000000004
 30
0.0
 10
1.5317600000000002
 20
5.2038900000000003
 30
0.0
 10
1.5317600000000002
 20
5.2038900000000003
 30
0.0
 10
1.5495400000000001
 20
5.0845100000000008
 30
0.0
 10
1.6003400000000001
 20
4.96767
 30
0.0
 10
1.6486000000000001
 20
4.8559100000000006
 30
0.0
 10
1.6486000000000001
 20
4.8559100000000006
 30
0.0
 10
1.7400400000000003
 20
4.6933500000000006
 30
0.0
 10
1.7933800000000002
 20
4.5180899999999999
 30
0.0
 10
1.8619600000000001
 20
4.3479100000000006
 30
0.0
 10
1.8619600000000001
 20
4.3479100000000006
 30
0.0
 10
2.0270600000000001
 20
4.0227900000000005
 30
0.0
 10
2.1515200000000001
 20
3.6113100000000005
 30
0.0
 10
1.9102200000000003
 20
3.2938100000000001
 30
0.0
 10
1.9102200000000003
 20
3.2938100000000001
 30
0.0
 10
1.7095600000000002
 20
2.9636100000000001
 30
0.0
 10
1.7578200000000002
 20
3.2811100000000004
 30
0.0
 10
1.5444600000000002
 20
3.4411300000000002
 30
0.0
 10
1.5444600000000002
 20
3.4411300000000002
 30
0.0
 10
1.27522
 20
3.6189300000000002
 30
0.0
 10
1.1304400000000001
 20
3.9313500000000001
 30
0.0
 10
1.1202800000000002
 20
4.1980500000000003
 30
0.0
 10
1.1202800000000002
 20
4.1980500000000003
 30
0.0
 10
0.9831200000000001
 20
3.7230700000000003
 30
0.0
 10
1.3895200000000001
 20
3.4639900000000003
 30
0.0
 10
1.65622
 20
3.1261700000000001
 30
0.0
 10
1.65622
 20
3.1261700000000001
 30
0.0
 10
1.4098400000000002
 20
2.6435700000000004
 30
0.0
 10
2.0016600000000002
 20
2.2143100000000002
 30
0.0
 10
1.8619600000000001
 20
1.7190100000000001
 30
0.0
 10
1.8619600000000001
 20
1.7190100000000001
 30
0.0
 10
2.0575400000000004
 20
1.7012300000000002
 30
0.0
 10
2.2836000000000003
 20
1.6758300000000002
 30
0.0
 10
2.4715600000000002
 20
1.7139300000000002
 30
0.0
 10
2.4715600000000002
 20
1.7139300000000002
 30
0.0
 10
2.5884
 20
1.7571100000000002
 30
0.0
 10
2.4766400000000002
 20
1.6301100000000002
 30
0.0
 10
2.4537800000000001
 20
1.5945500000000001
 30
0.0
 10
2.4537800000000001
 20
1.5945500000000001
 30
0.0
 10
2.1413600000000002
 20
1.4167500000000002
 30
0.0
 10
2.6290400000000003
 20
0.8579500000000001
 30
0.0
 10
2.4461600000000003
 20
1.3862700000000001
 30
0.0
 10
2.4461600000000003
 20
1.3862700000000001
 30
0.0
 10
2.3953600000000002
 20
1.5589900000000001
 30
0.0
 10
2.6544400000000001
 20
1.7494900000000002
 30
0.0
 10
2.8932000000000002
 20
1.7164700000000002
 30
0.0
  0
SPLINE
  5
28
100
AcDbEntity
  8
Ebene 1
100
AcDbSpline
210
0.0
220
0.0
230
1.0
 70
     1
 71
     3
 72
    16
 73
    12
 74
     0
 42
0.0000000001
 43
0.0000000001
 40
0.0
 40
0.0
 40
0.0
 40
0.0
 40
0.3333333333333333
 40
0.3333333333333333
 40
0.3333333333333333
 40
0.3333333333333333
 40
0.6666666666666666
 40
0.6666666666666666
 40
0.6666666666666666
 40
0.6666666666666666
 40
1.0
 40
1.0
 40
1.0
 40
1.0
 10
-0.41133
 20
5.2572300000000007
 30
0.0
 10
-0.41133
 20
5.2572300000000007
 30
0.0
 10
-0.3656100000000001
 20
5.2572300000000007
 30
0.0
 10
-0.3656100000000001
 20
5.2572300000000007
 30
0.0
 10
-0.3656100000000001
 20
5.2572300000000007
 30
0.0
 10
-0.34021
 20
5.09213
 30
0.0
 10
-0.28941
 20
4.9244900000000005
 30
0.0
 10
-0.29703
 20
4.7746300000000002
 30
0.0
 10
-0.29703
 20
4.7746300000000002
 30
0.0
 10
-0.37831
 20
4.9194100000000001
 30
0.0
 10
-0.40117
 20
5.09213
 30
0.0
 10
-0.41133
 20
5.2572300000000007
 30
0.0
  0
SPLINE
  5
29
100
AcDbEntity
  8
Ebene 1
 62
     7
100
AcDbSpline
210
0.0
220
0.0
230
1.0
 70
     1
 71
     3
 72
    40
 73
    36
 74
     0
 42
0.0000000001
 43
0.0000000001
 40
0.0
 40
0.0
 40
0.0
 40
0.0
 40
0.1111111111111111
 40
0.1111111111111111
 40
0.1111111111111111
 40
0.1111111111111111
 40
0.2222222222222222
 40
0.2222222222222222
 40
0.2222222222222222
 40
0.2222222222222222
 40
0.3333333333333333
 40
0.3333333333333333
 40
0.3333333333333333
 40
0.3333333333333333
 40
0.4444444444444444
 40
0.4444444444444444
 40
0.4444444444444444
 40
0.4444444444444444
 40
0.5555555555555556
 40
0.5555555555555556
 40
0.5555555555555556
 40
0.5555555555555556
 40
0.6666666666666667
 40
0.6666666666666667
 40
0.6666666666666667
 40
0.6666666666666667
 40
0.7777777777777779
 40
0.7777777777777779
 40
0.7777777777777779
 40
0.7777777777777779
 40
0.8888888888888891
 40
0.8888888888888891
 40
0.8888888888888891
 40
0.8888888888888891
 40
1.0
 40
1.0
 40
1.0
 40
1.0
 10
-2.4026900000000002
 20
4.9829100000000004
 30
0.0
 10
-2.31887
 20
4.8228900000000001
 30
0.0
 10
-2.1258300000000001
 20
4.6501700000000001
 30
0.0
 10
-1.8794500000000001
 20
4.5892100000000005
 30
0.0
 10
-1.8794500000000001
 20
4.5892100000000005
 30
0.0
 10
-1.6965700000000001
 20
4.5409500000000005
 30
0.0
 10
-1.5517900000000002
 20
4.4291900000000002
 30
0.0
 10
-1.4679700000000002
 20
4.2818700000000005
 30
0.0
 10
-1.4679700000000002
 20
4.2818700000000005
 30
0.0
 10
-1.5594100000000002
 20
4.25901
 30
0.0
 10
-1.6381500000000002
 20
4.3250500000000001
 30
0.0
 10
-1.7067300000000001
 20
4.2818700000000005
 30
0.0
 10
-1.7067300000000001
 20
4.2818700000000005
 30
0.0
 10
-1.7956300000000001
 20
4.4749100000000004
 30
0.0
 10
-2.0343900000000001
 20
4.5307900000000005
 30
0.0
 10
-2.2553700000000001
 20
4.4342700000000006
 30
0.0
 10
-2.2553700000000001
 20
4.4342700000000006
 30
0.0
 10
-2.2985500000000001
 20
4.5180899999999999
 30
0.0
 10
-2.3772900000000003
 20
4.5587300000000006
 30
0.0
 10
-2.48651
 20
4.5003100000000007
 30
0.0
 10
-2.48651
 20
4.5003100000000007
 30
0.0
 10
-2.8421100000000004
 20
4.6450900000000006
 30
0.0
 10
-2.9360900000000001
 20
4.2361500000000003
 30
0.0
 10
-3.0732500000000003
 20
4.0989900000000006
 30
0.0
 10
-3.0732500000000003
 20
4.0989900000000006
 30
0.0
 10
-3.0503900000000002
 20
4.3910900000000002
 30
0.0
 10
-2.8522700000000003
 20
4.6958900000000003
 30
0.0
 10
-2.48651
 20
4.7873300000000008
 30
0.0
 10
-2.48651
 20
4.7873300000000008
 30
0.0
 10
-2.4687300000000003
 20
4.8482900000000004
 30
0.0
 10
-2.6211300000000004
 20
4.8381300000000005
 30
0.0
 10
-2.5957300000000001
 20
4.9041700000000006
 30
0.0
 10
-2.5957300000000001
 20
4.9041700000000006
 30
0.0
 10
-2.5271500000000002
 20
4.8965500000000004
 30
0.0
 10
-2.4509500000000002
 20
4.9092500000000001
 30
0.0
 10
-2.4026900000000002
 20
4.9829100000000004
 30
0.0
  0
SPLINE
  5
2A
100
AcDbEntity
  8
Ebene 1
 62
     7
100
AcDbSpline
210
0.0
220
0.0
230
1.0
 70
     1
 71
     3
 72
    20
 73
    16
 74
     0
 42
0.0000000001
 43
0.0000000001
 40
0.0
 40
0.0
 40
0.0
 40
0.0
 40
0.25
 40
0.25
 40
0.25
 40
0.25
 40
0.5
 40
0.5
 40
0.5
 40
0.5
 40
0.75
 40
0.75
 40
0.75
 40
0.75
 40
1.0
 40
1.0
 40
1.0
 40
1.0
 10
-2.9284700000000004
 20
4.7619300000000004
 30
0.0
 10
-2.9437100000000003
 20
4.8279700000000005
 30
0.0
 10
-2.7989300000000004
 20
4.9194100000000001
 30
0.0
 10
-2.7659100000000003
 20
4.8279700000000005
 30
0.0
 10
-2.7659100000000003
 20
4.8279700000000005
 30
0.0
 10
-2.6871700000000001
 20
4.8406700000000003
 30
0.0
 10
-2.6160500000000004
 20
4.8609900000000001
 30
0.0
 10
-2.5525500000000001
 20
4.8127300000000002
 30
0.0
 10
-2.5525500000000001
 20
4.8127300000000002
 30
0.0
 10
-2.6084300000000002
 20
4.7543100000000003
 30
0.0
 10
-2.7862300000000002
 20
4.6831900000000006
 30
0.0
 10
-2.86497
 20
4.7746300000000002
 30
0.0
 10
-2.86497
 20
4.7746300000000002
 30
0.0
 10
-2.8878300000000001
 20
4.7797100000000006
 30
0.0
 10
-2.9106900000000002
 20
4.7695500000000006
 30
0.0
 10
-2.9284700000000004
 20
4.7619300000000004
 30
0.0
  0
SPLINE
  5
2B
100
AcDbEntity
  8
Ebene 1
 62
     7
100
AcDbSpline
210
0.0
220
0.0
230
1.0
 70
     1
 71
     3
 72
    12
 73
     8
 74
     0
 42
0.0000000001
 43
0.0000000001
 40
0.0
 40
0.0
 40
0.0
 40
0.0
 40
0.5
 40
0.5
 40
0.5
 40
0.5
 40
1.0
 40
1.0
 40
1.0
 40
1.0
 10
3.8812600000000002
 20
4.7365300000000001
 30
0.0
 10
4.0565199999999999
 20
4.5282500000000008
 30
0.0
 10
4.1809799999999999
 20
4.2234500000000006
 30
0.0
 10
4.1454200000000005
 20
3.9643700000000002
 30
0.0
 10
4.1454200000000005
 20
3.9643700000000002
 30
0.0
 10
4.0971600000000006
 20
4.2234500000000006
 30
0.0
 10
3.9955600000000002
 20
4.4876100000000001
 30
0.0
 10
3.8812600000000002
 20
4.7365300000000001
 30
0.0
  0
SPLINE
  5
2C
100
AcDbEntity
  8
Ebene 1
100
AcDbSpline
210
0.0
220
0.0
230
1.0
 70
     1
 71
     3
 72
    20
 73
    16
 74
     0
 42
0.0000000001
 43
0.0000000001
 40
0.0
 40
0.0
 40
0.0
 40
0.0
 40
0.25
 40
0.25
 40
0.25
 40
0.25
 40
0.5
 40
0.5
 40
0.5
 40
0.5
 40
0.75
 40
0.75
 40
0.75
 40
0.75
 40
1.0
 40
1.0
 40
1.0
 40
1.0
 10
-0.74153
 20
4.3174300000000008
 30
0.0
 10
-0.74153
 20
4.3174300000000008
 30
0.0
 10
-0.67803
 20
4.3148900000000001
 30
0.0
 10
-0.67803
 20
4.3148900000000001
 30
0.0
 10
-0.67803
 20
4.3148900000000001
 30
0.0
 10
-0.5815100000000001
 20
4.2082100000000002
 30
0.0
 10
-0.44181
 20
4.1066100000000008
 30
0.0
 10
-0.28433
 20
4.0786700000000007
 30
0.0
 10
-0.28433
 20
4.0786700000000007
 30
0.0
 10
-0.21321
 20
3.9364300000000005
 30
0.0
 10
0.05856
 20
3.9211900000000002
 30
0.0
 10
0.14238
 20
3.7840300000000004
 30
0.0
 10
0.14238
 20
3.7840300000000004
 30
0.0
 10
-0.18527
 20
3.8856300000000004
 30
0.0
 10
-0.6856500000000001
 20
3.9923100000000002
 30
0.0
 10
-0.74153
 20
4.3174300000000008
 30
0.0
  0
SPLINE
  5
2D
100
AcDbEntity
  8
Ebene 1
 62
     7
100
AcDbSpline
210
0.0
220
0.0
230
1.0
 70
     1
 71
     3
 72
    12
 73
     8
 74
     0
 42
0.0000000001
 43
0.0000000001
 40
0.0
 40
0.0
 40
0.0
 40
0.0
 40
0.5
 40
0.5
 40
0.5
 40
0.5
 40
1.0
 40
1.0
 40
1.0
 40
1.0
 10
-1.3993900000000001
 20
3.9897700000000005
 30
0.0
 10
-1.3638300000000001
 20
3.9110300000000002
 30
0.0
 10
-1.4806700000000002
 20
3.8068900000000001
 30
0.0
 10
-1.5416300000000001
 20
3.7459300000000004
 30
0.0
 10
-1.5416300000000001
 20
3.7459300000000004
 30
0.0
 10
-1.6000500000000002
 20
3.8449900000000001
 30
0.0
 10
-1.4578100000000001
 20
3.9161100000000002
 30
0.0
 10
-1.3993900000000001
 20
3.9897700000000005
 30
0.0
  0
SPLINE
  5
2E
100
AcDbEntity
  8
Ebene 1
 62
     7
100
AcDbSpline
210
0.0
220
0.0
230
1.0
 70
     1
 71
     3
 72
    16
 73
    12
 74
     0
 42
0.0000000001
 43
0.0000000001
 40
0.0
 40
0.0
 40
0.0
 40
0.0
 40
0.3333333333333333
 40
0.3333333333333333
 40
0.3333333333333333
 40
0.3333333333333333
 40
0.6666666666666666
 40
0.6666666666666666
 40
0.6666666666666666
 40
0.6666666666666666
 40
1.0
 40
1.0
 40
1.0
 40
1.0
 10
-1.33335
 20
3.9897700000000005
 30
0.0
 10
-1.2419100000000001
 20
3.9592900000000002
 30
0.0
 10
-1.2749300000000001
 20
3.8322900000000004
 30
0.0
 10
-1.2698500000000001
 20
3.7586300000000001
 30
0.0
 10
-1.2698500000000001
 20
3.7586300000000001
 30
0.0
 10
-1.2698500000000001
 20
3.7586300000000001
 30
0.0
 10
-1.5416300000000001
 20
3.6265500000000004
 30
0.0
 10
-1.5416300000000001
 20
3.6265500000000004
 30
0.0
 10
-1.5416300000000001
 20
3.6265500000000004
 30
0.0
 10
-1.5416300000000001
 20
3.7484700000000002
 30
0.0
 10
-1.33335
 20
3.8500700000000001
 30
0.0
 10
-1.33335
 20
3.9897700000000005
 30
0.0
  0
SPLINE
  5
2F
100
AcDbEntity
  8
Ebene 1
 62
     7
100
AcDbSpline
210
0.0
220
0.0
230
1.0
 70
     1
 71
     3
 72
    44
 73
    40
 74
     0
 42
0.0000000001
 43
0.0000000001
 40
0.0
 40
0.0
 40
0.0
 40
0.0
 40
0.1
 40
0.1
 40
0.1
 40
0.1
 40
0.2
 40
0.2
 40
0.2
 40
0.2
 40
0.3
 40
0.3
 40
0.3
 40
0.3
 40
0.4
 40
0.4
 40
0.4
 40
0.4
 40
0.5
 40
0.5
 40
0.5
 40
0.5
 40
0.6
 40
0.6
 40
0.6
 40
0.6
 40
0.7
 40
0.7
 40
0.7
 40
0.7
 40
0.7999999999999999
 40
0.7999999999999999
 40
0.7999999999999999
 40
0.7999999999999999
 40
0.8999999999999999
 40
0.8999999999999999
 40
0.8999999999999999
 40
0.8999999999999999
 40
1.0
 40
1.0
 40
1.0
 40
1.0
 10
-2.7328900000000003
 20
3.9389700000000003
 30
0.0
 10
-2.6617700000000002
 20
3.8526100000000003
 30
0.0
 10
-2.7760700000000003
 20
3.6849700000000003
 30
0.0
 10
-2.7278100000000003
 20
3.5630500000000005
 30
0.0
 10
-2.7278100000000003
 20
3.5630500000000005
 30
0.0
 10
-2.6871700000000001
 20
3.5960700000000001
 30
0.0
 10
-2.6262100000000004
 20
3.8322900000000004
 30
0.0
 10
-2.5042900000000001
 20
3.8703900000000004
 30
0.0
 10
-2.5042900000000001
 20
3.8703900000000004
 30
0.0
 10
-2.31379
 20
3.9338900000000003
 30
0.0
 10
-2.06487
 20
3.7840300000000004
 30
0.0
 10
-2.1563100000000004
 20
3.6646500000000004
 30
0.0
 10
-2.1563100000000004
 20
3.6646500000000004
 30
0.0
 10
-2.15123
 20
3.6341700000000001
 30
0.0
 10
-2.1715500000000003
 20
3.5960700000000001
 30
0.0
 10
-2.1334500000000003
 20
3.5757500000000002
 30
0.0
 10
-2.1334500000000003
 20
3.5757500000000002
 30
0.0
 10
-1.8337300000000001
 20
3.6468700000000003
 30
0.0
 10
-2.06487
 20
3.2099900000000003
 30
0.0
 10
-2.23759
 20
3.2201500000000003
 30
0.0
 10
-2.23759
 20
3.2201500000000003
 30
0.0
 10
-2.2147300000000003
 20
3.3776300000000004
 30
0.0
 10
-2.3671300000000004
 20
3.5630500000000005
 30
0.0
 10
-2.5347700000000004
 20
3.3496900000000003
 30
0.0
 10
-2.5347700000000004
 20
3.3496900000000003
 30
0.0
 10
-2.8878300000000001
 20
3.4792300000000003
 30
0.0
 10
-3.1926300000000003
 20
3.1871300000000002
 30
0.0
 10
-3.3526500000000001
 20
2.97377
 30
0.0
 10
-3.3526500000000001
 20
2.97377
 30
0.0
 10
-3.2459700000000002
 20
3.2430100000000004
 30
0.0
 10
-3.2154900000000004
 20
3.6163900000000004
 30
0.0
 10
-2.94625
 20
3.8195900000000003
 30
0.0
 10
-2.94625
 20
3.8195900000000003
 30
0.0
 10
-2.9005300000000003
 20
3.8119700000000005
 30
0.0
 10
-2.9640300000000002
 20
3.6900500000000003
 30
0.0
 10
-2.9005300000000003
 20
3.7332300000000003
 30
0.0
 10
-2.9005300000000003
 20
3.7332300000000003
 30
0.0
 10
-2.9005300000000003
 20
3.7332300000000003
 30
0.0
 10
-2.7328900000000003
 20
3.9389700000000003
 30
0.0
 10
-2.7328900000000003
 20
3.9389700000000003
 30
0.0
  0
SPLINE
  5
30
100
AcDbEntity
  8
Ebene 1
 62
     7
100
AcDbSpline
210
0.0
220
0.0
230
1.0
 70
     1
 71
     3
 72
    28
 73
    24
 74
     0
 42
0.0000000001
 43
0.0000000001
 40
0.0
 40
0.0
 40
0.0
 40
0.0
 40
0.1666666666666667
 40
0.1666666666666667
 40
0.1666666666666667
 40
0.1666666666666667
 40
0.3333333333333333
 40
0.3333333333333333
 40
0.3333333333333333
 40
0.3333333333333333
 40
0.5
 40
0.5
 40
0.5
 40
0.5
 40
0.6666666666666666
 40
0.6666666666666666
 40
0.6666666666666666
 40
0.6666666666666666
 40
0.8333333333333333
 40
0.8333333333333333
 40
0.8333333333333333
 40
0.8333333333333333
 40
1.0
 40
1.0
 40
1.0
 40
1.0
 10
-3.4059900000000001
 20
3.9110300000000002
 30
0.0
 10
-3.4059900000000001
 20
3.9110300000000002
 30
0.0
 10
-3.3907500000000002
 20
3.7281500000000003
 30
0.0
 10
-3.3907500000000002
 20
3.7281500000000003
 30
0.0
 10
-3.3907500000000002
 20
3.7281500000000003
 30
0.0
 10
-3.3831300000000004
 20
3.6595700000000004
 30
0.0
 10
-3.2916900000000004
 20
3.6900500000000003
 30
0.0
 10
-3.2459700000000002
 20
3.6595700000000004
 30
0.0
 10
-3.2459700000000002
 20
3.6595700000000004
 30
0.0
 10
-3.2815300000000001
 20
3.3522300000000005
 30
0.0
 10
-3.5025100000000005
 20
3.0601300000000005
 30
0.0
 10
-3.7641300000000002
 20
2.84423
 30
0.0
 10
-3.7641300000000002
 20
2.84423
 30
0.0
 10
-3.7412700000000001
 20
3.1388700000000003
 30
0.0
 10
-3.7158700000000002
 20
3.4436700000000005
 30
0.0
 10
-3.5837900000000005
 20
3.7256100000000001
 30
0.0
 10
-3.5837900000000005
 20
3.7256100000000001
 30
0.0
 10
-3.5380700000000003
 20
3.7281500000000003
 30
0.0
 10
-3.5660100000000003
 20
3.6443300000000005
 30
0.0
 10
-3.4923500000000001
 20
3.6925900000000005
 30
0.0
 10
-3.4923500000000001
 20
3.6925900000000005
 30
0.0
 10
-3.4923500000000001
 20
3.6925900000000005
 30
0.0
 10
-3.4059900000000001
 20
3.9110300000000002
 30
0.0
 10
-3.4059900000000001
 20
3.9110300000000002
 30
0.0
  0
SPLINE
  5
31
100
AcDbEntity
  8
Ebene 1
 62
     7
100
AcDbSpline
210
0.0
220
0.0
230
1.0
 70
     1
 71
     3
 72
    20
 73
    16
 74
     0
 42
0.0000000001
 43
0.0000000001
 40
0.0
 40
0.0
 40
0.0
 40
0.0
 40
0.25
 40
0.25
 40
0.25
 40
0.25
 40
0.5
 40
0.5
 40
0.5
 40
0.5
 40
0.75
 40
0.75
 40
0.75
 40
0.75
 40
1.0
 40
1.0
 40
1.0
 40
1.0
 10
-3.8174700000000001
 20
3.6367100000000003
 30
0.0
 10
-3.8073100000000002
 20
3.6367100000000003
 30
0.0
 10
-3.7819100000000003
 20
3.6392500000000001
 30
0.0
 10
-3.7844500000000001
 20
3.6240100000000002
 30
0.0
 10
-3.7844500000000001
 20
3.6240100000000002
 30
0.0
 10
-3.8885900000000002
 20
3.3623900000000004
 30
0.0
 10
-3.8504900000000002
 20
3.0677500000000002
 30
0.0
 10
-3.8022300000000002
 20
2.80105
 30
0.0
 10
-3.8022300000000002
 20
2.80105
 30
0.0
 10
-3.8022300000000002
 20
2.80105
 30
0.0
 10
-3.9825700000000004
 20
2.6181700000000001
 30
0.0
 10
-3.9825700000000004
 20
2.6181700000000001
 30
0.0
 10
-3.9825700000000004
 20
2.6181700000000001
 30
0.0
 10
-4.0079700000000003
 20
2.9509100000000004
 30
0.0
 10
-3.9393900000000004
 20
3.3217500000000002
 30
0.0
 10
-3.8174700000000001
 20
3.6367100000000003
 30
0.0
  0
SPLINE
  5
32
100
AcDbEntity
  8
Ebene 1
100
AcDbSpline
210
0.0
220
0.0
230
1.0
 70
     1
 71
     3
 72
    76
 73
    72
 74
     0
 42
0.0000000001
 43
0.0000000001
 40
0.0
 40
0.0
 40
0.0
 40
0.0
 40
0.0555555555555556
 40
0.0555555555555556
 40
0.0555555555555556
 40
0.0555555555555556
 40
0.1111111111111111
 40
0.1111111111111111
 40
0.1111111111111111
 40
0.1111111111111111
 40
0.1666666666666667
 40
0.1666666666666667
 40
0.1666666666666667
 40
0.1666666666666667
 40
0.2222222222222222
 40
0.2222222222222222
 40
0.2222222222222222
 40
0.2222222222222222
 40
0.2777777777777778
 40
0.2777777777777778
 40
0.2777777777777778
 40
0.2777777777777778
 40
0.3333333333333334
 40
0.3333333333333334
 40
0.3333333333333334
 40
0.3333333333333334
 40
0.388888888888889
 40
0.388888888888889
 40
0.388888888888889
 40
0.388888888888889
 40
0.4444444444444445
 40
0.4444444444444445
 40
0.4444444444444445
 40
0.4444444444444445
 40
0.5000000000000001
 40
0.5000000000000001
 40
0.5000000000000001
 40
0.5000000000000001
 40
0.5555555555555557
 40
0.5555555555555557
 40
0.5555555555555557
 40
0.5555555555555557
 40
0.6111111111111113
 40
0.6111111111111113
 40
0.6111111111111113
 40
0.6111111111111113
 40
0.6666666666666669
 40
0.6666666666666669
 40
0.6666666666666669
 40
0.6666666666666669
 40
0.7222222222222224
 40
0.7222222222222224
 40
0.7222222222222224
 40
0.7222222222222224
 40
0.777777777777778
 40
0.777777777777778
 40
0.777777777777778
 40
0.777777777777778
 40
0.8333333333333336
 40
0.8333333333333336
 40
0.8333333333333336
 40
0.8333333333333336
 40
0.8888888888888892
 40
0.8888888888888892
 40
0.8888888888888892
 40
0.8888888888888892
 40
0.9444444444444448
 40
0.9444444444444448
 40
0.9444444444444448
 40
0.9444444444444448
 40
1.0
 40
1.0
 40
1.0
 40
1.0
 10
-1.03617
 20
3.5579700000000001
 30
0.0
 10
-0.8812300000000001
 20
3.5224100000000003
 30
0.0
 10
-0.7491500000000001
 20
3.4385900000000005
 30
0.0
 10
-0.59675
 20
3.3725500000000004
 30
0.0
 10
-0.59675
 20
3.3725500000000004
 30
0.0
 10
-0.43165
 20
3.0321900000000004
 30
0.0
 10
-0.07097
 20
2.8391500000000001
 30
0.0
 10
0.15
 20
2.50387
 30
0.0
 10
0.15
 20
2.50387
 30
0.0
 10
0.30494
 20
2.54705
 30
0.0
 10
0.2897
 20
2.3565500000000004
 30
0.0
 10
0.43702
 20
2.4581500000000003
 30
0.0
 10
0.43702
 20
2.4581500000000003
 30
0.0
 10
0.785
 20
2.1177900000000003
 30
0.0
 10
1.3082400000000001
 20
1.9984100000000002
 30
0.0
 10
1.4098400000000002
 20
1.4726300000000001
 30
0.0
 10
1.4098400000000002
 20
1.4726300000000001
 30
0.0
 10
1.3463400000000001
 20
1.4751700000000001
 30
0.0
 10
1.3107800000000001
 20
1.5412100000000002
 30
0.0
 10
1.27014
 20
1.5767700000000002
 30
0.0
 10
1.27014
 20
1.5767700000000002
 30
0.0
 10
1.2142600000000001
 20
1.57423
 30
0.0
 10
1.19648
 20
1.2084700000000002
 30
0.0
 10
0.9805800000000001
 20
1.1195700000000002
 30
0.0
 10
0.9805800000000001
 20
1.1195700000000002
 30
0.0
 10
0.3455800000000001
 20
1.14497
 30
0.0
 10
-0.25893
 20
0.87065
 30
0.0
 10
-0.9167900000000001
 20
0.9620900000000001
 30
0.0
 10
-0.9167900000000001
 20
0.9620900000000001
 30
0.0
 10
-0.9802900000000001
 20
0.99765
 30
0.0
 10
-1.0539500000000002
 20
1.0382900000000002
 30
0.0
 10
-1.0717300000000001
 20
1.10179
 30
0.0
 10
-1.0717300000000001
 20
1.10179
 30
0.0
 10
-1.0641100000000001
 20
1.23895
 30
0.0
 10
-1.0641100000000001
 20
1.3786500000000002
 30
0.0
 10
-1.0209300000000001
 20
1.5056500000000002
 30
0.0
 10
-1.0209300000000001
 20
1.5056500000000002
 30
0.0
 10
-1.3968500000000001
 20
1.9425300000000001
 30
0.0
 10
-1.5111500000000002
 20
2.7350100000000004
 30
0.0
 10
-0.7745500000000001
 20
2.9712300000000003
 30
0.0
 10
-0.7745500000000001
 20
2.9712300000000003
 30
0.0
 10
-0.3656100000000001
 20
2.8797900000000003
 30
0.0
 10
-0.23861
 20
2.4962500000000003
 30
0.0
 10
0.06872
 20
2.2828900000000001
 30
0.0
 10
0.06872
 20
2.2828900000000001
 30
0.0
 10
0.1373
 20
2.2422500000000003
 30
0.0
 10
0.21096
 20
2.1838300000000004
 30
0.0
 10
0.2897
 20
2.16351
 30
0.0
 10
0.2897
 20
2.16351
 30
0.0
 10
0.2897
 20
2.16351
 30
0.0
 10
-0.61199
 20
3.0601300000000005
 30
0.0
 10
-0.61199
 20
3.0601300000000005
 30
0.0
 10
-0.61199
 20
3.0601300000000005
 30
0.0
 10
-0.61199
 20
3.0601300000000005
 30
0.0
 10
-1.16825
 20
3.1668100000000003
 30
0.0
 10
-1.16825
 20
3.1668100000000003
 30
0.0
 10
-1.16825
 20
3.1668100000000003
 30
0.0
 10
-1.1606300000000001
 20
3.0448900000000001
 30
0.0
 10
-1.2317500000000001
 20
2.9915500000000002
 30
0.0
 10
-1.3460500000000002
 20
3.0728300000000002
 30
0.0
 10
-1.3460500000000002
 20
3.0728300000000002
 30
0.0
 10
-1.25207
 20
2.8772500000000001
 30
0.0
 10
-1.5670300000000001
 20
2.8493100000000005
 30
0.0
 10
-1.4806700000000002
 20
2.6689700000000003
 30
0.0
 10
-1.4806700000000002
 20
2.6689700000000003
 30
0.0
 10
-1.4755900000000002
 20
2.63849
 30
0.0
 10
-1.4425700000000001
 20
2.59531
 30
0.0
 10
-1.4857500000000001
 20
2.5699100000000001
 30
0.0
 10
-1.4857500000000001
 20
2.5699100000000001
 30
0.0
 10
-1.6914900000000002
 20
2.9509100000000004
 30
0.0
 10
-1.5340100000000001
 20
3.4385900000000005
 30
0.0
 10
-1.03617
 20
3.5579700000000001
 30
0.0
  0
SPLINE
  5
33
100
AcDbEntity
  8
Ebene 1
 62
     7
100
AcDbSpline
210
0.0
220
0.0
230
1.0
 70
     1
 71
     3
 72
    52
 73
    48
 74
     0
 42
0.0000000001
 43
0.0000000001
 40
0.0
 40
0.0
 40
0.0
 40
0.0
 40
0.0833333333333333
 40
0.0833333333333333
 40
0.0833333333333333
 40
0.0833333333333333
 40
0.1666666666666667
 40
0.1666666666666667
 40
0.1666666666666667
 40
0.1666666666666667
 40
0.25
 40
0.25
 40
0.25
 40
0.25
 40
0.3333333333333333
 40
0.3333333333333333
 40
0.3333333333333333
 40
0.3333333333333333
 40
0.4166666666666666
 40
0.4166666666666666
 40
0.4166666666666666
 40
0.4166666666666666
 40
0.4999999999999999
 40
0.4999999999999999
 40
0.4999999999999999
 40
0.4999999999999999
 40
0.5833333333333333
 40
0.5833333333333333
 40
0.5833333333333333
 40
0.5833333333333333
 40
0.6666666666666666
 40
0.6666666666666666
 40
0.6666666666666666
 40
0.6666666666666666
 40
0.75
 40
0.75
 40
0.75
 40
0.75
 40
0.8333333333333334
 40
0.8333333333333334
 40
0.8333333333333334
 40
0.8333333333333334
 40
0.9166666666666667
 40
0.9166666666666667
 40
0.9166666666666667
 40
0.9166666666666667
 40
1.0
 40
1.0
 40
1.0
 40
1.0
 10
4.3587800000000003
 20
3.2328500000000004
 30
0.0
 10
4.5467400000000007
 20
3.0271100000000004
 30
0.0
 10
4.2038400000000005
 20
2.8493100000000005
 30
0.0
 10
3.9930200000000005
 20
2.7908900000000001
 30
0.0
 10
3.9930200000000005
 20
2.7908900000000001
 30
0.0
 10
3.8050600000000001
 20
2.7045300000000001
 30
0.0
 10
3.5815400000000004
 20
2.5851500000000001
 30
0.0
 10
3.5231200000000005
 20
2.4124300000000001
 30
0.0
 10
3.5231200000000005
 20
2.4124300000000001
 30
0.0
 10
3.7695000000000003
 20
2.6969100000000004
 30
0.0
 10
4.2013000000000007
 20
2.8162900000000004
 30
0.0
 10
4.55436
 20
2.9178900000000003
 30
0.0
 10
4.55436
 20
2.9178900000000003
 30
0.0
 10
4.7753400000000008
 20
2.7807300000000001
 30
0.0
 10
4.66866
 20
2.4911700000000003
 30
0.0
 10
4.6254800000000005
 20
2.3006700000000002
 30
0.0
 10
4.6254800000000005
 20
2.3006700000000002
 30
0.0
 10
4.5797600000000003
 20
2.4683100000000002
 30
0.0
 10
4.5721400000000001
 20
2.6130900000000001
 30
0.0
 10
4.5264200000000008
 20
2.6918300000000004
 30
0.0
 10
4.5264200000000008
 20
2.6918300000000004
 30
0.0
 10
4.4654600000000002
 20
2.6943700000000002
 30
0.0
 10
4.4426000000000005
 20
2.76295
 30
0.0
 10
4.3765600000000004
 20
2.7553300000000003
 30
0.0
 10
4.3765600000000004
 20
2.7553300000000003
 30
0.0
 10
4.2013000000000007
 20
2.7324700000000002
 30
0.0
 10
4.0743
 20
2.6715100000000001
 30
0.0
 10
3.9117400000000004
 20
2.59531
 30
0.0
 10
3.9117400000000004
 20
2.59531
 30
0.0
 10
3.4926400000000002
 20
2.3082900000000004
 30
0.0
 10
3.1116400000000004
 20
2.0187300000000001
 30
0.0
 10
2.6341200000000002
 20
1.7977500000000002
 30
0.0
 10
2.6341200000000002
 20
1.7977500000000002
 30
0.0
 10
2.8805000000000001
 20
2.0466700000000002
 30
0.0
 10
3.0760800000000001
 20
2.3159100000000001
 30
0.0
 10
3.2716600000000002
 20
2.5927700000000002
 30
0.0
 10
3.2716600000000002
 20
2.5927700000000002
 30
0.0
 10
3.2030800000000004
 20
2.6105500000000004
 30
0.0
 10
3.1268800000000003
 20
2.5013300000000003
 30
0.0
 10
3.1624400000000001
 20
2.6410300000000002
 30
0.0
 10
3.1624400000000001
 20
2.6410300000000002
 30
0.0
 10
3.1624400000000001
 20
2.6410300000000002
 30
0.0
 10
4.2394000000000007
 20
2.9610700000000003
 30
0.0
 10
4.2394000000000007
 20
2.9610700000000003
 30
0.0
 10
4.2394000000000007
 20
2.9610700000000003
 30
0.0
 10
4.2394000000000007
 20
2.9610700000000003
 30
0.0
 10
4.3587800000000003
 20
3.2328500000000004
 30
0.0
 10
4.3587800000000003
 20
3.2328500000000004
 30
0.0
  0
SPLINE
  5
34
100
AcDbEntity
  8
Ebene 1
100
AcDbSpline
210
0.0
220
0.0
230
1.0
 70
     1
 71
     3
 72
    28
 73
    24
 74
     0
 42
0.0000000001
 43
0.0000000001
 40
0.0
 40
0.0
 40
0.0
 40
0.0
 40
0.1666666666666667
 40
0.1666666666666667
 40
0.1666666666666667
 40
0.1666666666666667
 40
0.3333333333333333
 40
0.3333333333333333
 40
0.3333333333333333
 40
0.3333333333333333
 40
0.5
 40
0.5
 40
0.5
 40
0.5
 40
0.6666666666666666
 40
0.6666666666666666
 40
0.6666666666666666
 40
0.6666666666666666
 40
0.8333333333333333
 40
0.8333333333333333
 40
0.8333333333333333
 40
0.8333333333333333
 40
1.0
 40
1.0
 40
1.0
 40
1.0
 10
0.3913
 20
3.1795100000000001
 30
0.0
 10
0.4954400000000001
 20
3.1795100000000001
 30
0.0
 10
0.4827400000000001
 20
3.0626700000000002
 30
0.0
 10
0.55386
 20
3.0194900000000002
 30
0.0
 10
0.55386
 20
3.0194900000000002
 30
0.0
 10
0.70118
 20
2.4759300000000004
 30
0.0
 10
1.5927200000000001
 20
2.2473300000000003
 30
0.0
 10
1.5597000000000001
 20
1.6631300000000002
 30
0.0
 10
1.5597000000000001
 20
1.6631300000000002
 30
0.0
 10
1.5825600000000002
 20
1.5640700000000001
 30
0.0
 10
1.6511400000000001
 20
1.4700900000000001
 30
0.0
 10
1.6054200000000001
 20
1.3659500000000002
 30
0.0
 10
1.6054200000000001
 20
1.3659500000000002
 30
0.0
 10
1.56732
 20
1.2973700000000001
 30
0.0
 10
1.4708000000000001
 20
1.36341
 30
0.0
 10
1.4123800000000002
 20
1.2973700000000001
 30
0.0
 10
1.4123800000000002
 20
1.2973700000000001
 30
0.0
 10
1.3717400000000002
 20
1.40405
 30
0.0
 10
1.5343000000000002
 20
1.5361300000000002
 30
0.0
 10
1.4352400000000001
 20
1.6529700000000001
 30
0.0
 10
1.4352400000000001
 20
1.6529700000000001
 30
0.0
 10
1.4657200000000001
 20
2.2727300000000001
 30
0.0
 10
0.4395600000000001
 20
2.5445100000000003
 30
0.0
 10
0.3913
 20
3.1795100000000001
 30
0.0
  0
SPLINE
  5
35
100
AcDbEntity
  8
Ebene 1
100
AcDbSpline
210
0.0
220
0.0
230
1.0
 70
     1
 71
     3
 72
    16
 73
    12
 74
     0
 42
0.0000000001
 43
0.0000000001
 40
0.0
 40
0.0
 40
0.0
 40
0.0
 40
0.3333333333333333
 40
0.3333333333333333
 40
0.3333333333333333
 40
0.3333333333333333
 40
0.6666666666666666
 40
0.6666666666666666
 40
0.6666666666666666
 40
0.6666666666666666
 40
1.0
 40
1.0
 40
1.0
 40
1.0
 10
0.6884800000000001
 20
3.0220300000000004
 30
0.0
 10
0.91454
 20
2.8289900000000001
 30
0.0
 10
1.19394
 20
2.6511900000000002
 30
0.0
 10
1.3311000000000002
 20
2.3946500000000004
 30
0.0
 10
1.3311000000000002
 20
2.3946500000000004
 30
0.0
 10
1.3336400000000002
 20
2.3616300000000003
 30
0.0
 10
1.3336400000000002
 20
2.3260700000000001
 30
0.0
 10
1.2930000000000001
 20
2.3082900000000004
 30
0.0
 10
1.2930000000000001
 20
2.3082900000000004
 30
0.0
 10
1.1583800000000002
 20
2.5724500000000003
 30
0.0
 10
0.8383400000000001
 20
2.7604100000000003
 30
0.0
 10
0.6884800000000001
 20
3.0220300000000004
 30
0.0
  0
SPLINE
  5
36
100
AcDbEntity
  8
Ebene 1
 62
     7
100
AcDbSpline
210
0.0
220
0.0
230
1.0
 70
     1
 71
     3
 72
    12
 73
     8
 74
     0
 42
0.0000000001
 43
0.0000000001
 40
0.0
 40
0.0
 40
0.0
 40
0.0
 40
0.5
 40
0.5
 40
0.5
 40
0.5
 40
1.0
 40
1.0
 40
1.0
 40
1.0
 10
-0.6094500000000001
 20
2.8670900000000001
 30
0.0
 10
-0.7516900000000001
 20
2.8848700000000003
 30
0.0
 10
-0.8761500000000001
 20
2.8366100000000003
 30
0.0
 10
-1.00061
 20
2.8162900000000004
 30
0.0
 10
-1.00061
 20
2.8162900000000004
 30
0.0
 10
-0.9193300000000001
 20
2.9001100000000002
 30
0.0
 10
-0.7059700000000001
 20
2.9763100000000002
 30
0.0
 10
-0.6094500000000001
 20
2.8670900000000001
 30
0.0
  0
SPLINE
  5
37
100
AcDbEntity
  8
Ebene 1
 62
     7
100
AcDbSpline
210
0.0
220
0.0
230
1.0
 70
     1
 71
     3
 72
    48
 73
    44
 74
     0
 42
0.0000000001
 43
0.0000000001
 40
0.0
 40
0.0
 40
0.0
 40
0.0
 40
0.0909090909090909
 40
0.0909090909090909
 40
0.0909090909090909
 40
0.0909090909090909
 40
0.1818181818181818
 40
0.1818181818181818
 40
0.1818181818181818
 40
0.1818181818181818
 40
0.2727272727272727
 40
0.2727272727272727
 40
0.2727272727272727
 40
0.2727272727272727
 40
0.3636363636363637
 40
0.3636363636363637
 40
0.3636363636363637
 40
0.3636363636363637
 40
0.4545454545454546
 40
0.4545454545454546
 40
0.4545454545454546
 40
0.4545454545454546
 40
0.5454545454545455
 40
0.5454545454545455
 40
0.5454545454545455
 40
0.5454545454545455
 40
0.6363636363636365
 40
0.6363636363636365
 40
0.6363636363636365
 40
0.6363636363636365
 40
0.7272727272727274
 40
0.7272727272727274
 40
0.7272727272727274
 40
0.7272727272727274
 40
0.8181818181818183
 40
0.8181818181818183
 40
0.8181818181818183
 40
0.8181818181818183
 40
0.9090909090909093
 40
0.9090909090909093
 40
0.9090909090909093
 40
0.9090909090909093
 40
1.0
 40
1.0
 40
1.0
 40
1.0
 10
4.2927400000000002
 20
2.6308700000000003
 30
0.0
 10
4.3562400000000006
 20
2.63341
 30
0.0
 10
4.4070400000000003
 20
2.6054700000000004
 30
0.0
 10
4.4527600000000005
 20
2.5749900000000001
 30
0.0
 10
4.4527600000000005
 20
2.5749900000000001
 30
0.0
 10
4.6077000000000004
 20
2.17367
 30
0.0
 10
4.4172000000000002
 20
1.7596500000000002
 30
0.0
 10
4.3562400000000006
 20
1.3659500000000002
 30
0.0
 10
4.3562400000000006
 20
1.3659500000000002
 30
0.0
 10
4.3054399999999999
 20
1.3126100000000001
 30
0.0
 10
4.2698800000000006
 20
1.4218300000000001
 30
0.0
 10
4.2317800000000005
 20
1.3735700000000002
 30
0.0
 10
4.2317800000000005
 20
1.3735700000000002
 30
0.0
 10
4.2724200000000003
 20
1.2033900000000002
 30
0.0
 10
4.1301800000000002
 20
0.8427100000000001
 30
0.0
 10
3.8355400000000004
 20
0.89097
 30
0.0
 10
3.8355400000000004
 20
0.89097
 30
0.0
 10
3.8380800000000002
 20
0.8249300000000001
 30
0.0
 10
3.7466400000000002
 20
0.8173100000000001
 30
0.0
 10
3.6882200000000003
 20
0.83001
 30
0.0
 10
3.6882200000000003
 20
0.83001
 30
0.0
 10
3.6196400000000004
 20
1.01797
 30
0.0
 10
3.9320600000000003
 20
0.91129
 30
0.0
 10
4.0082599999999999
 20
1.0408300000000001
 30
0.0
 10
4.0082599999999999
 20
1.0408300000000001
 30
0.0
 10
4.0108000000000006
 20
1.1678300000000001
 30
0.0
 10
3.9879400000000005
 20
1.4802500000000001
 30
0.0
 10
4.2394000000000007
 20
1.4192900000000002
 30
0.0
 10
4.2394000000000007
 20
1.4192900000000002
 30
0.0
 10
4.2394000000000007
 20
1.4192900000000002
 30
0.0
 10
4.1936800000000005
 20
1.4929500000000002
 30
0.0
 10
4.1936800000000005
 20
1.4929500000000002
 30
0.0
 10
4.1936800000000005
 20
1.4929500000000002
 30
0.0
 10
4.3841800000000006
 20
1.7469500000000002
 30
0.0
 10
4.4705400000000006
 20
2.08223
 30
0.0
 10
4.3917999999999999
 20
2.3819500000000002
 30
0.0
 10
4.3917999999999999
 20
2.3819500000000002
 30
0.0
 10
3.7999800000000001
 20
2.6791300000000002
 30
0.0
 10
3.4850200000000005
 20
1.78251
 30
0.0
 10
2.8652600000000001
 20
1.7723500000000001
 30
0.0
 10
2.8652600000000001
 20
1.7723500000000001
 30
0.0
 10
3.3453200000000001
 20
1.9806300000000001
 30
0.0
 10
3.7618800000000001
 20
2.4022700000000001
 30
0.0
 10
4.2927400000000002
 20
2.6308700000000003
 30
0.0
  0
SPLINE
  5
38
100
AcDbEntity
  8
Ebene 1
 62
     7
100
AcDbSpline
210
0.0
220
0.0
230
1.0
 70
     1
 71
     3
 72
    56
 73
    52
 74
     0
 42
0.0000000001
 43
0.0000000001
 40
0.0
 40
0.0
 40
0.0
 40
0.0
 40
0.0769230769230769
 40
0.0769230769230769
 40
0.0769230769230769
 40
0.0769230769230769
 40
0.1538461538461539
 40
0.1538461538461539
 40
0.1538461538461539
 40
0.1538461538461539
 40
0.2307692307692308
 40
0.2307692307692308
 40
0.2307692307692308
 40
0.2307692307692308
 40
0.3076923076923077
 40
0.3076923076923077
 40
0.3076923076923077
 40
0.3076923076923077
 40
0.3846153846153846
 40
0.3846153846153846
 40
0.3846153846153846
 40
0.3846153846153846
 40
0.4615384615384616
 40
0.4615384615384616
 40
0.4615384615384616
 40
0.4615384615384616
 40
0.5384615384615386
 40
0.5384615384615386
 40
0.5384615384615386
 40
0.5384615384615386
 40
0.6153846153846154
 40
0.6153846153846154
 40
0.6153846153846154
 40
0.6153846153846154
 40
0.6923076923076923
 40
0.6923076923076923
 40
0.6923076923076923
 40
0.6923076923076923
 40
0.7692307692307692
 40
0.7692307692307692
 40
0.7692307692307692
 40
0.7692307692307692
 40
0.846153846153846
 40
0.846153846153846
 40
0.846153846153846
 40
0.846153846153846
 40
0.9230769230769229
 40
0.9230769230769229
 40
0.9230769230769229
 40
0.9230769230769229
 40
1.0
 40
1.0
 40
1.0
 40
1.0
 10
-1.9759700000000002
 20
2.4860900000000004
 30
0.0
 10
-1.9759700000000002
 20
2.4860900000000004
 30
0.0
 10
-1.8718300000000001
 20
2.3209900000000001
 30
0.0
 10
-1.8718300000000001
 20
2.3209900000000001
 30
0.0
 10
-1.8718300000000001
 20
2.3209900000000001
 30
0.0
 10
-1.7905500000000001
 20
2.2320900000000004
 30
0.0
 10
-1.8159500000000002
 20
2.3692500000000001
 30
0.0
 10
-1.7473700000000001
 20
2.3540100000000002
 30
0.0
 10
-1.7473700000000001
 20
2.3540100000000002
 30
0.0
 10
-1.4247900000000002
 20
2.0288900000000001
 30
0.0
 10
-1.3460500000000002
 20
1.4751700000000001
 30
0.0
 10
-1.4984500000000001
 20
1.0890900000000001
 30
0.0
 10
-1.4984500000000001
 20
1.0890900000000001
 30
0.0
 10
-1.5086100000000002
 20
1.1322700000000001
 30
0.0
 10
-1.5517900000000002
 20
1.1627500000000002
 30
0.0
 10
-1.6076700000000002
 20
1.1830700000000001
 30
0.0
 10
-1.6076700000000002
 20
1.1830700000000001
 30
0.0
 10
-1.5111500000000002
 20
1.3710300000000002
 30
0.0
 10
-1.6152900000000001
 20
1.5767700000000002
 30
0.0
 10
-1.6991100000000001
 20
1.7520300000000002
 30
0.0
 10
-1.6991100000000001
 20
1.7520300000000002
 30
0.0
 10
-1.7676900000000002
 20
1.7901300000000002
 30
0.0
 10
-1.67371
 20
1.9222100000000002
 30
0.0
 10
-1.7905500000000001
 20
1.9095100000000003
 30
0.0
 10
-1.7905500000000001
 20
1.9095100000000003
 30
0.0
 10
-1.9429500000000002
 20
1.7291700000000001
 30
0.0
 10
-1.7321300000000002
 20
1.5208900000000001
 30
0.0
 10
-1.7651500000000002
 20
1.3405500000000001
 30
0.0
 10
-1.7651500000000002
 20
1.3405500000000001
 30
0.0
 10
-1.8032500000000002
 20
1.3481700000000001
 30
0.0
 10
-1.8362700000000001
 20
1.3507100000000001
 30
0.0
 10
-1.8769100000000001
 20
1.3380100000000001
 30
0.0
 10
-1.8769100000000001
 20
1.3380100000000001
 30
0.0
 10
-1.9378700000000002
 20
1.2948300000000001
 30
0.0
 10
-1.9607300000000001
 20
1.2160900000000001
 30
0.0
 10
-1.9937500000000001
 20
1.32023
 30
0.0
 10
-1.9937500000000001
 20
1.32023
 30
0.0
 10
-2.14107
 20
1.23387
 30
0.0
 10
-2.2807700000000004
 20
1.4650100000000001
 30
0.0
 10
-2.3417300000000001
 20
1.23641
 30
0.0
 10
-2.3417300000000001
 20
1.23641
 30
0.0
 10
-2.3798300000000001
 20
1.3380100000000001
 30
0.0
 10
-2.4255500000000003
 20
1.31515
 30
0.0
 10
-2.4966700000000004
 20
1.2237100000000001
 30
0.0
 10
-2.4966700000000004
 20
1.2237100000000001
 30
0.0
 10
-2.3798300000000001
 20
1.6275700000000002
 30
0.0
 10
-2.2020300000000002
 20
2.01111
 30
0.0
 10
-2.1690100000000001
 20
2.4454500000000001
 30
0.0
 10
-2.1690100000000001
 20
2.4454500000000001
 30
0.0
 10
-2.10297
 20
2.4124300000000001
 30
0.0
 10
-1.9683500000000003
 20
2.3819500000000002
 30
0.0
 10
-1.9759700000000002
 20
2.4860900000000004
 30
0.0
  0
SPLINE
  5
39
100
AcDbEntity
  8
Ebene 1
 62
     7
100
AcDbSpline
210
0.0
220
0.0
230
1.0
 70
     1
 71
     3
 72
    12
 73
     8
 74
     0
 42
0.0000000001
 43
0.0000000001
 40
0.0
 40
0.0
 40
0.0
 40
0.0
 40
0.5
 40
0.5
 40
0.5
 40
0.5
 40
1.0
 40
1.0
 40
1.0
 40
1.0
 10
0.9196200000000001
 20
1.8333100000000002
 30
0.0
 10
0.99582
 20
1.7977500000000002
 30
0.0
 10
1.11266
 20
1.7850500000000002
 30
0.0
 10
1.14568
 20
1.7063100000000002
 30
0.0
 10
1.14568
 20
1.7063100000000002
 30
0.0
 10
1.0644
 20
1.7190100000000001
 30
0.0
 10
0.9297800000000001
 20
1.7571100000000002
 30
0.0
 10
0.9196200000000001
 20
1.8333100000000002
 30
0.0
  0
SPLINE
  5
3A
100
AcDbEntity
  8
Ebene 1
 62
     7
100
AcDbSpline
210
0.0
220
0.0
230
1.0
 70
     1
 71
     3
 72
    16
 73
    12
 74
     0
 42
0.0000000001
 43
0.0000000001
 40
0.0
 40
0.0
 40
0.0
 40
0.0
 40
0.3333333333333333
 40
0.3333333333333333
 40
0.3333333333333333
 40
0.3333333333333333
 40
0.6666666666666666
 40
0.6666666666666666
 40
0.6666666666666666
 40
0.6666666666666666
 40
1.0
 40
1.0
 40
1.0
 40
1.0
 10
-0.72375
 20
1.8206100000000001
 30
0.0
 10
-0.6297700000000001
 20
1.7444100000000002
 30
0.0
 10
-0.8126500000000001
 20
1.6504300000000001
 30
0.0
 10
-0.8507500000000001
 20
1.5894700000000002
 30
0.0
 10
-0.8507500000000001
 20
1.5894700000000002
 30
0.0
 10
-0.9015500000000001
 20
1.6631300000000002
 30
0.0
 10
-0.8786900000000001
 20
1.8180700000000001
 30
0.0
 10
-0.7288300000000001
 20
1.7850500000000002
 30
0.0
 10
-0.7288300000000001
 20
1.7850500000000002
 30
0.0
 10
-0.7288300000000001
 20
1.7850500000000002
 30
0.0
 10
-0.72375
 20
1.8206100000000001
 30
0.0
 10
-0.72375
 20
1.8206100000000001
 30
0.0
  0
SPLINE
  5
3B
100
AcDbEntity
  8
Ebene 1
 62
     7
100
AcDbSpline
210
0.0
220
0.0
230
1.0
 70
     1
 71
     3
 72
    20
 73
    16
 74
     0
 42
0.0000000001
 43
0.0000000001
 40
0.0
 40
0.0
 40
0.0
 40
0.0
 40
0.25
 40
0.25
 40
0.25
 40
0.25
 40
0.5
 40
0.5
 40
0.5
 40
0.5
 40
0.75
 40
0.75
 40
0.75
 40
0.75
 40
1.0
 40
1.0
 40
1.0
 40
1.0
 10
-3.8174700000000001
 20
1.7799700000000001
 30
0.0
 10
-3.8073100000000002
 20
1.7799700000000001
 30
0.0
 10
-3.7819100000000003
 20
1.7850500000000002
 30
0.0
 10
-3.7844500000000001
 20
1.7672700000000001
 30
0.0
 10
-3.7844500000000001
 20
1.7672700000000001
 30
0.0
 10
-3.8479500000000004
 20
1.6910700000000001
 30
0.0
 10
-3.8555700000000002
 20
1.5412100000000002
 30
0.0
 10
-3.9825700000000004
 20
1.5183500000000001
 30
0.0
 10
-3.9825700000000004
 20
1.5183500000000001
 30
0.0
 10
-4.1121100000000004
 20
1.5589900000000001
 30
0.0
 10
-4.0257500000000004
 20
1.7291700000000001
 30
0.0
 10
-3.9038300000000001
 20
1.6809100000000001
 30
0.0
 10
-3.9038300000000001
 20
1.6809100000000001
 30
0.0
 10
-3.9038300000000001
 20
1.6809100000000001
 30
0.0
 10
-3.8174700000000001
 20
1.7799700000000001
 30
0.0
 10
-3.8174700000000001
 20
1.7799700000000001
 30
0.0
  0
SPLINE
  5
3C
100
AcDbEntity
  8
Ebene 1
 62
     7
100
AcDbSpline
210
0.0
220
0.0
230
1.0
 70
     1
 71
     3
 72
    16
 73
    12
 74
     0
 42
0.0000000001
 43
0.0000000001
 40
0.0
 40
0.0
 40
0.0
 40
0.0
 40
0.3333333333333333
 40
0.3333333333333333
 40
0.3333333333333333
 40
0.3333333333333333
 40
0.6666666666666666
 40
0.6666666666666666
 40
0.6666666666666666
 40
0.6666666666666666
 40
1.0
 40
1.0
 40
1.0
 40
1.0
 10
-0.72375
 20
1.6758300000000002
 30
0.0
 10
-0.72375
 20
1.6758300000000002
 30
0.0
 10
-0.69581
 20
1.6732900000000002
 30
0.0
 10
-0.69581
 20
1.6732900000000002
 30
0.0
 10
-0.69581
 20
1.6732900000000002
 30
0.0
 10
-0.71867
 20
1.6072500000000001
 30
0.0
 10
-0.74153
 20
1.49041
 30
0.0
 10
-0.8177300000000001
 20
1.4573900000000002
 30
0.0
 10
-0.8177300000000001
 20
1.4573900000000002
 30
0.0
 10
-0.8177300000000001
 20
1.4573900000000002
 30
0.0
 10
-0.72375
 20
1.6758300000000002
 30
0.0
 10
-0.72375
 20
1.6758300000000002
 30
0.0
  0
SPLINE
  5
3D
100
AcDbEntity
  8
Ebene 1
 62
     7
100
AcDbSpline
210
0.0
220
0.0
230
1.0
 70
     1
 71
     3
 72
    28
 73
    24
 74
     0
 42
0.0000000001
 43
0.0000000001
 40
0.0
 40
0.0
 40
0.0
 40
0.0
 40
0.1666666666666667
 40
0.1666666666666667
 40
0.1666666666666667
 40
0.1666666666666667
 40
0.3333333333333333
 40
0.3333333333333333
 40
0.3333333333333333
 40
0.3333333333333333
 40
0.5
 40
0.5
 40
0.5
 40
0.5
 40
0.6666666666666666
 40
0.6666666666666666
 40
0.6666666666666666
 40
0.6666666666666666
 40
0.8333333333333333
 40
0.8333333333333333
 40
0.8333333333333333
 40
0.8333333333333333
 40
1.0
 40
1.0
 40
1.0
 40
1.0
 10
-0.6424700000000001
 20
1.5970900000000001
 30
0.0
 10
-0.6424700000000001
 20
1.5970900000000001
 30
0.0
 10
-0.4494300000000001
 20
1.49041
 30
0.0
 10
-0.4494300000000001
 20
1.49041
 30
0.0
 10
-0.4494300000000001
 20
1.49041
 30
0.0
 10
-0.56881
 20
1.3481700000000001
 30
0.0
 10
-0.94981
 20
1.2846700000000002
 30
0.0
 10
-0.8558300000000001
 20
1.0890900000000001
 30
0.0
 10
-0.8558300000000001
 20
1.0890900000000001
 30
0.0
 10
-0.8532900000000001
 20
1.07131
 30
0.0
 10
-0.8761500000000001
 20
1.0763900000000002
 30
0.0
 10
-0.88885
 20
1.0763900000000002
 30
0.0
 10
-0.88885
 20
1.0763900000000002
 30
0.0
 10
-0.91171
 20
1.0814700000000002
 30
0.0
 10
-0.92949
 20
1.0967100000000001
 30
0.0
 10
-0.9396500000000001
 20
1.11449
 30
0.0
 10
-0.9396500000000001
 20
1.11449
 30
0.0
 10
-0.9396500000000001
 20
1.11449
 30
0.0
 10
-0.9015500000000001
 20
1.2160900000000001
 30
0.0
 10
-0.9015500000000001
 20
1.2160900000000001
 30
0.0
 10
-0.9015500000000001
 20
1.2160900000000001
 30
0.0
 10
-0.7339100000000001
 20
1.3126100000000001
 30
0.0
 10
-0.78471
 20
1.48787
 30
0.0
 10
-0.6424700000000001
 20
1.5970900000000001
 30
0.0
  0
SPLINE
  5
3E
100
AcDbEntity
  8
Ebene 1
 62
     7
100
AcDbSpline
210
0.0
220
0.0
230
1.0
 70
     1
 71
     3
 72
    20
 73
    16
 74
     0
 42
0.0000000001
 43
0.0000000001
 40
0.0
 40
0.0
 40
0.0
 40
0.0
 40
0.25
 40
0.25
 40
0.25
 40
0.25
 40
0.5
 40
0.5
 40
0.5
 40
0.5
 40
0.75
 40
0.75
 40
0.75
 40
0.75
 40
1.0
 40
1.0
 40
1.0
 40
1.0
 10
3.6323400000000001
 20
1.5843900000000002
 30
0.0
 10
3.6450400000000003
 20
1.5843900000000002
 30
0.0
 10
3.6704400000000001
 20
1.5869300000000002
 30
0.0
 10
3.6679000000000004
 20
1.57169
 30
0.0
 10
3.6679000000000004
 20
1.57169
 30
0.0
 10
3.6018600000000003
 20
1.4523100000000002
 30
0.0
 10
3.4824800000000002
 20
1.3303900000000002
 30
0.0
 10
3.3377000000000003
 20
1.2567300000000001
 30
0.0
 10
3.3377000000000003
 20
1.2567300000000001
 30
0.0
 10
3.3377000000000003
 20
1.2567300000000001
 30
0.0
 10
3.0633800000000004
 20
1.3659500000000002
 30
0.0
 10
3.0633800000000004
 20
1.3659500000000002
 30
0.0
 10
3.0633800000000004
 20
1.3659500000000002
 30
0.0
 10
3.2513400000000003
 20
1.4142100000000002
 30
0.0
 10
3.4621600000000003
 20
1.49041
 30
0.0
 10
3.6323400000000001
 20
1.5843900000000002
 30
0.0
  0
SPLINE
  5
3F
100
AcDbEntity
  8
Ebene 1
 62
     7
100
AcDbSpline
210
0.0
220
0.0
230
1.0
 70
     1
 71
     3
 72
    28
 73
    24
 74
     0
 42
0.0000000001
 43
0.0000000001
 40
0.0
 40
0.0
 40
0.0
 40
0.0
 40
0.1666666666666667
 40
0.1666666666666667
 40
0.1666666666666667
 40
0.1666666666666667
 40
0.3333333333333333
 40
0.3333333333333333
 40
0.3333333333333333
 40
0.3333333333333333
 40
0.5
 40
0.5
 40
0.5
 40
0.5
 40
0.6666666666666666
 40
0.6666666666666666
 40
0.6666666666666666
 40
0.6666666666666666
 40
0.8333333333333333
 40
0.8333333333333333
 40
0.8333333333333333
 40
0.8333333333333333
 40
1.0
 40
1.0
 40
1.0
 40
1.0
 10
0.9831200000000001
 20
1.5462900000000002
 30
0.0
 10
1.02884
 20
1.5158100000000001
 30
0.0
 10
1.0034400000000001
 20
1.3888100000000001
 30
0.0
 10
0.9805800000000001
 20
1.3278500000000002
 30
0.0
 10
0.9805800000000001
 20
1.3278500000000002
 30
0.0
 10
0.4929000000000001
 20
1.1754500000000001
 30
0.0
 10
-0.04557
 20
1.0967100000000001
 30
0.0
 10
-0.5434100000000001
 20
1.0763900000000002
 30
0.0
 10
-0.5434100000000001
 20
1.0763900000000002
 30
0.0
 10
-0.27671
 20
1.2262500000000001
 30
0.0
 10
0.0357
 20
1.2897500000000002
 30
0.0
 10
0.24144
 20
1.4777100000000001
 30
0.0
 10
0.24144
 20
1.4777100000000001
 30
0.0
 10
0.20842
 20
1.4116700000000002
 30
0.0
 10
0.11952
 20
1.2999100000000001
 30
0.0
 10
0.22366
 20
1.2491100000000002
 30
0.0
 10
0.22366
 20
1.2491100000000002
 30
0.0
 10
0.22874
 20
1.31515
 30
0.0
 10
0.25414
 20
1.4192900000000002
 30
0.0
 10
0.34304
 20
1.4675500000000001
 30
0.0
 10
0.34304
 20
1.4675500000000001
 30
0.0
 10
0.51322
 20
1.3684900000000002
 30
0.0
 10
0.8815200000000001
 20
1.3303900000000002
 30
0.0
 10
0.9831200000000001
 20
1.5462900000000002
 30
0.0
  0
SPLINE
  5
40
100
AcDbEntity
  8
Ebene 1
100
AcDbSpline
210
0.0
220
0.0
230
1.0
 70
     1
 71
     3
 72
    64
 73
    60
 74
     0
 42
0.0000000001
 43
0.0000000001
 40
0.0
 40
0.0
 40
0.0
 40
0.0
 40
0.0666666666666667
 40
0.0666666666666667
 40
0.0666666666666667
 40
0.0666666666666667
 40
0.1333333333333333
 40
0.1333333333333333
 40
0.1333333333333333
 40
0.1333333333333333
 40
0.2
 40
0.2
 40
0.2
 40
0.2
 40
0.2666666666666667
 40
0.2666666666666667
 40
0.2666666666666667
 40
0.2666666666666667
 40
0.3333333333333333
 40
0.3333333333333333
 40
0.3333333333333333
 40
0.3333333333333333
 40
0.4
 40
0.4
 40
0.4
 40
0.4
 40
0.4666666666666666
 40
0.4666666666666666
 40
0.4666666666666666
 40
0.4666666666666666
 40
0.5333333333333333
 40
0.5333333333333333
 40
0.5333333333333333
 40
0.5333333333333333
 40
0.6
 40
0.6
 40
0.6
 40
0.6
 40
0.6666666666666666
 40
0.6666666666666666
 40
0.6666666666666666
 40
0.6666666666666666
 40
0.7333333333333333
 40
0.7333333333333333
 40
0.7333333333333333
 40
0.7333333333333333
 40
0.7999999999999999
 40
0.7999999999999999
 40
0.7999999999999999
 40
0.7999999999999999
 40
0.8666666666666666
 40
0.8666666666666666
 40
0.8666666666666666
 40
0.8666666666666666
 40
0.9333333333333332
 40
0.9333333333333332
 40
0.9333333333333332
 40
0.9333333333333332
 40
1.0
 40
1.0
 40
1.0
 40
1.0
 10
1.7756000000000001
 20
1.5183500000000001
 30
0.0
 10
1.7756000000000001
 20
1.5183500000000001
 30
0.0
 10
2.0499200000000002
 20
1.4777100000000001
 30
0.0
 10
2.0499200000000002
 20
1.4777100000000001
 30
0.0
 10
2.0499200000000002
 20
1.4777100000000001
 30
0.0
 10
2.1185
 20
1.3888100000000001
 30
0.0
 10
2.0118200000000002
 20
1.3380100000000001
 30
0.0
 10
1.9762600000000001
 20
1.2618100000000001
 30
0.0
 10
1.9762600000000001
 20
1.2618100000000001
 30
0.0
 10
1.9762600000000001
 20
1.2618100000000001
 30
0.0
 10
2.0677000000000003
 20
1.22879
 30
0.0
 10
2.0677000000000003
 20
1.22879
 30
0.0
 10
2.0677000000000003
 20
1.22879
 30
0.0
 10
2.0956400000000004
 20
0.9646300000000001
 30
0.0
 10
2.2785200000000003
 20
0.7131700000000001
 30
0.0
 10
2.3471000000000002
 20
0.4515500000000001
 30
0.0
 10
2.3471000000000002
 20
0.4515500000000001
 30
0.0
 10
2.2353400000000003
 20
0.30677
 30
0.0
 10
2.0448400000000002
 20
0.55823
 30
0.0
 10
2.0550000000000002
 20
0.57855
 30
0.0
 10
2.0550000000000002
 20
0.57855
 30
0.0
 10
2.12866
 20
0.59379
 30
0.0
 10
2.1896200000000001
 20
0.55823
 30
0.0
 10
2.24804
 20
0.5429900000000001
 30
0.0
 10
2.24804
 20
0.5429900000000001
 30
0.0
 10
2.24804
 20
0.5429900000000001
 30
0.0
 10
1.9534000000000002
 20
1.1779900000000001
 30
0.0
 10
1.9534000000000002
 20
1.1779900000000001
 30
0.0
 10
1.9534000000000002
 20
1.1779900000000001
 30
0.0
 10
1.9000600000000001
 20
1.1729100000000001
 30
0.0
 10
1.9280000000000002
 20
1.0941700000000001
 30
0.0
 10
1.8797400000000002
 20
1.10433
 30
0.0
 10
1.8797400000000002
 20
1.10433
 30
0.0
 10
1.8797400000000002
 20
1.10433
 30
0.0
 10
1.8721200000000002
 20
1.1398900000000001
 30
0.0
 10
1.8721200000000002
 20
1.1398900000000001
 30
0.0
 10
1.8721200000000002
 20
1.1398900000000001
 30
0.0
 10
1.8721200000000002
 20
1.1398900000000001
 30
0.0
 10
1.8695800000000002
 20
1.2567300000000001
 30
0.0
 10
1.8695800000000002
 20
1.2567300000000001
 30
0.0
 10
1.8695800000000002
 20
1.2567300000000001
 30
0.0
 10
1.7679800000000001
 20
1.1754500000000001
 30
0.0
 10
1.6079600000000001
 20
1.0992500000000001
 30
0.0
 10
1.5749400000000002
 20
0.9747900000000001
 30
0.0
 10
1.5749400000000002
 20
0.9747900000000001
 30
0.0
 10
1.5089000000000001
 20
0.9697100000000001
 30
0.0
 10
1.61304
 20
1.0509900000000001
 30
0.0
 10
1.5571600000000001
 20
1.07131
 30
0.0
 10
1.5571600000000001
 20
1.07131
 30
0.0
 10
1.3387200000000001
 20
0.95701
 30
0.0
 10
1.14568
 20
0.7969900000000001
 30
0.0
 10
0.89168
 20
0.7385700000000001
 30
0.0
 10
0.89168
 20
0.7385700000000001
 30
0.0
 10
1.1228200000000002
 20
0.9671700000000001
 30
0.0
 10
1.7095600000000002
 20
1.1195700000000002
 30
0.0
 10
1.6638400000000002
 20
1.4650100000000001
 30
0.0
 10
1.6638400000000002
 20
1.4650100000000001
 30
0.0
 10
1.69432
 20
1.5132700000000001
 30
0.0
 10
1.7654400000000001
 20
1.4548500000000002
 30
0.0
 10
1.7756000000000001
 20
1.5183500000000001
 30
0.0
  0
SPLINE
  5
41
100
AcDbEntity
  8
Ebene 1
 62
     7
100
AcDbSpline
210
0.0
220
0.0
230
1.0
 70
     1
 71
     3
 72
    28
 73
    24
 74
     0
 42
0.0000000001
 43
0.0000000001
 40
0.0
 40
0.0
 40
0.0
 40
0.0
 40
0.1666666666666667
 40
0.1666666666666667
 40
0.1666666666666667
 40
0.1666666666666667
 40
0.3333333333333333
 40
0.3333333333333333
 40
0.3333333333333333
 40
0.3333333333333333
 40
0.5
 40
0.5
 40
0.5
 40
0.5
 40
0.6666666666666666
 40
0.6666666666666666
 40
0.6666666666666666
 40
0.6666666666666666
 40
0.8333333333333333
 40
0.8333333333333333
 40
0.8333333333333333
 40
0.8333333333333333
 40
1.0
 40
1.0
 40
1.0
 40
1.0
 10
-0.24623
 20
1.44215
 30
0.0
 10
-0.22591
 20
1.44469
 30
0.0
 10
-0.20305
 20
1.4319900000000001
 30
0.0
 10
-0.19797
 20
1.4142100000000002
 30
0.0
 10
-0.19797
 20
1.4142100000000002
 30
0.0
 10
-0.24623
 20
1.2186300000000001
 30
0.0
 10
-0.57643
 20
1.19577
 30
0.0
 10
-0.74407
 20
1.06623
 30
0.0
 10
-0.74407
 20
1.06623
 30
0.0
 10
-0.74407
 20
1.06623
 30
0.0
 10
-0.8177300000000001
 20
1.06623
 30
0.0
 10
-0.8177300000000001
 20
1.06623
 30
0.0
 10
-0.8177300000000001
 20
1.06623
 30
0.0
 10
-0.8177300000000001
 20
1.06623
 30
0.0
 10
-0.7288300000000001
 20
1.1195700000000002
 30
0.0
 10
-0.7288300000000001
 20
1.1195700000000002
 30
0.0
 10
-0.7288300000000001
 20
1.1195700000000002
 30
0.0
 10
-0.7059700000000001
 20
1.1576700000000002
 30
0.0
 10
-0.7872500000000001
 20
1.1246500000000001
 30
0.0
 10
-0.7897900000000001
 20
1.15259
 30
0.0
 10
-0.7897900000000001
 20
1.15259
 30
0.0
 10
-0.6500900000000001
 20
1.2973700000000001
 30
0.0
 10
-0.4062500000000001
 20
1.32277
 30
0.0
 10
-0.24623
 20
1.44215
 30
0.0
  0
SPLINE
  5
42
100
AcDbEntity
  8
Ebene 1
 62
     7
100
AcDbSpline
210
0.0
220
0.0
230
1.0
 70
     1
 71
     3
 72
    24
 73
    20
 74
     0
 42
0.0000000001
 43
0.0000000001
 40
0.0
 40
0.0
 40
0.0
 40
0.0
 40
0.2
 40
0.2
 40
0.2
 40
0.2
 40
0.4
 40
0.4
 40
0.4
 40
0.4
 40
0.6000000000000001
 40
0.6000000000000001
 40
0.6000000000000001
 40
0.6000000000000001
 40
0.8
 40
0.8
 40
0.8
 40
0.8
 40
1.0
 40
1.0
 40
1.0
 40
1.0
 10
2.9262200000000003
 20
1.10179
 30
0.0
 10
3.0684600000000004
 20
1.0738500000000002
 30
0.0
 10
3.2843600000000004
 20
1.1246500000000001
 30
0.0
 10
3.3275400000000004
 20
0.9747900000000001
 30
0.0
 10
3.3275400000000004
 20
0.9747900000000001
 30
0.0
 10
3.4266000000000001
 20
0.9925700000000001
 30
0.0
 10
3.6552000000000002
 20
1.0052700000000001
 30
0.0
 10
3.5637600000000003
 20
0.87065
 30
0.0
 10
3.5637600000000003
 20
0.87065
 30
0.0
 10
3.4494600000000002
 20
0.78937
 30
0.0
 10
3.2894400000000004
 20
0.8401700000000001
 30
0.0
 10
3.1903800000000002
 20
0.9189100000000001
 30
0.0
 10
3.1903800000000002
 20
0.9189100000000001
 30
0.0
 10
3.1319600000000003
 20
0.9214500000000001
 30
0.0
 10
3.1726000000000001
 20
0.8452500000000001
 30
0.0
 10
3.1065600000000004
 20
0.8401700000000001
 30
0.0
 10
3.1065600000000004
 20
0.8401700000000001
 30
0.0
 10
3.0608400000000002
 20
0.9239900000000001
 30
0.0
 10
2.8398600000000003
 20
1.0027300000000001
 30
0.0
 10
2.9262200000000003
 20
1.10179
 30
0.0
  0
SPLINE
  5
43
100
AcDbEntity
  8
Ebene 1
100
AcDbSpline
210
0.0
220
0.0
230
1.0
 70
     1
 71
     3
 72
    32
 73
    28
 74
     0
 42
0.0000000001
 43
0.0000000001
 40
0.0
 40
0.0
 40
0.0
 40
0.0
 40
0.1428571428571429
 40
0.1428571428571429
 40
0.1428571428571429
 40
0.1428571428571429
 40
0.2857142857142857
 40
0.2857142857142857
 40
0.2857142857142857
 40
0.2857142857142857
 40
0.4285714285714286
 40
0.4285714285714286
 40
0.4285714285714286
 40
0.4285714285714286
 40
0.5714285714285714
 40
0.5714285714285714
 40
0.5714285714285714
 40
0.5714285714285714
 40
0.7142857142857142
 40
0.7142857142857142
 40
0.7142857142857142
 40
0.7142857142857142
 40
0.857142857142857
 40
0.857142857142857
 40
0.857142857142857
 40
0.857142857142857
 40
1.0
 40
1.0
 40
1.0
 40
1.0
 10
1.4276200000000001
 20
0.85287
 30
0.0
 10
1.6155800000000002
 20
0.85033
 30
0.0
 10
1.7705200000000001
 20
0.7969900000000001
 30
0.0
 10
1.9534000000000002
 20
0.7588900000000001
 30
0.0
 10
1.9534000000000002
 20
0.7588900000000001
 30
0.0
 10
2.0626200000000003
 20
0.74873
 30
0.0
 10
2.1896200000000001
 20
0.6903100000000001
 30
0.0
 10
2.13374
 20
0.6090300000000001
 30
0.0
 10
2.13374
 20
0.6090300000000001
 30
0.0
 10
2.0397600000000002
 20
0.59379
 30
0.0
 10
1.9432400000000001
 20
0.6090300000000001
 30
0.0
 10
1.8721200000000002
 20
0.65729
 30
0.0
 10
1.8721200000000002
 20
0.65729
 30
0.0
 10
1.6308200000000002
 20
0.5709300000000001
 30
0.0
 10
1.4987400000000002
 20
0.74365
 30
0.0
 10
1.2625200000000001
 20
0.7080900000000001
 30
0.0
 10
1.2625200000000001
 20
0.7080900000000001
 30
0.0
 10
1.0034400000000001
 20
0.60141
 30
0.0
 10
0.76468
 20
0.4744100000000001
 30
0.0
 10
0.4802
 20
0.38551
 30
0.0
 10
0.4802
 20
0.38551
 30
0.0
 10
0.5894200000000001
 20
0.48203
 30
0.0
 10
0.7697600000000001
 20
0.5633100000000001
 30
0.0
 10
0.91454
 20
0.6471300000000001
 30
0.0
 10
0.91454
 20
0.6471300000000001
 30
0.0
 10
0.91454
 20
0.6471300000000001
 30
0.0
 10
1.4276200000000001
 20
0.85287
 30
0.0
 10
1.4276200000000001
 20
0.85287
 30
0.0
  0
SPLINE
  5
44
100
AcDbEntity
  8
Ebene 1
 62
     7
100
AcDbSpline
210
0.0
220
0.0
230
1.0
 70
     1
 71
     3
 72
    12
 73
     8
 74
     0
 42
0.0000000001
 43
0.0000000001
 40
0.0
 40
0.0
 40
0.0
 40
0.0
 40
0.5
 40
0.5
 40
0.5
 40
0.5
 40
1.0
 40
1.0
 40
1.0
 40
1.0
 10
2.8449400000000002
 20
0.8147700000000001
 30
0.0
 10
2.8881200000000002
 20
0.78683
 30
0.0
 10
2.9262200000000003
 20
0.7309500000000001
 30
0.0
 10
2.9236800000000001
 20
0.6877700000000001
 30
0.0
 10
2.9236800000000001
 20
0.6877700000000001
 30
0.0
 10
2.8678000000000003
 20
0.6953900000000001
 30
0.0
 10
2.8424
 20
0.76651
 30
0.0
 10
2.8449400000000002
 20
0.8147700000000001
 30
0.0
  0
SPLINE
  5
45
100
AcDbEntity
  8
Ebene 1
 62
     7
100
AcDbSpline
210
0.0
220
0.0
230
1.0
 70
     1
 71
     3
 72
    16
 73
    12
 74
     0
 42
0.0000000001
 43
0.0000000001
 40
0.0
 40
0.0
 40
0.0
 40
0.0
 40
0.3333333333333333
 40
0.3333333333333333
 40
0.3333333333333333
 40
0.3333333333333333
 40
0.6666666666666666
 40
0.6666666666666666
 40
0.6666666666666666
 40
0.6666666666666666
 40
1.0
 40
1.0
 40
1.0
 40
1.0
 10
3.1903800000000002
 20
0.8147700000000001
 30
0.0
 10
3.2691200000000005
 20
0.78683
 30
0.0
 10
3.4316800000000001
 20
0.68523
 30
0.0
 10
3.3834200000000001
 20
0.6090300000000001
 30
0.0
 10
3.3834200000000001
 20
0.6090300000000001
 30
0.0
 10
3.2437200000000002
 20
0.57855
 30
0.0
 10
3.3199200000000002
 20
0.7588900000000001
 30
0.0
 10
3.2107000000000001
 20
0.76651
 30
0.0
 10
3.2107000000000001
 20
0.76651
 30
0.0
 10
3.2107000000000001
 20
0.76651
 30
0.0
 10
3.1903800000000002
 20
0.8147700000000001
 30
0.0
 10
3.1903800000000002
 20
0.8147700000000001
 30
0.0
  0
SPLINE
  5
46
100
AcDbEntity
  8
Ebene 1
 62
     7
100
AcDbSpline
210
0.0
220
0.0
230
1.0
 70
     1
 71
     3
 72
    24
 73
    20
 74
     0
 42
0.0000000001
 43
0.0000000001
 40
0.0
 40
0.0
 40
0.0
 40
0.0
 40
0.2
 40
0.2
 40
0.2
 40
0.2
 40
0.4
 40
0.4
 40
0.4
 40
0.4
 40
0.6000000000000001
 40
0.6000000000000001
 40
0.6000000000000001
 40
0.6000000000000001
 40
0.8
 40
0.8
 40
0.8
 40
0.8
 40
1.0
 40
1.0
 40
1.0
 40
1.0
 10
-2.3696700000000002
 20
0.7614300000000001
 30
0.0
 10
-2.2528300000000003
 20
0.61919
 30
0.0
 10
-2.01153
 20
0.76397
 30
0.0
 10
-1.9048500000000002
 20
0.6344300000000001
 30
0.0
 10
-1.9048500000000002
 20
0.6344300000000001
 30
0.0
 10
-1.9048500000000002
 20
0.6344300000000001
 30
0.0
 10
-1.6330700000000002
 20
0.53791
 30
0.0
 10
-1.6330700000000002
 20
0.53791
 30
0.0
 10
-1.6330700000000002
 20
0.53791
 30
0.0
 10
-1.6025900000000002
 20
0.4947300000000001
 30
0.0
 10
-1.4984500000000001
 20
0.53791
 30
0.0
 10
-1.4984500000000001
 20
0.48711
 30
0.0
 10
-1.4984500000000001
 20
0.48711
 30
0.0
 10
-1.8159500000000002
 20
0.4210700000000001
 30
0.0
 10
-2.1334500000000003
 20
0.4845700000000001
 30
0.0
 10
-2.4636500000000003
 20
0.47695
 30
0.0
 10
-2.4636500000000003
 20
0.47695
 30
0.0
 10
-2.6363700000000003
 20
0.58109
 30
0.0
 10
-2.4458700000000002
 20
0.6776100000000001
 30
0.0
 10
-2.3696700000000002
 20
0.7614300000000001
 30
0.0
  0
SPLINE
  5
47
100
AcDbEntity
  8
Ebene 1
 62
     7
100
AcDbSpline
210
0.0
220
0.0
230
1.0
 70
     1
 71
     3
 72
    20
 73
    16
 74
     0
 42
0.0000000001
 43
0.0000000001
 40
0.0
 40
0.0
 40
0.0
 40
0.0
 40
0.25
 40
0.25
 40
0.25
 40
0.25
 40
0.5
 40
0.5
 40
0.5
 40
0.5
 40
0.75
 40
0.75
 40
0.75
 40
0.75
 40
1.0
 40
1.0
 40
1.0
 40
1.0
 10
3.9473000000000003
 20
0.74873
 30
0.0
 10
3.8050600000000001
 20
0.65729
 30
0.0
 10
3.6704400000000001
 20
0.55569
 30
0.0
 10
3.6018600000000003
 20
0.4210700000000001
 30
0.0
 10
3.6018600000000003
 20
0.4210700000000001
 30
0.0
 10
3.6018600000000003
 20
0.4210700000000001
 30
0.0
 10
3.4570800000000004
 20
0.55061
 30
0.0
 10
3.4570800000000004
 20
0.55061
 30
0.0
 10
3.4570800000000004
 20
0.55061
 30
0.0
 10
3.5053400000000003
 20
0.59633
 30
0.0
 10
3.5434400000000004
 20
0.46933
 30
0.0
 10
3.5840800000000002
 20
0.51251
 30
0.0
 10
3.5840800000000002
 20
0.51251
 30
0.0
 10
3.6247200000000004
 20
0.6496700000000001
 30
0.0
 10
3.7720400000000005
 20
0.7538100000000001
 30
0.0
 10
3.9473000000000003
 20
0.74873
 30
0.0
  0
SPLINE
  5
48
100
AcDbEntity
  8
Ebene 1
 62
     7
100
AcDbSpline
210
0.0
220
0.0
230
1.0
 70
     1
 71
     3
 72
    52
 73
    48
 74
     0
 42
0.0000000001
 43
0.0000000001
 40
0.0
 40
0.0
 40
0.0
 40
0.0
 40
0.0833333333333333
 40
0.0833333333333333
 40
0.0833333333333333
 40
0.0833333333333333
 40
0.1666666666666667
 40
0.1666666666666667
 40
0.1666666666666667
 40
0.1666666666666667
 40
0.25
 40
0.25
 40
0.25
 40
0.25
 40
0.3333333333333333
 40
0.3333333333333333
 40
0.3333333333333333
 40
0.3333333333333333
 40
0.4166666666666666
 40
0.4166666666666666
 40
0.4166666666666666
 40
0.4166666666666666
 40
0.4999999999999999
 40
0.4999999999999999
 40
0.4999999999999999
 40
0.4999999999999999
 40
0.5833333333333333
 40
0.5833333333333333
 40
0.5833333333333333
 40
0.5833333333333333
 40
0.6666666666666666
 40
0.6666666666666666
 40
0.6666666666666666
 40
0.6666666666666666
 40
0.75
 40
0.75
 40
0.75
 40
0.75
 40
0.8333333333333334
 40
0.8333333333333334
 40
0.8333333333333334
 40
0.8333333333333334
 40
0.9166666666666667
 40
0.9166666666666667
 40
0.9166666666666667
 40
0.9166666666666667
 40
1.0
 40
1.0
 40
1.0
 40
1.0
 10
-2.7989300000000004
 20
0.5277500000000001
 30
0.0
 10
-2.7989300000000004
 20
0.5277500000000001
 30
0.0
 10
-2.4890500000000002
 20
0.32201
 30
0.0
 10
-2.4890500000000002
 20
0.32201
 30
0.0
 10
-2.4890500000000002
 20
0.32201
 30
0.0
 10
-2.6516100000000002
 20
0.30931
 30
0.0
 10
-2.9411700000000001
 20
0.25089
 30
0.0
 10
-2.86497
 20
0.06801
 30
0.0
 10
-2.86497
 20
0.06801
 30
0.0
 10
-2.8141700000000003
 20
0.02737
 30
0.0
 10
-2.7633700000000001
 20
0.12389
 30
0.0
 10
-2.7938500000000004
 20
0.15691
 30
0.0
 10
-2.7938500000000004
 20
0.15691
 30
0.0
 10
-2.7506700000000004
 20
0.12135
 30
0.0
 10
-2.69733
 20
0.13151
 30
0.0
 10
-2.6465300000000003
 20
0.13913
 30
0.0
 10
-2.6465300000000003
 20
0.13913
 30
0.0
 10
-2.31887
 20
0.13151
 30
0.0
 10
-2.5779500000000004
 20
-0.07676
 30
0.0
 10
-2.6160500000000004
 20
-0.22916
 30
0.0
 10
-2.6160500000000004
 20
-0.22916
 30
0.0
 10
-2.6668500000000002
 20
-0.10724
 30
0.0
 10
-2.8700500000000004
 20
-0.1047
 30
0.0
 10
-3.0122900000000001
 20
-0.12502
 30
0.0
 10
-3.0122900000000001
 20
-0.12502
 30
0.0
 10
-3.1596100000000003
 20
-0.04374
 30
0.0
 10
-3.3221700000000003
 20
-0.06406
 30
0.0
 10
-3.4999700000000002
 20
-0.05644
 30
0.0
 10
-3.4999700000000002
 20
-0.05644
 30
0.0
 10
-3.6066500000000001
 20
0.02991
 30
0.0
 10
-3.6041100000000004
 20
0.07309
 30
0.0
 10
-3.4593300000000005
 20
0.06039
 30
0.0
 10
-3.4593300000000005
 20
0.06039
 30
0.0
 10
-3.4491700000000001
 20
0.16707
 30
0.0
 10
-3.3780500000000004
 20
0.09849
 30
0.0
 10
-3.2789900000000003
 20
0.11119
 30
0.0
 10
-3.2789900000000003
 20
0.11119
 30
0.0
 10
-3.2332700000000001
 20
0.16961
 30
0.0
 10
-3.2993100000000002
 20
0.27883
 30
0.0
 10
-3.1621500000000005
 20
0.28137
 30
0.0
 10
-3.1621500000000005
 20
0.28137
 30
0.0
 10
-3.1697700000000002
 20
0.42361
 30
0.0
 10
-2.9564100000000004
 20
0.47695
 30
0.0
 10
-2.94625
 20
0.30423
 30
0.0
 10
-2.94625
 20
0.30423
 30
0.0
 10
-2.8725900000000002
 20
0.37027
 30
0.0
 10
-2.8243300000000002
 20
0.43631
 30
0.0
 10
-2.7989300000000004
 20
0.5277500000000001
 30
0.0
  0
SPLINE
  5
49
100
AcDbEntity
  8
Ebene 1
 62
     7
100
AcDbSpline
210
0.0
220
0.0
230
1.0
 70
     1
 71
     3
 72
    36
 73
    32
 74
     0
 42
0.0000000001
 43
0.0000000001
 40
0.0
 40
0.0
 40
0.0
 40
0.0
 40
0.125
 40
0.125
 40
0.125
 40
0.125
 40
0.25
 40
0.25
 40
0.25
 40
0.25
 40
0.375
 40
0.375
 40
0.375
 40
0.375
 40
0.5
 40
0.5
 40
0.5
 40
0.5
 40
0.625
 40
0.625
 40
0.625
 40
0.625
 40
0.75
 40
0.75
 40
0.75
 40
0.75
 40
0.875
 40
0.875
 40
0.875
 40
0.875
 40
1.0
 40
1.0
 40
1.0
 40
1.0
 10
-1.9099300000000001
 20
0.04261
 30
0.0
 10
-1.8743700000000001
 20
0.03753
 30
0.0
 10
-1.8235700000000001
 20
0.05531
 30
0.0
 10
-1.79817
 20
0.02737
 30
0.0
 10
-1.79817
 20
0.02737
 30
0.0
 10
-1.9454900000000002
 20
-0.05898
 30
0.0
 10
-2.01661
 20
-0.24948
 30
0.0
 10
-2.18425
 20
-0.25964
 30
0.0
 10
-2.18425
 20
-0.25964
 30
0.0
 10
-2.2553700000000001
 20
-0.3739400000000001
 30
0.0
 10
-2.2858500000000004
 20
-0.50856
 30
0.0
 10
-2.4026900000000002
 20
-0.59492
 30
0.0
 10
-2.4026900000000002
 20
-0.59492
 30
0.0
 10
-2.7811500000000002
 20
-0.5111
 30
0.0
 10
-2.5855700000000001
 20
-0.17836
 30
0.0
 10
-2.3417300000000001
 20
-0.06152
 30
0.0
 10
-2.3417300000000001
 20
-0.06152
 30
0.0
 10
-2.3696700000000002
 20
-0.21138
 30
0.0
 10
-2.4839700000000002
 20
-0.37648
 30
0.0
 10
-2.4204700000000003
 20
-0.52888
 30
0.0
 10
-2.4204700000000003
 20
-0.52888
 30
0.0
 10
-2.4204700000000003
 20
-0.52888
 30
0.0
 10
-2.3544300000000002
 20
-0.4374400000000001
 30
0.0
 10
-2.3544300000000002
 20
-0.4374400000000001
 30
0.0
 10
-2.3544300000000002
 20
-0.4374400000000001
 30
0.0
 10
-2.2731500000000002
 20
-0.2825
 30
0.0
 10
-2.2477500000000004
 20
0.02483
 30
0.0
 10
-1.9785100000000002
 20
-0.0031
 30
0.0
 10
-1.9785100000000002
 20
-0.0031
 30
0.0
 10
-1.9785100000000002
 20
-0.0031
 30
0.0
 10
-1.9099300000000001
 20
0.04261
 30
0.0
 10
-1.9099300000000001
 20
0.04261
 30
0.0
  0
SPLINE
  5
4A
100
AcDbEntity
  8
Ebene 1
 62
     7
100
AcDbSpline
210
0.0
220
0.0
230
1.0
 70
     1
 71
     3
 72
    16
 73
    12
 74
     0
 42
0.0000000001
 43
0.0000000001
 40
0.0
 40
0.0
 40
0.0
 40
0.0
 40
0.3333333333333333
 40
0.3333333333333333
 40
0.3333333333333333
 40
0.3333333333333333
 40
0.6666666666666666
 40
0.6666666666666666
 40
0.6666666666666666
 40
0.6666666666666666
 40
1.0
 40
1.0
 40
1.0
 40
1.0
 10
0.6884800000000001
 20
-0.05898
 30
0.0
 10
0.7062600000000001
 20
-0.0539
 30
0.0
 10
0.7316600000000001
 20
-0.0666
 30
0.0
 10
0.7164200000000001
 20
-0.08184
 30
0.0
 10
0.7164200000000001
 20
-0.08184
 30
0.0
 10
0.7164200000000001
 20
-0.08184
 30
0.0
 10
0.21604
 20
-0.29012
 30
0.0
 10
0.21604
 20
-0.29012
 30
0.0
 10
0.21604
 20
-0.29012
 30
0.0
 10
0.32272
 20
-0.18852
 30
0.0
 10
0.5233800000000001
 20
-0.1047
 30
0.0
 10
0.6884800000000001
 20
-0.05898
 30
0.0
  0
SPLINE
  5
4B
100
AcDbEntity
  8
Ebene 1
 62
     7
100
AcDbSpline
210
0.0
220
0.0
230
1.0
 70
     1
 71
     3
 72
    16
 73
    12
 74
     0
 42
0.0000000001
 43
0.0000000001
 40
0.0
 40
0.0
 40
0.0
 40
0.0
 40
0.3333333333333333
 40
0.3333333333333333
 40
0.3333333333333333
 40
0.3333333333333333
 40
0.6666666666666666
 40
0.6666666666666666
 40
0.6666666666666666
 40
0.6666666666666666
 40
1.0
 40
1.0
 40
1.0
 40
1.0
 10
-2.5855700000000001
 20
-0.5822200000000001
 30
0.0
 10
-2.5855700000000001
 20
-0.5822200000000001
 30
0.0
 10
-2.3239500000000004
 20
-0.6508000000000001
 30
0.0
 10
-2.3239500000000004
 20
-0.6508000000000001
 30
0.0
 10
-2.3239500000000004
 20
-0.6508000000000001
 30
0.0
 10
-2.4026900000000002
 20
-0.9352800000000001
 30
0.0
 10
-2.3442700000000003
 20
-1.2654800000000002
 30
0.0
 10
-2.56779
 20
-1.5093200000000002
 30
0.0
 10
-2.56779
 20
-1.5093200000000002
 30
0.0
 10
-2.6008100000000001
 20
-1.2096
 30
0.0
 10
-2.6185900000000002
 20
-0.88956
 30
0.0
 10
-2.5855700000000001
 20
-0.5822200000000001
 30
0.0
  0
SPLINE
  5
4C
100
AcDbEntity
  8
Ebene 1
 62
     7
100
AcDbSpline
210
0.0
220
0.0
230
1.0
 70
     1
 71
     3
 72
    48
 73
    44
 74
     0
 42
0.0000000001
 43
0.0000000001
 40
0.0
 40
0.0
 40
0.0
 40
0.0
 40
0.0909090909090909
 40
0.0909090909090909
 40
0.0909090909090909
 40
0.0909090909090909
 40
0.1818181818181818
 40
0.1818181818181818
 40
0.1818181818181818
 40
0.1818181818181818
 40
0.2727272727272727
 40
0.2727272727272727
 40
0.2727272727272727
 40
0.2727272727272727
 40
0.3636363636363637
 40
0.3636363636363637
 40
0.3636363636363637
 40
0.3636363636363637
 40
0.4545454545454546
 40
0.4545454545454546
 40
0.4545454545454546
 40
0.4545454545454546
 40
0.5454545454545455
 40
0.5454545454545455
 40
0.5454545454545455
 40
0.5454545454545455
 40
0.6363636363636365
 40
0.6363636363636365
 40
0.6363636363636365
 40
0.6363636363636365
 40
0.7272727272727274
 40
0.7272727272727274
 40
0.7272727272727274
 40
0.7272727272727274
 40
0.8181818181818183
 40
0.8181818181818183
 40
0.8181818181818183
 40
0.8181818181818183
 40
0.9090909090909093
 40
0.9090909090909093
 40
0.9090909090909093
 40
0.9090909090909093
 40
1.0
 40
1.0
 40
1.0
 40
1.0
 10
3.0913200000000001
 20
-0.7143000000000001
 30
0.0
 10
3.0913200000000001
 20
-0.7143000000000001
 30
0.0
 10
3.2361000000000004
 20
-0.71684
 30
0.0
 10
3.2361000000000004
 20
-0.71684
 30
0.0
 10
3.2361000000000004
 20
-0.71684
 30
0.0
 10
3.2361000000000004
 20
-0.71684
 30
0.0
 10
3.5739200000000002
 20
-1.2197600000000002
 30
0.0
 10
3.5739200000000002
 20
-1.2197600000000002
 30
0.0
 10
3.5739200000000002
 20
-1.2197600000000002
 30
0.0
 10
3.5739200000000002
 20
-1.2197600000000002
 30
0.0
 10
3.6323400000000001
 20
-1.21214
 30
0.0
 10
3.6323400000000001
 20
-1.21214
 30
0.0
 10
3.6323400000000001
 20
-1.21214
 30
0.0
 10
3.7568000000000001
 20
-1.4051800000000001
 30
0.0
 10
3.8634800000000005
 20
-1.6617200000000001
 30
0.0
 10
3.7491800000000004
 20
-1.8623800000000001
 30
0.0
 10
3.7491800000000004
 20
-1.8623800000000001
 30
0.0
 10
3.7491800000000004
 20
-1.8623800000000001
 30
0.0
 10
3.6831400000000003
 20
-1.6287
 30
0.0
 10
3.6831400000000003
 20
-1.6287
 30
0.0
 10
3.6831400000000003
 20
-1.6287
 30
0.0
 10
3.6831400000000003
 20
-1.6287
 30
0.0
 10
3.6374200000000001
 20
-1.4813800000000001
 30
0.0
 10
3.6374200000000001
 20
-1.4813800000000001
 30
0.0
 10
3.6374200000000001
 20
-1.4813800000000001
 30
0.0
 10
3.6374200000000001
 20
-1.4813800000000001
 30
0.0
 10
3.5663000000000005
 20
-1.3747
 30
0.0
 10
3.5663000000000005
 20
-1.3747
 30
0.0
 10
3.5663000000000005
 20
-1.3747
 30
0.0
 10
3.5663000000000005
 20
-1.3747
 30
0.0
 10
3.6628200000000004
 20
-1.7430000000000001
 30
0.0
 10
3.6628200000000004
 20
-1.7430000000000001
 30
0.0
 10
3.6628200000000004
 20
-1.7430000000000001
 30
0.0
 10
3.6628200000000004
 20
-1.7430000000000001
 30
0.0
 10
3.2030800000000004
 20
-0.78034
 30
0.0
 10
3.2030800000000004
 20
-0.78034
 30
0.0
 10
3.2030800000000004
 20
-0.78034
 30
0.0
 10
3.1700600000000003
 20
-0.7117600000000001
 30
0.0
 10
3.0786200000000004
 20
-0.82352
 30
0.0
 10
3.0735400000000004
 20
-0.7397
 30
0.0
 10
3.0735400000000004
 20
-0.7397
 30
0.0
 10
3.0735400000000004
 20
-0.7397
 30
0.0
 10
3.0913200000000001
 20
-0.7143000000000001
 30
0.0
 10
3.0913200000000001
 20
-0.7143000000000001
 30
0.0
  0
SPLINE
  5
4D
100
AcDbEntity
  8
Ebene 1
100
AcDbSpline
210
0.0
220
0.0
230
1.0
 70
     1
 71
     3
 72
    56
 73
    52
 74
     0
 42
0.0000000001
 43
0.0000000001
 40
0.0
 40
0.0
 40
0.0
 40
0.0
 40
0.0769230769230769
 40
0.0769230769230769
 40
0.0769230769230769
 40
0.0769230769230769
 40
0.1538461538461539
 40
0.1538461538461539
 40
0.1538461538461539
 40
0.1538461538461539
 40
0.2307692307692308
 40
0.2307692307692308
 40
0.2307692307692308
 40
0.2307692307692308
 40
0.3076923076923077
 40
0.3076923076923077
 40
0.3076923076923077
 40
0.3076923076923077
 40
0.3846153846153846
 40
0.3846153846153846
 40
0.3846153846153846
 40
0.3846153846153846
 40
0.4615384615384616
 40
0.4615384615384616
 40
0.4615384615384616
 40
0.4615384615384616
 40
0.5384615384615386
 40
0.5384615384615386
 40
0.5384615384615386
 40
0.5384615384615386
 40
0.6153846153846154
 40
0.6153846153846154
 40
0.6153846153846154
 40
0.6153846153846154
 40
0.6923076923076923
 40
0.6923076923076923
 40
0.6923076923076923
 40
0.6923076923076923
 40
0.7692307692307692
 40
0.7692307692307692
 40
0.7692307692307692
 40
0.7692307692307692
 40
0.846153846153846
 40
0.846153846153846
 40
0.846153846153846
 40
0.846153846153846
 40
0.9230769230769229
 40
0.9230769230769229
 40
0.9230769230769229
 40
0.9230769230769229
 40
1.0
 40
1.0
 40
1.0
 40
1.0
 10
1.7756000000000001
 20
-0.7397
 30
0.0
 10
1.7756000000000001
 20
-0.7397
 30
0.0
 10
1.23204
 20
-1.3010400000000002
 30
0.0
 10
1.23204
 20
-1.3010400000000002
 30
0.0
 10
1.23204
 20
-1.3010400000000002
 30
0.0
 10
1.3260200000000002
 20
-1.4432800000000001
 30
0.0
 10
1.5876400000000002
 20
-1.2985000000000002
 30
0.0
 10
1.5978000000000001
 20
-1.4813800000000001
 30
0.0
 10
1.5978000000000001
 20
-1.4813800000000001
 30
0.0
 10
1.6232000000000002
 20
-1.4890000000000001
 30
0.0
 10
1.65622
 20
-1.4890000000000001
 30
0.0
 10
1.6714600000000002
 20
-1.4661400000000002
 30
0.0
 10
1.6714600000000002
 20
-1.4661400000000002
 30
0.0
 10
1.6714600000000002
 20
-1.4661400000000002
 30
0.0
 10
2.21502
 20
-0.7549400000000001
 30
0.0
 10
2.21502
 20
-0.7549400000000001
 30
0.0
 10
2.21502
 20
-0.7549400000000001
 30
0.0
 10
2.2556600000000002
 20
-1.08006
 30
0.0
 10
1.7070200000000002
 20
-1.2756400000000001
 30
0.0
 10
1.8035400000000001
 20
-1.6109200000000001
 30
0.0
 10
1.8035400000000001
 20
-1.6109200000000001
 30
0.0
 10
1.7476600000000002
 20
-1.6769600000000002
 30
0.0
 10
1.7019400000000002
 20
-1.7353800000000001
 30
0.0
 10
1.6257400000000002
 20
-1.7861800000000001
 30
0.0
 10
1.6257400000000002
 20
-1.7861800000000001
 30
0.0
 10
1.4657200000000001
 20
-1.7226800000000002
 30
0.0
 10
1.6079600000000001
 20
-1.3188200000000001
 30
0.0
 10
1.3692000000000002
 20
-1.5194800000000002
 30
0.0
 10
1.3692000000000002
 20
-1.5194800000000002
 30
0.0
 10
1.2904600000000002
 20
-1.3747
 30
0.0
 10
1.1355200000000001
 20
-1.4636
 30
0.0
 10
1.0542400000000001
 20
-1.5321800000000001
 30
0.0
 10
1.0542400000000001
 20
-1.5321800000000001
 30
0.0
 10
1.0034400000000001
 20
-1.3848600000000002
 30
0.0
 10
0.9628000000000001
 20
-1.2350000000000001
 30
0.0
 10
0.8535800000000001
 20
-1.1054600000000001
 30
0.0
 10
0.8535800000000001
 20
-1.1054600000000001
 30
0.0
 10
0.7494400000000001
 20
-1.1791200000000002
 30
0.0
 10
0.6097400000000001
 20
-1.1511800000000001
 30
0.0
 10
0.50814
 20
-1.0927600000000002
 30
0.0
 10
0.50814
 20
-1.0927600000000002
 30
0.0
 10
0.2643
 20
-1.25278
 30
0.0
 10
0.24144
 20
-0.94798
 30
0.0
 10
0.57164
 20
-0.9759200000000001
 30
0.0
 10
0.57164
 20
-0.9759200000000001
 30
0.0
 10
0.8358000000000001
 20
-1.03688
 30
0.0
 10
1.05932
 20
-1.0495800000000002
 30
0.0
 10
1.0339200000000002
 20
-1.3289800000000001
 30
0.0
 10
1.0339200000000002
 20
-1.3289800000000001
 30
0.0
 10
1.1812400000000001
 20
-1.0724400000000001
 30
0.0
 10
1.4555600000000002
 20
-0.8590800000000001
 30
0.0
 10
1.7756000000000001
 20
-0.7397
 30
0.0
  0
SPLINE
  5
4E
100
AcDbEntity
  8
Ebene 1
 62
     7
100
AcDbSpline
210
0.0
220
0.0
230
1.0
 70
     1
 71
     3
 72
    44
 73
    40
 74
     0
 42
0.0000000001
 43
0.0000000001
 40
0.0
 40
0.0
 40
0.0
 40
0.0
 40
0.1
 40
0.1
 40
0.1
 40
0.1
 40
0.2
 40
0.2
 40
0.2
 40
0.2
 40
0.3
 40
0.3
 40
0.3
 40
0.3
 40
0.4
 40
0.4
 40
0.4
 40
0.4
 40
0.5
 40
0.5
 40
0.5
 40
0.5
 40
0.6
 40
0.6
 40
0.6
 40
0.6
 40
0.7
 40
0.7
 40
0.7
 40
0.7
 40
0.7999999999999999
 40
0.7999999999999999
 40
0.7999999999999999
 40
0.7999999999999999
 40
0.8999999999999999
 40
0.8999999999999999
 40
0.8999999999999999
 40
0.8999999999999999
 40
1.0
 40
1.0
 40
1.0
 40
1.0
 10
3.01004
 20
-0.8565400000000001
 30
0.0
 10
3.4012000000000002
 20
-1.0902200000000002
 30
0.0
 10
3.4418400000000005
 20
-1.54742
 30
0.0
 10
3.5485200000000003
 20
-1.9131800000000001
 30
0.0
 10
3.5485200000000003
 20
-1.9131800000000001
 30
0.0
 10
3.4240600000000003
 20
-1.92334
 30
0.0
 10
3.3656400000000004
 20
-1.7887200000000001
 30
0.0
 10
3.2437200000000002
 20
-1.9055600000000001
 30
0.0
 10
3.2437200000000002
 20
-1.9055600000000001
 30
0.0
 10
3.2030800000000004
 20
-1.9563600000000001
 30
0.0
 10
3.2386400000000002
 20
-2.06812
 30
0.0
 10
3.1446600000000005
 20
-2.0808200000000001
 30
0.0
 10
3.1446600000000005
 20
-2.0808200000000001
 30
0.0
 10
3.1446600000000005
 20
-2.0808200000000001
 30
0.0
 10
3.1294200000000001
 20
-1.5525000000000002
 30
0.0
 10
3.1294200000000001
 20
-1.5525000000000002
 30
0.0
 10
3.1294200000000001
 20
-1.5525000000000002
 30
0.0
 10
3.1776800000000001
 20
-1.54234
 30
0.0
 10
3.1472000000000002
 20
-1.6845800000000002
 30
0.0
 10
3.2234000000000003
 20
-1.6287
 30
0.0
 10
3.2234000000000003
 20
-1.6287
 30
0.0
 10
3.1929200000000004
 20
-1.3924800000000002
 30
0.0
 10
3.2234000000000003
 20
-1.1080000000000001
 30
0.0
 10
3.01004
 20
-0.94798
 30
0.0
 10
3.01004
 20
-0.94798
 30
0.0
 10
3.01004
 20
-0.94798
 30
0.0
 10
2.9922600000000004
 20
-1.08006
 30
0.0
 10
2.9922600000000004
 20
-1.08006
 30
0.0
 10
2.9922600000000004
 20
-1.08006
 30
0.0
 10
3.0837000000000003
 20
-1.3696200000000001
 30
0.0
 10
3.0049600000000001
 20
-1.6363200000000002
 30
0.0
 10
3.0379800000000001
 20
-1.9385800000000002
 30
0.0
 10
3.0379800000000001
 20
-1.9385800000000002
 30
0.0
 10
2.9211400000000003
 20
-1.5931400000000002
 30
0.0
 10
2.9567000000000001
 20
-1.28834
 30
0.0
 10
2.8830400000000003
 20
-0.9378200000000001
 30
0.0
 10
2.8830400000000003
 20
-0.9378200000000001
 30
0.0
 10
2.9770200000000004
 20
-0.9784600000000001
 30
0.0
 10
2.9770200000000004
 20
-0.9022600000000001
 30
0.0
 10
3.01004
 20
-0.8565400000000001
 30
0.0
  0
SPLINE
  5
4F
100
AcDbEntity
  8
Ebene 1
 62
     7
100
AcDbSpline
210
0.0
220
0.0
230
1.0
 70
     1
 71
     3
 72
    28
 73
    24
 74
     0
 42
0.0000000001
 43
0.0000000001
 40
0.0
 40
0.0
 40
0.0
 40
0.0
 40
0.1666666666666667
 40
0.1666666666666667
 40
0.1666666666666667
 40
0.1666666666666667
 40
0.3333333333333333
 40
0.3333333333333333
 40
0.3333333333333333
 40
0.3333333333333333
 40
0.5
 40
0.5
 40
0.5
 40
0.5
 40
0.6666666666666666
 40
0.6666666666666666
 40
0.6666666666666666
 40
0.6666666666666666
 40
0.8333333333333333
 40
0.8333333333333333
 40
0.8333333333333333
 40
0.8333333333333333
 40
1.0
 40
1.0
 40
1.0
 40
1.0
 10
-1.4806700000000002
 20
-1.0521200000000002
 30
0.0
 10
-1.46035
 20
-1.0495800000000002
 30
0.0
 10
-1.4374900000000002
 20
-1.0622800000000001
 30
0.0
 10
-1.4324100000000002
 20
-1.08006
 30
0.0
 10
-1.4324100000000002
 20
-1.08006
 30
0.0
 10
-1.4324100000000002
 20
-1.08006
 30
0.0
 10
-1.7600700000000002
 20
-1.8496800000000002
 30
0.0
 10
-1.7600700000000002
 20
-1.8496800000000002
 30
0.0
 10
-1.7600700000000002
 20
-1.8496800000000002
 30
0.0
 10
-1.8159500000000002
 20
-1.62616
 30
0.0
 10
-1.8134100000000002
 20
-1.3188200000000001
 30
0.0
 10
-1.7600700000000002
 20
-1.0927600000000002
 30
0.0
 10
-1.7600700000000002
 20
-1.0927600000000002
 30
0.0
 10
-1.7270500000000002
 20
-1.1130800000000001
 30
0.0
 10
-1.7499100000000001
 20
-1.1715
 30
0.0
 10
-1.7473700000000001
 20
-1.20452
 30
0.0
 10
-1.7473700000000001
 20
-1.20452
 30
0.0
 10
-1.7854700000000001
 20
-1.3543800000000001
 30
0.0
 10
-1.7524500000000001
 20
-1.5017
 30
0.0
 10
-1.7270500000000002
 20
-1.6541000000000001
 30
0.0
 10
-1.7270500000000002
 20
-1.6541000000000001
 30
0.0
 10
-1.6584700000000001
 20
-1.46106
 30
0.0
 10
-1.67371
 20
-1.20452
 30
0.0
 10
-1.4806700000000002
 20
-1.0521200000000002
 30
0.0
  0
SPLINE
  5
50
100
AcDbEntity
  8
Ebene 1
 62
     7
100
AcDbSpline
210
0.0
220
0.0
230
1.0
 70
     1
 71
     3
 72
    48
 73
    44
 74
     0
 42
0.0000000001
 43
0.0000000001
 40
0.0
 40
0.0
 40
0.0
 40
0.0
 40
0.0909090909090909
 40
0.0909090909090909
 40
0.0909090909090909
 40
0.0909090909090909
 40
0.1818181818181818
 40
0.1818181818181818
 40
0.1818181818181818
 40
0.1818181818181818
 40
0.2727272727272727
 40
0.2727272727272727
 40
0.2727272727272727
 40
0.2727272727272727
 40
0.3636363636363637
 40
0.3636363636363637
 40
0.3636363636363637
 40
0.3636363636363637
 40
0.4545454545454546
 40
0.4545454545454546
 40
0.4545454545454546
 40
0.4545454545454546
 40
0.5454545454545455
 40
0.5454545454545455
 40
0.5454545454545455
 40
0.5454545454545455
 40
0.6363636363636365
 40
0.6363636363636365
 40
0.6363636363636365
 40
0.6363636363636365
 40
0.7272727272727274
 40
0.7272727272727274
 40
0.7272727272727274
 40
0.7272727272727274
 40
0.8181818181818183
 40
0.8181818181818183
 40
0.8181818181818183
 40
0.8181818181818183
 40
0.9090909090909093
 40
0.9090909090909093
 40
0.9090909090909093
 40
0.9090909090909093
 40
1.0
 40
1.0
 40
1.0
 40
1.0
 10
2.5807800000000003
 20
-1.0521200000000002
 30
0.0
 10
2.5807800000000003
 20
-1.0521200000000002
 30
0.0
 10
2.67984
 20
-1.2756400000000001
 30
0.0
 10
2.67984
 20
-1.2756400000000001
 30
0.0
 10
2.67984
 20
-1.2756400000000001
 30
0.0
 10
2.6849200000000004
 20
-1.3086600000000002
 30
0.0
 10
2.6290400000000003
 20
-1.3112000000000001
 30
0.0
 10
2.6036400000000004
 20
-1.3162800000000001
 30
0.0
 10
2.6036400000000004
 20
-1.3162800000000001
 30
0.0
 10
2.6036400000000004
 20
-1.3162800000000001
 30
0.0
 10
2.6138000000000003
 20
-1.8242800000000001
 30
0.0
 10
2.6138000000000003
 20
-1.8242800000000001
 30
0.0
 10
2.6138000000000003
 20
-1.8242800000000001
 30
0.0
 10
2.6722200000000003
 20
-1.9284200000000002
 30
0.0
 10
2.76112
 20
-2.0554200000000002
 30
0.0
 10
2.6925400000000002
 20
-2.1722600000000001
 30
0.0
 10
2.6925400000000002
 20
-2.1722600000000001
 30
0.0
 10
2.5147400000000002
 20
-2.1417800000000002
 30
0.0
 10
2.6595200000000001
 20
-1.9766800000000002
 30
0.0
 10
2.5960200000000002
 20
-1.8776200000000001
 30
0.0
 10
2.5960200000000002
 20
-1.8776200000000001
 30
0.0
 10
2.6011000000000002
 20
-1.8141200000000002
 30
0.0
 10
2.4944200000000003
 20
-1.7379200000000001
 30
0.0
 10
2.5147400000000002
 20
-1.8496800000000002
 30
0.0
 10
2.5147400000000002
 20
-1.8496800000000002
 30
0.0
 10
2.5147400000000002
 20
-1.8496800000000002
 30
0.0
 10
2.5198200000000002
 20
-1.9436600000000002
 30
0.0
 10
2.5198200000000002
 20
-1.9436600000000002
 30
0.0
 10
2.5198200000000002
 20
-1.9436600000000002
 30
0.0
 10
2.38774
 20
-1.8700000000000001
 30
0.0
 10
2.3725000000000001
 20
-2.1240000000000001
 30
0.0
 10
2.2074000000000003
 20
-2.1722600000000001
 30
0.0
 10
2.2074000000000003
 20
-2.1722600000000001
 30
0.0
 10
2.2023200000000003
 20
-1.8725400000000001
 30
0.0
 10
2.2505800000000002
 20
-1.54488
 30
0.0
 10
2.4385400000000002
 20
-1.2654800000000002
 30
0.0
 10
2.4385400000000002
 20
-1.2654800000000002
 30
0.0
 10
2.46902
 20
-1.2756400000000001
 30
0.0
 10
2.50204
 20
-1.3112000000000001
 30
0.0
 10
2.54522
 20
-1.2985000000000002
 30
0.0
 10
2.54522
 20
-1.2985000000000002
 30
0.0
 10
2.5909400000000002
 20
-1.2223000000000002
 30
0.0
 10
2.5833200000000001
 20
-1.1384800000000002
 30
0.0
 10
2.5807800000000003
 20
-1.0521200000000002
 30
0.0
  0
SPLINE
  5
51
100
AcDbEntity
  8
Ebene 1
 62
     7
100
AcDbSpline
210
0.0
220
0.0
230
1.0
 70
     1
 71
     3
 72
    28
 73
    24
 74
     0
 42
0.0000000001
 43
0.0000000001
 40
0.0
 40
0.0
 40
0.0
 40
0.0
 40
0.1666666666666667
 40
0.1666666666666667
 40
0.1666666666666667
 40
0.1666666666666667
 40
0.3333333333333333
 40
0.3333333333333333
 40
0.3333333333333333
 40
0.3333333333333333
 40
0.5
 40
0.5
 40
0.5
 40
0.5
 40
0.6666666666666666
 40
0.6666666666666666
 40
0.6666666666666666
 40
0.6666666666666666
 40
0.8333333333333333
 40
0.8333333333333333
 40
0.8333333333333333
 40
0.8333333333333333
 40
1.0
 40
1.0
 40
1.0
 40
1.0
 10
-0.82281
 20
-1.1435600000000001
 30
0.0
 10
-0.8710700000000001
 20
-1.3188200000000001
 30
0.0
 10
-1.04125
 20
-1.5652000000000001
 30
0.0
 10
-0.9396500000000001
 20
-1.7582400000000002
 30
0.0
 10
-0.9396500000000001
 20
-1.7582400000000002
 30
0.0
 10
-0.88631
 20
-1.54488
 30
0.0
 10
-0.7085100000000001
 20
-1.3391400000000002
 30
0.0
 10
-0.58913
 20
-1.1461000000000001
 30
0.0
 10
-0.58913
 20
-1.1461000000000001
 30
0.0
 10
-0.56881
 20
-1.1384800000000002
 30
0.0
 10
-0.5434100000000001
 20
-1.1461000000000001
 30
0.0
 10
-0.53071
 20
-1.16134
 30
0.0
 10
-0.53071
 20
-1.16134
 30
0.0
 10
-0.4900700000000001
 20
-1.1791200000000002
 30
0.0
 10
-0.4900700000000001
 20
-1.2146800000000002
 30
0.0
 10
-0.49515
 20
-1.2477
 30
0.0
 10
-0.49515
 20
-1.2477
 30
0.0
 10
-0.49515
 20
-1.2477
 30
0.0
 10
-0.9828300000000001
 20
-2.0046200000000001
 30
0.0
 10
-0.9828300000000001
 20
-2.0046200000000001
 30
0.0
 10
-0.9828300000000001
 20
-2.0046200000000001
 30
0.0
 10
-1.04633
 20
-1.7201400000000002
 30
0.0
 10
-1.0641100000000001
 20
-1.3747
 30
0.0
 10
-0.82281
 20
-1.1435600000000001
 30
0.0
  0
SPLINE
  5
52
100
AcDbEntity
  8
Ebene 1
 62
     7
100
AcDbSpline
210
0.0
220
0.0
230
1.0
 70
     1
 71
     3
 72
    28
 73
    24
 74
     0
 42
0.0000000001
 43
0.0000000001
 40
0.0
 40
0.0
 40
0.0
 40
0.0
 40
0.1666666666666667
 40
0.1666666666666667
 40
0.1666666666666667
 40
0.1666666666666667
 40
0.3333333333333333
 40
0.3333333333333333
 40
0.3333333333333333
 40
0.3333333333333333
 40
0.5
 40
0.5
 40
0.5
 40
0.5
 40
0.6666666666666666
 40
0.6666666666666666
 40
0.6666666666666666
 40
0.6666666666666666
 40
0.8333333333333333
 40
0.8333333333333333
 40
0.8333333333333333
 40
0.8333333333333333
 40
1.0
 40
1.0
 40
1.0
 40
1.0
 10
0.01284
 20
-1.28834
 30
0.0
 10
0.03062
 20
-1.2832600000000001
 30
0.0
 10
0.05856
 20
-1.29596
 30
0.0
 10
0.04332
 20
-1.3112000000000001
 30
0.0
 10
0.04332
 20
-1.3112000000000001
 30
0.0
 10
-0.14971
 20
-1.4458200000000001
 30
0.0
 10
-0.18273
 20
-1.7176000000000002
 30
0.0
 10
-0.11669
 20
-1.9030200000000002
 30
0.0
 10
-0.11669
 20
-1.9030200000000002
 30
0.0
 10
-0.04303
 20
-1.7049000000000001
 30
0.0
 10
0.13222
 20
-1.4763000000000002
 30
0.0
 10
0.34812
 20
-1.3696200000000001
 30
0.0
 10
0.34812
 20
-1.3696200000000001
 30
0.0
 10
0.3684400000000001
 20
-1.3594600000000001
 30
0.0
 10
0.39638
 20
-1.3112000000000001
 30
0.0
 10
0.42178
 20
-1.3416800000000002
 30
0.0
 10
0.42178
 20
-1.3416800000000002
 30
0.0
 10
0.29478
 20
-1.6287
 30
0.0
 10
-0.01001
 20
-1.8344400000000001
 30
0.0
 10
-0.18273
 20
-2.0986000000000002
 30
0.0
 10
-0.18273
 20
-2.0986000000000002
 30
0.0
 10
-0.28687
 20
-1.8446000000000002
 30
0.0
 10
-0.22845
 20
-1.4864600000000001
 30
0.0
 10
0.01284
 20
-1.28834
 30
0.0
  0
SPLINE
  5
53
100
AcDbEntity
  8
Ebene 1
 62
     7
100
AcDbSpline
210
0.0
220
0.0
230
1.0
 70
     1
 71
     3
 72
    48
 73
    44
 74
     0
 42
0.0000000001
 43
0.0000000001
 40
0.0
 40
0.0
 40
0.0
 40
0.0
 40
0.0909090909090909
 40
0.0909090909090909
 40
0.0909090909090909
 40
0.0909090909090909
 40
0.1818181818181818
 40
0.1818181818181818
 40
0.1818181818181818
 40
0.1818181818181818
 40
0.2727272727272727
 40
0.2727272727272727
 40
0.2727272727272727
 40
0.2727272727272727
 40
0.3636363636363637
 40
0.3636363636363637
 40
0.3636363636363637
 40
0.3636363636363637
 40
0.4545454545454546
 40
0.4545454545454546
 40
0.4545454545454546
 40
0.4545454545454546
 40
0.5454545454545455
 40
0.5454545454545455
 40
0.5454545454545455
 40
0.5454545454545455
 40
0.6363636363636365
 40
0.6363636363636365
 40
0.6363636363636365
 40
0.6363636363636365
 40
0.7272727272727274
 40
0.7272727272727274
 40
0.7272727272727274
 40
0.7272727272727274
 40
0.8181818181818183
 40
0.8181818181818183
 40
0.8181818181818183
 40
0.8181818181818183
 40
0.9090909090909093
 40
0.9090909090909093
 40
0.9090909090909093
 40
0.9090909090909093
 40
1.0
 40
1.0
 40
1.0
 40
1.0
 10
0.5233800000000001
 20
-1.3416800000000002
 30
0.0
 10
0.5233800000000001
 20
-1.3416800000000002
 30
0.0
 10
0.36336
 20
-1.7277600000000002
 30
0.0
 10
0.36336
 20
-1.7277600000000002
 30
0.0
 10
0.36336
 20
-1.7277600000000002
 30
0.0
 10
0.36336
 20
-1.7277600000000002
 30
0.0
 10
0.42432
 20
-1.6795000000000002
 30
0.0
 10
0.42432
 20
-1.6795000000000002
 30
0.0
 10
0.42432
 20
-1.6795000000000002
 30
0.0
 10
0.46496
 20
-1.6998200000000001
 30
0.0
 10
0.4167
 20
-1.7455400000000001
 30
0.0
 10
0.4090800000000001
 20
-1.7709400000000002
 30
0.0
 10
0.4090800000000001
 20
-1.7709400000000002
 30
0.0
 10
0.404
 20
-1.8065000000000002
 30
0.0
 10
0.38114
 20
-1.9436600000000002
 30
0.0
 10
0.4294000000000001
 20
-1.8522200000000002
 30
0.0
 10
0.4294000000000001
 20
-1.8522200000000002
 30
0.0
 10
0.4675
 20
-1.7607800000000002
 30
0.0
 10
0.4954400000000001
 20
-1.6668000000000001
 30
0.0
 10
0.5614800000000001
 20
-1.5779000000000001
 30
0.0
 10
0.5614800000000001
 20
-1.5779000000000001
 30
0.0
 10
0.5614800000000001
 20
-1.5779000000000001
 30
0.0
 10
0.7265800000000001
 20
-1.3823200000000002
 30
0.0
 10
0.7265800000000001
 20
-1.3823200000000002
 30
0.0
 10
0.7265800000000001
 20
-1.3823200000000002
 30
0.0
 10
0.8205600000000001
 20
-1.4077200000000001
 30
0.0
 10
0.83072
 20
-1.5067800000000002
 30
0.0
 10
0.8358000000000001
 20
-1.5753600000000001
 30
0.0
 10
0.8358000000000001
 20
-1.5753600000000001
 30
0.0
 10
0.64022
 20
-1.8141200000000002
 30
0.0
 10
0.41162
 20
-2.0452600000000003
 30
0.0
 10
0.25922
 20
-2.2941800000000003
 30
0.0
 10
0.25922
 20
-2.2941800000000003
 30
0.0
 10
0.25922
 20
-2.2941800000000003
 30
0.0
 10
0.2262
 20
-2.05796
 30
0.0
 10
0.2262
 20
-2.05796
 30
0.0
 10
0.2262
 20
-2.05796
 30
0.0
 10
0.2135
 20
-1.9639800000000001
 30
0.0
 10
0.2516000000000001
 20
-1.8776200000000001
 30
0.0
 10
0.2897
 20
-1.7938000000000001
 30
0.0
 10
0.2897
 20
-1.7938000000000001
 30
0.0
 10
0.3151000000000001
 20
-1.62616
 30
0.0
 10
0.40146
 20
-1.4864600000000001
 30
0.0
 10
0.5233800000000001
 20
-1.3416800000000002
 30
0.0
  0
SPLINE
  5
54
100
AcDbEntity
  8
Ebene 1
 62
     7
100
AcDbSpline
210
0.0
220
0.0
230
1.0
 70
     1
 71
     3
 72
    20
 73
    16
 74
     0
 42
0.0000000001
 43
0.0000000001
 40
0.0
 40
0.0
 40
0.0
 40
0.0
 40
0.25
 40
0.25
 40
0.25
 40
0.25
 40
0.5
 40
0.5
 40
0.5
 40
0.5
 40
0.75
 40
0.75
 40
0.75
 40
0.75
 40
1.0
 40
1.0
 40
1.0
 40
1.0
 10
2.76112
 20
-1.41788
 30
0.0
 10
2.9236800000000001
 20
-1.6007600000000002
 30
0.0
 10
2.9389200000000004
 20
-1.8801600000000001
 30
0.0
 10
2.9389200000000004
 20
-2.09606
 30
0.0
 10
2.9389200000000004
 20
-2.09606
 30
0.0
 10
2.8627200000000004
 20
-2.0376400000000001
 30
0.0
 10
2.8906600000000005
 20
-1.9157200000000001
 30
0.0
 10
2.7941400000000001
 20
-1.8623800000000001
 30
0.0
 10
2.7941400000000001
 20
-1.8623800000000001
 30
0.0
 10
2.76112
 20
-1.9436600000000002
 30
0.0
 10
2.8754200000000001
 20
-2.06812
 30
0.0
 10
2.8271600000000001
 20
-2.1519400000000002
 30
0.0
 10
2.8271600000000001
 20
-2.1519400000000002
 30
0.0
 10
2.6620600000000003
 20
-1.9284200000000002
 30
0.0
 10
2.7281000000000004
 20
-1.6642600000000001
 30
0.0
 10
2.76112
 20
-1.41788
 30
0.0
  0
SPLINE
  5
55
100
AcDbEntity
  8
Ebene 1
 62
     7
100
AcDbSpline
210
0.0
220
0.0
230
1.0
 70
     1
 71
     3
 72
    24
 73
    20
 74
     0
 42
0.0000000001
 43
0.0000000001
 40
0.0
 40
0.0
 40
0.0
 40
0.0
 40
0.2
 40
0.2
 40
0.2
 40
0.2
 40
0.4
 40
0.4
 40
0.4
 40
0.4
 40
0.6000000000000001
 40
0.6000000000000001
 40
0.6000000000000001
 40
0.6000000000000001
 40
0.8
 40
0.8
 40
0.8
 40
0.8
 40
1.0
 40
1.0
 40
1.0
 40
1.0
 10
3.3377000000000003
 20
-2.1773400000000001
 30
0.0
 10
3.3605600000000004
 20
-2.1773400000000001
 30
0.0
 10
3.3554800000000005
 20
-2.2027400000000004
 30
0.0
 10
3.3504000000000005
 20
-2.2129000000000003
 30
0.0
 10
3.3504000000000005
 20
-2.2129000000000003
 30
0.0
 10
3.1827600000000005
 20
-2.3221200000000004
 30
0.0
 10
3.1192600000000001
 20
-2.5939000000000001
 30
0.0
 10
2.8449400000000002
 20
-2.4643600000000001
 30
0.0
 10
2.8449400000000002
 20
-2.4643600000000001
 30
0.0
 10
2.8449400000000002
 20
-2.4643600000000001
 30
0.0
 10
2.9262200000000003
 20
-2.4389600000000002
 30
0.0
 10
2.9262200000000003
 20
-2.4389600000000002
 30
0.0
 10
2.9262200000000003
 20
-2.4389600000000002
 30
0.0
 10
3.0303600000000004
 20
-2.4618200000000003
 30
0.0
 10
3.1675200000000001
 20
-2.4034
 30
0.0
 10
3.1446600000000005
 20
-2.3246600000000002
 30
0.0
 10
3.1446600000000005
 20
-2.3246600000000002
 30
0.0
 10
3.1446600000000005
 20
-2.3246600000000002
 30
0.0
 10
3.3377000000000003
 20
-2.1773400000000001
 30
0.0
 10
3.3377000000000003
 20
-2.1773400000000001
 30
0.0
  0
SPLINE
  5
56
100
AcDbEntity
  8
Ebene 1
 62
     7
100
AcDbSpline
210
0.0
220
0.0
230
1.0
 70
     1
 71
     3
 72
    24
 73
    20
 74
     0
 42
0.0000000001
 43
0.0000000001
 40
0.0
 40
0.0
 40
0.0
 40
0.0
 40
0.2
 40
0.2
 40
0.2
 40
0.2
 40
0.4
 40
0.4
 40
0.4
 40
0.4
 40
0.6000000000000001
 40
0.6000000000000001
 40
0.6000000000000001
 40
0.6000000000000001
 40
0.8
 40
0.8
 40
0.8
 40
0.8
 40
1.0
 40
1.0
 40
1.0
 40
1.0
 10
-1.3663700000000001
 20
-2.1900400000000002
 30
0.0
 10
-1.3536700000000002
 20
-2.1900400000000002
 30
0.0
 10
-1.33081
 20
-2.1875
 30
0.0
 10
-1.33335
 20
-2.2027400000000004
 30
0.0
 10
-1.33335
 20
-2.2027400000000004
 30
0.0
 10
-1.4044700000000001
 20
-2.43642
 30
0.0
 10
-1.3587500000000001
 20
-2.7005800000000004
 30
0.0
 10
-1.33335
 20
-2.9342600000000001
 30
0.0
 10
-1.33335
 20
-2.9342600000000001
 30
0.0
 10
-1.33589
 20
-2.9495000000000005
 30
0.0
 10
-1.3511300000000002
 20
-2.9596600000000004
 30
0.0
 10
-1.3663700000000001
 20
-2.9622000000000002
 30
0.0
 10
-1.3663700000000001
 20
-2.9622000000000002
 30
0.0
 10
-1.3943100000000002
 20
-2.9596600000000004
 30
0.0
 10
-1.4273300000000002
 20
-2.9672800000000001
 30
0.0
 10
-1.4425700000000001
 20
-2.94442
 30
0.0
 10
-1.4425700000000001
 20
-2.94442
 30
0.0
 10
-1.5314700000000001
 20
-2.6802600000000001
 30
0.0
 10
-1.4908300000000001
 20
-2.43642
 30
0.0
 10
-1.3663700000000001
 20
-2.1900400000000002
 30
0.0
  0
SPLINE
  5
57
100
AcDbEntity
  8
Ebene 1
 62
     7
100
AcDbSpline
210
0.0
220
0.0
230
1.0
 70
     1
 71
     3
 72
    24
 73
    20
 74
     0
 42
0.0000000001
 43
0.0000000001
 40
0.0
 40
0.0
 40
0.0
 40
0.0
 40
0.2
 40
0.2
 40
0.2
 40
0.2
 40
0.4
 40
0.4
 40
0.4
 40
0.4
 40
0.6000000000000001
 40
0.6000000000000001
 40
0.6000000000000001
 40
0.6000000000000001
 40
0.8
 40
0.8
 40
0.8
 40
0.8
 40
1.0
 40
1.0
 40
1.0
 40
1.0
 10
2.2861400000000001
 20
-2.2027400000000004
 30
0.0
 10
2.3267800000000003
 20
-2.2510000000000003
 30
0.0
 10
2.3521800000000002
 20
-2.31196
 30
0.0
 10
2.4461600000000003
 20
-2.2662400000000003
 30
0.0
 10
2.4461600000000003
 20
-2.2662400000000003
 30
0.0
 10
2.5376000000000003
 20
-2.2459200000000004
 30
0.0
 10
2.6722200000000003
 20
-2.2891000000000004
 30
0.0
 10
2.6925400000000002
 20
-2.3703800000000004
 30
0.0
 10
2.6925400000000002
 20
-2.3703800000000004
 30
0.0
 10
2.5274400000000004
 20
-2.2967200000000001
 30
0.0
 10
2.2988400000000002
 20
-2.2713200000000002
 30
0.0
 10
2.1693000000000002
 20
-2.4262600000000001
 30
0.0
 10
2.1693000000000002
 20
-2.4262600000000001
 30
0.0
 10
2.1007200000000004
 20
-2.4110200000000002
 30
0.0
 10
2.04738
 20
-2.3399000000000001
 30
0.0
 10
2.0575400000000004
 20
-2.2840200000000004
 30
0.0
 10
2.0575400000000004
 20
-2.2840200000000004
 30
0.0
 10
2.1439000000000004
 20
-2.2764000000000002
 30
0.0
 10
2.2353400000000003
 20
-2.2662400000000003
 30
0.0
 10
2.2861400000000001
 20
-2.2027400000000004
 30
0.0
  0
SPLINE
  5
58
100
AcDbEntity
  8
Ebene 1
 62
     7
100
AcDbSpline
210
0.0
220
0.0
230
1.0
 70
     1
 71
     3
 72
    20
 73
    16
 74
     0
 42
0.0000000001
 43
0.0000000001
 40
0.0
 40
0.0
 40
0.0
 40
0.0
 40
0.25
 40
0.25
 40
0.25
 40
0.25
 40
0.5
 40
0.5
 40
0.5
 40
0.5
 40
0.75
 40
0.75
 40
0.75
 40
0.75
 40
1.0
 40
1.0
 40
1.0
 40
1.0
 10
3.3377000000000003
 20
-2.3475200000000003
 30
0.0
 10
3.3529400000000003
 20
-2.35006
 30
0.0
 10
3.3681800000000002
 20
-2.36022
 30
0.0
 10
3.3707200000000004
 20
-2.3729200000000001
 30
0.0
 10
3.3707200000000004
 20
-2.3729200000000001
 30
0.0
 10
3.3605600000000004
 20
-2.6777200000000003
 30
0.0
 10
3.4037400000000004
 20
-3.0079200000000004
 30
0.0
 10
3.2615000000000003
 20
-3.2720800000000003
 30
0.0
 10
3.2615000000000003
 20
-3.2720800000000003
 30
0.0
 10
3.2615000000000003
 20
-3.2720800000000003
 30
0.0
 10
3.1903800000000002
 20
-2.5177
 30
0.0
 10
3.1903800000000002
 20
-2.5177
 30
0.0
 10
3.1903800000000002
 20
-2.5177
 30
0.0
 10
3.2234000000000003
 20
-2.4491200000000002
 30
0.0
 10
3.2767400000000002
 20
-2.3957800000000002
 30
0.0
 10
3.3377000000000003
 20
-2.3475200000000003
 30
0.0
  0
SPLINE
  5
59
100
AcDbEntity
  8
Ebene 1
 62
     7
100
AcDbSpline
210
0.0
220
0.0
230
1.0
 70
     1
 71
     3
 72
    40
 73
    36
 74
     0
 42
0.0000000001
 43
0.0000000001
 40
0.0
 40
0.0
 40
0.0
 40
0.0
 40
0.1111111111111111
 40
0.1111111111111111
 40
0.1111111111111111
 40
0.1111111111111111
 40
0.2222222222222222
 40
0.2222222222222222
 40
0.2222222222222222
 40
0.2222222222222222
 40
0.3333333333333333
 40
0.3333333333333333
 40
0.3333333333333333
 40
0.3333333333333333
 40
0.4444444444444444
 40
0.4444444444444444
 40
0.4444444444444444
 40
0.4444444444444444
 40
0.5555555555555556
 40
0.5555555555555556
 40
0.5555555555555556
 40
0.5555555555555556
 40
0.6666666666666667
 40
0.6666666666666667
 40
0.6666666666666667
 40
0.6666666666666667
 40
0.7777777777777779
 40
0.7777777777777779
 40
0.7777777777777779
 40
0.7777777777777779
 40
0.8888888888888891
 40
0.8888888888888891
 40
0.8888888888888891
 40
0.8888888888888891
 40
1.0
 40
1.0
 40
1.0
 40
1.0
 10
2.3344
 20
-2.36022
 30
0.0
 10
2.3801200000000002
 20
-2.36022
 30
0.0
 10
2.4334600000000002
 20
-2.3526000000000002
 30
0.0
 10
2.46394
 20
-2.3881600000000001
 30
0.0
 10
2.46394
 20
-2.3881600000000001
 30
0.0
 10
2.4944200000000003
 20
-2.7285200000000001
 30
0.0
 10
2.4487000000000001
 20
-3.0790400000000004
 30
0.0
 10
2.38774
 20
-3.4143200000000005
 30
0.0
 10
2.38774
 20
-3.4143200000000005
 30
0.0
 10
2.38774
 20
-3.4143200000000005
 30
0.0
 10
2.4995000000000003
 20
-3.1831800000000001
 30
0.0
 10
2.4995000000000003
 20
-3.1831800000000001
 30
0.0
 10
2.4995000000000003
 20
-3.1831800000000001
 30
0.0
 10
2.5503
 20
-3.0663400000000003
 30
0.0
 10
2.5579200000000002
 20
-2.9418800000000003
 30
0.0
 10
2.5807800000000003
 20
-2.8174200000000003
 30
0.0
 10
2.5807800000000003
 20
-2.8174200000000003
 30
0.0
 10
2.6138000000000003
 20
-2.7005800000000004
 30
0.0
 10
2.6417400000000004
 20
-2.57104
 30
0.0
 10
2.6950800000000004
 20
-2.4643600000000001
 30
0.0
 10
2.6950800000000004
 20
-2.4643600000000001
 30
0.0
 10
2.7839800000000001
 20
-2.8504400000000003
 30
0.0
 10
2.5401400000000001
 20
-3.2390600000000003
 30
0.0
 10
2.3674200000000001
 20
-3.5895800000000002
 30
0.0
 10
2.3674200000000001
 20
-3.5895800000000002
 30
0.0
 10
2.3420200000000002
 20
-3.5133800000000002
 30
0.0
 10
2.3090000000000002
 20
-3.4194000000000004
 30
0.0
 10
2.3166200000000003
 20
-3.3279600000000005
 30
0.0
 10
2.3166200000000003
 20
-3.3279600000000005
 30
0.0
 10
2.3166200000000003
 20
-3.3279600000000005
 30
0.0
 10
2.2861400000000001
 20
-2.9342600000000001
 30
0.0
 10
2.2861400000000001
 20
-2.9342600000000001
 30
0.0
 10
2.2861400000000001
 20
-2.9342600000000001
 30
0.0
 10
2.3166200000000003
 20
-2.7412200000000002
 30
0.0
 10
2.0931000000000002
 20
-2.5050000000000003
 30
0.0
 10
2.3344
 20
-2.36022
 30
0.0
  0
SPLINE
  5
5A
100
AcDbEntity
  8
Ebene 1
 62
     7
100
AcDbSpline
210
0.0
220
0.0
230
1.0
 70
     1
 71
     3
 72
    16
 73
    12
 74
     0
 42
0.0000000001
 43
0.0000000001
 40
0.0
 40
0.0
 40
0.0
 40
0.0
 40
0.3333333333333333
 40
0.3333333333333333
 40
0.3333333333333333
 40
0.3333333333333333
 40
0.6666666666666666
 40
0.6666666666666666
 40
0.6666666666666666
 40
0.6666666666666666
 40
1.0
 40
1.0
 40
1.0
 40
1.0
 10
3.5028000000000001
 20
-2.5812000000000004
 30
0.0
 10
3.5028000000000001
 20
-2.5812000000000004
 30
0.0
 10
3.5307400000000002
 20
-2.5862800000000004
 30
0.0
 10
3.5307400000000002
 20
-2.5862800000000004
 30
0.0
 10
3.5307400000000002
 20
-2.5862800000000004
 30
0.0
 10
3.5383600000000004
 20
-2.6675600000000004
 30
0.0
 10
3.5459800000000001
 20
-2.7640800000000003
 30
0.0
 10
3.5028000000000001
 20
-2.8301200000000004
 30
0.0
 10
3.5028000000000001
 20
-2.8301200000000004
 30
0.0
 10
3.5028000000000001
 20
-2.8301200000000004
 30
0.0
 10
3.5028000000000001
 20
-2.5812000000000004
 30
0.0
 10
3.5028000000000001
 20
-2.5812000000000004
 30
0.0
  0
SPLINE
  5
5B
100
AcDbEntity
  8
Ebene 1
 62
     7
100
AcDbSpline
210
0.0
220
0.0
230
1.0
 70
     1
 71
     3
 72
    20
 73
    16
 74
     0
 42
0.0000000001
 43
0.0000000001
 40
0.0
 40
0.0
 40
0.0
 40
0.0
 40
0.25
 40
0.25
 40
0.25
 40
0.25
 40
0.5
 40
0.5
 40
0.5
 40
0.5
 40
0.75
 40
0.75
 40
0.75
 40
0.75
 40
1.0
 40
1.0
 40
1.0
 40
1.0
 10
-1.03617
 20
-2.7132800000000001
 30
0.0
 10
-1.1123700000000001
 20
-2.9596600000000004
 30
0.0
 10
-0.9777500000000001
 20
-3.19842
 30
0.0
 10
-0.9574300000000001
 20
-3.4422600000000001
 30
0.0
 10
-0.9574300000000001
 20
-3.4422600000000001
 30
0.0
 10
-0.9904500000000001
 20
-3.4829000000000003
 30
0.0
 10
-1.03363
 20
-3.5235400000000001
 30
0.0
 10
-1.08697
 20
-3.5362400000000003
 30
0.0
 10
-1.08697
 20
-3.5362400000000003
 30
0.0
 10
-1.1987300000000001
 20
-3.3178000000000001
 30
0.0
 10
-1.0641100000000001
 20
-3.0663400000000003
 30
0.0
 10
-1.11999
 20
-2.8301200000000004
 30
0.0
 10
-1.11999
 20
-2.8301200000000004
 30
0.0
 10
-1.11999
 20
-2.8301200000000004
 30
0.0
 10
-1.03617
 20
-2.7132800000000001
 30
0.0
 10
-1.03617
 20
-2.7132800000000001
 30
0.0
  0
SPLINE
  5
5C
100
AcDbEntity
  8
Ebene 1
 62
     7
100
AcDbSpline
210
0.0
220
0.0
230
1.0
 70
     1
 71
     3
 72
    24
 73
    20
 74
     0
 42
0.0000000001
 43
0.0000000001
 40
0.0
 40
0.0
 40
0.0
 40
0.0
 40
0.2
 40
0.2
 40
0.2
 40
0.2
 40
0.4
 40
0.4
 40
0.4
 40
0.4
 40
0.6000000000000001
 40
0.6000000000000001
 40
0.6000000000000001
 40
0.6000000000000001
 40
0.8
 40
0.8
 40
0.8
 40
0.8
 40
1.0
 40
1.0
 40
1.0
 40
1.0
 10
-0.6094500000000001
 20
-3.1958800000000003
 30
0.0
 10
-0.59675
 20
-3.1958800000000003
 30
0.0
 10
-0.57389
 20
-3.1933400000000001
 30
0.0
 10
-0.57643
 20
-3.2111200000000002
 30
0.0
 10
-0.57643
 20
-3.2111200000000002
 30
0.0
 10
-0.5637300000000001
 20
-3.4549600000000003
 30
0.0
 10
-0.68057
 20
-3.6683200000000005
 30
0.0
 10
-0.67803
 20
-3.8994600000000004
 30
0.0
 10
-0.67803
 20
-3.8994600000000004
 30
0.0
 10
-0.71613
 20
-3.9197800000000003
 30
0.0
 10
-0.7364500000000001
 20
-3.9655000000000005
 30
0.0
 10
-0.7897900000000001
 20
-3.9553400000000005
 30
0.0
 10
-0.7897900000000001
 20
-3.9553400000000005
 30
0.0
 10
-0.82281
 20
-3.9502600000000001
 30
0.0
 10
-0.82535
 20
-3.9197800000000003
 30
0.0
 10
-0.8405900000000001
 20
-3.9020000000000001
 30
0.0
 10
-0.8405900000000001
 20
-3.9020000000000001
 30
0.0
 10
-0.7110500000000001
 20
-3.6683200000000005
 30
0.0
 10
-0.7516900000000001
 20
-3.4143200000000005
 30
0.0
 10
-0.6094500000000001
 20
-3.1958800000000003
 30
0.0
  0
SPLINE
  5
5D
100
AcDbEntity
  8
Ebene 1
 62
     7
100
AcDbSpline
210
0.0
220
0.0
230
1.0
 70
     1
 71
     3
 72
    48
 73
    44
 74
     0
 42
0.0000000001
 43
0.0000000001
 40
0.0
 40
0.0
 40
0.0
 40
0.0
 40
0.0909090909090909
 40
0.0909090909090909
 40
0.0909090909090909
 40
0.0909090909090909
 40
0.1818181818181818
 40
0.1818181818181818
 40
0.1818181818181818
 40
0.1818181818181818
 40
0.2727272727272727
 40
0.2727272727272727
 40
0.2727272727272727
 40
0.2727272727272727
 40
0.3636363636363637
 40
0.3636363636363637
 40
0.3636363636363637
 40
0.3636363636363637
 40
0.4545454545454546
 40
0.4545454545454546
 40
0.4545454545454546
 40
0.4545454545454546
 40
0.5454545454545455
 40
0.5454545454545455
 40
0.5454545454545455
 40
0.5454545454545455
 40
0.6363636363636365
 40
0.6363636363636365
 40
0.6363636363636365
 40
0.6363636363636365
 40
0.7272727272727274
 40
0.7272727272727274
 40
0.7272727272727274
 40
0.7272727272727274
 40
0.8181818181818183
 40
0.8181818181818183
 40
0.8181818181818183
 40
0.8181818181818183
 40
0.9090909090909093
 40
0.9090909090909093
 40
0.9090909090909093
 40
0.9090909090909093
 40
1.0
 40
1.0
 40
1.0
 40
1.0
 10
-1.3841500000000002
 20
-3.8639000000000001
 30
0.0
 10
-1.3841500000000002
 20
-3.8639000000000001
 30
0.0
 10
-0.24623
 20
-5.3523400000000008
 30
0.0
 10
-0.24623
 20
-5.3523400000000008
 30
0.0
 10
-0.24623
 20
-5.3523400000000008
 30
0.0
 10
-0.20813
 20
-5.3117000000000001
 30
0.0
 10
-0.26655
 20
-5.2431200000000002
 30
0.0
 10
-0.27417
 20
-5.1923200000000005
 30
0.0
 10
-0.27417
 20
-5.1923200000000005
 30
0.0
 10
-0.36307
 20
-4.9789600000000007
 30
0.0
 10
-0.20813
 20
-5.1872400000000001
 30
0.0
 10
-0.18273
 20
-5.2888400000000004
 30
0.0
 10
-0.18273
 20
-5.2888400000000004
 30
0.0
 10
-0.18273
 20
-5.2888400000000004
 30
0.0
 10
-0.14463
 20
-5.3752000000000004
 30
0.0
 10
-0.14463
 20
-5.3752000000000004
 30
0.0
 10
-0.14463
 20
-5.3752000000000004
 30
0.0
 10
-0.02779
 20
-5.4793400000000005
 30
0.0
 10
-0.18781
 20
-5.2151800000000001
 30
0.0
 10
-0.10145
 20
-5.2126400000000004
 30
0.0
 10
-0.10145
 20
-5.2126400000000004
 30
0.0
 10
0.05856
 20
-5.5911000000000008
 30
0.0
 10
0.28716
 20
-5.9390800000000006
 30
0.0
 10
0.52846
 20
-6.2794400000000001
 30
0.0
 10
0.52846
 20
-6.2794400000000001
 30
0.0
 10
0.52846
 20
-6.2794400000000001
 30
0.0
 10
0.6529200000000001
 20
-6.2845200000000006
 30
0.0
 10
0.6529200000000001
 20
-6.2845200000000006
 30
0.0
 10
0.6529200000000001
 20
-6.2845200000000006
 30
0.0
 10
0.66054
 20
-6.4547000000000008
 30
0.0
 10
0.86882
 20
-6.4775600000000004
 30
0.0
 10
0.9805800000000001
 20
-6.5664600000000002
 30
0.0
 10
0.9805800000000001
 20
-6.5664600000000002
 30
0.0
 10
0.9094600000000001
 20
-6.6426600000000002
 30
0.0
 10
0.7951600000000001
 20
-6.6274200000000008
 30
0.0
 10
0.7088000000000001
 20
-6.5791600000000008
 30
0.0
 10
0.7088000000000001
 20
-6.5791600000000008
 30
0.0
 10
-0.10399
 20
-5.8781200000000009
 30
0.0
 10
-0.5002300000000001
 20
-4.9891200000000007
 30
0.0
 10
-1.1961900000000001
 20
-4.2398199999999999
 30
0.0
 10
-1.1961900000000001
 20
-4.2398199999999999
 30
0.0
 10
-1.1961900000000001
 20
-4.2398199999999999
 30
0.0
 10
-1.3841500000000002
 20
-3.8639000000000001
 30
0.0
 10
-1.3841500000000002
 20
-3.8639000000000001
 30
0.0
  0
SPLINE
  5
5E
100
AcDbEntity
  8
Ebene 1
 62
     7
100
AcDbSpline
210
0.0
220
0.0
230
1.0
 70
     1
 71
     3
 72
    16
 73
    12
 74
     0
 42
0.0000000001
 43
0.0000000001
 40
0.0
 40
0.0
 40
0.0
 40
0.0
 40
0.3333333333333333
 40
0.3333333333333333
 40
0.3333333333333333
 40
0.3333333333333333
 40
0.6666666666666666
 40
0.6666666666666666
 40
0.6666666666666666
 40
0.6666666666666666
 40
1.0
 40
1.0
 40
1.0
 40
1.0
 10
-1.0209300000000001
 20
-3.8893000000000004
 30
0.0
 10
-0.95235
 20
-3.9045400000000003
 30
0.0
 10
-0.93203
 20
-4.05694
 30
0.0
 10
-0.82281
 20
-4.0061400000000003
 30
0.0
 10
-0.82281
 20
-4.0061400000000003
 30
0.0
 10
-0.82281
 20
-4.0061400000000003
 30
0.0
 10
-0.8075700000000001
 20
-4.0213800000000006
 30
0.0
 10
-0.8075700000000001
 20
-4.0213800000000006
 30
0.0
 10
-0.8075700000000001
 20
-4.0213800000000006
 30
0.0
 10
-0.9193300000000001
 20
-4.1407600000000002
 30
0.0
 10
-1.0082300000000002
 20
-3.9705800000000004
 30
0.0
 10
-1.0209300000000001
 20
-3.8893000000000004
 30
0.0
  0
SPLINE
  5
5F
100
AcDbEntity
  8
Ebene 1
 62
     7
100
AcDbSpline
210
0.0
220
0.0
230
1.0
 70
     1
 71
     3
 72
    32
 73
    28
 74
     0
 42
0.0000000001
 43
0.0000000001
 40
0.0
 40
0.0
 40
0.0
 40
0.0
 40
0.1428571428571429
 40
0.1428571428571429
 40
0.1428571428571429
 40
0.1428571428571429
 40
0.2857142857142857
 40
0.2857142857142857
 40
0.2857142857142857
 40
0.2857142857142857
 40
0.4285714285714286
 40
0.4285714285714286
 40
0.4285714285714286
 40
0.4285714285714286
 40
0.5714285714285714
 40
0.5714285714285714
 40
0.5714285714285714
 40
0.5714285714285714
 40
0.7142857142857142
 40
0.7142857142857142
 40
0.7142857142857142
 40
0.7142857142857142
 40
0.857142857142857
 40
0.857142857142857
 40
0.857142857142857
 40
0.857142857142857
 40
1.0
 40
1.0
 40
1.0
 40
1.0
 10
0.02046
 20
-3.8918400000000002
 30
0.0
 10
0.18048
 20
-4.0315400000000006
 30
0.0
 10
0.00268
 20
-4.40238
 30
0.0
 10
0.1627
 20
-4.5903400000000003
 30
0.0
 10
0.1627
 20
-4.5903400000000003
 30
0.0
 10
0.1627
 20
-4.6386000000000003
 30
0.0
 10
0.22112
 20
-4.6944800000000004
 30
0.0
 10
0.17794
 20
-4.7275
 30
0.0
 10
0.17794
 20
-4.7275
 30
0.0
 10
0.11444
 20
-4.7275
 30
0.0
 10
0.05856
 20
-4.6944800000000004
 30
0.0
 10
0.01792
 20
-4.6563800000000004
 30
0.0
 10
0.01792
 20
-4.6563800000000004
 30
0.0
 10
0.01792
 20
-4.6563800000000004
 30
0.0
 10
0.00014
 20
-4.1382200000000005
 30
0.0
 10
0.00014
 20
-4.1382200000000005
 30
0.0
 10
0.00014
 20
-4.1382200000000005
 30
0.0
 10
-0.03795
 20
-4.1026600000000002
 30
0.0
 10
-0.05319
 20
-4.19156
 30
0.0
 10
-0.05065
 20
-4.2169600000000003
 30
0.0
 10
-0.05065
 20
-4.2169600000000003
 30
0.0
 10
-0.05065
 20
-4.2169600000000003
 30
0.0
 10
-0.06589
 20
-4.26776
 30
0.0
 10
-0.06589
 20
-4.26776
 30
0.0
 10
-0.06589
 20
-4.26776
 30
0.0
 10
-0.12685
 20
-4.1585400000000003
 30
0.0
 10
0.01284
 20
-4.0010600000000007
 30
0.0
 10
0.02046
 20
-3.8918400000000002
 30
0.0
  0
SPLINE
  5
60
100
AcDbEntity
  8
Ebene 1
 62
     7
100
AcDbSpline
210
0.0
220
0.0
230
1.0
 70
     1
 71
     3
 72
    28
 73
    24
 74
     0
 42
0.0000000001
 43
0.0000000001
 40
0.0
 40
0.0
 40
0.0
 40
0.0
 40
0.1666666666666667
 40
0.1666666666666667
 40
0.1666666666666667
 40
0.1666666666666667
 40
0.3333333333333333
 40
0.3333333333333333
 40
0.3333333333333333
 40
0.3333333333333333
 40
0.5
 40
0.5
 40
0.5
 40
0.5
 40
0.6666666666666666
 40
0.6666666666666666
 40
0.6666666666666666
 40
0.6666666666666666
 40
0.8333333333333333
 40
0.8333333333333333
 40
0.8333333333333333
 40
0.8333333333333333
 40
1.0
 40
1.0
 40
1.0
 40
1.0
 10
-0.59421
 20
-3.9934400000000005
 30
0.0
 10
-0.44435
 20
-4.1991800000000001
 30
0.0
 10
-0.30465
 20
-4.4201600000000001
 30
0.0
 10
-0.13193
 20
-4.6208200000000001
 30
0.0
 10
-0.13193
 20
-4.6208200000000001
 30
0.0
 10
-0.17003
 20
-4.6792400000000001
 30
0.0
 10
-0.21575
 20
-4.7452800000000002
 30
0.0
 10
-0.23099
 20
-4.8037000000000001
 30
0.0
 10
-0.23099
 20
-4.8037000000000001
 30
0.0
 10
-0.26909
 20
-4.7808400000000004
 30
0.0
 10
-0.29703
 20
-4.7579800000000008
 30
0.0
 10
-0.34021
 20
-4.7732200000000002
 30
0.0
 10
-0.34021
 20
-4.7732200000000002
 30
0.0
 10
-0.30465
 20
-4.64114
 30
0.0
 10
-0.50531
 20
-4.5700200000000004
 30
0.0
 10
-0.4494300000000001
 20
-4.4277800000000003
 30
0.0
 10
-0.4494300000000001
 20
-4.4277800000000003
 30
0.0
 10
-0.50531
 20
-4.4074600000000004
 30
0.0
 10
-0.5230900000000001
 20
-4.4684200000000001
 30
0.0
 10
-0.5383300000000001
 20
-4.4862000000000002
 30
0.0
 10
-0.5383300000000001
 20
-4.4862000000000002
 30
0.0
 10
-0.51039
 20
-4.2931600000000003
 30
0.0
 10
-0.8329700000000001
 20
-4.1610800000000001
 30
0.0
 10
-0.59421
 20
-3.9934400000000005
 30
0.0
  0
SPLINE
  5
61
100
AcDbEntity
  8
Ebene 1
 62
     7
100
AcDbSpline
210
0.0
220
0.0
230
1.0
 70
     1
 71
     3
 72
    24
 73
    20
 74
     0
 42
0.0000000001
 43
0.0000000001
 40
0.0
 40
0.0
 40
0.0
 40
0.0
 40
0.2
 40
0.2
 40
0.2
 40
0.2
 40
0.4
 40
0.4
 40
0.4
 40
0.4
 40
0.6000000000000001
 40
0.6000000000000001
 40
0.6000000000000001
 40
0.6000000000000001
 40
0.8
 40
0.8
 40
0.8
 40
0.8
 40
1.0
 40
1.0
 40
1.0
 40
1.0
 10
1.39714
 20
-4.5039800000000003
 30
0.0
 10
1.4174600000000002
 20
-4.4989000000000008
 30
0.0
 10
1.44032
 20
-4.5116000000000005
 30
0.0
 10
1.4454
 20
-4.5293800000000006
 30
0.0
 10
1.4454
 20
-4.5293800000000006
 30
0.0
 10
1.4352400000000001
 20
-4.82402
 30
0.0
 10
1.5368400000000002
 20
-5.1161200000000004
 30
0.0
 10
1.4733400000000001
 20
-5.4031400000000005
 30
0.0
 10
1.4733400000000001
 20
-5.4031400000000005
 30
0.0
 10
1.3692000000000002
 20
-5.4006000000000007
 30
0.0
 10
1.1406000000000001
 20
-5.3955200000000003
 30
0.0
 10
1.1609200000000002
 20
-5.2913800000000002
 30
0.0
 10
1.1609200000000002
 20
-5.2913800000000002
 30
0.0
 10
1.1380600000000001
 20
-5.2888400000000004
 30
0.0
 10
1.10504
 20
-5.2863000000000007
 30
0.0
 10
1.09996
 20
-5.2609000000000004
 30
0.0
 10
1.09996
 20
-5.2609000000000004
 30
0.0
 10
1.1279000000000001
 20
-4.9992800000000006
 30
0.0
 10
1.2574400000000001
 20
-4.7503600000000006
 30
0.0
 10
1.39714
 20
-4.5039800000000003
 30
0.0
  0
SPLINE
  5
62
100
AcDbEntity
  8
Ebene 1
 62
     7
100
AcDbSpline
210
0.0
220
0.0
230
1.0
 70
     1
 71
     3
 72
    16
 73
    12
 74
     0
 42
0.0000000001
 43
0.0000000001
 40
0.0
 40
0.0
 40
0.0
 40
0.0
 40
0.3333333333333333
 40
0.3333333333333333
 40
0.3333333333333333
 40
0.3333333333333333
 40
0.6666666666666666
 40
0.6666666666666666
 40
0.6666666666666666
 40
0.6666666666666666
 40
1.0
 40
1.0
 40
1.0
 40
1.0
 10
2.38266
 20
-4.6081200000000004
 30
0.0
 10
2.4842600000000004
 20
-4.8392600000000003
 30
0.0
 10
2.3572600000000001
 20
-5.1542200000000005
 30
0.0
 10
2.24804
 20
-5.3879000000000001
 30
0.0
 10
2.24804
 20
-5.3879000000000001
 30
0.0
 10
2.1591400000000003
 20
-5.4437800000000003
 30
0.0
 10
2.0651600000000001
 20
-5.3929800000000006
 30
0.0
 10
1.9762600000000001
 20
-5.3752000000000004
 30
0.0
 10
1.9762600000000001
 20
-5.3752000000000004
 30
0.0
 10
2.0880200000000002
 20
-5.1186600000000002
 30
0.0
 10
2.3064600000000004
 20
-4.8799000000000001
 30
0.0
 10
2.38266
 20
-4.6081200000000004
 30
0.0
  0
SPLINE
  5
63
100
AcDbEntity
  8
Ebene 1
 62
     7
100
AcDbSpline
210
0.0
220
0.0
230
1.0
 70
     1
 71
     3
 72
    92
 73
    88
 74
     0
 42
0.0000000001
 43
0.0000000001
 40
0.0
 40
0.0
 40
0.0
 40
0.0
 40
0.0454545454545455
 40
0.0454545454545455
 40
0.0454545454545455
 40
0.0454545454545455
 40
0.0909090909090909
 40
0.0909090909090909
 40
0.0909090909090909
 40
0.0909090909090909
 40
0.1363636363636364
 40
0.1363636363636364
 40
0.1363636363636364
 40
0.1363636363636364
 40
0.1818181818181818
 40
0.1818181818181818
 40
0.1818181818181818
 40
0.1818181818181818
 40
0.2272727272727273
 40
0.2272727272727273
 40
0.2272727272727273
 40
0.2272727272727273
 40
0.2727272727272728
 40
0.2727272727272728
 40
0.2727272727272728
 40
0.2727272727272728
 40
0.3181818181818182
 40
0.3181818181818182
 40
0.3181818181818182
 40
0.3181818181818182
 40
0.3636363636363637
 40
0.3636363636363637
 40
0.3636363636363637
 40
0.3636363636363637
 40
0.4090909090909092
 40
0.4090909090909092
 40
0.4090909090909092
 40
0.4090909090909092
 40
0.4545454545454546
 40
0.4545454545454546
 40
0.4545454545454546
 40
0.4545454545454546
 40
0.5000000000000001
 40
0.5000000000000001
 40
0.5000000000000001
 40
0.5000000000000001
 40
0.5454545454545455
 40
0.5454545454545455
 40
0.5454545454545455
 40
0.5454545454545455
 40
0.5909090909090909
 40
0.5909090909090909
 40
0.5909090909090909
 40
0.5909090909090909
 40
0.6363636363636364
 40
0.6363636363636364
 40
0.6363636363636364
 40
0.6363636363636364
 40
0.6818181818181818
 40
0.6818181818181818
 40
0.6818181818181818
 40
0.6818181818181818
 40
0.7272727272727272
 40
0.7272727272727272
 40
0.7272727272727272
 40
0.7272727272727272
 40
0.7727272727272726
 40
0.7727272727272726
 40
0.7727272727272726
 40
0.7727272727272726
 40
0.818181818181818
 40
0.818181818181818
 40
0.818181818181818
 40
0.818181818181818
 40
0.8636363636363634
 40
0.8636363636363634
 40
0.8636363636363634
 40
0.8636363636363634
 40
0.9090909090909088
 40
0.9090909090909088
 40
0.9090909090909088
 40
0.9090909090909088
 40
0.9545454545454543
 40
0.9545454545454543
 40
0.9545454545454543
 40
0.9545454545454543
 40
1.0
 40
1.0
 40
1.0
 40
1.0
 10
-0.11669
 20
-4.7275
 30
0.0
 10
0.15762
 20
-4.7503600000000006
 30
0.0
 10
0.1246
 20
-4.9561000000000002
 30
0.0
 10
0.3151000000000001
 20
-5.1008800000000001
 30
0.0
 10
0.3151000000000001
 20
-5.1008800000000001
 30
0.0
 10
0.5183000000000001
 20
-5.1542200000000005
 30
0.0
 10
0.7545200000000001
 20
-5.1872400000000001
 30
0.0
 10
0.9475600000000001
 20
-5.2913800000000002
 30
0.0
 10
0.9475600000000001
 20
-5.2913800000000002
 30
0.0
 10
0.9272400000000001
 20
-5.5707800000000001
 30
0.0
 10
1.2422000000000002
 20
-5.6698400000000007
 30
0.0
 10
1.5597000000000001
 20
-5.5758600000000005
 30
0.0
 10
1.5597000000000001
 20
-5.5758600000000005
 30
0.0
 10
1.40222
 20
-5.5047400000000009
 30
0.0
 10
1.1761600000000001
 20
-5.6393600000000008
 30
0.0
 10
1.09996
 20
-5.4590200000000006
 30
0.0
 10
1.09996
 20
-5.4590200000000006
 30
0.0
 10
1.0847200000000001
 20
-5.4412400000000005
 30
0.0
 10
1.06694
 20
-5.4031400000000005
 30
0.0
 10
1.09996
 20
-5.3929800000000006
 30
0.0
 10
1.09996
 20
-5.3929800000000006
 30
0.0
 10
1.3387200000000001
 20
-5.5428400000000009
 30
0.0
 10
1.6003400000000001
 20
-5.5174400000000006
 30
0.0
 10
1.8416400000000002
 20
-5.4183800000000009
 30
0.0
 10
1.8416400000000002
 20
-5.4183800000000009
 30
0.0
 10
2.0575400000000004
 20
-5.4768000000000008
 30
0.0
 10
2.3090000000000002
 20
-5.5199800000000003
 30
0.0
 10
2.46394
 20
-5.3548800000000005
 30
0.0
 10
2.46394
 20
-5.3548800000000005
 30
0.0
 10
2.4766400000000002
 20
-5.4260000000000002
 30
0.0
 10
2.4360000000000004
 20
-5.4717200000000004
 30
0.0
 10
2.4106000000000001
 20
-5.5199800000000003
 30
0.0
 10
2.4106000000000001
 20
-5.5199800000000003
 30
0.0
 10
2.3039200000000002
 20
-5.7104800000000004
 30
0.0
 10
2.16676
 20
-5.9543200000000001
 30
0.0
 10
2.3674200000000001
 20
-5.7993800000000002
 30
0.0
 10
2.3674200000000001
 20
-5.7993800000000002
 30
0.0
 10
2.3674200000000001
 20
-5.7993800000000002
 30
0.0
 10
2.3953600000000002
 20
-6.4750200000000007
 30
0.0
 10
2.3953600000000002
 20
-6.4750200000000007
 30
0.0
 10
2.3953600000000002
 20
-6.4750200000000007
 30
0.0
 10
2.3166200000000003
 20
-6.1676800000000007
 30
0.0
 10
1.8391000000000002
 20
-6.0889400000000009
 30
0.0
 10
1.7222600000000001
 20
-5.8527200000000006
 30
0.0
 10
1.7222600000000001
 20
-5.8527200000000006
 30
0.0
 10
1.7171800000000002
 20
-6.1422800000000004
 30
0.0
 10
1.11012
 20
-6.2997600000000009
 30
0.0
 10
1.1609200000000002
 20
-6.5258200000000004
 30
0.0
 10
1.1609200000000002
 20
-6.5258200000000004
 30
0.0
 10
1.1304400000000001
 20
-6.5410600000000008
 30
0.0
 10
1.10504
 20
-6.5690000000000008
 30
0.0
 10
1.06694
 20
-6.5690000000000008
 30
0.0
 10
1.06694
 20
-6.5690000000000008
 30
0.0
 10
0.9653400000000001
 20
-6.5309000000000008
 30
0.0
 10
1.1279000000000001
 20
-6.4775600000000004
 30
0.0
 10
1.0644
 20
-6.4293000000000005
 30
0.0
 10
1.0644
 20
-6.4293000000000005
 30
0.0
 10
1.02376
 20
-6.3708800000000005
 30
0.0
 10
0.9628000000000001
 20
-6.4445400000000008
 30
0.0
 10
0.9069200000000001
 20
-6.4216800000000003
 30
0.0
 10
0.9069200000000001
 20
-6.4216800000000003
 30
0.0
 10
0.8231000000000001
 20
-6.3048400000000004
 30
0.0
 10
0.6478400000000001
 20
-6.0203600000000002
 30
0.0
 10
0.57672
 20
-6.1473600000000008
 30
0.0
 10
0.57672
 20
-6.1473600000000008
 30
0.0
 10
0.47004
 20
-5.7943000000000007
 30
0.0
 10
0.13222
 20
-5.5301400000000003
 30
0.0
 10
-0.02779
 20
-5.1999400000000007
 30
0.0
 10
-0.02779
 20
-5.1999400000000007
 30
0.0
 10
0.2008
 20
-5.3320200000000009
 30
0.0
 10
0.4192400000000001
 20
-5.5149000000000008
 30
0.0
 10
0.6072000000000001
 20
-5.6800000000000006
 30
0.0
 10
0.6072000000000001
 20
-5.6800000000000006
 30
0.0
 10
0.7748400000000001
 20
-5.7231800000000002
 30
0.0
 10
0.95518
 20
-5.9441600000000001
 30
0.0
 10
1.01614
 20
-5.7181000000000006
 30
0.0
 10
1.01614
 20
-5.7181000000000006
 30
0.0
 10
1.01614
 20
-5.7181000000000006
 30
0.0
 10
1.0136000000000001
 20
-5.6038000000000006
 30
0.0
 10
1.0136000000000001
 20
-5.6038000000000006
 30
0.0
 10
1.0136000000000001
 20
-5.6038000000000006
 30
0.0
 10
0.59704
 20
-5.4539400000000002
 30
0.0
 10
0.05602
 20
-5.2659800000000008
 30
0.0
 10
-0.00493
 20
-4.7935400000000001
 30
0.0
 10
-0.00493
 20
-4.7935400000000001
 30
0.0
 10
-0.08875
 20
-4.7656000000000001
 30
0.0
 10
-0.16495
 20
-4.8341800000000008
 30
0.0
 10
-0.11669
 20
-4.7275
 30
0.0
  0
SPLINE
  5
64
100
AcDbEntity
  8
Ebene 1
 62
     7
100
AcDbSpline
210
0.0
220
0.0
230
1.0
 70
     1
 71
     3
 72
    12
 73
     8
 74
     0
 42
0.0000000001
 43
0.0000000001
 40
0.0
 40
0.0
 40
0.0
 40
0.0
 40
0.5
 40
0.5
 40
0.5
 40
0.5
 40
1.0
 40
1.0
 40
1.0
 40
1.0
 10
-0.67549
 20
-5.0932600000000008
 30
0.0
 10
-0.48499
 20
-5.2583600000000006
 30
0.0
 10
-0.33005
 20
-5.4996600000000004
 30
0.0
 10
-0.25131
 20
-5.7155600000000009
 30
0.0
 10
-0.25131
 20
-5.7155600000000009
 30
0.0
 10
-0.41133
 20
-5.5225200000000001
 30
0.0
 10
-0.6196100000000001
 20
-5.32186
 30
0.0
 10
-0.67549
 20
-5.0932600000000008
 30
0.0
  0
SPLINE
  5
65
100
AcDbEntity
  8
Ebene 1
100
AcDbSpline
210
0.0
220
0.0
230
1.0
 70
     1
 71
     3
 72
    12
 73
     8
 74
     0
 42
0.0000000001
 43
0.0000000001
 40
0.0
 40
0.0
 40
0.0
 40
0.0
 40
0.5
 40
0.5
 40
0.5
 40
0.5
 40
1.0
 40
1.0
 40
1.0
 40
1.0
 10
0.5233800000000001
 20
-5.1847000000000003
 30
0.0
 10
0.57672
 20
-5.1948600000000003
 30
0.0
 10
0.64276
 20
-5.24566
 30
0.0
 10
0.6529200000000001
 20
-5.28376
 30
0.0
 10
0.6529200000000001
 20
-5.28376
 30
0.0
 10
0.6021200000000001
 20
-5.2761400000000007
 30
0.0
 10
0.51576
 20
-5.2380400000000007
 30
0.0
 10
0.5233800000000001
 20
-5.1847000000000003
 30
0.0
  0
SPLINE
  5
66
100
AcDbEntity
  8
Ebene 1
100
AcDbSpline
210
0.0
220
0.0
230
1.0
 70
     1
 71
     3
 72
    36
 73
    32
 74
     0
 42
0.0000000001
 43
0.0000000001
 40
0.0
 40
0.0
 40
0.0
 40
0.0
 40
0.125
 40
0.125
 40
0.125
 40
0.125
 40
0.25
 40
0.25
 40
0.25
 40
0.25
 40
0.375
 40
0.375
 40
0.375
 40
0.375
 40
0.5
 40
0.5
 40
0.5
 40
0.5
 40
0.625
 40
0.625
 40
0.625
 40
0.625
 40
0.75
 40
0.75
 40
0.75
 40
0.75
 40
0.875
 40
0.875
 40
0.875
 40
0.875
 40
1.0
 40
1.0
 40
1.0
 40
1.0
 10
1.8416400000000002
 20
-5.5631600000000008
 30
0.0
 10
2.0600800000000001
 20
-5.6012600000000008
 30
0.0
 10
2.2251800000000004
 20
-5.7993800000000002
 30
0.0
 10
2.1489800000000003
 20
-5.9771800000000006
 30
0.0
 10
2.1489800000000003
 20
-5.9771800000000006
 30
0.0
 10
2.0753200000000001
 20
-5.9136800000000003
 30
0.0
 10
2.0575400000000004
 20
-5.82986
 30
0.0
 10
1.9432400000000001
 20
-5.8197000000000001
 30
0.0
 10
1.9432400000000001
 20
-5.8197000000000001
 30
0.0
 10
1.9280000000000002
 20
-5.7511200000000002
 30
0.0
 10
1.9153000000000002
 20
-5.6673000000000009
 30
0.0
 10
1.8086200000000001
 20
-5.6673000000000009
 30
0.0
 10
1.8086200000000001
 20
-5.6673000000000009
 30
0.0
 10
1.7705200000000001
 20
-5.6622200000000005
 30
0.0
 10
1.7552800000000002
 20
-5.6952400000000001
 30
0.0
 10
1.7298800000000001
 20
-5.7079400000000007
 30
0.0
 10
1.7298800000000001
 20
-5.7079400000000007
 30
0.0
 10
1.7298800000000001
 20
-5.8654200000000003
 30
0.0
 10
1.4555600000000002
 20
-5.8070000000000004
 30
0.0
 10
1.4276200000000001
 20
-5.9670200000000007
 30
0.0
 10
1.4276200000000001
 20
-5.9670200000000007
 30
0.0
 10
1.3336400000000002
 20
-5.8908200000000006
 30
0.0
 10
1.4555600000000002
 20
-5.7816000000000001
 30
0.0
 10
1.5089000000000001
 20
-5.7079400000000007
 30
0.0
 10
1.5089000000000001
 20
-5.7079400000000007
 30
0.0
 10
1.4123800000000002
 20
-5.7358800000000008
 30
0.0
 10
1.1736200000000001
 20
-5.8501800000000008
 30
0.0
 10
1.1533
 20
-5.7231800000000002
 30
0.0
 10
1.1533
 20
-5.7231800000000002
 30
0.0
 10
1.3869800000000001
 20
-5.6342800000000004
 30
0.0
 10
1.6714600000000002
 20
-5.7181000000000006
 30
0.0
 10
1.8416400000000002
 20
-5.5631600000000008
 30
0.0
  0
SPLINE
  5
67
100
AcDbEntity
  8
Ebene 1
100
AcDbSpline
210
0.0
220
0.0
230
1.0
 70
     1
 71
     3
 72
    12
 73
     8
 74
     0
 42
0.0000000001
 43
0.0000000001
 40
0.0
 40
0.0
 40
0.0
 40
0.0
 40
0.5
 40
0.5
 40
0.5
 40
0.5
 40
1.0
 40
1.0
 40
1.0
 40
1.0
 10
-0.01763
 20
-5.6139600000000005
 30
0.0
 10
0.07126
 20
-5.6876200000000008
 30
0.0
 10
0.09666
 20
-5.8349400000000005
 30
0.0
 10
0.14238
 20
-5.9365400000000008
 30
0.0
 10
0.14238
 20
-5.9365400000000008
 30
0.0
 10
0.03062
 20
-5.8781200000000009
 30
0.0
 10
-0.02779
 20
-5.7333400000000001
 30
0.0
 10
-0.01763
 20
-5.6139600000000005
 30
0.0
  0
SPLINE
  5
68
100
AcDbEntity
  8
Ebene 1
 62
     7
100
AcDbSpline
210
0.0
220
0.0
230
1.0
 70
     1
 71
     3
 72
    16
 73
    12
 74
     0
 42
0.0000000001
 43
0.0000000001
 40
0.0
 40
0.0
 40
0.0
 40
0.0
 40
0.3333333333333333
 40
0.3333333333333333
 40
0.3333333333333333
 40
0.3333333333333333
 40
0.6666666666666666
 40
0.6666666666666666
 40
0.6666666666666666
 40
0.6666666666666666
 40
1.0
 40
1.0
 40
1.0
 40
1.0
 10
-0.08113
 20
-5.8501800000000008
 30
0.0
 10
-0.08113
 20
-5.8501800000000008
 30
0.0
 10
0.63514
 20
-6.6045600000000002
 30
0.0
 10
0.63514
 20
-6.6045600000000002
 30
0.0
 10
0.63514
 20
-6.6045600000000002
 30
0.0
 10
0.63514
 20
-6.6045600000000002
 30
0.0
 10
0.5462400000000001
 20
-6.5791600000000008
 30
0.0
 10
0.5462400000000001
 20
-6.5791600000000008
 30
0.0
 10
0.5462400000000001
 20
-6.5791600000000008
 30
0.0
 10
0.34812
 20
-6.3556400000000002
 30
0.0
 10
0.06872
 20
-6.1270400000000009
 30
0.0
 10
-0.08113
 20
-5.8501800000000008
 30
0.0
  0
SPLINE
  5
69
100
AcDbEntity
  8
Ebene 1
 62
     7
100
AcDbSpline
210
0.0
220
0.0
230
1.0
 70
     1
 71
     3
 72
    20
 73
    16
 74
     0
 42
0.0000000001
 43
0.0000000001
 40
0.0
 40
0.0
 40
0.0
 40
0.0
 40
0.25
 40
0.25
 40
0.25
 40
0.25
 40
0.5
 40
0.5
 40
0.5
 40
0.5
 40
0.75
 40
0.75
 40
0.75
 40
0.75
 40
1.0
 40
1.0
 40
1.0
 40
1.0
 10
1.7578200000000002
 20
-6.2032400000000001
 30
0.0
 10
1.9483200000000001
 20
-6.3226200000000006
 30
0.0
 10
2.1896200000000001
 20
-6.3454800000000002
 30
0.0
 10
2.3140800000000001
 20
-6.5131200000000007
 30
0.0
 10
2.3140800000000001
 20
-6.5131200000000007
 30
0.0
 10
2.0550000000000002
 20
-6.4216800000000003
 30
0.0
 10
1.6917800000000001
 20
-6.4369200000000006
 30
0.0
 10
1.40222
 20
-6.500420000000001
 30
0.0
 10
1.40222
 20
-6.500420000000001
 30
0.0
 10
1.4200000000000002
 20
-6.4064400000000008
 30
0.0
 10
1.5622400000000001
 20
-6.2413400000000001
 30
0.0
 10
1.7552800000000002
 20
-6.2921400000000007
 30
0.0
 10
1.7552800000000002
 20
-6.2921400000000007
 30
0.0
 10
1.7959200000000002
 20
-6.2692800000000002
 30
0.0
 10
1.7603600000000001
 20
-6.2311800000000002
 30
0.0
 10
1.7578200000000002
 20
-6.2032400000000001
 30
0.0
  0
ENDSEC
  0
SECTION
  2
OBJECTS
  0
DICTIONARY
  5
19
100
AcDbDictionary
280
     0
281
     1
  3
ACAD_GROUP
350
1A
  3
ACAD_MLINESTYLE
350
1B
  3
ACAD_LAYOUT
350
1E
  3
ACAD_PLOTSETTINGS
350
22
  3
ACAD_PLOTSTYLENAME
350
1F
  3
ACAD_WIPEOUT_VARS
350
23
  0
DICTIONARY
  5
1A
102
{ACAD_REACTORS
330
19
102
}
100
AcDbDictionary
280
     0
281
     1
  0
DICTIONARY
  5
1B
102
{ACAD_REACTORS
330
19
102
}
100
AcDbDictionary
280
     0
281
     1
  3
Standard
350
1C
  0
MLINESTYLE
  5
1C
102
{ACAD_REACTORS
330
1B
102
}
100
AcDbMlineStyle
  2
Standard
 70
     0
  3

 62
     0
 51
90.0
 52
90.0
 71
     2
 49
0.5
 62
   256
  6
BYLAYER
 49
-0.5
 62
   256
  6
BYLAYER
  0
ACDBDICTIONARYWDFLT
  5
1F
102
{ACAD_REACTORS
330
19
102
}
100
AcDbDictionary
281
     1
  3
Normal
350
1D
100
AcDbDictionaryWithDefault
340
1D
  0
ACDBPLACEHOLDER
  5
1D
102
{ACAD_REACTORS
330
1F
102
}
  0
LAYOUT
  5
20
102
{ACAD_REACTORS
330
1E
102
}
100
AcDbPlotSettings
  1

  2

  4

  6

 40
0.0
 41
0.0
 42
0.0
 43
0.0
 44
0.0
 45
0.0
 46
0.0
 47
0.0
 48
0.0
 49
0.0
140
0.0
141
0.0
142
1.0
143
1.0
 70
  1024
 72
     0
 73
     0
 74
     0
  7

 75
     0
147
1.0
148
0.0
149
0.0
100
AcDbLayout
  1
Model
 70
     0
 71
     0
 10
0.0
 20
0.0
 11
0.0
 21
0.0
 12
0.0
 22
0.0
 32
0.0
 14
0.0
 24
0.0
 34
0.0
 15
0.0
 25
0.0
 35
0.0
146
0.0
 13
0.0
 23
0.0
 33
0.0
 16
0.0
 26
0.0
 36
0.0
 17
0.0
 27
0.0
 37
0.0
 76
     0
330
A
331
0
345
0
346
0
  0
LAYOUT
  5
21
102
{ACAD_REACTORS
330
1E
102
}
100
AcDbPlotSettings
  1

  2

  4

  6

 40
0.0
 41
0.0
 42
0.0
 43
0.0
 44
0.0
 45
0.0
 46
0.0
 47
0.0
 48
0.0
 49
0.0
140
0.0
141
0.0
142
1.0
143
1.0
 70
     0
 72
     0
 73
     0
 74
     0
  7

 75
     0
147
1.0
148
0.0
149
0.0
100
AcDbLayout
  1
Layout1
 70
     0
 71
     0
 10
0.0
 20
0.0
 11
0.0
 21
0.0
 12
0.0
 22
0.0
 32
0.0
 14
0.0
 24
0.0
 34
0.0
 15
0.0
 25
0.0
 35
0.0
146
0.0
 13
0.0
 23
0.0
 33
0.0
 16
0.0
 26
0.0
 36
0.0
 17
0.0
 27
0.0
 37
0.0
 76
     0
330
B
331
0
345
0
346
0
  0
DICTIONARY
  5
1E
102
{ACAD_REACTORS
330
19
102
}
100
AcDbDictionary
280
     0
281
     1
  3
Layout1
350
21
  3
Model
350
20
  0
DICTIONARY
  5
22
102
{ACAD_REACTORS
330
19
102
}
100
AcDbDictionary
280
     0
281
     1
  0
WIPEOUTVARIABLES
  5
23
100
AcDbWipeoutVariables
 70
     1
  0
ENDSEC
  0
EOF
