  0
SECTION
  2
HEADER
  9
$ACADVER
  1
AC1015
  9
$ACADMAINTVER
 70
     6
  9
$DWGCODEPAGE
  3
ANSI_1252
  9
$INSBASE
 10
0.0
 20
0.0
 30
0.0
  9
$EXTMIN
 10
-7.04264
 20
-8.77725
 30
0.0
  9
$EXTMAX
 10
6.12864
 20
17.87561
 30
0.0
  9
$LIMMIN
 10
0.0
 20
0.0
  9
$LIMMAX
 10
12.0
 20
9.0
  9
$ORTHOMODE
 70
     0
  9
$REGENMODE
 70
     1
  9
$FILLMODE
 70
     1
  9
$QTEXTMODE
 70
     0
  9
$MIRRTEXT
 70
     1
  9
$LTSCALE
 40
1.0
  9
$ATTMODE
 70
     1
  9
$TEXTSIZE
 40
0.2
  9
$TRACEWID
 40
0.05
  9
$TEXTSTYLE
  7
Standard
  9
$CLAYER
  8
0
  9
$CELTYPE
  6
ByLayer
  9
$CECOLOR
 62
   256
  9
$CELTSCALE
 40
1.0
  9
$DISPSILH
 70
     0
  9
$DIMSCALE
 40
1.0
  9
$DIMASZ
 40
0.18
  9
$DIMEXO
 40
0.0625
  9
$DIMDLI
 40
0.38
  9
$DIMRND
 40
0.0
  9
$DIMDLE
 40
0.0
  9
$DIMEXE
 40
0.18
  9
$DIMTP
 40
0.0
  9
$DIMTM
 40
0.0
  9
$DIMTXT
 40
0.18
  9
$DIMCEN
 40
0.09
  9
$DIMTSZ
 40
0.0
  9
$DIMTOL
 70
     0
  9
$DIMLIM
 70
     0
  9
$DIMTIH
 70
     1
  9
$DIMTOH
 70
     1
  9
$DIMSE1
 70
     0
  9
$DIMSE2
 70
     0
  9
$DIMTAD
 70
     0
  9
$DIMZIN
 70
     0
  9
$DIMBLK
  1

  9
$DIMASO
 70
     1
  9
$DIMSHO
 70
     1
  9
$DIMPOST
  1

  9
$DIMAPOST
  1

  9
$DIMALT
 70
     0
  9
$DIMALTD
 70
     2
  9
$DIMALTF
 40
25.4
  9
$DIMLFAC
 40
1.0
  9
$DIMTOFL
 70
     0
  9
$DIMTVP
 40
0.0
  9
$DIMTIX
 70
     0
  9
$DIMSOXD
 70
     0
  9
$DIMSAH
 70
     0
  9
$DIMBLK1
  1

  9
$DIMBLK2
  1

  9
$DIMSTYLE
  2
Standard
  9
$DIMCLRD
 70
     0
  9
$DIMCLRE
 70
     0
  9
$DIMCLRT
 70
     0
  9
$DIMTFAC
 40
1.0
  9
$DIMGAP
 40
0.09
  9
$DIMJUST
 70
     0
  9
$DIMSD1
 70
     0
  9
$DIMSD2
 70
     0
  9
$DIMTOLJ
 70
     1
  9
$DIMTZIN
 70
     0
  9
$DIMALTZ
 70
     0
  9
$DIMALTTZ
 70
     0
  9
$DIMUPT
 70
     0
  9
$DIMDEC
 70
     4
  9
$DIMTDEC
 70
     4
  9
$DIMALTU
 70
     2
  9
$DIMALTTD
 70
     2
  9
$DIMTXSTY
  7
Standard
  9
$DIMAUNIT
 70
     0
  9
$DIMADEC
 70
     0
  9
$DIMALTRND
 40
0.0
  9
$DIMAZIN
 70
     0
  9
$DIMDSEP
 70
    46
  9
$DIMATFIT
 70
     3
  9
$DIMFRAC
 70
     0
  9
$DIMLDRBLK
  1

  9
$DIMLUNIT
 70
     2
  9
$DIMLWD
 70
    -2
  9
$DIMLWE
 70
    -2
  9
$DIMTMOVE
 70
     0
  9
$LUNITS
 70
     2
  9
$LUPREC
 70
     4
  9
$SKETCHINC
 40
0.1
  9
$FILLETRAD
 40
0.5
  9
$AUNITS
 70
     0
  9
$AUPREC
 70
     0
  9
$MENU
  1
.
  9
$ELEVATION
 40
0.0
  9
$PELEVATION
 40
0.0
  9
$THICKNESS
 40
0.0
  9
$LIMCHECK
 70
     0
  9
$CHAMFERA
 40
0.5
  9
$CHAMFERB
 40
0.5
  9
$CHAMFERC
 40
1.0
  9
$CHAMFERD
 40
0.0
  9
$SKPOLY
 70
     0
  9
$TDCREATE
 40
2458031.544512234
  9
$TDUCREATE
 40
2458031.315345567
  9
$TDUPDATE
 40
2458031.544512419
  9
$TDUUPDATE
 40
2458031.315345753
  9
$TDINDWG
 40
0.0000000116
  9
$TDUSRTIMER
 40
0.0000000116
  9
$USRTIMER
 70
     1
  9
$ANGBASE
 50
0.0
  9
$ANGDIR
 70
     0
  9
$PDMODE
 70
     0
  9
$PDSIZE
 40
0.0
  9
$PLINEWID
 40
0.0
  9
$SPLFRAME
 70
     0
  9
$SPLINETYPE
 70
     6
  9
$SPLINESEGS
 70
     8
  9
$HANDSEED
  5
DE
  9
$SURFTAB1
 70
     6
  9
$SURFTAB2
 70
     6
  9
$SURFTYPE
 70
     6
  9
$SURFU
 70
     6
  9
$SURFV
 70
     6
  9
$UCSBASE
  2

  9
$UCSNAME
  2

  9
$UCSORG
 10
0.0
 20
0.0
 30
0.0
  9
$UCSXDIR
 10
1.0
 20
0.0
 30
0.0
  9
$UCSYDIR
 10
0.0
 20
1.0
 30
0.0
  9
$UCSORTHOREF
  2

  9
$UCSORTHOVIEW
 70
     0
  9
$UCSORGTOP
 10
0.0
 20
0.0
 30
0.0
  9
$UCSORGBOTTOM
 10
0.0
 20
0.0
 30
0.0
  9
$UCSORGLEFT
 10
0.0
 20
0.0
 30
0.0
  9
$UCSORGRIGHT
 10
0.0
 20
0.0
 30
0.0
  9
$UCSORGFRONT
 10
0.0
 20
0.0
 30
0.0
  9
$UCSORGBACK
 10
0.0
 20
0.0
 30
0.0
  9
$PUCSBASE
  2

  9
$PUCSNAME
  2

  9
$PUCSORG
 10
0.0
 20
0.0
 30
0.0
  9
$PUCSXDIR
 10
1.0
 20
0.0
 30
0.0
  9
$PUCSYDIR
 10
0.0
 20
1.0
 30
0.0
  9
$PUCSORTHOREF
  2

  9
$PUCSORTHOVIEW
 70
     0
  9
$PUCSORGTOP
 10
0.0
 20
0.0
 30
0.0
  9
$PUCSORGBOTTOM
 10
0.0
 20
0.0
 30
0.0
  9
$PUCSORGLEFT
 10
0.0
 20
0.0
 30
0.0
  9
$PUCSORGRIGHT
 10
0.0
 20
0.0
 30
0.0
  9
$PUCSORGFRONT
 10
0.0
 20
0.0
 30
0.0
  9
$PUCSORGBACK
 10
0.0
 20
0.0
 30
0.0
  9
$USERI1
 70
     0
  9
$USERI2
 70
     0
  9
$USERI3
 70
     0
  9
$USERI4
 70
     0
  9
$USERI5
 70
     0
  9
$USERR1
 40
0.0
  9
$USERR2
 40
0.0
  9
$USERR3
 40
0.0
  9
$USERR4
 40
0.0
  9
$USERR5
 40
0.0
  9
$WORLDVIEW
 70
     1
  9
$SHADEDGE
 70
     3
  9
$SHADEDIF
 70
    70
  9
$TILEMODE
 70
     1
  9
$MAXACTVP
 70
    64
  9
$PINSBASE
 10
0.0
 20
0.0
 30
0.0
  9
$PLIMCHECK
 70
     0
  9
$PEXTMIN
 10
1.000000000000000E+20
 20
1.000000000000000E+20
 30
1.000000000000000E+20
  9
$PEXTMAX
 10
-1.000000000000000E+20
 20
-1.000000000000000E+20
 30
-1.000000000000000E+20
  9
$PLIMMIN
 10
0.0
 20
0.0
  9
$PLIMMAX
 10
12.0
 20
9.0
  9
$UNITMODE
 70
     0
  9
$VISRETAIN
 70
     1
  9
$PLINEGEN
 70
     0
  9
$PSLTSCALE
 70
     1
  9
$TREEDEPTH
 70
  3020
  9
$CMLSTYLE
  2
Standard
  9
$CMLJUST
 70
     0
  9
$CMLSCALE
 40
1.0
  9
$PROXYGRAPHICS
 70
     1
  9
$MEASUREMENT
 70
     0
  9
$CELWEIGHT
370
    -1
  9
$ENDCAPS
280
     0
  9
$JOINSTYLE
280
     0
  9
$LWDISPLAY
290
     0
  9
$INSUNITS
 70
     5
  9
$HYPERLINKBASE
  1

  9
$STYLESHEET
  1

  9
$XEDIT
290
     1
  9
$CEPSNTYPE
380
     0
  9
$PSTYLEMODE
290
     1
  9
$FINGERPRINTGUID
  2
{C62890D8-9A48-4A14-A524-C32C3AA294FC}
  9
$VERSIONGUID
  2
{FAEB1C32-E019-11D5-929B-00C0DF256EC4}
  9
$EXTNAMES
290
     1
  9
$PSVPSCALE
 40
0.0
  9
$OLESTARTUP
290
     0
  0
ENDSEC
  0
SECTION
  2
CLASSES
  0
CLASS
  1
ACDBDICTIONARYWDFLT
  2
AcDbDictionaryWithDefault
  3
ObjectDBX Classes
 90
        0
280
     0
281
     0
  0
CLASS
  1
VISUALSTYLE
  2
AcDbVisualStyle
  3
ObjectDBX Classes
 90
     4095
280
     0
281
     0
  0
CLASS
  1
MATERIAL
  2
AcDbMaterial
  3
ObjectDBX Classes
 90
     1153
280
     0
281
     0
  0
CLASS
  1
DICTIONARYVAR
  2
AcDbDictionaryVar
  3
ObjectDBX Classes
 90
        0
280
     0
281
     0
  0
CLASS
  1
ACDBPLACEHOLDER
  2
AcDbPlaceHolder
  3
ObjectDBX Classes
 90
        0
280
     0
281
     0
  0
CLASS
  1
LAYOUT
  2
AcDbLayout
  3
ObjectDBX Classes
 90
        0
280
     0
281
     0
  0
ENDSEC
  0
SECTION
  2
TABLES
  0
TABLE
  2
VPORT
  5
8
330
0
100
AcDbSymbolTable
 70
     1
  0
VPORT
  5
29
330
8
100
AcDbSymbolTableRecord
100
AcDbViewportTableRecord
  2
*Active
 70
     0
 10
0.0
 20
0.0
 11
1.0
 21
1.0
 12
10.42990654205607
 22
4.5
 13
0.0
 23
0.0
 14
0.5
 24
0.5
 15
0.5
 25
0.5
 16
0.0
 26
0.0
 36
1.0
 17
0.0
 27
0.0
 37
0.0
 40
9.0
 41
1.972972972850329
 42
50.0
 43
0.0
 44
0.0
 50
0.0
 51
0.0
 71
     0
 72
   100
 73
     1
 74
     3
 75
     0
 76
     0
 77
     0
 78
     0
281
     0
 65
     1
110
0.0
120
0.0
130
0.0
111
1.0
121
0.0
131
0.0
112
0.0
122
1.0
132
0.0
 79
     0
146
0.0
  0
ENDTAB
  0
TABLE
  2
LTYPE
  5
5
330
0
100
AcDbSymbolTable
 70
     1
  0
LTYPE
  5
14
330
5
100
AcDbSymbolTableRecord
100
AcDbLinetypeTableRecord
  2
ByBlock
 70
     0
  3

 72
    65
 73
     0
 40
0.0
  0
LTYPE
  5
15
330
5
100
AcDbSymbolTableRecord
100
AcDbLinetypeTableRecord
  2
ByLayer
 70
     0
  3

 72
    65
 73
     0
 40
0.0
  0
LTYPE
  5
16
330
5
100
AcDbSymbolTableRecord
100
AcDbLinetypeTableRecord
  2
Continuous
 70
     0
  3
Solid line
 72
    65
 73
     0
 40
0.0
  0
ENDTAB
  0
TABLE
  2
LAYER
  5
2
330
0
100
AcDbSymbolTable
 70
     2
  0
LAYER
  5
10
330
2
100
AcDbSymbolTableRecord
100
AcDbLayerTableRecord
  2
0
 70
     0
 62
     7
  6
Continuous
370
    -3
390
F
  0
LAYER
  5
40
330
2
100
AcDbSymbolTableRecord
100
AcDbLayerTableRecord
  2
Layer 1
 70
     0
 62
     7
  6
Continuous
370
    -3
390
F
  0
ENDTAB
  0
TABLE
  2
STYLE
  5
3
330
0
100
AcDbSymbolTable
 70
     1
  0
STYLE
  5
11
330
3
100
AcDbSymbolTableRecord
100
AcDbTextStyleTableRecord
  2
Standard
 70
     0
 40
0.0
 41
1.0
 50
0.0
 71
     0
 42
0.2
  3
txt
  4

  0
ENDTAB
  0
TABLE
  2
VIEW
  5
6
330
0
100
AcDbSymbolTable
 70
     0
  0
ENDTAB
  0
TABLE
  2
UCS
  5
7
330
0
100
AcDbSymbolTable
 70
     0
  0
ENDTAB
  0
TABLE
  2
APPID
  5
9
330
0
100
AcDbSymbolTable
 70
     2
  0
APPID
  5
12
330
9
100
AcDbSymbolTableRecord
100
AcDbRegAppTableRecord
  2
ACAD
 70
     0
  0
APPID
  5
3F
330
9
100
AcDbSymbolTableRecord
100
AcDbRegAppTableRecord
  2
ODA
 70
     0
  0
ENDTAB
  0
TABLE
  2
DIMSTYLE
  5
A
330
0
100
AcDbSymbolTable
 70
     1
100
AcDbDimStyleTable
  0
DIMSTYLE
105
27
330
A
100
AcDbSymbolTableRecord
100
AcDbDimStyleTableRecord
  2
Standard
 70
     0
178
     0
340
11
  0
ENDTAB
  0
TABLE
  2
BLOCK_RECORD
  5
1
330
0
100
AcDbSymbolTable
 70
     1
  0
BLOCK_RECORD
  5
1F
330
1
100
AcDbSymbolTableRecord
100
AcDbBlockTableRecord
  2
*Model_Space
340
22
  0
BLOCK_RECORD
  5
1B
330
1
100
AcDbSymbolTableRecord
100
AcDbBlockTableRecord
  2
*Paper_Space
340
1E
  0
BLOCK_RECORD
  5
23
330
1
100
AcDbSymbolTableRecord
100
AcDbBlockTableRecord
  2
*Paper_Space0
340
26
  0
ENDTAB
  0
ENDSEC
  0
SECTION
  2
BLOCKS
  0
BLOCK
  5
20
330
1F
100
AcDbEntity
  8
0
100
AcDbBlockBegin
  2
*Model_Space
 70
     0
 10
0.0
 20
0.0
 30
0.0
  3
*Model_Space
  1

  0
ENDBLK
  5
21
330
1F
100
AcDbEntity
  8
0
100
AcDbBlockEnd
  0
BLOCK
  5
1C
330
1B
100
AcDbEntity
 67
     1
  8
0
100
AcDbBlockBegin
  2
*Paper_Space
 70
     0
 10
0.0
 20
0.0
 30
0.0
  3
*Paper_Space
  1

  0
ENDBLK
  5
1D
330
1B
100
AcDbEntity
 67
     1
  8
0
100
AcDbBlockEnd
  0
BLOCK
  5
24
330
23
100
AcDbEntity
  8
0
100
AcDbBlockBegin
  2
*Paper_Space0
 70
     0
 10
0.0
 20
0.0
 30
0.0
  3
*Paper_Space0
  1

  0
ENDBLK
  5
25
330
23
100
AcDbEntity
  8
0
100
AcDbBlockEnd
  0
ENDSEC
  0
SECTION
  2
ENTITIES
  0
SPLINE
  5
41
330
1F
100
AcDbEntity
  8
Layer 1
 62
   177
100
AcDbSpline
210
0.0
220
0.0
230
1.0
 70
    11
 71
     3
 72
    24
 73
    20
 74
     0
 42
0.0000000001
 43
0.0000000001
 12
1.0
 22
0.0
 32
0.0
 13
1.0
 23
0.0
 33
0.0
 40
0.0
 40
0.0
 40
0.0
 40
0.0
 40
0.1666666666666667
 40
0.1666666666666667
 40
0.1666666666666667
 40
0.1666666666666667
 40
0.3333333333333333
 40
0.3333333333333333
 40
0.3333333333333333
 40
0.3333333333333333
 40
0.5
 40
0.5
 40
0.5
 40
0.5
 40
0.6666666666666666
 40
0.6666666666666666
 40
0.6666666666666666
 40
0.6666666666666666
 40
1.0
 40
1.0
 40
1.0
 40
1.0
 10
-7.03883
 20
17.87179
 30
0.0
 10
-7.03883
 20
17.87179
 30
0.0
 10
6.12483
 20
17.8718
 30
0.0
 10
6.12483
 20
17.8718
 30
0.0
 10
6.12483
 20
17.8718
 30
0.0
 10
6.12483
 20
17.8718
 30
0.0
 10
6.12483
 20
4.70813
 30
0.0
 10
6.12483
 20
4.70813
 30
0.0
 10
6.12483
 20
4.70813
 30
0.0
 10
6.12483
 20
4.70813
 30
0.0
 10
-7.03883
 20
4.70813
 30
0.0
 10
-7.03883
 20
4.70813
 30
0.0
 10
-7.03883
 20
4.70813
 30
0.0
 10
-7.03883
 20
4.70813
 30
0.0
 10
-7.03883
 20
17.8718
 30
0.0
 10
-7.03883
 20
17.8718
 30
0.0
 10
-7.03883
 20
17.8718
 30
0.0
 10
-7.03883
 20
17.8718
 30
0.0
 10
-7.03883
 20
17.87179
 30
0.0
 10
-7.03883
 20
17.87179
 30
0.0
  0
SPLINE
  5
42
330
1F
100
AcDbEntity
  8
Layer 1
 62
   177
100
AcDbSpline
210
0.0
220
0.0
230
1.0
 70
    11
 71
     3
 72
    20
 73
    16
 74
     0
 42
0.0000000001
 43
0.0000000001
 12
1.0
 22
0.0
 32
0.0
 13
1.0
 23
0.0
 33
0.0
 40
0.0
 40
0.0
 40
0.0
 40
0.0
 40
0.2
 40
0.2
 40
0.2
 40
0.2
 40
0.4
 40
0.4
 40
0.4
 40
0.4
 40
0.6
 40
0.6
 40
0.6
 40
0.6
 40
1.0
 40
1.0
 40
1.0
 40
1.0
 10
-5.08012
 20
14.6001
 30
0.0
 10
-5.08012
 20
14.6001
 30
0.0
 10
-5.08012
 20
12.97323
 30
0.0
 10
-5.08012
 20
12.97323
 30
0.0
 10
-5.08012
 20
12.97323
 30
0.0
 10
-5.08012
 20
12.97323
 30
0.0
 10
-6.57824
 20
12.97323
 30
0.0
 10
-6.57824
 20
12.97323
 30
0.0
 10
-6.57824
 20
12.97323
 30
0.0
 10
-6.57824
 20
12.97323
 30
0.0
 10
-6.57824
 20
14.6001
 30
0.0
 10
-6.57824
 20
14.6001
 30
0.0
 10
-6.57824
 20
14.6001
 30
0.0
 10
-6.57824
 20
14.6001
 30
0.0
 10
-5.08012
 20
14.6001
 30
0.0
 10
-5.08012
 20
14.6001
 30
0.0
  0
SPLINE
  5
43
330
1F
100
AcDbEntity
  8
Layer 1
 62
   177
100
AcDbSpline
210
0.0
220
0.0
230
1.0
 70
    11
 71
     3
 72
    44
 73
    40
 74
     0
 42
0.0000000001
 43
0.0000000001
 12
1.0
 22
0.0
 32
0.0
 13
1.0
 23
0.0
 33
0.0
 40
0.0
 40
0.0
 40
0.0
 40
0.0
 40
0.0909090909090909
 40
0.0909090909090909
 40
0.0909090909090909
 40
0.0909090909090909
 40
0.1818181818181818
 40
0.1818181818181818
 40
0.1818181818181818
 40
0.1818181818181818
 40
0.2727272727272727
 40
0.2727272727272727
 40
0.2727272727272727
 40
0.2727272727272727
 40
0.3636363636363636
 40
0.3636363636363636
 40
0.3636363636363636
 40
0.3636363636363636
 40
0.4545454545454545
 40
0.4545454545454545
 40
0.4545454545454545
 40
0.4545454545454545
 40
0.5454545454545454
 40
0.5454545454545454
 40
0.5454545454545454
 40
0.5454545454545454
 40
0.6363636363636364
 40
0.6363636363636364
 40
0.6363636363636364
 40
0.6363636363636364
 40
0.7272727272727273
 40
0.7272727272727273
 40
0.7272727272727273
 40
0.7272727272727273
 40
0.8181818181818182
 40
0.8181818181818182
 40
0.8181818181818182
 40
0.8181818181818182
 40
1.0
 40
1.0
 40
1.0
 40
1.0
 10
-6.47057
 20
12.07784
 30
0.0
 10
-6.47057
 20
12.07784
 30
0.0
 10
-6.47057
 20
12.75777
 30
0.0
 10
-6.47057
 20
12.75777
 30
0.0
 10
-6.47057
 20
12.75777
 30
0.0
 10
-6.47057
 20
12.75777
 30
0.0
 10
-5.18784
 20
12.75777
 30
0.0
 10
-5.18784
 20
12.75777
 30
0.0
 10
-5.18784
 20
12.75777
 30
0.0
 10
-5.18784
 20
12.75777
 30
0.0
 10
-5.18784
 20
11.39771
 30
0.0
 10
-5.18784
 20
11.39771
 30
0.0
 10
-5.18784
 20
11.39771
 30
0.0
 10
-5.18784
 20
11.39771
 30
0.0
 10
-6.47057
 20
11.39771
 30
0.0
 10
-6.47057
 20
11.39771
 30
0.0
 10
-6.47057
 20
11.39771
 30
0.0
 10
-6.47057
 20
11.39771
 30
0.0
 10
-6.47057
 20
11.8623
 30
0.0
 10
-6.47057
 20
11.8623
 30
0.0
 10
-6.47057
 20
11.8623
 30
0.0
 10
-6.47057
 20
11.8623
 30
0.0
 10
-5.71172
 20
11.8623
 30
0.0
 10
-5.71172
 20
11.8623
 30
0.0
 10
-5.71172
 20
11.8623
 30
0.0
 10
-5.71172
 20
11.8623
 30
0.0
 10
-5.71172
 20
12.41778
 30
0.0
 10
-5.71172
 20
12.41778
 30
0.0
 10
-5.71172
 20
12.41778
 30
0.0
 10
-5.71172
 20
12.41778
 30
0.0
 10
-5.92722
 20
12.41778
 30
0.0
 10
-5.92722
 20
12.41778
 30
0.0
 10
-5.92722
 20
12.41778
 30
0.0
 10
-5.92722
 20
12.41778
 30
0.0
 10
-5.92722
 20
12.07784
 30
0.0
 10
-5.92722
 20
12.07784
 30
0.0
 10
-5.92722
 20
12.07784
 30
0.0
 10
-5.92722
 20
12.07784
 30
0.0
 10
-6.47057
 20
12.07784
 30
0.0
 10
-6.47057
 20
12.07784
 30
0.0
  0
SPLINE
  5
44
330
1F
100
AcDbEntity
  8
Layer 1
 62
   177
100
AcDbSpline
210
0.0
220
0.0
230
1.0
 70
    11
 71
     3
 72
    44
 73
    40
 74
     0
 42
0.0000000001
 43
0.0000000001
 12
1.0
 22
0.0
 32
0.0
 13
1.0
 23
0.0
 33
0.0
 40
0.0
 40
0.0
 40
0.0
 40
0.0
 40
0.0909090909090909
 40
0.0909090909090909
 40
0.0909090909090909
 40
0.0909090909090909
 40
0.1818181818181818
 40
0.1818181818181818
 40
0.1818181818181818
 40
0.1818181818181818
 40
0.2727272727272727
 40
0.2727272727272727
 40
0.2727272727272727
 40
0.2727272727272727
 40
0.3636363636363636
 40
0.3636363636363636
 40
0.3636363636363636
 40
0.3636363636363636
 40
0.4545454545454545
 40
0.4545454545454545
 40
0.4545454545454545
 40
0.4545454545454545
 40
0.5454545454545454
 40
0.5454545454545454
 40
0.5454545454545454
 40
0.5454545454545454
 40
0.6363636363636364
 40
0.6363636363636364
 40
0.6363636363636364
 40
0.6363636363636364
 40
0.7272727272727273
 40
0.7272727272727273
 40
0.7272727272727273
 40
0.7272727272727273
 40
0.8181818181818182
 40
0.8181818181818182
 40
0.8181818181818182
 40
0.8181818181818182
 40
1.0
 40
1.0
 40
1.0
 40
1.0
 10
-5.18784
 20
10.5021
 30
0.0
 10
-5.18784
 20
10.5021
 30
0.0
 10
-5.18784
 20
9.82217
 30
0.0
 10
-5.18784
 20
9.82217
 30
0.0
 10
-5.18784
 20
9.82217
 30
0.0
 10
-5.18784
 20
9.82217
 30
0.0
 10
-6.47056
 20
9.82217
 30
0.0
 10
-6.47056
 20
9.82217
 30
0.0
 10
-6.47056
 20
9.82217
 30
0.0
 10
-6.47056
 20
9.82217
 30
0.0
 10
-6.47057
 20
11.18223
 30
0.0
 10
-6.47057
 20
11.18223
 30
0.0
 10
-6.47057
 20
11.18223
 30
0.0
 10
-6.47057
 20
11.18223
 30
0.0
 10
-5.18784
 20
11.18223
 30
0.0
 10
-5.18784
 20
11.18223
 30
0.0
 10
-5.18784
 20
11.18223
 30
0.0
 10
-5.18784
 20
11.18223
 30
0.0
 10
-5.18784
 20
10.71764
 30
0.0
 10
-5.18784
 20
10.71764
 30
0.0
 10
-5.18784
 20
10.71764
 30
0.0
 10
-5.18784
 20
10.71764
 30
0.0
 10
-5.92722
 20
10.71764
 30
0.0
 10
-5.92722
 20
10.71764
 30
0.0
 10
-5.92722
 20
10.71764
 30
0.0
 10
-5.92722
 20
10.71764
 30
0.0
 10
-5.92722
 20
10.16216
 30
0.0
 10
-5.92722
 20
10.16216
 30
0.0
 10
-5.92722
 20
10.16216
 30
0.0
 10
-5.92722
 20
10.16216
 30
0.0
 10
-5.71172
 20
10.16216
 30
0.0
 10
-5.71172
 20
10.16216
 30
0.0
 10
-5.71172
 20
10.16216
 30
0.0
 10
-5.71172
 20
10.16216
 30
0.0
 10
-5.71169
 20
10.5021
 30
0.0
 10
-5.71169
 20
10.5021
 30
0.0
 10
-5.71169
 20
10.5021
 30
0.0
 10
-5.71169
 20
10.5021
 30
0.0
 10
-5.18784
 20
10.5021
 30
0.0
 10
-5.18784
 20
10.5021
 30
0.0
  0
SPLINE
  5
45
330
1F
100
AcDbEntity
  8
Layer 1
 62
   177
100
AcDbSpline
210
0.0
220
0.0
230
1.0
 70
    11
 71
     3
 72
    44
 73
    40
 74
     0
 42
0.0000000001
 43
0.0000000001
 12
1.0
 22
0.0
 32
0.0
 13
1.0
 23
0.0
 33
0.0
 40
0.0
 40
0.0
 40
0.0
 40
0.0
 40
0.0909090909090909
 40
0.0909090909090909
 40
0.0909090909090909
 40
0.0909090909090909
 40
0.1818181818181818
 40
0.1818181818181818
 40
0.1818181818181818
 40
0.1818181818181818
 40
0.2727272727272727
 40
0.2727272727272727
 40
0.2727272727272727
 40
0.2727272727272727
 40
0.3636363636363636
 40
0.3636363636363636
 40
0.3636363636363636
 40
0.3636363636363636
 40
0.4545454545454545
 40
0.4545454545454545
 40
0.4545454545454545
 40
0.4545454545454545
 40
0.5454545454545454
 40
0.5454545454545454
 40
0.5454545454545454
 40
0.5454545454545454
 40
0.6363636363636364
 40
0.6363636363636364
 40
0.6363636363636364
 40
0.6363636363636364
 40
0.7272727272727273
 40
0.7272727272727273
 40
0.7272727272727273
 40
0.7272727272727273
 40
0.8181818181818182
 40
0.8181818181818182
 40
0.8181818181818182
 40
0.8181818181818182
 40
1.0
 40
1.0
 40
1.0
 40
1.0
 10
0.33087
 20
17.30361
 30
0.0
 10
0.33087
 20
17.30361
 30
0.0
 10
1.0108
 20
17.30356
 30
0.0
 10
1.0108
 20
17.30356
 30
0.0
 10
1.0108
 20
17.30356
 30
0.0
 10
1.0108
 20
17.30356
 30
0.0
 10
1.0108
 20
16.02081
 30
0.0
 10
1.0108
 20
16.02081
 30
0.0
 10
1.0108
 20
16.02081
 30
0.0
 10
1.0108
 20
16.02081
 30
0.0
 10
-0.34926
 20
16.02081
 30
0.0
 10
-0.34926
 20
16.02081
 30
0.0
 10
-0.34926
 20
16.02081
 30
0.0
 10
-0.34926
 20
16.02081
 30
0.0
 10
-0.34926
 20
17.30356
 30
0.0
 10
-0.34926
 20
17.30356
 30
0.0
 10
-0.34926
 20
17.30356
 30
0.0
 10
-0.34926
 20
17.30356
 30
0.0
 10
0.11535
 20
17.30356
 30
0.0
 10
0.11535
 20
17.30356
 30
0.0
 10
0.11535
 20
17.30356
 30
0.0
 10
0.11535
 20
17.30356
 30
0.0
 10
0.11535
 20
16.5447
 30
0.0
 10
0.11535
 20
16.5447
 30
0.0
 10
0.11535
 20
16.5447
 30
0.0
 10
0.11535
 20
16.5447
 30
0.0
 10
0.67081
 20
16.5447
 30
0.0
 10
0.67081
 20
16.5447
 30
0.0
 10
0.67081
 20
16.5447
 30
0.0
 10
0.67081
 20
16.5447
 30
0.0
 10
0.67081
 20
16.76019
 30
0.0
 10
0.67081
 20
16.76019
 30
0.0
 10
0.67081
 20
16.76019
 30
0.0
 10
0.67081
 20
16.76019
 30
0.0
 10
0.33087
 20
16.76019
 30
0.0
 10
0.33087
 20
16.76019
 30
0.0
 10
0.33087
 20
16.76019
 30
0.0
 10
0.33087
 20
16.76019
 30
0.0
 10
0.33087
 20
17.30361
 30
0.0
 10
0.33087
 20
17.30361
 30
0.0
  0
SPLINE
  5
46
330
1F
100
AcDbEntity
  8
Layer 1
 62
   177
100
AcDbSpline
210
0.0
220
0.0
230
1.0
 70
    11
 71
     3
 72
    44
 73
    40
 74
     0
 42
0.0000000001
 43
0.0000000001
 12
1.0
 22
0.0
 32
0.0
 13
1.0
 23
0.0
 33
0.0
 40
0.0
 40
0.0
 40
0.0
 40
0.0
 40
0.0909090909090909
 40
0.0909090909090909
 40
0.0909090909090909
 40
0.0909090909090909
 40
0.1818181818181818
 40
0.1818181818181818
 40
0.1818181818181818
 40
0.1818181818181818
 40
0.2727272727272727
 40
0.2727272727272727
 40
0.2727272727272727
 40
0.2727272727272727
 40
0.3636363636363636
 40
0.3636363636363636
 40
0.3636363636363636
 40
0.3636363636363636
 40
0.4545454545454545
 40
0.4545454545454545
 40
0.4545454545454545
 40
0.4545454545454545
 40
0.5454545454545454
 40
0.5454545454545454
 40
0.5454545454545454
 40
0.5454545454545454
 40
0.6363636363636364
 40
0.6363636363636364
 40
0.6363636363636364
 40
0.6363636363636364
 40
0.7272727272727273
 40
0.7272727272727273
 40
0.7272727272727273
 40
0.7272727272727273
 40
0.8181818181818182
 40
0.8181818181818182
 40
0.8181818181818182
 40
0.8181818181818182
 40
1.0
 40
1.0
 40
1.0
 40
1.0
 10
-1.24487
 20
16.02081
 30
0.0
 10
-1.24487
 20
16.02081
 30
0.0
 10
-1.9248
 20
16.02081
 30
0.0
 10
-1.9248
 20
16.02081
 30
0.0
 10
-1.9248
 20
16.02081
 30
0.0
 10
-1.9248
 20
16.02081
 30
0.0
 10
-1.9248
 20
17.30356
 30
0.0
 10
-1.9248
 20
17.30356
 30
0.0
 10
-1.9248
 20
17.30356
 30
0.0
 10
-1.9248
 20
17.30356
 30
0.0
 10
-0.56474
 20
17.30356
 30
0.0
 10
-0.56474
 20
17.30356
 30
0.0
 10
-0.56474
 20
17.30356
 30
0.0
 10
-0.56474
 20
17.30356
 30
0.0
 10
-0.56474
 20
16.02081
 30
0.0
 10
-0.56474
 20
16.02081
 30
0.0
 10
-0.56474
 20
16.02081
 30
0.0
 10
-0.56474
 20
16.02081
 30
0.0
 10
-1.02933
 20
16.02081
 30
0.0
 10
-1.02933
 20
16.02081
 30
0.0
 10
-1.02933
 20
16.02081
 30
0.0
 10
-1.02933
 20
16.02081
 30
0.0
 10
-1.02933
 20
16.76019
 30
0.0
 10
-1.02933
 20
16.76019
 30
0.0
 10
-1.02933
 20
16.76019
 30
0.0
 10
-1.02933
 20
16.76019
 30
0.0
 10
-1.58481
 20
16.76019
 30
0.0
 10
-1.58481
 20
16.76019
 30
0.0
 10
-1.58481
 20
16.76019
 30
0.0
 10
-1.58481
 20
16.76019
 30
0.0
 10
-1.58481
 20
16.5447
 30
0.0
 10
-1.58481
 20
16.5447
 30
0.0
 10
-1.58481
 20
16.5447
 30
0.0
 10
-1.58481
 20
16.5447
 30
0.0
 10
-1.24487
 20
16.5447
 30
0.0
 10
-1.24487
 20
16.5447
 30
0.0
 10
-1.24487
 20
16.5447
 30
0.0
 10
-1.24487
 20
16.5447
 30
0.0
 10
-1.24487
 20
16.02081
 30
0.0
 10
-1.24487
 20
16.02081
 30
0.0
  0
SPLINE
  5
47
330
1F
100
AcDbEntity
  8
Layer 1
 62
   177
100
AcDbSpline
210
0.0
220
0.0
230
1.0
 70
    11
 71
     3
 72
    84
 73
    80
 74
     0
 42
0.0000000001
 43
0.0000000001
 12
1.0
 22
0.0
 32
0.0
 13
1.0
 23
0.0
 33
0.0
 40
0.0
 40
0.0
 40
0.0
 40
0.0
 40
0.0476190476190476
 40
0.0476190476190476
 40
0.0476190476190476
 40
0.0476190476190476
 40
0.0952380952380952
 40
0.0952380952380952
 40
0.0952380952380952
 40
0.0952380952380952
 40
0.1428571428571428
 40
0.1428571428571428
 40
0.1428571428571428
 40
0.1428571428571428
 40
0.1904761904761905
 40
0.1904761904761905
 40
0.1904761904761905
 40
0.1904761904761905
 40
0.2380952380952381
 40
0.2380952380952381
 40
0.2380952380952381
 40
0.2380952380952381
 40
0.2857142857142857
 40
0.2857142857142857
 40
0.2857142857142857
 40
0.2857142857142857
 40
0.3333333333333333
 40
0.3333333333333333
 40
0.3333333333333333
 40
0.3333333333333333
 40
0.3809523809523809
 40
0.3809523809523809
 40
0.3809523809523809
 40
0.3809523809523809
 40
0.4285714285714285
 40
0.4285714285714285
 40
0.4285714285714285
 40
0.4285714285714285
 40
0.4761904761904762
 40
0.4761904761904762
 40
0.4761904761904762
 40
0.4761904761904762
 40
0.5238095238095238
 40
0.5238095238095238
 40
0.5238095238095238
 40
0.5238095238095238
 40
0.5714285714285714
 40
0.5714285714285714
 40
0.5714285714285714
 40
0.5714285714285714
 40
0.6190476190476191
 40
0.6190476190476191
 40
0.6190476190476191
 40
0.6190476190476191
 40
0.6666666666666666
 40
0.6666666666666666
 40
0.6666666666666666
 40
0.6666666666666666
 40
0.7142857142857143
 40
0.7142857142857143
 40
0.7142857142857143
 40
0.7142857142857143
 40
0.7619047619047619
 40
0.7619047619047619
 40
0.7619047619047619
 40
0.7619047619047619
 40
0.8095238095238095
 40
0.8095238095238095
 40
0.8095238095238095
 40
0.8095238095238095
 40
0.8571428571428571
 40
0.8571428571428571
 40
0.8571428571428571
 40
0.8571428571428571
 40
0.9047619047619048
 40
0.9047619047619048
 40
0.9047619047619048
 40
0.9047619047619048
 40
1.0
 40
1.0
 40
1.0
 40
1.0
 10
-5.08012
 20
15.71117
 30
0.0
 10
-5.08012
 20
15.71117
 30
0.0
 10
-5.92722
 20
15.71117
 30
0.0
 10
-5.92722
 20
15.71117
 30
0.0
 10
-5.92722
 20
15.71117
 30
0.0
 10
-5.92722
 20
15.71117
 30
0.0
 10
-5.92722
 20
15.15559
 30
0.0
 10
-5.92722
 20
15.15559
 30
0.0
 10
-5.92722
 20
15.15559
 30
0.0
 10
-5.92722
 20
15.15559
 30
0.0
 10
-5.71172
 20
15.15559
 30
0.0
 10
-5.71172
 20
15.15559
 30
0.0
 10
-5.71172
 20
15.15559
 30
0.0
 10
-5.71172
 20
15.15559
 30
0.0
 10
-5.71169
 20
15.49565
 30
0.0
 10
-5.71169
 20
15.49565
 30
0.0
 10
-5.71169
 20
15.49565
 30
0.0
 10
-5.71169
 20
15.49565
 30
0.0
 10
-5.18784
 20
15.49565
 30
0.0
 10
-5.18784
 20
15.49565
 30
0.0
 10
-5.18784
 20
15.49565
 30
0.0
 10
-5.18784
 20
15.49565
 30
0.0
 10
-5.18784
 20
14.81556
 30
0.0
 10
-5.18784
 20
14.81556
 30
0.0
 10
-5.18784
 20
14.81556
 30
0.0
 10
-5.18784
 20
14.81556
 30
0.0
 10
-6.47056
 20
14.81556
 30
0.0
 10
-6.47056
 20
14.81556
 30
0.0
 10
-6.47056
 20
14.81556
 30
0.0
 10
-6.47056
 20
14.81556
 30
0.0
 10
-6.47057
 20
16.17576
 30
0.0
 10
-6.47057
 20
16.17576
 30
0.0
 10
-6.47057
 20
16.17576
 30
0.0
 10
-6.47057
 20
16.17576
 30
0.0
 10
-5.34277
 20
16.17576
 30
0.0
 10
-5.34277
 20
16.17576
 30
0.0
 10
-5.34277
 20
16.17576
 30
0.0
 10
-5.34277
 20
16.17576
 30
0.0
 10
-5.34277
 20
17.30356
 30
0.0
 10
-5.34277
 20
17.30356
 30
0.0
 10
-5.34277
 20
17.30356
 30
0.0
 10
-5.34277
 20
17.30356
 30
0.0
 10
-3.98259
 20
17.30356
 30
0.0
 10
-3.98259
 20
17.30356
 30
0.0
 10
-3.98259
 20
17.30356
 30
0.0
 10
-3.98259
 20
17.30356
 30
0.0
 10
-3.98259
 20
16.02081
 30
0.0
 10
-3.98259
 20
16.02081
 30
0.0
 10
-3.98259
 20
16.02081
 30
0.0
 10
-3.98259
 20
16.02081
 30
0.0
 10
-4.66265
 20
16.02081
 30
0.0
 10
-4.66265
 20
16.02081
 30
0.0
 10
-4.66265
 20
16.02081
 30
0.0
 10
-4.66265
 20
16.02081
 30
0.0
 10
-4.66265
 20
16.5447
 30
0.0
 10
-4.66265
 20
16.5447
 30
0.0
 10
-4.66265
 20
16.5447
 30
0.0
 10
-4.66265
 20
16.5447
 30
0.0
 10
-4.32262
 20
16.5447
 30
0.0
 10
-4.32262
 20
16.5447
 30
0.0
 10
-4.32262
 20
16.5447
 30
0.0
 10
-4.32262
 20
16.5447
 30
0.0
 10
-4.32262
 20
16.76019
 30
0.0
 10
-4.32262
 20
16.76019
 30
0.0
 10
-4.32262
 20
16.76019
 30
0.0
 10
-4.32262
 20
16.76019
 30
0.0
 10
-4.87819
 20
16.76019
 30
0.0
 10
-4.87819
 20
16.76019
 30
0.0
 10
-4.87819
 20
16.76019
 30
0.0
 10
-4.87819
 20
16.76019
 30
0.0
 10
-4.87819
 20
15.91309
 30
0.0
 10
-4.87819
 20
15.91309
 30
0.0
 10
-4.87819
 20
15.91309
 30
0.0
 10
-4.87819
 20
15.91309
 30
0.0
 10
-5.08012
 20
15.91309
 30
0.0
 10
-5.08012
 20
15.91309
 30
0.0
 10
-5.08012
 20
15.91309
 30
0.0
 10
-5.08012
 20
15.91309
 30
0.0
 10
-5.08012
 20
15.71117
 30
0.0
 10
-5.08012
 20
15.71117
 30
0.0
  0
SPLINE
  5
48
330
1F
100
AcDbEntity
  8
Layer 1
 62
   177
100
AcDbSpline
210
0.0
220
0.0
230
1.0
 70
    11
 71
     3
 72
    24
 73
    20
 74
     0
 42
0.0000000001
 43
0.0000000001
 12
1.0
 22
0.0
 32
0.0
 13
1.0
 23
0.0
 33
0.0
 40
0.0
 40
0.0
 40
0.0
 40
0.0
 40
0.1666666666666667
 40
0.1666666666666667
 40
0.1666666666666667
 40
0.1666666666666667
 40
0.3333333333333333
 40
0.3333333333333333
 40
0.3333333333333333
 40
0.3333333333333333
 40
0.5
 40
0.5
 40
0.5
 40
0.5
 40
0.6666666666666666
 40
0.6666666666666666
 40
0.6666666666666666
 40
0.6666666666666666
 40
1.0
 40
1.0
 40
1.0
 40
1.0
 10
5.66425
 20
7.97984
 30
0.0
 10
5.66425
 20
7.97984
 30
0.0
 10
4.16612
 20
7.97984
 30
0.0
 10
4.16612
 20
7.97984
 30
0.0
 10
4.16612
 20
7.97984
 30
0.0
 10
4.16612
 20
7.97984
 30
0.0
 10
4.16612
 20
9.60671
 30
0.0
 10
4.16612
 20
9.60671
 30
0.0
 10
4.16612
 20
9.60671
 30
0.0
 10
4.16612
 20
9.60671
 30
0.0
 10
5.66425
 20
9.60671
 30
0.0
 10
5.66425
 20
9.60671
 30
0.0
 10
5.66425
 20
9.60671
 30
0.0
 10
5.66425
 20
9.60671
 30
0.0
 10
5.66425
 20
7.97984
 30
0.0
 10
5.66425
 20
7.97984
 30
0.0
 10
5.66425
 20
7.97984
 30
0.0
 10
5.66425
 20
7.97984
 30
0.0
 10
5.66425
 20
7.97984
 30
0.0
 10
5.66425
 20
7.97984
 30
0.0
  0
SPLINE
  5
49
330
1F
100
AcDbEntity
  8
Layer 1
 62
   177
100
AcDbSpline
210
0.0
220
0.0
230
1.0
 70
    11
 71
     3
 72
    44
 73
    40
 74
     0
 42
0.0000000001
 43
0.0000000001
 12
1.0
 22
0.0
 32
0.0
 13
1.0
 23
0.0
 33
0.0
 40
0.0
 40
0.0
 40
0.0
 40
0.0
 40
0.0909090909090909
 40
0.0909090909090909
 40
0.0909090909090909
 40
0.0909090909090909
 40
0.1818181818181818
 40
0.1818181818181818
 40
0.1818181818181818
 40
0.1818181818181818
 40
0.2727272727272727
 40
0.2727272727272727
 40
0.2727272727272727
 40
0.2727272727272727
 40
0.3636363636363636
 40
0.3636363636363636
 40
0.3636363636363636
 40
0.3636363636363636
 40
0.4545454545454545
 40
0.4545454545454545
 40
0.4545454545454545
 40
0.4545454545454545
 40
0.5454545454545454
 40
0.5454545454545454
 40
0.5454545454545454
 40
0.5454545454545454
 40
0.6363636363636364
 40
0.6363636363636364
 40
0.6363636363636364
 40
0.6363636363636364
 40
0.7272727272727273
 40
0.7272727272727273
 40
0.7272727272727273
 40
0.7272727272727273
 40
0.8181818181818182
 40
0.8181818181818182
 40
0.8181818181818182
 40
0.8181818181818182
 40
1.0
 40
1.0
 40
1.0
 40
1.0
 10
5.55659
 20
12.07784
 30
0.0
 10
5.55659
 20
12.07784
 30
0.0
 10
5.01322
 20
12.07784
 30
0.0
 10
5.01322
 20
12.07784
 30
0.0
 10
5.01322
 20
12.07784
 30
0.0
 10
5.01322
 20
12.07784
 30
0.0
 10
5.01322
 20
12.41778
 30
0.0
 10
5.01322
 20
12.41778
 30
0.0
 10
5.01322
 20
12.41778
 30
0.0
 10
5.01322
 20
12.41778
 30
0.0
 10
4.79773
 20
12.41778
 30
0.0
 10
4.79773
 20
12.41778
 30
0.0
 10
4.79773
 20
12.41778
 30
0.0
 10
4.79773
 20
12.41778
 30
0.0
 10
4.79773
 20
11.8623
 30
0.0
 10
4.79773
 20
11.8623
 30
0.0
 10
4.79773
 20
11.8623
 30
0.0
 10
4.79773
 20
11.8623
 30
0.0
 10
5.55659
 20
11.8623
 30
0.0
 10
5.55659
 20
11.8623
 30
0.0
 10
5.55659
 20
11.8623
 30
0.0
 10
5.55659
 20
11.8623
 30
0.0
 10
5.55659
 20
11.39771
 30
0.0
 10
5.55659
 20
11.39771
 30
0.0
 10
5.55659
 20
11.39771
 30
0.0
 10
5.55659
 20
11.39771
 30
0.0
 10
4.27384
 20
11.39771
 30
0.0
 10
4.27384
 20
11.39771
 30
0.0
 10
4.27384
 20
11.39771
 30
0.0
 10
4.27384
 20
11.39771
 30
0.0
 10
4.27384
 20
12.75777
 30
0.0
 10
4.27384
 20
12.75777
 30
0.0
 10
4.27384
 20
12.75777
 30
0.0
 10
4.27384
 20
12.75777
 30
0.0
 10
5.55659
 20
12.75777
 30
0.0
 10
5.55659
 20
12.75777
 30
0.0
 10
5.55659
 20
12.75777
 30
0.0
 10
5.55659
 20
12.75777
 30
0.0
 10
5.55659
 20
12.07784
 30
0.0
 10
5.55659
 20
12.07784
 30
0.0
  0
SPLINE
  5
4A
330
1F
100
AcDbEntity
  8
Layer 1
 62
   177
100
AcDbSpline
210
0.0
220
0.0
230
1.0
 70
    11
 71
     3
 72
    44
 73
    40
 74
     0
 42
0.0000000001
 43
0.0000000001
 12
1.0
 22
0.0
 32
0.0
 13
1.0
 23
0.0
 33
0.0
 40
0.0
 40
0.0
 40
0.0
 40
0.0
 40
0.0909090909090909
 40
0.0909090909090909
 40
0.0909090909090909
 40
0.0909090909090909
 40
0.1818181818181818
 40
0.1818181818181818
 40
0.1818181818181818
 40
0.1818181818181818
 40
0.2727272727272727
 40
0.2727272727272727
 40
0.2727272727272727
 40
0.2727272727272727
 40
0.3636363636363636
 40
0.3636363636363636
 40
0.3636363636363636
 40
0.3636363636363636
 40
0.4545454545454545
 40
0.4545454545454545
 40
0.4545454545454545
 40
0.4545454545454545
 40
0.5454545454545454
 40
0.5454545454545454
 40
0.5454545454545454
 40
0.5454545454545454
 40
0.6363636363636364
 40
0.6363636363636364
 40
0.6363636363636364
 40
0.6363636363636364
 40
0.7272727272727273
 40
0.7272727272727273
 40
0.7272727272727273
 40
0.7272727272727273
 40
0.8181818181818182
 40
0.8181818181818182
 40
0.8181818181818182
 40
0.8181818181818182
 40
1.0
 40
1.0
 40
1.0
 40
1.0
 10
4.27384
 20
10.5021
 30
0.0
 10
4.27384
 20
10.5021
 30
0.0
 10
4.79772
 20
10.5021
 30
0.0
 10
4.79772
 20
10.5021
 30
0.0
 10
4.79772
 20
10.5021
 30
0.0
 10
4.79772
 20
10.5021
 30
0.0
 10
4.79773
 20
10.16216
 30
0.0
 10
4.79773
 20
10.16216
 30
0.0
 10
4.79773
 20
10.16216
 30
0.0
 10
4.79773
 20
10.16216
 30
0.0
 10
5.01322
 20
10.16216
 30
0.0
 10
5.01322
 20
10.16216
 30
0.0
 10
5.01322
 20
10.16216
 30
0.0
 10
5.01322
 20
10.16216
 30
0.0
 10
5.01322
 20
10.71764
 30
0.0
 10
5.01322
 20
10.71764
 30
0.0
 10
5.01322
 20
10.71764
 30
0.0
 10
5.01322
 20
10.71764
 30
0.0
 10
4.27384
 20
10.71764
 30
0.0
 10
4.27384
 20
10.71764
 30
0.0
 10
4.27384
 20
10.71764
 30
0.0
 10
4.27384
 20
10.71764
 30
0.0
 10
4.27384
 20
11.18223
 30
0.0
 10
4.27384
 20
11.18223
 30
0.0
 10
4.27384
 20
11.18223
 30
0.0
 10
4.27384
 20
11.18223
 30
0.0
 10
5.55659
 20
11.18223
 30
0.0
 10
5.55659
 20
11.18223
 30
0.0
 10
5.55659
 20
11.18223
 30
0.0
 10
5.55659
 20
11.18223
 30
0.0
 10
5.55657
 20
9.82217
 30
0.0
 10
5.55657
 20
9.82217
 30
0.0
 10
5.55657
 20
9.82217
 30
0.0
 10
5.55657
 20
9.82217
 30
0.0
 10
4.27384
 20
9.82217
 30
0.0
 10
4.27384
 20
9.82217
 30
0.0
 10
4.27384
 20
9.82217
 30
0.0
 10
4.27384
 20
9.82217
 30
0.0
 10
4.27384
 20
10.5021
 30
0.0
 10
4.27384
 20
10.5021
 30
0.0
  0
SPLINE
  5
4B
330
1F
100
AcDbEntity
  8
Layer 1
 62
   177
100
AcDbSpline
210
0.0
220
0.0
230
1.0
 70
    11
 71
     3
 72
    20
 73
    16
 74
     0
 42
0.0000000001
 43
0.0000000001
 12
1.0
 22
0.0
 32
0.0
 13
1.0
 23
0.0
 33
0.0
 40
0.0
 40
0.0
 40
0.0
 40
0.0
 40
0.2
 40
0.2
 40
0.2
 40
0.2
 40
0.4
 40
0.4
 40
0.4
 40
0.4
 40
0.6
 40
0.6
 40
0.6
 40
0.6
 40
1.0
 40
1.0
 40
1.0
 40
1.0
 10
5.66425
 20
12.97323
 30
0.0
 10
5.66425
 20
12.97323
 30
0.0
 10
4.16612
 20
12.97323
 30
0.0
 10
4.16612
 20
12.97323
 30
0.0
 10
4.16612
 20
12.97323
 30
0.0
 10
4.16612
 20
12.97323
 30
0.0
 10
4.16612
 20
14.6001
 30
0.0
 10
4.16612
 20
14.6001
 30
0.0
 10
4.16612
 20
14.6001
 30
0.0
 10
4.16612
 20
14.6001
 30
0.0
 10
5.66425
 20
14.6001
 30
0.0
 10
5.66425
 20
14.6001
 30
0.0
 10
5.66425
 20
14.6001
 30
0.0
 10
5.66425
 20
14.6001
 30
0.0
 10
5.66425
 20
12.97323
 30
0.0
 10
5.66425
 20
12.97323
 30
0.0
  0
SPLINE
  5
4C
330
1F
100
AcDbEntity
  8
Layer 1
 62
   177
100
AcDbSpline
210
0.0
220
0.0
230
1.0
 70
    11
 71
     3
 72
    84
 73
    80
 74
     0
 42
0.0000000001
 43
0.0000000001
 12
1.0
 22
0.0
 32
0.0
 13
1.0
 23
0.0
 33
0.0
 40
0.0
 40
0.0
 40
0.0
 40
0.0
 40
0.0476190476190476
 40
0.0476190476190476
 40
0.0476190476190476
 40
0.0476190476190476
 40
0.0952380952380952
 40
0.0952380952380952
 40
0.0952380952380952
 40
0.0952380952380952
 40
0.1428571428571428
 40
0.1428571428571428
 40
0.1428571428571428
 40
0.1428571428571428
 40
0.1904761904761905
 40
0.1904761904761905
 40
0.1904761904761905
 40
0.1904761904761905
 40
0.2380952380952381
 40
0.2380952380952381
 40
0.2380952380952381
 40
0.2380952380952381
 40
0.2857142857142857
 40
0.2857142857142857
 40
0.2857142857142857
 40
0.2857142857142857
 40
0.3333333333333333
 40
0.3333333333333333
 40
0.3333333333333333
 40
0.3333333333333333
 40
0.3809523809523809
 40
0.3809523809523809
 40
0.3809523809523809
 40
0.3809523809523809
 40
0.4285714285714285
 40
0.4285714285714285
 40
0.4285714285714285
 40
0.4285714285714285
 40
0.4761904761904762
 40
0.4761904761904762
 40
0.4761904761904762
 40
0.4761904761904762
 40
0.5238095238095238
 40
0.5238095238095238
 40
0.5238095238095238
 40
0.5238095238095238
 40
0.5714285714285714
 40
0.5714285714285714
 40
0.5714285714285714
 40
0.5714285714285714
 40
0.6190476190476191
 40
0.6190476190476191
 40
0.6190476190476191
 40
0.6190476190476191
 40
0.6666666666666666
 40
0.6666666666666666
 40
0.6666666666666666
 40
0.6666666666666666
 40
0.7142857142857143
 40
0.7142857142857143
 40
0.7142857142857143
 40
0.7142857142857143
 40
0.7619047619047619
 40
0.7619047619047619
 40
0.7619047619047619
 40
0.7619047619047619
 40
0.8095238095238095
 40
0.8095238095238095
 40
0.8095238095238095
 40
0.8095238095238095
 40
0.8571428571428571
 40
0.8571428571428571
 40
0.8571428571428571
 40
0.8571428571428571
 40
0.9047619047619048
 40
0.9047619047619048
 40
0.9047619047619048
 40
0.9047619047619048
 40
1.0
 40
1.0
 40
1.0
 40
1.0
 10
4.16612
 20
15.71116
 30
0.0
 10
4.16612
 20
15.71116
 30
0.0
 10
4.16612
 20
15.91309
 30
0.0
 10
4.16612
 20
15.91309
 30
0.0
 10
4.16612
 20
15.91309
 30
0.0
 10
4.16612
 20
15.91309
 30
0.0
 10
3.96419
 20
15.91309
 30
0.0
 10
3.96419
 20
15.91309
 30
0.0
 10
3.96419
 20
15.91309
 30
0.0
 10
3.96419
 20
15.91309
 30
0.0
 10
3.96419
 20
16.76019
 30
0.0
 10
3.96419
 20
16.76019
 30
0.0
 10
3.96419
 20
16.76019
 30
0.0
 10
3.96419
 20
16.76019
 30
0.0
 10
3.40864
 20
16.76019
 30
0.0
 10
3.40864
 20
16.76019
 30
0.0
 10
3.40864
 20
16.76019
 30
0.0
 10
3.40864
 20
16.76019
 30
0.0
 10
3.40864
 20
16.54469
 30
0.0
 10
3.40864
 20
16.54469
 30
0.0
 10
3.40864
 20
16.54469
 30
0.0
 10
3.40864
 20
16.54469
 30
0.0
 10
3.74869
 20
16.54469
 30
0.0
 10
3.74869
 20
16.54469
 30
0.0
 10
3.74869
 20
16.54469
 30
0.0
 10
3.74869
 20
16.54469
 30
0.0
 10
3.74869
 20
16.02081
 30
0.0
 10
3.74869
 20
16.02081
 30
0.0
 10
3.74869
 20
16.02081
 30
0.0
 10
3.74869
 20
16.02081
 30
0.0
 10
3.06859
 20
16.02081
 30
0.0
 10
3.06859
 20
16.02081
 30
0.0
 10
3.06859
 20
16.02081
 30
0.0
 10
3.06859
 20
16.02081
 30
0.0
 10
3.06859
 20
17.30356
 30
0.0
 10
3.06859
 20
17.30356
 30
0.0
 10
3.06859
 20
17.30356
 30
0.0
 10
3.06859
 20
17.30356
 30
0.0
 10
4.42878
 20
17.30356
 30
0.0
 10
4.42878
 20
17.30356
 30
0.0
 10
4.42878
 20
17.30356
 30
0.0
 10
4.42878
 20
17.30356
 30
0.0
 10
4.42878
 20
16.17574
 30
0.0
 10
4.42878
 20
16.17574
 30
0.0
 10
4.42878
 20
16.17574
 30
0.0
 10
4.42878
 20
16.17574
 30
0.0
 10
5.55659
 20
16.17576
 30
0.0
 10
5.55659
 20
16.17576
 30
0.0
 10
5.55659
 20
16.17576
 30
0.0
 10
5.55659
 20
16.17576
 30
0.0
 10
5.55657
 20
14.81556
 30
0.0
 10
5.55657
 20
14.81556
 30
0.0
 10
5.55657
 20
14.81556
 30
0.0
 10
5.55657
 20
14.81556
 30
0.0
 10
4.27384
 20
14.81556
 30
0.0
 10
4.27384
 20
14.81556
 30
0.0
 10
4.27384
 20
14.81556
 30
0.0
 10
4.27384
 20
14.81556
 30
0.0
 10
4.27384
 20
15.49565
 30
0.0
 10
4.27384
 20
15.49565
 30
0.0
 10
4.27384
 20
15.49565
 30
0.0
 10
4.27384
 20
15.49565
 30
0.0
 10
4.79772
 20
15.49565
 30
0.0
 10
4.79772
 20
15.49565
 30
0.0
 10
4.79772
 20
15.49565
 30
0.0
 10
4.79772
 20
15.49565
 30
0.0
 10
4.79773
 20
15.15559
 30
0.0
 10
4.79773
 20
15.15559
 30
0.0
 10
4.79773
 20
15.15559
 30
0.0
 10
4.79773
 20
15.15559
 30
0.0
 10
5.01322
 20
15.15559
 30
0.0
 10
5.01322
 20
15.15559
 30
0.0
 10
5.01322
 20
15.15559
 30
0.0
 10
5.01322
 20
15.15559
 30
0.0
 10
5.01322
 20
15.71116
 30
0.0
 10
5.01322
 20
15.71116
 30
0.0
 10
5.01322
 20
15.71116
 30
0.0
 10
5.01322
 20
15.71116
 30
0.0
 10
4.16612
 20
15.71116
 30
0.0
 10
4.16612
 20
15.71116
 30
0.0
  0
SPLINE
  5
4D
330
1F
100
AcDbEntity
  8
Layer 1
 62
   177
100
AcDbSpline
210
0.0
220
0.0
230
1.0
 70
    11
 71
     3
 72
    20
 73
    16
 74
     0
 42
0.0000000001
 43
0.0000000001
 12
1.0
 22
0.0
 32
0.0
 13
1.0
 23
0.0
 33
0.0
 40
0.0
 40
0.0
 40
0.0
 40
0.0
 40
0.2
 40
0.2
 40
0.2
 40
0.2
 40
0.4
 40
0.4
 40
0.4
 40
0.4
 40
0.6
 40
0.6
 40
0.6
 40
0.6
 40
1.0
 40
1.0
 40
1.0
 40
1.0
 10
1.22626
 20
6.66685
 30
0.0
 10
1.22626
 20
6.66685
 30
0.0
 10
2.85313
 20
6.66685
 30
0.0
 10
2.85313
 20
6.66685
 30
0.0
 10
2.85313
 20
6.66685
 30
0.0
 10
2.85313
 20
6.66685
 30
0.0
 10
2.85313
 20
5.16875
 30
0.0
 10
2.85313
 20
5.16875
 30
0.0
 10
2.85313
 20
5.16875
 30
0.0
 10
2.85313
 20
5.16875
 30
0.0
 10
1.22626
 20
5.16874
 30
0.0
 10
1.22626
 20
5.16874
 30
0.0
 10
1.22626
 20
5.16874
 30
0.0
 10
1.22626
 20
5.16874
 30
0.0
 10
1.22626
 20
6.66685
 30
0.0
 10
1.22626
 20
6.66685
 30
0.0
  0
SPLINE
  5
4E
330
1F
100
AcDbEntity
  8
Layer 1
 62
   177
100
AcDbSpline
210
0.0
220
0.0
230
1.0
 70
    11
 71
     3
 72
    20
 73
    16
 74
     0
 42
0.0000000001
 43
0.0000000001
 12
1.0
 22
0.0
 32
0.0
 13
1.0
 23
0.0
 33
0.0
 40
0.0
 40
0.0
 40
0.0
 40
0.0
 40
0.2
 40
0.2
 40
0.2
 40
0.2
 40
0.4
 40
0.4
 40
0.4
 40
0.4
 40
0.6
 40
0.6
 40
0.6
 40
0.6
 40
1.0
 40
1.0
 40
1.0
 40
1.0
 10
4.64423
 20
5.16874
 30
0.0
 10
4.64423
 20
5.16874
 30
0.0
 10
4.64423
 20
6.18874
 30
0.0
 10
4.64423
 20
6.18874
 30
0.0
 10
4.64423
 20
6.18874
 30
0.0
 10
4.64423
 20
6.18874
 30
0.0
 10
5.66425
 20
6.18874
 30
0.0
 10
5.66425
 20
6.18874
 30
0.0
 10
5.66425
 20
6.18874
 30
0.0
 10
5.66425
 20
6.18874
 30
0.0
 10
5.66425
 20
5.16874
 30
0.0
 10
5.66425
 20
5.16874
 30
0.0
 10
5.66425
 20
5.16874
 30
0.0
 10
5.66425
 20
5.16874
 30
0.0
 10
4.64423
 20
5.16874
 30
0.0
 10
4.64423
 20
5.16874
 30
0.0
  0
SPLINE
  5
4F
330
1F
100
AcDbEntity
  8
Layer 1
 62
   177
100
AcDbSpline
210
0.0
220
0.0
230
1.0
 70
    11
 71
     3
 72
    84
 73
    80
 74
     0
 42
0.0000000001
 43
0.0000000001
 12
1.0
 22
0.0
 32
0.0
 13
1.0
 23
0.0
 33
0.0
 40
0.0
 40
0.0
 40
0.0
 40
0.0
 40
0.0476190476190476
 40
0.0476190476190476
 40
0.0476190476190476
 40
0.0476190476190476
 40
0.0952380952380952
 40
0.0952380952380952
 40
0.0952380952380952
 40
0.0952380952380952
 40
0.1428571428571428
 40
0.1428571428571428
 40
0.1428571428571428
 40
0.1428571428571428
 40
0.1904761904761905
 40
0.1904761904761905
 40
0.1904761904761905
 40
0.1904761904761905
 40
0.2380952380952381
 40
0.2380952380952381
 40
0.2380952380952381
 40
0.2380952380952381
 40
0.2857142857142857
 40
0.2857142857142857
 40
0.2857142857142857
 40
0.2857142857142857
 40
0.3333333333333333
 40
0.3333333333333333
 40
0.3333333333333333
 40
0.3333333333333333
 40
0.3809523809523809
 40
0.3809523809523809
 40
0.3809523809523809
 40
0.3809523809523809
 40
0.4285714285714285
 40
0.4285714285714285
 40
0.4285714285714285
 40
0.4285714285714285
 40
0.4761904761904762
 40
0.4761904761904762
 40
0.4761904761904762
 40
0.4761904761904762
 40
0.5238095238095238
 40
0.5238095238095238
 40
0.5238095238095238
 40
0.5238095238095238
 40
0.5714285714285714
 40
0.5714285714285714
 40
0.5714285714285714
 40
0.5714285714285714
 40
0.6190476190476191
 40
0.6190476190476191
 40
0.6190476190476191
 40
0.6190476190476191
 40
0.6666666666666666
 40
0.6666666666666666
 40
0.6666666666666666
 40
0.6666666666666666
 40
0.7142857142857143
 40
0.7142857142857143
 40
0.7142857142857143
 40
0.7142857142857143
 40
0.7619047619047619
 40
0.7619047619047619
 40
0.7619047619047619
 40
0.7619047619047619
 40
0.8095238095238095
 40
0.8095238095238095
 40
0.8095238095238095
 40
0.8095238095238095
 40
0.8571428571428571
 40
0.8571428571428571
 40
0.8571428571428571
 40
0.8571428571428571
 40
0.9047619047619048
 40
0.9047619047619048
 40
0.9047619047619048
 40
0.9047619047619048
 40
1.0
 40
1.0
 40
1.0
 40
1.0
 10
3.96419
 20
6.66685
 30
0.0
 10
3.96419
 20
6.66685
 30
0.0
 10
4.16612
 20
6.66685
 30
0.0
 10
4.16612
 20
6.66685
 30
0.0
 10
4.16612
 20
6.66685
 30
0.0
 10
4.16612
 20
6.66685
 30
0.0
 10
4.16612
 20
6.86878
 30
0.0
 10
4.16612
 20
6.86878
 30
0.0
 10
4.16612
 20
6.86878
 30
0.0
 10
4.16612
 20
6.86878
 30
0.0
 10
5.01322
 20
6.86878
 30
0.0
 10
5.01322
 20
6.86878
 30
0.0
 10
5.01322
 20
6.86878
 30
0.0
 10
5.01322
 20
6.86878
 30
0.0
 10
5.01322
 20
7.42435
 30
0.0
 10
5.01322
 20
7.42435
 30
0.0
 10
5.01322
 20
7.42435
 30
0.0
 10
5.01322
 20
7.42435
 30
0.0
 10
4.79772
 20
7.42433
 30
0.0
 10
4.79772
 20
7.42433
 30
0.0
 10
4.79772
 20
7.42433
 30
0.0
 10
4.79772
 20
7.42433
 30
0.0
 10
4.79769
 20
7.08427
 30
0.0
 10
4.79769
 20
7.08427
 30
0.0
 10
4.79769
 20
7.08427
 30
0.0
 10
4.79769
 20
7.08427
 30
0.0
 10
4.27384
 20
7.08427
 30
0.0
 10
4.27384
 20
7.08427
 30
0.0
 10
4.27384
 20
7.08427
 30
0.0
 10
4.27384
 20
7.08427
 30
0.0
 10
4.27384
 20
7.76438
 30
0.0
 10
4.27384
 20
7.76438
 30
0.0
 10
4.27384
 20
7.76438
 30
0.0
 10
4.27384
 20
7.76438
 30
0.0
 10
5.55656
 20
7.76439
 30
0.0
 10
5.55656
 20
7.76439
 30
0.0
 10
5.55656
 20
7.76439
 30
0.0
 10
5.55656
 20
7.76439
 30
0.0
 10
5.55657
 20
6.4042
 30
0.0
 10
5.55657
 20
6.4042
 30
0.0
 10
5.55657
 20
6.4042
 30
0.0
 10
5.55657
 20
6.4042
 30
0.0
 10
4.42878
 20
6.4042
 30
0.0
 10
4.42878
 20
6.4042
 30
0.0
 10
4.42878
 20
6.4042
 30
0.0
 10
4.42878
 20
6.4042
 30
0.0
 10
4.42878
 20
5.2764
 30
0.0
 10
4.42878
 20
5.2764
 30
0.0
 10
4.42878
 20
5.2764
 30
0.0
 10
4.42878
 20
5.2764
 30
0.0
 10
3.06858
 20
5.2764
 30
0.0
 10
3.06858
 20
5.2764
 30
0.0
 10
3.06858
 20
5.2764
 30
0.0
 10
3.06858
 20
5.2764
 30
0.0
 10
3.06858
 20
6.55913
 30
0.0
 10
3.06858
 20
6.55913
 30
0.0
 10
3.06858
 20
6.55913
 30
0.0
 10
3.06858
 20
6.55913
 30
0.0
 10
3.74864
 20
6.55913
 30
0.0
 10
3.74864
 20
6.55913
 30
0.0
 10
3.74864
 20
6.55913
 30
0.0
 10
3.74864
 20
6.55913
 30
0.0
 10
3.74864
 20
6.03525
 30
0.0
 10
3.74864
 20
6.03525
 30
0.0
 10
3.74864
 20
6.03525
 30
0.0
 10
3.74864
 20
6.03525
 30
0.0
 10
3.40864
 20
6.03525
 30
0.0
 10
3.40864
 20
6.03525
 30
0.0
 10
3.40864
 20
6.03525
 30
0.0
 10
3.40864
 20
6.03525
 30
0.0
 10
3.40864
 20
5.81975
 30
0.0
 10
3.40864
 20
5.81975
 30
0.0
 10
3.40864
 20
5.81975
 30
0.0
 10
3.40864
 20
5.81975
 30
0.0
 10
3.96419
 20
5.81975
 30
0.0
 10
3.96419
 20
5.81975
 30
0.0
 10
3.96419
 20
5.81975
 30
0.0
 10
3.96419
 20
5.81975
 30
0.0
 10
3.96419
 20
6.66685
 30
0.0
 10
3.96419
 20
6.66685
 30
0.0
  0
SPLINE
  5
50
330
1F
100
AcDbEntity
  8
Layer 1
 62
   177
100
AcDbSpline
210
0.0
220
0.0
230
1.0
 70
    11
 71
     3
 72
    24
 73
    20
 74
     0
 42
0.0000000001
 43
0.0000000001
 12
1.0
 22
0.0
 32
0.0
 13
1.0
 23
0.0
 33
0.0
 40
0.0
 40
0.0
 40
0.0
 40
0.0
 40
0.1666666666666667
 40
0.1666666666666667
 40
0.1666666666666667
 40
0.1666666666666667
 40
0.3333333333333333
 40
0.3333333333333333
 40
0.3333333333333333
 40
0.3333333333333333
 40
0.5
 40
0.5
 40
0.5
 40
0.5
 40
0.6666666666666666
 40
0.6666666666666666
 40
0.6666666666666666
 40
0.6666666666666666
 40
1.0
 40
1.0
 40
1.0
 40
1.0
 10
-3.76713
 20
6.66685
 30
0.0
 10
-3.76713
 20
6.66685
 30
0.0
 10
-2.14026
 20
6.66685
 30
0.0
 10
-2.14026
 20
6.66685
 30
0.0
 10
-2.14026
 20
6.66685
 30
0.0
 10
-2.14026
 20
6.66685
 30
0.0
 10
-2.14026
 20
5.16874
 30
0.0
 10
-2.14026
 20
5.16874
 30
0.0
 10
-2.14026
 20
5.16874
 30
0.0
 10
-2.14026
 20
5.16874
 30
0.0
 10
-3.76713
 20
5.16874
 30
0.0
 10
-3.76713
 20
5.16874
 30
0.0
 10
-3.76713
 20
5.16874
 30
0.0
 10
-3.76713
 20
5.16874
 30
0.0
 10
-3.76713
 20
6.66684
 30
0.0
 10
-3.76713
 20
6.66684
 30
0.0
 10
-3.76713
 20
6.66684
 30
0.0
 10
-3.76713
 20
6.66684
 30
0.0
 10
-3.76713
 20
6.66685
 30
0.0
 10
-3.76713
 20
6.66685
 30
0.0
  0
SPLINE
  5
51
330
1F
100
AcDbEntity
  8
Layer 1
 62
   177
100
AcDbSpline
210
0.0
220
0.0
230
1.0
 70
    11
 71
     3
 72
    44
 73
    40
 74
     0
 42
0.0000000001
 43
0.0000000001
 12
1.0
 22
0.0
 32
0.0
 13
1.0
 23
0.0
 33
0.0
 40
0.0
 40
0.0
 40
0.0
 40
0.0
 40
0.0909090909090909
 40
0.0909090909090909
 40
0.0909090909090909
 40
0.0909090909090909
 40
0.1818181818181818
 40
0.1818181818181818
 40
0.1818181818181818
 40
0.1818181818181818
 40
0.2727272727272727
 40
0.2727272727272727
 40
0.2727272727272727
 40
0.2727272727272727
 40
0.3636363636363636
 40
0.3636363636363636
 40
0.3636363636363636
 40
0.3636363636363636
 40
0.4545454545454545
 40
0.4545454545454545
 40
0.4545454545454545
 40
0.4545454545454545
 40
0.5454545454545454
 40
0.5454545454545454
 40
0.5454545454545454
 40
0.5454545454545454
 40
0.6363636363636364
 40
0.6363636363636364
 40
0.6363636363636364
 40
0.6363636363636364
 40
0.7272727272727273
 40
0.7272727272727273
 40
0.7272727272727273
 40
0.7272727272727273
 40
0.8181818181818182
 40
0.8181818181818182
 40
0.8181818181818182
 40
0.8181818181818182
 40
1.0
 40
1.0
 40
1.0
 40
1.0
 10
0.33087
 20
5.2764
 30
0.0
 10
0.33087
 20
5.2764
 30
0.0
 10
0.33087
 20
5.81976
 30
0.0
 10
0.33087
 20
5.81976
 30
0.0
 10
0.33087
 20
5.81976
 30
0.0
 10
0.33087
 20
5.81976
 30
0.0
 10
0.67081
 20
5.81975
 30
0.0
 10
0.67081
 20
5.81975
 30
0.0
 10
0.67081
 20
5.81975
 30
0.0
 10
0.67081
 20
5.81975
 30
0.0
 10
0.67081
 20
6.03525
 30
0.0
 10
0.67081
 20
6.03525
 30
0.0
 10
0.67081
 20
6.03525
 30
0.0
 10
0.67081
 20
6.03525
 30
0.0
 10
0.11535
 20
6.03525
 30
0.0
 10
0.11535
 20
6.03525
 30
0.0
 10
0.11535
 20
6.03525
 30
0.0
 10
0.11535
 20
6.03525
 30
0.0
 10
0.11535
 20
5.2764
 30
0.0
 10
0.11535
 20
5.2764
 30
0.0
 10
0.11535
 20
5.2764
 30
0.0
 10
0.11535
 20
5.2764
 30
0.0
 10
-0.34926
 20
5.2764
 30
0.0
 10
-0.34926
 20
5.2764
 30
0.0
 10
-0.34926
 20
5.2764
 30
0.0
 10
-0.34926
 20
5.2764
 30
0.0
 10
-0.34926
 20
6.55913
 30
0.0
 10
-0.34926
 20
6.55913
 30
0.0
 10
-0.34926
 20
6.55913
 30
0.0
 10
-0.34926
 20
6.55913
 30
0.0
 10
1.0108
 20
6.55913
 30
0.0
 10
1.0108
 20
6.55913
 30
0.0
 10
1.0108
 20
6.55913
 30
0.0
 10
1.0108
 20
6.55913
 30
0.0
 10
1.0108
 20
5.2764
 30
0.0
 10
1.0108
 20
5.2764
 30
0.0
 10
1.0108
 20
5.2764
 30
0.0
 10
1.0108
 20
5.2764
 30
0.0
 10
0.33087
 20
5.2764
 30
0.0
 10
0.33087
 20
5.2764
 30
0.0
  0
SPLINE
  5
52
330
1F
100
AcDbEntity
  8
Layer 1
 62
   177
100
AcDbSpline
210
0.0
220
0.0
230
1.0
 70
    11
 71
     3
 72
    44
 73
    40
 74
     0
 42
0.0000000001
 43
0.0000000001
 12
1.0
 22
0.0
 32
0.0
 13
1.0
 23
0.0
 33
0.0
 40
0.0
 40
0.0
 40
0.0
 40
0.0
 40
0.0909090909090909
 40
0.0909090909090909
 40
0.0909090909090909
 40
0.0909090909090909
 40
0.1818181818181818
 40
0.1818181818181818
 40
0.1818181818181818
 40
0.1818181818181818
 40
0.2727272727272727
 40
0.2727272727272727
 40
0.2727272727272727
 40
0.2727272727272727
 40
0.3636363636363636
 40
0.3636363636363636
 40
0.3636363636363636
 40
0.3636363636363636
 40
0.4545454545454545
 40
0.4545454545454545
 40
0.4545454545454545
 40
0.4545454545454545
 40
0.5454545454545454
 40
0.5454545454545454
 40
0.5454545454545454
 40
0.5454545454545454
 40
0.6363636363636364
 40
0.6363636363636364
 40
0.6363636363636364
 40
0.6363636363636364
 40
0.7272727272727273
 40
0.7272727272727273
 40
0.7272727272727273
 40
0.7272727272727273
 40
0.8181818181818182
 40
0.8181818181818182
 40
0.8181818181818182
 40
0.8181818181818182
 40
1.0
 40
1.0
 40
1.0
 40
1.0
 10
-1.24487
 20
6.55913
 30
0.0
 10
-1.24487
 20
6.55913
 30
0.0
 10
-1.9248
 20
6.55913
 30
0.0
 10
-1.9248
 20
6.55913
 30
0.0
 10
-1.9248
 20
6.55913
 30
0.0
 10
-1.9248
 20
6.55913
 30
0.0
 10
-1.9248
 20
5.2764
 30
0.0
 10
-1.9248
 20
5.2764
 30
0.0
 10
-1.9248
 20
5.2764
 30
0.0
 10
-1.9248
 20
5.2764
 30
0.0
 10
-0.56474
 20
5.2764
 30
0.0
 10
-0.56474
 20
5.2764
 30
0.0
 10
-0.56474
 20
5.2764
 30
0.0
 10
-0.56474
 20
5.2764
 30
0.0
 10
-0.56474
 20
6.55913
 30
0.0
 10
-0.56474
 20
6.55913
 30
0.0
 10
-0.56474
 20
6.55913
 30
0.0
 10
-0.56474
 20
6.55913
 30
0.0
 10
-1.02933
 20
6.55913
 30
0.0
 10
-1.02933
 20
6.55913
 30
0.0
 10
-1.02933
 20
6.55913
 30
0.0
 10
-1.02933
 20
6.55913
 30
0.0
 10
-1.02933
 20
5.81975
 30
0.0
 10
-1.02933
 20
5.81975
 30
0.0
 10
-1.02933
 20
5.81975
 30
0.0
 10
-1.02933
 20
5.81975
 30
0.0
 10
-1.58481
 20
5.81975
 30
0.0
 10
-1.58481
 20
5.81975
 30
0.0
 10
-1.58481
 20
5.81975
 30
0.0
 10
-1.58481
 20
5.81975
 30
0.0
 10
-1.58481
 20
6.03525
 30
0.0
 10
-1.58481
 20
6.03525
 30
0.0
 10
-1.58481
 20
6.03525
 30
0.0
 10
-1.58481
 20
6.03525
 30
0.0
 10
-1.24487
 20
6.03525
 30
0.0
 10
-1.24487
 20
6.03525
 30
0.0
 10
-1.24487
 20
6.03525
 30
0.0
 10
-1.24487
 20
6.03525
 30
0.0
 10
-1.24487
 20
6.55913
 30
0.0
 10
-1.24487
 20
6.55913
 30
0.0
  0
SPLINE
  5
53
330
1F
100
AcDbEntity
  8
Layer 1
 62
   177
100
AcDbSpline
210
0.0
220
0.0
230
1.0
 70
    11
 71
     3
 72
    20
 73
    16
 74
     0
 42
0.0000000001
 43
0.0000000001
 12
1.0
 22
0.0
 32
0.0
 13
1.0
 23
0.0
 33
0.0
 40
0.0
 40
0.0
 40
0.0
 40
0.0
 40
0.2
 40
0.2
 40
0.2
 40
0.2
 40
0.4
 40
0.4
 40
0.4
 40
0.4
 40
0.6
 40
0.6
 40
0.6
 40
0.6
 40
1.0
 40
1.0
 40
1.0
 40
1.0
 10
-5.08012
 20
9.60671
 30
0.0
 10
-5.08012
 20
9.60671
 30
0.0
 10
-5.08012
 20
7.97984
 30
0.0
 10
-5.08012
 20
7.97984
 30
0.0
 10
-5.08012
 20
7.97984
 30
0.0
 10
-5.08012
 20
7.97984
 30
0.0
 10
-6.57824
 20
7.97984
 30
0.0
 10
-6.57824
 20
7.97984
 30
0.0
 10
-6.57824
 20
7.97984
 30
0.0
 10
-6.57824
 20
7.97984
 30
0.0
 10
-6.57824
 20
9.60671
 30
0.0
 10
-6.57824
 20
9.60671
 30
0.0
 10
-6.57824
 20
9.60671
 30
0.0
 10
-6.57824
 20
9.60671
 30
0.0
 10
-5.08012
 20
9.60671
 30
0.0
 10
-5.08012
 20
9.60671
 30
0.0
  0
SPLINE
  5
54
330
1F
100
AcDbEntity
  8
Layer 1
 62
   177
100
AcDbSpline
210
0.0
220
0.0
230
1.0
 70
    11
 71
     3
 72
    20
 73
    16
 74
     0
 42
0.0000000001
 43
0.0000000001
 12
1.0
 22
0.0
 32
0.0
 13
1.0
 23
0.0
 33
0.0
 40
0.0
 40
0.0
 40
0.0
 40
0.0
 40
0.2
 40
0.2
 40
0.2
 40
0.2
 40
0.4
 40
0.4
 40
0.4
 40
0.4
 40
0.6
 40
0.6
 40
0.6
 40
0.6
 40
1.0
 40
1.0
 40
1.0
 40
1.0
 10
-6.57824
 20
6.18874
 30
0.0
 10
-6.57824
 20
6.18874
 30
0.0
 10
-5.55823
 20
6.18874
 30
0.0
 10
-5.55823
 20
6.18874
 30
0.0
 10
-5.55823
 20
6.18874
 30
0.0
 10
-5.55823
 20
6.18874
 30
0.0
 10
-5.55823
 20
5.16874
 30
0.0
 10
-5.55823
 20
5.16874
 30
0.0
 10
-5.55823
 20
5.16874
 30
0.0
 10
-5.55823
 20
5.16874
 30
0.0
 10
-6.57824
 20
5.16874
 30
0.0
 10
-6.57824
 20
5.16874
 30
0.0
 10
-6.57824
 20
5.16874
 30
0.0
 10
-6.57824
 20
5.16874
 30
0.0
 10
-6.57824
 20
6.18874
 30
0.0
 10
-6.57824
 20
6.18874
 30
0.0
  0
SPLINE
  5
55
330
1F
100
AcDbEntity
  8
Layer 1
 62
   177
100
AcDbSpline
210
0.0
220
0.0
230
1.0
 70
    11
 71
     3
 72
    88
 73
    84
 74
     0
 42
0.0000000001
 43
0.0000000001
 12
1.0
 22
0.0
 32
0.0
 13
1.0
 23
0.0
 33
0.0
 40
0.0
 40
0.0
 40
0.0
 40
0.0
 40
0.0454545454545455
 40
0.0454545454545455
 40
0.0454545454545455
 40
0.0454545454545455
 40
0.0909090909090909
 40
0.0909090909090909
 40
0.0909090909090909
 40
0.0909090909090909
 40
0.1363636363636364
 40
0.1363636363636364
 40
0.1363636363636364
 40
0.1363636363636364
 40
0.1818181818181818
 40
0.1818181818181818
 40
0.1818181818181818
 40
0.1818181818181818
 40
0.2272727272727273
 40
0.2272727272727273
 40
0.2272727272727273
 40
0.2272727272727273
 40
0.2727272727272727
 40
0.2727272727272727
 40
0.2727272727272727
 40
0.2727272727272727
 40
0.3181818181818182
 40
0.3181818181818182
 40
0.3181818181818182
 40
0.3181818181818182
 40
0.3636363636363636
 40
0.3636363636363636
 40
0.3636363636363636
 40
0.3636363636363636
 40
0.4090909090909091
 40
0.4090909090909091
 40
0.4090909090909091
 40
0.4090909090909091
 40
0.4545454545454545
 40
0.4545454545454545
 40
0.4545454545454545
 40
0.4545454545454545
 40
0.5
 40
0.5
 40
0.5
 40
0.5
 40
0.5454545454545454
 40
0.5454545454545454
 40
0.5454545454545454
 40
0.5454545454545454
 40
0.5909090909090909
 40
0.5909090909090909
 40
0.5909090909090909
 40
0.5909090909090909
 40
0.6363636363636364
 40
0.6363636363636364
 40
0.6363636363636364
 40
0.6363636363636364
 40
0.6818181818181818
 40
0.6818181818181818
 40
0.6818181818181818
 40
0.6818181818181818
 40
0.7272727272727273
 40
0.7272727272727273
 40
0.7272727272727273
 40
0.7272727272727273
 40
0.7727272727272727
 40
0.7727272727272727
 40
0.7727272727272727
 40
0.7727272727272727
 40
0.8181818181818182
 40
0.8181818181818182
 40
0.8181818181818182
 40
0.8181818181818182
 40
0.8636363636363636
 40
0.8636363636363636
 40
0.8636363636363636
 40
0.8636363636363636
 40
0.9090909090909091
 40
0.9090909090909091
 40
0.9090909090909091
 40
0.9090909090909091
 40
1.0
 40
1.0
 40
1.0
 40
1.0
 10
-5.08012
 20
6.86877
 30
0.0
 10
-5.08012
 20
6.86877
 30
0.0
 10
-5.08012
 20
6.66685
 30
0.0
 10
-5.08012
 20
6.66685
 30
0.0
 10
-5.08012
 20
6.66685
 30
0.0
 10
-5.08012
 20
6.66685
 30
0.0
 10
-4.87819
 20
6.66685
 30
0.0
 10
-4.87819
 20
6.66685
 30
0.0
 10
-4.87819
 20
6.66685
 30
0.0
 10
-4.87819
 20
6.66685
 30
0.0
 10
-4.87819
 20
5.81975
 30
0.0
 10
-4.87819
 20
5.81975
 30
0.0
 10
-4.87819
 20
5.81975
 30
0.0
 10
-4.87819
 20
5.81975
 30
0.0
 10
-4.32262
 20
5.81975
 30
0.0
 10
-4.32262
 20
5.81975
 30
0.0
 10
-4.32262
 20
5.81975
 30
0.0
 10
-4.32262
 20
5.81975
 30
0.0
 10
-4.32262
 20
6.03525
 30
0.0
 10
-4.32262
 20
6.03525
 30
0.0
 10
-4.32262
 20
6.03525
 30
0.0
 10
-4.32262
 20
6.03525
 30
0.0
 10
-4.66265
 20
6.03525
 30
0.0
 10
-4.66265
 20
6.03525
 30
0.0
 10
-4.66265
 20
6.03525
 30
0.0
 10
-4.66265
 20
6.03525
 30
0.0
 10
-4.66265
 20
6.55913
 30
0.0
 10
-4.66265
 20
6.55913
 30
0.0
 10
-4.66265
 20
6.55913
 30
0.0
 10
-4.66265
 20
6.55913
 30
0.0
 10
-3.98259
 20
6.55913
 30
0.0
 10
-3.98259
 20
6.55913
 30
0.0
 10
-3.98259
 20
6.55913
 30
0.0
 10
-3.98259
 20
6.55913
 30
0.0
 10
-3.98259
 20
5.2764
 30
0.0
 10
-3.98259
 20
5.2764
 30
0.0
 10
-3.98259
 20
5.2764
 30
0.0
 10
-3.98259
 20
5.2764
 30
0.0
 10
-5.34277
 20
5.2764
 30
0.0
 10
-5.34277
 20
5.2764
 30
0.0
 10
-5.34277
 20
5.2764
 30
0.0
 10
-5.34277
 20
5.2764
 30
0.0
 10
-5.34277
 20
6.4042
 30
0.0
 10
-5.34277
 20
6.4042
 30
0.0
 10
-5.34277
 20
6.4042
 30
0.0
 10
-5.34277
 20
6.4042
 30
0.0
 10
-6.47057
 20
6.4042
 30
0.0
 10
-6.47057
 20
6.4042
 30
0.0
 10
-6.47057
 20
6.4042
 30
0.0
 10
-6.47057
 20
6.4042
 30
0.0
 10
-6.47056
 20
7.76438
 30
0.0
 10
-6.47056
 20
7.76438
 30
0.0
 10
-6.47056
 20
7.76438
 30
0.0
 10
-6.47056
 20
7.76438
 30
0.0
 10
-5.18784
 20
7.76438
 30
0.0
 10
-5.18784
 20
7.76438
 30
0.0
 10
-5.18784
 20
7.76438
 30
0.0
 10
-5.18784
 20
7.76438
 30
0.0
 10
-5.18784
 20
7.08427
 30
0.0
 10
-5.18784
 20
7.08427
 30
0.0
 10
-5.18784
 20
7.08427
 30
0.0
 10
-5.18784
 20
7.08427
 30
0.0
 10
-5.71169
 20
7.08427
 30
0.0
 10
-5.71169
 20
7.08427
 30
0.0
 10
-5.71169
 20
7.08427
 30
0.0
 10
-5.71169
 20
7.08427
 30
0.0
 10
-5.71172
 20
7.42433
 30
0.0
 10
-5.71172
 20
7.42433
 30
0.0
 10
-5.71172
 20
7.42433
 30
0.0
 10
-5.71172
 20
7.42433
 30
0.0
 10
-5.92722
 20
7.42433
 30
0.0
 10
-5.92722
 20
7.42433
 30
0.0
 10
-5.92722
 20
7.42433
 30
0.0
 10
-5.92722
 20
7.42433
 30
0.0
 10
-5.92722
 20
6.86878
 30
0.0
 10
-5.92722
 20
6.86878
 30
0.0
 10
-5.92722
 20
6.86878
 30
0.0
 10
-5.92722
 20
6.86878
 30
0.0
 10
-5.08012
 20
6.86878
 30
0.0
 10
-5.08012
 20
6.86878
 30
0.0
 10
-5.08012
 20
6.86878
 30
0.0
 10
-5.08012
 20
6.86878
 30
0.0
 10
-5.08012
 20
6.86877
 30
0.0
 10
-5.08012
 20
6.86877
 30
0.0
  0
SPLINE
  5
56
330
1F
100
AcDbEntity
  8
Layer 1
 62
   177
100
AcDbSpline
210
0.0
220
0.0
230
1.0
 70
    11
 71
     3
 72
   128
 73
   124
 74
     0
 42
0.0000000001
 43
0.0000000001
 12
1.0
 22
0.0
 32
0.0
 13
1.0
 23
0.0
 33
0.0
 40
0.0
 40
0.0
 40
0.0
 40
0.0
 40
0.03125
 40
0.03125
 40
0.03125
 40
0.03125
 40
0.0625
 40
0.0625
 40
0.0625
 40
0.0625
 40
0.09375
 40
0.09375
 40
0.09375
 40
0.09375
 40
0.125
 40
0.125
 40
0.125
 40
0.125
 40
0.15625
 40
0.15625
 40
0.15625
 40
0.15625
 40
0.1875
 40
0.1875
 40
0.1875
 40
0.1875
 40
0.21875
 40
0.21875
 40
0.21875
 40
0.21875
 40
0.25
 40
0.25
 40
0.25
 40
0.25
 40
0.28125
 40
0.28125
 40
0.28125
 40
0.28125
 40
0.3125
 40
0.3125
 40
0.3125
 40
0.3125
 40
0.34375
 40
0.34375
 40
0.34375
 40
0.34375
 40
0.375
 40
0.375
 40
0.375
 40
0.375
 40
0.40625
 40
0.40625
 40
0.40625
 40
0.40625
 40
0.4375
 40
0.4375
 40
0.4375
 40
0.4375
 40
0.46875
 40
0.46875
 40
0.46875
 40
0.46875
 40
0.5
 40
0.5
 40
0.5
 40
0.5
 40
0.53125
 40
0.53125
 40
0.53125
 40
0.53125
 40
0.5625
 40
0.5625
 40
0.5625
 40
0.5625
 40
0.59375
 40
0.59375
 40
0.59375
 40
0.59375
 40
0.625
 40
0.625
 40
0.625
 40
0.625
 40
0.65625
 40
0.65625
 40
0.65625
 40
0.65625
 40
0.6875
 40
0.6875
 40
0.6875
 40
0.6875
 40
0.71875
 40
0.71875
 40
0.71875
 40
0.71875
 40
0.75
 40
0.75
 40
0.75
 40
0.75
 40
0.78125
 40
0.78125
 40
0.78125
 40
0.78125
 40
0.8125
 40
0.8125
 40
0.8125
 40
0.8125
 40
0.84375
 40
0.84375
 40
0.84375
 40
0.84375
 40
0.875
 40
0.875
 40
0.875
 40
0.875
 40
0.90625
 40
0.90625
 40
0.90625
 40
0.90625
 40
0.9375
 40
0.9375
 40
0.9375
 40
0.9375
 40
1.0
 40
1.0
 40
1.0
 40
1.0
 10
-2.26007
 20
13.09301
 30
0.0
 10
-2.0687
 20
12.41816
 30
0.0
 10
-2.46218
 20
11.7155
 30
0.0
 10
-3.13702
 20
11.52412
 30
0.0
 10
-3.13702
 20
11.52412
 30
0.0
 10
-3.23756
 20
11.49573
 30
0.0
 10
-3.34123
 20
11.47981
 30
0.0
 10
-3.44565
 20
11.47675
 30
0.0
 10
-3.44565
 20
11.47675
 30
0.0
 10
-3.93702
 20
11.44145
 30
0.0
 10
-4.39742
 20
11.7192
 30
0.0
 10
-4.59533
 20
12.17034
 30
0.0
 10
-4.59533
 20
12.17034
 30
0.0
 10
-4.79324
 20
12.62147
 30
0.0
 10
-4.68582
 20
13.14833
 30
0.0
 10
-4.32709
 20
13.48597
 30
0.0
 10
-4.32709
 20
13.48597
 30
0.0
 10
-3.96836
 20
13.82361
 30
0.0
 10
-3.41957
 20
13.89038
 30
0.0
 10
-2.98125
 20
13.66553
 30
0.0
 10
-2.98125
 20
13.66553
 30
0.0
 10
-2.92869
 20
13.62672
 30
0.0
 10
-2.89895
 20
13.56426
 30
0.0
 10
-2.90195
 20
13.499
 30
0.0
 10
-2.90195
 20
13.499
 30
0.0
 10
-2.90494
 20
13.43374
 30
0.0
 10
-2.94075
 20
13.37398
 30
0.0
 10
-2.99664
 20
13.34015
 30
0.0
 10
-2.99664
 20
13.34015
 30
0.0
 10
-3.05253
 20
13.30631
 30
0.0
 10
-3.12161
 20
13.30257
 30
0.0
 10
-3.18081
 20
13.33018
 30
0.0
 10
-3.18081
 20
13.33018
 30
0.0
 10
-3.24003
 20
13.35779
 30
0.0
 10
-3.28166
 20
13.41365
 30
0.0
 10
-3.29168
 20
13.47821
 30
0.0
 10
-3.29168
 20
13.47821
 30
0.0
 10
-3.29753
 20
13.51627
 30
0.0
 10
-3.32325
 20
13.54831
 30
0.0
 10
-3.35914
 20
13.56227
 30
0.0
 10
-3.35914
 20
13.56227
 30
0.0
 10
-3.39503
 20
13.57622
 30
0.0
 10
-3.43564
 20
13.56996
 30
0.0
 10
-3.46566
 20
13.54585
 30
0.0
 10
-3.46566
 20
13.54585
 30
0.0
 10
-3.49569
 20
13.52174
 30
0.0
 10
-3.51058
 20
13.48348
 30
0.0
 10
-3.50471
 20
13.44542
 30
0.0
 10
-3.50471
 20
13.44542
 30
0.0
 10
-3.46995
 20
13.22066
 30
0.0
 10
-3.26013
 20
13.06651
 30
0.0
 10
-3.03533
 20
13.10115
 30
0.0
 10
-3.03533
 20
13.10115
 30
0.0
 10
-2.83056
 20
13.13353
 30
0.0
 10
-2.68137
 20
13.3121
 30
0.0
 10
-2.68639
 20
13.51936
 30
0.0
 10
-2.68639
 20
13.51936
 30
0.0
 10
-2.45906
 20
13.51335
 30
0.0
 10
-2.26983
 20
13.6921
 30
0.0
 10
-2.26354
 20
13.91944
 30
0.0
 10
-2.26354
 20
13.91944
 30
0.0
 10
-2.25863
 20
14.12672
 30
0.0
 10
-2.40759
 20
14.30554
 30
0.0
 10
-2.61243
 20
14.33768
 30
0.0
 10
-2.61243
 20
14.33768
 30
0.0
 10
-2.65049
 20
14.34354
 30
0.0
 10
-2.68879
 20
14.32864
 30
0.0
 10
-2.71289
 20
14.29861
 30
0.0
 10
-2.71289
 20
14.29861
 30
0.0
 10
-2.737
 20
14.26858
 30
0.0
 10
-2.74324
 20
14.22796
 30
0.0
 10
-2.72928
 20
14.19207
 30
0.0
 10
-2.72928
 20
14.19207
 30
0.0
 10
-2.71531
 20
14.15619
 30
0.0
 10
-2.6833
 20
14.13049
 30
0.0
 10
-2.64524
 20
14.12465
 30
0.0
 10
-2.64524
 20
14.12465
 30
0.0
 10
-2.58066
 20
14.11479
 30
0.0
 10
-2.52523
 20
14.07339
 30
0.0
 10
-2.49746
 20
14.01426
 30
0.0
 10
-2.49746
 20
14.01426
 30
0.0
 10
-2.46968
 20
13.95513
 30
0.0
 10
-2.47348
 20
13.88558
 30
0.0
 10
-2.50713
 20
13.82958
 30
0.0
 10
-2.50713
 20
13.82958
 30
0.0
 10
-2.5408
 20
13.77356
 30
0.0
 10
-2.60019
 20
13.73803
 30
0.0
 10
-2.66546
 20
13.73486
 30
0.0
 10
-2.66546
 20
13.73486
 30
0.0
 10
-2.73075
 20
13.73169
 30
0.0
 10
-2.79363
 20
13.76175
 30
0.0
 10
-2.83256
 20
13.81425
 30
0.0
 10
-2.83256
 20
13.81425
 30
0.0
 10
-3.00119
 20
14.13584
 30
0.0
 10
-3.00963
 20
14.51782
 30
0.0
 10
-2.85535
 20
14.84655
 30
0.0
 10
-2.85535
 20
14.84655
 30
0.0
 10
-2.70107
 20
15.17527
 30
0.0
 10
-2.39936
 20
15.4134
 30
0.0
 10
-2.04424
 20
15.48919
 30
0.0
 10
-2.04424
 20
15.48919
 30
0.0
 10
-1.68908
 20
15.56498
 30
0.0
 10
-1.31891
 20
15.47017
 30
0.0
 10
-1.04391
 20
15.23298
 30
0.0
 10
-1.04391
 20
15.23298
 30
0.0
 10
-0.76892
 20
14.9958
 30
0.0
 10
-0.62095
 20
14.64102
 30
0.0
 10
-0.64378
 20
14.27857
 30
0.0
 10
-0.64378
 20
14.27857
 30
0.0
 10
-0.65345
 20
13.94188
 30
0.0
 10
-0.7965
 20
13.62282
 30
0.0
 10
-1.04142
 20
13.3916
 30
0.0
 10
-1.04142
 20
13.3916
 30
0.0
 10
-1.28635
 20
13.16037
 30
0.0
 10
-1.61471
 20
13.03596
 30
0.0
 10
-1.9514
 20
13.04566
 30
0.0
 10
-1.9514
 20
13.04566
 30
0.0
 10
-2.05584
 20
13.04867
 30
0.0
 10
-2.15953
 20
13.06458
 30
0.0
 10
-2.26006
 20
13.09304
 30
0.0
 10
-2.26006
 20
13.09304
 30
0.0
 10
-2.26006
 20
13.09304
 30
0.0
 10
-2.26007
 20
13.09301
 30
0.0
 10
-2.26007
 20
13.09301
 30
0.0
  0
SPLINE
  5
57
330
1F
100
AcDbEntity
  8
Layer 1
 62
   177
100
AcDbSpline
210
0.0
220
0.0
230
1.0
 70
    11
 71
     3
 72
   128
 73
   124
 74
     0
 42
0.0000000001
 43
0.0000000001
 12
1.0
 22
0.0
 32
0.0
 13
1.0
 23
0.0
 33
0.0
 40
0.0
 40
0.0
 40
0.0
 40
0.0
 40
0.03125
 40
0.03125
 40
0.03125
 40
0.03125
 40
0.0625
 40
0.0625
 40
0.0625
 40
0.0625
 40
0.09375
 40
0.09375
 40
0.09375
 40
0.09375
 40
0.125
 40
0.125
 40
0.125
 40
0.125
 40
0.15625
 40
0.15625
 40
0.15625
 40
0.15625
 40
0.1875
 40
0.1875
 40
0.1875
 40
0.1875
 40
0.21875
 40
0.21875
 40
0.21875
 40
0.21875
 40
0.25
 40
0.25
 40
0.25
 40
0.25
 40
0.28125
 40
0.28125
 40
0.28125
 40
0.28125
 40
0.3125
 40
0.3125
 40
0.3125
 40
0.3125
 40
0.34375
 40
0.34375
 40
0.34375
 40
0.34375
 40
0.375
 40
0.375
 40
0.375
 40
0.375
 40
0.40625
 40
0.40625
 40
0.40625
 40
0.40625
 40
0.4375
 40
0.4375
 40
0.4375
 40
0.4375
 40
0.46875
 40
0.46875
 40
0.46875
 40
0.46875
 40
0.5
 40
0.5
 40
0.5
 40
0.5
 40
0.53125
 40
0.53125
 40
0.53125
 40
0.53125
 40
0.5625
 40
0.5625
 40
0.5625
 40
0.5625
 40
0.59375
 40
0.59375
 40
0.59375
 40
0.59375
 40
0.625
 40
0.625
 40
0.625
 40
0.625
 40
0.65625
 40
0.65625
 40
0.65625
 40
0.65625
 40
0.6875
 40
0.6875
 40
0.6875
 40
0.6875
 40
0.71875
 40
0.71875
 40
0.71875
 40
0.71875
 40
0.75
 40
0.75
 40
0.75
 40
0.75
 40
0.78125
 40
0.78125
 40
0.78125
 40
0.78125
 40
0.8125
 40
0.8125
 40
0.8125
 40
0.8125
 40
0.84375
 40
0.84375
 40
0.84375
 40
0.84375
 40
0.875
 40
0.875
 40
0.875
 40
0.875
 40
0.90625
 40
0.90625
 40
0.90625
 40
0.90625
 40
0.9375
 40
0.9375
 40
0.9375
 40
0.9375
 40
1.0
 40
1.0
 40
1.0
 40
1.0
 10
1.34617
 20
13.09307
 30
0.0
 10
1.02212
 20
13.00113
 30
0.0
 10
0.67481
 20
13.04169
 30
0.0
 10
0.38065
 20
13.20582
 30
0.0
 10
0.38065
 20
13.20582
 30
0.0
 10
0.0865
 20
13.36995
 30
0.0
 10
-0.13083
 20
13.64576
 30
0.0
 10
-0.22278
 20
13.96982
 30
0.0
 10
-0.22278
 20
13.96982
 30
0.0
 10
-0.25123
 20
14.07036
 30
0.0
 10
-0.26718
 20
14.17406
 30
0.0
 10
-0.27022
 20
14.27851
 30
0.0
 10
-0.27022
 20
14.27851
 30
0.0
 10
-0.30557
 20
14.76989
 30
0.0
 10
-0.02785
 20
15.23033
 30
0.0
 10
0.42328
 20
15.42828
 30
0.0
 10
0.42328
 20
15.42828
 30
0.0
 10
0.87441
 20
15.62622
 30
0.0
 10
1.40129
 20
15.51883
 30
0.0
 10
1.73896
 20
15.16011
 30
0.0
 10
1.73896
 20
15.16011
 30
0.0
 10
2.07662
 20
14.80138
 30
0.0
 10
2.14341
 20
14.25259
 30
0.0
 10
1.91856
 20
13.81425
 30
0.0
 10
1.91856
 20
13.81425
 30
0.0
 10
1.87976
 20
13.7617
 30
0.0
 10
1.81731
 20
13.73195
 30
0.0
 10
1.75205
 20
13.73494
 30
0.0
 10
1.75205
 20
13.73494
 30
0.0
 10
1.68679
 20
13.73793
 30
0.0
 10
1.62703
 20
13.77373
 30
0.0
 10
1.59319
 20
13.82962
 30
0.0
 10
1.59319
 20
13.82962
 30
0.0
 10
1.55935
 20
13.8855
 30
0.0
 10
1.55561
 20
13.95458
 30
0.0
 10
1.58322
 20
14.01379
 30
0.0
 10
1.58322
 20
14.01379
 30
0.0
 10
1.61083
 20
14.073
 30
0.0
 10
1.66669
 20
14.11463
 30
0.0
 10
1.73124
 20
14.12465
 30
0.0
 10
1.73124
 20
14.12465
 30
0.0
 10
1.7693
 20
14.1305
 30
0.0
 10
1.80134
 20
14.15621
 30
0.0
 10
1.8153
 20
14.1921
 30
0.0
 10
1.8153
 20
14.1921
 30
0.0
 10
1.82926
 20
14.22798
 30
0.0
 10
1.82301
 20
14.26859
 30
0.0
 10
1.79891
 20
14.29862
 30
0.0
 10
1.79891
 20
14.29862
 30
0.0
 10
1.7748
 20
14.32864
 30
0.0
 10
1.73653
 20
14.34354
 30
0.0
 10
1.69847
 20
14.33768
 30
0.0
 10
1.69847
 20
14.33768
 30
0.0
 10
1.4737
 20
14.30292
 30
0.0
 10
1.31954
 20
14.0931
 30
0.0
 10
1.35419
 20
13.8683
 30
0.0
 10
1.35419
 20
13.8683
 30
0.0
 10
1.38656
 20
13.66353
 30
0.0
 10
1.56513
 20
13.51434
 30
0.0
 10
1.77239
 20
13.51936
 30
0.0
 10
1.77239
 20
13.51936
 30
0.0
 10
1.76636
 20
13.29201
 30
0.0
 10
1.94515
 20
13.10276
 30
0.0
 10
2.1725
 20
13.09654
 30
0.0
 10
2.1725
 20
13.09654
 30
0.0
 10
2.37979
 20
13.09162
 30
0.0
 10
2.55859
 20
13.24061
 30
0.0
 10
2.59071
 20
13.44545
 30
0.0
 10
2.59071
 20
13.44545
 30
0.0
 10
2.59656
 20
13.4835
 30
0.0
 10
2.58167
 20
13.52179
 30
0.0
 10
2.55163
 20
13.54588
 30
0.0
 10
2.55163
 20
13.54588
 30
0.0
 10
2.5216
 20
13.56998
 30
0.0
 10
2.48099
 20
13.57622
 30
0.0
 10
2.44511
 20
13.56226
 30
0.0
 10
2.44511
 20
13.56226
 30
0.0
 10
2.40924
 20
13.54829
 30
0.0
 10
2.38354
 20
13.51627
 30
0.0
 10
2.37769
 20
13.47821
 30
0.0
 10
2.37769
 20
13.47821
 30
0.0
 10
2.36784
 20
13.41363
 30
0.0
 10
2.32644
 20
13.35821
 30
0.0
 10
2.26731
 20
13.33043
 30
0.0
 10
2.26731
 20
13.33043
 30
0.0
 10
2.20818
 20
13.30266
 30
0.0
 10
2.13863
 20
13.30645
 30
0.0
 10
2.08263
 20
13.34009
 30
0.0
 10
2.08263
 20
13.34009
 30
0.0
 10
2.0266
 20
13.37375
 30
0.0
 10
1.99106
 20
13.43315
 30
0.0
 10
1.98789
 20
13.49842
 30
0.0
 10
1.98789
 20
13.49842
 30
0.0
 10
1.98472
 20
13.56371
 30
0.0
 10
2.01478
 20
13.6266
 30
0.0
 10
2.06728
 20
13.66553
 30
0.0
 10
2.06728
 20
13.66553
 30
0.0
 10
2.50199
 20
13.89735
 30
0.0
 10
3.03555
 20
13.83048
 30
0.0
 10
3.39962
 20
13.49856
 30
0.0
 10
3.39962
 20
13.49856
 30
0.0
 10
3.76369
 20
13.16665
 30
0.0
 10
3.87947
 20
12.64153
 30
0.0
 10
3.68872
 20
12.1873
 30
0.0
 10
3.68872
 20
12.1873
 30
0.0
 10
3.49797
 20
11.73306
 30
0.0
 10
3.02354
 20
11.44922
 30
0.0
 10
2.53165
 20
11.47675
 30
0.0
 10
2.53165
 20
11.47675
 30
0.0
 10
2.19495
 20
11.48641
 30
0.0
 10
1.87589
 20
11.62944
 30
0.0
 10
1.64465
 20
11.87437
 30
0.0
 10
1.64465
 20
11.87437
 30
0.0
 10
1.41341
 20
12.11929
 30
0.0
 10
1.28899
 20
12.44765
 30
0.0
 10
1.29869
 20
12.78435
 30
0.0
 10
1.29869
 20
12.78435
 30
0.0
 10
1.3017
 20
12.88879
 30
0.0
 10
1.31761
 20
12.99248
 30
0.0
 10
1.34607
 20
13.09301
 30
0.0
 10
1.34607
 20
13.09301
 30
0.0
 10
1.34607
 20
13.09301
 30
0.0
 10
1.34617
 20
13.09307
 30
0.0
 10
1.34617
 20
13.09307
 30
0.0
  0
SPLINE
  5
58
330
1F
100
AcDbEntity
  8
Layer 1
 62
   177
100
AcDbSpline
210
0.0
220
0.0
230
1.0
 70
    11
 71
     3
 72
   124
 73
   120
 74
     0
 42
0.0000000001
 43
0.0000000001
 12
1.0
 22
0.0
 32
0.0
 13
1.0
 23
0.0
 33
0.0
 40
0.0
 40
0.0
 40
0.0
 40
0.0
 40
0.032258064516129
 40
0.032258064516129
 40
0.032258064516129
 40
0.032258064516129
 40
0.0645161290322581
 40
0.0645161290322581
 40
0.0645161290322581
 40
0.0645161290322581
 40
0.0967741935483871
 40
0.0967741935483871
 40
0.0967741935483871
 40
0.0967741935483871
 40
0.1290322580645161
 40
0.1290322580645161
 40
0.1290322580645161
 40
0.1290322580645161
 40
0.1612903225806452
 40
0.1612903225806452
 40
0.1612903225806452
 40
0.1612903225806452
 40
0.1935483870967742
 40
0.1935483870967742
 40
0.1935483870967742
 40
0.1935483870967742
 40
0.2258064516129032
 40
0.2258064516129032
 40
0.2258064516129032
 40
0.2258064516129032
 40
0.2580645161290323
 40
0.2580645161290323
 40
0.2580645161290323
 40
0.2580645161290323
 40
0.2903225806451613
 40
0.2903225806451613
 40
0.2903225806451613
 40
0.2903225806451613
 40
0.3225806451612903
 40
0.3225806451612903
 40
0.3225806451612903
 40
0.3225806451612903
 40
0.3548387096774194
 40
0.3548387096774194
 40
0.3548387096774194
 40
0.3548387096774194
 40
0.3870967741935484
 40
0.3870967741935484
 40
0.3870967741935484
 40
0.3870967741935484
 40
0.4193548387096774
 40
0.4193548387096774
 40
0.4193548387096774
 40
0.4193548387096774
 40
0.4516129032258064
 40
0.4516129032258064
 40
0.4516129032258064
 40
0.4516129032258064
 40
0.4838709677419355
 40
0.4838709677419355
 40
0.4838709677419355
 40
0.4838709677419355
 40
0.5161290322580645
 40
0.5161290322580645
 40
0.5161290322580645
 40
0.5161290322580645
 40
0.5483870967741935
 40
0.5483870967741935
 40
0.5483870967741935
 40
0.5483870967741935
 40
0.5806451612903226
 40
0.5806451612903226
 40
0.5806451612903226
 40
0.5806451612903226
 40
0.6129032258064516
 40
0.6129032258064516
 40
0.6129032258064516
 40
0.6129032258064516
 40
0.6451612903225806
 40
0.6451612903225806
 40
0.6451612903225806
 40
0.6451612903225806
 40
0.6774193548387096
 40
0.6774193548387096
 40
0.6774193548387096
 40
0.6774193548387096
 40
0.7096774193548387
 40
0.7096774193548387
 40
0.7096774193548387
 40
0.7096774193548387
 40
0.7419354838709677
 40
0.7419354838709677
 40
0.7419354838709677
 40
0.7419354838709677
 40
0.7741935483870968
 40
0.7741935483870968
 40
0.7741935483870968
 40
0.7741935483870968
 40
0.8064516129032258
 40
0.8064516129032258
 40
0.8064516129032258
 40
0.8064516129032258
 40
0.8387096774193549
 40
0.8387096774193549
 40
0.8387096774193549
 40
0.8387096774193549
 40
0.8709677419354839
 40
0.8709677419354839
 40
0.8709677419354839
 40
0.8709677419354839
 40
0.9032258064516129
 40
0.9032258064516129
 40
0.9032258064516129
 40
0.9032258064516129
 40
0.9354838709677419
 40
0.9354838709677419
 40
0.9354838709677419
 40
0.9354838709677419
 40
1.0
 40
1.0
 40
1.0
 40
1.0
 10
-2.26007
 20
9.48694
 30
0.0
 10
-2.06932
 20
10.16288
 30
0.0
 10
-2.46109
 20
10.86504
 30
0.0
 10
-3.13702
 20
11.05581
 30
0.0
 10
-3.13702
 20
11.05581
 30
0.0
 10
-3.23756
 20
11.08421
 30
0.0
 10
-3.34119
 20
11.10013
 30
0.0
 10
-3.44561
 20
11.10319
 30
0.0
 10
-3.44561
 20
11.10319
 30
0.0
 10
-3.93527
 20
11.13045
 30
0.0
 10
-4.38908
 20
10.84658
 30
0.0
 10
-4.57883
 20
10.39437
 30
0.0
 10
-4.57883
 20
10.39437
 30
0.0
 10
-4.76859
 20
9.94215
 30
0.0
 10
-4.65321
 20
9.41945
 30
0.0
 10
-4.29071
 20
9.08914
 30
0.0
 10
-4.29071
 20
9.08914
 30
0.0
 10
-3.92823
 20
8.75882
 30
0.0
 10
-3.41396
 20
8.68356
 30
0.0
 10
-2.98128
 20
8.9144
 30
0.0
 10
-2.98128
 20
8.9144
 30
0.0
 10
-2.92873
 20
8.95343
 30
0.0
 10
-2.8991
 20
9.01609
 30
0.0
 10
-2.90227
 20
9.08147
 30
0.0
 10
-2.90227
 20
9.08147
 30
0.0
 10
-2.90545
 20
9.14685
 30
0.0
 10
-2.94053
 20
9.20606
 30
0.0
 10
-2.99661
 20
9.23982
 30
0.0
 10
-2.99661
 20
9.23982
 30
0.0
 10
-3.0527
 20
9.27359
 30
0.0
 10
-3.12194
 20
9.27715
 30
0.0
 10
-3.1812
 20
9.24932
 30
0.0
 10
-3.1812
 20
9.24932
 30
0.0
 10
-3.24046
 20
9.22148
 30
0.0
 10
-3.28184
 20
9.16646
 30
0.0
 10
-3.29168
 20
9.10173
 30
0.0
 10
-3.29168
 20
9.10173
 30
0.0
 10
-3.29753
 20
9.06367
 30
0.0
 10
-3.32324
 20
9.03163
 30
0.0
 10
-3.35913
 20
9.01767
 30
0.0
 10
-3.35913
 20
9.01767
 30
0.0
 10
-3.39501
 20
9.00371
 30
0.0
 10
-3.43562
 20
9.00996
 30
0.0
 10
-3.46564
 20
9.03406
 30
0.0
 10
-3.46564
 20
9.03406
 30
0.0
 10
-3.49567
 20
9.05817
 30
0.0
 10
-3.51057
 20
9.09644
 30
0.0
 10
-3.50471
 20
9.1345
 30
0.0
 10
-3.50471
 20
9.1345
 30
0.0
 10
-3.47028
 20
9.35903
 30
0.0
 10
-3.25988
 20
9.5131
 30
0.0
 10
-3.03533
 20
9.47878
 30
0.0
 10
-3.03533
 20
9.47878
 30
0.0
 10
-2.83075
 20
9.44664
 30
0.0
 10
-2.68157
 20
9.26761
 30
0.0
 10
-2.68639
 20
9.06058
 30
0.0
 10
-2.68639
 20
9.06058
 30
0.0
 10
-2.45934
 20
9.06691
 30
0.0
 10
-2.27007
 20
8.88755
 30
0.0
 10
-2.26354
 20
8.66049
 30
0.0
 10
-2.26354
 20
8.66049
 30
0.0
 10
-2.25846
 20
8.45345
 30
0.0
 10
-2.40787
 20
8.27458
 30
0.0
 10
-2.61243
 20
8.24226
 30
0.0
 10
-2.61243
 20
8.24226
 30
0.0
 10
-2.65049
 20
8.2364
 30
0.0
 10
-2.68879
 20
8.2513
 30
0.0
 10
-2.71289
 20
8.28133
 30
0.0
 10
-2.71289
 20
8.28133
 30
0.0
 10
-2.73699
 20
8.31136
 30
0.0
 10
-2.74323
 20
8.35198
 30
0.0
 10
-2.72926
 20
8.38786
 30
0.0
 10
-2.72926
 20
8.38786
 30
0.0
 10
-2.71529
 20
8.42374
 30
0.0
 10
-2.6833
 20
8.44944
 30
0.0
 10
-2.64524
 20
8.45528
 30
0.0
 10
-2.64524
 20
8.45528
 30
0.0
 10
-2.58057
 20
8.46534
 30
0.0
 10
-2.52517
 20
8.50696
 30
0.0
 10
-2.4975
 20
8.56628
 30
0.0
 10
-2.4975
 20
8.56628
 30
0.0
 10
-2.46983
 20
8.6256
 30
0.0
 10
-2.47327
 20
8.69433
 30
0.0
 10
-2.50713
 20
8.75034
 30
0.0
 10
-2.50713
 20
8.75034
 30
0.0
 10
-2.54101
 20
8.80638
 30
0.0
 10
-2.60061
 20
8.84181
 30
0.0
 10
-2.66603
 20
8.84481
 30
0.0
 10
-2.66603
 20
8.84481
 30
0.0
 10
-2.73144
 20
8.8478
 30
0.0
 10
-2.7937
 20
8.8184
 30
0.0
 10
-2.83256
 20
8.76569
 30
0.0
 10
-2.83256
 20
8.76569
 30
0.0
 10
-3.05634
 20
8.32926
 30
0.0
 10
-2.98121
 20
7.79922
 30
0.0
 10
-2.64498
 20
7.44216
 30
0.0
 10
-2.64498
 20
7.44216
 30
0.0
 10
-2.30873
 20
7.08511
 30
0.0
 10
-1.78416
 20
6.97832
 30
0.0
 10
-1.33508
 20
7.1755
 30
0.0
 10
-1.33508
 20
7.1755
 30
0.0
 10
-0.88601
 20
7.37268
 30
0.0
 10
-0.60843
 20
7.81218
 30
0.0
 10
-0.64378
 20
8.30137
 30
0.0
 10
-0.64378
 20
8.30137
 30
0.0
 10
-0.6539
 20
8.63847
 30
0.0
 10
-0.79751
 20
8.95775
 30
0.0
 10
-1.04305
 20
9.18896
 30
0.0
 10
-1.04305
 20
9.18896
 30
0.0
 10
-1.28858
 20
9.42017
 30
0.0
 10
-1.61429
 20
9.54442
 30
0.0
 10
-1.9514
 20
9.53428
 30
0.0
 10
-1.9514
 20
9.53428
 30
0.0
 10
-2.05586
 20
9.53127
 30
0.0
 10
-2.15951
 20
9.51536
 30
0.0
 10
-2.26006
 20
9.4869
 30
0.0
 10
-2.26006
 20
9.4869
 30
0.0
 10
-2.26006
 20
9.4869
 30
0.0
 10
-2.26007
 20
9.48694
 30
0.0
 10
-2.26007
 20
9.48694
 30
0.0
  0
SPLINE
  5
59
330
1F
100
AcDbEntity
  8
Layer 1
 62
   177
100
AcDbSpline
210
0.0
220
0.0
230
1.0
 70
    11
 71
     3
 72
   124
 73
   120
 74
     0
 42
0.0000000001
 43
0.0000000001
 12
1.0
 22
0.0
 32
0.0
 13
1.0
 23
0.0
 33
0.0
 40
0.0
 40
0.0
 40
0.0
 40
0.0
 40
0.032258064516129
 40
0.032258064516129
 40
0.032258064516129
 40
0.032258064516129
 40
0.0645161290322581
 40
0.0645161290322581
 40
0.0645161290322581
 40
0.0645161290322581
 40
0.0967741935483871
 40
0.0967741935483871
 40
0.0967741935483871
 40
0.0967741935483871
 40
0.1290322580645161
 40
0.1290322580645161
 40
0.1290322580645161
 40
0.1290322580645161
 40
0.1612903225806452
 40
0.1612903225806452
 40
0.1612903225806452
 40
0.1612903225806452
 40
0.1935483870967742
 40
0.1935483870967742
 40
0.1935483870967742
 40
0.1935483870967742
 40
0.2258064516129032
 40
0.2258064516129032
 40
0.2258064516129032
 40
0.2258064516129032
 40
0.2580645161290323
 40
0.2580645161290323
 40
0.2580645161290323
 40
0.2580645161290323
 40
0.2903225806451613
 40
0.2903225806451613
 40
0.2903225806451613
 40
0.2903225806451613
 40
0.3225806451612903
 40
0.3225806451612903
 40
0.3225806451612903
 40
0.3225806451612903
 40
0.3548387096774194
 40
0.3548387096774194
 40
0.3548387096774194
 40
0.3548387096774194
 40
0.3870967741935484
 40
0.3870967741935484
 40
0.3870967741935484
 40
0.3870967741935484
 40
0.4193548387096774
 40
0.4193548387096774
 40
0.4193548387096774
 40
0.4193548387096774
 40
0.4516129032258064
 40
0.4516129032258064
 40
0.4516129032258064
 40
0.4516129032258064
 40
0.4838709677419355
 40
0.4838709677419355
 40
0.4838709677419355
 40
0.4838709677419355
 40
0.5161290322580645
 40
0.5161290322580645
 40
0.5161290322580645
 40
0.5161290322580645
 40
0.5483870967741935
 40
0.5483870967741935
 40
0.5483870967741935
 40
0.5483870967741935
 40
0.5806451612903226
 40
0.5806451612903226
 40
0.5806451612903226
 40
0.5806451612903226
 40
0.6129032258064516
 40
0.6129032258064516
 40
0.6129032258064516
 40
0.6129032258064516
 40
0.6451612903225806
 40
0.6451612903225806
 40
0.6451612903225806
 40
0.6451612903225806
 40
0.6774193548387096
 40
0.6774193548387096
 40
0.6774193548387096
 40
0.6774193548387096
 40
0.7096774193548387
 40
0.7096774193548387
 40
0.7096774193548387
 40
0.7096774193548387
 40
0.7419354838709677
 40
0.7419354838709677
 40
0.7419354838709677
 40
0.7419354838709677
 40
0.7741935483870968
 40
0.7741935483870968
 40
0.7741935483870968
 40
0.7741935483870968
 40
0.8064516129032258
 40
0.8064516129032258
 40
0.8064516129032258
 40
0.8064516129032258
 40
0.8387096774193549
 40
0.8387096774193549
 40
0.8387096774193549
 40
0.8387096774193549
 40
0.8709677419354839
 40
0.8709677419354839
 40
0.8709677419354839
 40
0.8709677419354839
 40
0.9032258064516129
 40
0.9032258064516129
 40
0.9032258064516129
 40
0.9032258064516129
 40
0.9354838709677419
 40
0.9354838709677419
 40
0.9354838709677419
 40
0.9354838709677419
 40
1.0
 40
1.0
 40
1.0
 40
1.0
 10
1.34607
 20
9.48693
 30
0.0
 10
1.15471
 20
10.16178
 30
0.0
 10
1.54819
 20
10.86443
 30
0.0
 10
2.22302
 20
11.05582
 30
0.0
 10
2.22302
 20
11.05582
 30
0.0
 10
2.32355
 20
11.08421
 30
0.0
 10
2.42721
 20
11.10012
 30
0.0
 10
2.53161
 20
11.10319
 30
0.0
 10
2.53161
 20
11.10319
 30
0.0
 10
3.02298
 20
11.13851
 30
0.0
 10
3.48339
 20
10.86076
 30
0.0
 10
3.68132
 20
10.40965
 30
0.0
 10
3.68132
 20
10.40965
 30
0.0
 10
3.87924
 20
9.95853
 30
0.0
 10
3.77184
 20
9.43166
 30
0.0
 10
3.41313
 20
9.09401
 30
0.0
 10
3.41313
 20
9.09401
 30
0.0
 10
3.0544
 20
8.75635
 30
0.0
 10
2.50562
 20
8.68957
 30
0.0
 10
2.06729
 20
8.9144
 30
0.0
 10
2.06729
 20
8.9144
 30
0.0
 10
2.01473
 20
8.95321
 30
0.0
 10
1.98497
 20
9.01566
 30
0.0
 10
1.98796
 20
9.08093
 30
0.0
 10
1.98796
 20
9.08093
 30
0.0
 10
1.99094
 20
9.1462
 30
0.0
 10
2.02673
 20
9.20597
 30
0.0
 10
2.08261
 20
9.23983
 30
0.0
 10
2.08261
 20
9.23983
 30
0.0
 10
2.1385
 20
9.27368
 30
0.0
 10
2.2076
 20
9.27743
 30
0.0
 10
2.26683
 20
9.24982
 30
0.0
 10
2.26683
 20
9.24982
 30
0.0
 10
2.32605
 20
9.2222
 30
0.0
 10
2.36769
 20
9.16631
 30
0.0
 10
2.37768
 20
9.10173
 30
0.0
 10
2.37768
 20
9.10173
 30
0.0
 10
2.38353
 20
9.06367
 30
0.0
 10
2.40925
 20
9.03163
 30
0.0
 10
2.44514
 20
9.01767
 30
0.0
 10
2.44514
 20
9.01767
 30
0.0
 10
2.48103
 20
9.00372
 30
0.0
 10
2.52164
 20
9.00998
 30
0.0
 10
2.55166
 20
9.03409
 30
0.0
 10
2.55166
 20
9.03409
 30
0.0
 10
2.58168
 20
9.0582
 30
0.0
 10
2.59657
 20
9.09646
 30
0.0
 10
2.59071
 20
9.13452
 30
0.0
 10
2.59071
 20
9.13452
 30
0.0
 10
2.55595
 20
9.35928
 30
0.0
 10
2.34613
 20
9.51343
 30
0.0
 10
2.12133
 20
9.47878
 30
0.0
 10
2.12133
 20
9.47878
 30
0.0
 10
1.91656
 20
9.44641
 30
0.0
 10
1.76737
 20
9.26783
 30
0.0
 10
1.77239
 20
9.06058
 30
0.0
 10
1.77239
 20
9.06058
 30
0.0
 10
1.54503
 20
9.06662
 30
0.0
 10
1.35577
 20
8.88782
 30
0.0
 10
1.34954
 20
8.66047
 30
0.0
 10
1.34954
 20
8.66047
 30
0.0
 10
1.34464
 20
8.45318
 30
0.0
 10
1.49363
 20
8.27438
 30
0.0
 10
1.69847
 20
8.24226
 30
0.0
 10
1.69847
 20
8.24226
 30
0.0
 10
1.73653
 20
8.23641
 30
0.0
 10
1.77482
 20
8.2513
 30
0.0
 10
1.79891
 20
8.28134
 30
0.0
 10
1.79891
 20
8.28134
 30
0.0
 10
1.82301
 20
8.31137
 30
0.0
 10
1.82925
 20
8.35198
 30
0.0
 10
1.81528
 20
8.38785
 30
0.0
 10
1.81528
 20
8.38785
 30
0.0
 10
1.80132
 20
8.42373
 30
0.0
 10
1.7693
 20
8.44943
 30
0.0
 10
1.73124
 20
8.45528
 30
0.0
 10
1.73124
 20
8.45528
 30
0.0
 10
1.66667
 20
8.46513
 30
0.0
 10
1.61125
 20
8.50654
 30
0.0
 10
1.58348
 20
8.56567
 30
0.0
 10
1.58348
 20
8.56567
 30
0.0
 10
1.5557
 20
8.62479
 30
0.0
 10
1.55951
 20
8.69434
 30
0.0
 10
1.59315
 20
8.75034
 30
0.0
 10
1.59315
 20
8.75034
 30
0.0
 10
1.62681
 20
8.80636
 30
0.0
 10
1.68619
 20
8.8419
 30
0.0
 10
1.75147
 20
8.84508
 30
0.0
 10
1.75147
 20
8.84508
 30
0.0
 10
1.81675
 20
8.84825
 30
0.0
 10
1.87964
 20
8.81819
 30
0.0
 10
1.91857
 20
8.76569
 30
0.0
 10
1.91857
 20
8.76569
 30
0.0
 10
2.1504
 20
8.33097
 30
0.0
 10
2.08354
 20
7.79738
 30
0.0
 10
1.75161
 20
7.4333
 30
0.0
 10
1.75161
 20
7.4333
 30
0.0
 10
1.41968
 20
7.06922
 30
0.0
 10
0.89453
 20
6.95346
 30
0.0
 10
0.44028
 20
7.14423
 30
0.0
 10
0.44028
 20
7.14423
 30
0.0
 10
-0.01395
 20
7.335
 30
0.0
 10
-0.29779
 20
7.80946
 30
0.0
 10
-0.27022
 20
8.30137
 30
0.0
 10
-0.27022
 20
8.30137
 30
0.0
 10
-0.26053
 20
8.63807
 30
0.0
 10
-0.11747
 20
8.95714
 30
0.0
 10
0.12748
 20
9.18836
 30
0.0
 10
0.12748
 20
9.18836
 30
0.0
 10
0.37242
 20
9.41959
 30
0.0
 10
0.7008
 20
9.54399
 30
0.0
 10
1.03751
 20
9.53428
 30
0.0
 10
1.03751
 20
9.53428
 30
0.0
 10
1.14193
 20
9.53127
 30
0.0
 10
1.2456
 20
9.51535
 30
0.0
 10
1.34611
 20
9.48689
 30
0.0
 10
1.34611
 20
9.48689
 30
0.0
 10
1.34611
 20
9.48689
 30
0.0
 10
1.34607
 20
9.48693
 30
0.0
 10
1.34607
 20
9.48693
 30
0.0
  0
SPLINE
  5
5A
330
1F
100
AcDbEntity
  8
Layer 1
 62
   177
100
AcDbSpline
210
0.0
220
0.0
230
1.0
 70
    11
 71
     3
 72
    40
 73
    36
 74
     0
 42
0.0000000001
 43
0.0000000001
 12
1.0
 22
0.0
 32
0.0
 13
1.0
 23
0.0
 33
0.0
 40
0.0
 40
0.0
 40
0.0
 40
0.0
 40
0.1
 40
0.1
 40
0.1
 40
0.1
 40
0.2
 40
0.2
 40
0.2
 40
0.2
 40
0.3
 40
0.3
 40
0.3
 40
0.3
 40
0.4
 40
0.4
 40
0.4
 40
0.4
 40
0.5
 40
0.5
 40
0.5
 40
0.5
 40
0.6
 40
0.6
 40
0.6
 40
0.6
 40
0.7
 40
0.7
 40
0.7
 40
0.7
 40
0.8
 40
0.8
 40
0.8
 40
0.8
 40
1.0
 40
1.0
 40
1.0
 40
1.0
 10
-0.45702
 20
8.55747
 30
0.0
 10
-0.6062
 20
9.28142
 30
0.0
 10
-1.26093
 20
9.78754
 30
0.0
 10
-1.99902
 20
9.74792
 30
0.0
 10
-1.99902
 20
9.74792
 30
0.0
 10
-1.96008
 20
10.48605
 30
0.0
 10
-2.46534
 20
11.14143
 30
0.0
 10
-3.18941
 20
11.28999
 30
0.0
 10
-3.18941
 20
11.28999
 30
0.0
 10
-2.46551
 20
11.43922
 30
0.0
 10
-1.95943
 20
12.09393
 30
0.0
 10
-1.99902
 20
12.83199
 30
0.0
 10
-1.99902
 20
12.83199
 30
0.0
 10
-1.26089
 20
12.79302
 30
0.0
 10
-0.60551
 20
13.2983
 30
0.0
 10
-0.45702
 20
14.02239
 30
0.0
 10
-0.45702
 20
14.02239
 30
0.0
 10
-0.30779
 20
13.29848
 30
0.0
 10
0.34692
 20
12.7924
 30
0.0
 10
1.085
 20
12.83199
 30
0.0
 10
1.085
 20
12.83199
 30
0.0
 10
1.04608
 20
12.09387
 30
0.0
 10
1.55135
 20
11.43851
 30
0.0
 10
2.27542
 20
11.28999
 30
0.0
 10
2.27542
 20
11.28999
 30
0.0
 10
1.5515
 20
11.14074
 30
0.0
 10
1.04543
 20
10.486
 30
0.0
 10
1.08504
 20
9.74792
 30
0.0
 10
1.08504
 20
9.74792
 30
0.0
 10
0.34691
 20
9.78689
 30
0.0
 10
-0.30849
 20
9.28163
 30
0.0
 10
-0.45702
 20
8.55755
 30
0.0
 10
-0.45702
 20
8.55755
 30
0.0
 10
-0.45702
 20
8.55755
 30
0.0
 10
-0.45702
 20
8.55747
 30
0.0
 10
-0.45702
 20
8.55747
 30
0.0
  0
SPLINE
  5
5B
330
1F
100
AcDbEntity
  8
Layer 1
 62
   177
100
AcDbSpline
210
0.0
220
0.0
230
1.0
 70
    11
 71
     3
 72
    16
 73
    12
 74
     0
 42
0.0000000001
 43
0.0000000001
 12
1.0
 22
0.0
 32
0.0
 13
1.0
 23
0.0
 33
0.0
 40
0.0
 40
0.0
 40
0.0
 40
0.0
 40
0.25
 40
0.25
 40
0.25
 40
0.25
 40
0.5
 40
0.5
 40
0.5
 40
0.5
 40
1.0
 40
1.0
 40
1.0
 40
1.0
 10
0.59287
 20
6.88234
 30
0.0
 10
0.59287
 20
6.88234
 30
0.0
 10
-1.50682
 20
6.88234
 30
0.0
 10
-1.50682
 20
6.88234
 30
0.0
 10
-1.50682
 20
6.88234
 30
0.0
 10
-0.98259
 20
7.00168
 30
0.0
 10
-0.57407
 20
7.41148
 30
0.0
 10
-0.45702
 20
7.93622
 30
0.0
 10
-0.45702
 20
7.93622
 30
0.0
 10
-0.33962
 20
7.41156
 30
0.0
 10
0.0686
 20
7.00146
 30
0.0
 10
0.59287
 20
6.88234
 30
0.0
  0
SPLINE
  5
5C
330
1F
100
AcDbEntity
  8
Layer 1
 62
   177
100
AcDbSpline
210
0.0
220
0.0
230
1.0
 70
    11
 71
     3
 72
    32
 73
    28
 74
     0
 42
0.0000000001
 43
0.0000000001
 12
1.0
 22
0.0
 32
0.0
 13
1.0
 23
0.0
 33
0.0
 40
0.0
 40
0.0
 40
0.0
 40
0.0
 40
0.125
 40
0.125
 40
0.125
 40
0.125
 40
0.25
 40
0.25
 40
0.25
 40
0.25
 40
0.375
 40
0.375
 40
0.375
 40
0.375
 40
0.5
 40
0.5
 40
0.5
 40
0.5
 40
0.625
 40
0.625
 40
0.625
 40
0.625
 40
0.75
 40
0.75
 40
0.75
 40
0.75
 40
1.0
 40
1.0
 40
1.0
 40
1.0
 10
1.18546
 20
6.88235
 30
0.0
 10
1.9286
 20
7.04655
 30
0.0
 10
2.39832
 20
7.78037
 30
0.0
 10
2.23416
 20
8.52352
 30
0.0
 10
2.23416
 20
8.52352
 30
0.0
 10
2.22658
 20
8.55777
 30
0.0
 10
2.21774
 20
8.59173
 30
0.0
 10
2.20765
 20
8.62532
 30
0.0
 10
2.20765
 20
8.62532
 30
0.0
 10
2.93642
 20
8.40587
 30
0.0
 10
3.70462
 20
8.81703
 30
0.0
 10
3.92417
 20
9.54577
 30
0.0
 10
3.92417
 20
9.54577
 30
0.0
 10
3.93426
 20
9.57937
 30
0.0
 10
3.94309
 20
9.61334
 30
0.0
 10
3.95065
 20
9.6476
 30
0.0
 10
3.95065
 20
9.6476
 30
0.0
 10
3.95065
 20
9.6476
 30
0.0
 10
3.95063
 20
6.88234
 30
0.0
 10
3.95063
 20
6.88234
 30
0.0
 10
3.95063
 20
6.88234
 30
0.0
 10
3.95063
 20
6.88234
 30
0.0
 10
1.18541
 20
6.88234
 30
0.0
 10
1.18541
 20
6.88234
 30
0.0
 10
1.18541
 20
6.88234
 30
0.0
 10
1.18541
 20
6.88234
 30
0.0
 10
1.18546
 20
6.88235
 30
0.0
 10
1.18546
 20
6.88235
 30
0.0
  0
SPLINE
  5
5D
330
1F
100
AcDbEntity
  8
Layer 1
 62
   177
100
AcDbSpline
210
0.0
220
0.0
230
1.0
 70
    11
 71
     3
 72
    20
 73
    16
 74
     0
 42
0.0000000001
 43
0.0000000001
 12
1.0
 22
0.0
 32
0.0
 13
1.0
 23
0.0
 33
0.0
 40
0.0
 40
0.0
 40
0.0
 40
0.0
 40
0.2
 40
0.2
 40
0.2
 40
0.2
 40
0.4
 40
0.4
 40
0.4
 40
0.4
 40
0.6
 40
0.6
 40
0.6
 40
0.6
 40
1.0
 40
1.0
 40
1.0
 40
1.0
 10
3.95065
 20
10.24013
 30
0.0
 10
3.83129
 20
10.76436
 30
0.0
 10
3.4215
 20
11.1729
 30
0.0
 10
2.89675
 20
11.28999
 30
0.0
 10
2.89675
 20
11.28999
 30
0.0
 10
3.42143
 20
11.40735
 30
0.0
 10
3.83154
 20
11.81556
 30
0.0
 10
3.95065
 20
12.33985
 30
0.0
 10
3.95065
 20
12.33985
 30
0.0
 10
3.95065
 20
12.33985
 30
0.0
 10
3.95063
 20
10.24011
 30
0.0
 10
3.95063
 20
10.24011
 30
0.0
 10
3.95063
 20
10.24011
 30
0.0
 10
3.95063
 20
10.24011
 30
0.0
 10
3.95065
 20
10.24013
 30
0.0
 10
3.95065
 20
10.24013
 30
0.0
  0
SPLINE
  5
5E
330
1F
100
AcDbEntity
  8
Layer 1
 62
   177
100
AcDbSpline
210
0.0
220
0.0
230
1.0
 70
    11
 71
     3
 72
    36
 73
    32
 74
     0
 42
0.0000000001
 43
0.0000000001
 12
1.0
 22
0.0
 32
0.0
 13
1.0
 23
0.0
 33
0.0
 40
0.0
 40
0.0
 40
0.0
 40
0.0
 40
0.1111111111111111
 40
0.1111111111111111
 40
0.1111111111111111
 40
0.1111111111111111
 40
0.2222222222222222
 40
0.2222222222222222
 40
0.2222222222222222
 40
0.2222222222222222
 40
0.3333333333333333
 40
0.3333333333333333
 40
0.3333333333333333
 40
0.3333333333333333
 40
0.4444444444444444
 40
0.4444444444444444
 40
0.4444444444444444
 40
0.4444444444444444
 40
0.5555555555555556
 40
0.5555555555555556
 40
0.5555555555555556
 40
0.5555555555555556
 40
0.6666666666666666
 40
0.6666666666666666
 40
0.6666666666666666
 40
0.6666666666666666
 40
0.7777777777777778
 40
0.7777777777777778
 40
0.7777777777777778
 40
0.7777777777777778
 40
1.0
 40
1.0
 40
1.0
 40
1.0
 10
1.18541
 20
15.6976
 30
0.0
 10
1.18541
 20
15.6976
 30
0.0
 10
3.95065
 20
15.6976
 30
0.0
 10
3.95065
 20
15.6976
 30
0.0
 10
3.95065
 20
15.6976
 30
0.0
 10
3.95065
 20
15.6976
 30
0.0
 10
3.95063
 20
12.93241
 30
0.0
 10
3.95063
 20
12.93241
 30
0.0
 10
3.95063
 20
12.93241
 30
0.0
 10
3.87179
 20
13.2893
 30
0.0
 10
3.65441
 20
13.60024
 30
0.0
 10
3.34629
 20
13.79684
 30
0.0
 10
3.34629
 20
13.79684
 30
0.0
 10
3.03819
 20
13.99344
 30
0.0
 10
2.6663
 20
14.05998
 30
0.0
 10
2.30942
 20
13.98113
 30
0.0
 10
2.30942
 20
13.98113
 30
0.0
 10
2.27515
 20
13.97359
 30
0.0
 10
2.2412
 20
13.96474
 30
0.0
 10
2.2076
 20
13.95463
 30
0.0
 10
2.2076
 20
13.95463
 30
0.0
 10
2.42709
 20
14.68335
 30
0.0
 10
2.016
 20
15.45153
 30
0.0
 10
1.28731
 20
15.67114
 30
0.0
 10
1.28731
 20
15.67114
 30
0.0
 10
1.25367
 20
15.6812
 30
0.0
 10
1.21969
 20
15.69003
 30
0.0
 10
1.1854
 20
15.6976
 30
0.0
 10
1.1854
 20
15.6976
 30
0.0
 10
1.1854
 20
15.6976
 30
0.0
 10
1.18541
 20
15.6976
 30
0.0
 10
1.18541
 20
15.6976
 30
0.0
  0
SPLINE
  5
5F
330
1F
100
AcDbEntity
  8
Layer 1
 62
   177
100
AcDbSpline
210
0.0
220
0.0
230
1.0
 70
    11
 71
     3
 72
    16
 73
    12
 74
     0
 42
0.0000000001
 43
0.0000000001
 12
1.0
 22
0.0
 32
0.0
 13
1.0
 23
0.0
 33
0.0
 40
0.0
 40
0.0
 40
0.0
 40
0.0
 40
0.25
 40
0.25
 40
0.25
 40
0.25
 40
0.5
 40
0.5
 40
0.5
 40
0.5
 40
1.0
 40
1.0
 40
1.0
 40
1.0
 10
-1.50686
 20
15.6976
 30
0.0
 10
-1.50686
 20
15.6976
 30
0.0
 10
0.59284
 20
15.6976
 30
0.0
 10
0.59284
 20
15.6976
 30
0.0
 10
0.59284
 20
15.6976
 30
0.0
 10
0.06861
 20
15.57824
 30
0.0
 10
-0.33993
 20
15.16846
 30
0.0
 10
-0.45702
 20
14.64372
 30
0.0
 10
-0.45702
 20
14.64372
 30
0.0
 10
-0.5744
 20
15.16838
 30
0.0
 10
-0.9826
 20
15.57848
 30
0.0
 10
-1.50686
 20
15.6976
 30
0.0
  0
SPLINE
  5
60
330
1F
100
AcDbEntity
  8
Layer 1
 62
   177
100
AcDbSpline
210
0.0
220
0.0
230
1.0
 70
    11
 71
     3
 72
    36
 73
    32
 74
     0
 42
0.0000000001
 43
0.0000000001
 12
1.0
 22
0.0
 32
0.0
 13
1.0
 23
0.0
 33
0.0
 40
0.0
 40
0.0
 40
0.0
 40
0.0
 40
0.1111111111111111
 40
0.1111111111111111
 40
0.1111111111111111
 40
0.1111111111111111
 40
0.2222222222222222
 40
0.2222222222222222
 40
0.2222222222222222
 40
0.2222222222222222
 40
0.3333333333333333
 40
0.3333333333333333
 40
0.3333333333333333
 40
0.3333333333333333
 40
0.4444444444444444
 40
0.4444444444444444
 40
0.4444444444444444
 40
0.4444444444444444
 40
0.5555555555555556
 40
0.5555555555555556
 40
0.5555555555555556
 40
0.5555555555555556
 40
0.6666666666666666
 40
0.6666666666666666
 40
0.6666666666666666
 40
0.6666666666666666
 40
0.7777777777777778
 40
0.7777777777777778
 40
0.7777777777777778
 40
0.7777777777777778
 40
1.0
 40
1.0
 40
1.0
 40
1.0
 10
-2.09946
 20
15.69759
 30
0.0
 10
-2.45635
 20
15.61875
 30
0.0
 10
-2.7673
 20
15.40136
 30
0.0
 10
-2.9639
 20
15.09324
 30
0.0
 10
-2.9639
 20
15.09324
 30
0.0
 10
-3.1605
 20
14.78511
 30
0.0
 10
-3.22703
 20
14.41322
 30
0.0
 10
-3.14816
 20
14.05633
 30
0.0
 10
-3.14816
 20
14.05633
 30
0.0
 10
-3.14062
 20
14.02211
 30
0.0
 10
-3.13177
 20
13.98818
 30
0.0
 10
-3.12166
 20
13.95463
 30
0.0
 10
-3.12166
 20
13.95463
 30
0.0
 10
-3.85043
 20
14.17409
 30
0.0
 10
-4.61864
 20
13.76292
 30
0.0
 10
-4.83817
 20
13.03417
 30
0.0
 10
-4.83817
 20
13.03417
 30
0.0
 10
-4.84826
 20
13.00058
 30
0.0
 10
-4.85709
 20
12.96662
 30
0.0
 10
-4.86463
 20
12.93237
 30
0.0
 10
-4.86463
 20
12.93237
 30
0.0
 10
-4.86463
 20
12.93237
 30
0.0
 10
-4.86463
 20
15.6976
 30
0.0
 10
-4.86463
 20
15.6976
 30
0.0
 10
-4.86463
 20
15.6976
 30
0.0
 10
-4.86463
 20
15.6976
 30
0.0
 10
-2.09946
 20
15.6976
 30
0.0
 10
-2.09946
 20
15.6976
 30
0.0
 10
-2.09946
 20
15.6976
 30
0.0
 10
-2.09946
 20
15.6976
 30
0.0
 10
-2.09946
 20
15.69759
 30
0.0
 10
-2.09946
 20
15.69759
 30
0.0
  0
SPLINE
  5
61
330
1F
100
AcDbEntity
  8
Layer 1
 62
   177
100
AcDbSpline
210
0.0
220
0.0
230
1.0
 70
    11
 71
     3
 72
    36
 73
    32
 74
     0
 42
0.0000000001
 43
0.0000000001
 12
1.0
 22
0.0
 32
0.0
 13
1.0
 23
0.0
 33
0.0
 40
0.0
 40
0.0
 40
0.0
 40
0.0
 40
0.1111111111111111
 40
0.1111111111111111
 40
0.1111111111111111
 40
0.1111111111111111
 40
0.2222222222222222
 40
0.2222222222222222
 40
0.2222222222222222
 40
0.2222222222222222
 40
0.3333333333333333
 40
0.3333333333333333
 40
0.3333333333333333
 40
0.3333333333333333
 40
0.4444444444444444
 40
0.4444444444444444
 40
0.4444444444444444
 40
0.4444444444444444
 40
0.5555555555555556
 40
0.5555555555555556
 40
0.5555555555555556
 40
0.5555555555555556
 40
0.6666666666666666
 40
0.6666666666666666
 40
0.6666666666666666
 40
0.6666666666666666
 40
0.7777777777777778
 40
0.7777777777777778
 40
0.7777777777777778
 40
0.7777777777777778
 40
1.0
 40
1.0
 40
1.0
 40
1.0
 10
-2.09942
 20
6.88234
 30
0.0
 10
-2.09942
 20
6.88234
 30
0.0
 10
-4.86463
 20
6.88234
 30
0.0
 10
-4.86463
 20
6.88234
 30
0.0
 10
-4.86463
 20
6.88234
 30
0.0
 10
-4.86463
 20
6.88234
 30
0.0
 10
-4.86463
 20
9.64757
 30
0.0
 10
-4.86463
 20
9.64757
 30
0.0
 10
-4.86463
 20
9.64757
 30
0.0
 10
-4.7858
 20
9.29068
 30
0.0
 10
-4.56841
 20
8.97972
 30
0.0
 10
-4.26031
 20
8.78311
 30
0.0
 10
-4.26031
 20
8.78311
 30
0.0
 10
-3.9522
 20
8.5865
 30
0.0
 10
-3.58031
 20
8.51996
 30
0.0
 10
-3.22342
 20
8.59881
 30
0.0
 10
-3.22342
 20
8.59881
 30
0.0
 10
-3.18916
 20
8.60633
 30
0.0
 10
-3.15521
 20
8.61517
 30
0.0
 10
-3.12166
 20
8.62532
 30
0.0
 10
-3.12166
 20
8.62532
 30
0.0
 10
-3.34112
 20
7.89653
 30
0.0
 10
-2.92994
 20
7.12832
 30
0.0
 10
-2.20117
 20
6.9088
 30
0.0
 10
-2.20117
 20
6.9088
 30
0.0
 10
-2.16761
 20
6.89871
 30
0.0
 10
-2.13368
 20
6.88988
 30
0.0
 10
-2.09946
 20
6.88234
 30
0.0
 10
-2.09946
 20
6.88234
 30
0.0
 10
-2.09946
 20
6.88234
 30
0.0
 10
-2.09942
 20
6.88234
 30
0.0
 10
-2.09942
 20
6.88234
 30
0.0
  0
SPLINE
  5
62
330
1F
100
AcDbEntity
  8
Layer 1
 62
   177
100
AcDbSpline
210
0.0
220
0.0
230
1.0
 70
    11
 71
     3
 72
    20
 73
    16
 74
     0
 42
0.0000000001
 43
0.0000000001
 12
1.0
 22
0.0
 32
0.0
 13
1.0
 23
0.0
 33
0.0
 40
0.0
 40
0.0
 40
0.0
 40
0.0
 40
0.2
 40
0.2
 40
0.2
 40
0.2
 40
0.4
 40
0.4
 40
0.4
 40
0.4
 40
0.6
 40
0.6
 40
0.6
 40
0.6
 40
1.0
 40
1.0
 40
1.0
 40
1.0
 10
-4.86465
 20
12.33981
 30
0.0
 10
-4.7453
 20
11.81557
 30
0.0
 10
-4.33549
 20
11.40703
 30
0.0
 10
-3.81072
 20
11.28999
 30
0.0
 10
-3.81072
 20
11.28999
 30
0.0
 10
-4.33541
 20
11.1726
 30
0.0
 10
-4.74552
 20
10.76438
 30
0.0
 10
-4.86465
 20
10.24009
 30
0.0
 10
-4.86465
 20
10.24009
 30
0.0
 10
-4.86465
 20
10.24009
 30
0.0
 10
-4.86463
 20
12.33983
 30
0.0
 10
-4.86463
 20
12.33983
 30
0.0
 10
-4.86463
 20
12.33983
 30
0.0
 10
-4.86463
 20
12.33983
 30
0.0
 10
-4.86465
 20
12.33981
 30
0.0
 10
-4.86465
 20
12.33981
 30
0.0
  0
SPLINE
  5
63
330
1F
100
AcDbEntity
  8
Layer 1
 62
   177
100
AcDbSpline
210
0.0
220
0.0
230
1.0
 70
    11
 71
     3
 72
    20
 73
    16
 74
     0
 42
0.0000000001
 43
0.0000000001
 12
1.0
 22
0.0
 32
0.0
 13
1.0
 23
0.0
 33
0.0
 40
0.0
 40
0.0
 40
0.0
 40
0.0
 40
0.2
 40
0.2
 40
0.2
 40
0.2
 40
0.4
 40
0.4
 40
0.4
 40
0.4
 40
0.6
 40
0.6
 40
0.6
 40
0.6
 40
1.0
 40
1.0
 40
1.0
 40
1.0
 10
4.64423
 20
16.3912
 30
0.0
 10
4.64423
 20
16.3912
 30
0.0
 10
4.64423
 20
17.41121
 30
0.0
 10
4.64423
 20
17.41121
 30
0.0
 10
4.64423
 20
17.41121
 30
0.0
 10
4.64423
 20
17.41121
 30
0.0
 10
5.66425
 20
17.41121
 30
0.0
 10
5.66425
 20
17.41121
 30
0.0
 10
5.66425
 20
17.41121
 30
0.0
 10
5.66425
 20
17.41121
 30
0.0
 10
5.66425
 20
16.3912
 30
0.0
 10
5.66425
 20
16.3912
 30
0.0
 10
5.66425
 20
16.3912
 30
0.0
 10
5.66425
 20
16.3912
 30
0.0
 10
4.64423
 20
16.3912
 30
0.0
 10
4.64423
 20
16.3912
 30
0.0
  0
SPLINE
  5
64
330
1F
100
AcDbEntity
  8
Layer 1
 62
   177
100
AcDbSpline
210
0.0
220
0.0
230
1.0
 70
    11
 71
     3
 72
    20
 73
    16
 74
     0
 42
0.0000000001
 43
0.0000000001
 12
1.0
 22
0.0
 32
0.0
 13
1.0
 23
0.0
 33
0.0
 40
0.0
 40
0.0
 40
0.0
 40
0.0
 40
0.2
 40
0.2
 40
0.2
 40
0.2
 40
0.4
 40
0.4
 40
0.4
 40
0.4
 40
0.6
 40
0.6
 40
0.6
 40
0.6
 40
1.0
 40
1.0
 40
1.0
 40
1.0
 10
-5.55823
 20
16.3912
 30
0.0
 10
-5.55823
 20
16.3912
 30
0.0
 10
-6.57824
 20
16.3912
 30
0.0
 10
-6.57824
 20
16.3912
 30
0.0
 10
-6.57824
 20
16.3912
 30
0.0
 10
-6.57824
 20
16.3912
 30
0.0
 10
-6.57824
 20
17.41121
 30
0.0
 10
-6.57824
 20
17.41121
 30
0.0
 10
-6.57824
 20
17.41121
 30
0.0
 10
-6.57824
 20
17.41121
 30
0.0
 10
-5.55823
 20
17.41121
 30
0.0
 10
-5.55823
 20
17.41121
 30
0.0
 10
-5.55823
 20
17.41121
 30
0.0
 10
-5.55823
 20
17.41121
 30
0.0
 10
-5.55823
 20
16.3912
 30
0.0
 10
-5.55823
 20
16.3912
 30
0.0
  0
SPLINE
  5
65
330
1F
100
AcDbEntity
  8
Layer 1
 62
   177
100
AcDbSpline
210
0.0
220
0.0
230
1.0
 70
    11
 71
     3
 72
    20
 73
    16
 74
     0
 42
0.0000000001
 43
0.0000000001
 12
1.0
 22
0.0
 32
0.0
 13
1.0
 23
0.0
 33
0.0
 40
0.0
 40
0.0
 40
0.0
 40
0.0
 40
0.2
 40
0.2
 40
0.2
 40
0.2
 40
0.4
 40
0.4
 40
0.4
 40
0.4
 40
0.6
 40
0.6
 40
0.6
 40
0.6
 40
1.0
 40
1.0
 40
1.0
 40
1.0
 10
2.85313
 20
15.91309
 30
0.0
 10
2.85313
 20
15.91309
 30
0.0
 10
1.22626
 20
15.91309
 30
0.0
 10
1.22626
 20
15.91309
 30
0.0
 10
1.22626
 20
15.91309
 30
0.0
 10
1.22626
 20
15.91309
 30
0.0
 10
1.22626
 20
17.41121
 30
0.0
 10
1.22626
 20
17.41121
 30
0.0
 10
1.22626
 20
17.41121
 30
0.0
 10
1.22626
 20
17.41121
 30
0.0
 10
2.85313
 20
17.41121
 30
0.0
 10
2.85313
 20
17.41121
 30
0.0
 10
2.85313
 20
17.41121
 30
0.0
 10
2.85313
 20
17.41121
 30
0.0
 10
2.85313
 20
15.91309
 30
0.0
 10
2.85313
 20
15.91309
 30
0.0
  0
SPLINE
  5
66
330
1F
100
AcDbEntity
  8
Layer 1
 62
   177
100
AcDbSpline
210
0.0
220
0.0
230
1.0
 70
    11
 71
     3
 72
    24
 73
    20
 74
     0
 42
0.0000000001
 43
0.0000000001
 12
1.0
 22
0.0
 32
0.0
 13
1.0
 23
0.0
 33
0.0
 40
0.0
 40
0.0
 40
0.0
 40
0.0
 40
0.1666666666666667
 40
0.1666666666666667
 40
0.1666666666666667
 40
0.1666666666666667
 40
0.3333333333333333
 40
0.3333333333333333
 40
0.3333333333333333
 40
0.3333333333333333
 40
0.5
 40
0.5
 40
0.5
 40
0.5
 40
0.6666666666666666
 40
0.6666666666666666
 40
0.6666666666666666
 40
0.6666666666666666
 40
1.0
 40
1.0
 40
1.0
 40
1.0
 10
-2.14026
 20
15.91309
 30
0.0
 10
-2.14026
 20
15.91309
 30
0.0
 10
-3.76713
 20
15.91312
 30
0.0
 10
-3.76713
 20
15.91312
 30
0.0
 10
-3.76713
 20
15.91312
 30
0.0
 10
-3.76713
 20
15.91312
 30
0.0
 10
-3.76713
 20
17.41121
 30
0.0
 10
-3.76713
 20
17.41121
 30
0.0
 10
-3.76713
 20
17.41121
 30
0.0
 10
-3.76713
 20
17.41121
 30
0.0
 10
-2.14026
 20
17.41121
 30
0.0
 10
-2.14026
 20
17.41121
 30
0.0
 10
-2.14026
 20
17.41121
 30
0.0
 10
-2.14026
 20
17.41121
 30
0.0
 10
-2.14026
 20
15.91312
 30
0.0
 10
-2.14026
 20
15.91312
 30
0.0
 10
-2.14026
 20
15.91312
 30
0.0
 10
-2.14026
 20
15.91312
 30
0.0
 10
-2.14026
 20
15.91309
 30
0.0
 10
-2.14026
 20
15.91309
 30
0.0
  0
SPLINE
  5
67
330
1F
100
AcDbEntity
  8
Layer 1
370
     9
100
AcDbSpline
210
0.0
220
0.0
230
1.0
 70
     8
 71
     3
 72
    20
 73
    16
 74
     0
 42
0.0000000001
 43
0.0000000001
 12
1.0
 22
0.0
 32
0.0
 13
1.0
 23
0.0
 33
0.0
 40
0.0
 40
0.0
 40
0.0
 40
0.0
 40
0.2
 40
0.2
 40
0.2
 40
0.2
 40
0.4
 40
0.4
 40
0.4
 40
0.4
 40
0.6
 40
0.6
 40
0.6
 40
0.6
 40
1.0
 40
1.0
 40
1.0
 40
1.0
 10
-7.03883
 20
17.87179
 30
0.0
 10
-7.03883
 20
17.87179
 30
0.0
 10
6.12483
 20
17.8718
 30
0.0
 10
6.12483
 20
17.8718
 30
0.0
 10
6.12483
 20
17.8718
 30
0.0
 10
6.12483
 20
17.8718
 30
0.0
 10
6.12483
 20
4.70813
 30
0.0
 10
6.12483
 20
4.70813
 30
0.0
 10
6.12483
 20
4.70813
 30
0.0
 10
6.12483
 20
4.70813
 30
0.0
 10
-7.03883
 20
4.70813
 30
0.0
 10
-7.03883
 20
4.70813
 30
0.0
 10
-7.03883
 20
4.70813
 30
0.0
 10
-7.03883
 20
4.70813
 30
0.0
 10
-7.03883
 20
17.8718
 30
0.0
 10
-7.03883
 20
17.8718
 30
0.0
  0
SPLINE
  5
68
330
1F
100
AcDbEntity
  8
Layer 1
370
     9
100
AcDbSpline
210
0.0
220
0.0
230
1.0
 70
    11
 71
     3
 72
    20
 73
    16
 74
     0
 42
0.0000000001
 43
0.0000000001
 12
1.0
 22
0.0
 32
0.0
 13
1.0
 23
0.0
 33
0.0
 40
0.0
 40
0.0
 40
0.0
 40
0.0
 40
0.2
 40
0.2
 40
0.2
 40
0.2
 40
0.4
 40
0.4
 40
0.4
 40
0.4
 40
0.6
 40
0.6
 40
0.6
 40
0.6
 40
1.0
 40
1.0
 40
1.0
 40
1.0
 10
-5.08012
 20
14.6001
 30
0.0
 10
-5.08012
 20
14.6001
 30
0.0
 10
-5.08012
 20
12.97323
 30
0.0
 10
-5.08012
 20
12.97323
 30
0.0
 10
-5.08012
 20
12.97323
 30
0.0
 10
-5.08012
 20
12.97323
 30
0.0
 10
-6.57824
 20
12.97323
 30
0.0
 10
-6.57824
 20
12.97323
 30
0.0
 10
-6.57824
 20
12.97323
 30
0.0
 10
-6.57824
 20
12.97323
 30
0.0
 10
-6.57824
 20
14.6001
 30
0.0
 10
-6.57824
 20
14.6001
 30
0.0
 10
-6.57824
 20
14.6001
 30
0.0
 10
-6.57824
 20
14.6001
 30
0.0
 10
-5.08012
 20
14.6001
 30
0.0
 10
-5.08012
 20
14.6001
 30
0.0
  0
SPLINE
  5
69
330
1F
100
AcDbEntity
  8
Layer 1
370
     9
100
AcDbSpline
210
0.0
220
0.0
230
1.0
 70
    11
 71
     3
 72
    44
 73
    40
 74
     0
 42
0.0000000001
 43
0.0000000001
 12
1.0
 22
0.0
 32
0.0
 13
1.0
 23
0.0
 33
0.0
 40
0.0
 40
0.0
 40
0.0
 40
0.0
 40
0.0909090909090909
 40
0.0909090909090909
 40
0.0909090909090909
 40
0.0909090909090909
 40
0.1818181818181818
 40
0.1818181818181818
 40
0.1818181818181818
 40
0.1818181818181818
 40
0.2727272727272727
 40
0.2727272727272727
 40
0.2727272727272727
 40
0.2727272727272727
 40
0.3636363636363636
 40
0.3636363636363636
 40
0.3636363636363636
 40
0.3636363636363636
 40
0.4545454545454545
 40
0.4545454545454545
 40
0.4545454545454545
 40
0.4545454545454545
 40
0.5454545454545454
 40
0.5454545454545454
 40
0.5454545454545454
 40
0.5454545454545454
 40
0.6363636363636364
 40
0.6363636363636364
 40
0.6363636363636364
 40
0.6363636363636364
 40
0.7272727272727273
 40
0.7272727272727273
 40
0.7272727272727273
 40
0.7272727272727273
 40
0.8181818181818182
 40
0.8181818181818182
 40
0.8181818181818182
 40
0.8181818181818182
 40
1.0
 40
1.0
 40
1.0
 40
1.0
 10
-6.47057
 20
12.07784
 30
0.0
 10
-6.47057
 20
12.07784
 30
0.0
 10
-6.47057
 20
12.75777
 30
0.0
 10
-6.47057
 20
12.75777
 30
0.0
 10
-6.47057
 20
12.75777
 30
0.0
 10
-6.47057
 20
12.75777
 30
0.0
 10
-5.18784
 20
12.75777
 30
0.0
 10
-5.18784
 20
12.75777
 30
0.0
 10
-5.18784
 20
12.75777
 30
0.0
 10
-5.18784
 20
12.75777
 30
0.0
 10
-5.18784
 20
11.39771
 30
0.0
 10
-5.18784
 20
11.39771
 30
0.0
 10
-5.18784
 20
11.39771
 30
0.0
 10
-5.18784
 20
11.39771
 30
0.0
 10
-6.47057
 20
11.39771
 30
0.0
 10
-6.47057
 20
11.39771
 30
0.0
 10
-6.47057
 20
11.39771
 30
0.0
 10
-6.47057
 20
11.39771
 30
0.0
 10
-6.47057
 20
11.8623
 30
0.0
 10
-6.47057
 20
11.8623
 30
0.0
 10
-6.47057
 20
11.8623
 30
0.0
 10
-6.47057
 20
11.8623
 30
0.0
 10
-5.71172
 20
11.8623
 30
0.0
 10
-5.71172
 20
11.8623
 30
0.0
 10
-5.71172
 20
11.8623
 30
0.0
 10
-5.71172
 20
11.8623
 30
0.0
 10
-5.71172
 20
12.41778
 30
0.0
 10
-5.71172
 20
12.41778
 30
0.0
 10
-5.71172
 20
12.41778
 30
0.0
 10
-5.71172
 20
12.41778
 30
0.0
 10
-5.92722
 20
12.41778
 30
0.0
 10
-5.92722
 20
12.41778
 30
0.0
 10
-5.92722
 20
12.41778
 30
0.0
 10
-5.92722
 20
12.41778
 30
0.0
 10
-5.92722
 20
12.07784
 30
0.0
 10
-5.92722
 20
12.07784
 30
0.0
 10
-5.92722
 20
12.07784
 30
0.0
 10
-5.92722
 20
12.07784
 30
0.0
 10
-6.47057
 20
12.07784
 30
0.0
 10
-6.47057
 20
12.07784
 30
0.0
  0
SPLINE
  5
6A
330
1F
100
AcDbEntity
  8
Layer 1
370
     9
100
AcDbSpline
210
0.0
220
0.0
230
1.0
 70
    11
 71
     3
 72
    44
 73
    40
 74
     0
 42
0.0000000001
 43
0.0000000001
 12
1.0
 22
0.0
 32
0.0
 13
1.0
 23
0.0
 33
0.0
 40
0.0
 40
0.0
 40
0.0
 40
0.0
 40
0.0909090909090909
 40
0.0909090909090909
 40
0.0909090909090909
 40
0.0909090909090909
 40
0.1818181818181818
 40
0.1818181818181818
 40
0.1818181818181818
 40
0.1818181818181818
 40
0.2727272727272727
 40
0.2727272727272727
 40
0.2727272727272727
 40
0.2727272727272727
 40
0.3636363636363636
 40
0.3636363636363636
 40
0.3636363636363636
 40
0.3636363636363636
 40
0.4545454545454545
 40
0.4545454545454545
 40
0.4545454545454545
 40
0.4545454545454545
 40
0.5454545454545454
 40
0.5454545454545454
 40
0.5454545454545454
 40
0.5454545454545454
 40
0.6363636363636364
 40
0.6363636363636364
 40
0.6363636363636364
 40
0.6363636363636364
 40
0.7272727272727273
 40
0.7272727272727273
 40
0.7272727272727273
 40
0.7272727272727273
 40
0.8181818181818182
 40
0.8181818181818182
 40
0.8181818181818182
 40
0.8181818181818182
 40
1.0
 40
1.0
 40
1.0
 40
1.0
 10
-5.18784
 20
10.5021
 30
0.0
 10
-5.18784
 20
10.5021
 30
0.0
 10
-5.18784
 20
9.82217
 30
0.0
 10
-5.18784
 20
9.82217
 30
0.0
 10
-5.18784
 20
9.82217
 30
0.0
 10
-5.18784
 20
9.82217
 30
0.0
 10
-6.47056
 20
9.82217
 30
0.0
 10
-6.47056
 20
9.82217
 30
0.0
 10
-6.47056
 20
9.82217
 30
0.0
 10
-6.47056
 20
9.82217
 30
0.0
 10
-6.47057
 20
11.18223
 30
0.0
 10
-6.47057
 20
11.18223
 30
0.0
 10
-6.47057
 20
11.18223
 30
0.0
 10
-6.47057
 20
11.18223
 30
0.0
 10
-5.18784
 20
11.18223
 30
0.0
 10
-5.18784
 20
11.18223
 30
0.0
 10
-5.18784
 20
11.18223
 30
0.0
 10
-5.18784
 20
11.18223
 30
0.0
 10
-5.18784
 20
10.71764
 30
0.0
 10
-5.18784
 20
10.71764
 30
0.0
 10
-5.18784
 20
10.71764
 30
0.0
 10
-5.18784
 20
10.71764
 30
0.0
 10
-5.92722
 20
10.71764
 30
0.0
 10
-5.92722
 20
10.71764
 30
0.0
 10
-5.92722
 20
10.71764
 30
0.0
 10
-5.92722
 20
10.71764
 30
0.0
 10
-5.92722
 20
10.16216
 30
0.0
 10
-5.92722
 20
10.16216
 30
0.0
 10
-5.92722
 20
10.16216
 30
0.0
 10
-5.92722
 20
10.16216
 30
0.0
 10
-5.71172
 20
10.16216
 30
0.0
 10
-5.71172
 20
10.16216
 30
0.0
 10
-5.71172
 20
10.16216
 30
0.0
 10
-5.71172
 20
10.16216
 30
0.0
 10
-5.71169
 20
10.5021
 30
0.0
 10
-5.71169
 20
10.5021
 30
0.0
 10
-5.71169
 20
10.5021
 30
0.0
 10
-5.71169
 20
10.5021
 30
0.0
 10
-5.18784
 20
10.5021
 30
0.0
 10
-5.18784
 20
10.5021
 30
0.0
  0
SPLINE
  5
6B
330
1F
100
AcDbEntity
  8
Layer 1
370
     9
100
AcDbSpline
210
0.0
220
0.0
230
1.0
 70
    11
 71
     3
 72
    44
 73
    40
 74
     0
 42
0.0000000001
 43
0.0000000001
 12
1.0
 22
0.0
 32
0.0
 13
1.0
 23
0.0
 33
0.0
 40
0.0
 40
0.0
 40
0.0
 40
0.0
 40
0.0909090909090909
 40
0.0909090909090909
 40
0.0909090909090909
 40
0.0909090909090909
 40
0.1818181818181818
 40
0.1818181818181818
 40
0.1818181818181818
 40
0.1818181818181818
 40
0.2727272727272727
 40
0.2727272727272727
 40
0.2727272727272727
 40
0.2727272727272727
 40
0.3636363636363636
 40
0.3636363636363636
 40
0.3636363636363636
 40
0.3636363636363636
 40
0.4545454545454545
 40
0.4545454545454545
 40
0.4545454545454545
 40
0.4545454545454545
 40
0.5454545454545454
 40
0.5454545454545454
 40
0.5454545454545454
 40
0.5454545454545454
 40
0.6363636363636364
 40
0.6363636363636364
 40
0.6363636363636364
 40
0.6363636363636364
 40
0.7272727272727273
 40
0.7272727272727273
 40
0.7272727272727273
 40
0.7272727272727273
 40
0.8181818181818182
 40
0.8181818181818182
 40
0.8181818181818182
 40
0.8181818181818182
 40
1.0
 40
1.0
 40
1.0
 40
1.0
 10
0.33087
 20
17.30361
 30
0.0
 10
0.33087
 20
17.30361
 30
0.0
 10
1.0108
 20
17.30356
 30
0.0
 10
1.0108
 20
17.30356
 30
0.0
 10
1.0108
 20
17.30356
 30
0.0
 10
1.0108
 20
17.30356
 30
0.0
 10
1.0108
 20
16.02081
 30
0.0
 10
1.0108
 20
16.02081
 30
0.0
 10
1.0108
 20
16.02081
 30
0.0
 10
1.0108
 20
16.02081
 30
0.0
 10
-0.34926
 20
16.02081
 30
0.0
 10
-0.34926
 20
16.02081
 30
0.0
 10
-0.34926
 20
16.02081
 30
0.0
 10
-0.34926
 20
16.02081
 30
0.0
 10
-0.34926
 20
17.30356
 30
0.0
 10
-0.34926
 20
17.30356
 30
0.0
 10
-0.34926
 20
17.30356
 30
0.0
 10
-0.34926
 20
17.30356
 30
0.0
 10
0.11535
 20
17.30356
 30
0.0
 10
0.11535
 20
17.30356
 30
0.0
 10
0.11535
 20
17.30356
 30
0.0
 10
0.11535
 20
17.30356
 30
0.0
 10
0.11535
 20
16.5447
 30
0.0
 10
0.11535
 20
16.5447
 30
0.0
 10
0.11535
 20
16.5447
 30
0.0
 10
0.11535
 20
16.5447
 30
0.0
 10
0.67081
 20
16.5447
 30
0.0
 10
0.67081
 20
16.5447
 30
0.0
 10
0.67081
 20
16.5447
 30
0.0
 10
0.67081
 20
16.5447
 30
0.0
 10
0.67081
 20
16.76019
 30
0.0
 10
0.67081
 20
16.76019
 30
0.0
 10
0.67081
 20
16.76019
 30
0.0
 10
0.67081
 20
16.76019
 30
0.0
 10
0.33087
 20
16.76019
 30
0.0
 10
0.33087
 20
16.76019
 30
0.0
 10
0.33087
 20
16.76019
 30
0.0
 10
0.33087
 20
16.76019
 30
0.0
 10
0.33087
 20
17.30361
 30
0.0
 10
0.33087
 20
17.30361
 30
0.0
  0
SPLINE
  5
6C
330
1F
100
AcDbEntity
  8
Layer 1
370
     9
100
AcDbSpline
210
0.0
220
0.0
230
1.0
 70
    11
 71
     3
 72
    44
 73
    40
 74
     0
 42
0.0000000001
 43
0.0000000001
 12
1.0
 22
0.0
 32
0.0
 13
1.0
 23
0.0
 33
0.0
 40
0.0
 40
0.0
 40
0.0
 40
0.0
 40
0.0909090909090909
 40
0.0909090909090909
 40
0.0909090909090909
 40
0.0909090909090909
 40
0.1818181818181818
 40
0.1818181818181818
 40
0.1818181818181818
 40
0.1818181818181818
 40
0.2727272727272727
 40
0.2727272727272727
 40
0.2727272727272727
 40
0.2727272727272727
 40
0.3636363636363636
 40
0.3636363636363636
 40
0.3636363636363636
 40
0.3636363636363636
 40
0.4545454545454545
 40
0.4545454545454545
 40
0.4545454545454545
 40
0.4545454545454545
 40
0.5454545454545454
 40
0.5454545454545454
 40
0.5454545454545454
 40
0.5454545454545454
 40
0.6363636363636364
 40
0.6363636363636364
 40
0.6363636363636364
 40
0.6363636363636364
 40
0.7272727272727273
 40
0.7272727272727273
 40
0.7272727272727273
 40
0.7272727272727273
 40
0.8181818181818182
 40
0.8181818181818182
 40
0.8181818181818182
 40
0.8181818181818182
 40
1.0
 40
1.0
 40
1.0
 40
1.0
 10
-1.24487
 20
16.02081
 30
0.0
 10
-1.24487
 20
16.02081
 30
0.0
 10
-1.9248
 20
16.02081
 30
0.0
 10
-1.9248
 20
16.02081
 30
0.0
 10
-1.9248
 20
16.02081
 30
0.0
 10
-1.9248
 20
16.02081
 30
0.0
 10
-1.9248
 20
17.30356
 30
0.0
 10
-1.9248
 20
17.30356
 30
0.0
 10
-1.9248
 20
17.30356
 30
0.0
 10
-1.9248
 20
17.30356
 30
0.0
 10
-0.56474
 20
17.30356
 30
0.0
 10
-0.56474
 20
17.30356
 30
0.0
 10
-0.56474
 20
17.30356
 30
0.0
 10
-0.56474
 20
17.30356
 30
0.0
 10
-0.56474
 20
16.02081
 30
0.0
 10
-0.56474
 20
16.02081
 30
0.0
 10
-0.56474
 20
16.02081
 30
0.0
 10
-0.56474
 20
16.02081
 30
0.0
 10
-1.02933
 20
16.02081
 30
0.0
 10
-1.02933
 20
16.02081
 30
0.0
 10
-1.02933
 20
16.02081
 30
0.0
 10
-1.02933
 20
16.02081
 30
0.0
 10
-1.02933
 20
16.76019
 30
0.0
 10
-1.02933
 20
16.76019
 30
0.0
 10
-1.02933
 20
16.76019
 30
0.0
 10
-1.02933
 20
16.76019
 30
0.0
 10
-1.58481
 20
16.76019
 30
0.0
 10
-1.58481
 20
16.76019
 30
0.0
 10
-1.58481
 20
16.76019
 30
0.0
 10
-1.58481
 20
16.76019
 30
0.0
 10
-1.58481
 20
16.5447
 30
0.0
 10
-1.58481
 20
16.5447
 30
0.0
 10
-1.58481
 20
16.5447
 30
0.0
 10
-1.58481
 20
16.5447
 30
0.0
 10
-1.24487
 20
16.5447
 30
0.0
 10
-1.24487
 20
16.5447
 30
0.0
 10
-1.24487
 20
16.5447
 30
0.0
 10
-1.24487
 20
16.5447
 30
0.0
 10
-1.24487
 20
16.02081
 30
0.0
 10
-1.24487
 20
16.02081
 30
0.0
  0
SPLINE
  5
6D
330
1F
100
AcDbEntity
  8
Layer 1
370
     9
100
AcDbSpline
210
0.0
220
0.0
230
1.0
 70
    11
 71
     3
 72
    84
 73
    80
 74
     0
 42
0.0000000001
 43
0.0000000001
 12
1.0
 22
0.0
 32
0.0
 13
1.0
 23
0.0
 33
0.0
 40
0.0
 40
0.0
 40
0.0
 40
0.0
 40
0.0476190476190476
 40
0.0476190476190476
 40
0.0476190476190476
 40
0.0476190476190476
 40
0.0952380952380952
 40
0.0952380952380952
 40
0.0952380952380952
 40
0.0952380952380952
 40
0.1428571428571428
 40
0.1428571428571428
 40
0.1428571428571428
 40
0.1428571428571428
 40
0.1904761904761905
 40
0.1904761904761905
 40
0.1904761904761905
 40
0.1904761904761905
 40
0.2380952380952381
 40
0.2380952380952381
 40
0.2380952380952381
 40
0.2380952380952381
 40
0.2857142857142857
 40
0.2857142857142857
 40
0.2857142857142857
 40
0.2857142857142857
 40
0.3333333333333333
 40
0.3333333333333333
 40
0.3333333333333333
 40
0.3333333333333333
 40
0.3809523809523809
 40
0.3809523809523809
 40
0.3809523809523809
 40
0.3809523809523809
 40
0.4285714285714285
 40
0.4285714285714285
 40
0.4285714285714285
 40
0.4285714285714285
 40
0.4761904761904762
 40
0.4761904761904762
 40
0.4761904761904762
 40
0.4761904761904762
 40
0.5238095238095238
 40
0.5238095238095238
 40
0.5238095238095238
 40
0.5238095238095238
 40
0.5714285714285714
 40
0.5714285714285714
 40
0.5714285714285714
 40
0.5714285714285714
 40
0.6190476190476191
 40
0.6190476190476191
 40
0.6190476190476191
 40
0.6190476190476191
 40
0.6666666666666666
 40
0.6666666666666666
 40
0.6666666666666666
 40
0.6666666666666666
 40
0.7142857142857143
 40
0.7142857142857143
 40
0.7142857142857143
 40
0.7142857142857143
 40
0.7619047619047619
 40
0.7619047619047619
 40
0.7619047619047619
 40
0.7619047619047619
 40
0.8095238095238095
 40
0.8095238095238095
 40
0.8095238095238095
 40
0.8095238095238095
 40
0.8571428571428571
 40
0.8571428571428571
 40
0.8571428571428571
 40
0.8571428571428571
 40
0.9047619047619048
 40
0.9047619047619048
 40
0.9047619047619048
 40
0.9047619047619048
 40
1.0
 40
1.0
 40
1.0
 40
1.0
 10
-5.08012
 20
15.71117
 30
0.0
 10
-5.08012
 20
15.71117
 30
0.0
 10
-5.92722
 20
15.71117
 30
0.0
 10
-5.92722
 20
15.71117
 30
0.0
 10
-5.92722
 20
15.71117
 30
0.0
 10
-5.92722
 20
15.71117
 30
0.0
 10
-5.92722
 20
15.15559
 30
0.0
 10
-5.92722
 20
15.15559
 30
0.0
 10
-5.92722
 20
15.15559
 30
0.0
 10
-5.92722
 20
15.15559
 30
0.0
 10
-5.71172
 20
15.15559
 30
0.0
 10
-5.71172
 20
15.15559
 30
0.0
 10
-5.71172
 20
15.15559
 30
0.0
 10
-5.71172
 20
15.15559
 30
0.0
 10
-5.71169
 20
15.49565
 30
0.0
 10
-5.71169
 20
15.49565
 30
0.0
 10
-5.71169
 20
15.49565
 30
0.0
 10
-5.71169
 20
15.49565
 30
0.0
 10
-5.18784
 20
15.49565
 30
0.0
 10
-5.18784
 20
15.49565
 30
0.0
 10
-5.18784
 20
15.49565
 30
0.0
 10
-5.18784
 20
15.49565
 30
0.0
 10
-5.18784
 20
14.81556
 30
0.0
 10
-5.18784
 20
14.81556
 30
0.0
 10
-5.18784
 20
14.81556
 30
0.0
 10
-5.18784
 20
14.81556
 30
0.0
 10
-6.47056
 20
14.81556
 30
0.0
 10
-6.47056
 20
14.81556
 30
0.0
 10
-6.47056
 20
14.81556
 30
0.0
 10
-6.47056
 20
14.81556
 30
0.0
 10
-6.47057
 20
16.17576
 30
0.0
 10
-6.47057
 20
16.17576
 30
0.0
 10
-6.47057
 20
16.17576
 30
0.0
 10
-6.47057
 20
16.17576
 30
0.0
 10
-5.34277
 20
16.17576
 30
0.0
 10
-5.34277
 20
16.17576
 30
0.0
 10
-5.34277
 20
16.17576
 30
0.0
 10
-5.34277
 20
16.17576
 30
0.0
 10
-5.34277
 20
17.30356
 30
0.0
 10
-5.34277
 20
17.30356
 30
0.0
 10
-5.34277
 20
17.30356
 30
0.0
 10
-5.34277
 20
17.30356
 30
0.0
 10
-3.98259
 20
17.30356
 30
0.0
 10
-3.98259
 20
17.30356
 30
0.0
 10
-3.98259
 20
17.30356
 30
0.0
 10
-3.98259
 20
17.30356
 30
0.0
 10
-3.98259
 20
16.02081
 30
0.0
 10
-3.98259
 20
16.02081
 30
0.0
 10
-3.98259
 20
16.02081
 30
0.0
 10
-3.98259
 20
16.02081
 30
0.0
 10
-4.66265
 20
16.02081
 30
0.0
 10
-4.66265
 20
16.02081
 30
0.0
 10
-4.66265
 20
16.02081
 30
0.0
 10
-4.66265
 20
16.02081
 30
0.0
 10
-4.66265
 20
16.5447
 30
0.0
 10
-4.66265
 20
16.5447
 30
0.0
 10
-4.66265
 20
16.5447
 30
0.0
 10
-4.66265
 20
16.5447
 30
0.0
 10
-4.32262
 20
16.5447
 30
0.0
 10
-4.32262
 20
16.5447
 30
0.0
 10
-4.32262
 20
16.5447
 30
0.0
 10
-4.32262
 20
16.5447
 30
0.0
 10
-4.32262
 20
16.76019
 30
0.0
 10
-4.32262
 20
16.76019
 30
0.0
 10
-4.32262
 20
16.76019
 30
0.0
 10
-4.32262
 20
16.76019
 30
0.0
 10
-4.87819
 20
16.76019
 30
0.0
 10
-4.87819
 20
16.76019
 30
0.0
 10
-4.87819
 20
16.76019
 30
0.0
 10
-4.87819
 20
16.76019
 30
0.0
 10
-4.87819
 20
15.91309
 30
0.0
 10
-4.87819
 20
15.91309
 30
0.0
 10
-4.87819
 20
15.91309
 30
0.0
 10
-4.87819
 20
15.91309
 30
0.0
 10
-5.08012
 20
15.91309
 30
0.0
 10
-5.08012
 20
15.91309
 30
0.0
 10
-5.08012
 20
15.91309
 30
0.0
 10
-5.08012
 20
15.91309
 30
0.0
 10
-5.08012
 20
15.71117
 30
0.0
 10
-5.08012
 20
15.71117
 30
0.0
  0
SPLINE
  5
6E
330
1F
100
AcDbEntity
  8
Layer 1
370
     9
100
AcDbSpline
210
0.0
220
0.0
230
1.0
 70
    11
 71
     3
 72
    20
 73
    16
 74
     0
 42
0.0000000001
 43
0.0000000001
 12
1.0
 22
0.0
 32
0.0
 13
1.0
 23
0.0
 33
0.0
 40
0.0
 40
0.0
 40
0.0
 40
0.0
 40
0.2
 40
0.2
 40
0.2
 40
0.2
 40
0.4
 40
0.4
 40
0.4
 40
0.4
 40
0.6
 40
0.6
 40
0.6
 40
0.6
 40
1.0
 40
1.0
 40
1.0
 40
1.0
 10
5.66425
 20
7.97984
 30
0.0
 10
5.66425
 20
7.97984
 30
0.0
 10
4.16612
 20
7.97984
 30
0.0
 10
4.16612
 20
7.97984
 30
0.0
 10
4.16612
 20
7.97984
 30
0.0
 10
4.16612
 20
7.97984
 30
0.0
 10
4.16612
 20
9.60671
 30
0.0
 10
4.16612
 20
9.60671
 30
0.0
 10
4.16612
 20
9.60671
 30
0.0
 10
4.16612
 20
9.60671
 30
0.0
 10
5.66425
 20
9.60671
 30
0.0
 10
5.66425
 20
9.60671
 30
0.0
 10
5.66425
 20
9.60671
 30
0.0
 10
5.66425
 20
9.60671
 30
0.0
 10
5.66425
 20
7.97984
 30
0.0
 10
5.66425
 20
7.97984
 30
0.0
  0
SPLINE
  5
6F
330
1F
100
AcDbEntity
  8
Layer 1
370
     9
100
AcDbSpline
210
0.0
220
0.0
230
1.0
 70
    11
 71
     3
 72
    44
 73
    40
 74
     0
 42
0.0000000001
 43
0.0000000001
 12
1.0
 22
0.0
 32
0.0
 13
1.0
 23
0.0
 33
0.0
 40
0.0
 40
0.0
 40
0.0
 40
0.0
 40
0.0909090909090909
 40
0.0909090909090909
 40
0.0909090909090909
 40
0.0909090909090909
 40
0.1818181818181818
 40
0.1818181818181818
 40
0.1818181818181818
 40
0.1818181818181818
 40
0.2727272727272727
 40
0.2727272727272727
 40
0.2727272727272727
 40
0.2727272727272727
 40
0.3636363636363636
 40
0.3636363636363636
 40
0.3636363636363636
 40
0.3636363636363636
 40
0.4545454545454545
 40
0.4545454545454545
 40
0.4545454545454545
 40
0.4545454545454545
 40
0.5454545454545454
 40
0.5454545454545454
 40
0.5454545454545454
 40
0.5454545454545454
 40
0.6363636363636364
 40
0.6363636363636364
 40
0.6363636363636364
 40
0.6363636363636364
 40
0.7272727272727273
 40
0.7272727272727273
 40
0.7272727272727273
 40
0.7272727272727273
 40
0.8181818181818182
 40
0.8181818181818182
 40
0.8181818181818182
 40
0.8181818181818182
 40
1.0
 40
1.0
 40
1.0
 40
1.0
 10
5.55659
 20
12.07784
 30
0.0
 10
5.55659
 20
12.07784
 30
0.0
 10
5.01322
 20
12.07784
 30
0.0
 10
5.01322
 20
12.07784
 30
0.0
 10
5.01322
 20
12.07784
 30
0.0
 10
5.01322
 20
12.07784
 30
0.0
 10
5.01322
 20
12.41778
 30
0.0
 10
5.01322
 20
12.41778
 30
0.0
 10
5.01322
 20
12.41778
 30
0.0
 10
5.01322
 20
12.41778
 30
0.0
 10
4.79773
 20
12.41778
 30
0.0
 10
4.79773
 20
12.41778
 30
0.0
 10
4.79773
 20
12.41778
 30
0.0
 10
4.79773
 20
12.41778
 30
0.0
 10
4.79773
 20
11.8623
 30
0.0
 10
4.79773
 20
11.8623
 30
0.0
 10
4.79773
 20
11.8623
 30
0.0
 10
4.79773
 20
11.8623
 30
0.0
 10
5.55659
 20
11.8623
 30
0.0
 10
5.55659
 20
11.8623
 30
0.0
 10
5.55659
 20
11.8623
 30
0.0
 10
5.55659
 20
11.8623
 30
0.0
 10
5.55659
 20
11.39771
 30
0.0
 10
5.55659
 20
11.39771
 30
0.0
 10
5.55659
 20
11.39771
 30
0.0
 10
5.55659
 20
11.39771
 30
0.0
 10
4.27384
 20
11.39771
 30
0.0
 10
4.27384
 20
11.39771
 30
0.0
 10
4.27384
 20
11.39771
 30
0.0
 10
4.27384
 20
11.39771
 30
0.0
 10
4.27384
 20
12.75777
 30
0.0
 10
4.27384
 20
12.75777
 30
0.0
 10
4.27384
 20
12.75777
 30
0.0
 10
4.27384
 20
12.75777
 30
0.0
 10
5.55659
 20
12.75777
 30
0.0
 10
5.55659
 20
12.75777
 30
0.0
 10
5.55659
 20
12.75777
 30
0.0
 10
5.55659
 20
12.75777
 30
0.0
 10
5.55659
 20
12.07784
 30
0.0
 10
5.55659
 20
12.07784
 30
0.0
  0
SPLINE
  5
70
330
1F
100
AcDbEntity
  8
Layer 1
370
     9
100
AcDbSpline
210
0.0
220
0.0
230
1.0
 70
    11
 71
     3
 72
    44
 73
    40
 74
     0
 42
0.0000000001
 43
0.0000000001
 12
1.0
 22
0.0
 32
0.0
 13
1.0
 23
0.0
 33
0.0
 40
0.0
 40
0.0
 40
0.0
 40
0.0
 40
0.0909090909090909
 40
0.0909090909090909
 40
0.0909090909090909
 40
0.0909090909090909
 40
0.1818181818181818
 40
0.1818181818181818
 40
0.1818181818181818
 40
0.1818181818181818
 40
0.2727272727272727
 40
0.2727272727272727
 40
0.2727272727272727
 40
0.2727272727272727
 40
0.3636363636363636
 40
0.3636363636363636
 40
0.3636363636363636
 40
0.3636363636363636
 40
0.4545454545454545
 40
0.4545454545454545
 40
0.4545454545454545
 40
0.4545454545454545
 40
0.5454545454545454
 40
0.5454545454545454
 40
0.5454545454545454
 40
0.5454545454545454
 40
0.6363636363636364
 40
0.6363636363636364
 40
0.6363636363636364
 40
0.6363636363636364
 40
0.7272727272727273
 40
0.7272727272727273
 40
0.7272727272727273
 40
0.7272727272727273
 40
0.8181818181818182
 40
0.8181818181818182
 40
0.8181818181818182
 40
0.8181818181818182
 40
1.0
 40
1.0
 40
1.0
 40
1.0
 10
4.27384
 20
10.5021
 30
0.0
 10
4.27384
 20
10.5021
 30
0.0
 10
4.79772
 20
10.5021
 30
0.0
 10
4.79772
 20
10.5021
 30
0.0
 10
4.79772
 20
10.5021
 30
0.0
 10
4.79772
 20
10.5021
 30
0.0
 10
4.79773
 20
10.16216
 30
0.0
 10
4.79773
 20
10.16216
 30
0.0
 10
4.79773
 20
10.16216
 30
0.0
 10
4.79773
 20
10.16216
 30
0.0
 10
5.01322
 20
10.16216
 30
0.0
 10
5.01322
 20
10.16216
 30
0.0
 10
5.01322
 20
10.16216
 30
0.0
 10
5.01322
 20
10.16216
 30
0.0
 10
5.01322
 20
10.71764
 30
0.0
 10
5.01322
 20
10.71764
 30
0.0
 10
5.01322
 20
10.71764
 30
0.0
 10
5.01322
 20
10.71764
 30
0.0
 10
4.27384
 20
10.71764
 30
0.0
 10
4.27384
 20
10.71764
 30
0.0
 10
4.27384
 20
10.71764
 30
0.0
 10
4.27384
 20
10.71764
 30
0.0
 10
4.27384
 20
11.18223
 30
0.0
 10
4.27384
 20
11.18223
 30
0.0
 10
4.27384
 20
11.18223
 30
0.0
 10
4.27384
 20
11.18223
 30
0.0
 10
5.55659
 20
11.18223
 30
0.0
 10
5.55659
 20
11.18223
 30
0.0
 10
5.55659
 20
11.18223
 30
0.0
 10
5.55659
 20
11.18223
 30
0.0
 10
5.55657
 20
9.82217
 30
0.0
 10
5.55657
 20
9.82217
 30
0.0
 10
5.55657
 20
9.82217
 30
0.0
 10
5.55657
 20
9.82217
 30
0.0
 10
4.27384
 20
9.82217
 30
0.0
 10
4.27384
 20
9.82217
 30
0.0
 10
4.27384
 20
9.82217
 30
0.0
 10
4.27384
 20
9.82217
 30
0.0
 10
4.27384
 20
10.5021
 30
0.0
 10
4.27384
 20
10.5021
 30
0.0
  0
SPLINE
  5
71
330
1F
100
AcDbEntity
  8
Layer 1
370
     9
100
AcDbSpline
210
0.0
220
0.0
230
1.0
 70
    11
 71
     3
 72
    20
 73
    16
 74
     0
 42
0.0000000001
 43
0.0000000001
 12
1.0
 22
0.0
 32
0.0
 13
1.0
 23
0.0
 33
0.0
 40
0.0
 40
0.0
 40
0.0
 40
0.0
 40
0.2
 40
0.2
 40
0.2
 40
0.2
 40
0.4
 40
0.4
 40
0.4
 40
0.4
 40
0.6
 40
0.6
 40
0.6
 40
0.6
 40
1.0
 40
1.0
 40
1.0
 40
1.0
 10
5.66425
 20
12.97323
 30
0.0
 10
5.66425
 20
12.97323
 30
0.0
 10
4.16612
 20
12.97323
 30
0.0
 10
4.16612
 20
12.97323
 30
0.0
 10
4.16612
 20
12.97323
 30
0.0
 10
4.16612
 20
12.97323
 30
0.0
 10
4.16612
 20
14.6001
 30
0.0
 10
4.16612
 20
14.6001
 30
0.0
 10
4.16612
 20
14.6001
 30
0.0
 10
4.16612
 20
14.6001
 30
0.0
 10
5.66425
 20
14.6001
 30
0.0
 10
5.66425
 20
14.6001
 30
0.0
 10
5.66425
 20
14.6001
 30
0.0
 10
5.66425
 20
14.6001
 30
0.0
 10
5.66425
 20
12.97323
 30
0.0
 10
5.66425
 20
12.97323
 30
0.0
  0
SPLINE
  5
72
330
1F
100
AcDbEntity
  8
Layer 1
370
     9
100
AcDbSpline
210
0.0
220
0.0
230
1.0
 70
    11
 71
     3
 72
    84
 73
    80
 74
     0
 42
0.0000000001
 43
0.0000000001
 12
1.0
 22
0.0
 32
0.0
 13
1.0
 23
0.0
 33
0.0
 40
0.0
 40
0.0
 40
0.0
 40
0.0
 40
0.0476190476190476
 40
0.0476190476190476
 40
0.0476190476190476
 40
0.0476190476190476
 40
0.0952380952380952
 40
0.0952380952380952
 40
0.0952380952380952
 40
0.0952380952380952
 40
0.1428571428571428
 40
0.1428571428571428
 40
0.1428571428571428
 40
0.1428571428571428
 40
0.1904761904761905
 40
0.1904761904761905
 40
0.1904761904761905
 40
0.1904761904761905
 40
0.2380952380952381
 40
0.2380952380952381
 40
0.2380952380952381
 40
0.2380952380952381
 40
0.2857142857142857
 40
0.2857142857142857
 40
0.2857142857142857
 40
0.2857142857142857
 40
0.3333333333333333
 40
0.3333333333333333
 40
0.3333333333333333
 40
0.3333333333333333
 40
0.3809523809523809
 40
0.3809523809523809
 40
0.3809523809523809
 40
0.3809523809523809
 40
0.4285714285714285
 40
0.4285714285714285
 40
0.4285714285714285
 40
0.4285714285714285
 40
0.4761904761904762
 40
0.4761904761904762
 40
0.4761904761904762
 40
0.4761904761904762
 40
0.5238095238095238
 40
0.5238095238095238
 40
0.5238095238095238
 40
0.5238095238095238
 40
0.5714285714285714
 40
0.5714285714285714
 40
0.5714285714285714
 40
0.5714285714285714
 40
0.6190476190476191
 40
0.6190476190476191
 40
0.6190476190476191
 40
0.6190476190476191
 40
0.6666666666666666
 40
0.6666666666666666
 40
0.6666666666666666
 40
0.6666666666666666
 40
0.7142857142857143
 40
0.7142857142857143
 40
0.7142857142857143
 40
0.7142857142857143
 40
0.7619047619047619
 40
0.7619047619047619
 40
0.7619047619047619
 40
0.7619047619047619
 40
0.8095238095238095
 40
0.8095238095238095
 40
0.8095238095238095
 40
0.8095238095238095
 40
0.8571428571428571
 40
0.8571428571428571
 40
0.8571428571428571
 40
0.8571428571428571
 40
0.9047619047619048
 40
0.9047619047619048
 40
0.9047619047619048
 40
0.9047619047619048
 40
1.0
 40
1.0
 40
1.0
 40
1.0
 10
4.16612
 20
15.71116
 30
0.0
 10
4.16612
 20
15.71116
 30
0.0
 10
4.16612
 20
15.91309
 30
0.0
 10
4.16612
 20
15.91309
 30
0.0
 10
4.16612
 20
15.91309
 30
0.0
 10
4.16612
 20
15.91309
 30
0.0
 10
3.96419
 20
15.91309
 30
0.0
 10
3.96419
 20
15.91309
 30
0.0
 10
3.96419
 20
15.91309
 30
0.0
 10
3.96419
 20
15.91309
 30
0.0
 10
3.96419
 20
16.76019
 30
0.0
 10
3.96419
 20
16.76019
 30
0.0
 10
3.96419
 20
16.76019
 30
0.0
 10
3.96419
 20
16.76019
 30
0.0
 10
3.40864
 20
16.76019
 30
0.0
 10
3.40864
 20
16.76019
 30
0.0
 10
3.40864
 20
16.76019
 30
0.0
 10
3.40864
 20
16.76019
 30
0.0
 10
3.40864
 20
16.54469
 30
0.0
 10
3.40864
 20
16.54469
 30
0.0
 10
3.40864
 20
16.54469
 30
0.0
 10
3.40864
 20
16.54469
 30
0.0
 10
3.74869
 20
16.54469
 30
0.0
 10
3.74869
 20
16.54469
 30
0.0
 10
3.74869
 20
16.54469
 30
0.0
 10
3.74869
 20
16.54469
 30
0.0
 10
3.74869
 20
16.02081
 30
0.0
 10
3.74869
 20
16.02081
 30
0.0
 10
3.74869
 20
16.02081
 30
0.0
 10
3.74869
 20
16.02081
 30
0.0
 10
3.06859
 20
16.02081
 30
0.0
 10
3.06859
 20
16.02081
 30
0.0
 10
3.06859
 20
16.02081
 30
0.0
 10
3.06859
 20
16.02081
 30
0.0
 10
3.06859
 20
17.30356
 30
0.0
 10
3.06859
 20
17.30356
 30
0.0
 10
3.06859
 20
17.30356
 30
0.0
 10
3.06859
 20
17.30356
 30
0.0
 10
4.42878
 20
17.30356
 30
0.0
 10
4.42878
 20
17.30356
 30
0.0
 10
4.42878
 20
17.30356
 30
0.0
 10
4.42878
 20
17.30356
 30
0.0
 10
4.42878
 20
16.17574
 30
0.0
 10
4.42878
 20
16.17574
 30
0.0
 10
4.42878
 20
16.17574
 30
0.0
 10
4.42878
 20
16.17574
 30
0.0
 10
5.55659
 20
16.17576
 30
0.0
 10
5.55659
 20
16.17576
 30
0.0
 10
5.55659
 20
16.17576
 30
0.0
 10
5.55659
 20
16.17576
 30
0.0
 10
5.55657
 20
14.81556
 30
0.0
 10
5.55657
 20
14.81556
 30
0.0
 10
5.55657
 20
14.81556
 30
0.0
 10
5.55657
 20
14.81556
 30
0.0
 10
4.27384
 20
14.81556
 30
0.0
 10
4.27384
 20
14.81556
 30
0.0
 10
4.27384
 20
14.81556
 30
0.0
 10
4.27384
 20
14.81556
 30
0.0
 10
4.27384
 20
15.49565
 30
0.0
 10
4.27384
 20
15.49565
 30
0.0
 10
4.27384
 20
15.49565
 30
0.0
 10
4.27384
 20
15.49565
 30
0.0
 10
4.79772
 20
15.49565
 30
0.0
 10
4.79772
 20
15.49565
 30
0.0
 10
4.79772
 20
15.49565
 30
0.0
 10
4.79772
 20
15.49565
 30
0.0
 10
4.79773
 20
15.15559
 30
0.0
 10
4.79773
 20
15.15559
 30
0.0
 10
4.79773
 20
15.15559
 30
0.0
 10
4.79773
 20
15.15559
 30
0.0
 10
5.01322
 20
15.15559
 30
0.0
 10
5.01322
 20
15.15559
 30
0.0
 10
5.01322
 20
15.15559
 30
0.0
 10
5.01322
 20
15.15559
 30
0.0
 10
5.01322
 20
15.71116
 30
0.0
 10
5.01322
 20
15.71116
 30
0.0
 10
5.01322
 20
15.71116
 30
0.0
 10
5.01322
 20
15.71116
 30
0.0
 10
4.16612
 20
15.71116
 30
0.0
 10
4.16612
 20
15.71116
 30
0.0
  0
SPLINE
  5
73
330
1F
100
AcDbEntity
  8
Layer 1
370
     9
100
AcDbSpline
210
0.0
220
0.0
230
1.0
 70
    11
 71
     3
 72
    20
 73
    16
 74
     0
 42
0.0000000001
 43
0.0000000001
 12
1.0
 22
0.0
 32
0.0
 13
1.0
 23
0.0
 33
0.0
 40
0.0
 40
0.0
 40
0.0
 40
0.0
 40
0.2
 40
0.2
 40
0.2
 40
0.2
 40
0.4
 40
0.4
 40
0.4
 40
0.4
 40
0.6
 40
0.6
 40
0.6
 40
0.6
 40
1.0
 40
1.0
 40
1.0
 40
1.0
 10
1.22626
 20
6.66685
 30
0.0
 10
1.22626
 20
6.66685
 30
0.0
 10
2.85313
 20
6.66685
 30
0.0
 10
2.85313
 20
6.66685
 30
0.0
 10
2.85313
 20
6.66685
 30
0.0
 10
2.85313
 20
6.66685
 30
0.0
 10
2.85313
 20
5.16875
 30
0.0
 10
2.85313
 20
5.16875
 30
0.0
 10
2.85313
 20
5.16875
 30
0.0
 10
2.85313
 20
5.16875
 30
0.0
 10
1.22626
 20
5.16874
 30
0.0
 10
1.22626
 20
5.16874
 30
0.0
 10
1.22626
 20
5.16874
 30
0.0
 10
1.22626
 20
5.16874
 30
0.0
 10
1.22626
 20
6.66685
 30
0.0
 10
1.22626
 20
6.66685
 30
0.0
  0
SPLINE
  5
74
330
1F
100
AcDbEntity
  8
Layer 1
370
     9
100
AcDbSpline
210
0.0
220
0.0
230
1.0
 70
    11
 71
     3
 72
    20
 73
    16
 74
     0
 42
0.0000000001
 43
0.0000000001
 12
1.0
 22
0.0
 32
0.0
 13
1.0
 23
0.0
 33
0.0
 40
0.0
 40
0.0
 40
0.0
 40
0.0
 40
0.2
 40
0.2
 40
0.2
 40
0.2
 40
0.4
 40
0.4
 40
0.4
 40
0.4
 40
0.6
 40
0.6
 40
0.6
 40
0.6
 40
1.0
 40
1.0
 40
1.0
 40
1.0
 10
4.64423
 20
5.16874
 30
0.0
 10
4.64423
 20
5.16874
 30
0.0
 10
4.64423
 20
6.18874
 30
0.0
 10
4.64423
 20
6.18874
 30
0.0
 10
4.64423
 20
6.18874
 30
0.0
 10
4.64423
 20
6.18874
 30
0.0
 10
5.66425
 20
6.18874
 30
0.0
 10
5.66425
 20
6.18874
 30
0.0
 10
5.66425
 20
6.18874
 30
0.0
 10
5.66425
 20
6.18874
 30
0.0
 10
5.66425
 20
5.16874
 30
0.0
 10
5.66425
 20
5.16874
 30
0.0
 10
5.66425
 20
5.16874
 30
0.0
 10
5.66425
 20
5.16874
 30
0.0
 10
4.64423
 20
5.16874
 30
0.0
 10
4.64423
 20
5.16874
 30
0.0
  0
SPLINE
  5
75
330
1F
100
AcDbEntity
  8
Layer 1
370
     9
100
AcDbSpline
210
0.0
220
0.0
230
1.0
 70
    11
 71
     3
 72
    84
 73
    80
 74
     0
 42
0.0000000001
 43
0.0000000001
 12
1.0
 22
0.0
 32
0.0
 13
1.0
 23
0.0
 33
0.0
 40
0.0
 40
0.0
 40
0.0
 40
0.0
 40
0.0476190476190476
 40
0.0476190476190476
 40
0.0476190476190476
 40
0.0476190476190476
 40
0.0952380952380952
 40
0.0952380952380952
 40
0.0952380952380952
 40
0.0952380952380952
 40
0.1428571428571428
 40
0.1428571428571428
 40
0.1428571428571428
 40
0.1428571428571428
 40
0.1904761904761905
 40
0.1904761904761905
 40
0.1904761904761905
 40
0.1904761904761905
 40
0.2380952380952381
 40
0.2380952380952381
 40
0.2380952380952381
 40
0.2380952380952381
 40
0.2857142857142857
 40
0.2857142857142857
 40
0.2857142857142857
 40
0.2857142857142857
 40
0.3333333333333333
 40
0.3333333333333333
 40
0.3333333333333333
 40
0.3333333333333333
 40
0.3809523809523809
 40
0.3809523809523809
 40
0.3809523809523809
 40
0.3809523809523809
 40
0.4285714285714285
 40
0.4285714285714285
 40
0.4285714285714285
 40
0.4285714285714285
 40
0.4761904761904762
 40
0.4761904761904762
 40
0.4761904761904762
 40
0.4761904761904762
 40
0.5238095238095238
 40
0.5238095238095238
 40
0.5238095238095238
 40
0.5238095238095238
 40
0.5714285714285714
 40
0.5714285714285714
 40
0.5714285714285714
 40
0.5714285714285714
 40
0.6190476190476191
 40
0.6190476190476191
 40
0.6190476190476191
 40
0.6190476190476191
 40
0.6666666666666666
 40
0.6666666666666666
 40
0.6666666666666666
 40
0.6666666666666666
 40
0.7142857142857143
 40
0.7142857142857143
 40
0.7142857142857143
 40
0.7142857142857143
 40
0.7619047619047619
 40
0.7619047619047619
 40
0.7619047619047619
 40
0.7619047619047619
 40
0.8095238095238095
 40
0.8095238095238095
 40
0.8095238095238095
 40
0.8095238095238095
 40
0.8571428571428571
 40
0.8571428571428571
 40
0.8571428571428571
 40
0.8571428571428571
 40
0.9047619047619048
 40
0.9047619047619048
 40
0.9047619047619048
 40
0.9047619047619048
 40
1.0
 40
1.0
 40
1.0
 40
1.0
 10
3.96419
 20
6.66685
 30
0.0
 10
3.96419
 20
6.66685
 30
0.0
 10
4.16612
 20
6.66685
 30
0.0
 10
4.16612
 20
6.66685
 30
0.0
 10
4.16612
 20
6.66685
 30
0.0
 10
4.16612
 20
6.66685
 30
0.0
 10
4.16612
 20
6.86878
 30
0.0
 10
4.16612
 20
6.86878
 30
0.0
 10
4.16612
 20
6.86878
 30
0.0
 10
4.16612
 20
6.86878
 30
0.0
 10
5.01322
 20
6.86878
 30
0.0
 10
5.01322
 20
6.86878
 30
0.0
 10
5.01322
 20
6.86878
 30
0.0
 10
5.01322
 20
6.86878
 30
0.0
 10
5.01322
 20
7.42435
 30
0.0
 10
5.01322
 20
7.42435
 30
0.0
 10
5.01322
 20
7.42435
 30
0.0
 10
5.01322
 20
7.42435
 30
0.0
 10
4.79772
 20
7.42433
 30
0.0
 10
4.79772
 20
7.42433
 30
0.0
 10
4.79772
 20
7.42433
 30
0.0
 10
4.79772
 20
7.42433
 30
0.0
 10
4.79769
 20
7.08427
 30
0.0
 10
4.79769
 20
7.08427
 30
0.0
 10
4.79769
 20
7.08427
 30
0.0
 10
4.79769
 20
7.08427
 30
0.0
 10
4.27384
 20
7.08427
 30
0.0
 10
4.27384
 20
7.08427
 30
0.0
 10
4.27384
 20
7.08427
 30
0.0
 10
4.27384
 20
7.08427
 30
0.0
 10
4.27384
 20
7.76438
 30
0.0
 10
4.27384
 20
7.76438
 30
0.0
 10
4.27384
 20
7.76438
 30
0.0
 10
4.27384
 20
7.76438
 30
0.0
 10
5.55656
 20
7.76439
 30
0.0
 10
5.55656
 20
7.76439
 30
0.0
 10
5.55656
 20
7.76439
 30
0.0
 10
5.55656
 20
7.76439
 30
0.0
 10
5.55657
 20
6.4042
 30
0.0
 10
5.55657
 20
6.4042
 30
0.0
 10
5.55657
 20
6.4042
 30
0.0
 10
5.55657
 20
6.4042
 30
0.0
 10
4.42878
 20
6.4042
 30
0.0
 10
4.42878
 20
6.4042
 30
0.0
 10
4.42878
 20
6.4042
 30
0.0
 10
4.42878
 20
6.4042
 30
0.0
 10
4.42878
 20
5.2764
 30
0.0
 10
4.42878
 20
5.2764
 30
0.0
 10
4.42878
 20
5.2764
 30
0.0
 10
4.42878
 20
5.2764
 30
0.0
 10
3.06858
 20
5.2764
 30
0.0
 10
3.06858
 20
5.2764
 30
0.0
 10
3.06858
 20
5.2764
 30
0.0
 10
3.06858
 20
5.2764
 30
0.0
 10
3.06858
 20
6.55913
 30
0.0
 10
3.06858
 20
6.55913
 30
0.0
 10
3.06858
 20
6.55913
 30
0.0
 10
3.06858
 20
6.55913
 30
0.0
 10
3.74864
 20
6.55913
 30
0.0
 10
3.74864
 20
6.55913
 30
0.0
 10
3.74864
 20
6.55913
 30
0.0
 10
3.74864
 20
6.55913
 30
0.0
 10
3.74864
 20
6.03525
 30
0.0
 10
3.74864
 20
6.03525
 30
0.0
 10
3.74864
 20
6.03525
 30
0.0
 10
3.74864
 20
6.03525
 30
0.0
 10
3.40864
 20
6.03525
 30
0.0
 10
3.40864
 20
6.03525
 30
0.0
 10
3.40864
 20
6.03525
 30
0.0
 10
3.40864
 20
6.03525
 30
0.0
 10
3.40864
 20
5.81975
 30
0.0
 10
3.40864
 20
5.81975
 30
0.0
 10
3.40864
 20
5.81975
 30
0.0
 10
3.40864
 20
5.81975
 30
0.0
 10
3.96419
 20
5.81975
 30
0.0
 10
3.96419
 20
5.81975
 30
0.0
 10
3.96419
 20
5.81975
 30
0.0
 10
3.96419
 20
5.81975
 30
0.0
 10
3.96419
 20
6.66685
 30
0.0
 10
3.96419
 20
6.66685
 30
0.0
  0
SPLINE
  5
76
330
1F
100
AcDbEntity
  8
Layer 1
370
     9
100
AcDbSpline
210
0.0
220
0.0
230
1.0
 70
     8
 71
     3
 72
    20
 73
    16
 74
     0
 42
0.0000000001
 43
0.0000000001
 12
1.0
 22
0.0
 32
0.0
 13
1.0
 23
0.0
 33
0.0
 40
0.0
 40
0.0
 40
0.0
 40
0.0
 40
0.2
 40
0.2
 40
0.2
 40
0.2
 40
0.4
 40
0.4
 40
0.4
 40
0.4
 40
0.6
 40
0.6
 40
0.6
 40
0.6
 40
1.0
 40
1.0
 40
1.0
 40
1.0
 10
-3.76713
 20
6.66685
 30
0.0
 10
-3.76713
 20
6.66685
 30
0.0
 10
-2.14026
 20
6.66685
 30
0.0
 10
-2.14026
 20
6.66685
 30
0.0
 10
-2.14026
 20
6.66685
 30
0.0
 10
-2.14026
 20
6.66685
 30
0.0
 10
-2.14026
 20
5.16874
 30
0.0
 10
-2.14026
 20
5.16874
 30
0.0
 10
-2.14026
 20
5.16874
 30
0.0
 10
-2.14026
 20
5.16874
 30
0.0
 10
-3.76713
 20
5.16874
 30
0.0
 10
-3.76713
 20
5.16874
 30
0.0
 10
-3.76713
 20
5.16874
 30
0.0
 10
-3.76713
 20
5.16874
 30
0.0
 10
-3.76713
 20
6.66684
 30
0.0
 10
-3.76713
 20
6.66684
 30
0.0
  0
SPLINE
  5
77
330
1F
100
AcDbEntity
  8
Layer 1
370
     9
100
AcDbSpline
210
0.0
220
0.0
230
1.0
 70
    11
 71
     3
 72
    44
 73
    40
 74
     0
 42
0.0000000001
 43
0.0000000001
 12
1.0
 22
0.0
 32
0.0
 13
1.0
 23
0.0
 33
0.0
 40
0.0
 40
0.0
 40
0.0
 40
0.0
 40
0.0909090909090909
 40
0.0909090909090909
 40
0.0909090909090909
 40
0.0909090909090909
 40
0.1818181818181818
 40
0.1818181818181818
 40
0.1818181818181818
 40
0.1818181818181818
 40
0.2727272727272727
 40
0.2727272727272727
 40
0.2727272727272727
 40
0.2727272727272727
 40
0.3636363636363636
 40
0.3636363636363636
 40
0.3636363636363636
 40
0.3636363636363636
 40
0.4545454545454545
 40
0.4545454545454545
 40
0.4545454545454545
 40
0.4545454545454545
 40
0.5454545454545454
 40
0.5454545454545454
 40
0.5454545454545454
 40
0.5454545454545454
 40
0.6363636363636364
 40
0.6363636363636364
 40
0.6363636363636364
 40
0.6363636363636364
 40
0.7272727272727273
 40
0.7272727272727273
 40
0.7272727272727273
 40
0.7272727272727273
 40
0.8181818181818182
 40
0.8181818181818182
 40
0.8181818181818182
 40
0.8181818181818182
 40
1.0
 40
1.0
 40
1.0
 40
1.0
 10
0.33087
 20
5.2764
 30
0.0
 10
0.33087
 20
5.2764
 30
0.0
 10
0.33087
 20
5.81976
 30
0.0
 10
0.33087
 20
5.81976
 30
0.0
 10
0.33087
 20
5.81976
 30
0.0
 10
0.33087
 20
5.81976
 30
0.0
 10
0.67081
 20
5.81975
 30
0.0
 10
0.67081
 20
5.81975
 30
0.0
 10
0.67081
 20
5.81975
 30
0.0
 10
0.67081
 20
5.81975
 30
0.0
 10
0.67081
 20
6.03525
 30
0.0
 10
0.67081
 20
6.03525
 30
0.0
 10
0.67081
 20
6.03525
 30
0.0
 10
0.67081
 20
6.03525
 30
0.0
 10
0.11535
 20
6.03525
 30
0.0
 10
0.11535
 20
6.03525
 30
0.0
 10
0.11535
 20
6.03525
 30
0.0
 10
0.11535
 20
6.03525
 30
0.0
 10
0.11535
 20
5.2764
 30
0.0
 10
0.11535
 20
5.2764
 30
0.0
 10
0.11535
 20
5.2764
 30
0.0
 10
0.11535
 20
5.2764
 30
0.0
 10
-0.34926
 20
5.2764
 30
0.0
 10
-0.34926
 20
5.2764
 30
0.0
 10
-0.34926
 20
5.2764
 30
0.0
 10
-0.34926
 20
5.2764
 30
0.0
 10
-0.34926
 20
6.55913
 30
0.0
 10
-0.34926
 20
6.55913
 30
0.0
 10
-0.34926
 20
6.55913
 30
0.0
 10
-0.34926
 20
6.55913
 30
0.0
 10
1.0108
 20
6.55913
 30
0.0
 10
1.0108
 20
6.55913
 30
0.0
 10
1.0108
 20
6.55913
 30
0.0
 10
1.0108
 20
6.55913
 30
0.0
 10
1.0108
 20
5.2764
 30
0.0
 10
1.0108
 20
5.2764
 30
0.0
 10
1.0108
 20
5.2764
 30
0.0
 10
1.0108
 20
5.2764
 30
0.0
 10
0.33087
 20
5.2764
 30
0.0
 10
0.33087
 20
5.2764
 30
0.0
  0
SPLINE
  5
78
330
1F
100
AcDbEntity
  8
Layer 1
370
     9
100
AcDbSpline
210
0.0
220
0.0
230
1.0
 70
    11
 71
     3
 72
    44
 73
    40
 74
     0
 42
0.0000000001
 43
0.0000000001
 12
1.0
 22
0.0
 32
0.0
 13
1.0
 23
0.0
 33
0.0
 40
0.0
 40
0.0
 40
0.0
 40
0.0
 40
0.0909090909090909
 40
0.0909090909090909
 40
0.0909090909090909
 40
0.0909090909090909
 40
0.1818181818181818
 40
0.1818181818181818
 40
0.1818181818181818
 40
0.1818181818181818
 40
0.2727272727272727
 40
0.2727272727272727
 40
0.2727272727272727
 40
0.2727272727272727
 40
0.3636363636363636
 40
0.3636363636363636
 40
0.3636363636363636
 40
0.3636363636363636
 40
0.4545454545454545
 40
0.4545454545454545
 40
0.4545454545454545
 40
0.4545454545454545
 40
0.5454545454545454
 40
0.5454545454545454
 40
0.5454545454545454
 40
0.5454545454545454
 40
0.6363636363636364
 40
0.6363636363636364
 40
0.6363636363636364
 40
0.6363636363636364
 40
0.7272727272727273
 40
0.7272727272727273
 40
0.7272727272727273
 40
0.7272727272727273
 40
0.8181818181818182
 40
0.8181818181818182
 40
0.8181818181818182
 40
0.8181818181818182
 40
1.0
 40
1.0
 40
1.0
 40
1.0
 10
-1.24487
 20
6.55913
 30
0.0
 10
-1.24487
 20
6.55913
 30
0.0
 10
-1.9248
 20
6.55913
 30
0.0
 10
-1.9248
 20
6.55913
 30
0.0
 10
-1.9248
 20
6.55913
 30
0.0
 10
-1.9248
 20
6.55913
 30
0.0
 10
-1.9248
 20
5.2764
 30
0.0
 10
-1.9248
 20
5.2764
 30
0.0
 10
-1.9248
 20
5.2764
 30
0.0
 10
-1.9248
 20
5.2764
 30
0.0
 10
-0.56474
 20
5.2764
 30
0.0
 10
-0.56474
 20
5.2764
 30
0.0
 10
-0.56474
 20
5.2764
 30
0.0
 10
-0.56474
 20
5.2764
 30
0.0
 10
-0.56474
 20
6.55913
 30
0.0
 10
-0.56474
 20
6.55913
 30
0.0
 10
-0.56474
 20
6.55913
 30
0.0
 10
-0.56474
 20
6.55913
 30
0.0
 10
-1.02933
 20
6.55913
 30
0.0
 10
-1.02933
 20
6.55913
 30
0.0
 10
-1.02933
 20
6.55913
 30
0.0
 10
-1.02933
 20
6.55913
 30
0.0
 10
-1.02933
 20
5.81975
 30
0.0
 10
-1.02933
 20
5.81975
 30
0.0
 10
-1.02933
 20
5.81975
 30
0.0
 10
-1.02933
 20
5.81975
 30
0.0
 10
-1.58481
 20
5.81975
 30
0.0
 10
-1.58481
 20
5.81975
 30
0.0
 10
-1.58481
 20
5.81975
 30
0.0
 10
-1.58481
 20
5.81975
 30
0.0
 10
-1.58481
 20
6.03525
 30
0.0
 10
-1.58481
 20
6.03525
 30
0.0
 10
-1.58481
 20
6.03525
 30
0.0
 10
-1.58481
 20
6.03525
 30
0.0
 10
-1.24487
 20
6.03525
 30
0.0
 10
-1.24487
 20
6.03525
 30
0.0
 10
-1.24487
 20
6.03525
 30
0.0
 10
-1.24487
 20
6.03525
 30
0.0
 10
-1.24487
 20
6.55913
 30
0.0
 10
-1.24487
 20
6.55913
 30
0.0
  0
SPLINE
  5
79
330
1F
100
AcDbEntity
  8
Layer 1
370
     9
100
AcDbSpline
210
0.0
220
0.0
230
1.0
 70
    11
 71
     3
 72
    20
 73
    16
 74
     0
 42
0.0000000001
 43
0.0000000001
 12
1.0
 22
0.0
 32
0.0
 13
1.0
 23
0.0
 33
0.0
 40
0.0
 40
0.0
 40
0.0
 40
0.0
 40
0.2
 40
0.2
 40
0.2
 40
0.2
 40
0.4
 40
0.4
 40
0.4
 40
0.4
 40
0.6
 40
0.6
 40
0.6
 40
0.6
 40
1.0
 40
1.0
 40
1.0
 40
1.0
 10
-5.08012
 20
9.60671
 30
0.0
 10
-5.08012
 20
9.60671
 30
0.0
 10
-5.08012
 20
7.97984
 30
0.0
 10
-5.08012
 20
7.97984
 30
0.0
 10
-5.08012
 20
7.97984
 30
0.0
 10
-5.08012
 20
7.97984
 30
0.0
 10
-6.57824
 20
7.97984
 30
0.0
 10
-6.57824
 20
7.97984
 30
0.0
 10
-6.57824
 20
7.97984
 30
0.0
 10
-6.57824
 20
7.97984
 30
0.0
 10
-6.57824
 20
9.60671
 30
0.0
 10
-6.57824
 20
9.60671
 30
0.0
 10
-6.57824
 20
9.60671
 30
0.0
 10
-6.57824
 20
9.60671
 30
0.0
 10
-5.08012
 20
9.60671
 30
0.0
 10
-5.08012
 20
9.60671
 30
0.0
  0
SPLINE
  5
7A
330
1F
100
AcDbEntity
  8
Layer 1
370
     9
100
AcDbSpline
210
0.0
220
0.0
230
1.0
 70
    11
 71
     3
 72
    20
 73
    16
 74
     0
 42
0.0000000001
 43
0.0000000001
 12
1.0
 22
0.0
 32
0.0
 13
1.0
 23
0.0
 33
0.0
 40
0.0
 40
0.0
 40
0.0
 40
0.0
 40
0.2
 40
0.2
 40
0.2
 40
0.2
 40
0.4
 40
0.4
 40
0.4
 40
0.4
 40
0.6
 40
0.6
 40
0.6
 40
0.6
 40
1.0
 40
1.0
 40
1.0
 40
1.0
 10
-6.57824
 20
6.18874
 30
0.0
 10
-6.57824
 20
6.18874
 30
0.0
 10
-5.55823
 20
6.18874
 30
0.0
 10
-5.55823
 20
6.18874
 30
0.0
 10
-5.55823
 20
6.18874
 30
0.0
 10
-5.55823
 20
6.18874
 30
0.0
 10
-5.55823
 20
5.16874
 30
0.0
 10
-5.55823
 20
5.16874
 30
0.0
 10
-5.55823
 20
5.16874
 30
0.0
 10
-5.55823
 20
5.16874
 30
0.0
 10
-6.57824
 20
5.16874
 30
0.0
 10
-6.57824
 20
5.16874
 30
0.0
 10
-6.57824
 20
5.16874
 30
0.0
 10
-6.57824
 20
5.16874
 30
0.0
 10
-6.57824
 20
6.18874
 30
0.0
 10
-6.57824
 20
6.18874
 30
0.0
  0
SPLINE
  5
7B
330
1F
100
AcDbEntity
  8
Layer 1
370
     9
100
AcDbSpline
210
0.0
220
0.0
230
1.0
 70
     8
 71
     3
 72
    84
 73
    80
 74
     0
 42
0.0000000001
 43
0.0000000001
 12
1.0
 22
0.0
 32
0.0
 13
1.0
 23
0.0
 33
0.0
 40
0.0
 40
0.0
 40
0.0
 40
0.0
 40
0.0476190476190476
 40
0.0476190476190476
 40
0.0476190476190476
 40
0.0476190476190476
 40
0.0952380952380952
 40
0.0952380952380952
 40
0.0952380952380952
 40
0.0952380952380952
 40
0.1428571428571428
 40
0.1428571428571428
 40
0.1428571428571428
 40
0.1428571428571428
 40
0.1904761904761905
 40
0.1904761904761905
 40
0.1904761904761905
 40
0.1904761904761905
 40
0.2380952380952381
 40
0.2380952380952381
 40
0.2380952380952381
 40
0.2380952380952381
 40
0.2857142857142857
 40
0.2857142857142857
 40
0.2857142857142857
 40
0.2857142857142857
 40
0.3333333333333333
 40
0.3333333333333333
 40
0.3333333333333333
 40
0.3333333333333333
 40
0.3809523809523809
 40
0.3809523809523809
 40
0.3809523809523809
 40
0.3809523809523809
 40
0.4285714285714285
 40
0.4285714285714285
 40
0.4285714285714285
 40
0.4285714285714285
 40
0.4761904761904762
 40
0.4761904761904762
 40
0.4761904761904762
 40
0.4761904761904762
 40
0.5238095238095238
 40
0.5238095238095238
 40
0.5238095238095238
 40
0.5238095238095238
 40
0.5714285714285714
 40
0.5714285714285714
 40
0.5714285714285714
 40
0.5714285714285714
 40
0.6190476190476191
 40
0.6190476190476191
 40
0.6190476190476191
 40
0.6190476190476191
 40
0.6666666666666666
 40
0.6666666666666666
 40
0.6666666666666666
 40
0.6666666666666666
 40
0.7142857142857143
 40
0.7142857142857143
 40
0.7142857142857143
 40
0.7142857142857143
 40
0.7619047619047619
 40
0.7619047619047619
 40
0.7619047619047619
 40
0.7619047619047619
 40
0.8095238095238095
 40
0.8095238095238095
 40
0.8095238095238095
 40
0.8095238095238095
 40
0.8571428571428571
 40
0.8571428571428571
 40
0.8571428571428571
 40
0.8571428571428571
 40
0.9047619047619048
 40
0.9047619047619048
 40
0.9047619047619048
 40
0.9047619047619048
 40
1.0
 40
1.0
 40
1.0
 40
1.0
 10
-5.08012
 20
6.86877
 30
0.0
 10
-5.08012
 20
6.86877
 30
0.0
 10
-5.08012
 20
6.66685
 30
0.0
 10
-5.08012
 20
6.66685
 30
0.0
 10
-5.08012
 20
6.66685
 30
0.0
 10
-5.08012
 20
6.66685
 30
0.0
 10
-4.87819
 20
6.66685
 30
0.0
 10
-4.87819
 20
6.66685
 30
0.0
 10
-4.87819
 20
6.66685
 30
0.0
 10
-4.87819
 20
6.66685
 30
0.0
 10
-4.87819
 20
5.81975
 30
0.0
 10
-4.87819
 20
5.81975
 30
0.0
 10
-4.87819
 20
5.81975
 30
0.0
 10
-4.87819
 20
5.81975
 30
0.0
 10
-4.32262
 20
5.81975
 30
0.0
 10
-4.32262
 20
5.81975
 30
0.0
 10
-4.32262
 20
5.81975
 30
0.0
 10
-4.32262
 20
5.81975
 30
0.0
 10
-4.32262
 20
6.03525
 30
0.0
 10
-4.32262
 20
6.03525
 30
0.0
 10
-4.32262
 20
6.03525
 30
0.0
 10
-4.32262
 20
6.03525
 30
0.0
 10
-4.66265
 20
6.03525
 30
0.0
 10
-4.66265
 20
6.03525
 30
0.0
 10
-4.66265
 20
6.03525
 30
0.0
 10
-4.66265
 20
6.03525
 30
0.0
 10
-4.66265
 20
6.55913
 30
0.0
 10
-4.66265
 20
6.55913
 30
0.0
 10
-4.66265
 20
6.55913
 30
0.0
 10
-4.66265
 20
6.55913
 30
0.0
 10
-3.98259
 20
6.55913
 30
0.0
 10
-3.98259
 20
6.55913
 30
0.0
 10
-3.98259
 20
6.55913
 30
0.0
 10
-3.98259
 20
6.55913
 30
0.0
 10
-3.98259
 20
5.2764
 30
0.0
 10
-3.98259
 20
5.2764
 30
0.0
 10
-3.98259
 20
5.2764
 30
0.0
 10
-3.98259
 20
5.2764
 30
0.0
 10
-5.34277
 20
5.2764
 30
0.0
 10
-5.34277
 20
5.2764
 30
0.0
 10
-5.34277
 20
5.2764
 30
0.0
 10
-5.34277
 20
5.2764
 30
0.0
 10
-5.34277
 20
6.4042
 30
0.0
 10
-5.34277
 20
6.4042
 30
0.0
 10
-5.34277
 20
6.4042
 30
0.0
 10
-5.34277
 20
6.4042
 30
0.0
 10
-6.47057
 20
6.4042
 30
0.0
 10
-6.47057
 20
6.4042
 30
0.0
 10
-6.47057
 20
6.4042
 30
0.0
 10
-6.47057
 20
6.4042
 30
0.0
 10
-6.47056
 20
7.76438
 30
0.0
 10
-6.47056
 20
7.76438
 30
0.0
 10
-6.47056
 20
7.76438
 30
0.0
 10
-6.47056
 20
7.76438
 30
0.0
 10
-5.18784
 20
7.76438
 30
0.0
 10
-5.18784
 20
7.76438
 30
0.0
 10
-5.18784
 20
7.76438
 30
0.0
 10
-5.18784
 20
7.76438
 30
0.0
 10
-5.18784
 20
7.08427
 30
0.0
 10
-5.18784
 20
7.08427
 30
0.0
 10
-5.18784
 20
7.08427
 30
0.0
 10
-5.18784
 20
7.08427
 30
0.0
 10
-5.71169
 20
7.08427
 30
0.0
 10
-5.71169
 20
7.08427
 30
0.0
 10
-5.71169
 20
7.08427
 30
0.0
 10
-5.71169
 20
7.08427
 30
0.0
 10
-5.71172
 20
7.42433
 30
0.0
 10
-5.71172
 20
7.42433
 30
0.0
 10
-5.71172
 20
7.42433
 30
0.0
 10
-5.71172
 20
7.42433
 30
0.0
 10
-5.92722
 20
7.42433
 30
0.0
 10
-5.92722
 20
7.42433
 30
0.0
 10
-5.92722
 20
7.42433
 30
0.0
 10
-5.92722
 20
7.42433
 30
0.0
 10
-5.92722
 20
6.86878
 30
0.0
 10
-5.92722
 20
6.86878
 30
0.0
 10
-5.92722
 20
6.86878
 30
0.0
 10
-5.92722
 20
6.86878
 30
0.0
 10
-5.08012
 20
6.86878
 30
0.0
 10
-5.08012
 20
6.86878
 30
0.0
  0
SPLINE
  5
7C
330
1F
100
AcDbEntity
  8
Layer 1
370
     9
100
AcDbSpline
210
0.0
220
0.0
230
1.0
 70
     8
 71
     3
 72
   124
 73
   120
 74
     0
 42
0.0000000001
 43
0.0000000001
 12
1.0
 22
0.0
 32
0.0
 13
1.0
 23
0.0
 33
0.0
 40
0.0
 40
0.0
 40
0.0
 40
0.0
 40
0.032258064516129
 40
0.032258064516129
 40
0.032258064516129
 40
0.032258064516129
 40
0.0645161290322581
 40
0.0645161290322581
 40
0.0645161290322581
 40
0.0645161290322581
 40
0.0967741935483871
 40
0.0967741935483871
 40
0.0967741935483871
 40
0.0967741935483871
 40
0.1290322580645161
 40
0.1290322580645161
 40
0.1290322580645161
 40
0.1290322580645161
 40
0.1612903225806452
 40
0.1612903225806452
 40
0.1612903225806452
 40
0.1612903225806452
 40
0.1935483870967742
 40
0.1935483870967742
 40
0.1935483870967742
 40
0.1935483870967742
 40
0.2258064516129032
 40
0.2258064516129032
 40
0.2258064516129032
 40
0.2258064516129032
 40
0.2580645161290323
 40
0.2580645161290323
 40
0.2580645161290323
 40
0.2580645161290323
 40
0.2903225806451613
 40
0.2903225806451613
 40
0.2903225806451613
 40
0.2903225806451613
 40
0.3225806451612903
 40
0.3225806451612903
 40
0.3225806451612903
 40
0.3225806451612903
 40
0.3548387096774194
 40
0.3548387096774194
 40
0.3548387096774194
 40
0.3548387096774194
 40
0.3870967741935484
 40
0.3870967741935484
 40
0.3870967741935484
 40
0.3870967741935484
 40
0.4193548387096774
 40
0.4193548387096774
 40
0.4193548387096774
 40
0.4193548387096774
 40
0.4516129032258064
 40
0.4516129032258064
 40
0.4516129032258064
 40
0.4516129032258064
 40
0.4838709677419355
 40
0.4838709677419355
 40
0.4838709677419355
 40
0.4838709677419355
 40
0.5161290322580645
 40
0.5161290322580645
 40
0.5161290322580645
 40
0.5161290322580645
 40
0.5483870967741935
 40
0.5483870967741935
 40
0.5483870967741935
 40
0.5483870967741935
 40
0.5806451612903226
 40
0.5806451612903226
 40
0.5806451612903226
 40
0.5806451612903226
 40
0.6129032258064516
 40
0.6129032258064516
 40
0.6129032258064516
 40
0.6129032258064516
 40
0.6451612903225806
 40
0.6451612903225806
 40
0.6451612903225806
 40
0.6451612903225806
 40
0.6774193548387096
 40
0.6774193548387096
 40
0.6774193548387096
 40
0.6774193548387096
 40
0.7096774193548387
 40
0.7096774193548387
 40
0.7096774193548387
 40
0.7096774193548387
 40
0.7419354838709677
 40
0.7419354838709677
 40
0.7419354838709677
 40
0.7419354838709677
 40
0.7741935483870968
 40
0.7741935483870968
 40
0.7741935483870968
 40
0.7741935483870968
 40
0.8064516129032258
 40
0.8064516129032258
 40
0.8064516129032258
 40
0.8064516129032258
 40
0.8387096774193549
 40
0.8387096774193549
 40
0.8387096774193549
 40
0.8387096774193549
 40
0.8709677419354839
 40
0.8709677419354839
 40
0.8709677419354839
 40
0.8709677419354839
 40
0.9032258064516129
 40
0.9032258064516129
 40
0.9032258064516129
 40
0.9032258064516129
 40
0.9354838709677419
 40
0.9354838709677419
 40
0.9354838709677419
 40
0.9354838709677419
 40
1.0
 40
1.0
 40
1.0
 40
1.0
 10
-2.26007
 20
13.09301
 30
0.0
 10
-2.0687
 20
12.41816
 30
0.0
 10
-2.46218
 20
11.7155
 30
0.0
 10
-3.13702
 20
11.52412
 30
0.0
 10
-3.13702
 20
11.52412
 30
0.0
 10
-3.23756
 20
11.49573
 30
0.0
 10
-3.34123
 20
11.47981
 30
0.0
 10
-3.44565
 20
11.47675
 30
0.0
 10
-3.44565
 20
11.47675
 30
0.0
 10
-3.93702
 20
11.44145
 30
0.0
 10
-4.39742
 20
11.7192
 30
0.0
 10
-4.59533
 20
12.17034
 30
0.0
 10
-4.59533
 20
12.17034
 30
0.0
 10
-4.79324
 20
12.62147
 30
0.0
 10
-4.68582
 20
13.14833
 30
0.0
 10
-4.32709
 20
13.48597
 30
0.0
 10
-4.32709
 20
13.48597
 30
0.0
 10
-3.96836
 20
13.82361
 30
0.0
 10
-3.41957
 20
13.89038
 30
0.0
 10
-2.98125
 20
13.66553
 30
0.0
 10
-2.98125
 20
13.66553
 30
0.0
 10
-2.92869
 20
13.62672
 30
0.0
 10
-2.89895
 20
13.56426
 30
0.0
 10
-2.90195
 20
13.499
 30
0.0
 10
-2.90195
 20
13.499
 30
0.0
 10
-2.90494
 20
13.43374
 30
0.0
 10
-2.94075
 20
13.37398
 30
0.0
 10
-2.99664
 20
13.34015
 30
0.0
 10
-2.99664
 20
13.34015
 30
0.0
 10
-3.05253
 20
13.30631
 30
0.0
 10
-3.12161
 20
13.30257
 30
0.0
 10
-3.18081
 20
13.33018
 30
0.0
 10
-3.18081
 20
13.33018
 30
0.0
 10
-3.24003
 20
13.35779
 30
0.0
 10
-3.28166
 20
13.41365
 30
0.0
 10
-3.29168
 20
13.47821
 30
0.0
 10
-3.29168
 20
13.47821
 30
0.0
 10
-3.29753
 20
13.51627
 30
0.0
 10
-3.32325
 20
13.54831
 30
0.0
 10
-3.35914
 20
13.56227
 30
0.0
 10
-3.35914
 20
13.56227
 30
0.0
 10
-3.39503
 20
13.57622
 30
0.0
 10
-3.43564
 20
13.56996
 30
0.0
 10
-3.46566
 20
13.54585
 30
0.0
 10
-3.46566
 20
13.54585
 30
0.0
 10
-3.49569
 20
13.52174
 30
0.0
 10
-3.51058
 20
13.48348
 30
0.0
 10
-3.50471
 20
13.44542
 30
0.0
 10
-3.50471
 20
13.44542
 30
0.0
 10
-3.46995
 20
13.22066
 30
0.0
 10
-3.26013
 20
13.06651
 30
0.0
 10
-3.03533
 20
13.10115
 30
0.0
 10
-3.03533
 20
13.10115
 30
0.0
 10
-2.83056
 20
13.13353
 30
0.0
 10
-2.68137
 20
13.3121
 30
0.0
 10
-2.68639
 20
13.51936
 30
0.0
 10
-2.68639
 20
13.51936
 30
0.0
 10
-2.45906
 20
13.51335
 30
0.0
 10
-2.26983
 20
13.6921
 30
0.0
 10
-2.26354
 20
13.91944
 30
0.0
 10
-2.26354
 20
13.91944
 30
0.0
 10
-2.25863
 20
14.12672
 30
0.0
 10
-2.40759
 20
14.30554
 30
0.0
 10
-2.61243
 20
14.33768
 30
0.0
 10
-2.61243
 20
14.33768
 30
0.0
 10
-2.65049
 20
14.34354
 30
0.0
 10
-2.68879
 20
14.32864
 30
0.0
 10
-2.71289
 20
14.29861
 30
0.0
 10
-2.71289
 20
14.29861
 30
0.0
 10
-2.737
 20
14.26858
 30
0.0
 10
-2.74324
 20
14.22796
 30
0.0
 10
-2.72928
 20
14.19207
 30
0.0
 10
-2.72928
 20
14.19207
 30
0.0
 10
-2.71531
 20
14.15619
 30
0.0
 10
-2.6833
 20
14.13049
 30
0.0
 10
-2.64524
 20
14.12465
 30
0.0
 10
-2.64524
 20
14.12465
 30
0.0
 10
-2.58066
 20
14.11479
 30
0.0
 10
-2.52523
 20
14.07339
 30
0.0
 10
-2.49746
 20
14.01426
 30
0.0
 10
-2.49746
 20
14.01426
 30
0.0
 10
-2.46968
 20
13.95513
 30
0.0
 10
-2.47348
 20
13.88558
 30
0.0
 10
-2.50713
 20
13.82958
 30
0.0
 10
-2.50713
 20
13.82958
 30
0.0
 10
-2.5408
 20
13.77356
 30
0.0
 10
-2.60019
 20
13.73803
 30
0.0
 10
-2.66546
 20
13.73486
 30
0.0
 10
-2.66546
 20
13.73486
 30
0.0
 10
-2.73075
 20
13.73169
 30
0.0
 10
-2.79363
 20
13.76175
 30
0.0
 10
-2.83256
 20
13.81425
 30
0.0
 10
-2.83256
 20
13.81425
 30
0.0
 10
-3.00119
 20
14.13584
 30
0.0
 10
-3.00963
 20
14.51782
 30
0.0
 10
-2.85535
 20
14.84655
 30
0.0
 10
-2.85535
 20
14.84655
 30
0.0
 10
-2.70107
 20
15.17527
 30
0.0
 10
-2.39936
 20
15.4134
 30
0.0
 10
-2.04424
 20
15.48919
 30
0.0
 10
-2.04424
 20
15.48919
 30
0.0
 10
-1.68908
 20
15.56498
 30
0.0
 10
-1.31891
 20
15.47017
 30
0.0
 10
-1.04391
 20
15.23298
 30
0.0
 10
-1.04391
 20
15.23298
 30
0.0
 10
-0.76892
 20
14.9958
 30
0.0
 10
-0.62095
 20
14.64102
 30
0.0
 10
-0.64378
 20
14.27857
 30
0.0
 10
-0.64378
 20
14.27857
 30
0.0
 10
-0.65345
 20
13.94188
 30
0.0
 10
-0.7965
 20
13.62282
 30
0.0
 10
-1.04142
 20
13.3916
 30
0.0
 10
-1.04142
 20
13.3916
 30
0.0
 10
-1.28635
 20
13.16037
 30
0.0
 10
-1.61471
 20
13.03596
 30
0.0
 10
-1.9514
 20
13.04566
 30
0.0
 10
-1.9514
 20
13.04566
 30
0.0
 10
-2.05584
 20
13.04867
 30
0.0
 10
-2.15953
 20
13.06458
 30
0.0
 10
-2.26006
 20
13.09304
 30
0.0
  0
SPLINE
  5
7D
330
1F
100
AcDbEntity
  8
Layer 1
370
     9
100
AcDbSpline
210
0.0
220
0.0
230
1.0
 70
     8
 71
     3
 72
   124
 73
   120
 74
     0
 42
0.0000000001
 43
0.0000000001
 12
1.0
 22
0.0
 32
0.0
 13
1.0
 23
0.0
 33
0.0
 40
0.0
 40
0.0
 40
0.0
 40
0.0
 40
0.032258064516129
 40
0.032258064516129
 40
0.032258064516129
 40
0.032258064516129
 40
0.0645161290322581
 40
0.0645161290322581
 40
0.0645161290322581
 40
0.0645161290322581
 40
0.0967741935483871
 40
0.0967741935483871
 40
0.0967741935483871
 40
0.0967741935483871
 40
0.1290322580645161
 40
0.1290322580645161
 40
0.1290322580645161
 40
0.1290322580645161
 40
0.1612903225806452
 40
0.1612903225806452
 40
0.1612903225806452
 40
0.1612903225806452
 40
0.1935483870967742
 40
0.1935483870967742
 40
0.1935483870967742
 40
0.1935483870967742
 40
0.2258064516129032
 40
0.2258064516129032
 40
0.2258064516129032
 40
0.2258064516129032
 40
0.2580645161290323
 40
0.2580645161290323
 40
0.2580645161290323
 40
0.2580645161290323
 40
0.2903225806451613
 40
0.2903225806451613
 40
0.2903225806451613
 40
0.2903225806451613
 40
0.3225806451612903
 40
0.3225806451612903
 40
0.3225806451612903
 40
0.3225806451612903
 40
0.3548387096774194
 40
0.3548387096774194
 40
0.3548387096774194
 40
0.3548387096774194
 40
0.3870967741935484
 40
0.3870967741935484
 40
0.3870967741935484
 40
0.3870967741935484
 40
0.4193548387096774
 40
0.4193548387096774
 40
0.4193548387096774
 40
0.4193548387096774
 40
0.4516129032258064
 40
0.4516129032258064
 40
0.4516129032258064
 40
0.4516129032258064
 40
0.4838709677419355
 40
0.4838709677419355
 40
0.4838709677419355
 40
0.4838709677419355
 40
0.5161290322580645
 40
0.5161290322580645
 40
0.5161290322580645
 40
0.5161290322580645
 40
0.5483870967741935
 40
0.5483870967741935
 40
0.5483870967741935
 40
0.5483870967741935
 40
0.5806451612903226
 40
0.5806451612903226
 40
0.5806451612903226
 40
0.5806451612903226
 40
0.6129032258064516
 40
0.6129032258064516
 40
0.6129032258064516
 40
0.6129032258064516
 40
0.6451612903225806
 40
0.6451612903225806
 40
0.6451612903225806
 40
0.6451612903225806
 40
0.6774193548387096
 40
0.6774193548387096
 40
0.6774193548387096
 40
0.6774193548387096
 40
0.7096774193548387
 40
0.7096774193548387
 40
0.7096774193548387
 40
0.7096774193548387
 40
0.7419354838709677
 40
0.7419354838709677
 40
0.7419354838709677
 40
0.7419354838709677
 40
0.7741935483870968
 40
0.7741935483870968
 40
0.7741935483870968
 40
0.7741935483870968
 40
0.8064516129032258
 40
0.8064516129032258
 40
0.8064516129032258
 40
0.8064516129032258
 40
0.8387096774193549
 40
0.8387096774193549
 40
0.8387096774193549
 40
0.8387096774193549
 40
0.8709677419354839
 40
0.8709677419354839
 40
0.8709677419354839
 40
0.8709677419354839
 40
0.9032258064516129
 40
0.9032258064516129
 40
0.9032258064516129
 40
0.9032258064516129
 40
0.9354838709677419
 40
0.9354838709677419
 40
0.9354838709677419
 40
0.9354838709677419
 40
1.0
 40
1.0
 40
1.0
 40
1.0
 10
1.34617
 20
13.09307
 30
0.0
 10
1.02212
 20
13.00113
 30
0.0
 10
0.67481
 20
13.04169
 30
0.0
 10
0.38065
 20
13.20582
 30
0.0
 10
0.38065
 20
13.20582
 30
0.0
 10
0.0865
 20
13.36995
 30
0.0
 10
-0.13083
 20
13.64576
 30
0.0
 10
-0.22278
 20
13.96982
 30
0.0
 10
-0.22278
 20
13.96982
 30
0.0
 10
-0.25123
 20
14.07036
 30
0.0
 10
-0.26718
 20
14.17406
 30
0.0
 10
-0.27022
 20
14.27851
 30
0.0
 10
-0.27022
 20
14.27851
 30
0.0
 10
-0.30557
 20
14.76989
 30
0.0
 10
-0.02785
 20
15.23033
 30
0.0
 10
0.42328
 20
15.42828
 30
0.0
 10
0.42328
 20
15.42828
 30
0.0
 10
0.87441
 20
15.62622
 30
0.0
 10
1.40129
 20
15.51883
 30
0.0
 10
1.73896
 20
15.16011
 30
0.0
 10
1.73896
 20
15.16011
 30
0.0
 10
2.07662
 20
14.80138
 30
0.0
 10
2.14341
 20
14.25259
 30
0.0
 10
1.91856
 20
13.81425
 30
0.0
 10
1.91856
 20
13.81425
 30
0.0
 10
1.87976
 20
13.7617
 30
0.0
 10
1.81731
 20
13.73195
 30
0.0
 10
1.75205
 20
13.73494
 30
0.0
 10
1.75205
 20
13.73494
 30
0.0
 10
1.68679
 20
13.73793
 30
0.0
 10
1.62703
 20
13.77373
 30
0.0
 10
1.59319
 20
13.82962
 30
0.0
 10
1.59319
 20
13.82962
 30
0.0
 10
1.55935
 20
13.8855
 30
0.0
 10
1.55561
 20
13.95458
 30
0.0
 10
1.58322
 20
14.01379
 30
0.0
 10
1.58322
 20
14.01379
 30
0.0
 10
1.61083
 20
14.073
 30
0.0
 10
1.66669
 20
14.11463
 30
0.0
 10
1.73124
 20
14.12465
 30
0.0
 10
1.73124
 20
14.12465
 30
0.0
 10
1.7693
 20
14.1305
 30
0.0
 10
1.80134
 20
14.15621
 30
0.0
 10
1.8153
 20
14.1921
 30
0.0
 10
1.8153
 20
14.1921
 30
0.0
 10
1.82926
 20
14.22798
 30
0.0
 10
1.82301
 20
14.26859
 30
0.0
 10
1.79891
 20
14.29862
 30
0.0
 10
1.79891
 20
14.29862
 30
0.0
 10
1.7748
 20
14.32864
 30
0.0
 10
1.73653
 20
14.34354
 30
0.0
 10
1.69847
 20
14.33768
 30
0.0
 10
1.69847
 20
14.33768
 30
0.0
 10
1.4737
 20
14.30292
 30
0.0
 10
1.31954
 20
14.0931
 30
0.0
 10
1.35419
 20
13.8683
 30
0.0
 10
1.35419
 20
13.8683
 30
0.0
 10
1.38656
 20
13.66353
 30
0.0
 10
1.56513
 20
13.51434
 30
0.0
 10
1.77239
 20
13.51936
 30
0.0
 10
1.77239
 20
13.51936
 30
0.0
 10
1.76636
 20
13.29201
 30
0.0
 10
1.94515
 20
13.10276
 30
0.0
 10
2.1725
 20
13.09654
 30
0.0
 10
2.1725
 20
13.09654
 30
0.0
 10
2.37979
 20
13.09162
 30
0.0
 10
2.55859
 20
13.24061
 30
0.0
 10
2.59071
 20
13.44545
 30
0.0
 10
2.59071
 20
13.44545
 30
0.0
 10
2.59656
 20
13.4835
 30
0.0
 10
2.58167
 20
13.52179
 30
0.0
 10
2.55163
 20
13.54588
 30
0.0
 10
2.55163
 20
13.54588
 30
0.0
 10
2.5216
 20
13.56998
 30
0.0
 10
2.48099
 20
13.57622
 30
0.0
 10
2.44511
 20
13.56226
 30
0.0
 10
2.44511
 20
13.56226
 30
0.0
 10
2.40924
 20
13.54829
 30
0.0
 10
2.38354
 20
13.51627
 30
0.0
 10
2.37769
 20
13.47821
 30
0.0
 10
2.37769
 20
13.47821
 30
0.0
 10
2.36784
 20
13.41363
 30
0.0
 10
2.32644
 20
13.35821
 30
0.0
 10
2.26731
 20
13.33043
 30
0.0
 10
2.26731
 20
13.33043
 30
0.0
 10
2.20818
 20
13.30266
 30
0.0
 10
2.13863
 20
13.30645
 30
0.0
 10
2.08263
 20
13.34009
 30
0.0
 10
2.08263
 20
13.34009
 30
0.0
 10
2.0266
 20
13.37375
 30
0.0
 10
1.99106
 20
13.43315
 30
0.0
 10
1.98789
 20
13.49842
 30
0.0
 10
1.98789
 20
13.49842
 30
0.0
 10
1.98472
 20
13.56371
 30
0.0
 10
2.01478
 20
13.6266
 30
0.0
 10
2.06728
 20
13.66553
 30
0.0
 10
2.06728
 20
13.66553
 30
0.0
 10
2.50199
 20
13.89735
 30
0.0
 10
3.03555
 20
13.83048
 30
0.0
 10
3.39962
 20
13.49856
 30
0.0
 10
3.39962
 20
13.49856
 30
0.0
 10
3.76369
 20
13.16665
 30
0.0
 10
3.87947
 20
12.64153
 30
0.0
 10
3.68872
 20
12.1873
 30
0.0
 10
3.68872
 20
12.1873
 30
0.0
 10
3.49797
 20
11.73306
 30
0.0
 10
3.02354
 20
11.44922
 30
0.0
 10
2.53165
 20
11.47675
 30
0.0
 10
2.53165
 20
11.47675
 30
0.0
 10
2.19495
 20
11.48641
 30
0.0
 10
1.87589
 20
11.62944
 30
0.0
 10
1.64465
 20
11.87437
 30
0.0
 10
1.64465
 20
11.87437
 30
0.0
 10
1.41341
 20
12.11929
 30
0.0
 10
1.28899
 20
12.44765
 30
0.0
 10
1.29869
 20
12.78435
 30
0.0
 10
1.29869
 20
12.78435
 30
0.0
 10
1.3017
 20
12.88879
 30
0.0
 10
1.31761
 20
12.99248
 30
0.0
 10
1.34607
 20
13.09301
 30
0.0
  0
SPLINE
  5
7E
330
1F
100
AcDbEntity
  8
Layer 1
370
     9
100
AcDbSpline
210
0.0
220
0.0
230
1.0
 70
     8
 71
     3
 72
   120
 73
   116
 74
     0
 42
0.0000000001
 43
0.0000000001
 12
1.0
 22
0.0
 32
0.0
 13
1.0
 23
0.0
 33
0.0
 40
0.0
 40
0.0
 40
0.0
 40
0.0
 40
0.0333333333333333
 40
0.0333333333333333
 40
0.0333333333333333
 40
0.0333333333333333
 40
0.0666666666666667
 40
0.0666666666666667
 40
0.0666666666666667
 40
0.0666666666666667
 40
0.1
 40
0.1
 40
0.1
 40
0.1
 40
0.1333333333333333
 40
0.1333333333333333
 40
0.1333333333333333
 40
0.1333333333333333
 40
0.1666666666666667
 40
0.1666666666666667
 40
0.1666666666666667
 40
0.1666666666666667
 40
0.2
 40
0.2
 40
0.2
 40
0.2
 40
0.2333333333333333
 40
0.2333333333333333
 40
0.2333333333333333
 40
0.2333333333333333
 40
0.2666666666666667
 40
0.2666666666666667
 40
0.2666666666666667
 40
0.2666666666666667
 40
0.3
 40
0.3
 40
0.3
 40
0.3
 40
0.3333333333333333
 40
0.3333333333333333
 40
0.3333333333333333
 40
0.3333333333333333
 40
0.3666666666666666
 40
0.3666666666666666
 40
0.3666666666666666
 40
0.3666666666666666
 40
0.4
 40
0.4
 40
0.4
 40
0.4
 40
0.4333333333333333
 40
0.4333333333333333
 40
0.4333333333333333
 40
0.4333333333333333
 40
0.4666666666666667
 40
0.4666666666666667
 40
0.4666666666666667
 40
0.4666666666666667
 40
0.5
 40
0.5
 40
0.5
 40
0.5
 40
0.5333333333333333
 40
0.5333333333333333
 40
0.5333333333333333
 40
0.5333333333333333
 40
0.5666666666666667
 40
0.5666666666666667
 40
0.5666666666666667
 40
0.5666666666666667
 40
0.6
 40
0.6
 40
0.6
 40
0.6
 40
0.6333333333333333
 40
0.6333333333333333
 40
0.6333333333333333
 40
0.6333333333333333
 40
0.6666666666666666
 40
0.6666666666666666
 40
0.6666666666666666
 40
0.6666666666666666
 40
0.7
 40
0.7
 40
0.7
 40
0.7
 40
0.7333333333333333
 40
0.7333333333333333
 40
0.7333333333333333
 40
0.7333333333333333
 40
0.7666666666666667
 40
0.7666666666666667
 40
0.7666666666666667
 40
0.7666666666666667
 40
0.8
 40
0.8
 40
0.8
 40
0.8
 40
0.8333333333333334
 40
0.8333333333333334
 40
0.8333333333333334
 40
0.8333333333333334
 40
0.8666666666666667
 40
0.8666666666666667
 40
0.8666666666666667
 40
0.8666666666666667
 40
0.9
 40
0.9
 40
0.9
 40
0.9
 40
0.9333333333333333
 40
0.9333333333333333
 40
0.9333333333333333
 40
0.9333333333333333
 40
1.0
 40
1.0
 40
1.0
 40
1.0
 10
-2.26007
 20
9.48694
 30
0.0
 10
-2.06932
 20
10.16288
 30
0.0
 10
-2.46109
 20
10.86504
 30
0.0
 10
-3.13702
 20
11.05581
 30
0.0
 10
-3.13702
 20
11.05581
 30
0.0
 10
-3.23756
 20
11.08421
 30
0.0
 10
-3.34119
 20
11.10013
 30
0.0
 10
-3.44561
 20
11.10319
 30
0.0
 10
-3.44561
 20
11.10319
 30
0.0
 10
-3.93527
 20
11.13045
 30
0.0
 10
-4.38908
 20
10.84658
 30
0.0
 10
-4.57883
 20
10.39437
 30
0.0
 10
-4.57883
 20
10.39437
 30
0.0
 10
-4.76859
 20
9.94215
 30
0.0
 10
-4.65321
 20
9.41945
 30
0.0
 10
-4.29071
 20
9.08914
 30
0.0
 10
-4.29071
 20
9.08914
 30
0.0
 10
-3.92823
 20
8.75882
 30
0.0
 10
-3.41396
 20
8.68356
 30
0.0
 10
-2.98128
 20
8.9144
 30
0.0
 10
-2.98128
 20
8.9144
 30
0.0
 10
-2.92873
 20
8.95343
 30
0.0
 10
-2.8991
 20
9.01609
 30
0.0
 10
-2.90227
 20
9.08147
 30
0.0
 10
-2.90227
 20
9.08147
 30
0.0
 10
-2.90545
 20
9.14685
 30
0.0
 10
-2.94053
 20
9.20606
 30
0.0
 10
-2.99661
 20
9.23982
 30
0.0
 10
-2.99661
 20
9.23982
 30
0.0
 10
-3.0527
 20
9.27359
 30
0.0
 10
-3.12194
 20
9.27715
 30
0.0
 10
-3.1812
 20
9.24932
 30
0.0
 10
-3.1812
 20
9.24932
 30
0.0
 10
-3.24046
 20
9.22148
 30
0.0
 10
-3.28184
 20
9.16646
 30
0.0
 10
-3.29168
 20
9.10173
 30
0.0
 10
-3.29168
 20
9.10173
 30
0.0
 10
-3.29753
 20
9.06367
 30
0.0
 10
-3.32324
 20
9.03163
 30
0.0
 10
-3.35913
 20
9.01767
 30
0.0
 10
-3.35913
 20
9.01767
 30
0.0
 10
-3.39501
 20
9.00371
 30
0.0
 10
-3.43562
 20
9.00996
 30
0.0
 10
-3.46564
 20
9.03406
 30
0.0
 10
-3.46564
 20
9.03406
 30
0.0
 10
-3.49567
 20
9.05817
 30
0.0
 10
-3.51057
 20
9.09644
 30
0.0
 10
-3.50471
 20
9.1345
 30
0.0
 10
-3.50471
 20
9.1345
 30
0.0
 10
-3.47028
 20
9.35903
 30
0.0
 10
-3.25988
 20
9.5131
 30
0.0
 10
-3.03533
 20
9.47878
 30
0.0
 10
-3.03533
 20
9.47878
 30
0.0
 10
-2.83075
 20
9.44664
 30
0.0
 10
-2.68157
 20
9.26761
 30
0.0
 10
-2.68639
 20
9.06058
 30
0.0
 10
-2.68639
 20
9.06058
 30
0.0
 10
-2.45934
 20
9.06691
 30
0.0
 10
-2.27007
 20
8.88755
 30
0.0
 10
-2.26354
 20
8.66049
 30
0.0
 10
-2.26354
 20
8.66049
 30
0.0
 10
-2.25846
 20
8.45345
 30
0.0
 10
-2.40787
 20
8.27458
 30
0.0
 10
-2.61243
 20
8.24226
 30
0.0
 10
-2.61243
 20
8.24226
 30
0.0
 10
-2.65049
 20
8.2364
 30
0.0
 10
-2.68879
 20
8.2513
 30
0.0
 10
-2.71289
 20
8.28133
 30
0.0
 10
-2.71289
 20
8.28133
 30
0.0
 10
-2.73699
 20
8.31136
 30
0.0
 10
-2.74323
 20
8.35198
 30
0.0
 10
-2.72926
 20
8.38786
 30
0.0
 10
-2.72926
 20
8.38786
 30
0.0
 10
-2.71529
 20
8.42374
 30
0.0
 10
-2.6833
 20
8.44944
 30
0.0
 10
-2.64524
 20
8.45528
 30
0.0
 10
-2.64524
 20
8.45528
 30
0.0
 10
-2.58057
 20
8.46534
 30
0.0
 10
-2.52517
 20
8.50696
 30
0.0
 10
-2.4975
 20
8.56628
 30
0.0
 10
-2.4975
 20
8.56628
 30
0.0
 10
-2.46983
 20
8.6256
 30
0.0
 10
-2.47327
 20
8.69433
 30
0.0
 10
-2.50713
 20
8.75034
 30
0.0
 10
-2.50713
 20
8.75034
 30
0.0
 10
-2.54101
 20
8.80638
 30
0.0
 10
-2.60061
 20
8.84181
 30
0.0
 10
-2.66603
 20
8.84481
 30
0.0
 10
-2.66603
 20
8.84481
 30
0.0
 10
-2.73144
 20
8.8478
 30
0.0
 10
-2.7937
 20
8.8184
 30
0.0
 10
-2.83256
 20
8.76569
 30
0.0
 10
-2.83256
 20
8.76569
 30
0.0
 10
-3.05634
 20
8.32926
 30
0.0
 10
-2.98121
 20
7.79922
 30
0.0
 10
-2.64498
 20
7.44216
 30
0.0
 10
-2.64498
 20
7.44216
 30
0.0
 10
-2.30873
 20
7.08511
 30
0.0
 10
-1.78416
 20
6.97832
 30
0.0
 10
-1.33508
 20
7.1755
 30
0.0
 10
-1.33508
 20
7.1755
 30
0.0
 10
-0.88601
 20
7.37268
 30
0.0
 10
-0.60843
 20
7.81218
 30
0.0
 10
-0.64378
 20
8.30137
 30
0.0
 10
-0.64378
 20
8.30137
 30
0.0
 10
-0.6539
 20
8.63847
 30
0.0
 10
-0.79751
 20
8.95775
 30
0.0
 10
-1.04305
 20
9.18896
 30
0.0
 10
-1.04305
 20
9.18896
 30
0.0
 10
-1.28858
 20
9.42017
 30
0.0
 10
-1.61429
 20
9.54442
 30
0.0
 10
-1.9514
 20
9.53428
 30
0.0
 10
-1.9514
 20
9.53428
 30
0.0
 10
-2.05586
 20
9.53127
 30
0.0
 10
-2.15951
 20
9.51536
 30
0.0
 10
-2.26006
 20
9.4869
 30
0.0
  0
SPLINE
  5
7F
330
1F
100
AcDbEntity
  8
Layer 1
370
     9
100
AcDbSpline
210
0.0
220
0.0
230
1.0
 70
     8
 71
     3
 72
   120
 73
   116
 74
     0
 42
0.0000000001
 43
0.0000000001
 12
1.0
 22
0.0
 32
0.0
 13
1.0
 23
0.0
 33
0.0
 40
0.0
 40
0.0
 40
0.0
 40
0.0
 40
0.0333333333333333
 40
0.0333333333333333
 40
0.0333333333333333
 40
0.0333333333333333
 40
0.0666666666666667
 40
0.0666666666666667
 40
0.0666666666666667
 40
0.0666666666666667
 40
0.1
 40
0.1
 40
0.1
 40
0.1
 40
0.1333333333333333
 40
0.1333333333333333
 40
0.1333333333333333
 40
0.1333333333333333
 40
0.1666666666666667
 40
0.1666666666666667
 40
0.1666666666666667
 40
0.1666666666666667
 40
0.2
 40
0.2
 40
0.2
 40
0.2
 40
0.2333333333333333
 40
0.2333333333333333
 40
0.2333333333333333
 40
0.2333333333333333
 40
0.2666666666666667
 40
0.2666666666666667
 40
0.2666666666666667
 40
0.2666666666666667
 40
0.3
 40
0.3
 40
0.3
 40
0.3
 40
0.3333333333333333
 40
0.3333333333333333
 40
0.3333333333333333
 40
0.3333333333333333
 40
0.3666666666666666
 40
0.3666666666666666
 40
0.3666666666666666
 40
0.3666666666666666
 40
0.4
 40
0.4
 40
0.4
 40
0.4
 40
0.4333333333333333
 40
0.4333333333333333
 40
0.4333333333333333
 40
0.4333333333333333
 40
0.4666666666666667
 40
0.4666666666666667
 40
0.4666666666666667
 40
0.4666666666666667
 40
0.5
 40
0.5
 40
0.5
 40
0.5
 40
0.5333333333333333
 40
0.5333333333333333
 40
0.5333333333333333
 40
0.5333333333333333
 40
0.5666666666666667
 40
0.5666666666666667
 40
0.5666666666666667
 40
0.5666666666666667
 40
0.6
 40
0.6
 40
0.6
 40
0.6
 40
0.6333333333333333
 40
0.6333333333333333
 40
0.6333333333333333
 40
0.6333333333333333
 40
0.6666666666666666
 40
0.6666666666666666
 40
0.6666666666666666
 40
0.6666666666666666
 40
0.7
 40
0.7
 40
0.7
 40
0.7
 40
0.7333333333333333
 40
0.7333333333333333
 40
0.7333333333333333
 40
0.7333333333333333
 40
0.7666666666666667
 40
0.7666666666666667
 40
0.7666666666666667
 40
0.7666666666666667
 40
0.8
 40
0.8
 40
0.8
 40
0.8
 40
0.8333333333333334
 40
0.8333333333333334
 40
0.8333333333333334
 40
0.8333333333333334
 40
0.8666666666666667
 40
0.8666666666666667
 40
0.8666666666666667
 40
0.8666666666666667
 40
0.9
 40
0.9
 40
0.9
 40
0.9
 40
0.9333333333333333
 40
0.9333333333333333
 40
0.9333333333333333
 40
0.9333333333333333
 40
1.0
 40
1.0
 40
1.0
 40
1.0
 10
1.34607
 20
9.48693
 30
0.0
 10
1.15471
 20
10.16178
 30
0.0
 10
1.54819
 20
10.86443
 30
0.0
 10
2.22302
 20
11.05582
 30
0.0
 10
2.22302
 20
11.05582
 30
0.0
 10
2.32355
 20
11.08421
 30
0.0
 10
2.42721
 20
11.10012
 30
0.0
 10
2.53161
 20
11.10319
 30
0.0
 10
2.53161
 20
11.10319
 30
0.0
 10
3.02298
 20
11.13851
 30
0.0
 10
3.48339
 20
10.86076
 30
0.0
 10
3.68132
 20
10.40965
 30
0.0
 10
3.68132
 20
10.40965
 30
0.0
 10
3.87924
 20
9.95853
 30
0.0
 10
3.77184
 20
9.43166
 30
0.0
 10
3.41313
 20
9.09401
 30
0.0
 10
3.41313
 20
9.09401
 30
0.0
 10
3.0544
 20
8.75635
 30
0.0
 10
2.50562
 20
8.68957
 30
0.0
 10
2.06729
 20
8.9144
 30
0.0
 10
2.06729
 20
8.9144
 30
0.0
 10
2.01473
 20
8.95321
 30
0.0
 10
1.98497
 20
9.01566
 30
0.0
 10
1.98796
 20
9.08093
 30
0.0
 10
1.98796
 20
9.08093
 30
0.0
 10
1.99094
 20
9.1462
 30
0.0
 10
2.02673
 20
9.20597
 30
0.0
 10
2.08261
 20
9.23983
 30
0.0
 10
2.08261
 20
9.23983
 30
0.0
 10
2.1385
 20
9.27368
 30
0.0
 10
2.2076
 20
9.27743
 30
0.0
 10
2.26683
 20
9.24982
 30
0.0
 10
2.26683
 20
9.24982
 30
0.0
 10
2.32605
 20
9.2222
 30
0.0
 10
2.36769
 20
9.16631
 30
0.0
 10
2.37768
 20
9.10173
 30
0.0
 10
2.37768
 20
9.10173
 30
0.0
 10
2.38353
 20
9.06367
 30
0.0
 10
2.40925
 20
9.03163
 30
0.0
 10
2.44514
 20
9.01767
 30
0.0
 10
2.44514
 20
9.01767
 30
0.0
 10
2.48103
 20
9.00372
 30
0.0
 10
2.52164
 20
9.00998
 30
0.0
 10
2.55166
 20
9.03409
 30
0.0
 10
2.55166
 20
9.03409
 30
0.0
 10
2.58168
 20
9.0582
 30
0.0
 10
2.59657
 20
9.09646
 30
0.0
 10
2.59071
 20
9.13452
 30
0.0
 10
2.59071
 20
9.13452
 30
0.0
 10
2.55595
 20
9.35928
 30
0.0
 10
2.34613
 20
9.51343
 30
0.0
 10
2.12133
 20
9.47878
 30
0.0
 10
2.12133
 20
9.47878
 30
0.0
 10
1.91656
 20
9.44641
 30
0.0
 10
1.76737
 20
9.26783
 30
0.0
 10
1.77239
 20
9.06058
 30
0.0
 10
1.77239
 20
9.06058
 30
0.0
 10
1.54503
 20
9.06662
 30
0.0
 10
1.35577
 20
8.88782
 30
0.0
 10
1.34954
 20
8.66047
 30
0.0
 10
1.34954
 20
8.66047
 30
0.0
 10
1.34464
 20
8.45318
 30
0.0
 10
1.49363
 20
8.27438
 30
0.0
 10
1.69847
 20
8.24226
 30
0.0
 10
1.69847
 20
8.24226
 30
0.0
 10
1.73653
 20
8.23641
 30
0.0
 10
1.77482
 20
8.2513
 30
0.0
 10
1.79891
 20
8.28134
 30
0.0
 10
1.79891
 20
8.28134
 30
0.0
 10
1.82301
 20
8.31137
 30
0.0
 10
1.82925
 20
8.35198
 30
0.0
 10
1.81528
 20
8.38785
 30
0.0
 10
1.81528
 20
8.38785
 30
0.0
 10
1.80132
 20
8.42373
 30
0.0
 10
1.7693
 20
8.44943
 30
0.0
 10
1.73124
 20
8.45528
 30
0.0
 10
1.73124
 20
8.45528
 30
0.0
 10
1.66667
 20
8.46513
 30
0.0
 10
1.61125
 20
8.50654
 30
0.0
 10
1.58348
 20
8.56567
 30
0.0
 10
1.58348
 20
8.56567
 30
0.0
 10
1.5557
 20
8.62479
 30
0.0
 10
1.55951
 20
8.69434
 30
0.0
 10
1.59315
 20
8.75034
 30
0.0
 10
1.59315
 20
8.75034
 30
0.0
 10
1.62681
 20
8.80636
 30
0.0
 10
1.68619
 20
8.8419
 30
0.0
 10
1.75147
 20
8.84508
 30
0.0
 10
1.75147
 20
8.84508
 30
0.0
 10
1.81675
 20
8.84825
 30
0.0
 10
1.87964
 20
8.81819
 30
0.0
 10
1.91857
 20
8.76569
 30
0.0
 10
1.91857
 20
8.76569
 30
0.0
 10
2.1504
 20
8.33097
 30
0.0
 10
2.08354
 20
7.79738
 30
0.0
 10
1.75161
 20
7.4333
 30
0.0
 10
1.75161
 20
7.4333
 30
0.0
 10
1.41968
 20
7.06922
 30
0.0
 10
0.89453
 20
6.95346
 30
0.0
 10
0.44028
 20
7.14423
 30
0.0
 10
0.44028
 20
7.14423
 30
0.0
 10
-0.01395
 20
7.335
 30
0.0
 10
-0.29779
 20
7.80946
 30
0.0
 10
-0.27022
 20
8.30137
 30
0.0
 10
-0.27022
 20
8.30137
 30
0.0
 10
-0.26053
 20
8.63807
 30
0.0
 10
-0.11747
 20
8.95714
 30
0.0
 10
0.12748
 20
9.18836
 30
0.0
 10
0.12748
 20
9.18836
 30
0.0
 10
0.37242
 20
9.41959
 30
0.0
 10
0.7008
 20
9.54399
 30
0.0
 10
1.03751
 20
9.53428
 30
0.0
 10
1.03751
 20
9.53428
 30
0.0
 10
1.14193
 20
9.53127
 30
0.0
 10
1.2456
 20
9.51535
 30
0.0
 10
1.34611
 20
9.48689
 30
0.0
  0
SPLINE
  5
80
330
1F
100
AcDbEntity
  8
Layer 1
370
     9
100
AcDbSpline
210
0.0
220
0.0
230
1.0
 70
     8
 71
     3
 72
    36
 73
    32
 74
     0
 42
0.0000000001
 43
0.0000000001
 12
1.0
 22
0.0
 32
0.0
 13
1.0
 23
0.0
 33
0.0
 40
0.0
 40
0.0
 40
0.0
 40
0.0
 40
0.1111111111111111
 40
0.1111111111111111
 40
0.1111111111111111
 40
0.1111111111111111
 40
0.2222222222222222
 40
0.2222222222222222
 40
0.2222222222222222
 40
0.2222222222222222
 40
0.3333333333333333
 40
0.3333333333333333
 40
0.3333333333333333
 40
0.3333333333333333
 40
0.4444444444444444
 40
0.4444444444444444
 40
0.4444444444444444
 40
0.4444444444444444
 40
0.5555555555555556
 40
0.5555555555555556
 40
0.5555555555555556
 40
0.5555555555555556
 40
0.6666666666666666
 40
0.6666666666666666
 40
0.6666666666666666
 40
0.6666666666666666
 40
0.7777777777777778
 40
0.7777777777777778
 40
0.7777777777777778
 40
0.7777777777777778
 40
1.0
 40
1.0
 40
1.0
 40
1.0
 10
-0.45702
 20
8.55747
 30
0.0
 10
-0.6062
 20
9.28142
 30
0.0
 10
-1.26093
 20
9.78754
 30
0.0
 10
-1.99902
 20
9.74792
 30
0.0
 10
-1.99902
 20
9.74792
 30
0.0
 10
-1.96008
 20
10.48605
 30
0.0
 10
-2.46534
 20
11.14143
 30
0.0
 10
-3.18941
 20
11.28999
 30
0.0
 10
-3.18941
 20
11.28999
 30
0.0
 10
-2.46551
 20
11.43922
 30
0.0
 10
-1.95943
 20
12.09393
 30
0.0
 10
-1.99902
 20
12.83199
 30
0.0
 10
-1.99902
 20
12.83199
 30
0.0
 10
-1.26089
 20
12.79302
 30
0.0
 10
-0.60551
 20
13.2983
 30
0.0
 10
-0.45702
 20
14.02239
 30
0.0
 10
-0.45702
 20
14.02239
 30
0.0
 10
-0.30779
 20
13.29848
 30
0.0
 10
0.34692
 20
12.7924
 30
0.0
 10
1.085
 20
12.83199
 30
0.0
 10
1.085
 20
12.83199
 30
0.0
 10
1.04608
 20
12.09387
 30
0.0
 10
1.55135
 20
11.43851
 30
0.0
 10
2.27542
 20
11.28999
 30
0.0
 10
2.27542
 20
11.28999
 30
0.0
 10
1.5515
 20
11.14074
 30
0.0
 10
1.04543
 20
10.486
 30
0.0
 10
1.08504
 20
9.74792
 30
0.0
 10
1.08504
 20
9.74792
 30
0.0
 10
0.34691
 20
9.78689
 30
0.0
 10
-0.30849
 20
9.28163
 30
0.0
 10
-0.45702
 20
8.55755
 30
0.0
  0
SPLINE
  5
81
330
1F
100
AcDbEntity
  8
Layer 1
370
     9
100
AcDbSpline
210
0.0
220
0.0
230
1.0
 70
    11
 71
     3
 72
    16
 73
    12
 74
     0
 42
0.0000000001
 43
0.0000000001
 12
1.0
 22
0.0
 32
0.0
 13
1.0
 23
0.0
 33
0.0
 40
0.0
 40
0.0
 40
0.0
 40
0.0
 40
0.25
 40
0.25
 40
0.25
 40
0.25
 40
0.5
 40
0.5
 40
0.5
 40
0.5
 40
1.0
 40
1.0
 40
1.0
 40
1.0
 10
0.59287
 20
6.88234
 30
0.0
 10
0.59287
 20
6.88234
 30
0.0
 10
-1.50682
 20
6.88234
 30
0.0
 10
-1.50682
 20
6.88234
 30
0.0
 10
-1.50682
 20
6.88234
 30
0.0
 10
-0.98259
 20
7.00168
 30
0.0
 10
-0.57407
 20
7.41148
 30
0.0
 10
-0.45702
 20
7.93622
 30
0.0
 10
-0.45702
 20
7.93622
 30
0.0
 10
-0.33962
 20
7.41156
 30
0.0
 10
0.0686
 20
7.00146
 30
0.0
 10
0.59287
 20
6.88234
 30
0.0
  0
SPLINE
  5
82
330
1F
100
AcDbEntity
  8
Layer 1
370
     9
100
AcDbSpline
210
0.0
220
0.0
230
1.0
 70
     8
 71
     3
 72
    28
 73
    24
 74
     0
 42
0.0000000001
 43
0.0000000001
 12
1.0
 22
0.0
 32
0.0
 13
1.0
 23
0.0
 33
0.0
 40
0.0
 40
0.0
 40
0.0
 40
0.0
 40
0.1428571428571428
 40
0.1428571428571428
 40
0.1428571428571428
 40
0.1428571428571428
 40
0.2857142857142857
 40
0.2857142857142857
 40
0.2857142857142857
 40
0.2857142857142857
 40
0.4285714285714285
 40
0.4285714285714285
 40
0.4285714285714285
 40
0.4285714285714285
 40
0.5714285714285714
 40
0.5714285714285714
 40
0.5714285714285714
 40
0.5714285714285714
 40
0.7142857142857143
 40
0.7142857142857143
 40
0.7142857142857143
 40
0.7142857142857143
 40
1.0
 40
1.0
 40
1.0
 40
1.0
 10
1.18546
 20
6.88235
 30
0.0
 10
1.9286
 20
7.04655
 30
0.0
 10
2.39832
 20
7.78037
 30
0.0
 10
2.23416
 20
8.52352
 30
0.0
 10
2.23416
 20
8.52352
 30
0.0
 10
2.22658
 20
8.55777
 30
0.0
 10
2.21774
 20
8.59173
 30
0.0
 10
2.20765
 20
8.62532
 30
0.0
 10
2.20765
 20
8.62532
 30
0.0
 10
2.93642
 20
8.40587
 30
0.0
 10
3.70462
 20
8.81703
 30
0.0
 10
3.92417
 20
9.54577
 30
0.0
 10
3.92417
 20
9.54577
 30
0.0
 10
3.93426
 20
9.57937
 30
0.0
 10
3.94309
 20
9.61334
 30
0.0
 10
3.95065
 20
9.6476
 30
0.0
 10
3.95065
 20
9.6476
 30
0.0
 10
3.95065
 20
9.6476
 30
0.0
 10
3.95063
 20
6.88234
 30
0.0
 10
3.95063
 20
6.88234
 30
0.0
 10
3.95063
 20
6.88234
 30
0.0
 10
3.95063
 20
6.88234
 30
0.0
 10
1.18541
 20
6.88234
 30
0.0
 10
1.18541
 20
6.88234
 30
0.0
  0
SPLINE
  5
83
330
1F
100
AcDbEntity
  8
Layer 1
370
     9
100
AcDbSpline
210
0.0
220
0.0
230
1.0
 70
     8
 71
     3
 72
    16
 73
    12
 74
     0
 42
0.0000000001
 43
0.0000000001
 12
1.0
 22
0.0
 32
0.0
 13
1.0
 23
0.0
 33
0.0
 40
0.0
 40
0.0
 40
0.0
 40
0.0
 40
0.25
 40
0.25
 40
0.25
 40
0.25
 40
0.5
 40
0.5
 40
0.5
 40
0.5
 40
1.0
 40
1.0
 40
1.0
 40
1.0
 10
3.95065
 20
10.24013
 30
0.0
 10
3.83129
 20
10.76436
 30
0.0
 10
3.4215
 20
11.1729
 30
0.0
 10
2.89675
 20
11.28999
 30
0.0
 10
2.89675
 20
11.28999
 30
0.0
 10
3.42143
 20
11.40735
 30
0.0
 10
3.83154
 20
11.81556
 30
0.0
 10
3.95065
 20
12.33985
 30
0.0
 10
3.95065
 20
12.33985
 30
0.0
 10
3.95065
 20
12.33985
 30
0.0
 10
3.95063
 20
10.24011
 30
0.0
 10
3.95063
 20
10.24011
 30
0.0
  0
SPLINE
  5
84
330
1F
100
AcDbEntity
  8
Layer 1
370
     9
100
AcDbSpline
210
0.0
220
0.0
230
1.0
 70
     8
 71
     3
 72
    32
 73
    28
 74
     0
 42
0.0000000001
 43
0.0000000001
 12
1.0
 22
0.0
 32
0.0
 13
1.0
 23
0.0
 33
0.0
 40
0.0
 40
0.0
 40
0.0
 40
0.0
 40
0.125
 40
0.125
 40
0.125
 40
0.125
 40
0.25
 40
0.25
 40
0.25
 40
0.25
 40
0.375
 40
0.375
 40
0.375
 40
0.375
 40
0.5
 40
0.5
 40
0.5
 40
0.5
 40
0.625
 40
0.625
 40
0.625
 40
0.625
 40
0.75
 40
0.75
 40
0.75
 40
0.75
 40
1.0
 40
1.0
 40
1.0
 40
1.0
 10
1.18541
 20
15.6976
 30
0.0
 10
1.18541
 20
15.6976
 30
0.0
 10
3.95065
 20
15.6976
 30
0.0
 10
3.95065
 20
15.6976
 30
0.0
 10
3.95065
 20
15.6976
 30
0.0
 10
3.95065
 20
15.6976
 30
0.0
 10
3.95063
 20
12.93241
 30
0.0
 10
3.95063
 20
12.93241
 30
0.0
 10
3.95063
 20
12.93241
 30
0.0
 10
3.87179
 20
13.2893
 30
0.0
 10
3.65441
 20
13.60024
 30
0.0
 10
3.34629
 20
13.79684
 30
0.0
 10
3.34629
 20
13.79684
 30
0.0
 10
3.03819
 20
13.99344
 30
0.0
 10
2.6663
 20
14.05998
 30
0.0
 10
2.30942
 20
13.98113
 30
0.0
 10
2.30942
 20
13.98113
 30
0.0
 10
2.27515
 20
13.97359
 30
0.0
 10
2.2412
 20
13.96474
 30
0.0
 10
2.2076
 20
13.95463
 30
0.0
 10
2.2076
 20
13.95463
 30
0.0
 10
2.42709
 20
14.68335
 30
0.0
 10
2.016
 20
15.45153
 30
0.0
 10
1.28731
 20
15.67114
 30
0.0
 10
1.28731
 20
15.67114
 30
0.0
 10
1.25367
 20
15.6812
 30
0.0
 10
1.21969
 20
15.69003
 30
0.0
 10
1.1854
 20
15.6976
 30
0.0
  0
SPLINE
  5
85
330
1F
100
AcDbEntity
  8
Layer 1
370
     9
100
AcDbSpline
210
0.0
220
0.0
230
1.0
 70
    11
 71
     3
 72
    16
 73
    12
 74
     0
 42
0.0000000001
 43
0.0000000001
 12
1.0
 22
0.0
 32
0.0
 13
1.0
 23
0.0
 33
0.0
 40
0.0
 40
0.0
 40
0.0
 40
0.0
 40
0.25
 40
0.25
 40
0.25
 40
0.25
 40
0.5
 40
0.5
 40
0.5
 40
0.5
 40
1.0
 40
1.0
 40
1.0
 40
1.0
 10
-1.50686
 20
15.6976
 30
0.0
 10
-1.50686
 20
15.6976
 30
0.0
 10
0.59284
 20
15.6976
 30
0.0
 10
0.59284
 20
15.6976
 30
0.0
 10
0.59284
 20
15.6976
 30
0.0
 10
0.06861
 20
15.57824
 30
0.0
 10
-0.33993
 20
15.16846
 30
0.0
 10
-0.45702
 20
14.64372
 30
0.0
 10
-0.45702
 20
14.64372
 30
0.0
 10
-0.5744
 20
15.16838
 30
0.0
 10
-0.9826
 20
15.57848
 30
0.0
 10
-1.50686
 20
15.6976
 30
0.0
  0
SPLINE
  5
86
330
1F
100
AcDbEntity
  8
Layer 1
370
     9
100
AcDbSpline
210
0.0
220
0.0
230
1.0
 70
     8
 71
     3
 72
    32
 73
    28
 74
     0
 42
0.0000000001
 43
0.0000000001
 12
1.0
 22
0.0
 32
0.0
 13
1.0
 23
0.0
 33
0.0
 40
0.0
 40
0.0
 40
0.0
 40
0.0
 40
0.125
 40
0.125
 40
0.125
 40
0.125
 40
0.25
 40
0.25
 40
0.25
 40
0.25
 40
0.375
 40
0.375
 40
0.375
 40
0.375
 40
0.5
 40
0.5
 40
0.5
 40
0.5
 40
0.625
 40
0.625
 40
0.625
 40
0.625
 40
0.75
 40
0.75
 40
0.75
 40
0.75
 40
1.0
 40
1.0
 40
1.0
 40
1.0
 10
-2.09946
 20
15.69759
 30
0.0
 10
-2.45635
 20
15.61875
 30
0.0
 10
-2.7673
 20
15.40136
 30
0.0
 10
-2.9639
 20
15.09324
 30
0.0
 10
-2.9639
 20
15.09324
 30
0.0
 10
-3.1605
 20
14.78511
 30
0.0
 10
-3.22703
 20
14.41322
 30
0.0
 10
-3.14816
 20
14.05633
 30
0.0
 10
-3.14816
 20
14.05633
 30
0.0
 10
-3.14062
 20
14.02211
 30
0.0
 10
-3.13177
 20
13.98818
 30
0.0
 10
-3.12166
 20
13.95463
 30
0.0
 10
-3.12166
 20
13.95463
 30
0.0
 10
-3.85043
 20
14.17409
 30
0.0
 10
-4.61864
 20
13.76292
 30
0.0
 10
-4.83817
 20
13.03417
 30
0.0
 10
-4.83817
 20
13.03417
 30
0.0
 10
-4.84826
 20
13.00058
 30
0.0
 10
-4.85709
 20
12.96662
 30
0.0
 10
-4.86463
 20
12.93237
 30
0.0
 10
-4.86463
 20
12.93237
 30
0.0
 10
-4.86463
 20
12.93237
 30
0.0
 10
-4.86463
 20
15.6976
 30
0.0
 10
-4.86463
 20
15.6976
 30
0.0
 10
-4.86463
 20
15.6976
 30
0.0
 10
-4.86463
 20
15.6976
 30
0.0
 10
-2.09946
 20
15.6976
 30
0.0
 10
-2.09946
 20
15.6976
 30
0.0
  0
SPLINE
  5
87
330
1F
100
AcDbEntity
  8
Layer 1
370
     9
100
AcDbSpline
210
0.0
220
0.0
230
1.0
 70
     8
 71
     3
 72
    32
 73
    28
 74
     0
 42
0.0000000001
 43
0.0000000001
 12
1.0
 22
0.0
 32
0.0
 13
1.0
 23
0.0
 33
0.0
 40
0.0
 40
0.0
 40
0.0
 40
0.0
 40
0.125
 40
0.125
 40
0.125
 40
0.125
 40
0.25
 40
0.25
 40
0.25
 40
0.25
 40
0.375
 40
0.375
 40
0.375
 40
0.375
 40
0.5
 40
0.5
 40
0.5
 40
0.5
 40
0.625
 40
0.625
 40
0.625
 40
0.625
 40
0.75
 40
0.75
 40
0.75
 40
0.75
 40
1.0
 40
1.0
 40
1.0
 40
1.0
 10
-2.09942
 20
6.88234
 30
0.0
 10
-2.09942
 20
6.88234
 30
0.0
 10
-4.86463
 20
6.88234
 30
0.0
 10
-4.86463
 20
6.88234
 30
0.0
 10
-4.86463
 20
6.88234
 30
0.0
 10
-4.86463
 20
6.88234
 30
0.0
 10
-4.86463
 20
9.64757
 30
0.0
 10
-4.86463
 20
9.64757
 30
0.0
 10
-4.86463
 20
9.64757
 30
0.0
 10
-4.7858
 20
9.29068
 30
0.0
 10
-4.56841
 20
8.97972
 30
0.0
 10
-4.26031
 20
8.78311
 30
0.0
 10
-4.26031
 20
8.78311
 30
0.0
 10
-3.9522
 20
8.5865
 30
0.0
 10
-3.58031
 20
8.51996
 30
0.0
 10
-3.22342
 20
8.59881
 30
0.0
 10
-3.22342
 20
8.59881
 30
0.0
 10
-3.18916
 20
8.60633
 30
0.0
 10
-3.15521
 20
8.61517
 30
0.0
 10
-3.12166
 20
8.62532
 30
0.0
 10
-3.12166
 20
8.62532
 30
0.0
 10
-3.34112
 20
7.89653
 30
0.0
 10
-2.92994
 20
7.12832
 30
0.0
 10
-2.20117
 20
6.9088
 30
0.0
 10
-2.20117
 20
6.9088
 30
0.0
 10
-2.16761
 20
6.89871
 30
0.0
 10
-2.13368
 20
6.88988
 30
0.0
 10
-2.09946
 20
6.88234
 30
0.0
  0
SPLINE
  5
88
330
1F
100
AcDbEntity
  8
Layer 1
370
     9
100
AcDbSpline
210
0.0
220
0.0
230
1.0
 70
     8
 71
     3
 72
    16
 73
    12
 74
     0
 42
0.0000000001
 43
0.0000000001
 12
1.0
 22
0.0
 32
0.0
 13
1.0
 23
0.0
 33
0.0
 40
0.0
 40
0.0
 40
0.0
 40
0.0
 40
0.25
 40
0.25
 40
0.25
 40
0.25
 40
0.5
 40
0.5
 40
0.5
 40
0.5
 40
1.0
 40
1.0
 40
1.0
 40
1.0
 10
-4.86465
 20
12.33981
 30
0.0
 10
-4.7453
 20
11.81557
 30
0.0
 10
-4.33549
 20
11.40703
 30
0.0
 10
-3.81072
 20
11.28999
 30
0.0
 10
-3.81072
 20
11.28999
 30
0.0
 10
-4.33541
 20
11.1726
 30
0.0
 10
-4.74552
 20
10.76438
 30
0.0
 10
-4.86465
 20
10.24009
 30
0.0
 10
-4.86465
 20
10.24009
 30
0.0
 10
-4.86465
 20
10.24009
 30
0.0
 10
-4.86463
 20
12.33983
 30
0.0
 10
-4.86463
 20
12.33983
 30
0.0
  0
SPLINE
  5
89
330
1F
100
AcDbEntity
  8
Layer 1
370
     9
100
AcDbSpline
210
0.0
220
0.0
230
1.0
 70
    11
 71
     3
 72
    20
 73
    16
 74
     0
 42
0.0000000001
 43
0.0000000001
 12
1.0
 22
0.0
 32
0.0
 13
1.0
 23
0.0
 33
0.0
 40
0.0
 40
0.0
 40
0.0
 40
0.0
 40
0.2
 40
0.2
 40
0.2
 40
0.2
 40
0.4
 40
0.4
 40
0.4
 40
0.4
 40
0.6
 40
0.6
 40
0.6
 40
0.6
 40
1.0
 40
1.0
 40
1.0
 40
1.0
 10
4.64423
 20
16.3912
 30
0.0
 10
4.64423
 20
16.3912
 30
0.0
 10
4.64423
 20
17.41121
 30
0.0
 10
4.64423
 20
17.41121
 30
0.0
 10
4.64423
 20
17.41121
 30
0.0
 10
4.64423
 20
17.41121
 30
0.0
 10
5.66425
 20
17.41121
 30
0.0
 10
5.66425
 20
17.41121
 30
0.0
 10
5.66425
 20
17.41121
 30
0.0
 10
5.66425
 20
17.41121
 30
0.0
 10
5.66425
 20
16.3912
 30
0.0
 10
5.66425
 20
16.3912
 30
0.0
 10
5.66425
 20
16.3912
 30
0.0
 10
5.66425
 20
16.3912
 30
0.0
 10
4.64423
 20
16.3912
 30
0.0
 10
4.64423
 20
16.3912
 30
0.0
  0
SPLINE
  5
8A
330
1F
100
AcDbEntity
  8
Layer 1
370
     9
100
AcDbSpline
210
0.0
220
0.0
230
1.0
 70
    11
 71
     3
 72
    20
 73
    16
 74
     0
 42
0.0000000001
 43
0.0000000001
 12
1.0
 22
0.0
 32
0.0
 13
1.0
 23
0.0
 33
0.0
 40
0.0
 40
0.0
 40
0.0
 40
0.0
 40
0.2
 40
0.2
 40
0.2
 40
0.2
 40
0.4
 40
0.4
 40
0.4
 40
0.4
 40
0.6
 40
0.6
 40
0.6
 40
0.6
 40
1.0
 40
1.0
 40
1.0
 40
1.0
 10
-5.55823
 20
16.3912
 30
0.0
 10
-5.55823
 20
16.3912
 30
0.0
 10
-6.57824
 20
16.3912
 30
0.0
 10
-6.57824
 20
16.3912
 30
0.0
 10
-6.57824
 20
16.3912
 30
0.0
 10
-6.57824
 20
16.3912
 30
0.0
 10
-6.57824
 20
17.41121
 30
0.0
 10
-6.57824
 20
17.41121
 30
0.0
 10
-6.57824
 20
17.41121
 30
0.0
 10
-6.57824
 20
17.41121
 30
0.0
 10
-5.55823
 20
17.41121
 30
0.0
 10
-5.55823
 20
17.41121
 30
0.0
 10
-5.55823
 20
17.41121
 30
0.0
 10
-5.55823
 20
17.41121
 30
0.0
 10
-5.55823
 20
16.3912
 30
0.0
 10
-5.55823
 20
16.3912
 30
0.0
  0
SPLINE
  5
8B
330
1F
100
AcDbEntity
  8
Layer 1
370
     9
100
AcDbSpline
210
0.0
220
0.0
230
1.0
 70
    11
 71
     3
 72
    20
 73
    16
 74
     0
 42
0.0000000001
 43
0.0000000001
 12
1.0
 22
0.0
 32
0.0
 13
1.0
 23
0.0
 33
0.0
 40
0.0
 40
0.0
 40
0.0
 40
0.0
 40
0.2
 40
0.2
 40
0.2
 40
0.2
 40
0.4
 40
0.4
 40
0.4
 40
0.4
 40
0.6
 40
0.6
 40
0.6
 40
0.6
 40
1.0
 40
1.0
 40
1.0
 40
1.0
 10
2.85313
 20
15.91309
 30
0.0
 10
2.85313
 20
15.91309
 30
0.0
 10
1.22626
 20
15.91309
 30
0.0
 10
1.22626
 20
15.91309
 30
0.0
 10
1.22626
 20
15.91309
 30
0.0
 10
1.22626
 20
15.91309
 30
0.0
 10
1.22626
 20
17.41121
 30
0.0
 10
1.22626
 20
17.41121
 30
0.0
 10
1.22626
 20
17.41121
 30
0.0
 10
1.22626
 20
17.41121
 30
0.0
 10
2.85313
 20
17.41121
 30
0.0
 10
2.85313
 20
17.41121
 30
0.0
 10
2.85313
 20
17.41121
 30
0.0
 10
2.85313
 20
17.41121
 30
0.0
 10
2.85313
 20
15.91309
 30
0.0
 10
2.85313
 20
15.91309
 30
0.0
  0
SPLINE
  5
8C
330
1F
100
AcDbEntity
  8
Layer 1
370
     9
100
AcDbSpline
210
0.0
220
0.0
230
1.0
 70
     8
 71
     3
 72
    20
 73
    16
 74
     0
 42
0.0000000001
 43
0.0000000001
 12
1.0
 22
0.0
 32
0.0
 13
1.0
 23
0.0
 33
0.0
 40
0.0
 40
0.0
 40
0.0
 40
0.0
 40
0.2
 40
0.2
 40
0.2
 40
0.2
 40
0.4
 40
0.4
 40
0.4
 40
0.4
 40
0.6
 40
0.6
 40
0.6
 40
0.6
 40
1.0
 40
1.0
 40
1.0
 40
1.0
 10
-2.14026
 20
15.91309
 30
0.0
 10
-2.14026
 20
15.91309
 30
0.0
 10
-3.76713
 20
15.91312
 30
0.0
 10
-3.76713
 20
15.91312
 30
0.0
 10
-3.76713
 20
15.91312
 30
0.0
 10
-3.76713
 20
15.91312
 30
0.0
 10
-3.76713
 20
17.41121
 30
0.0
 10
-3.76713
 20
17.41121
 30
0.0
 10
-3.76713
 20
17.41121
 30
0.0
 10
-3.76713
 20
17.41121
 30
0.0
 10
-2.14026
 20
17.41121
 30
0.0
 10
-2.14026
 20
17.41121
 30
0.0
 10
-2.14026
 20
17.41121
 30
0.0
 10
-2.14026
 20
17.41121
 30
0.0
 10
-2.14026
 20
15.91312
 30
0.0
 10
-2.14026
 20
15.91312
 30
0.0
  0
SPLINE
  5
8D
330
1F
100
AcDbEntity
  8
Layer 1
 62
   242
370
     9
100
AcDbSpline
210
0.0
220
0.0
230
1.0
 70
     8
 71
     3
 72
    20
 73
    16
 74
     0
 42
0.0000000001
 43
0.0000000001
 12
1.0
 22
0.0
 32
0.0
 13
1.0
 23
0.0
 33
0.0
 40
0.0
 40
0.0
 40
0.0
 40
0.0
 40
0.2
 40
0.2
 40
0.2
 40
0.2
 40
0.4
 40
0.4
 40
0.4
 40
0.4
 40
0.6
 40
0.6
 40
0.6
 40
0.6
 40
1.0
 40
1.0
 40
1.0
 40
1.0
 10
-7.03883
 20
4.39021
 30
0.0
 10
-7.03883
 20
4.39021
 30
0.0
 10
6.12483
 20
4.39022
 30
0.0
 10
6.12483
 20
4.39022
 30
0.0
 10
6.12483
 20
4.39022
 30
0.0
 10
6.12483
 20
4.39022
 30
0.0
 10
6.12483
 20
-8.77344
 30
0.0
 10
6.12483
 20
-8.77344
 30
0.0
 10
6.12483
 20
-8.77344
 30
0.0
 10
6.12483
 20
-8.77344
 30
0.0
 10
-7.03883
 20
-8.77344
 30
0.0
 10
-7.03883
 20
-8.77344
 30
0.0
 10
-7.03883
 20
-8.77344
 30
0.0
 10
-7.03883
 20
-8.77344
 30
0.0
 10
-7.03883
 20
4.39022
 30
0.0
 10
-7.03883
 20
4.39022
 30
0.0
  0
SPLINE
  5
8E
330
1F
100
AcDbEntity
  8
Layer 1
 62
   242
370
     9
100
AcDbSpline
210
0.0
220
0.0
230
1.0
 70
    11
 71
     3
 72
    20
 73
    16
 74
     0
 42
0.0000000001
 43
0.0000000001
 12
1.0
 22
0.0
 32
0.0
 13
1.0
 23
0.0
 33
0.0
 40
0.0
 40
0.0
 40
0.0
 40
0.0
 40
0.2
 40
0.2
 40
0.2
 40
0.2
 40
0.4
 40
0.4
 40
0.4
 40
0.4
 40
0.6
 40
0.6
 40
0.6
 40
0.6
 40
1.0
 40
1.0
 40
1.0
 40
1.0
 10
-5.08012
 20
1.11854
 30
0.0
 10
-5.08012
 20
1.11854
 30
0.0
 10
-5.08012
 20
-0.50833
 30
0.0
 10
-5.08012
 20
-0.50833
 30
0.0
 10
-5.08012
 20
-0.50833
 30
0.0
 10
-5.08012
 20
-0.50833
 30
0.0
 10
-6.57824
 20
-0.50833
 30
0.0
 10
-6.57824
 20
-0.50833
 30
0.0
 10
-6.57824
 20
-0.50833
 30
0.0
 10
-6.57824
 20
-0.50833
 30
0.0
 10
-6.57824
 20
1.11854
 30
0.0
 10
-6.57824
 20
1.11854
 30
0.0
 10
-6.57824
 20
1.11854
 30
0.0
 10
-6.57824
 20
1.11854
 30
0.0
 10
-5.08012
 20
1.11854
 30
0.0
 10
-5.08012
 20
1.11854
 30
0.0
  0
SPLINE
  5
8F
330
1F
100
AcDbEntity
  8
Layer 1
 62
   242
370
     9
100
AcDbSpline
210
0.0
220
0.0
230
1.0
 70
    11
 71
     3
 72
    44
 73
    40
 74
     0
 42
0.0000000001
 43
0.0000000001
 12
1.0
 22
0.0
 32
0.0
 13
1.0
 23
0.0
 33
0.0
 40
0.0
 40
0.0
 40
0.0
 40
0.0
 40
0.0909090909090909
 40
0.0909090909090909
 40
0.0909090909090909
 40
0.0909090909090909
 40
0.1818181818181818
 40
0.1818181818181818
 40
0.1818181818181818
 40
0.1818181818181818
 40
0.2727272727272727
 40
0.2727272727272727
 40
0.2727272727272727
 40
0.2727272727272727
 40
0.3636363636363636
 40
0.3636363636363636
 40
0.3636363636363636
 40
0.3636363636363636
 40
0.4545454545454545
 40
0.4545454545454545
 40
0.4545454545454545
 40
0.4545454545454545
 40
0.5454545454545454
 40
0.5454545454545454
 40
0.5454545454545454
 40
0.5454545454545454
 40
0.6363636363636364
 40
0.6363636363636364
 40
0.6363636363636364
 40
0.6363636363636364
 40
0.7272727272727273
 40
0.7272727272727273
 40
0.7272727272727273
 40
0.7272727272727273
 40
0.8181818181818182
 40
0.8181818181818182
 40
0.8181818181818182
 40
0.8181818181818182
 40
1.0
 40
1.0
 40
1.0
 40
1.0
 10
-6.47057
 20
-1.40373
 30
0.0
 10
-6.47057
 20
-1.40373
 30
0.0
 10
-6.47057
 20
-0.72379
 30
0.0
 10
-6.47057
 20
-0.72379
 30
0.0
 10
-6.47057
 20
-0.72379
 30
0.0
 10
-6.47057
 20
-0.72379
 30
0.0
 10
-5.18784
 20
-0.72379
 30
0.0
 10
-5.18784
 20
-0.72379
 30
0.0
 10
-5.18784
 20
-0.72379
 30
0.0
 10
-5.18784
 20
-0.72379
 30
0.0
 10
-5.18784
 20
-2.08385
 30
0.0
 10
-5.18784
 20
-2.08385
 30
0.0
 10
-5.18784
 20
-2.08385
 30
0.0
 10
-5.18784
 20
-2.08385
 30
0.0
 10
-6.47057
 20
-2.08385
 30
0.0
 10
-6.47057
 20
-2.08385
 30
0.0
 10
-6.47057
 20
-2.08385
 30
0.0
 10
-6.47057
 20
-2.08385
 30
0.0
 10
-6.47057
 20
-1.61926
 30
0.0
 10
-6.47057
 20
-1.61926
 30
0.0
 10
-6.47057
 20
-1.61926
 30
0.0
 10
-6.47057
 20
-1.61926
 30
0.0
 10
-5.71172
 20
-1.61926
 30
0.0
 10
-5.71172
 20
-1.61926
 30
0.0
 10
-5.71172
 20
-1.61926
 30
0.0
 10
-5.71172
 20
-1.61926
 30
0.0
 10
-5.71172
 20
-1.06379
 30
0.0
 10
-5.71172
 20
-1.06379
 30
0.0
 10
-5.71172
 20
-1.06379
 30
0.0
 10
-5.71172
 20
-1.06379
 30
0.0
 10
-5.92722
 20
-1.06379
 30
0.0
 10
-5.92722
 20
-1.06379
 30
0.0
 10
-5.92722
 20
-1.06379
 30
0.0
 10
-5.92722
 20
-1.06379
 30
0.0
 10
-5.92722
 20
-1.40373
 30
0.0
 10
-5.92722
 20
-1.40373
 30
0.0
 10
-5.92722
 20
-1.40373
 30
0.0
 10
-5.92722
 20
-1.40373
 30
0.0
 10
-6.47057
 20
-1.40373
 30
0.0
 10
-6.47057
 20
-1.40373
 30
0.0
  0
SPLINE
  5
90
330
1F
100
AcDbEntity
  8
Layer 1
 62
   242
370
     9
100
AcDbSpline
210
0.0
220
0.0
230
1.0
 70
    11
 71
     3
 72
    44
 73
    40
 74
     0
 42
0.0000000001
 43
0.0000000001
 12
1.0
 22
0.0
 32
0.0
 13
1.0
 23
0.0
 33
0.0
 40
0.0
 40
0.0
 40
0.0
 40
0.0
 40
0.0909090909090909
 40
0.0909090909090909
 40
0.0909090909090909
 40
0.0909090909090909
 40
0.1818181818181818
 40
0.1818181818181818
 40
0.1818181818181818
 40
0.1818181818181818
 40
0.2727272727272727
 40
0.2727272727272727
 40
0.2727272727272727
 40
0.2727272727272727
 40
0.3636363636363636
 40
0.3636363636363636
 40
0.3636363636363636
 40
0.3636363636363636
 40
0.4545454545454545
 40
0.4545454545454545
 40
0.4545454545454545
 40
0.4545454545454545
 40
0.5454545454545454
 40
0.5454545454545454
 40
0.5454545454545454
 40
0.5454545454545454
 40
0.6363636363636364
 40
0.6363636363636364
 40
0.6363636363636364
 40
0.6363636363636364
 40
0.7272727272727273
 40
0.7272727272727273
 40
0.7272727272727273
 40
0.7272727272727273
 40
0.8181818181818182
 40
0.8181818181818182
 40
0.8181818181818182
 40
0.8181818181818182
 40
1.0
 40
1.0
 40
1.0
 40
1.0
 10
-5.18784
 20
-2.97946
 30
0.0
 10
-5.18784
 20
-2.97946
 30
0.0
 10
-5.18784
 20
-3.6594
 30
0.0
 10
-5.18784
 20
-3.6594
 30
0.0
 10
-5.18784
 20
-3.6594
 30
0.0
 10
-5.18784
 20
-3.6594
 30
0.0
 10
-6.47056
 20
-3.6594
 30
0.0
 10
-6.47056
 20
-3.6594
 30
0.0
 10
-6.47056
 20
-3.6594
 30
0.0
 10
-6.47056
 20
-3.6594
 30
0.0
 10
-6.47057
 20
-2.29934
 30
0.0
 10
-6.47057
 20
-2.29934
 30
0.0
 10
-6.47057
 20
-2.29934
 30
0.0
 10
-6.47057
 20
-2.29934
 30
0.0
 10
-5.18784
 20
-2.29934
 30
0.0
 10
-5.18784
 20
-2.29934
 30
0.0
 10
-5.18784
 20
-2.29934
 30
0.0
 10
-5.18784
 20
-2.29934
 30
0.0
 10
-5.18784
 20
-2.76393
 30
0.0
 10
-5.18784
 20
-2.76393
 30
0.0
 10
-5.18784
 20
-2.76393
 30
0.0
 10
-5.18784
 20
-2.76393
 30
0.0
 10
-5.92722
 20
-2.76393
 30
0.0
 10
-5.92722
 20
-2.76393
 30
0.0
 10
-5.92722
 20
-2.76393
 30
0.0
 10
-5.92722
 20
-2.76393
 30
0.0
 10
-5.92722
 20
-3.3194
 30
0.0
 10
-5.92722
 20
-3.3194
 30
0.0
 10
-5.92722
 20
-3.3194
 30
0.0
 10
-5.92722
 20
-3.3194
 30
0.0
 10
-5.71172
 20
-3.3194
 30
0.0
 10
-5.71172
 20
-3.3194
 30
0.0
 10
-5.71172
 20
-3.3194
 30
0.0
 10
-5.71172
 20
-3.3194
 30
0.0
 10
-5.71169
 20
-2.97946
 30
0.0
 10
-5.71169
 20
-2.97946
 30
0.0
 10
-5.71169
 20
-2.97946
 30
0.0
 10
-5.71169
 20
-2.97946
 30
0.0
 10
-5.18784
 20
-2.97946
 30
0.0
 10
-5.18784
 20
-2.97946
 30
0.0
  0
SPLINE
  5
91
330
1F
100
AcDbEntity
  8
Layer 1
 62
   242
370
     9
100
AcDbSpline
210
0.0
220
0.0
230
1.0
 70
    11
 71
     3
 72
    44
 73
    40
 74
     0
 42
0.0000000001
 43
0.0000000001
 12
1.0
 22
0.0
 32
0.0
 13
1.0
 23
0.0
 33
0.0
 40
0.0
 40
0.0
 40
0.0
 40
0.0
 40
0.0909090909090909
 40
0.0909090909090909
 40
0.0909090909090909
 40
0.0909090909090909
 40
0.1818181818181818
 40
0.1818181818181818
 40
0.1818181818181818
 40
0.1818181818181818
 40
0.2727272727272727
 40
0.2727272727272727
 40
0.2727272727272727
 40
0.2727272727272727
 40
0.3636363636363636
 40
0.3636363636363636
 40
0.3636363636363636
 40
0.3636363636363636
 40
0.4545454545454545
 40
0.4545454545454545
 40
0.4545454545454545
 40
0.4545454545454545
 40
0.5454545454545454
 40
0.5454545454545454
 40
0.5454545454545454
 40
0.5454545454545454
 40
0.6363636363636364
 40
0.6363636363636364
 40
0.6363636363636364
 40
0.6363636363636364
 40
0.7272727272727273
 40
0.7272727272727273
 40
0.7272727272727273
 40
0.7272727272727273
 40
0.8181818181818182
 40
0.8181818181818182
 40
0.8181818181818182
 40
0.8181818181818182
 40
1.0
 40
1.0
 40
1.0
 40
1.0
 10
0.33087
 20
3.82204
 30
0.0
 10
0.33087
 20
3.82204
 30
0.0
 10
1.0108
 20
3.82199
 30
0.0
 10
1.0108
 20
3.82199
 30
0.0
 10
1.0108
 20
3.82199
 30
0.0
 10
1.0108
 20
3.82199
 30
0.0
 10
1.0108
 20
2.53925
 30
0.0
 10
1.0108
 20
2.53925
 30
0.0
 10
1.0108
 20
2.53925
 30
0.0
 10
1.0108
 20
2.53925
 30
0.0
 10
-0.34926
 20
2.53925
 30
0.0
 10
-0.34926
 20
2.53925
 30
0.0
 10
-0.34926
 20
2.53925
 30
0.0
 10
-0.34926
 20
2.53925
 30
0.0
 10
-0.34926
 20
3.82199
 30
0.0
 10
-0.34926
 20
3.82199
 30
0.0
 10
-0.34926
 20
3.82199
 30
0.0
 10
-0.34926
 20
3.82199
 30
0.0
 10
0.11535
 20
3.82199
 30
0.0
 10
0.11535
 20
3.82199
 30
0.0
 10
0.11535
 20
3.82199
 30
0.0
 10
0.11535
 20
3.82199
 30
0.0
 10
0.11535
 20
3.06313
 30
0.0
 10
0.11535
 20
3.06313
 30
0.0
 10
0.11535
 20
3.06313
 30
0.0
 10
0.11535
 20
3.06313
 30
0.0
 10
0.67081
 20
3.06313
 30
0.0
 10
0.67081
 20
3.06313
 30
0.0
 10
0.67081
 20
3.06313
 30
0.0
 10
0.67081
 20
3.06313
 30
0.0
 10
0.67081
 20
3.27863
 30
0.0
 10
0.67081
 20
3.27863
 30
0.0
 10
0.67081
 20
3.27863
 30
0.0
 10
0.67081
 20
3.27863
 30
0.0
 10
0.33087
 20
3.27863
 30
0.0
 10
0.33087
 20
3.27863
 30
0.0
 10
0.33087
 20
3.27863
 30
0.0
 10
0.33087
 20
3.27863
 30
0.0
 10
0.33087
 20
3.82204
 30
0.0
 10
0.33087
 20
3.82204
 30
0.0
  0
SPLINE
  5
92
330
1F
100
AcDbEntity
  8
Layer 1
 62
   242
370
     9
100
AcDbSpline
210
0.0
220
0.0
230
1.0
 70
    11
 71
     3
 72
    44
 73
    40
 74
     0
 42
0.0000000001
 43
0.0000000001
 12
1.0
 22
0.0
 32
0.0
 13
1.0
 23
0.0
 33
0.0
 40
0.0
 40
0.0
 40
0.0
 40
0.0
 40
0.0909090909090909
 40
0.0909090909090909
 40
0.0909090909090909
 40
0.0909090909090909
 40
0.1818181818181818
 40
0.1818181818181818
 40
0.1818181818181818
 40
0.1818181818181818
 40
0.2727272727272727
 40
0.2727272727272727
 40
0.2727272727272727
 40
0.2727272727272727
 40
0.3636363636363636
 40
0.3636363636363636
 40
0.3636363636363636
 40
0.3636363636363636
 40
0.4545454545454545
 40
0.4545454545454545
 40
0.4545454545454545
 40
0.4545454545454545
 40
0.5454545454545454
 40
0.5454545454545454
 40
0.5454545454545454
 40
0.5454545454545454
 40
0.6363636363636364
 40
0.6363636363636364
 40
0.6363636363636364
 40
0.6363636363636364
 40
0.7272727272727273
 40
0.7272727272727273
 40
0.7272727272727273
 40
0.7272727272727273
 40
0.8181818181818182
 40
0.8181818181818182
 40
0.8181818181818182
 40
0.8181818181818182
 40
1.0
 40
1.0
 40
1.0
 40
1.0
 10
-1.24487
 20
2.53925
 30
0.0
 10
-1.24487
 20
2.53925
 30
0.0
 10
-1.9248
 20
2.53925
 30
0.0
 10
-1.9248
 20
2.53925
 30
0.0
 10
-1.9248
 20
2.53925
 30
0.0
 10
-1.9248
 20
2.53925
 30
0.0
 10
-1.9248
 20
3.82199
 30
0.0
 10
-1.9248
 20
3.82199
 30
0.0
 10
-1.9248
 20
3.82199
 30
0.0
 10
-1.9248
 20
3.82199
 30
0.0
 10
-0.56474
 20
3.82199
 30
0.0
 10
-0.56474
 20
3.82199
 30
0.0
 10
-0.56474
 20
3.82199
 30
0.0
 10
-0.56474
 20
3.82199
 30
0.0
 10
-0.56474
 20
2.53925
 30
0.0
 10
-0.56474
 20
2.53925
 30
0.0
 10
-0.56474
 20
2.53925
 30
0.0
 10
-0.56474
 20
2.53925
 30
0.0
 10
-1.02933
 20
2.53925
 30
0.0
 10
-1.02933
 20
2.53925
 30
0.0
 10
-1.02933
 20
2.53925
 30
0.0
 10
-1.02933
 20
2.53925
 30
0.0
 10
-1.02933
 20
3.27863
 30
0.0
 10
-1.02933
 20
3.27863
 30
0.0
 10
-1.02933
 20
3.27863
 30
0.0
 10
-1.02933
 20
3.27863
 30
0.0
 10
-1.58481
 20
3.27863
 30
0.0
 10
-1.58481
 20
3.27863
 30
0.0
 10
-1.58481
 20
3.27863
 30
0.0
 10
-1.58481
 20
3.27863
 30
0.0
 10
-1.58481
 20
3.06313
 30
0.0
 10
-1.58481
 20
3.06313
 30
0.0
 10
-1.58481
 20
3.06313
 30
0.0
 10
-1.58481
 20
3.06313
 30
0.0
 10
-1.24487
 20
3.06313
 30
0.0
 10
-1.24487
 20
3.06313
 30
0.0
 10
-1.24487
 20
3.06313
 30
0.0
 10
-1.24487
 20
3.06313
 30
0.0
 10
-1.24487
 20
2.53925
 30
0.0
 10
-1.24487
 20
2.53925
 30
0.0
  0
SPLINE
  5
93
330
1F
100
AcDbEntity
  8
Layer 1
 62
   242
370
     9
100
AcDbSpline
210
0.0
220
0.0
230
1.0
 70
    11
 71
     3
 72
    84
 73
    80
 74
     0
 42
0.0000000001
 43
0.0000000001
 12
1.0
 22
0.0
 32
0.0
 13
1.0
 23
0.0
 33
0.0
 40
0.0
 40
0.0
 40
0.0
 40
0.0
 40
0.0476190476190476
 40
0.0476190476190476
 40
0.0476190476190476
 40
0.0476190476190476
 40
0.0952380952380952
 40
0.0952380952380952
 40
0.0952380952380952
 40
0.0952380952380952
 40
0.1428571428571428
 40
0.1428571428571428
 40
0.1428571428571428
 40
0.1428571428571428
 40
0.1904761904761905
 40
0.1904761904761905
 40
0.1904761904761905
 40
0.1904761904761905
 40
0.2380952380952381
 40
0.2380952380952381
 40
0.2380952380952381
 40
0.2380952380952381
 40
0.2857142857142857
 40
0.2857142857142857
 40
0.2857142857142857
 40
0.2857142857142857
 40
0.3333333333333333
 40
0.3333333333333333
 40
0.3333333333333333
 40
0.3333333333333333
 40
0.3809523809523809
 40
0.3809523809523809
 40
0.3809523809523809
 40
0.3809523809523809
 40
0.4285714285714285
 40
0.4285714285714285
 40
0.4285714285714285
 40
0.4285714285714285
 40
0.4761904761904762
 40
0.4761904761904762
 40
0.4761904761904762
 40
0.4761904761904762
 40
0.5238095238095238
 40
0.5238095238095238
 40
0.5238095238095238
 40
0.5238095238095238
 40
0.5714285714285714
 40
0.5714285714285714
 40
0.5714285714285714
 40
0.5714285714285714
 40
0.6190476190476191
 40
0.6190476190476191
 40
0.6190476190476191
 40
0.6190476190476191
 40
0.6666666666666666
 40
0.6666666666666666
 40
0.6666666666666666
 40
0.6666666666666666
 40
0.7142857142857143
 40
0.7142857142857143
 40
0.7142857142857143
 40
0.7142857142857143
 40
0.7619047619047619
 40
0.7619047619047619
 40
0.7619047619047619
 40
0.7619047619047619
 40
0.8095238095238095
 40
0.8095238095238095
 40
0.8095238095238095
 40
0.8095238095238095
 40
0.8571428571428571
 40
0.8571428571428571
 40
0.8571428571428571
 40
0.8571428571428571
 40
0.9047619047619048
 40
0.9047619047619048
 40
0.9047619047619048
 40
0.9047619047619048
 40
1.0
 40
1.0
 40
1.0
 40
1.0
 10
-5.08012
 20
2.22961
 30
0.0
 10
-5.08012
 20
2.22961
 30
0.0
 10
-5.92722
 20
2.22961
 30
0.0
 10
-5.92722
 20
2.22961
 30
0.0
 10
-5.92722
 20
2.22961
 30
0.0
 10
-5.92722
 20
2.22961
 30
0.0
 10
-5.92722
 20
1.67402
 30
0.0
 10
-5.92722
 20
1.67402
 30
0.0
 10
-5.92722
 20
1.67402
 30
0.0
 10
-5.92722
 20
1.67402
 30
0.0
 10
-5.71172
 20
1.67402
 30
0.0
 10
-5.71172
 20
1.67402
 30
0.0
 10
-5.71172
 20
1.67402
 30
0.0
 10
-5.71172
 20
1.67402
 30
0.0
 10
-5.71169
 20
2.01408
 30
0.0
 10
-5.71169
 20
2.01408
 30
0.0
 10
-5.71169
 20
2.01408
 30
0.0
 10
-5.71169
 20
2.01408
 30
0.0
 10
-5.18784
 20
2.01408
 30
0.0
 10
-5.18784
 20
2.01408
 30
0.0
 10
-5.18784
 20
2.01408
 30
0.0
 10
-5.18784
 20
2.01408
 30
0.0
 10
-5.18784
 20
1.334
 30
0.0
 10
-5.18784
 20
1.334
 30
0.0
 10
-5.18784
 20
1.334
 30
0.0
 10
-5.18784
 20
1.334
 30
0.0
 10
-6.47056
 20
1.334
 30
0.0
 10
-6.47056
 20
1.334
 30
0.0
 10
-6.47056
 20
1.334
 30
0.0
 10
-6.47056
 20
1.334
 30
0.0
 10
-6.47057
 20
2.6942
 30
0.0
 10
-6.47057
 20
2.6942
 30
0.0
 10
-6.47057
 20
2.6942
 30
0.0
 10
-6.47057
 20
2.6942
 30
0.0
 10
-5.34277
 20
2.6942
 30
0.0
 10
-5.34277
 20
2.6942
 30
0.0
 10
-5.34277
 20
2.6942
 30
0.0
 10
-5.34277
 20
2.6942
 30
0.0
 10
-5.34277
 20
3.82199
 30
0.0
 10
-5.34277
 20
3.82199
 30
0.0
 10
-5.34277
 20
3.82199
 30
0.0
 10
-5.34277
 20
3.82199
 30
0.0
 10
-3.98259
 20
3.82199
 30
0.0
 10
-3.98259
 20
3.82199
 30
0.0
 10
-3.98259
 20
3.82199
 30
0.0
 10
-3.98259
 20
3.82199
 30
0.0
 10
-3.98259
 20
2.53925
 30
0.0
 10
-3.98259
 20
2.53925
 30
0.0
 10
-3.98259
 20
2.53925
 30
0.0
 10
-3.98259
 20
2.53925
 30
0.0
 10
-4.66265
 20
2.53925
 30
0.0
 10
-4.66265
 20
2.53925
 30
0.0
 10
-4.66265
 20
2.53925
 30
0.0
 10
-4.66265
 20
2.53925
 30
0.0
 10
-4.66265
 20
3.06313
 30
0.0
 10
-4.66265
 20
3.06313
 30
0.0
 10
-4.66265
 20
3.06313
 30
0.0
 10
-4.66265
 20
3.06313
 30
0.0
 10
-4.32262
 20
3.06313
 30
0.0
 10
-4.32262
 20
3.06313
 30
0.0
 10
-4.32262
 20
3.06313
 30
0.0
 10
-4.32262
 20
3.06313
 30
0.0
 10
-4.32262
 20
3.27863
 30
0.0
 10
-4.32262
 20
3.27863
 30
0.0
 10
-4.32262
 20
3.27863
 30
0.0
 10
-4.32262
 20
3.27863
 30
0.0
 10
-4.87819
 20
3.27863
 30
0.0
 10
-4.87819
 20
3.27863
 30
0.0
 10
-4.87819
 20
3.27863
 30
0.0
 10
-4.87819
 20
3.27863
 30
0.0
 10
-4.87819
 20
2.43152
 30
0.0
 10
-4.87819
 20
2.43152
 30
0.0
 10
-4.87819
 20
2.43152
 30
0.0
 10
-4.87819
 20
2.43152
 30
0.0
 10
-5.08012
 20
2.43152
 30
0.0
 10
-5.08012
 20
2.43152
 30
0.0
 10
-5.08012
 20
2.43152
 30
0.0
 10
-5.08012
 20
2.43152
 30
0.0
 10
-5.08012
 20
2.22961
 30
0.0
 10
-5.08012
 20
2.22961
 30
0.0
  0
SPLINE
  5
94
330
1F
100
AcDbEntity
  8
Layer 1
 62
   242
370
     9
100
AcDbSpline
210
0.0
220
0.0
230
1.0
 70
     8
 71
     3
 72
    20
 73
    16
 74
     0
 42
0.0000000001
 43
0.0000000001
 12
1.0
 22
0.0
 32
0.0
 13
1.0
 23
0.0
 33
0.0
 40
0.0
 40
0.0
 40
0.0
 40
0.0
 40
0.2
 40
0.2
 40
0.2
 40
0.2
 40
0.4
 40
0.4
 40
0.4
 40
0.4
 40
0.6
 40
0.6
 40
0.6
 40
0.6
 40
1.0
 40
1.0
 40
1.0
 40
1.0
 10
5.66425
 20
-5.50172
 30
0.0
 10
5.66425
 20
-5.50172
 30
0.0
 10
4.16612
 20
-5.50173
 30
0.0
 10
4.16612
 20
-5.50173
 30
0.0
 10
4.16612
 20
-5.50173
 30
0.0
 10
4.16612
 20
-5.50173
 30
0.0
 10
4.16612
 20
-3.87486
 30
0.0
 10
4.16612
 20
-3.87486
 30
0.0
 10
4.16612
 20
-3.87486
 30
0.0
 10
4.16612
 20
-3.87486
 30
0.0
 10
5.66425
 20
-3.87486
 30
0.0
 10
5.66425
 20
-3.87486
 30
0.0
 10
5.66425
 20
-3.87486
 30
0.0
 10
5.66425
 20
-3.87486
 30
0.0
 10
5.66425
 20
-5.50173
 30
0.0
 10
5.66425
 20
-5.50173
 30
0.0
  0
SPLINE
  5
95
330
1F
100
AcDbEntity
  8
Layer 1
 62
   242
370
     9
100
AcDbSpline
210
0.0
220
0.0
230
1.0
 70
    11
 71
     3
 72
    44
 73
    40
 74
     0
 42
0.0000000001
 43
0.0000000001
 12
1.0
 22
0.0
 32
0.0
 13
1.0
 23
0.0
 33
0.0
 40
0.0
 40
0.0
 40
0.0
 40
0.0
 40
0.0909090909090909
 40
0.0909090909090909
 40
0.0909090909090909
 40
0.0909090909090909
 40
0.1818181818181818
 40
0.1818181818181818
 40
0.1818181818181818
 40
0.1818181818181818
 40
0.2727272727272727
 40
0.2727272727272727
 40
0.2727272727272727
 40
0.2727272727272727
 40
0.3636363636363636
 40
0.3636363636363636
 40
0.3636363636363636
 40
0.3636363636363636
 40
0.4545454545454545
 40
0.4545454545454545
 40
0.4545454545454545
 40
0.4545454545454545
 40
0.5454545454545454
 40
0.5454545454545454
 40
0.5454545454545454
 40
0.5454545454545454
 40
0.6363636363636364
 40
0.6363636363636364
 40
0.6363636363636364
 40
0.6363636363636364
 40
0.7272727272727273
 40
0.7272727272727273
 40
0.7272727272727273
 40
0.7272727272727273
 40
0.8181818181818182
 40
0.8181818181818182
 40
0.8181818181818182
 40
0.8181818181818182
 40
1.0
 40
1.0
 40
1.0
 40
1.0
 10
5.55659
 20
-1.40373
 30
0.0
 10
5.55659
 20
-1.40373
 30
0.0
 10
5.01322
 20
-1.40373
 30
0.0
 10
5.01322
 20
-1.40373
 30
0.0
 10
5.01322
 20
-1.40373
 30
0.0
 10
5.01322
 20
-1.40373
 30
0.0
 10
5.01322
 20
-1.06379
 30
0.0
 10
5.01322
 20
-1.06379
 30
0.0
 10
5.01322
 20
-1.06379
 30
0.0
 10
5.01322
 20
-1.06379
 30
0.0
 10
4.79773
 20
-1.06379
 30
0.0
 10
4.79773
 20
-1.06379
 30
0.0
 10
4.79773
 20
-1.06379
 30
0.0
 10
4.79773
 20
-1.06379
 30
0.0
 10
4.79773
 20
-1.61926
 30
0.0
 10
4.79773
 20
-1.61926
 30
0.0
 10
4.79773
 20
-1.61926
 30
0.0
 10
4.79773
 20
-1.61926
 30
0.0
 10
5.55659
 20
-1.61926
 30
0.0
 10
5.55659
 20
-1.61926
 30
0.0
 10
5.55659
 20
-1.61926
 30
0.0
 10
5.55659
 20
-1.61926
 30
0.0
 10
5.55659
 20
-2.08385
 30
0.0
 10
5.55659
 20
-2.08385
 30
0.0
 10
5.55659
 20
-2.08385
 30
0.0
 10
5.55659
 20
-2.08385
 30
0.0
 10
4.27384
 20
-2.08385
 30
0.0
 10
4.27384
 20
-2.08385
 30
0.0
 10
4.27384
 20
-2.08385
 30
0.0
 10
4.27384
 20
-2.08385
 30
0.0
 10
4.27384
 20
-0.72379
 30
0.0
 10
4.27384
 20
-0.72379
 30
0.0
 10
4.27384
 20
-0.72379
 30
0.0
 10
4.27384
 20
-0.72379
 30
0.0
 10
5.55659
 20
-0.72379
 30
0.0
 10
5.55659
 20
-0.72379
 30
0.0
 10
5.55659
 20
-0.72379
 30
0.0
 10
5.55659
 20
-0.72379
 30
0.0
 10
5.55659
 20
-1.40373
 30
0.0
 10
5.55659
 20
-1.40373
 30
0.0
  0
SPLINE
  5
96
330
1F
100
AcDbEntity
  8
Layer 1
 62
   242
370
     9
100
AcDbSpline
210
0.0
220
0.0
230
1.0
 70
    11
 71
     3
 72
    44
 73
    40
 74
     0
 42
0.0000000001
 43
0.0000000001
 12
1.0
 22
0.0
 32
0.0
 13
1.0
 23
0.0
 33
0.0
 40
0.0
 40
0.0
 40
0.0
 40
0.0
 40
0.0909090909090909
 40
0.0909090909090909
 40
0.0909090909090909
 40
0.0909090909090909
 40
0.1818181818181818
 40
0.1818181818181818
 40
0.1818181818181818
 40
0.1818181818181818
 40
0.2727272727272727
 40
0.2727272727272727
 40
0.2727272727272727
 40
0.2727272727272727
 40
0.3636363636363636
 40
0.3636363636363636
 40
0.3636363636363636
 40
0.3636363636363636
 40
0.4545454545454545
 40
0.4545454545454545
 40
0.4545454545454545
 40
0.4545454545454545
 40
0.5454545454545454
 40
0.5454545454545454
 40
0.5454545454545454
 40
0.5454545454545454
 40
0.6363636363636364
 40
0.6363636363636364
 40
0.6363636363636364
 40
0.6363636363636364
 40
0.7272727272727273
 40
0.7272727272727273
 40
0.7272727272727273
 40
0.7272727272727273
 40
0.8181818181818182
 40
0.8181818181818182
 40
0.8181818181818182
 40
0.8181818181818182
 40
1.0
 40
1.0
 40
1.0
 40
1.0
 10
4.27384
 20
-2.97946
 30
0.0
 10
4.27384
 20
-2.97946
 30
0.0
 10
4.79772
 20
-2.97946
 30
0.0
 10
4.79772
 20
-2.97946
 30
0.0
 10
4.79772
 20
-2.97946
 30
0.0
 10
4.79772
 20
-2.97946
 30
0.0
 10
4.79773
 20
-3.3194
 30
0.0
 10
4.79773
 20
-3.3194
 30
0.0
 10
4.79773
 20
-3.3194
 30
0.0
 10
4.79773
 20
-3.3194
 30
0.0
 10
5.01322
 20
-3.3194
 30
0.0
 10
5.01322
 20
-3.3194
 30
0.0
 10
5.01322
 20
-3.3194
 30
0.0
 10
5.01322
 20
-3.3194
 30
0.0
 10
5.01322
 20
-2.76393
 30
0.0
 10
5.01322
 20
-2.76393
 30
0.0
 10
5.01322
 20
-2.76393
 30
0.0
 10
5.01322
 20
-2.76393
 30
0.0
 10
4.27384
 20
-2.76393
 30
0.0
 10
4.27384
 20
-2.76393
 30
0.0
 10
4.27384
 20
-2.76393
 30
0.0
 10
4.27384
 20
-2.76393
 30
0.0
 10
4.27384
 20
-2.29934
 30
0.0
 10
4.27384
 20
-2.29934
 30
0.0
 10
4.27384
 20
-2.29934
 30
0.0
 10
4.27384
 20
-2.29934
 30
0.0
 10
5.55659
 20
-2.29934
 30
0.0
 10
5.55659
 20
-2.29934
 30
0.0
 10
5.55659
 20
-2.29934
 30
0.0
 10
5.55659
 20
-2.29934
 30
0.0
 10
5.55657
 20
-3.6594
 30
0.0
 10
5.55657
 20
-3.6594
 30
0.0
 10
5.55657
 20
-3.6594
 30
0.0
 10
5.55657
 20
-3.6594
 30
0.0
 10
4.27384
 20
-3.6594
 30
0.0
 10
4.27384
 20
-3.6594
 30
0.0
 10
4.27384
 20
-3.6594
 30
0.0
 10
4.27384
 20
-3.6594
 30
0.0
 10
4.27384
 20
-2.97946
 30
0.0
 10
4.27384
 20
-2.97946
 30
0.0
  0
SPLINE
  5
97
330
1F
100
AcDbEntity
  8
Layer 1
 62
   242
370
     9
100
AcDbSpline
210
0.0
220
0.0
230
1.0
 70
    11
 71
     3
 72
    20
 73
    16
 74
     0
 42
0.0000000001
 43
0.0000000001
 12
1.0
 22
0.0
 32
0.0
 13
1.0
 23
0.0
 33
0.0
 40
0.0
 40
0.0
 40
0.0
 40
0.0
 40
0.2
 40
0.2
 40
0.2
 40
0.2
 40
0.4
 40
0.4
 40
0.4
 40
0.4
 40
0.6
 40
0.6
 40
0.6
 40
0.6
 40
1.0
 40
1.0
 40
1.0
 40
1.0
 10
5.66425
 20
-0.50833
 30
0.0
 10
5.66425
 20
-0.50833
 30
0.0
 10
4.16612
 20
-0.50833
 30
0.0
 10
4.16612
 20
-0.50833
 30
0.0
 10
4.16612
 20
-0.50833
 30
0.0
 10
4.16612
 20
-0.50833
 30
0.0
 10
4.16612
 20
1.11854
 30
0.0
 10
4.16612
 20
1.11854
 30
0.0
 10
4.16612
 20
1.11854
 30
0.0
 10
4.16612
 20
1.11854
 30
0.0
 10
5.66425
 20
1.11854
 30
0.0
 10
5.66425
 20
1.11854
 30
0.0
 10
5.66425
 20
1.11854
 30
0.0
 10
5.66425
 20
1.11854
 30
0.0
 10
5.66425
 20
-0.50833
 30
0.0
 10
5.66425
 20
-0.50833
 30
0.0
  0
SPLINE
  5
98
330
1F
100
AcDbEntity
  8
Layer 1
 62
   242
370
     9
100
AcDbSpline
210
0.0
220
0.0
230
1.0
 70
    11
 71
     3
 72
    84
 73
    80
 74
     0
 42
0.0000000001
 43
0.0000000001
 12
1.0
 22
0.0
 32
0.0
 13
1.0
 23
0.0
 33
0.0
 40
0.0
 40
0.0
 40
0.0
 40
0.0
 40
0.0476190476190476
 40
0.0476190476190476
 40
0.0476190476190476
 40
0.0476190476190476
 40
0.0952380952380952
 40
0.0952380952380952
 40
0.0952380952380952
 40
0.0952380952380952
 40
0.1428571428571428
 40
0.1428571428571428
 40
0.1428571428571428
 40
0.1428571428571428
 40
0.1904761904761905
 40
0.1904761904761905
 40
0.1904761904761905
 40
0.1904761904761905
 40
0.2380952380952381
 40
0.2380952380952381
 40
0.2380952380952381
 40
0.2380952380952381
 40
0.2857142857142857
 40
0.2857142857142857
 40
0.2857142857142857
 40
0.2857142857142857
 40
0.3333333333333333
 40
0.3333333333333333
 40
0.3333333333333333
 40
0.3333333333333333
 40
0.3809523809523809
 40
0.3809523809523809
 40
0.3809523809523809
 40
0.3809523809523809
 40
0.4285714285714285
 40
0.4285714285714285
 40
0.4285714285714285
 40
0.4285714285714285
 40
0.4761904761904762
 40
0.4761904761904762
 40
0.4761904761904762
 40
0.4761904761904762
 40
0.5238095238095238
 40
0.5238095238095238
 40
0.5238095238095238
 40
0.5238095238095238
 40
0.5714285714285714
 40
0.5714285714285714
 40
0.5714285714285714
 40
0.5714285714285714
 40
0.6190476190476191
 40
0.6190476190476191
 40
0.6190476190476191
 40
0.6190476190476191
 40
0.6666666666666666
 40
0.6666666666666666
 40
0.6666666666666666
 40
0.6666666666666666
 40
0.7142857142857143
 40
0.7142857142857143
 40
0.7142857142857143
 40
0.7142857142857143
 40
0.7619047619047619
 40
0.7619047619047619
 40
0.7619047619047619
 40
0.7619047619047619
 40
0.8095238095238095
 40
0.8095238095238095
 40
0.8095238095238095
 40
0.8095238095238095
 40
0.8571428571428571
 40
0.8571428571428571
 40
0.8571428571428571
 40
0.8571428571428571
 40
0.9047619047619048
 40
0.9047619047619048
 40
0.9047619047619048
 40
0.9047619047619048
 40
1.0
 40
1.0
 40
1.0
 40
1.0
 10
4.16612
 20
2.2296
 30
0.0
 10
4.16612
 20
2.2296
 30
0.0
 10
4.16612
 20
2.43152
 30
0.0
 10
4.16612
 20
2.43152
 30
0.0
 10
4.16612
 20
2.43152
 30
0.0
 10
4.16612
 20
2.43152
 30
0.0
 10
3.96419
 20
2.43152
 30
0.0
 10
3.96419
 20
2.43152
 30
0.0
 10
3.96419
 20
2.43152
 30
0.0
 10
3.96419
 20
2.43152
 30
0.0
 10
3.96419
 20
3.27863
 30
0.0
 10
3.96419
 20
3.27863
 30
0.0
 10
3.96419
 20
3.27863
 30
0.0
 10
3.96419
 20
3.27863
 30
0.0
 10
3.40864
 20
3.27863
 30
0.0
 10
3.40864
 20
3.27863
 30
0.0
 10
3.40864
 20
3.27863
 30
0.0
 10
3.40864
 20
3.27863
 30
0.0
 10
3.40864
 20
3.06312
 30
0.0
 10
3.40864
 20
3.06312
 30
0.0
 10
3.40864
 20
3.06312
 30
0.0
 10
3.40864
 20
3.06312
 30
0.0
 10
3.74869
 20
3.06312
 30
0.0
 10
3.74869
 20
3.06312
 30
0.0
 10
3.74869
 20
3.06312
 30
0.0
 10
3.74869
 20
3.06312
 30
0.0
 10
3.74869
 20
2.53925
 30
0.0
 10
3.74869
 20
2.53925
 30
0.0
 10
3.74869
 20
2.53925
 30
0.0
 10
3.74869
 20
2.53925
 30
0.0
 10
3.06859
 20
2.53925
 30
0.0
 10
3.06859
 20
2.53925
 30
0.0
 10
3.06859
 20
2.53925
 30
0.0
 10
3.06859
 20
2.53925
 30
0.0
 10
3.06859
 20
3.82199
 30
0.0
 10
3.06859
 20
3.82199
 30
0.0
 10
3.06859
 20
3.82199
 30
0.0
 10
3.06859
 20
3.82199
 30
0.0
 10
4.42878
 20
3.82199
 30
0.0
 10
4.42878
 20
3.82199
 30
0.0
 10
4.42878
 20
3.82199
 30
0.0
 10
4.42878
 20
3.82199
 30
0.0
 10
4.42878
 20
2.69418
 30
0.0
 10
4.42878
 20
2.69418
 30
0.0
 10
4.42878
 20
2.69418
 30
0.0
 10
4.42878
 20
2.69418
 30
0.0
 10
5.55659
 20
2.6942
 30
0.0
 10
5.55659
 20
2.6942
 30
0.0
 10
5.55659
 20
2.6942
 30
0.0
 10
5.55659
 20
2.6942
 30
0.0
 10
5.55657
 20
1.334
 30
0.0
 10
5.55657
 20
1.334
 30
0.0
 10
5.55657
 20
1.334
 30
0.0
 10
5.55657
 20
1.334
 30
0.0
 10
4.27384
 20
1.334
 30
0.0
 10
4.27384
 20
1.334
 30
0.0
 10
4.27384
 20
1.334
 30
0.0
 10
4.27384
 20
1.334
 30
0.0
 10
4.27384
 20
2.01408
 30
0.0
 10
4.27384
 20
2.01408
 30
0.0
 10
4.27384
 20
2.01408
 30
0.0
 10
4.27384
 20
2.01408
 30
0.0
 10
4.79772
 20
2.01408
 30
0.0
 10
4.79772
 20
2.01408
 30
0.0
 10
4.79772
 20
2.01408
 30
0.0
 10
4.79772
 20
2.01408
 30
0.0
 10
4.79773
 20
1.67402
 30
0.0
 10
4.79773
 20
1.67402
 30
0.0
 10
4.79773
 20
1.67402
 30
0.0
 10
4.79773
 20
1.67402
 30
0.0
 10
5.01322
 20
1.67402
 30
0.0
 10
5.01322
 20
1.67402
 30
0.0
 10
5.01322
 20
1.67402
 30
0.0
 10
5.01322
 20
1.67402
 30
0.0
 10
5.01322
 20
2.2296
 30
0.0
 10
5.01322
 20
2.2296
 30
0.0
 10
5.01322
 20
2.2296
 30
0.0
 10
5.01322
 20
2.2296
 30
0.0
 10
4.16612
 20
2.2296
 30
0.0
 10
4.16612
 20
2.2296
 30
0.0
  0
SPLINE
  5
99
330
1F
100
AcDbEntity
  8
Layer 1
 62
   242
370
     9
100
AcDbSpline
210
0.0
220
0.0
230
1.0
 70
    11
 71
     3
 72
    20
 73
    16
 74
     0
 42
0.0000000001
 43
0.0000000001
 12
1.0
 22
0.0
 32
0.0
 13
1.0
 23
0.0
 33
0.0
 40
0.0
 40
0.0
 40
0.0
 40
0.0
 40
0.2
 40
0.2
 40
0.2
 40
0.2
 40
0.4
 40
0.4
 40
0.4
 40
0.4
 40
0.6
 40
0.6
 40
0.6
 40
0.6
 40
1.0
 40
1.0
 40
1.0
 40
1.0
 10
1.22626
 20
-6.81471
 30
0.0
 10
1.22626
 20
-6.81471
 30
0.0
 10
2.85313
 20
-6.81471
 30
0.0
 10
2.85313
 20
-6.81471
 30
0.0
 10
2.85313
 20
-6.81471
 30
0.0
 10
2.85313
 20
-6.81471
 30
0.0
 10
2.85313
 20
-8.31282
 30
0.0
 10
2.85313
 20
-8.31282
 30
0.0
 10
2.85313
 20
-8.31282
 30
0.0
 10
2.85313
 20
-8.31282
 30
0.0
 10
1.22626
 20
-8.31283
 30
0.0
 10
1.22626
 20
-8.31283
 30
0.0
 10
1.22626
 20
-8.31283
 30
0.0
 10
1.22626
 20
-8.31283
 30
0.0
 10
1.22626
 20
-6.81471
 30
0.0
 10
1.22626
 20
-6.81471
 30
0.0
  0
SPLINE
  5
9A
330
1F
100
AcDbEntity
  8
Layer 1
 62
   242
370
     9
100
AcDbSpline
210
0.0
220
0.0
230
1.0
 70
    11
 71
     3
 72
    20
 73
    16
 74
     0
 42
0.0000000001
 43
0.0000000001
 12
1.0
 22
0.0
 32
0.0
 13
1.0
 23
0.0
 33
0.0
 40
0.0
 40
0.0
 40
0.0
 40
0.0
 40
0.2
 40
0.2
 40
0.2
 40
0.2
 40
0.4
 40
0.4
 40
0.4
 40
0.4
 40
0.6
 40
0.6
 40
0.6
 40
0.6
 40
1.0
 40
1.0
 40
1.0
 40
1.0
 10
4.64423
 20
-8.31283
 30
0.0
 10
4.64423
 20
-8.31283
 30
0.0
 10
4.64423
 20
-7.29283
 30
0.0
 10
4.64423
 20
-7.29283
 30
0.0
 10
4.64423
 20
-7.29283
 30
0.0
 10
4.64423
 20
-7.29283
 30
0.0
 10
5.66425
 20
-7.29283
 30
0.0
 10
5.66425
 20
-7.29283
 30
0.0
 10
5.66425
 20
-7.29283
 30
0.0
 10
5.66425
 20
-7.29283
 30
0.0
 10
5.66425
 20
-8.31283
 30
0.0
 10
5.66425
 20
-8.31283
 30
0.0
 10
5.66425
 20
-8.31283
 30
0.0
 10
5.66425
 20
-8.31283
 30
0.0
 10
4.64423
 20
-8.31283
 30
0.0
 10
4.64423
 20
-8.31283
 30
0.0
  0
SPLINE
  5
9B
330
1F
100
AcDbEntity
  8
Layer 1
 62
   242
370
     9
100
AcDbSpline
210
0.0
220
0.0
230
1.0
 70
    11
 71
     3
 72
    84
 73
    80
 74
     0
 42
0.0000000001
 43
0.0000000001
 12
1.0
 22
0.0
 32
0.0
 13
1.0
 23
0.0
 33
0.0
 40
0.0
 40
0.0
 40
0.0
 40
0.0
 40
0.0476190476190476
 40
0.0476190476190476
 40
0.0476190476190476
 40
0.0476190476190476
 40
0.0952380952380952
 40
0.0952380952380952
 40
0.0952380952380952
 40
0.0952380952380952
 40
0.1428571428571428
 40
0.1428571428571428
 40
0.1428571428571428
 40
0.1428571428571428
 40
0.1904761904761905
 40
0.1904761904761905
 40
0.1904761904761905
 40
0.1904761904761905
 40
0.2380952380952381
 40
0.2380952380952381
 40
0.2380952380952381
 40
0.2380952380952381
 40
0.2857142857142857
 40
0.2857142857142857
 40
0.2857142857142857
 40
0.2857142857142857
 40
0.3333333333333333
 40
0.3333333333333333
 40
0.3333333333333333
 40
0.3333333333333333
 40
0.3809523809523809
 40
0.3809523809523809
 40
0.3809523809523809
 40
0.3809523809523809
 40
0.4285714285714285
 40
0.4285714285714285
 40
0.4285714285714285
 40
0.4285714285714285
 40
0.4761904761904762
 40
0.4761904761904762
 40
0.4761904761904762
 40
0.4761904761904762
 40
0.5238095238095238
 40
0.5238095238095238
 40
0.5238095238095238
 40
0.5238095238095238
 40
0.5714285714285714
 40
0.5714285714285714
 40
0.5714285714285714
 40
0.5714285714285714
 40
0.6190476190476191
 40
0.6190476190476191
 40
0.6190476190476191
 40
0.6190476190476191
 40
0.6666666666666666
 40
0.6666666666666666
 40
0.6666666666666666
 40
0.6666666666666666
 40
0.7142857142857143
 40
0.7142857142857143
 40
0.7142857142857143
 40
0.7142857142857143
 40
0.7619047619047619
 40
0.7619047619047619
 40
0.7619047619047619
 40
0.7619047619047619
 40
0.8095238095238095
 40
0.8095238095238095
 40
0.8095238095238095
 40
0.8095238095238095
 40
0.8571428571428571
 40
0.8571428571428571
 40
0.8571428571428571
 40
0.8571428571428571
 40
0.9047619047619048
 40
0.9047619047619048
 40
0.9047619047619048
 40
0.9047619047619048
 40
1.0
 40
1.0
 40
1.0
 40
1.0
 10
3.96419
 20
-6.81471
 30
0.0
 10
3.96419
 20
-6.81471
 30
0.0
 10
4.16612
 20
-6.81471
 30
0.0
 10
4.16612
 20
-6.81471
 30
0.0
 10
4.16612
 20
-6.81471
 30
0.0
 10
4.16612
 20
-6.81471
 30
0.0
 10
4.16612
 20
-6.61279
 30
0.0
 10
4.16612
 20
-6.61279
 30
0.0
 10
4.16612
 20
-6.61279
 30
0.0
 10
4.16612
 20
-6.61279
 30
0.0
 10
5.01322
 20
-6.61279
 30
0.0
 10
5.01322
 20
-6.61279
 30
0.0
 10
5.01322
 20
-6.61279
 30
0.0
 10
5.01322
 20
-6.61279
 30
0.0
 10
5.01322
 20
-6.05721
 30
0.0
 10
5.01322
 20
-6.05721
 30
0.0
 10
5.01322
 20
-6.05721
 30
0.0
 10
5.01322
 20
-6.05721
 30
0.0
 10
4.79772
 20
-6.05723
 30
0.0
 10
4.79772
 20
-6.05723
 30
0.0
 10
4.79772
 20
-6.05723
 30
0.0
 10
4.79772
 20
-6.05723
 30
0.0
 10
4.79769
 20
-6.39729
 30
0.0
 10
4.79769
 20
-6.39729
 30
0.0
 10
4.79769
 20
-6.39729
 30
0.0
 10
4.79769
 20
-6.39729
 30
0.0
 10
4.27384
 20
-6.39729
 30
0.0
 10
4.27384
 20
-6.39729
 30
0.0
 10
4.27384
 20
-6.39729
 30
0.0
 10
4.27384
 20
-6.39729
 30
0.0
 10
4.27384
 20
-5.71719
 30
0.0
 10
4.27384
 20
-5.71719
 30
0.0
 10
4.27384
 20
-5.71719
 30
0.0
 10
4.27384
 20
-5.71719
 30
0.0
 10
5.55656
 20
-5.71718
 30
0.0
 10
5.55656
 20
-5.71718
 30
0.0
 10
5.55656
 20
-5.71718
 30
0.0
 10
5.55656
 20
-5.71718
 30
0.0
 10
5.55657
 20
-7.07737
 30
0.0
 10
5.55657
 20
-7.07737
 30
0.0
 10
5.55657
 20
-7.07737
 30
0.0
 10
5.55657
 20
-7.07737
 30
0.0
 10
4.42878
 20
-7.07737
 30
0.0
 10
4.42878
 20
-7.07737
 30
0.0
 10
4.42878
 20
-7.07737
 30
0.0
 10
4.42878
 20
-7.07737
 30
0.0
 10
4.42878
 20
-8.20517
 30
0.0
 10
4.42878
 20
-8.20517
 30
0.0
 10
4.42878
 20
-8.20517
 30
0.0
 10
4.42878
 20
-8.20517
 30
0.0
 10
3.06858
 20
-8.20517
 30
0.0
 10
3.06858
 20
-8.20517
 30
0.0
 10
3.06858
 20
-8.20517
 30
0.0
 10
3.06858
 20
-8.20517
 30
0.0
 10
3.06858
 20
-6.92244
 30
0.0
 10
3.06858
 20
-6.92244
 30
0.0
 10
3.06858
 20
-6.92244
 30
0.0
 10
3.06858
 20
-6.92244
 30
0.0
 10
3.74864
 20
-6.92244
 30
0.0
 10
3.74864
 20
-6.92244
 30
0.0
 10
3.74864
 20
-6.92244
 30
0.0
 10
3.74864
 20
-6.92244
 30
0.0
 10
3.74864
 20
-7.44632
 30
0.0
 10
3.74864
 20
-7.44632
 30
0.0
 10
3.74864
 20
-7.44632
 30
0.0
 10
3.74864
 20
-7.44632
 30
0.0
 10
3.40864
 20
-7.44632
 30
0.0
 10
3.40864
 20
-7.44632
 30
0.0
 10
3.40864
 20
-7.44632
 30
0.0
 10
3.40864
 20
-7.44632
 30
0.0
 10
3.40864
 20
-7.66182
 30
0.0
 10
3.40864
 20
-7.66182
 30
0.0
 10
3.40864
 20
-7.66182
 30
0.0
 10
3.40864
 20
-7.66182
 30
0.0
 10
3.96419
 20
-7.66182
 30
0.0
 10
3.96419
 20
-7.66182
 30
0.0
 10
3.96419
 20
-7.66182
 30
0.0
 10
3.96419
 20
-7.66182
 30
0.0
 10
3.96419
 20
-6.81471
 30
0.0
 10
3.96419
 20
-6.81471
 30
0.0
  0
SPLINE
  5
9C
330
1F
100
AcDbEntity
  8
Layer 1
 62
   242
370
     9
100
AcDbSpline
210
0.0
220
0.0
230
1.0
 70
     8
 71
     3
 72
    20
 73
    16
 74
     0
 42
0.0000000001
 43
0.0000000001
 12
1.0
 22
0.0
 32
0.0
 13
1.0
 23
0.0
 33
0.0
 40
0.0
 40
0.0
 40
0.0
 40
0.0
 40
0.2
 40
0.2
 40
0.2
 40
0.2
 40
0.4
 40
0.4
 40
0.4
 40
0.4
 40
0.6
 40
0.6
 40
0.6
 40
0.6
 40
1.0
 40
1.0
 40
1.0
 40
1.0
 10
-3.76713
 20
-6.81471
 30
0.0
 10
-3.76713
 20
-6.81471
 30
0.0
 10
-2.14026
 20
-6.81471
 30
0.0
 10
-2.14026
 20
-6.81471
 30
0.0
 10
-2.14026
 20
-6.81471
 30
0.0
 10
-2.14026
 20
-6.81471
 30
0.0
 10
-2.14026
 20
-8.31283
 30
0.0
 10
-2.14026
 20
-8.31283
 30
0.0
 10
-2.14026
 20
-8.31283
 30
0.0
 10
-2.14026
 20
-8.31283
 30
0.0
 10
-3.76713
 20
-8.31283
 30
0.0
 10
-3.76713
 20
-8.31283
 30
0.0
 10
-3.76713
 20
-8.31283
 30
0.0
 10
-3.76713
 20
-8.31283
 30
0.0
 10
-3.76713
 20
-6.81472
 30
0.0
 10
-3.76713
 20
-6.81472
 30
0.0
  0
SPLINE
  5
9D
330
1F
100
AcDbEntity
  8
Layer 1
 62
   242
370
     9
100
AcDbSpline
210
0.0
220
0.0
230
1.0
 70
    11
 71
     3
 72
    44
 73
    40
 74
     0
 42
0.0000000001
 43
0.0000000001
 12
1.0
 22
0.0
 32
0.0
 13
1.0
 23
0.0
 33
0.0
 40
0.0
 40
0.0
 40
0.0
 40
0.0
 40
0.0909090909090909
 40
0.0909090909090909
 40
0.0909090909090909
 40
0.0909090909090909
 40
0.1818181818181818
 40
0.1818181818181818
 40
0.1818181818181818
 40
0.1818181818181818
 40
0.2727272727272727
 40
0.2727272727272727
 40
0.2727272727272727
 40
0.2727272727272727
 40
0.3636363636363636
 40
0.3636363636363636
 40
0.3636363636363636
 40
0.3636363636363636
 40
0.4545454545454545
 40
0.4545454545454545
 40
0.4545454545454545
 40
0.4545454545454545
 40
0.5454545454545454
 40
0.5454545454545454
 40
0.5454545454545454
 40
0.5454545454545454
 40
0.6363636363636364
 40
0.6363636363636364
 40
0.6363636363636364
 40
0.6363636363636364
 40
0.7272727272727273
 40
0.7272727272727273
 40
0.7272727272727273
 40
0.7272727272727273
 40
0.8181818181818182
 40
0.8181818181818182
 40
0.8181818181818182
 40
0.8181818181818182
 40
1.0
 40
1.0
 40
1.0
 40
1.0
 10
0.33087
 20
-8.20517
 30
0.0
 10
0.33087
 20
-8.20517
 30
0.0
 10
0.33087
 20
-7.6618
 30
0.0
 10
0.33087
 20
-7.6618
 30
0.0
 10
0.33087
 20
-7.6618
 30
0.0
 10
0.33087
 20
-7.6618
 30
0.0
 10
0.67081
 20
-7.66182
 30
0.0
 10
0.67081
 20
-7.66182
 30
0.0
 10
0.67081
 20
-7.66182
 30
0.0
 10
0.67081
 20
-7.66182
 30
0.0
 10
0.67081
 20
-7.44632
 30
0.0
 10
0.67081
 20
-7.44632
 30
0.0
 10
0.67081
 20
-7.44632
 30
0.0
 10
0.67081
 20
-7.44632
 30
0.0
 10
0.11535
 20
-7.44632
 30
0.0
 10
0.11535
 20
-7.44632
 30
0.0
 10
0.11535
 20
-7.44632
 30
0.0
 10
0.11535
 20
-7.44632
 30
0.0
 10
0.11535
 20
-8.20517
 30
0.0
 10
0.11535
 20
-8.20517
 30
0.0
 10
0.11535
 20
-8.20517
 30
0.0
 10
0.11535
 20
-8.20517
 30
0.0
 10
-0.34926
 20
-8.20517
 30
0.0
 10
-0.34926
 20
-8.20517
 30
0.0
 10
-0.34926
 20
-8.20517
 30
0.0
 10
-0.34926
 20
-8.20517
 30
0.0
 10
-0.34926
 20
-6.92244
 30
0.0
 10
-0.34926
 20
-6.92244
 30
0.0
 10
-0.34926
 20
-6.92244
 30
0.0
 10
-0.34926
 20
-6.92244
 30
0.0
 10
1.0108
 20
-6.92244
 30
0.0
 10
1.0108
 20
-6.92244
 30
0.0
 10
1.0108
 20
-6.92244
 30
0.0
 10
1.0108
 20
-6.92244
 30
0.0
 10
1.0108
 20
-8.20517
 30
0.0
 10
1.0108
 20
-8.20517
 30
0.0
 10
1.0108
 20
-8.20517
 30
0.0
 10
1.0108
 20
-8.20517
 30
0.0
 10
0.33087
 20
-8.20517
 30
0.0
 10
0.33087
 20
-8.20517
 30
0.0
  0
SPLINE
  5
9E
330
1F
100
AcDbEntity
  8
Layer 1
 62
   242
370
     9
100
AcDbSpline
210
0.0
220
0.0
230
1.0
 70
    11
 71
     3
 72
    44
 73
    40
 74
     0
 42
0.0000000001
 43
0.0000000001
 12
1.0
 22
0.0
 32
0.0
 13
1.0
 23
0.0
 33
0.0
 40
0.0
 40
0.0
 40
0.0
 40
0.0
 40
0.0909090909090909
 40
0.0909090909090909
 40
0.0909090909090909
 40
0.0909090909090909
 40
0.1818181818181818
 40
0.1818181818181818
 40
0.1818181818181818
 40
0.1818181818181818
 40
0.2727272727272727
 40
0.2727272727272727
 40
0.2727272727272727
 40
0.2727272727272727
 40
0.3636363636363636
 40
0.3636363636363636
 40
0.3636363636363636
 40
0.3636363636363636
 40
0.4545454545454545
 40
0.4545454545454545
 40
0.4545454545454545
 40
0.4545454545454545
 40
0.5454545454545454
 40
0.5454545454545454
 40
0.5454545454545454
 40
0.5454545454545454
 40
0.6363636363636364
 40
0.6363636363636364
 40
0.6363636363636364
 40
0.6363636363636364
 40
0.7272727272727273
 40
0.7272727272727273
 40
0.7272727272727273
 40
0.7272727272727273
 40
0.8181818181818182
 40
0.8181818181818182
 40
0.8181818181818182
 40
0.8181818181818182
 40
1.0
 40
1.0
 40
1.0
 40
1.0
 10
-1.24487
 20
-6.92244
 30
0.0
 10
-1.24487
 20
-6.92244
 30
0.0
 10
-1.9248
 20
-6.92244
 30
0.0
 10
-1.9248
 20
-6.92244
 30
0.0
 10
-1.9248
 20
-6.92244
 30
0.0
 10
-1.9248
 20
-6.92244
 30
0.0
 10
-1.9248
 20
-8.20517
 30
0.0
 10
-1.9248
 20
-8.20517
 30
0.0
 10
-1.9248
 20
-8.20517
 30
0.0
 10
-1.9248
 20
-8.20517
 30
0.0
 10
-0.56474
 20
-8.20517
 30
0.0
 10
-0.56474
 20
-8.20517
 30
0.0
 10
-0.56474
 20
-8.20517
 30
0.0
 10
-0.56474
 20
-8.20517
 30
0.0
 10
-0.56474
 20
-6.92244
 30
0.0
 10
-0.56474
 20
-6.92244
 30
0.0
 10
-0.56474
 20
-6.92244
 30
0.0
 10
-0.56474
 20
-6.92244
 30
0.0
 10
-1.02933
 20
-6.92244
 30
0.0
 10
-1.02933
 20
-6.92244
 30
0.0
 10
-1.02933
 20
-6.92244
 30
0.0
 10
-1.02933
 20
-6.92244
 30
0.0
 10
-1.02933
 20
-7.66182
 30
0.0
 10
-1.02933
 20
-7.66182
 30
0.0
 10
-1.02933
 20
-7.66182
 30
0.0
 10
-1.02933
 20
-7.66182
 30
0.0
 10
-1.58481
 20
-7.66182
 30
0.0
 10
-1.58481
 20
-7.66182
 30
0.0
 10
-1.58481
 20
-7.66182
 30
0.0
 10
-1.58481
 20
-7.66182
 30
0.0
 10
-1.58481
 20
-7.44632
 30
0.0
 10
-1.58481
 20
-7.44632
 30
0.0
 10
-1.58481
 20
-7.44632
 30
0.0
 10
-1.58481
 20
-7.44632
 30
0.0
 10
-1.24487
 20
-7.44632
 30
0.0
 10
-1.24487
 20
-7.44632
 30
0.0
 10
-1.24487
 20
-7.44632
 30
0.0
 10
-1.24487
 20
-7.44632
 30
0.0
 10
-1.24487
 20
-6.92244
 30
0.0
 10
-1.24487
 20
-6.92244
 30
0.0
  0
SPLINE
  5
9F
330
1F
100
AcDbEntity
  8
Layer 1
 62
   242
370
     9
100
AcDbSpline
210
0.0
220
0.0
230
1.0
 70
    11
 71
     3
 72
    20
 73
    16
 74
     0
 42
0.0000000001
 43
0.0000000001
 12
1.0
 22
0.0
 32
0.0
 13
1.0
 23
0.0
 33
0.0
 40
0.0
 40
0.0
 40
0.0
 40
0.0
 40
0.2
 40
0.2
 40
0.2
 40
0.2
 40
0.4
 40
0.4
 40
0.4
 40
0.4
 40
0.6
 40
0.6
 40
0.6
 40
0.6
 40
1.0
 40
1.0
 40
1.0
 40
1.0
 10
-5.08012
 20
-3.87486
 30
0.0
 10
-5.08012
 20
-3.87486
 30
0.0
 10
-5.08012
 20
-5.50173
 30
0.0
 10
-5.08012
 20
-5.50173
 30
0.0
 10
-5.08012
 20
-5.50173
 30
0.0
 10
-5.08012
 20
-5.50173
 30
0.0
 10
-6.57824
 20
-5.50173
 30
0.0
 10
-6.57824
 20
-5.50173
 30
0.0
 10
-6.57824
 20
-5.50173
 30
0.0
 10
-6.57824
 20
-5.50173
 30
0.0
 10
-6.57824
 20
-3.87486
 30
0.0
 10
-6.57824
 20
-3.87486
 30
0.0
 10
-6.57824
 20
-3.87486
 30
0.0
 10
-6.57824
 20
-3.87486
 30
0.0
 10
-5.08012
 20
-3.87486
 30
0.0
 10
-5.08012
 20
-3.87486
 30
0.0
  0
SPLINE
  5
A0
330
1F
100
AcDbEntity
  8
Layer 1
 62
   242
370
     9
100
AcDbSpline
210
0.0
220
0.0
230
1.0
 70
    11
 71
     3
 72
    20
 73
    16
 74
     0
 42
0.0000000001
 43
0.0000000001
 12
1.0
 22
0.0
 32
0.0
 13
1.0
 23
0.0
 33
0.0
 40
0.0
 40
0.0
 40
0.0
 40
0.0
 40
0.2
 40
0.2
 40
0.2
 40
0.2
 40
0.4
 40
0.4
 40
0.4
 40
0.4
 40
0.6
 40
0.6
 40
0.6
 40
0.6
 40
1.0
 40
1.0
 40
1.0
 40
1.0
 10
-6.57824
 20
-7.29283
 30
0.0
 10
-6.57824
 20
-7.29283
 30
0.0
 10
-5.55823
 20
-7.29283
 30
0.0
 10
-5.55823
 20
-7.29283
 30
0.0
 10
-5.55823
 20
-7.29283
 30
0.0
 10
-5.55823
 20
-7.29283
 30
0.0
 10
-5.55823
 20
-8.31283
 30
0.0
 10
-5.55823
 20
-8.31283
 30
0.0
 10
-5.55823
 20
-8.31283
 30
0.0
 10
-5.55823
 20
-8.31283
 30
0.0
 10
-6.57824
 20
-8.31283
 30
0.0
 10
-6.57824
 20
-8.31283
 30
0.0
 10
-6.57824
 20
-8.31283
 30
0.0
 10
-6.57824
 20
-8.31283
 30
0.0
 10
-6.57824
 20
-7.29283
 30
0.0
 10
-6.57824
 20
-7.29283
 30
0.0
  0
SPLINE
  5
A1
330
1F
100
AcDbEntity
  8
Layer 1
 62
   242
370
     9
100
AcDbSpline
210
0.0
220
0.0
230
1.0
 70
     8
 71
     3
 72
    84
 73
    80
 74
     0
 42
0.0000000001
 43
0.0000000001
 12
1.0
 22
0.0
 32
0.0
 13
1.0
 23
0.0
 33
0.0
 40
0.0
 40
0.0
 40
0.0
 40
0.0
 40
0.0476190476190476
 40
0.0476190476190476
 40
0.0476190476190476
 40
0.0476190476190476
 40
0.0952380952380952
 40
0.0952380952380952
 40
0.0952380952380952
 40
0.0952380952380952
 40
0.1428571428571428
 40
0.1428571428571428
 40
0.1428571428571428
 40
0.1428571428571428
 40
0.1904761904761905
 40
0.1904761904761905
 40
0.1904761904761905
 40
0.1904761904761905
 40
0.2380952380952381
 40
0.2380952380952381
 40
0.2380952380952381
 40
0.2380952380952381
 40
0.2857142857142857
 40
0.2857142857142857
 40
0.2857142857142857
 40
0.2857142857142857
 40
0.3333333333333333
 40
0.3333333333333333
 40
0.3333333333333333
 40
0.3333333333333333
 40
0.3809523809523809
 40
0.3809523809523809
 40
0.3809523809523809
 40
0.3809523809523809
 40
0.4285714285714285
 40
0.4285714285714285
 40
0.4285714285714285
 40
0.4285714285714285
 40
0.4761904761904762
 40
0.4761904761904762
 40
0.4761904761904762
 40
0.4761904761904762
 40
0.5238095238095238
 40
0.5238095238095238
 40
0.5238095238095238
 40
0.5238095238095238
 40
0.5714285714285714
 40
0.5714285714285714
 40
0.5714285714285714
 40
0.5714285714285714
 40
0.6190476190476191
 40
0.6190476190476191
 40
0.6190476190476191
 40
0.6190476190476191
 40
0.6666666666666666
 40
0.6666666666666666
 40
0.6666666666666666
 40
0.6666666666666666
 40
0.7142857142857143
 40
0.7142857142857143
 40
0.7142857142857143
 40
0.7142857142857143
 40
0.7619047619047619
 40
0.7619047619047619
 40
0.7619047619047619
 40
0.7619047619047619
 40
0.8095238095238095
 40
0.8095238095238095
 40
0.8095238095238095
 40
0.8095238095238095
 40
0.8571428571428571
 40
0.8571428571428571
 40
0.8571428571428571
 40
0.8571428571428571
 40
0.9047619047619048
 40
0.9047619047619048
 40
0.9047619047619048
 40
0.9047619047619048
 40
1.0
 40
1.0
 40
1.0
 40
1.0
 10
-5.08012
 20
-6.6128
 30
0.0
 10
-5.08012
 20
-6.6128
 30
0.0
 10
-5.08012
 20
-6.81471
 30
0.0
 10
-5.08012
 20
-6.81471
 30
0.0
 10
-5.08012
 20
-6.81471
 30
0.0
 10
-5.08012
 20
-6.81471
 30
0.0
 10
-4.87819
 20
-6.81471
 30
0.0
 10
-4.87819
 20
-6.81471
 30
0.0
 10
-4.87819
 20
-6.81471
 30
0.0
 10
-4.87819
 20
-6.81471
 30
0.0
 10
-4.87819
 20
-7.66182
 30
0.0
 10
-4.87819
 20
-7.66182
 30
0.0
 10
-4.87819
 20
-7.66182
 30
0.0
 10
-4.87819
 20
-7.66182
 30
0.0
 10
-4.32262
 20
-7.66182
 30
0.0
 10
-4.32262
 20
-7.66182
 30
0.0
 10
-4.32262
 20
-7.66182
 30
0.0
 10
-4.32262
 20
-7.66182
 30
0.0
 10
-4.32262
 20
-7.44632
 30
0.0
 10
-4.32262
 20
-7.44632
 30
0.0
 10
-4.32262
 20
-7.44632
 30
0.0
 10
-4.32262
 20
-7.44632
 30
0.0
 10
-4.66265
 20
-7.44632
 30
0.0
 10
-4.66265
 20
-7.44632
 30
0.0
 10
-4.66265
 20
-7.44632
 30
0.0
 10
-4.66265
 20
-7.44632
 30
0.0
 10
-4.66265
 20
-6.92244
 30
0.0
 10
-4.66265
 20
-6.92244
 30
0.0
 10
-4.66265
 20
-6.92244
 30
0.0
 10
-4.66265
 20
-6.92244
 30
0.0
 10
-3.98259
 20
-6.92244
 30
0.0
 10
-3.98259
 20
-6.92244
 30
0.0
 10
-3.98259
 20
-6.92244
 30
0.0
 10
-3.98259
 20
-6.92244
 30
0.0
 10
-3.98259
 20
-8.20517
 30
0.0
 10
-3.98259
 20
-8.20517
 30
0.0
 10
-3.98259
 20
-8.20517
 30
0.0
 10
-3.98259
 20
-8.20517
 30
0.0
 10
-5.34277
 20
-8.20517
 30
0.0
 10
-5.34277
 20
-8.20517
 30
0.0
 10
-5.34277
 20
-8.20517
 30
0.0
 10
-5.34277
 20
-8.20517
 30
0.0
 10
-5.34277
 20
-7.07737
 30
0.0
 10
-5.34277
 20
-7.07737
 30
0.0
 10
-5.34277
 20
-7.07737
 30
0.0
 10
-5.34277
 20
-7.07737
 30
0.0
 10
-6.47057
 20
-7.07737
 30
0.0
 10
-6.47057
 20
-7.07737
 30
0.0
 10
-6.47057
 20
-7.07737
 30
0.0
 10
-6.47057
 20
-7.07737
 30
0.0
 10
-6.47056
 20
-5.71719
 30
0.0
 10
-6.47056
 20
-5.71719
 30
0.0
 10
-6.47056
 20
-5.71719
 30
0.0
 10
-6.47056
 20
-5.71719
 30
0.0
 10
-5.18784
 20
-5.71719
 30
0.0
 10
-5.18784
 20
-5.71719
 30
0.0
 10
-5.18784
 20
-5.71719
 30
0.0
 10
-5.18784
 20
-5.71719
 30
0.0
 10
-5.18784
 20
-6.39729
 30
0.0
 10
-5.18784
 20
-6.39729
 30
0.0
 10
-5.18784
 20
-6.39729
 30
0.0
 10
-5.18784
 20
-6.39729
 30
0.0
 10
-5.71169
 20
-6.39729
 30
0.0
 10
-5.71169
 20
-6.39729
 30
0.0
 10
-5.71169
 20
-6.39729
 30
0.0
 10
-5.71169
 20
-6.39729
 30
0.0
 10
-5.71172
 20
-6.05723
 30
0.0
 10
-5.71172
 20
-6.05723
 30
0.0
 10
-5.71172
 20
-6.05723
 30
0.0
 10
-5.71172
 20
-6.05723
 30
0.0
 10
-5.92722
 20
-6.05723
 30
0.0
 10
-5.92722
 20
-6.05723
 30
0.0
 10
-5.92722
 20
-6.05723
 30
0.0
 10
-5.92722
 20
-6.05723
 30
0.0
 10
-5.92722
 20
-6.61279
 30
0.0
 10
-5.92722
 20
-6.61279
 30
0.0
 10
-5.92722
 20
-6.61279
 30
0.0
 10
-5.92722
 20
-6.61279
 30
0.0
 10
-5.08012
 20
-6.61279
 30
0.0
 10
-5.08012
 20
-6.61279
 30
0.0
  0
SPLINE
  5
A2
330
1F
100
AcDbEntity
  8
Layer 1
 62
   242
370
     9
100
AcDbSpline
210
0.0
220
0.0
230
1.0
 70
     8
 71
     3
 72
   124
 73
   120
 74
     0
 42
0.0000000001
 43
0.0000000001
 12
1.0
 22
0.0
 32
0.0
 13
1.0
 23
0.0
 33
0.0
 40
0.0
 40
0.0
 40
0.0
 40
0.0
 40
0.032258064516129
 40
0.032258064516129
 40
0.032258064516129
 40
0.032258064516129
 40
0.0645161290322581
 40
0.0645161290322581
 40
0.0645161290322581
 40
0.0645161290322581
 40
0.0967741935483871
 40
0.0967741935483871
 40
0.0967741935483871
 40
0.0967741935483871
 40
0.1290322580645161
 40
0.1290322580645161
 40
0.1290322580645161
 40
0.1290322580645161
 40
0.1612903225806452
 40
0.1612903225806452
 40
0.1612903225806452
 40
0.1612903225806452
 40
0.1935483870967742
 40
0.1935483870967742
 40
0.1935483870967742
 40
0.1935483870967742
 40
0.2258064516129032
 40
0.2258064516129032
 40
0.2258064516129032
 40
0.2258064516129032
 40
0.2580645161290323
 40
0.2580645161290323
 40
0.2580645161290323
 40
0.2580645161290323
 40
0.2903225806451613
 40
0.2903225806451613
 40
0.2903225806451613
 40
0.2903225806451613
 40
0.3225806451612903
 40
0.3225806451612903
 40
0.3225806451612903
 40
0.3225806451612903
 40
0.3548387096774194
 40
0.3548387096774194
 40
0.3548387096774194
 40
0.3548387096774194
 40
0.3870967741935484
 40
0.3870967741935484
 40
0.3870967741935484
 40
0.3870967741935484
 40
0.4193548387096774
 40
0.4193548387096774
 40
0.4193548387096774
 40
0.4193548387096774
 40
0.4516129032258064
 40
0.4516129032258064
 40
0.4516129032258064
 40
0.4516129032258064
 40
0.4838709677419355
 40
0.4838709677419355
 40
0.4838709677419355
 40
0.4838709677419355
 40
0.5161290322580645
 40
0.5161290322580645
 40
0.5161290322580645
 40
0.5161290322580645
 40
0.5483870967741935
 40
0.5483870967741935
 40
0.5483870967741935
 40
0.5483870967741935
 40
0.5806451612903226
 40
0.5806451612903226
 40
0.5806451612903226
 40
0.5806451612903226
 40
0.6129032258064516
 40
0.6129032258064516
 40
0.6129032258064516
 40
0.6129032258064516
 40
0.6451612903225806
 40
0.6451612903225806
 40
0.6451612903225806
 40
0.6451612903225806
 40
0.6774193548387096
 40
0.6774193548387096
 40
0.6774193548387096
 40
0.6774193548387096
 40
0.7096774193548387
 40
0.7096774193548387
 40
0.7096774193548387
 40
0.7096774193548387
 40
0.7419354838709677
 40
0.7419354838709677
 40
0.7419354838709677
 40
0.7419354838709677
 40
0.7741935483870968
 40
0.7741935483870968
 40
0.7741935483870968
 40
0.7741935483870968
 40
0.8064516129032258
 40
0.8064516129032258
 40
0.8064516129032258
 40
0.8064516129032258
 40
0.8387096774193549
 40
0.8387096774193549
 40
0.8387096774193549
 40
0.8387096774193549
 40
0.8709677419354839
 40
0.8709677419354839
 40
0.8709677419354839
 40
0.8709677419354839
 40
0.9032258064516129
 40
0.9032258064516129
 40
0.9032258064516129
 40
0.9032258064516129
 40
0.9354838709677419
 40
0.9354838709677419
 40
0.9354838709677419
 40
0.9354838709677419
 40
1.0
 40
1.0
 40
1.0
 40
1.0
 10
-2.26007
 20
-0.38856
 30
0.0
 10
-2.0687
 20
-1.06341
 30
0.0
 10
-2.46218
 20
-1.76607
 30
0.0
 10
-3.13702
 20
-1.95745
 30
0.0
 10
-3.13702
 20
-1.95745
 30
0.0
 10
-3.23756
 20
-1.98584
 30
0.0
 10
-3.34123
 20
-2.00175
 30
0.0
 10
-3.44565
 20
-2.00482
 30
0.0
 10
-3.44565
 20
-2.00482
 30
0.0
 10
-3.93702
 20
-2.04012
 30
0.0
 10
-4.39742
 20
-1.76236
 30
0.0
 10
-4.59533
 20
-1.31123
 30
0.0
 10
-4.59533
 20
-1.31123
 30
0.0
 10
-4.79324
 20
-0.8601
 30
0.0
 10
-4.68582
 20
-0.33324
 30
0.0
 10
-4.32709
 20
0.00441
 30
0.0
 10
-4.32709
 20
0.00441
 30
0.0
 10
-3.96836
 20
0.34204
 30
0.0
 10
-3.41957
 20
0.40881
 30
0.0
 10
-2.98125
 20
0.18396
 30
0.0
 10
-2.98125
 20
0.18396
 30
0.0
 10
-2.92869
 20
0.14515
 30
0.0
 10
-2.89895
 20
0.08269
 30
0.0
 10
-2.90195
 20
0.01743
 30
0.0
 10
-2.90195
 20
0.01743
 30
0.0
 10
-2.90494
 20
-0.04783
 30
0.0
 10
-2.94075
 20
-0.10759
 30
0.0
 10
-2.99664
 20
-0.14142
 30
0.0
 10
-2.99664
 20
-0.14142
 30
0.0
 10
-3.05253
 20
-0.17525
 30
0.0
 10
-3.12161
 20
-0.17899
 30
0.0
 10
-3.18081
 20
-0.15139
 30
0.0
 10
-3.18081
 20
-0.15139
 30
0.0
 10
-3.24003
 20
-0.12378
 30
0.0
 10
-3.28166
 20
-0.06792
 30
0.0
 10
-3.29168
 20
-0.00335
 30
0.0
 10
-3.29168
 20
-0.00335
 30
0.0
 10
-3.29753
 20
0.03471
 30
0.0
 10
-3.32325
 20
0.06675
 30
0.0
 10
-3.35914
 20
0.0807
 30
0.0
 10
-3.35914
 20
0.0807
 30
0.0
 10
-3.39503
 20
0.09465
 30
0.0
 10
-3.43564
 20
0.08839
 30
0.0
 10
-3.46566
 20
0.06429
 30
0.0
 10
-3.46566
 20
0.06429
 30
0.0
 10
-3.49569
 20
0.04018
 30
0.0
 10
-3.51058
 20
0.00191
 30
0.0
 10
-3.50471
 20
-0.03614
 30
0.0
 10
-3.50471
 20
-0.03614
 30
0.0
 10
-3.46995
 20
-0.26091
 30
0.0
 10
-3.26013
 20
-0.41506
 30
0.0
 10
-3.03533
 20
-0.38042
 30
0.0
 10
-3.03533
 20
-0.38042
 30
0.0
 10
-2.83056
 20
-0.34803
 30
0.0
 10
-2.68137
 20
-0.16947
 30
0.0
 10
-2.68639
 20
0.0378
 30
0.0
 10
-2.68639
 20
0.0378
 30
0.0
 10
-2.45906
 20
0.03178
 30
0.0
 10
-2.26983
 20
0.21053
 30
0.0
 10
-2.26354
 20
0.43787
 30
0.0
 10
-2.26354
 20
0.43787
 30
0.0
 10
-2.25863
 20
0.64515
 30
0.0
 10
-2.40759
 20
0.82397
 30
0.0
 10
-2.61243
 20
0.85611
 30
0.0
 10
-2.61243
 20
0.85611
 30
0.0
 10
-2.65049
 20
0.86197
 30
0.0
 10
-2.68879
 20
0.84708
 30
0.0
 10
-2.71289
 20
0.81705
 30
0.0
 10
-2.71289
 20
0.81705
 30
0.0
 10
-2.737
 20
0.78701
 30
0.0
 10
-2.74324
 20
0.7464
 30
0.0
 10
-2.72928
 20
0.71051
 30
0.0
 10
-2.72928
 20
0.71051
 30
0.0
 10
-2.71531
 20
0.67462
 30
0.0
 10
-2.6833
 20
0.64892
 30
0.0
 10
-2.64524
 20
0.64308
 30
0.0
 10
-2.64524
 20
0.64308
 30
0.0
 10
-2.58066
 20
0.63322
 30
0.0
 10
-2.52523
 20
0.59183
 30
0.0
 10
-2.49746
 20
0.5327
 30
0.0
 10
-2.49746
 20
0.5327
 30
0.0
 10
-2.46968
 20
0.47357
 30
0.0
 10
-2.47348
 20
0.40401
 30
0.0
 10
-2.50713
 20
0.34801
 30
0.0
 10
-2.50713
 20
0.34801
 30
0.0
 10
-2.5408
 20
0.29199
 30
0.0
 10
-2.60019
 20
0.25646
 30
0.0
 10
-2.66546
 20
0.25329
 30
0.0
 10
-2.66546
 20
0.25329
 30
0.0
 10
-2.73075
 20
0.25013
 30
0.0
 10
-2.79363
 20
0.28018
 30
0.0
 10
-2.83256
 20
0.33268
 30
0.0
 10
-2.83256
 20
0.33268
 30
0.0
 10
-3.00119
 20
0.65427
 30
0.0
 10
-3.00963
 20
1.03625
 30
0.0
 10
-2.85535
 20
1.36498
 30
0.0
 10
-2.85535
 20
1.36498
 30
0.0
 10
-2.70107
 20
1.6937
 30
0.0
 10
-2.39936
 20
1.93184
 30
0.0
 10
-2.04424
 20
2.00762
 30
0.0
 10
-2.04424
 20
2.00762
 30
0.0
 10
-1.68908
 20
2.08341
 30
0.0
 10
-1.31891
 20
1.9886
 30
0.0
 10
-1.04391
 20
1.75142
 30
0.0
 10
-1.04391
 20
1.75142
 30
0.0
 10
-0.76892
 20
1.51423
 30
0.0
 10
-0.62095
 20
1.15945
 30
0.0
 10
-0.64378
 20
0.797
 30
0.0
 10
-0.64378
 20
0.797
 30
0.0
 10
-0.65345
 20
0.46031
 30
0.0
 10
-0.7965
 20
0.14126
 30
0.0
 10
-1.04142
 20
-0.08997
 30
0.0
 10
-1.04142
 20
-0.08997
 30
0.0
 10
-1.28635
 20
-0.3212
 30
0.0
 10
-1.61471
 20
-0.4456
 30
0.0
 10
-1.9514
 20
-0.43591
 30
0.0
 10
-1.9514
 20
-0.43591
 30
0.0
 10
-2.05584
 20
-0.4329
 30
0.0
 10
-2.15953
 20
-0.41699
 30
0.0
 10
-2.26006
 20
-0.38853
 30
0.0
  0
SPLINE
  5
A3
330
1F
100
AcDbEntity
  8
Layer 1
 62
   242
370
     9
100
AcDbSpline
210
0.0
220
0.0
230
1.0
 70
     8
 71
     3
 72
   124
 73
   120
 74
     0
 42
0.0000000001
 43
0.0000000001
 12
1.0
 22
0.0
 32
0.0
 13
1.0
 23
0.0
 33
0.0
 40
0.0
 40
0.0
 40
0.0
 40
0.0
 40
0.032258064516129
 40
0.032258064516129
 40
0.032258064516129
 40
0.032258064516129
 40
0.0645161290322581
 40
0.0645161290322581
 40
0.0645161290322581
 40
0.0645161290322581
 40
0.0967741935483871
 40
0.0967741935483871
 40
0.0967741935483871
 40
0.0967741935483871
 40
0.1290322580645161
 40
0.1290322580645161
 40
0.1290322580645161
 40
0.1290322580645161
 40
0.1612903225806452
 40
0.1612903225806452
 40
0.1612903225806452
 40
0.1612903225806452
 40
0.1935483870967742
 40
0.1935483870967742
 40
0.1935483870967742
 40
0.1935483870967742
 40
0.2258064516129032
 40
0.2258064516129032
 40
0.2258064516129032
 40
0.2258064516129032
 40
0.2580645161290323
 40
0.2580645161290323
 40
0.2580645161290323
 40
0.2580645161290323
 40
0.2903225806451613
 40
0.2903225806451613
 40
0.2903225806451613
 40
0.2903225806451613
 40
0.3225806451612903
 40
0.3225806451612903
 40
0.3225806451612903
 40
0.3225806451612903
 40
0.3548387096774194
 40
0.3548387096774194
 40
0.3548387096774194
 40
0.3548387096774194
 40
0.3870967741935484
 40
0.3870967741935484
 40
0.3870967741935484
 40
0.3870967741935484
 40
0.4193548387096774
 40
0.4193548387096774
 40
0.4193548387096774
 40
0.4193548387096774
 40
0.4516129032258064
 40
0.4516129032258064
 40
0.4516129032258064
 40
0.4516129032258064
 40
0.4838709677419355
 40
0.4838709677419355
 40
0.4838709677419355
 40
0.4838709677419355
 40
0.5161290322580645
 40
0.5161290322580645
 40
0.5161290322580645
 40
0.5161290322580645
 40
0.5483870967741935
 40
0.5483870967741935
 40
0.5483870967741935
 40
0.5483870967741935
 40
0.5806451612903226
 40
0.5806451612903226
 40
0.5806451612903226
 40
0.5806451612903226
 40
0.6129032258064516
 40
0.6129032258064516
 40
0.6129032258064516
 40
0.6129032258064516
 40
0.6451612903225806
 40
0.6451612903225806
 40
0.6451612903225806
 40
0.6451612903225806
 40
0.6774193548387096
 40
0.6774193548387096
 40
0.6774193548387096
 40
0.6774193548387096
 40
0.7096774193548387
 40
0.7096774193548387
 40
0.7096774193548387
 40
0.7096774193548387
 40
0.7419354838709677
 40
0.7419354838709677
 40
0.7419354838709677
 40
0.7419354838709677
 40
0.7741935483870968
 40
0.7741935483870968
 40
0.7741935483870968
 40
0.7741935483870968
 40
0.8064516129032258
 40
0.8064516129032258
 40
0.8064516129032258
 40
0.8064516129032258
 40
0.8387096774193549
 40
0.8387096774193549
 40
0.8387096774193549
 40
0.8387096774193549
 40
0.8709677419354839
 40
0.8709677419354839
 40
0.8709677419354839
 40
0.8709677419354839
 40
0.9032258064516129
 40
0.9032258064516129
 40
0.9032258064516129
 40
0.9032258064516129
 40
0.9354838709677419
 40
0.9354838709677419
 40
0.9354838709677419
 40
0.9354838709677419
 40
1.0
 40
1.0
 40
1.0
 40
1.0
 10
1.34617
 20
-0.3885
 30
0.0
 10
1.02212
 20
-0.48044
 30
0.0
 10
0.67481
 20
-0.43988
 30
0.0
 10
0.38065
 20
-0.27575
 30
0.0
 10
0.38065
 20
-0.27575
 30
0.0
 10
0.0865
 20
-0.11161
 30
0.0
 10
-0.13083
 20
0.1642
 30
0.0
 10
-0.22278
 20
0.48825
 30
0.0
 10
-0.22278
 20
0.48825
 30
0.0
 10
-0.25123
 20
0.58879
 30
0.0
 10
-0.26718
 20
0.69249
 30
0.0
 10
-0.27022
 20
0.79695
 30
0.0
 10
-0.27022
 20
0.79695
 30
0.0
 10
-0.30557
 20
1.28832
 30
0.0
 10
-0.02785
 20
1.74876
 30
0.0
 10
0.42328
 20
1.94671
 30
0.0
 10
0.42328
 20
1.94671
 30
0.0
 10
0.87441
 20
2.14466
 30
0.0
 10
1.40129
 20
2.03726
 30
0.0
 10
1.73896
 20
1.67854
 30
0.0
 10
1.73896
 20
1.67854
 30
0.0
 10
2.07662
 20
1.31981
 30
0.0
 10
2.14341
 20
0.77102
 30
0.0
 10
1.91856
 20
0.33268
 30
0.0
 10
1.91856
 20
0.33268
 30
0.0
 10
1.87976
 20
0.28013
 30
0.0
 10
1.81731
 20
0.25039
 30
0.0
 10
1.75205
 20
0.25338
 30
0.0
 10
1.75205
 20
0.25338
 30
0.0
 10
1.68679
 20
0.25636
 30
0.0
 10
1.62703
 20
0.29217
 30
0.0
 10
1.59319
 20
0.34805
 30
0.0
 10
1.59319
 20
0.34805
 30
0.0
 10
1.55935
 20
0.40393
 30
0.0
 10
1.55561
 20
0.47301
 30
0.0
 10
1.58322
 20
0.53223
 30
0.0
 10
1.58322
 20
0.53223
 30
0.0
 10
1.61083
 20
0.59143
 30
0.0
 10
1.66669
 20
0.63306
 30
0.0
 10
1.73124
 20
0.64308
 30
0.0
 10
1.73124
 20
0.64308
 30
0.0
 10
1.7693
 20
0.64893
 30
0.0
 10
1.80134
 20
0.67464
 30
0.0
 10
1.8153
 20
0.71053
 30
0.0
 10
1.8153
 20
0.71053
 30
0.0
 10
1.82926
 20
0.74642
 30
0.0
 10
1.82301
 20
0.78702
 30
0.0
 10
1.79891
 20
0.81705
 30
0.0
 10
1.79891
 20
0.81705
 30
0.0
 10
1.7748
 20
0.84708
 30
0.0
 10
1.73653
 20
0.86197
 30
0.0
 10
1.69847
 20
0.85611
 30
0.0
 10
1.69847
 20
0.85611
 30
0.0
 10
1.4737
 20
0.82135
 30
0.0
 10
1.31954
 20
0.61153
 30
0.0
 10
1.35419
 20
0.38674
 30
0.0
 10
1.35419
 20
0.38674
 30
0.0
 10
1.38656
 20
0.18196
 30
0.0
 10
1.56513
 20
0.03277
 30
0.0
 10
1.77239
 20
0.0378
 30
0.0
 10
1.77239
 20
0.0378
 30
0.0
 10
1.76636
 20
-0.18956
 30
0.0
 10
1.94515
 20
-0.37881
 30
0.0
 10
2.1725
 20
-0.38503
 30
0.0
 10
2.1725
 20
-0.38503
 30
0.0
 10
2.37979
 20
-0.38994
 30
0.0
 10
2.55859
 20
-0.24096
 30
0.0
 10
2.59071
 20
-0.03612
 30
0.0
 10
2.59071
 20
-0.03612
 30
0.0
 10
2.59656
 20
0.00193
 30
0.0
 10
2.58167
 20
0.04022
 30
0.0
 10
2.55163
 20
0.06431
 30
0.0
 10
2.55163
 20
0.06431
 30
0.0
 10
2.5216
 20
0.08841
 30
0.0
 10
2.48099
 20
0.09465
 30
0.0
 10
2.44511
 20
0.08069
 30
0.0
 10
2.44511
 20
0.08069
 30
0.0
 10
2.40924
 20
0.06672
 30
0.0
 10
2.38354
 20
0.03471
 30
0.0
 10
2.37769
 20
-0.00335
 30
0.0
 10
2.37769
 20
-0.00335
 30
0.0
 10
2.36784
 20
-0.06794
 30
0.0
 10
2.32644
 20
-0.12335
 30
0.0
 10
2.26731
 20
-0.15114
 30
0.0
 10
2.26731
 20
-0.15114
 30
0.0
 10
2.20818
 20
-0.17891
 30
0.0
 10
2.13863
 20
-0.17511
 30
0.0
 10
2.08263
 20
-0.14147
 30
0.0
 10
2.08263
 20
-0.14147
 30
0.0
 10
2.0266
 20
-0.10782
 30
0.0
 10
1.99106
 20
-0.04842
 30
0.0
 10
1.98789
 20
0.01686
 30
0.0
 10
1.98789
 20
0.01686
 30
0.0
 10
1.98472
 20
0.08214
 30
0.0
 10
2.01478
 20
0.14503
 30
0.0
 10
2.06728
 20
0.18396
 30
0.0
 10
2.06728
 20
0.18396
 30
0.0
 10
2.50199
 20
0.41578
 30
0.0
 10
3.03555
 20
0.34891
 30
0.0
 10
3.39962
 20
0.017
 30
0.0
 10
3.39962
 20
0.017
 30
0.0
 10
3.76369
 20
-0.31492
 30
0.0
 10
3.87947
 20
-0.84004
 30
0.0
 10
3.68872
 20
-1.29427
 30
0.0
 10
3.68872
 20
-1.29427
 30
0.0
 10
3.49797
 20
-1.7485
 30
0.0
 10
3.02354
 20
-2.03235
 30
0.0
 10
2.53165
 20
-2.00482
 30
0.0
 10
2.53165
 20
-2.00482
 30
0.0
 10
2.19495
 20
-1.99515
 30
0.0
 10
1.87589
 20
-1.85213
 30
0.0
 10
1.64465
 20
-1.6072
 30
0.0
 10
1.64465
 20
-1.6072
 30
0.0
 10
1.41341
 20
-1.36227
 30
0.0
 10
1.28899
 20
-1.03391
 30
0.0
 10
1.29869
 20
-0.69721
 30
0.0
 10
1.29869
 20
-0.69721
 30
0.0
 10
1.3017
 20
-0.59278
 30
0.0
 10
1.31761
 20
-0.48909
 30
0.0
 10
1.34607
 20
-0.38856
 30
0.0
  0
SPLINE
  5
A4
330
1F
100
AcDbEntity
  8
Layer 1
 62
   242
370
     9
100
AcDbSpline
210
0.0
220
0.0
230
1.0
 70
     8
 71
     3
 72
   120
 73
   116
 74
     0
 42
0.0000000001
 43
0.0000000001
 12
1.0
 22
0.0
 32
0.0
 13
1.0
 23
0.0
 33
0.0
 40
0.0
 40
0.0
 40
0.0
 40
0.0
 40
0.0333333333333333
 40
0.0333333333333333
 40
0.0333333333333333
 40
0.0333333333333333
 40
0.0666666666666667
 40
0.0666666666666667
 40
0.0666666666666667
 40
0.0666666666666667
 40
0.1
 40
0.1
 40
0.1
 40
0.1
 40
0.1333333333333333
 40
0.1333333333333333
 40
0.1333333333333333
 40
0.1333333333333333
 40
0.1666666666666667
 40
0.1666666666666667
 40
0.1666666666666667
 40
0.1666666666666667
 40
0.2
 40
0.2
 40
0.2
 40
0.2
 40
0.2333333333333333
 40
0.2333333333333333
 40
0.2333333333333333
 40
0.2333333333333333
 40
0.2666666666666667
 40
0.2666666666666667
 40
0.2666666666666667
 40
0.2666666666666667
 40
0.3
 40
0.3
 40
0.3
 40
0.3
 40
0.3333333333333333
 40
0.3333333333333333
 40
0.3333333333333333
 40
0.3333333333333333
 40
0.3666666666666666
 40
0.3666666666666666
 40
0.3666666666666666
 40
0.3666666666666666
 40
0.4
 40
0.4
 40
0.4
 40
0.4
 40
0.4333333333333333
 40
0.4333333333333333
 40
0.4333333333333333
 40
0.4333333333333333
 40
0.4666666666666667
 40
0.4666666666666667
 40
0.4666666666666667
 40
0.4666666666666667
 40
0.5
 40
0.5
 40
0.5
 40
0.5
 40
0.5333333333333333
 40
0.5333333333333333
 40
0.5333333333333333
 40
0.5333333333333333
 40
0.5666666666666667
 40
0.5666666666666667
 40
0.5666666666666667
 40
0.5666666666666667
 40
0.6
 40
0.6
 40
0.6
 40
0.6
 40
0.6333333333333333
 40
0.6333333333333333
 40
0.6333333333333333
 40
0.6333333333333333
 40
0.6666666666666666
 40
0.6666666666666666
 40
0.6666666666666666
 40
0.6666666666666666
 40
0.7
 40
0.7
 40
0.7
 40
0.7
 40
0.7333333333333333
 40
0.7333333333333333
 40
0.7333333333333333
 40
0.7333333333333333
 40
0.7666666666666667
 40
0.7666666666666667
 40
0.7666666666666667
 40
0.7666666666666667
 40
0.8
 40
0.8
 40
0.8
 40
0.8
 40
0.8333333333333334
 40
0.8333333333333334
 40
0.8333333333333334
 40
0.8333333333333334
 40
0.8666666666666667
 40
0.8666666666666667
 40
0.8666666666666667
 40
0.8666666666666667
 40
0.9
 40
0.9
 40
0.9
 40
0.9
 40
0.9333333333333333
 40
0.9333333333333333
 40
0.9333333333333333
 40
0.9333333333333333
 40
1.0
 40
1.0
 40
1.0
 40
1.0
 10
-2.26007
 20
-3.99463
 30
0.0
 10
-2.06932
 20
-3.31869
 30
0.0
 10
-2.46109
 20
-2.61652
 30
0.0
 10
-3.13702
 20
-2.42576
 30
0.0
 10
-3.13702
 20
-2.42576
 30
0.0
 10
-3.23756
 20
-2.39735
 30
0.0
 10
-3.34119
 20
-2.38144
 30
0.0
 10
-3.44561
 20
-2.37837
 30
0.0
 10
-3.44561
 20
-2.37837
 30
0.0
 10
-3.93527
 20
-2.35112
 30
0.0
 10
-4.38908
 20
-2.63498
 30
0.0
 10
-4.57883
 20
-3.0872
 30
0.0
 10
-4.57883
 20
-3.0872
 30
0.0
 10
-4.76859
 20
-3.53942
 30
0.0
 10
-4.65321
 20
-4.06212
 30
0.0
 10
-4.29071
 20
-4.39243
 30
0.0
 10
-4.29071
 20
-4.39243
 30
0.0
 10
-3.92823
 20
-4.72274
 30
0.0
 10
-3.41396
 20
-4.79801
 30
0.0
 10
-2.98128
 20
-4.56716
 30
0.0
 10
-2.98128
 20
-4.56716
 30
0.0
 10
-2.92873
 20
-4.52813
 30
0.0
 10
-2.8991
 20
-4.46548
 30
0.0
 10
-2.90227
 20
-4.4001
 30
0.0
 10
-2.90227
 20
-4.4001
 30
0.0
 10
-2.90545
 20
-4.33472
 30
0.0
 10
-2.94053
 20
-4.2755
 30
0.0
 10
-2.99661
 20
-4.24175
 30
0.0
 10
-2.99661
 20
-4.24175
 30
0.0
 10
-3.0527
 20
-4.20798
 30
0.0
 10
-3.12194
 20
-4.20441
 30
0.0
 10
-3.1812
 20
-4.23225
 30
0.0
 10
-3.1812
 20
-4.23225
 30
0.0
 10
-3.24046
 20
-4.26009
 30
0.0
 10
-3.28184
 20
-4.31511
 30
0.0
 10
-3.29168
 20
-4.37984
 30
0.0
 10
-3.29168
 20
-4.37984
 30
0.0
 10
-3.29753
 20
-4.4179
 30
0.0
 10
-3.32324
 20
-4.44994
 30
0.0
 10
-3.35913
 20
-4.46389
 30
0.0
 10
-3.35913
 20
-4.46389
 30
0.0
 10
-3.39501
 20
-4.47785
 30
0.0
 10
-3.43562
 20
-4.4716
 30
0.0
 10
-3.46564
 20
-4.44751
 30
0.0
 10
-3.46564
 20
-4.44751
 30
0.0
 10
-3.49567
 20
-4.4234
 30
0.0
 10
-3.51057
 20
-4.38513
 30
0.0
 10
-3.50471
 20
-4.34707
 30
0.0
 10
-3.50471
 20
-4.34707
 30
0.0
 10
-3.47028
 20
-4.12254
 30
0.0
 10
-3.25988
 20
-3.96847
 30
0.0
 10
-3.03533
 20
-4.00278
 30
0.0
 10
-3.03533
 20
-4.00278
 30
0.0
 10
-2.83075
 20
-4.03493
 30
0.0
 10
-2.68157
 20
-4.21396
 30
0.0
 10
-2.68639
 20
-4.42099
 30
0.0
 10
-2.68639
 20
-4.42099
 30
0.0
 10
-2.45934
 20
-4.41466
 30
0.0
 10
-2.27007
 20
-4.59401
 30
0.0
 10
-2.26354
 20
-4.82107
 30
0.0
 10
-2.26354
 20
-4.82107
 30
0.0
 10
-2.25846
 20
-5.02812
 30
0.0
 10
-2.40787
 20
-5.20699
 30
0.0
 10
-2.61243
 20
-5.23931
 30
0.0
 10
-2.61243
 20
-5.23931
 30
0.0
 10
-2.65049
 20
-5.24517
 30
0.0
 10
-2.68879
 20
-5.23027
 30
0.0
 10
-2.71289
 20
-5.20024
 30
0.0
 10
-2.71289
 20
-5.20024
 30
0.0
 10
-2.73699
 20
-5.17021
 30
0.0
 10
-2.74323
 20
-5.12959
 30
0.0
 10
-2.72926
 20
-5.09371
 30
0.0
 10
-2.72926
 20
-5.09371
 30
0.0
 10
-2.71529
 20
-5.05782
 30
0.0
 10
-2.6833
 20
-5.03212
 30
0.0
 10
-2.64524
 20
-5.02629
 30
0.0
 10
-2.64524
 20
-5.02629
 30
0.0
 10
-2.58057
 20
-5.01623
 30
0.0
 10
-2.52517
 20
-4.9746
 30
0.0
 10
-2.4975
 20
-4.91529
 30
0.0
 10
-2.4975
 20
-4.91529
 30
0.0
 10
-2.46983
 20
-4.85596
 30
0.0
 10
-2.47327
 20
-4.78723
 30
0.0
 10
-2.50713
 20
-4.73122
 30
0.0
 10
-2.50713
 20
-4.73122
 30
0.0
 10
-2.54101
 20
-4.67519
 30
0.0
 10
-2.60061
 20
-4.63976
 30
0.0
 10
-2.66603
 20
-4.63676
 30
0.0
 10
-2.66603
 20
-4.63676
 30
0.0
 10
-2.73144
 20
-4.63377
 30
0.0
 10
-2.7937
 20
-4.66317
 30
0.0
 10
-2.83256
 20
-4.71587
 30
0.0
 10
-2.83256
 20
-4.71587
 30
0.0
 10
-3.05634
 20
-5.15231
 30
0.0
 10
-2.98121
 20
-5.68234
 30
0.0
 10
-2.64498
 20
-6.0394
 30
0.0
 10
-2.64498
 20
-6.0394
 30
0.0
 10
-2.30873
 20
-6.39646
 30
0.0
 10
-1.78416
 20
-6.50325
 30
0.0
 10
-1.33508
 20
-6.30607
 30
0.0
 10
-1.33508
 20
-6.30607
 30
0.0
 10
-0.88601
 20
-6.10888
 30
0.0
 10
-0.60843
 20
-5.66938
 30
0.0
 10
-0.64378
 20
-5.18019
 30
0.0
 10
-0.64378
 20
-5.18019
 30
0.0
 10
-0.6539
 20
-4.8431
 30
0.0
 10
-0.79751
 20
-4.52382
 30
0.0
 10
-1.04305
 20
-4.2926
 30
0.0
 10
-1.04305
 20
-4.2926
 30
0.0
 10
-1.28858
 20
-4.0614
 30
0.0
 10
-1.61429
 20
-3.93715
 30
0.0
 10
-1.9514
 20
-3.94728
 30
0.0
 10
-1.9514
 20
-3.94728
 30
0.0
 10
-2.05586
 20
-3.95029
 30
0.0
 10
-2.15951
 20
-3.96621
 30
0.0
 10
-2.26006
 20
-3.99466
 30
0.0
  0
SPLINE
  5
A5
330
1F
100
AcDbEntity
  8
Layer 1
 62
   242
370
     9
100
AcDbSpline
210
0.0
220
0.0
230
1.0
 70
     8
 71
     3
 72
   120
 73
   116
 74
     0
 42
0.0000000001
 43
0.0000000001
 12
1.0
 22
0.0
 32
0.0
 13
1.0
 23
0.0
 33
0.0
 40
0.0
 40
0.0
 40
0.0
 40
0.0
 40
0.0333333333333333
 40
0.0333333333333333
 40
0.0333333333333333
 40
0.0333333333333333
 40
0.0666666666666667
 40
0.0666666666666667
 40
0.0666666666666667
 40
0.0666666666666667
 40
0.1
 40
0.1
 40
0.1
 40
0.1
 40
0.1333333333333333
 40
0.1333333333333333
 40
0.1333333333333333
 40
0.1333333333333333
 40
0.1666666666666667
 40
0.1666666666666667
 40
0.1666666666666667
 40
0.1666666666666667
 40
0.2
 40
0.2
 40
0.2
 40
0.2
 40
0.2333333333333333
 40
0.2333333333333333
 40
0.2333333333333333
 40
0.2333333333333333
 40
0.2666666666666667
 40
0.2666666666666667
 40
0.2666666666666667
 40
0.2666666666666667
 40
0.3
 40
0.3
 40
0.3
 40
0.3
 40
0.3333333333333333
 40
0.3333333333333333
 40
0.3333333333333333
 40
0.3333333333333333
 40
0.3666666666666666
 40
0.3666666666666666
 40
0.3666666666666666
 40
0.3666666666666666
 40
0.4
 40
0.4
 40
0.4
 40
0.4
 40
0.4333333333333333
 40
0.4333333333333333
 40
0.4333333333333333
 40
0.4333333333333333
 40
0.4666666666666667
 40
0.4666666666666667
 40
0.4666666666666667
 40
0.4666666666666667
 40
0.5
 40
0.5
 40
0.5
 40
0.5
 40
0.5333333333333333
 40
0.5333333333333333
 40
0.5333333333333333
 40
0.5333333333333333
 40
0.5666666666666667
 40
0.5666666666666667
 40
0.5666666666666667
 40
0.5666666666666667
 40
0.6
 40
0.6
 40
0.6
 40
0.6
 40
0.6333333333333333
 40
0.6333333333333333
 40
0.6333333333333333
 40
0.6333333333333333
 40
0.6666666666666666
 40
0.6666666666666666
 40
0.6666666666666666
 40
0.6666666666666666
 40
0.7
 40
0.7
 40
0.7
 40
0.7
 40
0.7333333333333333
 40
0.7333333333333333
 40
0.7333333333333333
 40
0.7333333333333333
 40
0.7666666666666667
 40
0.7666666666666667
 40
0.7666666666666667
 40
0.7666666666666667
 40
0.8
 40
0.8
 40
0.8
 40
0.8
 40
0.8333333333333334
 40
0.8333333333333334
 40
0.8333333333333334
 40
0.8333333333333334
 40
0.8666666666666667
 40
0.8666666666666667
 40
0.8666666666666667
 40
0.8666666666666667
 40
0.9
 40
0.9
 40
0.9
 40
0.9
 40
0.9333333333333333
 40
0.9333333333333333
 40
0.9333333333333333
 40
0.9333333333333333
 40
1.0
 40
1.0
 40
1.0
 40
1.0
 10
1.34607
 20
-3.99464
 30
0.0
 10
1.15471
 20
-3.31978
 30
0.0
 10
1.54819
 20
-2.61714
 30
0.0
 10
2.22302
 20
-2.42575
 30
0.0
 10
2.22302
 20
-2.42575
 30
0.0
 10
2.32355
 20
-2.39735
 30
0.0
 10
2.42721
 20
-2.38145
 30
0.0
 10
2.53161
 20
-2.37837
 30
0.0
 10
2.53161
 20
-2.37837
 30
0.0
 10
3.02298
 20
-2.34306
 30
0.0
 10
3.48339
 20
-2.6208
 30
0.0
 10
3.68132
 20
-3.07192
 30
0.0
 10
3.68132
 20
-3.07192
 30
0.0
 10
3.87924
 20
-3.52304
 30
0.0
 10
3.77184
 20
-4.04991
 30
0.0
 10
3.41313
 20
-4.38756
 30
0.0
 10
3.41313
 20
-4.38756
 30
0.0
 10
3.0544
 20
-4.72522
 30
0.0
 10
2.50562
 20
-4.79199
 30
0.0
 10
2.06729
 20
-4.56716
 30
0.0
 10
2.06729
 20
-4.56716
 30
0.0
 10
2.01473
 20
-4.52836
 30
0.0
 10
1.98497
 20
-4.4659
 30
0.0
 10
1.98796
 20
-4.40063
 30
0.0
 10
1.98796
 20
-4.40063
 30
0.0
 10
1.99094
 20
-4.33536
 30
0.0
 10
2.02673
 20
-4.2756
 30
0.0
 10
2.08261
 20
-4.24174
 30
0.0
 10
2.08261
 20
-4.24174
 30
0.0
 10
2.1385
 20
-4.20788
 30
0.0
 10
2.2076
 20
-4.20413
 30
0.0
 10
2.26683
 20
-4.23175
 30
0.0
 10
2.26683
 20
-4.23175
 30
0.0
 10
2.32605
 20
-4.25937
 30
0.0
 10
2.36769
 20
-4.31526
 30
0.0
 10
2.37768
 20
-4.37984
 30
0.0
 10
2.37768
 20
-4.37984
 30
0.0
 10
2.38353
 20
-4.4179
 30
0.0
 10
2.40925
 20
-4.44994
 30
0.0
 10
2.44514
 20
-4.46389
 30
0.0
 10
2.44514
 20
-4.46389
 30
0.0
 10
2.48103
 20
-4.47784
 30
0.0
 10
2.52164
 20
-4.47159
 30
0.0
 10
2.55166
 20
-4.44748
 30
0.0
 10
2.55166
 20
-4.44748
 30
0.0
 10
2.58168
 20
-4.42337
 30
0.0
 10
2.59657
 20
-4.38511
 30
0.0
 10
2.59071
 20
-4.34705
 30
0.0
 10
2.59071
 20
-4.34705
 30
0.0
 10
2.55595
 20
-4.12229
 30
0.0
 10
2.34613
 20
-3.96813
 30
0.0
 10
2.12133
 20
-4.00278
 30
0.0
 10
2.12133
 20
-4.00278
 30
0.0
 10
1.91656
 20
-4.03516
 30
0.0
 10
1.76737
 20
-4.21373
 30
0.0
 10
1.77239
 20
-4.42099
 30
0.0
 10
1.77239
 20
-4.42099
 30
0.0
 10
1.54503
 20
-4.41495
 30
0.0
 10
1.35577
 20
-4.59374
 30
0.0
 10
1.34954
 20
-4.8211
 30
0.0
 10
1.34954
 20
-4.8211
 30
0.0
 10
1.34464
 20
-5.02838
 30
0.0
 10
1.49363
 20
-5.20719
 30
0.0
 10
1.69847
 20
-5.23931
 30
0.0
 10
1.69847
 20
-5.23931
 30
0.0
 10
1.73653
 20
-5.24516
 30
0.0
 10
1.77482
 20
-5.23026
 30
0.0
 10
1.79891
 20
-5.20023
 30
0.0
 10
1.79891
 20
-5.20023
 30
0.0
 10
1.82301
 20
-5.1702
 30
0.0
 10
1.82925
 20
-5.12959
 30
0.0
 10
1.81528
 20
-5.09372
 30
0.0
 10
1.81528
 20
-5.09372
 30
0.0
 10
1.80132
 20
-5.05783
 30
0.0
 10
1.7693
 20
-5.03213
 30
0.0
 10
1.73124
 20
-5.02629
 30
0.0
 10
1.73124
 20
-5.02629
 30
0.0
 10
1.66667
 20
-5.01643
 30
0.0
 10
1.61125
 20
-4.97503
 30
0.0
 10
1.58348
 20
-4.9159
 30
0.0
 10
1.58348
 20
-4.9159
 30
0.0
 10
1.5557
 20
-4.85678
 30
0.0
 10
1.55951
 20
-4.78722
 30
0.0
 10
1.59315
 20
-4.73122
 30
0.0
 10
1.59315
 20
-4.73122
 30
0.0
 10
1.62681
 20
-4.6752
 30
0.0
 10
1.68619
 20
-4.63966
 30
0.0
 10
1.75147
 20
-4.63649
 30
0.0
 10
1.75147
 20
-4.63649
 30
0.0
 10
1.81675
 20
-4.63332
 30
0.0
 10
1.87964
 20
-4.66337
 30
0.0
 10
1.91857
 20
-4.71587
 30
0.0
 10
1.91857
 20
-4.71587
 30
0.0
 10
2.1504
 20
-5.1506
 30
0.0
 10
2.08354
 20
-5.68419
 30
0.0
 10
1.75161
 20
-6.04826
 30
0.0
 10
1.75161
 20
-6.04826
 30
0.0
 10
1.41968
 20
-6.41235
 30
0.0
 10
0.89453
 20
-6.52811
 30
0.0
 10
0.44028
 20
-6.33734
 30
0.0
 10
0.44028
 20
-6.33734
 30
0.0
 10
-0.01395
 20
-6.14656
 30
0.0
 10
-0.29779
 20
-5.6721
 30
0.0
 10
-0.27022
 20
-5.18019
 30
0.0
 10
-0.27022
 20
-5.18019
 30
0.0
 10
-0.26053
 20
-4.84349
 30
0.0
 10
-0.11747
 20
-4.52443
 30
0.0
 10
0.12748
 20
-4.2932
 30
0.0
 10
0.12748
 20
-4.2932
 30
0.0
 10
0.37242
 20
-4.06198
 30
0.0
 10
0.7008
 20
-3.93757
 30
0.0
 10
1.03751
 20
-3.94728
 30
0.0
 10
1.03751
 20
-3.94728
 30
0.0
 10
1.14193
 20
-3.95029
 30
0.0
 10
1.2456
 20
-3.96622
 30
0.0
 10
1.34611
 20
-3.99467
 30
0.0
  0
SPLINE
  5
A6
330
1F
100
AcDbEntity
  8
Layer 1
 62
   242
370
     9
100
AcDbSpline
210
0.0
220
0.0
230
1.0
 70
     8
 71
     3
 72
    36
 73
    32
 74
     0
 42
0.0000000001
 43
0.0000000001
 12
1.0
 22
0.0
 32
0.0
 13
1.0
 23
0.0
 33
0.0
 40
0.0
 40
0.0
 40
0.0
 40
0.0
 40
0.1111111111111111
 40
0.1111111111111111
 40
0.1111111111111111
 40
0.1111111111111111
 40
0.2222222222222222
 40
0.2222222222222222
 40
0.2222222222222222
 40
0.2222222222222222
 40
0.3333333333333333
 40
0.3333333333333333
 40
0.3333333333333333
 40
0.3333333333333333
 40
0.4444444444444444
 40
0.4444444444444444
 40
0.4444444444444444
 40
0.4444444444444444
 40
0.5555555555555556
 40
0.5555555555555556
 40
0.5555555555555556
 40
0.5555555555555556
 40
0.6666666666666666
 40
0.6666666666666666
 40
0.6666666666666666
 40
0.6666666666666666
 40
0.7777777777777778
 40
0.7777777777777778
 40
0.7777777777777778
 40
0.7777777777777778
 40
1.0
 40
1.0
 40
1.0
 40
1.0
 10
-0.45702
 20
-4.92409
 30
0.0
 10
-0.6062
 20
-4.20014
 30
0.0
 10
-1.26093
 20
-3.69402
 30
0.0
 10
-1.99902
 20
-3.73365
 30
0.0
 10
-1.99902
 20
-3.73365
 30
0.0
 10
-1.96008
 20
-2.99552
 30
0.0
 10
-2.46534
 20
-2.34014
 30
0.0
 10
-3.18941
 20
-2.19158
 30
0.0
 10
-3.18941
 20
-2.19158
 30
0.0
 10
-2.46551
 20
-2.04235
 30
0.0
 10
-1.95943
 20
-1.38764
 30
0.0
 10
-1.99902
 20
-0.64957
 30
0.0
 10
-1.99902
 20
-0.64957
 30
0.0
 10
-1.26089
 20
-0.68855
 30
0.0
 10
-0.60551
 20
-0.18326
 30
0.0
 10
-0.45702
 20
0.54083
 30
0.0
 10
-0.45702
 20
0.54083
 30
0.0
 10
-0.30779
 20
-0.18309
 30
0.0
 10
0.34692
 20
-0.68917
 30
0.0
 10
1.085
 20
-0.64957
 30
0.0
 10
1.085
 20
-0.64957
 30
0.0
 10
1.04608
 20
-1.3877
 30
0.0
 10
1.55135
 20
-2.04305
 30
0.0
 10
2.27542
 20
-2.19158
 30
0.0
 10
2.27542
 20
-2.19158
 30
0.0
 10
1.5515
 20
-2.34082
 30
0.0
 10
1.04543
 20
-2.99556
 30
0.0
 10
1.08504
 20
-3.73365
 30
0.0
 10
1.08504
 20
-3.73365
 30
0.0
 10
0.34691
 20
-3.69467
 30
0.0
 10
-0.30849
 20
-4.19994
 30
0.0
 10
-0.45702
 20
-4.92402
 30
0.0
  0
SPLINE
  5
A7
330
1F
100
AcDbEntity
  8
Layer 1
 62
   242
370
     9
100
AcDbSpline
210
0.0
220
0.0
230
1.0
 70
    11
 71
     3
 72
    16
 73
    12
 74
     0
 42
0.0000000001
 43
0.0000000001
 12
1.0
 22
0.0
 32
0.0
 13
1.0
 23
0.0
 33
0.0
 40
0.0
 40
0.0
 40
0.0
 40
0.0
 40
0.25
 40
0.25
 40
0.25
 40
0.25
 40
0.5
 40
0.5
 40
0.5
 40
0.5
 40
1.0
 40
1.0
 40
1.0
 40
1.0
 10
0.59287
 20
-6.59923
 30
0.0
 10
0.59287
 20
-6.59923
 30
0.0
 10
-1.50682
 20
-6.59923
 30
0.0
 10
-1.50682
 20
-6.59923
 30
0.0
 10
-1.50682
 20
-6.59923
 30
0.0
 10
-0.98259
 20
-6.47988
 30
0.0
 10
-0.57407
 20
-6.07008
 30
0.0
 10
-0.45702
 20
-5.54534
 30
0.0
 10
-0.45702
 20
-5.54534
 30
0.0
 10
-0.33962
 20
-6.07001
 30
0.0
 10
0.0686
 20
-6.48011
 30
0.0
 10
0.59287
 20
-6.59923
 30
0.0
  0
SPLINE
  5
A8
330
1F
100
AcDbEntity
  8
Layer 1
 62
   242
370
     9
100
AcDbSpline
210
0.0
220
0.0
230
1.0
 70
     8
 71
     3
 72
    28
 73
    24
 74
     0
 42
0.0000000001
 43
0.0000000001
 12
1.0
 22
0.0
 32
0.0
 13
1.0
 23
0.0
 33
0.0
 40
0.0
 40
0.0
 40
0.0
 40
0.0
 40
0.1428571428571428
 40
0.1428571428571428
 40
0.1428571428571428
 40
0.1428571428571428
 40
0.2857142857142857
 40
0.2857142857142857
 40
0.2857142857142857
 40
0.2857142857142857
 40
0.4285714285714285
 40
0.4285714285714285
 40
0.4285714285714285
 40
0.4285714285714285
 40
0.5714285714285714
 40
0.5714285714285714
 40
0.5714285714285714
 40
0.5714285714285714
 40
0.7142857142857143
 40
0.7142857142857143
 40
0.7142857142857143
 40
0.7142857142857143
 40
1.0
 40
1.0
 40
1.0
 40
1.0
 10
1.18546
 20
-6.59922
 30
0.0
 10
1.9286
 20
-6.43502
 30
0.0
 10
2.39832
 20
-5.70119
 30
0.0
 10
2.23416
 20
-4.95804
 30
0.0
 10
2.23416
 20
-4.95804
 30
0.0
 10
2.22658
 20
-4.9238
 30
0.0
 10
2.21774
 20
-4.88984
 30
0.0
 10
2.20765
 20
-4.85624
 30
0.0
 10
2.20765
 20
-4.85624
 30
0.0
 10
2.93642
 20
-5.0757
 30
0.0
 10
3.70462
 20
-4.66454
 30
0.0
 10
3.92417
 20
-3.93579
 30
0.0
 10
3.92417
 20
-3.93579
 30
0.0
 10
3.93426
 20
-3.9022
 30
0.0
 10
3.94309
 20
-3.86823
 30
0.0
 10
3.95065
 20
-3.83397
 30
0.0
 10
3.95065
 20
-3.83397
 30
0.0
 10
3.95065
 20
-3.83397
 30
0.0
 10
3.95063
 20
-6.59923
 30
0.0
 10
3.95063
 20
-6.59923
 30
0.0
 10
3.95063
 20
-6.59923
 30
0.0
 10
3.95063
 20
-6.59923
 30
0.0
 10
1.18541
 20
-6.59923
 30
0.0
 10
1.18541
 20
-6.59923
 30
0.0
  0
SPLINE
  5
A9
330
1F
100
AcDbEntity
  8
Layer 1
 62
   242
370
     9
100
AcDbSpline
210
0.0
220
0.0
230
1.0
 70
     8
 71
     3
 72
    16
 73
    12
 74
     0
 42
0.0000000001
 43
0.0000000001
 12
1.0
 22
0.0
 32
0.0
 13
1.0
 23
0.0
 33
0.0
 40
0.0
 40
0.0
 40
0.0
 40
0.0
 40
0.25
 40
0.25
 40
0.25
 40
0.25
 40
0.5
 40
0.5
 40
0.5
 40
0.5
 40
1.0
 40
1.0
 40
1.0
 40
1.0
 10
3.95065
 20
-3.24143
 30
0.0
 10
3.83129
 20
-2.7172
 30
0.0
 10
3.4215
 20
-2.30866
 30
0.0
 10
2.89675
 20
-2.19158
 30
0.0
 10
2.89675
 20
-2.19158
 30
0.0
 10
3.42143
 20
-2.07422
 30
0.0
 10
3.83154
 20
-1.66601
 30
0.0
 10
3.95065
 20
-1.14171
 30
0.0
 10
3.95065
 20
-1.14171
 30
0.0
 10
3.95065
 20
-1.14171
 30
0.0
 10
3.95063
 20
-3.24146
 30
0.0
 10
3.95063
 20
-3.24146
 30
0.0
  0
SPLINE
  5
AA
330
1F
100
AcDbEntity
  8
Layer 1
 62
   242
370
     9
100
AcDbSpline
210
0.0
220
0.0
230
1.0
 70
     8
 71
     3
 72
    32
 73
    28
 74
     0
 42
0.0000000001
 43
0.0000000001
 12
1.0
 22
0.0
 32
0.0
 13
1.0
 23
0.0
 33
0.0
 40
0.0
 40
0.0
 40
0.0
 40
0.0
 40
0.125
 40
0.125
 40
0.125
 40
0.125
 40
0.25
 40
0.25
 40
0.25
 40
0.25
 40
0.375
 40
0.375
 40
0.375
 40
0.375
 40
0.5
 40
0.5
 40
0.5
 40
0.5
 40
0.625
 40
0.625
 40
0.625
 40
0.625
 40
0.75
 40
0.75
 40
0.75
 40
0.75
 40
1.0
 40
1.0
 40
1.0
 40
1.0
 10
1.18541
 20
2.21603
 30
0.0
 10
1.18541
 20
2.21603
 30
0.0
 10
3.95065
 20
2.21603
 30
0.0
 10
3.95065
 20
2.21603
 30
0.0
 10
3.95065
 20
2.21603
 30
0.0
 10
3.95065
 20
2.21603
 30
0.0
 10
3.95063
 20
-0.54915
 30
0.0
 10
3.95063
 20
-0.54915
 30
0.0
 10
3.95063
 20
-0.54915
 30
0.0
 10
3.87179
 20
-0.19227
 30
0.0
 10
3.65441
 20
0.11868
 30
0.0
 10
3.34629
 20
0.31528
 30
0.0
 10
3.34629
 20
0.31528
 30
0.0
 10
3.03819
 20
0.51188
 30
0.0
 10
2.6663
 20
0.57841
 30
0.0
 10
2.30942
 20
0.49956
 30
0.0
 10
2.30942
 20
0.49956
 30
0.0
 10
2.27515
 20
0.49202
 30
0.0
 10
2.2412
 20
0.48318
 30
0.0
 10
2.2076
 20
0.47306
 30
0.0
 10
2.2076
 20
0.47306
 30
0.0
 10
2.42709
 20
1.20179
 30
0.0
 10
2.016
 20
1.96997
 30
0.0
 10
1.28731
 20
2.18958
 30
0.0
 10
1.28731
 20
2.18958
 30
0.0
 10
1.25367
 20
2.19964
 30
0.0
 10
1.21969
 20
2.20846
 30
0.0
 10
1.1854
 20
2.21603
 30
0.0
  0
SPLINE
  5
AB
330
1F
100
AcDbEntity
  8
Layer 1
 62
   242
370
     9
100
AcDbSpline
210
0.0
220
0.0
230
1.0
 70
    11
 71
     3
 72
    16
 73
    12
 74
     0
 42
0.0000000001
 43
0.0000000001
 12
1.0
 22
0.0
 32
0.0
 13
1.0
 23
0.0
 33
0.0
 40
0.0
 40
0.0
 40
0.0
 40
0.0
 40
0.25
 40
0.25
 40
0.25
 40
0.25
 40
0.5
 40
0.5
 40
0.5
 40
0.5
 40
1.0
 40
1.0
 40
1.0
 40
1.0
 10
-1.50686
 20
2.21603
 30
0.0
 10
-1.50686
 20
2.21603
 30
0.0
 10
0.59284
 20
2.21603
 30
0.0
 10
0.59284
 20
2.21603
 30
0.0
 10
0.59284
 20
2.21603
 30
0.0
 10
0.06861
 20
2.09667
 30
0.0
 10
-0.33993
 20
1.68689
 30
0.0
 10
-0.45702
 20
1.16215
 30
0.0
 10
-0.45702
 20
1.16215
 30
0.0
 10
-0.5744
 20
1.68682
 30
0.0
 10
-0.9826
 20
2.09691
 30
0.0
 10
-1.50686
 20
2.21603
 30
0.0
  0
SPLINE
  5
AC
330
1F
100
AcDbEntity
  8
Layer 1
 62
   242
370
     9
100
AcDbSpline
210
0.0
220
0.0
230
1.0
 70
    11
 71
     3
 72
    32
 73
    28
 74
     0
 42
0.0000000001
 43
0.0000000001
 12
1.0
 22
0.0
 32
0.0
 13
1.0
 23
0.0
 33
0.0
 40
0.0
 40
0.0
 40
0.0
 40
0.0
 40
0.125
 40
0.125
 40
0.125
 40
0.125
 40
0.25
 40
0.25
 40
0.25
 40
0.25
 40
0.375
 40
0.375
 40
0.375
 40
0.375
 40
0.5
 40
0.5
 40
0.5
 40
0.5
 40
0.625
 40
0.625
 40
0.625
 40
0.625
 40
0.75
 40
0.75
 40
0.75
 40
0.75
 40
1.0
 40
1.0
 40
1.0
 40
1.0
 10
-2.09946
 20
2.21603
 30
0.0
 10
-2.45635
 20
2.13718
 30
0.0
 10
-2.7673
 20
1.91979
 30
0.0
 10
-2.9639
 20
1.61167
 30
0.0
 10
-2.9639
 20
1.61167
 30
0.0
 10
-3.1605
 20
1.30355
 30
0.0
 10
-3.22703
 20
0.93165
 30
0.0
 10
-3.14816
 20
0.57477
 30
0.0
 10
-3.14816
 20
0.57477
 30
0.0
 10
-3.14062
 20
0.54054
 30
0.0
 10
-3.13177
 20
0.50661
 30
0.0
 10
-3.12166
 20
0.47306
 30
0.0
 10
-3.12166
 20
0.47306
 30
0.0
 10
-3.85043
 20
0.69253
 30
0.0
 10
-4.61864
 20
0.28136
 30
0.0
 10
-4.83817
 20
-0.4474
 30
0.0
 10
-4.83817
 20
-0.4474
 30
0.0
 10
-4.84826
 20
-0.48099
 30
0.0
 10
-4.85709
 20
-0.51494
 30
0.0
 10
-4.86463
 20
-0.5492
 30
0.0
 10
-4.86463
 20
-0.5492
 30
0.0
 10
-4.86463
 20
-0.5492
 30
0.0
 10
-4.86463
 20
2.21603
 30
0.0
 10
-4.86463
 20
2.21603
 30
0.0
 10
-4.86463
 20
2.21603
 30
0.0
 10
-4.86463
 20
2.21603
 30
0.0
 10
-2.09946
 20
2.21603
 30
0.0
 10
-2.09946
 20
2.21603
 30
0.0
  0
SPLINE
  5
AD
330
1F
100
AcDbEntity
  8
Layer 1
 62
   242
370
     9
100
AcDbSpline
210
0.0
220
0.0
230
1.0
 70
     8
 71
     3
 72
    32
 73
    28
 74
     0
 42
0.0000000001
 43
0.0000000001
 12
1.0
 22
0.0
 32
0.0
 13
1.0
 23
0.0
 33
0.0
 40
0.0
 40
0.0
 40
0.0
 40
0.0
 40
0.125
 40
0.125
 40
0.125
 40
0.125
 40
0.25
 40
0.25
 40
0.25
 40
0.25
 40
0.375
 40
0.375
 40
0.375
 40
0.375
 40
0.5
 40
0.5
 40
0.5
 40
0.5
 40
0.625
 40
0.625
 40
0.625
 40
0.625
 40
0.75
 40
0.75
 40
0.75
 40
0.75
 40
1.0
 40
1.0
 40
1.0
 40
1.0
 10
-2.09942
 20
-6.59923
 30
0.0
 10
-2.09942
 20
-6.59923
 30
0.0
 10
-4.86463
 20
-6.59923
 30
0.0
 10
-4.86463
 20
-6.59923
 30
0.0
 10
-4.86463
 20
-6.59923
 30
0.0
 10
-4.86463
 20
-6.59923
 30
0.0
 10
-4.86463
 20
-3.83399
 30
0.0
 10
-4.86463
 20
-3.83399
 30
0.0
 10
-4.86463
 20
-3.83399
 30
0.0
 10
-4.7858
 20
-4.19089
 30
0.0
 10
-4.56841
 20
-4.50185
 30
0.0
 10
-4.26031
 20
-4.69846
 30
0.0
 10
-4.26031
 20
-4.69846
 30
0.0
 10
-3.9522
 20
-4.89507
 30
0.0
 10
-3.58031
 20
-4.96161
 30
0.0
 10
-3.22342
 20
-4.88276
 30
0.0
 10
-3.22342
 20
-4.88276
 30
0.0
 10
-3.18916
 20
-4.87524
 30
0.0
 10
-3.15521
 20
-4.8664
 30
0.0
 10
-3.12166
 20
-4.85624
 30
0.0
 10
-3.12166
 20
-4.85624
 30
0.0
 10
-3.34112
 20
-5.58503
 30
0.0
 10
-2.92994
 20
-6.35324
 30
0.0
 10
-2.20117
 20
-6.57277
 30
0.0
 10
-2.20117
 20
-6.57277
 30
0.0
 10
-2.16761
 20
-6.58286
 30
0.0
 10
-2.13368
 20
-6.59168
 30
0.0
 10
-2.09946
 20
-6.59923
 30
0.0
  0
SPLINE
  5
AE
330
1F
100
AcDbEntity
  8
Layer 1
 62
   242
370
     9
100
AcDbSpline
210
0.0
220
0.0
230
1.0
 70
     8
 71
     3
 72
    16
 73
    12
 74
     0
 42
0.0000000001
 43
0.0000000001
 12
1.0
 22
0.0
 32
0.0
 13
1.0
 23
0.0
 33
0.0
 40
0.0
 40
0.0
 40
0.0
 40
0.0
 40
0.25
 40
0.25
 40
0.25
 40
0.25
 40
0.5
 40
0.5
 40
0.5
 40
0.5
 40
1.0
 40
1.0
 40
1.0
 40
1.0
 10
-4.86465
 20
-1.14176
 30
0.0
 10
-4.7453
 20
-1.666
 30
0.0
 10
-4.33549
 20
-2.07454
 30
0.0
 10
-3.81072
 20
-2.19158
 30
0.0
 10
-3.81072
 20
-2.19158
 30
0.0
 10
-4.33541
 20
-2.30897
 30
0.0
 10
-4.74552
 20
-2.71719
 30
0.0
 10
-4.86465
 20
-3.24148
 30
0.0
 10
-4.86465
 20
-3.24148
 30
0.0
 10
-4.86465
 20
-3.24148
 30
0.0
 10
-4.86463
 20
-1.14173
 30
0.0
 10
-4.86463
 20
-1.14173
 30
0.0
  0
SPLINE
  5
AF
330
1F
100
AcDbEntity
  8
Layer 1
 62
   242
370
     9
100
AcDbSpline
210
0.0
220
0.0
230
1.0
 70
    11
 71
     3
 72
    20
 73
    16
 74
     0
 42
0.0000000001
 43
0.0000000001
 12
1.0
 22
0.0
 32
0.0
 13
1.0
 23
0.0
 33
0.0
 40
0.0
 40
0.0
 40
0.0
 40
0.0
 40
0.2
 40
0.2
 40
0.2
 40
0.2
 40
0.4
 40
0.4
 40
0.4
 40
0.4
 40
0.6
 40
0.6
 40
0.6
 40
0.6
 40
1.0
 40
1.0
 40
1.0
 40
1.0
 10
4.64423
 20
2.90964
 30
0.0
 10
4.64423
 20
2.90964
 30
0.0
 10
4.64423
 20
3.92963
 30
0.0
 10
4.64423
 20
3.92963
 30
0.0
 10
4.64423
 20
3.92963
 30
0.0
 10
4.64423
 20
3.92963
 30
0.0
 10
5.66425
 20
3.92963
 30
0.0
 10
5.66425
 20
3.92963
 30
0.0
 10
5.66425
 20
3.92963
 30
0.0
 10
5.66425
 20
3.92963
 30
0.0
 10
5.66425
 20
2.90964
 30
0.0
 10
5.66425
 20
2.90964
 30
0.0
 10
5.66425
 20
2.90964
 30
0.0
 10
5.66425
 20
2.90964
 30
0.0
 10
4.64423
 20
2.90964
 30
0.0
 10
4.64423
 20
2.90964
 30
0.0
  0
SPLINE
  5
B0
330
1F
100
AcDbEntity
  8
Layer 1
 62
   242
370
     9
100
AcDbSpline
210
0.0
220
0.0
230
1.0
 70
    11
 71
     3
 72
    20
 73
    16
 74
     0
 42
0.0000000001
 43
0.0000000001
 12
1.0
 22
0.0
 32
0.0
 13
1.0
 23
0.0
 33
0.0
 40
0.0
 40
0.0
 40
0.0
 40
0.0
 40
0.2
 40
0.2
 40
0.2
 40
0.2
 40
0.4
 40
0.4
 40
0.4
 40
0.4
 40
0.6
 40
0.6
 40
0.6
 40
0.6
 40
1.0
 40
1.0
 40
1.0
 40
1.0
 10
-5.55823
 20
2.90964
 30
0.0
 10
-5.55823
 20
2.90964
 30
0.0
 10
-6.57824
 20
2.90964
 30
0.0
 10
-6.57824
 20
2.90964
 30
0.0
 10
-6.57824
 20
2.90964
 30
0.0
 10
-6.57824
 20
2.90964
 30
0.0
 10
-6.57824
 20
3.92963
 30
0.0
 10
-6.57824
 20
3.92963
 30
0.0
 10
-6.57824
 20
3.92963
 30
0.0
 10
-6.57824
 20
3.92963
 30
0.0
 10
-5.55823
 20
3.92963
 30
0.0
 10
-5.55823
 20
3.92963
 30
0.0
 10
-5.55823
 20
3.92963
 30
0.0
 10
-5.55823
 20
3.92963
 30
0.0
 10
-5.55823
 20
2.90964
 30
0.0
 10
-5.55823
 20
2.90964
 30
0.0
  0
SPLINE
  5
B1
330
1F
100
AcDbEntity
  8
Layer 1
 62
   242
370
     9
100
AcDbSpline
210
0.0
220
0.0
230
1.0
 70
    11
 71
     3
 72
    20
 73
    16
 74
     0
 42
0.0000000001
 43
0.0000000001
 12
1.0
 22
0.0
 32
0.0
 13
1.0
 23
0.0
 33
0.0
 40
0.0
 40
0.0
 40
0.0
 40
0.0
 40
0.2
 40
0.2
 40
0.2
 40
0.2
 40
0.4
 40
0.4
 40
0.4
 40
0.4
 40
0.6
 40
0.6
 40
0.6
 40
0.6
 40
1.0
 40
1.0
 40
1.0
 40
1.0
 10
2.85313
 20
2.43152
 30
0.0
 10
2.85313
 20
2.43152
 30
0.0
 10
1.22626
 20
2.43152
 30
0.0
 10
1.22626
 20
2.43152
 30
0.0
 10
1.22626
 20
2.43152
 30
0.0
 10
1.22626
 20
2.43152
 30
0.0
 10
1.22626
 20
3.92963
 30
0.0
 10
1.22626
 20
3.92963
 30
0.0
 10
1.22626
 20
3.92963
 30
0.0
 10
1.22626
 20
3.92963
 30
0.0
 10
2.85313
 20
3.92963
 30
0.0
 10
2.85313
 20
3.92963
 30
0.0
 10
2.85313
 20
3.92963
 30
0.0
 10
2.85313
 20
3.92963
 30
0.0
 10
2.85313
 20
2.43152
 30
0.0
 10
2.85313
 20
2.43152
 30
0.0
  0
SPLINE
  5
B2
330
1F
100
AcDbEntity
  8
Layer 1
 62
   242
370
     9
100
AcDbSpline
210
0.0
220
0.0
230
1.0
 70
     8
 71
     3
 72
    20
 73
    16
 74
     0
 42
0.0000000001
 43
0.0000000001
 12
1.0
 22
0.0
 32
0.0
 13
1.0
 23
0.0
 33
0.0
 40
0.0
 40
0.0
 40
0.0
 40
0.0
 40
0.2
 40
0.2
 40
0.2
 40
0.2
 40
0.4
 40
0.4
 40
0.4
 40
0.4
 40
0.6
 40
0.6
 40
0.6
 40
0.6
 40
1.0
 40
1.0
 40
1.0
 40
1.0
 10
-2.14026
 20
2.43152
 30
0.0
 10
-2.14026
 20
2.43152
 30
0.0
 10
-3.76713
 20
2.43155
 30
0.0
 10
-3.76713
 20
2.43155
 30
0.0
 10
-3.76713
 20
2.43155
 30
0.0
 10
-3.76713
 20
2.43155
 30
0.0
 10
-3.76713
 20
3.92963
 30
0.0
 10
-3.76713
 20
3.92963
 30
0.0
 10
-3.76713
 20
3.92963
 30
0.0
 10
-3.76713
 20
3.92963
 30
0.0
 10
-2.14026
 20
3.92963
 30
0.0
 10
-2.14026
 20
3.92963
 30
0.0
 10
-2.14026
 20
3.92963
 30
0.0
 10
-2.14026
 20
3.92963
 30
0.0
 10
-2.14026
 20
2.43155
 30
0.0
 10
-2.14026
 20
2.43155
 30
0.0
  0
ENDSEC
  0
SECTION
  2
OBJECTS
  0
DICTIONARY
  5
C
330
0
100
AcDbDictionary
281
     1
  3
ACAD_GROUP
350
D
  3
ACAD_LAYOUT
350
1A
  3
ACAD_MATERIAL
350
3B
  3
ACAD_MLEADERSTYLE
350
B5
  3
ACAD_MLINESTYLE
350
17
  3
ACAD_PLOTSETTINGS
350
19
  3
ACAD_PLOTSTYLENAME
350
E
  3
ACAD_VISUALSTYLE
350
2A
  3
AcDbVariableDictionary
350
B3
  0
DICTIONARY
  5
D
102
{ACAD_REACTORS
330
C
102
}
330
C
100
AcDbDictionary
281
     1
  0
DICTIONARY
  5
1A
102
{ACAD_REACTORS
330
C
102
}
330
C
100
AcDbDictionary
281
     1
  3
Layout1
350
1E
  3
Layout2
350
26
  3
Model
350
22
  0
DICTIONARY
  5
3B
102
{ACAD_REACTORS
330
C
102
}
330
C
100
AcDbDictionary
281
     1
  3
ByBlock
350
3D
  3
ByLayer
350
3C
  3
Global
350
3E
  0
DICTIONARY
  5
B5
102
{ACAD_REACTORS
330
C
102
}
330
C
100
AcDbDictionary
281
     1
  0
DICTIONARY
  5
17
102
{ACAD_REACTORS
330
C
102
}
330
C
100
AcDbDictionary
281
     1
  3
Standard
350
18
  0
DICTIONARY
  5
19
102
{ACAD_REACTORS
330
C
102
}
330
C
100
AcDbDictionary
281
     1
  0
ACDBDICTIONARYWDFLT
  5
E
102
{ACAD_REACTORS
330
C
102
}
330
C
100
AcDbDictionary
281
     1
  3
Normal
350
F
100
AcDbDictionaryWithDefault
340
F
  0
DICTIONARY
  5
2A
102
{ACAD_REACTORS
330
C
102
}
330
C
100
AcDbDictionary
281
     1
  3
2dWireframe
350
2F
  3
3D Hidden
350
31
  3
3dWireframe
350
30
  3
Basic
350
32
  3
Brighten
350
36
  3
ColorChange
350
3A
  3
Conceptual
350
34
  3
Dim
350
35
  3
Facepattern
350
39
  3
Flat
350
2B
  3
FlatWithEdges
350
2C
  3
Gouraud
350
2D
  3
GouraudWithEdges
350
2E
  3
Linepattern
350
38
  3
Realistic
350
33
  3
Thicken
350
37
  0
DICTIONARY
  5
B3
102
{ACAD_REACTORS
330
C
102
}
330
C
100
AcDbDictionary
281
     1
  3
DIMASSOC
350
B6
  3
HIDETEXT
350
B7
  0
LAYOUT
  5
1E
102
{ACAD_REACTORS
330
1A
102
}
330
1A
100
AcDbPlotSettings
  1

  2
none_device
  4

  6

 40
0.0
 41
0.0
 42
0.0
 43
0.0
 44
0.0
 45
0.0
 46
0.0
 47
0.0
 48
0.0
 49
0.0
140
0.0
141
0.0
142
1.0
143
1.0
 70
   688
 72
     0
 73
     0
 74
     5
  7

 75
    16
147
1.0
148
0.0
149
0.0
100
AcDbLayout
  1
Layout1
 70
     1
 71
     1
 10
0.0
 20
0.0
 11
12.0
 21
9.0
 12
0.0
 22
0.0
 32
0.0
 14
1.000000000000000E+20
 24
1.000000000000000E+20
 34
1.000000000000000E+20
 15
-1.000000000000000E+20
 25
-1.000000000000000E+20
 35
-1.000000000000000E+20
146
0.0
 13
0.0
 23
0.0
 33
0.0
 16
1.0
 26
0.0
 36
0.0
 17
0.0
 27
1.0
 37
0.0
 76
     0
330
1B
  0
LAYOUT
  5
26
102
{ACAD_REACTORS
330
1A
102
}
330
1A
100
AcDbPlotSettings
  1

  2
none_device
  4

  6

 40
0.0
 41
0.0
 42
0.0
 43
0.0
 44
0.0
 45
0.0
 46
0.0
 47
0.0
 48
0.0
 49
0.0
140
0.0
141
0.0
142
1.0
143
1.0
 70
   688
 72
     0
 73
     0
 74
     5
  7

 75
    16
147
1.0
148
0.0
149
0.0
100
AcDbLayout
  1
Layout2
 70
     1
 71
     2
 10
0.0
 20
0.0
 11
0.0
 21
0.0
 12
0.0
 22
0.0
 32
0.0
 14
0.0
 24
0.0
 34
0.0
 15
0.0
 25
0.0
 35
0.0
146
0.0
 13
0.0
 23
0.0
 33
0.0
 16
1.0
 26
0.0
 36
0.0
 17
0.0
 27
1.0
 37
0.0
 76
     0
330
23
  0
LAYOUT
  5
22
102
{ACAD_REACTORS
330
1A
102
}
330
1A
100
AcDbPlotSettings
  1

  2
none_device
  4

  6

 40
0.0
 41
0.0
 42
0.0
 43
0.0
 44
0.0
 45
0.0
 46
0.0
 47
0.0
 48
0.0
 49
0.0
140
0.0
141
0.0
142
1.0
143
1.0
 70
  1712
 72
     0
 73
     0
 74
     0
  7

 75
     0
147
1.0
148
0.0
149
0.0
100
AcDbLayout
  1
Model
 70
     1
 71
     0
 10
0.0
 20
0.0
 11
12.0
 21
9.0
 12
0.0
 22
0.0
 32
0.0
 14
-7.04264
 24
-8.77725
 34
0.0
 15
6.12864
 25
17.87561
 35
0.0
146
0.0
 13
0.0
 23
0.0
 33
0.0
 16
1.0
 26
0.0
 36
0.0
 17
0.0
 27
1.0
 37
0.0
 76
     0
330
1F
331
29
  0
MATERIAL
  5
3D
102
{ACAD_REACTORS
330
3B
102
}
102
{ACAD_XDICTIONARY
360
DA
102
}
330
3B
100
AcDbMaterial
  1
ByBlock
  0
MATERIAL
  5
3C
102
{ACAD_REACTORS
330
3B
102
}
102
{ACAD_XDICTIONARY
360
D8
102
}
330
3B
100
AcDbMaterial
  1
ByLayer
  0
MATERIAL
  5
3E
102
{ACAD_REACTORS
330
3B
102
}
102
{ACAD_XDICTIONARY
360
DC
102
}
330
3B
100
AcDbMaterial
  1
Global
  0
MLINESTYLE
  5
18
102
{ACAD_REACTORS
330
17
102
}
330
17
100
AcDbMlineStyle
  2
Standard
 70
     0
  3

 62
   256
 51
90.0
 52
90.0
 71
     2
 49
0.5
 62
   256
  6
BYLAYER
 49
-0.5
 62
   256
  6
BYLAYER
  0
ACDBPLACEHOLDER
  5
F
102
{ACAD_REACTORS
330
E
102
}
330
E
  0
VISUALSTYLE
  5
2F
102
{ACAD_REACTORS
330
2A
102
}
102
{ACAD_XDICTIONARY
360
C0
102
}
330
2A
100
AcDbVisualStyle
  2
2dWireframe
 70
     4
 71
     0
 72
     2
 73
     0
 90
        0
 40
-0.6
 41
-30.0
 62
     5
 63
     7
 74
     1
 91
        4
 64
     7
 65
   257
 75
     1
175
     1
 42
1.0
 92
        0
 66
   257
 43
1.0
 76
     1
 77
     6
 78
     2
 67
     7
 79
     5
170
     0
171
     0
290
     0
174
     0
 93
        1
 44
0.0
173
     0
291
     0
 45
0.0
1001
ACAD
1000
AcDbSavedByObjectVersion
1070
     0
  0
VISUALSTYLE
  5
31
102
{ACAD_REACTORS
330
2A
102
}
102
{ACAD_XDICTIONARY
360
C4
102
}
330
2A
100
AcDbVisualStyle
  2
3D Hidden
 70
     6
 71
     1
 72
     2
 73
     2
 90
        0
 40
-0.6
 41
-30.0
 62
     5
 63
     7
 74
     2
 91
        2
 64
     7
 65
   257
 75
     2
175
     1
 42
40.0
 92
        0
 66
   257
 43
1.0
 76
     1
 77
     6
 78
     2
 67
     7
 79
     3
170
     0
171
     0
290
     0
174
     0
 93
        1
 44
0.0
173
     0
291
     0
 45
0.0
1001
ACAD
1000
AcDbSavedByObjectVersion
1070
     0
  0
VISUALSTYLE
  5
30
102
{ACAD_REACTORS
330
2A
102
}
102
{ACAD_XDICTIONARY
360
C2
102
}
330
2A
100
AcDbVisualStyle
  2
3dWireframe
 70
     5
 71
     0
 72
     2
 73
     0
 90
        0
 40
-0.6
 41
-30.0
 62
     5
 63
     7
 74
     1
 91
        4
 64
     7
 65
   257
 75
     1
175
     1
 42
1.0
 92
        0
 66
   257
 43
1.0
 76
     1
 77
     6
 78
     2
 67
     7
 79
     5
170
     0
171
     0
290
     0
174
     0
 93
        1
 44
0.0
173
     0
291
     0
 45
0.0
1001
ACAD
1000
AcDbSavedByObjectVersion
1070
     0
  0
VISUALSTYLE
  5
32
102
{ACAD_REACTORS
330
2A
102
}
102
{ACAD_XDICTIONARY
360
C6
102
}
330
2A
100
AcDbVisualStyle
  2
Basic
 70
     7
 71
     1
 72
     0
 73
     1
 90
        0
 40
-0.6
 41
-30.0
 62
     5
 63
     7
 74
     0
 91
        4
 64
     7
 65
   257
 75
     1
175
     1
 42
1.0
 92
        8
 66
     7
 43
1.0
 76
     1
 77
     6
 78
     2
 67
     7
 79
     5
170
     0
171
     0
290
     0
174
     0
 93
        1
 44
0.0
173
     0
291
     1
 45
0.0
1001
ACAD
1000
AcDbSavedByObjectVersion
1070
     0
  0
VISUALSTYLE
  5
36
102
{ACAD_REACTORS
330
2A
102
}
102
{ACAD_XDICTIONARY
360
CE
102
}
330
2A
100
AcDbVisualStyle
  2
Brighten
 70
    12
 71
     2
 72
     2
 73
     0
 90
        0
 40
-0.6
 41
-30.0
 62
     5
 63
     7
 74
     1
 91
        4
 64
     7
 65
   257
 75
     1
175
     1
 42
1.0
 92
        8
 66
     7
 43
1.0
 76
     1
 77
     6
 78
     2
 67
     7
 79
     5
170
     0
171
     0
290
     0
174
     0
 93
        1
 44
50.0
173
     0
291
     1
 45
0.0
1001
ACAD
1000
AcDbSavedByObjectVersion
1070
     0
  0
VISUALSTYLE
  5
3A
102
{ACAD_REACTORS
330
2A
102
}
102
{ACAD_XDICTIONARY
360
D6
102
}
330
2A
100
AcDbVisualStyle
  2
ColorChange
 70
    16
 71
     2
 72
     2
 73
     3
 90
        0
 40
-0.6
 41
-30.0
 62
     5
 63
     8
 74
     1
 91
        4
 64
     7
 65
   257
 75
     1
175
     1
 42
1.0
 92
        8
 66
     8
 43
1.0
 76
     1
 77
     6
 78
     2
 67
     7
 79
     5
170
     0
171
     0
290
     0
174
     0
 93
        1
 44
0.0
173
     0
291
     1
 45
0.0
1001
ACAD
1000
AcDbSavedByObjectVersion
1070
     0
  0
VISUALSTYLE
  5
34
102
{ACAD_REACTORS
330
2A
102
}
102
{ACAD_XDICTIONARY
360
CA
102
}
330
2A
100
AcDbVisualStyle
  2
Conceptual
 70
     9
 71
     3
 72
     2
 73
     0
 90
        0
 40
-0.6
 41
-30.0
 62
     5
 63
     7
 74
     2
 91
        2
 64
     7
 65
   257
 75
     1
175
     1
 42
40.0
 92
        8
 66
     7
 43
1.0
 76
     1
 77
     6
 78
     2
 67
     7
 79
     3
170
     0
171
     0
290
     0
174
     0
 93
        1
 44
0.0
173
     0
291
     0
 45
0.0
1001
ACAD
1000
AcDbSavedByObjectVersion
1070
     0
  0
VISUALSTYLE
  5
35
102
{ACAD_REACTORS
330
2A
102
}
102
{ACAD_XDICTIONARY
360
CC
102
}
330
2A
100
AcDbVisualStyle
  2
Dim
 70
    11
 71
     2
 72
     2
 73
     0
 90
        0
 40
-0.6
 41
-30.0
 62
     5
 63
     7
 74
     1
 91
        4
 64
     7
 65
   257
 75
     1
175
     1
 42
1.0
 92
        8
 66
     7
 43
1.0
 76
     1
 77
     6
 78
     2
 67
     7
 79
     5
170
     0
171
     0
290
     0
174
     0
 93
        1
 44
-50.0
173
     0
291
     1
 45
0.0
1001
ACAD
1000
AcDbSavedByObjectVersion
1070
     0
  0
VISUALSTYLE
  5
39
102
{ACAD_REACTORS
330
2A
102
}
102
{ACAD_XDICTIONARY
360
D4
102
}
330
2A
100
AcDbVisualStyle
  2
Facepattern
 70
    15
 71
     2
 72
     2
 73
     0
 90
        0
 40
-0.6
 41
-30.0
 62
     5
 63
     7
 74
     1
 91
        4
 64
     7
 65
   257
 75
     1
175
     1
 42
1.0
 92
        8
 66
     7
 43
1.0
 76
     1
 77
     6
 78
     2
 67
     7
 79
     5
170
     0
171
     0
290
     0
174
     0
 93
        1
 44
0.0
173
     0
291
     1
 45
0.0
1001
ACAD
1000
AcDbSavedByObjectVersion
1070
     0
  0
VISUALSTYLE
  5
2B
102
{ACAD_REACTORS
330
2A
102
}
102
{ACAD_XDICTIONARY
360
B8
102
}
330
2A
100
AcDbVisualStyle
  2
Flat
 70
     0
 71
     2
 72
     1
 73
     1
 90
        2
 40
-0.6
 41
30.0
 62
     5
 63
     7
 74
     0
 91
        4
 64
     7
 65
   257
 75
     1
175
     1
 42
1.0
 92
        8
 66
     7
 43
1.0
 76
     1
 77
     6
 78
     2
 67
     7
 79
     5
170
     0
171
     0
290
     0
174
     0
 93
       13
 44
0.0
173
     0
291
     1
 45
0.0
1001
ACAD
1000
AcDbSavedByObjectVersion
1070
     0
  0
VISUALSTYLE
  5
2C
102
{ACAD_REACTORS
330
2A
102
}
102
{ACAD_XDICTIONARY
360
BA
102
}
330
2A
100
AcDbVisualStyle
  2
FlatWithEdges
 70
     1
 71
     2
 72
     1
 73
     1
 90
        2
 40
-0.6
 41
30.0
 62
     5
 63
     7
 74
     1
 91
        4
 64
     7
 65
   257
 75
     1
175
     1
 42
1.0
 92
        0
 66
   257
 43
1.0
 76
     1
 77
     6
 78
     2
 67
     7
 79
     5
170
     0
171
     0
290
     0
174
     0
 93
       13
 44
0.0
173
     0
291
     1
 45
0.0
1001
ACAD
1000
AcDbSavedByObjectVersion
1070
     0
  0
VISUALSTYLE
  5
2D
102
{ACAD_REACTORS
330
2A
102
}
102
{ACAD_XDICTIONARY
360
BC
102
}
330
2A
100
AcDbVisualStyle
  2
Gouraud
 70
     2
 71
     2
 72
     2
 73
     1
 90
        2
 40
-0.6
 41
30.0
 62
     5
 63
     7
 74
     0
 91
        4
 64
     7
 65
   257
 75
     1
175
     1
 42
1.0
 92
        0
 66
     7
 43
1.0
 76
     1
 77
     6
 78
     2
 67
     7
 79
     5
170
     0
171
     0
290
     0
174
     0
 93
       13
 44
0.0
173
     0
291
     1
 45
0.0
1001
ACAD
1000
AcDbSavedByObjectVersion
1070
     0
  0
VISUALSTYLE
  5
2E
102
{ACAD_REACTORS
330
2A
102
}
102
{ACAD_XDICTIONARY
360
BE
102
}
330
2A
100
AcDbVisualStyle
  2
GouraudWithEdges
 70
     3
 71
     2
 72
     2
 73
     1
 90
        2
 40
-0.6
 41
30.0
 62
     5
 63
     7
 74
     1
 91
        4
 64
     7
 65
   257
 75
     1
175
     1
 42
1.0
 92
        0
 66
   257
 43
1.0
 76
     1
 77
     6
 78
     2
 67
     7
 79
     5
170
     0
171
     0
290
     0
174
     0
 93
       13
 44
0.0
173
     0
291
     1
 45
0.0
1001
ACAD
1000
AcDbSavedByObjectVersion
1070
     0
  0
VISUALSTYLE
  5
38
102
{ACAD_REACTORS
330
2A
102
}
102
{ACAD_XDICTIONARY
360
D2
102
}
330
2A
100
AcDbVisualStyle
  2
Linepattern
 70
    14
 71
     2
 72
     2
 73
     0
 90
        0
 40
-0.6
 41
-30.0
 62
     5
 63
     7
 74
     1
 91
        4
 64
     7
 65
   257
 75
     7
175
     7
 42
1.0
 92
        8
 66
     7
 43
1.0
 76
     1
 77
     6
 78
     2
 67
     7
 79
     5
170
     0
171
     0
290
     0
174
     0
 93
        1
 44
0.0
173
     0
291
     1
 45
0.0
1001
ACAD
1000
AcDbSavedByObjectVersion
1070
     0
  0
VISUALSTYLE
  5
33
102
{ACAD_REACTORS
330
2A
102
}
102
{ACAD_XDICTIONARY
360
C8
102
}
330
2A
100
AcDbVisualStyle
  2
Realistic
 70
     8
 71
     2
 72
     2
 73
     0
 90
        0
 40
-0.6
 41
-30.0
 62
     5
 63
     7
 74
     1
 91
        0
 64
     7
 65
   257
 75
     1
175
     1
 42
1.0
 92
        8
 66
     8
 43
1.0
 76
     1
 77
     6
 78
     2
 67
     7
 79
     5
170
     0
171
     0
290
     0
174
     0
 93
       13
 44
0.0
173
     0
291
     0
 45
0.0
1001
ACAD
1000
AcDbSavedByObjectVersion
1070
     0
  0
VISUALSTYLE
  5
37
102
{ACAD_REACTORS
330
2A
102
}
102
{ACAD_XDICTIONARY
360
D0
102
}
330
2A
100
AcDbVisualStyle
  2
Thicken
 70
    13
 71
     2
 72
     2
 73
     0
 90
        0
 40
-0.6
 41
-30.0
 62
     5
 63
     7
 74
     1
 91
        4
 64
     7
 65
   257
 75
     1
175
     1
 42
1.0
 92
       12
 66
     7
 43
1.0
 76
     1
 77
     6
 78
     2
 67
     7
 79
     5
170
     0
171
     0
290
     0
174
     0
 93
        1
 44
0.0
173
     0
291
     1
 45
0.0
1001
ACAD
1000
AcDbSavedByObjectVersion
1070
     0
  0
DICTIONARYVAR
  5
B6
102
{ACAD_REACTORS
330
B3
102
}
330
B3
100
DictionaryVariables
280
     0
  1
2
  0
DICTIONARYVAR
  5
B7
102
{ACAD_REACTORS
330
B3
102
}
330
B3
100
DictionaryVariables
280
     0
  1
1
  0
DICTIONARY
  5
DA
330
3D
100
AcDbDictionary
280
     1
281
     1
  3
ACAD_XREC_ROUNDTRIP
360
DB
  0
DICTIONARY
  5
D8
330
3C
100
AcDbDictionary
280
     1
281
     1
  3
ACAD_XREC_ROUNDTRIP
360
D9
  0
DICTIONARY
  5
DC
330
3E
100
AcDbDictionary
280
     1
281
     1
  3
ACAD_XREC_ROUNDTRIP
360
DD
  0
DICTIONARY
  5
C0
330
2F
100
AcDbDictionary
280
     1
281
     1
  3
ACAD_XREC_ROUNDTRIP
360
C1
  0
DICTIONARY
  5
C4
330
31
100
AcDbDictionary
280
     1
281
     1
  3
ACAD_XREC_ROUNDTRIP
360
C5
  0
DICTIONARY
  5
C2
330
30
100
AcDbDictionary
280
     1
281
     1
  3
ACAD_XREC_ROUNDTRIP
360
C3
  0
DICTIONARY
  5
C6
330
32
100
AcDbDictionary
280
     1
281
     1
  3
ACAD_XREC_ROUNDTRIP
360
C7
  0
DICTIONARY
  5
CE
330
36
100
AcDbDictionary
280
     1
281
     1
  3
ACAD_XREC_ROUNDTRIP
360
CF
  0
DICTIONARY
  5
D6
330
3A
100
AcDbDictionary
280
     1
281
     1
  3
ACAD_XREC_ROUNDTRIP
360
D7
  0
DICTIONARY
  5
CA
330
34
100
AcDbDictionary
280
     1
281
     1
  3
ACAD_XREC_ROUNDTRIP
360
CB
  0
DICTIONARY
  5
CC
330
35
100
AcDbDictionary
280
     1
281
     1
  3
ACAD_XREC_ROUNDTRIP
360
CD
  0
DICTIONARY
  5
D4
330
39
100
AcDbDictionary
280
     1
281
     1
  3
ACAD_XREC_ROUNDTRIP
360
D5
  0
DICTIONARY
  5
B8
330
2B
100
AcDbDictionary
280
     1
281
     1
  3
ACAD_XREC_ROUNDTRIP
360
B9
  0
DICTIONARY
  5
BA
330
2C
100
AcDbDictionary
280
     1
281
     1
  3
ACAD_XREC_ROUNDTRIP
360
BB
  0
DICTIONARY
  5
BC
330
2D
100
AcDbDictionary
280
     1
281
     1
  3
ACAD_XREC_ROUNDTRIP
360
BD
  0
DICTIONARY
  5
BE
330
2E
100
AcDbDictionary
280
     1
281
     1
  3
ACAD_XREC_ROUNDTRIP
360
BF
  0
DICTIONARY
  5
D2
330
38
100
AcDbDictionary
280
     1
281
     1
  3
ACAD_XREC_ROUNDTRIP
360
D3
  0
DICTIONARY
  5
C8
330
33
100
AcDbDictionary
280
     1
281
     1
  3
ACAD_XREC_ROUNDTRIP
360
C9
  0
DICTIONARY
  5
D0
330
37
100
AcDbDictionary
280
     1
281
     1
  3
ACAD_XREC_ROUNDTRIP
360
D1
  0
XRECORD
  5
DB
102
{ACAD_REACTORS
330
DA
102
}
330
DA
100
AcDbXrecord
280
     1
102
MATERIAL
148
0.0
149
0.0
149
0.0
 93
        0
 94
      127
282
     0
 72
     1
 77
     1
171
     1
175
     1
179
     1
273
     0
  0
XRECORD
  5
D9
102
{ACAD_REACTORS
330
D8
102
}
330
D8
100
AcDbXrecord
280
     1
102
MATERIAL
148
0.0
149
0.0
149
0.0
 93
        0
 94
      127
282
     0
 72
     1
 77
     1
171
     1
175
     1
179
     1
273
     0
  0
XRECORD
  5
DD
102
{ACAD_REACTORS
330
DC
102
}
330
DC
100
AcDbXrecord
280
     1
102
MATERIAL
148
0.0
149
0.0
149
0.0
 93
        0
 94
      127
282
     0
 72
     1
 77
     1
171
     1
175
     1
179
     1
273
     0
  0
XRECORD
  5
C1
102
{ACAD_REACTORS
330
C0
102
}
330
C0
100
AcDbXrecord
280
     1
102
RTVSPropertyOp0
 70
     1
102
RTVSPropertyOp1
 70
     1
102
RTVSPropertyOp2
 70
     1
102
RTVSPropertyOp3
 70
     1
102
RTVSPropertyOp4
 70
     1
102
RTVSPropertyOp5
 70
     1
102
RTVSPropertyOp6
 70
     1
102
RTVSPropertyOp7
 70
     1
102
RTVSPropertyOp8
 70
     1
102
RTVSPropertyOp9
 70
     1
102
RTVSPropertyOp10
 70
     1
102
RTVSPropertyOp11
 70
     1
102
RTVSPropertyOp12
 70
     1
102
RTVSPropertyOp13
 70
     1
102
RTVSPropertyOp14
 70
     1
102
RTVSPropertyOp15
 70
     1
102
RTVSPropertyOp16
 70
     1
102
RTVSPropertyOp17
 70
     1
102
RTVSPropertyOp18
 70
     1
102
RTVSPropertyOp19
 70
     1
102
RTVSPropertyOp20
 70
     1
102
RTVSPropertyOp21
 70
     1
102
RTVSPropertyOp22
 70
     1
102
RTVSPropertyOp23
 70
     1
102
RTVSPropertyOp24
 70
     1
102
RTVSPropertyOp25
 70
     1
102
RTVSPropertyOp26
 70
     1
102
RTVSPropertyOp27
 70
     1
102
RTVSPropertyOp28
 70
     1
102
RTVSPropertyOp29
 70
     1
102
RTVSPropertyOp30
 70
     1
102
RTVSPropertyOp31
 70
     1
102
RTVSPropertyOp32
 70
     1
  0
XRECORD
  5
C5
102
{ACAD_REACTORS
330
C4
102
}
330
C4
100
AcDbXrecord
280
     1
102
RTVSPropertyOp0
 70
     1
102
RTVSPropertyOp1
 70
     1
102
RTVSPropertyOp2
 70
     1
102
RTVSPropertyOp3
 70
     1
102
RTVSPropertyOp4
 70
     1
102
RTVSPropertyOp5
 70
     1
102
RTVSPropertyOp6
 70
     1
102
RTVSPropertyOp7
 70
     1
102
RTVSPropertyOp8
 70
     1
102
RTVSPropertyOp9
 70
     1
102
RTVSPropertyOp10
 70
     1
102
RTVSPropertyOp11
 70
     1
102
RTVSPropertyOp12
 70
     1
102
RTVSPropertyOp13
 70
     1
102
RTVSPropertyOp14
 70
     1
102
RTVSPropertyOp15
 70
     1
102
RTVSPropertyOp16
 70
     1
102
RTVSPropertyOp17
 70
     1
102
RTVSPropertyOp18
 70
     1
102
RTVSPropertyOp19
 70
     1
102
RTVSPropertyOp20
 70
     1
102
RTVSPropertyOp21
 70
     1
102
RTVSPropertyOp22
 70
     1
102
RTVSPropertyOp23
 70
     1
102
RTVSPropertyOp24
 70
     1
102
RTVSPropertyOp25
 70
     1
102
RTVSPropertyOp26
 70
     1
102
RTVSPropertyOp27
 70
     1
102
RTVSPropertyOp28
 70
     1
102
RTVSPropertyOp29
 70
     1
102
RTVSPropertyOp30
 70
     1
102
RTVSPropertyOp31
 70
     1
102
RTVSPropertyOp32
 70
     1
  0
XRECORD
  5
C3
102
{ACAD_REACTORS
330
C2
102
}
330
C2
100
AcDbXrecord
280
     1
102
RTVSPropertyOp0
 70
     1
102
RTVSPropertyOp1
 70
     1
102
RTVSPropertyOp2
 70
     1
102
RTVSPropertyOp3
 70
     1
102
RTVSPropertyOp4
 70
     1
102
RTVSPropertyOp5
 70
     1
102
RTVSPropertyOp6
 70
     1
102
RTVSPropertyOp7
 70
     1
102
RTVSPropertyOp8
 70
     1
102
RTVSPropertyOp9
 70
     1
102
RTVSPropertyOp10
 70
     1
102
RTVSPropertyOp11
 70
     1
102
RTVSPropertyOp12
 70
     1
102
RTVSPropertyOp13
 70
     1
102
RTVSPropertyOp14
 70
     1
102
RTVSPropertyOp15
 70
     1
102
RTVSPropertyOp16
 70
     1
102
RTVSPropertyOp17
 70
     1
102
RTVSPropertyOp18
 70
     1
102
RTVSPropertyOp19
 70
     1
102
RTVSPropertyOp20
 70
     1
102
RTVSPropertyOp21
 70
     1
102
RTVSPropertyOp22
 70
     1
102
RTVSPropertyOp23
 70
     1
102
RTVSPropertyOp24
 70
     1
102
RTVSPropertyOp25
 70
     1
102
RTVSPropertyOp26
 70
     1
102
RTVSPropertyOp27
 70
     1
102
RTVSPropertyOp28
 70
     1
102
RTVSPropertyOp29
 70
     1
102
RTVSPropertyOp30
 70
     1
102
RTVSPropertyOp31
 70
     1
102
RTVSPropertyOp32
 70
     1
  0
XRECORD
  5
C7
102
{ACAD_REACTORS
330
C6
102
}
330
C6
100
AcDbXrecord
280
     1
102
RTVSPropertyOp0
 70
     1
102
RTVSPropertyOp1
 70
     1
102
RTVSPropertyOp2
 70
     1
102
RTVSPropertyOp3
 70
     1
102
RTVSPropertyOp4
 70
     1
102
RTVSPropertyOp5
 70
     1
102
RTVSPropertyOp6
 70
     1
102
RTVSPropertyOp7
 70
     1
102
RTVSPropertyOp8
 70
     1
102
RTVSPropertyOp9
 70
     1
102
RTVSPropertyOp10
 70
     1
102
RTVSPropertyOp11
 70
     1
102
RTVSPropertyOp12
 70
     1
102
RTVSPropertyOp13
 70
     1
102
RTVSPropertyOp14
 70
     1
102
RTVSPropertyOp15
 70
     1
102
RTVSPropertyOp16
 70
     1
102
RTVSPropertyOp17
 70
     1
102
RTVSPropertyOp18
 70
     1
102
RTVSPropertyOp19
 70
     1
102
RTVSPropertyOp20
 70
     1
102
RTVSPropertyOp21
 70
     1
102
RTVSPropertyOp22
 70
     1
102
RTVSPropertyOp23
 70
     1
102
RTVSPropertyOp24
 70
     1
102
RTVSPropertyOp25
 70
     1
102
RTVSPropertyOp26
 70
     1
102
RTVSPropertyOp27
 70
     1
102
RTVSPropertyOp28
 70
     1
102
RTVSPropertyOp29
 70
     1
102
RTVSPropertyOp30
 70
     1
102
RTVSPropertyOp31
 70
     1
102
RTVSPropertyOp32
 70
     1
  0
XRECORD
  5
CF
102
{ACAD_REACTORS
330
CE
102
}
330
CE
100
AcDbXrecord
280
     1
102
RTVSPropertyOp0
 70
     1
102
RTVSPropertyOp1
 70
     1
102
RTVSPropertyOp2
 70
     1
102
RTVSPropertyOp3
 70
     1
102
RTVSPropertyOp4
 70
     1
102
RTVSPropertyOp5
 70
     1
102
RTVSPropertyOp6
 70
     1
102
RTVSPropertyOp7
 70
     1
102
RTVSPropertyOp8
 70
     1
102
RTVSPropertyOp9
 70
     1
102
RTVSPropertyOp10
 70
     1
102
RTVSPropertyOp11
 70
     1
102
RTVSPropertyOp12
 70
     1
102
RTVSPropertyOp13
 70
     1
102
RTVSPropertyOp14
 70
     1
102
RTVSPropertyOp15
 70
     1
102
RTVSPropertyOp16
 70
     1
102
RTVSPropertyOp17
 70
     1
102
RTVSPropertyOp18
 70
     1
102
RTVSPropertyOp19
 70
     1
102
RTVSPropertyOp20
 70
     1
102
RTVSPropertyOp21
 70
     1
102
RTVSPropertyOp22
 70
     1
102
RTVSPropertyOp23
 70
     1
102
RTVSPropertyOp24
 70
     1
102
RTVSPropertyOp25
 70
     1
102
RTVSPropertyOp26
 70
     1
102
RTVSPropertyOp27
 70
     1
102
RTVSPropertyOp28
 70
     1
102
RTVSPropertyOp29
 70
     1
102
RTVSPropertyOp30
 70
     1
102
RTVSPropertyOp31
 70
     1
102
RTVSPropertyOp32
 70
     1
  0
XRECORD
  5
D7
102
{ACAD_REACTORS
330
D6
102
}
330
D6
100
AcDbXrecord
280
     1
102
RTVSPropertyOp0
 70
     1
102
RTVSPropertyOp1
 70
     1
102
RTVSPropertyOp2
 70
     1
102
RTVSPropertyOp3
 70
     1
102
RTVSPropertyOp4
 70
     1
102
RTVSPropertyOp5
 70
     1
102
RTVSPropertyOp6
 70
     1
102
RTVSPropertyOp7
 70
     1
102
RTVSPropertyOp8
 70
     1
102
RTVSPropertyOp9
 70
     1
102
RTVSPropertyOp10
 70
     1
102
RTVSPropertyOp11
 70
     1
102
RTVSPropertyOp12
 70
     1
102
RTVSPropertyOp13
 70
     1
102
RTVSPropertyOp14
 70
     1
102
RTVSPropertyOp15
 70
     1
102
RTVSPropertyOp16
 70
     1
102
RTVSPropertyOp17
 70
     1
102
RTVSPropertyOp18
 70
     1
102
RTVSPropertyOp19
 70
     1
102
RTVSPropertyOp20
 70
     1
102
RTVSPropertyOp21
 70
     1
102
RTVSPropertyOp22
 70
     1
102
RTVSPropertyOp23
 70
     1
102
RTVSPropertyOp24
 70
     1
102
RTVSPropertyOp25
 70
     1
102
RTVSPropertyOp26
 70
     1
102
RTVSPropertyOp27
 70
     1
102
RTVSPropertyOp28
 70
     1
102
RTVSPropertyOp29
 70
     1
102
RTVSPropertyOp30
 70
     1
102
RTVSPropertyOp31
 70
     1
102
RTVSPropertyOp32
 70
     1
  0
XRECORD
  5
CB
102
{ACAD_REACTORS
330
CA
102
}
330
CA
100
AcDbXrecord
280
     1
102
RTVSPropertyOp0
 70
     1
102
RTVSPropertyOp1
 70
     1
102
RTVSPropertyOp2
 70
     1
102
RTVSPropertyOp3
 70
     1
102
RTVSPropertyOp4
 70
     1
102
RTVSPropertyOp5
 70
     1
102
RTVSPropertyOp6
 70
     1
102
RTVSPropertyOp7
 70
     1
102
RTVSPropertyOp8
 70
     1
102
RTVSPropertyOp9
 70
     1
102
RTVSPropertyOp10
 70
     1
102
RTVSPropertyOp11
 70
     1
102
RTVSPropertyOp12
 70
     1
102
RTVSPropertyOp13
 70
     1
102
RTVSPropertyOp14
 70
     1
102
RTVSPropertyOp15
 70
     1
102
RTVSPropertyOp16
 70
     1
102
RTVSPropertyOp17
 70
     1
102
RTVSPropertyOp18
 70
     1
102
RTVSPropertyOp19
 70
     1
102
RTVSPropertyOp20
 70
     1
102
RTVSPropertyOp21
 70
     1
102
RTVSPropertyOp22
 70
     1
102
RTVSPropertyOp23
 70
     1
102
RTVSPropertyOp24
 70
     1
102
RTVSPropertyOp25
 70
     1
102
RTVSPropertyOp26
 70
     1
102
RTVSPropertyOp27
 70
     1
102
RTVSPropertyOp28
 70
     1
102
RTVSPropertyOp29
 70
     1
102
RTVSPropertyOp30
 70
     1
102
RTVSPropertyOp31
 70
     1
102
RTVSPropertyOp32
 70
     1
  0
XRECORD
  5
CD
102
{ACAD_REACTORS
330
CC
102
}
330
CC
100
AcDbXrecord
280
     1
102
RTVSPropertyOp0
 70
     1
102
RTVSPropertyOp1
 70
     1
102
RTVSPropertyOp2
 70
     1
102
RTVSPropertyOp3
 70
     1
102
RTVSPropertyOp4
 70
     1
102
RTVSPropertyOp5
 70
     1
102
RTVSPropertyOp6
 70
     1
102
RTVSPropertyOp7
 70
     1
102
RTVSPropertyOp8
 70
     1
102
RTVSPropertyOp9
 70
     1
102
RTVSPropertyOp10
 70
     1
102
RTVSPropertyOp11
 70
     1
102
RTVSPropertyOp12
 70
     1
102
RTVSPropertyOp13
 70
     1
102
RTVSPropertyOp14
 70
     1
102
RTVSPropertyOp15
 70
     1
102
RTVSPropertyOp16
 70
     1
102
RTVSPropertyOp17
 70
     1
102
RTVSPropertyOp18
 70
     1
102
RTVSPropertyOp19
 70
     1
102
RTVSPropertyOp20
 70
     1
102
RTVSPropertyOp21
 70
     1
102
RTVSPropertyOp22
 70
     1
102
RTVSPropertyOp23
 70
     1
102
RTVSPropertyOp24
 70
     1
102
RTVSPropertyOp25
 70
     1
102
RTVSPropertyOp26
 70
     1
102
RTVSPropertyOp27
 70
     1
102
RTVSPropertyOp28
 70
     1
102
RTVSPropertyOp29
 70
     1
102
RTVSPropertyOp30
 70
     1
102
RTVSPropertyOp31
 70
     1
102
RTVSPropertyOp32
 70
     1
  0
XRECORD
  5
D5
102
{ACAD_REACTORS
330
D4
102
}
330
D4
100
AcDbXrecord
280
     1
102
RTVSPropertyOp0
 70
     1
102
RTVSPropertyOp1
 70
     1
102
RTVSPropertyOp2
 70
     1
102
RTVSPropertyOp3
 70
     1
102
RTVSPropertyOp4
 70
     1
102
RTVSPropertyOp5
 70
     1
102
RTVSPropertyOp6
 70
     1
102
RTVSPropertyOp7
 70
     1
102
RTVSPropertyOp8
 70
     1
102
RTVSPropertyOp9
 70
     1
102
RTVSPropertyOp10
 70
     1
102
RTVSPropertyOp11
 70
     1
102
RTVSPropertyOp12
 70
     1
102
RTVSPropertyOp13
 70
     1
102
RTVSPropertyOp14
 70
     1
102
RTVSPropertyOp15
 70
     1
102
RTVSPropertyOp16
 70
     1
102
RTVSPropertyOp17
 70
     1
102
RTVSPropertyOp18
 70
     1
102
RTVSPropertyOp19
 70
     1
102
RTVSPropertyOp20
 70
     1
102
RTVSPropertyOp21
 70
     1
102
RTVSPropertyOp22
 70
     1
102
RTVSPropertyOp23
 70
     1
102
RTVSPropertyOp24
 70
     1
102
RTVSPropertyOp25
 70
     1
102
RTVSPropertyOp26
 70
     1
102
RTVSPropertyOp27
 70
     1
102
RTVSPropertyOp28
 70
     1
102
RTVSPropertyOp29
 70
     1
102
RTVSPropertyOp30
 70
     1
102
RTVSPropertyOp31
 70
     1
102
RTVSPropertyOp32
 70
     1
  0
XRECORD
  5
B9
102
{ACAD_REACTORS
330
B8
102
}
330
B8
100
AcDbXrecord
280
     1
102
RTVSPropertyOp0
 70
     1
102
RTVSPropertyOp1
 70
     1
102
RTVSPropertyOp2
 70
     1
102
RTVSPropertyOp3
 70
     1
102
RTVSPropertyOp4
 70
     1
102
RTVSPropertyOp5
 70
     1
102
RTVSPropertyOp6
 70
     1
102
RTVSPropertyOp7
 70
     1
102
RTVSPropertyOp8
 70
     1
102
RTVSPropertyOp9
 70
     1
102
RTVSPropertyOp10
 70
     1
102
RTVSPropertyOp11
 70
     1
102
RTVSPropertyOp12
 70
     1
102
RTVSPropertyOp13
 70
     1
102
RTVSPropertyOp14
 70
     1
102
RTVSPropertyOp15
 70
     1
102
RTVSPropertyOp16
 70
     1
102
RTVSPropertyOp17
 70
     1
102
RTVSPropertyOp18
 70
     1
102
RTVSPropertyOp19
 70
     1
102
RTVSPropertyOp20
 70
     1
102
RTVSPropertyOp21
 70
     1
102
RTVSPropertyOp22
 70
     1
102
RTVSPropertyOp23
 70
     1
102
RTVSPropertyOp24
 70
     1
102
RTVSPropertyOp25
 70
     1
102
RTVSPropertyOp26
 70
     1
102
RTVSPropertyOp27
 70
     1
102
RTVSPropertyOp28
 70
     1
102
RTVSPropertyOp29
 70
     1
102
RTVSPropertyOp30
 70
     1
102
RTVSPropertyOp31
 70
     1
102
RTVSPropertyOp32
 70
     1
  0
XRECORD
  5
BB
102
{ACAD_REACTORS
330
BA
102
}
330
BA
100
AcDbXrecord
280
     1
102
RTVSPropertyOp0
 70
     1
102
RTVSPropertyOp1
 70
     1
102
RTVSPropertyOp2
 70
     1
102
RTVSPropertyOp3
 70
     1
102
RTVSPropertyOp4
 70
     1
102
RTVSPropertyOp5
 70
     1
102
RTVSPropertyOp6
 70
     1
102
RTVSPropertyOp7
 70
     1
102
RTVSPropertyOp8
 70
     1
102
RTVSPropertyOp9
 70
     1
102
RTVSPropertyOp10
 70
     1
102
RTVSPropertyOp11
 70
     1
102
RTVSPropertyOp12
 70
     1
102
RTVSPropertyOp13
 70
     1
102
RTVSPropertyOp14
 70
     1
102
RTVSPropertyOp15
 70
     1
102
RTVSPropertyOp16
 70
     1
102
RTVSPropertyOp17
 70
     1
102
RTVSPropertyOp18
 70
     1
102
RTVSPropertyOp19
 70
     1
102
RTVSPropertyOp20
 70
     1
102
RTVSPropertyOp21
 70
     1
102
RTVSPropertyOp22
 70
     1
102
RTVSPropertyOp23
 70
     1
102
RTVSPropertyOp24
 70
     1
102
RTVSPropertyOp25
 70
     1
102
RTVSPropertyOp26
 70
     1
102
RTVSPropertyOp27
 70
     1
102
RTVSPropertyOp28
 70
     1
102
RTVSPropertyOp29
 70
     1
102
RTVSPropertyOp30
 70
     1
102
RTVSPropertyOp31
 70
     1
102
RTVSPropertyOp32
 70
     1
  0
XRECORD
  5
BD
102
{ACAD_REACTORS
330
BC
102
}
330
BC
100
AcDbXrecord
280
     1
102
RTVSPropertyOp0
 70
     1
102
RTVSPropertyOp1
 70
     1
102
RTVSPropertyOp2
 70
     1
102
RTVSPropertyOp3
 70
     1
102
RTVSPropertyOp4
 70
     1
102
RTVSPropertyOp5
 70
     1
102
RTVSPropertyOp6
 70
     1
102
RTVSPropertyOp7
 70
     1
102
RTVSPropertyOp8
 70
     1
102
RTVSPropertyOp9
 70
     1
102
RTVSPropertyOp10
 70
     1
102
RTVSPropertyOp11
 70
     1
102
RTVSPropertyOp12
 70
     1
102
RTVSPropertyOp13
 70
     1
102
RTVSPropertyOp14
 70
     1
102
RTVSPropertyOp15
 70
     1
102
RTVSPropertyOp16
 70
     1
102
RTVSPropertyOp17
 70
     1
102
RTVSPropertyOp18
 70
     1
102
RTVSPropertyOp19
 70
     1
102
RTVSPropertyOp20
 70
     1
102
RTVSPropertyOp21
 70
     1
102
RTVSPropertyOp22
 70
     1
102
RTVSPropertyOp23
 70
     1
102
RTVSPropertyOp24
 70
     1
102
RTVSPropertyOp25
 70
     1
102
RTVSPropertyOp26
 70
     1
102
RTVSPropertyOp27
 70
     1
102
RTVSPropertyOp28
 70
     1
102
RTVSPropertyOp29
 70
     1
102
RTVSPropertyOp30
 70
     1
102
RTVSPropertyOp31
 70
     1
102
RTVSPropertyOp32
 70
     1
  0
XRECORD
  5
BF
102
{ACAD_REACTORS
330
BE
102
}
330
BE
100
AcDbXrecord
280
     1
102
RTVSPropertyOp0
 70
     1
102
RTVSPropertyOp1
 70
     1
102
RTVSPropertyOp2
 70
     1
102
RTVSPropertyOp3
 70
     1
102
RTVSPropertyOp4
 70
     1
102
RTVSPropertyOp5
 70
     1
102
RTVSPropertyOp6
 70
     1
102
RTVSPropertyOp7
 70
     1
102
RTVSPropertyOp8
 70
     1
102
RTVSPropertyOp9
 70
     1
102
RTVSPropertyOp10
 70
     1
102
RTVSPropertyOp11
 70
     1
102
RTVSPropertyOp12
 70
     1
102
RTVSPropertyOp13
 70
     1
102
RTVSPropertyOp14
 70
     1
102
RTVSPropertyOp15
 70
     1
102
RTVSPropertyOp16
 70
     1
102
RTVSPropertyOp17
 70
     1
102
RTVSPropertyOp18
 70
     1
102
RTVSPropertyOp19
 70
     1
102
RTVSPropertyOp20
 70
     1
102
RTVSPropertyOp21
 70
     1
102
RTVSPropertyOp22
 70
     1
102
RTVSPropertyOp23
 70
     1
102
RTVSPropertyOp24
 70
     1
102
RTVSPropertyOp25
 70
     1
102
RTVSPropertyOp26
 70
     1
102
RTVSPropertyOp27
 70
     1
102
RTVSPropertyOp28
 70
     1
102
RTVSPropertyOp29
 70
     1
102
RTVSPropertyOp30
 70
     1
102
RTVSPropertyOp31
 70
     1
102
RTVSPropertyOp32
 70
     1
  0
XRECORD
  5
D3
102
{ACAD_REACTORS
330
D2
102
}
330
D2
100
AcDbXrecord
280
     1
102
RTVSPropertyOp0
 70
     1
102
RTVSPropertyOp1
 70
     1
102
RTVSPropertyOp2
 70
     1
102
RTVSPropertyOp3
 70
     1
102
RTVSPropertyOp4
 70
     1
102
RTVSPropertyOp5
 70
     1
102
RTVSPropertyOp6
 70
     1
102
RTVSPropertyOp7
 70
     1
102
RTVSPropertyOp8
 70
     1
102
RTVSPropertyOp9
 70
     1
102
RTVSPropertyOp10
 70
     1
102
RTVSPropertyOp11
 70
     1
102
RTVSPropertyOp12
 70
     1
102
RTVSPropertyOp13
 70
     1
102
RTVSPropertyOp14
 70
     1
102
RTVSPropertyOp15
 70
     1
102
RTVSPropertyOp16
 70
     1
102
RTVSPropertyOp17
 70
     1
102
RTVSPropertyOp18
 70
     1
102
RTVSPropertyOp19
 70
     1
102
RTVSPropertyOp20
 70
     1
102
RTVSPropertyOp21
 70
     1
102
RTVSPropertyOp22
 70
     1
102
RTVSPropertyOp23
 70
     1
102
RTVSPropertyOp24
 70
     1
102
RTVSPropertyOp25
 70
     1
102
RTVSPropertyOp26
 70
     1
102
RTVSPropertyOp27
 70
     1
102
RTVSPropertyOp28
 70
     1
102
RTVSPropertyOp29
 70
     1
102
RTVSPropertyOp30
 70
     1
102
RTVSPropertyOp31
 70
     1
102
RTVSPropertyOp32
 70
     1
  0
XRECORD
  5
C9
102
{ACAD_REACTORS
330
C8
102
}
330
C8
100
AcDbXrecord
280
     1
102
RTVSPropertyOp0
 70
     1
102
RTVSPropertyOp1
 70
     1
102
RTVSPropertyOp2
 70
     1
102
RTVSPropertyOp3
 70
     1
102
RTVSPropertyOp4
 70
     1
102
RTVSPropertyOp5
 70
     1
102
RTVSPropertyOp6
 70
     1
102
RTVSPropertyOp7
 70
     1
102
RTVSPropertyOp8
 70
     1
102
RTVSPropertyOp9
 70
     1
102
RTVSPropertyOp10
 70
     1
102
RTVSPropertyOp11
 70
     1
102
RTVSPropertyOp12
 70
     1
102
RTVSPropertyOp13
 70
     1
102
RTVSPropertyOp14
 70
     1
102
RTVSPropertyOp15
 70
     1
102
RTVSPropertyOp16
 70
     1
102
RTVSPropertyOp17
 70
     1
102
RTVSPropertyOp18
 70
     1
102
RTVSPropertyOp19
 70
     1
102
RTVSPropertyOp20
 70
     1
102
RTVSPropertyOp21
 70
     1
102
RTVSPropertyOp22
 70
     1
102
RTVSPropertyOp23
 70
     1
102
RTVSPropertyOp24
 70
     1
102
RTVSPropertyOp25
 70
     1
102
RTVSPropertyOp26
 70
     1
102
RTVSPropertyOp27
 70
     1
102
RTVSPropertyOp28
 70
     1
102
RTVSPropertyOp29
 70
     1
102
RTVSPropertyOp30
 70
     1
102
RTVSPropertyOp31
 70
     1
102
RTVSPropertyOp32
 70
     1
  0
XRECORD
  5
D1
102
{ACAD_REACTORS
330
D0
102
}
330
D0
100
AcDbXrecord
280
     1
102
RTVSPropertyOp0
 70
     1
102
RTVSPropertyOp1
 70
     1
102
RTVSPropertyOp2
 70
     1
102
RTVSPropertyOp3
 70
     1
102
RTVSPropertyOp4
 70
     1
102
RTVSPropertyOp5
 70
     1
102
RTVSPropertyOp6
 70
     1
102
RTVSPropertyOp7
 70
     1
102
RTVSPropertyOp8
 70
     1
102
RTVSPropertyOp9
 70
     1
102
RTVSPropertyOp10
 70
     1
102
RTVSPropertyOp11
 70
     1
102
RTVSPropertyOp12
 70
     1
102
RTVSPropertyOp13
 70
     1
102
RTVSPropertyOp14
 70
     1
102
RTVSPropertyOp15
 70
     1
102
RTVSPropertyOp16
 70
     1
102
RTVSPropertyOp17
 70
     1
102
RTVSPropertyOp18
 70
     1
102
RTVSPropertyOp19
 70
     1
102
RTVSPropertyOp20
 70
     1
102
RTVSPropertyOp21
 70
     1
102
RTVSPropertyOp22
 70
     1
102
RTVSPropertyOp23
 70
     1
102
RTVSPropertyOp24
 70
     1
102
RTVSPropertyOp25
 70
     1
102
RTVSPropertyOp26
 70
     1
102
RTVSPropertyOp27
 70
     1
102
RTVSPropertyOp28
 70
     1
102
RTVSPropertyOp29
 70
     1
102
RTVSPropertyOp30
 70
     1
102
RTVSPropertyOp31
 70
     1
102
RTVSPropertyOp32
 70
     1
  0
ENDSEC
  0
EOF
