  0
SECTION
  2
HEADER
  9
$ACADVER
  1
AC1021
  9
$ACADMAINTVER
 70
    25
  9
$DWGCODEPAGE
  3
ANSI_936
  9
$INSBASE
 10
0.0
 20
0.0
 30
0.0
  9
$EXTMIN
 10
-10.74014
 20
-9.04805
 30
0.0
  9
$EXTMAX
 10
10.36133
 20
9.04001
 30
0.0
  9
$LIMMIN
 10
0.0
 20
0.0
  9
$LIMMAX
 10
12.0
 20
9.0
  9
$ORTHOMODE
 70
     0
  9
$REGENMODE
 70
     1
  9
$FILLMODE
 70
     1
  9
$QTEXTMODE
 70
     0
  9
$MIRRTEXT
 70
     1
  9
$LTSCALE
 40
1.0
  9
$ATTMODE
 70
     1
  9
$TEXTSIZE
 40
0.2
  9
$TRACEWID
 40
0.05
  9
$TEXTSTYLE
  7
Standard
  9
$CLAYER
  8
0
  9
$CELTYPE
  6
ByLayer
  9
$CECOLOR
 62
   256
  9
$CELTSCALE
 40
1.0
  9
$DISPSILH
 70
     0
  9
$DIMSCALE
 40
1.0
  9
$DIMASZ
 40
0.18
  9
$DIMEXO
 40
0.0625
  9
$DIMDLI
 40
0.38
  9
$DIMRND
 40
0.0
  9
$DIMDLE
 40
0.0
  9
$DIMEXE
 40
0.18
  9
$DIMTP
 40
0.0
  9
$DIMTM
 40
0.0
  9
$DIMTXT
 40
0.18
  9
$DIMCEN
 40
0.09
  9
$DIMTSZ
 40
0.0
  9
$DIMTOL
 70
     0
  9
$DIMLIM
 70
     0
  9
$DIMTIH
 70
     1
  9
$DIMTOH
 70
     1
  9
$DIMSE1
 70
     0
  9
$DIMSE2
 70
     0
  9
$DIMTAD
 70
     0
  9
$DIMZIN
 70
     0
  9
$DIMBLK
  1

  9
$DIMASO
 70
     1
  9
$DIMSHO
 70
     1
  9
$DIMPOST
  1

  9
$DIMAPOST
  1

  9
$DIMALT
 70
     0
  9
$DIMALTD
 70
     2
  9
$DIMALTF
 40
25.4
  9
$DIMLFAC
 40
1.0
  9
$DIMTOFL
 70
     0
  9
$DIMTVP
 40
0.0
  9
$DIMTIX
 70
     0
  9
$DIMSOXD
 70
     0
  9
$DIMSAH
 70
     0
  9
$DIMBLK1
  1

  9
$DIMBLK2
  1

  9
$DIMSTYLE
  2
Standard
  9
$DIMCLRD
 70
     0
  9
$DIMCLRE
 70
     0
  9
$DIMCLRT
 70
     0
  9
$DIMTFAC
 40
1.0
  9
$DIMGAP
 40
0.09
  9
$DIMJUST
 70
     0
  9
$DIMSD1
 70
     0
  9
$DIMSD2
 70
     0
  9
$DIMTOLJ
 70
     1
  9
$DIMTZIN
 70
     0
  9
$DIMALTZ
 70
     0
  9
$DIMALTTZ
 70
     0
  9
$DIMUPT
 70
     0
  9
$DIMDEC
 70
     4
  9
$DIMTDEC
 70
     4
  9
$DIMALTU
 70
     2
  9
$DIMALTTD
 70
     2
  9
$DIMTXSTY
  7
Standard
  9
$DIMAUNIT
 70
     0
  9
$DIMADEC
 70
     0
  9
$DIMALTRND
 40
0.0
  9
$DIMAZIN
 70
     0
  9
$DIMDSEP
 70
    46
  9
$DIMATFIT
 70
     3
  9
$DIMFRAC
 70
     0
  9
$DIMLDRBLK
  1

  9
$DIMLUNIT
 70
     2
  9
$DIMLWD
 70
    -2
  9
$DIMLWE
 70
    -2
  9
$DIMTMOVE
 70
     0
  9
$DIMFXL
 40
1.0
  9
$DIMFXLON
 70
     0
  9
$DIMJOGANG
 40
0.7853981633974483
  9
$DIMTFILL
 70
     0
  9
$DIMTFILLCLR
 70
     0
  9
$DIMARCSYM
 70
     0
  9
$DIMLTYPE
  6

  9
$DIMLTEX1
  6

  9
$DIMLTEX2
  6

  9
$LUNITS
 70
     2
  9
$LUPREC
 70
     4
  9
$SKETCHINC
 40
0.1
  9
$FILLETRAD
 40
0.5
  9
$AUNITS
 70
     0
  9
$AUPREC
 70
     0
  9
$MENU
  1
.
  9
$ELEVATION
 40
0.0
  9
$PELEVATION
 40
0.0
  9
$THICKNESS
 40
0.0
  9
$LIMCHECK
 70
     0
  9
$CHAMFERA
 40
0.5
  9
$CHAMFERB
 40
0.5
  9
$CHAMFERC
 40
1.0
  9
$CHAMFERD
 40
0.0
  9
$SKPOLY
 70
     0
  9
$TDCREATE
 40
2455663.620128762
  9
$TDUCREATE
 40
2455663.286795428
  9
$TDUPDATE
 40
2455663.620128773
  9
$TDUUPDATE
 40
2455663.28679544
  9
$TDINDWG
 40
0.0000000116
  9
$TDUSRTIMER
 40
0.0000000116
  9
$USRTIMER
 70
     1
  9
$ANGBASE
 50
0.0
  9
$ANGDIR
 70
     0
  9
$PDMODE
 70
     0
  9
$PDSIZE
 40
0.0
  9
$PLINEWID
 40
0.0
  9
$SPLFRAME
 70
     0
  9
$SPLINETYPE
 70
     6
  9
$SPLINESEGS
 70
     8
  9
$HANDSEED
  5
6B
  9
$SURFTAB1
 70
     6
  9
$SURFTAB2
 70
     6
  9
$SURFTYPE
 70
     6
  9
$SURFU
 70
     6
  9
$SURFV
 70
     6
  9
$UCSBASE
  2

  9
$UCSNAME
  2

  9
$UCSORG
 10
0.0
 20
0.0
 30
0.0
  9
$UCSXDIR
 10
1.0
 20
0.0
 30
0.0
  9
$UCSYDIR
 10
0.0
 20
1.0
 30
0.0
  9
$UCSORTHOREF
  2

  9
$UCSORTHOVIEW
 70
     0
  9
$UCSORGTOP
 10
0.0
 20
0.0
 30
0.0
  9
$UCSORGBOTTOM
 10
0.0
 20
0.0
 30
0.0
  9
$UCSORGLEFT
 10
0.0
 20
0.0
 30
0.0
  9
$UCSORGRIGHT
 10
0.0
 20
0.0
 30
0.0
  9
$UCSORGFRONT
 10
0.0
 20
0.0
 30
0.0
  9
$UCSORGBACK
 10
0.0
 20
0.0
 30
0.0
  9
$PUCSBASE
  2

  9
$PUCSNAME
  2

  9
$PUCSORG
 10
0.0
 20
0.0
 30
0.0
  9
$PUCSXDIR
 10
1.0
 20
0.0
 30
0.0
  9
$PUCSYDIR
 10
0.0
 20
1.0
 30
0.0
  9
$PUCSORTHOREF
  2

  9
$PUCSORTHOVIEW
 70
     0
  9
$PUCSORGTOP
 10
0.0
 20
0.0
 30
0.0
  9
$PUCSORGBOTTOM
 10
0.0
 20
0.0
 30
0.0
  9
$PUCSORGLEFT
 10
0.0
 20
0.0
 30
0.0
  9
$PUCSORGRIGHT
 10
0.0
 20
0.0
 30
0.0
  9
$PUCSORGFRONT
 10
0.0
 20
0.0
 30
0.0
  9
$PUCSORGBACK
 10
0.0
 20
0.0
 30
0.0
  9
$USERI1
 70
     0
  9
$USERI2
 70
     0
  9
$USERI3
 70
     0
  9
$USERI4
 70
     0
  9
$USERI5
 70
     0
  9
$USERR1
 40
0.0
  9
$USERR2
 40
0.0
  9
$USERR3
 40
0.0
  9
$USERR4
 40
0.0
  9
$USERR5
 40
0.0
  9
$WORLDVIEW
 70
     1
  9
$SHADEDGE
 70
     3
  9
$SHADEDIF
 70
    70
  9
$TILEMODE
 70
     1
  9
$MAXACTVP
 70
    64
  9
$PINSBASE
 10
0.0
 20
0.0
 30
0.0
  9
$PLIMCHECK
 70
     0
  9
$PEXTMIN
 10
1.000000000000000E+20
 20
1.000000000000000E+20
 30
1.000000000000000E+20
  9
$PEXTMAX
 10
-1.000000000000000E+20
 20
-1.000000000000000E+20
 30
-1.000000000000000E+20
  9
$PLIMMIN
 10
0.0
 20
0.0
  9
$PLIMMAX
 10
12.0
 20
9.0
  9
$UNITMODE
 70
     0
  9
$VISRETAIN
 70
     1
  9
$PLINEGEN
 70
     0
  9
$PSLTSCALE
 70
     1
  9
$TREEDEPTH
 70
  3020
  9
$CMLSTYLE
  2
Standard
  9
$CMLJUST
 70
     0
  9
$CMLSCALE
 40
1.0
  9
$PROXYGRAPHICS
 70
     1
  9
$MEASUREMENT
 70
     0
  9
$CELWEIGHT
370
    -1
  9
$ENDCAPS
280
     0
  9
$JOINSTYLE
280
     0
  9
$LWDISPLAY
290
     0
  9
$INSUNITS
 70
     5
  9
$HYPERLINKBASE
  1

  9
$STYLESHEET
  1

  9
$XEDIT
290
     1
  9
$CEPSNTYPE
380
     0
  9
$PSTYLEMODE
290
     1
  9
$FINGERPRINTGUID
  2
{3114DF78-9675-4B02-90C1-3B9CF0BF83B2}
  9
$VERSIONGUID
  2
{FAEB1C32-E019-11D5-929B-00C0DF256EC4}
  9
$EXTNAMES
290
     1
  9
$PSVPSCALE
 40
0.0
  9
$OLESTARTUP
290
     0
  9
$SORTENTS
280
   127
  9
$INDEXCTL
280
     0
  9
$HIDETEXT
280
     1
  9
$XCLIPFRAME
290
     0
  9
$HALOGAP
280
     0
  9
$OBSCOLOR
 70
   257
  9
$OBSLTYPE
280
     0
  9
$INTERSECTIONDISPLAY
280
     0
  9
$INTERSECTIONCOLOR
 70
   257
  9
$DIMASSOC
280
     2
  9
$PROJECTNAME
  1

  9
$CAMERADISPLAY
290
     0
  9
$LENSLENGTH
 40
50.0
  9
$CAMERAHEIGHT
 40
0.0
  9
$STEPSPERSEC
 40
2.0
  9
$STEPSIZE
 40
6.0
  9
$3DDWFPREC
 40
2.0
  9
$PSOLWIDTH
 40
0.25
  9
$PSOLHEIGHT
 40
4.0
  9
$LOFTANG1
 40
1.570796326794897
  9
$LOFTANG2
 40
1.570796326794897
  9
$LOFTMAG1
 40
0.0
  9
$LOFTMAG2
 40
0.0
  9
$LOFTPARAM
 70
     7
  9
$LOFTNORMALS
280
     1
  9
$LATITUDE
 40
37.795
  9
$LONGITUDE
 40
-122.394
  9
$NORTHDIRECTION
 40
0.0
  9
$TIMEZONE
 70
 -8000
  9
$LIGHTGLYPHDISPLAY
280
     1
  9
$TILEMODELIGHTSYNCH
280
     1
  9
$SOLIDHIST
280
     1
  9
$SHOWHIST
280
     1
  9
$DWFFRAME
280
     2
  9
$DGNFRAME
280
     2
  9
$REALWORLDSCALE
290
     1
  9
$INTERFERECOLOR
 62
   256
  9
$CSHADOW
280
     0
  9
$SHADOWPLANELOCATION
 40
0.0
  0
ENDSEC
  0
SECTION
  2
CLASSES
  0
CLASS
  1
ACDBDICTIONARYWDFLT
  2
AcDbDictionaryWithDefault
  3
ObjectDBX Classes
 90
        0
 91
        3
280
     0
281
     0
  0
CLASS
  1
VISUALSTYLE
  2
AcDbVisualStyle
  3
ObjectDBX Classes
 90
     4095
 91
        3
280
     0
281
     0
  0
CLASS
  1
SCALE
  2
AcDbScale
  3
ObjectDBX Classes
 90
     1153
 91
        3
280
     0
281
     0
  0
ENDSEC
  0
SECTION
  2
TABLES
  0
TABLE
  2
VPORT
  5
8
330
0
100
AcDbSymbolTable
 70
     1
  0
VPORT
  5
29
330
8
100
AcDbSymbolTableRecord
100
AcDbViewportTableRecord
  2
*Active
 70
     0
 10
0.0
 20
0.0
 11
1.0
 21
1.0
 12
10.42990654205607
 22
4.5
 13
0.0
 23
0.0
 14
0.5
 24
0.5
 15
0.5
 25
0.5
 16
0.0
 26
0.0
 36
1.0
 17
0.0
 27
0.0
 37
0.0
 40
9.0
 41
1.972972972850329
 42
50.0
 43
0.0
 44
0.0
 50
0.0
 51
0.0
 71
     0
 72
   100
 73
     1
 74
     3
 75
     0
 76
     0
 77
     0
 78
     0
281
     0
 65
     1
110
0.0
120
0.0
130
0.0
111
1.0
121
0.0
131
0.0
112
0.0
122
1.0
132
0.0
 79
     0
146
0.0
 60
     3
 61
     5
292
     1
282
     1
141
0.0
142
0.0
 63
   256
  0
ENDTAB
  0
TABLE
  2
LTYPE
  5
5
330
0
100
AcDbSymbolTable
 70
     1
  0
LTYPE
  5
14
330
5
100
AcDbSymbolTableRecord
100
AcDbLinetypeTableRecord
  2
ByBlock
 70
     0
  3

 72
    65
 73
     0
 40
0.0
  0
LTYPE
  5
15
330
5
100
AcDbSymbolTableRecord
100
AcDbLinetypeTableRecord
  2
ByLayer
 70
     0
  3

 72
    65
 73
     0
 40
0.0
  0
LTYPE
  5
16
330
5
100
AcDbSymbolTableRecord
100
AcDbLinetypeTableRecord
  2
Continuous
 70
     0
  3
Solid line
 72
    65
 73
     0
 40
0.0
  0
ENDTAB
  0
TABLE
  2
LAYER
  5
2
330
0
100
AcDbSymbolTable
 70
     2
  0
LAYER
  5
10
330
2
100
AcDbSymbolTableRecord
100
AcDbLayerTableRecord
  2
0
 70
     0
 62
     7
  6
Continuous
370
    -3
390
F
347
0
  0
LAYER
  5
5E
330
2
100
AcDbSymbolTableRecord
100
AcDbLayerTableRecord
  2
layer 1
 70
     0
 62
     7
  6
Continuous
370
    -3
390
F
347
0
  0
ENDTAB
  0
TABLE
  2
STYLE
  5
3
330
0
100
AcDbSymbolTable
 70
     1
  0
STYLE
  5
11
330
3
100
AcDbSymbolTableRecord
100
AcDbTextStyleTableRecord
  2
Standard
 70
     0
 40
0.0
 41
1.0
 50
0.0
 71
     0
 42
0.2
  3
txt
  4

  0
ENDTAB
  0
TABLE
  2
VIEW
  5
6
330
0
100
AcDbSymbolTable
 70
     0
  0
ENDTAB
  0
TABLE
  2
UCS
  5
7
330
0
100
AcDbSymbolTable
 70
     0
  0
ENDTAB
  0
TABLE
  2
APPID
  5
9
330
0
100
AcDbSymbolTable
 70
     2
  0
APPID
  5
12
330
9
100
AcDbSymbolTableRecord
100
AcDbRegAppTableRecord
  2
ACAD
 70
     0
  0
APPID
  5
5D
330
9
100
AcDbSymbolTableRecord
100
AcDbRegAppTableRecord
  2
ODA
 70
     0
  0
ENDTAB
  0
TABLE
  2
DIMSTYLE
  5
A
330
0
100
AcDbSymbolTable
 70
     1
100
AcDbDimStyleTable
  0
DIMSTYLE
105
27
330
A
100
AcDbSymbolTableRecord
100
AcDbDimStyleTableRecord
  2
Standard
 70
     0
340
11
  0
ENDTAB
  0
TABLE
  2
BLOCK_RECORD
  5
1
330
0
100
AcDbSymbolTable
 70
     1
  0
BLOCK_RECORD
  5
1F
330
1
100
AcDbSymbolTableRecord
100
AcDbBlockTableRecord
  2
*Model_Space
340
22
 70
     0
280
     1
281
     0
  0
BLOCK_RECORD
  5
1B
330
1
100
AcDbSymbolTableRecord
100
AcDbBlockTableRecord
  2
*Paper_Space
340
1E
 70
     0
280
     1
281
     0
  0
BLOCK_RECORD
  5
23
330
1
100
AcDbSymbolTableRecord
100
AcDbBlockTableRecord
  2
*Paper_Space0
340
26
 70
     0
280
     1
281
     0
  0
ENDTAB
  0
ENDSEC
  0
SECTION
  2
BLOCKS
  0
BLOCK
  5
20
330
1F
100
AcDbEntity
  8
0
100
AcDbBlockBegin
  2
*Model_Space
 70
     0
 10
0.0
 20
0.0
 30
0.0
  3
*Model_Space
  1

  0
ENDBLK
  5
21
330
1F
100
AcDbEntity
  8
0
100
AcDbBlockEnd
  0
BLOCK
  5
1C
330
1B
100
AcDbEntity
 67
     1
  8
0
100
AcDbBlockBegin
  2
*Paper_Space
 70
     0
 10
0.0
 20
0.0
 30
0.0
  3
*Paper_Space
  1

  0
ENDBLK
  5
1D
330
1B
100
AcDbEntity
 67
     1
  8
0
100
AcDbBlockEnd
  0
BLOCK
  5
24
330
23
100
AcDbEntity
  8
0
100
AcDbBlockBegin
  2
*Paper_Space0
 70
     0
 10
0.0
 20
0.0
 30
0.0
  3
*Paper_Space0
  1

  0
ENDBLK
  5
25
330
23
100
AcDbEntity
  8
0
100
AcDbBlockEnd
  0
ENDSEC
  0
SECTION
  2
ENTITIES
  0
SPLINE
  5
5F
330
1F
100
AcDbEntity
  8
layer 1
 62
    22
370
     9
100
AcDbSpline
210
0.0
220
0.0
230
1.0
 70
    11
 71
     3
 72
    20
 73
    16
 74
     0
 42
0.0000000001
 43
0.0000000001
 40
0.0
 40
0.0
 40
0.0
 40
0.0
 40
0.25
 40
0.25
 40
0.25
 40
0.25
 40
0.5
 40
0.5
 40
0.5
 40
0.5
 40
0.75
 40
0.75
 40
0.75
 40
0.75
 40
1.0
 40
1.0
 40
1.0
 40
1.0
 10
-0.64316
 20
-0.43242
 30
0.0
 10
-0.78772
 20
-0.44502
 30
0.0
 10
-0.75681
 20
-0.63848
 30
0.0
 10
-0.64291
 20
-0.6405
 30
0.0
 10
-0.64291
 20
-0.6405
 30
0.0
 10
-0.36959
 20
-0.64666
 30
0.0
 10
-0.09629
 20
-0.65285
 30
0.0
 10
0.17703
 20
-0.65903
 30
0.0
 10
0.17703
 20
-0.65903
 30
0.0
 10
0.30576
 20
-0.62856
 30
0.0
 10
0.28715
 20
-0.46414
 30
0.0
 10
0.16889
 20
-0.44761
 30
0.0
 10
0.16889
 20
-0.44761
 30
0.0
 10
-0.10179
 20
-0.44253
 30
0.0
 10
-0.37248
 20
-0.43747
 30
0.0
 10
-0.64316
 20
-0.43242
 30
0.0
  0
SPLINE
  5
60
330
1F
100
AcDbEntity
  8
layer 1
 62
    22
370
     9
100
AcDbSpline
210
0.0
220
0.0
230
1.0
 70
    11
 71
     3
 72
    20
 73
    16
 74
     0
 42
0.0000000001
 43
0.0000000001
 40
0.0
 40
0.0
 40
0.0
 40
0.0
 40
0.25
 40
0.25
 40
0.25
 40
0.25
 40
0.5
 40
0.5
 40
0.5
 40
0.5
 40
0.75
 40
0.75
 40
0.75
 40
0.75
 40
1.0
 40
1.0
 40
1.0
 40
1.0
 10
-0.22043
 20
-1.27678
 30
0.0
 10
-0.26334
 20
-1.59547
 30
0.0
 10
-0.34815
 20
-1.88797
 30
0.0
 10
-0.52523
 20
-2.1229
 30
0.0
 10
-0.52523
 20
-2.1229
 30
0.0
 10
-0.36692
 20
-2.27092
 30
0.0
 10
-0.25699
 20
-2.47988
 30
0.0
 10
-0.17675
 20
-2.72614
 30
0.0
 10
-0.17675
 20
-2.72614
 30
0.0
 10
-0.13799
 20
-2.46697
 30
0.0
 10
-0.05726
 20
-2.24276
 30
0.0
 10
0.11575
 20
-2.09542
 30
0.0
 10
0.11575
 20
-2.09542
 30
0.0
 10
-0.07171
 20
-1.85418
 30
0.0
 10
-0.16701
 20
-1.57427
 30
0.0
 10
-0.22043
 20
-1.27678
 30
0.0
  0
SPLINE
  5
61
330
1F
100
AcDbEntity
  8
layer 1
 62
    22
370
     9
100
AcDbSpline
210
0.0
220
0.0
230
1.0
 70
    11
 71
     3
 72
    20
 73
    16
 74
     0
 42
0.0000000001
 43
0.0000000001
 40
0.0
 40
0.0
 40
0.0
 40
0.0
 40
0.25
 40
0.25
 40
0.25
 40
0.25
 40
0.5
 40
0.5
 40
0.5
 40
0.5
 40
0.75
 40
0.75
 40
0.75
 40
0.75
 40
1.0
 40
1.0
 40
1.0
 40
1.0
 10
6.00864
 20
-2.81178
 30
0.0
 10
5.91659
 20
-2.92969
 30
0.0
 10
5.91682
 20
-3.12172
 30
0.0
 10
6.00915
 20
-3.23926
 30
0.0
 10
6.00915
 20
-3.23926
 30
0.0
 10
6.10147
 20
-3.3568
 30
0.0
 10
6.25182
 20
-3.3565
 30
0.0
 10
6.34385
 20
-3.23861
 30
0.0
 10
6.34385
 20
-3.23861
 30
0.0
 10
6.4359
 20
-3.12072
 30
0.0
 10
6.43565
 20
-2.92866
 30
0.0
 10
6.34334
 20
-2.81112
 30
0.0
 10
6.34334
 20
-2.81112
 30
0.0
 10
6.25102
 20
-2.69358
 30
0.0
 10
6.10067
 20
-2.69387
 30
0.0
 10
6.00864
 20
-2.81178
 30
0.0
  0
SPLINE
  5
62
330
1F
100
AcDbEntity
  8
layer 1
 62
    22
370
     9
100
AcDbSpline
210
0.0
220
0.0
230
1.0
 70
    11
 71
     3
 72
    16
 73
    12
 74
     0
 42
0.0000000001
 43
0.0000000001
 40
0.0
 40
0.0
 40
0.0
 40
0.0
 40
0.3333333333333333
 40
0.3333333333333333
 40
0.3333333333333333
 40
0.3333333333333333
 40
0.6666666666666666
 40
0.6666666666666666
 40
0.6666666666666666
 40
0.6666666666666666
 40
1.0
 40
1.0
 40
1.0
 40
1.0
 10
-1.02022
 20
1.90166
 30
0.0
 10
-0.96605
 20
1.97876
 30
0.0
 10
-0.8139
 20
1.79274
 30
0.0
 10
-0.71077
 20
1.73827
 30
0.0
 10
-0.71077
 20
1.73827
 30
0.0
 10
-0.64318
 20
1.68298
 30
0.0
 10
-0.70569
 20
1.53503
 30
0.0
 10
-0.70316
 20
1.43341
 30
0.0
 10
-0.70316
 20
1.43341
 30
0.0
 10
-0.86118
 20
1.12765
 30
0.0
 10
-1.15799
 20
1.55397
 30
0.0
 10
-1.02022
 20
1.90166
 30
0.0
  0
SPLINE
  5
63
330
1F
100
AcDbEntity
  8
layer 1
 62
    22
370
     9
100
AcDbSpline
210
0.0
220
0.0
230
1.0
 70
    11
 71
     3
 72
    12
 73
     8
 74
     0
 42
0.0000000001
 43
0.0000000001
 40
0.0
 40
0.0
 40
0.0
 40
0.0
 40
0.5
 40
0.5
 40
0.5
 40
0.5
 40
1.0
 40
1.0
 40
1.0
 40
1.0
 10
0.52178
 20
1.72396
 30
0.0
 10
0.38411
 20
1.8032
 30
0.0
 10
0.01616
 20
1.51614
 30
0.0
 10
0.2387
 20
1.26121
 30
0.0
 10
0.2387
 20
1.26121
 30
0.0
 10
0.44825
 20
1.05714
 30
0.0
 10
0.62777
 20
1.58466
 30
0.0
 10
0.52178
 20
1.72396
 30
0.0
  0
SPLINE
  5
64
330
1F
100
AcDbEntity
  8
layer 1
 62
    22
370
     9
100
AcDbSpline
210
0.0
220
0.0
230
1.0
 70
    11
 71
     3
 72
    12
 73
     8
 74
     0
 42
0.0000000001
 43
0.0000000001
 40
0.0
 40
0.0
 40
0.0
 40
0.0
 40
0.5
 40
0.5
 40
0.5
 40
0.5
 40
1.0
 40
1.0
 40
1.0
 40
1.0
 10
-0.35229
 20
3.33987
 30
0.0
 10
-0.06477
 20
3.33662
 30
0.0
 10
-0.11163
 20
2.20737
 30
0.0
 10
-0.31009
 20
2.1387
 30
0.0
 10
-0.31009
 20
2.1387
 30
0.0
 10
-0.462
 20
2.20624
 30
0.0
 10
-0.54612
 20
3.2231
 30
0.0
 10
-0.35229
 20
3.33987
 30
0.0
  0
SPLINE
  5
65
330
1F
100
AcDbEntity
  8
layer 1
 62
    22
370
     9
100
AcDbSpline
210
0.0
220
0.0
230
1.0
 70
    11
 71
     3
 72
    20
 73
    16
 74
     0
 42
0.0000000001
 43
0.0000000001
 40
0.0
 40
0.0
 40
0.0
 40
0.0
 40
0.25
 40
0.25
 40
0.25
 40
0.25
 40
0.5
 40
0.5
 40
0.5
 40
0.5
 40
0.75
 40
0.75
 40
0.75
 40
0.75
 40
1.0
 40
1.0
 40
1.0
 40
1.0
 10
-6.38877
 20
-2.76602
 30
0.0
 10
-6.29646
 20
-2.88356
 30
0.0
 10
-6.29622
 20
-3.07557
 30
0.0
 10
-6.38826
 20
-3.19349
 30
0.0
 10
-6.38826
 20
-3.19349
 30
0.0
 10
-6.48029
 20
-3.3114
 30
0.0
 10
-6.63066
 20
-3.3117
 30
0.0
 10
-6.72297
 20
-3.19414
 30
0.0
 10
-6.72297
 20
-3.19414
 30
0.0
 10
-6.81529
 20
-3.0766
 30
0.0
 10
-6.81553
 20
-2.88457
 30
0.0
 10
-6.72349
 20
-2.76667
 30
0.0
 10
-6.72349
 20
-2.76667
 30
0.0
 10
-6.63146
 20
-2.64877
 30
0.0
 10
-6.4811
 20
-2.64848
 30
0.0
 10
-6.38877
 20
-2.76602
 30
0.0
  0
SPLINE
  5
66
330
1F
100
AcDbEntity
  8
layer 1
 62
    22
370
     9
100
AcDbSpline
210
0.0
220
0.0
230
1.0
 70
    11
 71
     3
 72
   352
 73
   348
 74
     0
 42
0.0000000001
 43
0.0000000001
 40
0.0
 40
0.0
 40
0.0
 40
0.0
 40
0.0114942528735632
 40
0.0114942528735632
 40
0.0114942528735632
 40
0.0114942528735632
 40
0.0229885057471264
 40
0.0229885057471264
 40
0.0229885057471264
 40
0.0229885057471264
 40
0.0344827586206897
 40
0.0344827586206897
 40
0.0344827586206897
 40
0.0344827586206897
 40
0.0459770114942529
 40
0.0459770114942529
 40
0.0459770114942529
 40
0.0459770114942529
 40
0.0574712643678161
 40
0.0574712643678161
 40
0.0574712643678161
 40
0.0574712643678161
 40
0.0689655172413793
 40
0.0689655172413793
 40
0.0689655172413793
 40
0.0689655172413793
 40
0.0804597701149425
 40
0.0804597701149425
 40
0.0804597701149425
 40
0.0804597701149425
 40
0.0919540229885057
 40
0.0919540229885057
 40
0.0919540229885057
 40
0.0919540229885057
 40
0.103448275862069
 40
0.103448275862069
 40
0.103448275862069
 40
0.103448275862069
 40
0.1149425287356322
 40
0.1149425287356322
 40
0.1149425287356322
 40
0.1149425287356322
 40
0.1264367816091954
 40
0.1264367816091954
 40
0.1264367816091954
 40
0.1264367816091954
 40
0.1379310344827586
 40
0.1379310344827586
 40
0.1379310344827586
 40
0.1379310344827586
 40
0.1494252873563219
 40
0.1494252873563219
 40
0.1494252873563219
 40
0.1494252873563219
 40
0.1609195402298851
 40
0.1609195402298851
 40
0.1609195402298851
 40
0.1609195402298851
 40
0.1724137931034483
 40
0.1724137931034483
 40
0.1724137931034483
 40
0.1724137931034483
 40
0.1839080459770116
 40
0.1839080459770116
 40
0.1839080459770116
 40
0.1839080459770116
 40
0.1954022988505748
 40
0.1954022988505748
 40
0.1954022988505748
 40
0.1954022988505748
 40
0.206896551724138
 40
0.206896551724138
 40
0.206896551724138
 40
0.206896551724138
 40
0.2183908045977013
 40
0.2183908045977013
 40
0.2183908045977013
 40
0.2183908045977013
 40
0.2298850574712645
 40
0.2298850574712645
 40
0.2298850574712645
 40
0.2298850574712645
 40
0.2413793103448277
 40
0.2413793103448277
 40
0.2413793103448277
 40
0.2413793103448277
 40
0.2528735632183909
 40
0.2528735632183909
 40
0.2528735632183909
 40
0.2528735632183909
 40
0.2643678160919541
 40
0.2643678160919541
 40
0.2643678160919541
 40
0.2643678160919541
 40
0.2758620689655173
 40
0.2758620689655173
 40
0.2758620689655173
 40
0.2758620689655173
 40
0.2873563218390806
 40
0.2873563218390806
 40
0.2873563218390806
 40
0.2873563218390806
 40
0.2988505747126438
 40
0.2988505747126438
 40
0.2988505747126438
 40
0.2988505747126438
 40
0.310344827586207
 40
0.310344827586207
 40
0.310344827586207
 40
0.310344827586207
 40
0.3218390804597702
 40
0.3218390804597702
 40
0.3218390804597702
 40
0.3218390804597702
 40
0.3333333333333334
 40
0.3333333333333334
 40
0.3333333333333334
 40
0.3333333333333334
 40
0.3448275862068966
 40
0.3448275862068966
 40
0.3448275862068966
 40
0.3448275862068966
 40
0.3563218390804598
 40
0.3563218390804598
 40
0.3563218390804598
 40
0.3563218390804598
 40
0.367816091954023
 40
0.367816091954023
 40
0.367816091954023
 40
0.367816091954023
 40
0.3793103448275862
 40
0.3793103448275862
 40
0.3793103448275862
 40
0.3793103448275862
 40
0.3908045977011494
 40
0.3908045977011494
 40
0.3908045977011494
 40
0.3908045977011494
 40
0.4022988505747126
 40
0.4022988505747126
 40
0.4022988505747126
 40
0.4022988505747126
 40
0.4137931034482758
 40
0.4137931034482758
 40
0.4137931034482758
 40
0.4137931034482758
 40
0.425287356321839
 40
0.425287356321839
 40
0.425287356321839
 40
0.425287356321839
 40
0.4367816091954022
 40
0.4367816091954022
 40
0.4367816091954022
 40
0.4367816091954022
 40
0.4482758620689654
 40
0.4482758620689654
 40
0.4482758620689654
 40
0.4482758620689654
 40
0.4597701149425286
 40
0.4597701149425286
 40
0.4597701149425286
 40
0.4597701149425286
 40
0.4712643678160918
 40
0.4712643678160918
 40
0.4712643678160918
 40
0.4712643678160918
 40
0.482758620689655
 40
0.482758620689655
 40
0.482758620689655
 40
0.482758620689655
 40
0.4942528735632182
 40
0.4942528735632182
 40
0.4942528735632182
 40
0.4942528735632182
 40
0.5057471264367814
 40
0.5057471264367814
 40
0.5057471264367814
 40
0.5057471264367814
 40
0.5172413793103446
 40
0.5172413793103446
 40
0.5172413793103446
 40
0.5172413793103446
 40
0.5287356321839078
 40
0.5287356321839078
 40
0.5287356321839078
 40
0.5287356321839078
 40
0.540229885057471
 40
0.540229885057471
 40
0.540229885057471
 40
0.540229885057471
 40
0.5517241379310343
 40
0.5517241379310343
 40
0.5517241379310343
 40
0.5517241379310343
 40
0.5632183908045975
 40
0.5632183908045975
 40
0.5632183908045975
 40
0.5632183908045975
 40
0.5747126436781607
 40
0.5747126436781607
 40
0.5747126436781607
 40
0.5747126436781607
 40
0.5862068965517239
 40
0.5862068965517239
 40
0.5862068965517239
 40
0.5862068965517239
 40
0.5977011494252871
 40
0.5977011494252871
 40
0.5977011494252871
 40
0.5977011494252871
 40
0.6091954022988503
 40
0.6091954022988503
 40
0.6091954022988503
 40
0.6091954022988503
 40
0.6206896551724135
 40
0.6206896551724135
 40
0.6206896551724135
 40
0.6206896551724135
 40
0.6321839080459767
 40
0.6321839080459767
 40
0.6321839080459767
 40
0.6321839080459767
 40
0.6436781609195399
 40
0.6436781609195399
 40
0.6436781609195399
 40
0.6436781609195399
 40
0.6551724137931031
 40
0.6551724137931031
 40
0.6551724137931031
 40
0.6551724137931031
 40
0.6666666666666663
 40
0.6666666666666663
 40
0.6666666666666663
 40
0.6666666666666663
 40
0.6781609195402295
 40
0.6781609195402295
 40
0.6781609195402295
 40
0.6781609195402295
 40
0.6896551724137927
 40
0.6896551724137927
 40
0.6896551724137927
 40
0.6896551724137927
 40
0.7011494252873559
 40
0.7011494252873559
 40
0.7011494252873559
 40
0.7011494252873559
 40
0.7126436781609191
 40
0.7126436781609191
 40
0.7126436781609191
 40
0.7126436781609191
 40
0.7241379310344823
 40
0.7241379310344823
 40
0.7241379310344823
 40
0.7241379310344823
 40
0.7356321839080455
 40
0.7356321839080455
 40
0.7356321839080455
 40
0.7356321839080455
 40
0.7471264367816087
 40
0.7471264367816087
 40
0.7471264367816087
 40
0.7471264367816087
 40
0.7586206896551719
 40
0.7586206896551719
 40
0.7586206896551719
 40
0.7586206896551719
 40
0.7701149425287351
 40
0.7701149425287351
 40
0.7701149425287351
 40
0.7701149425287351
 40
0.7816091954022983
 40
0.7816091954022983
 40
0.7816091954022983
 40
0.7816091954022983
 40
0.7931034482758615
 40
0.7931034482758615
 40
0.7931034482758615
 40
0.7931034482758615
 40
0.8045977011494247
 40
0.8045977011494247
 40
0.8045977011494247
 40
0.8045977011494247
 40
0.816091954022988
 40
0.816091954022988
 40
0.816091954022988
 40
0.816091954022988
 40
0.8275862068965512
 40
0.8275862068965512
 40
0.8275862068965512
 40
0.8275862068965512
 40
0.8390804597701144
 40
0.8390804597701144
 40
0.8390804597701144
 40
0.8390804597701144
 40
0.8505747126436776
 40
0.8505747126436776
 40
0.8505747126436776
 40
0.8505747126436776
 40
0.8620689655172408
 40
0.8620689655172408
 40
0.8620689655172408
 40
0.8620689655172408
 40
0.873563218390804
 40
0.873563218390804
 40
0.873563218390804
 40
0.873563218390804
 40
0.8850574712643672
 40
0.8850574712643672
 40
0.8850574712643672
 40
0.8850574712643672
 40
0.8965517241379304
 40
0.8965517241379304
 40
0.8965517241379304
 40
0.8965517241379304
 40
0.9080459770114936
 40
0.9080459770114936
 40
0.9080459770114936
 40
0.9080459770114936
 40
0.9195402298850568
 40
0.9195402298850568
 40
0.9195402298850568
 40
0.9195402298850568
 40
0.93103448275862
 40
0.93103448275862
 40
0.93103448275862
 40
0.93103448275862
 40
0.9425287356321832
 40
0.9425287356321832
 40
0.9425287356321832
 40
0.9425287356321832
 40
0.9540229885057464
 40
0.9540229885057464
 40
0.9540229885057464
 40
0.9540229885057464
 40
0.9655172413793096
 40
0.9655172413793096
 40
0.9655172413793096
 40
0.9655172413793096
 40
0.9770114942528728
 40
0.9770114942528728
 40
0.9770114942528728
 40
0.9770114942528728
 40
0.988505747126436
 40
0.988505747126436
 40
0.988505747126436
 40
0.988505747126436
 40
1.0
 40
1.0
 40
1.0
 40
1.0
 10
-0.43708
 20
-0.11303
 30
0.0
 10
-0.95189
 20
1.04935
 30
0.0
 10
-2.03488
 20
1.90225
 30
0.0
 10
-3.35752
 20
0.1531
 30
0.0
 10
-3.35752
 20
0.1531
 30
0.0
 10
-3.35813
 20
0.1523
 30
0.0
 10
-3.35868
 20
0.15153
 30
0.0
 10
-3.35927
 20
0.15072
 30
0.0
 10
-3.35927
 20
0.15072
 30
0.0
 10
-3.42028
 20
0.22214
 30
0.0
 10
-3.52689
 20
0.29761
 30
0.0
 10
-3.60372
 20
0.36408
 30
0.0
 10
-3.60372
 20
0.36408
 30
0.0
 10
-3.85038
 20
0.0495
 30
0.0
 10
-4.03216
 20
-0.1577
 30
0.0
 10
-4.31683
 20
-0.4791
 30
0.0
 10
-4.31683
 20
-0.4791
 30
0.0
 10
-4.41937
 20
-0.61931
 30
0.0
 10
-4.51634
 20
-0.53363
 30
0.0
 10
-4.44107
 20
-0.34547
 30
0.0
 10
-4.44107
 20
-0.34547
 30
0.0
 10
-4.10351
 20
0.17846
 30
0.0
 10
-4.28009
 20
0.65376
 30
0.0
 10
-4.78895
 20
0.70403
 30
0.0
 10
-4.78895
 20
0.70403
 30
0.0
 10
-5.1103
 20
0.72028
 30
0.0
 10
-5.0295
 20
0.45925
 30
0.0
 10
-5.06923
 20
0.23797
 30
0.0
 10
-5.06923
 20
0.23797
 30
0.0
 10
-5.32537
 20
-0.36195
 30
0.0
 10
-5.85956
 20
-0.16283
 30
0.0
 10
-5.78683
 20
0.70969
 30
0.0
 10
-5.78683
 20
0.70969
 30
0.0
 10
-6.12438
 20
0.13951
 30
0.0
 10
-5.84102
 20
-0.81897
 30
0.0
 10
-4.82332
 20
-0.53229
 30
0.0
 10
-4.82332
 20
-0.53229
 30
0.0
 10
-4.62174
 20
-0.51433
 30
0.0
 10
-4.67013
 20
-1.03916
 30
0.0
 10
-5.13337
 20
-1.08235
 30
0.0
 10
-5.13337
 20
-1.08235
 30
0.0
 10
-5.42088
 20
-1.04408
 30
0.0
 10
-5.68727
 20
-0.91351
 30
0.0
 10
-6.05933
 20
-1.24443
 30
0.0
 10
-6.05933
 20
-1.24443
 30
0.0
 10
-5.78787
 20
-1.7323
 30
0.0
 10
-5.87515
 20
-2.02753
 30
0.0
 10
-6.32118
 20
-2.13016
 30
0.0
 10
-6.32118
 20
-2.13016
 30
0.0
 10
-5.28567
 20
-2.31305
 30
0.0
 10
-4.44047
 20
-1.14708
 30
0.0
 10
-3.71808
 20
-0.09233
 30
0.0
 10
-3.71808
 20
-0.09233
 30
0.0
 10
-3.68598
 20
-0.13317
 30
0.0
 10
-3.65391
 20
-0.17404
 30
0.0
 10
-3.62181
 20
-0.2149
 30
0.0
 10
-3.62181
 20
-0.2149
 30
0.0
 10
-5.62022
 20
-3.02748
 30
0.0
 10
-6.6512
 20
-5.12102
 30
0.0
 10
-8.42759
 20
-3.13209
 30
0.0
 10
-8.42759
 20
-3.13209
 30
0.0
 10
-8.5358
 20
-3.3477
 30
0.0
 10
-8.48263
 20
-3.58989
 30
0.0
 10
-8.07447
 20
-3.89046
 30
0.0
 10
-8.07447
 20
-3.89046
 30
0.0
 10
-8.01442
 20
-3.94216
 30
0.0
 10
-8.02171
 20
-3.97966
 30
0.0
 10
-8.09635
 20
-4.00297
 30
0.0
 10
-8.09635
 20
-4.00297
 30
0.0
 10
-8.20378
 20
-4.0402
 30
0.0
 10
-8.35748
 20
-4.07557
 30
0.0
 10
-8.43971
 20
-4.07679
 30
0.0
 10
-8.43971
 20
-4.07679
 30
0.0
 10
-7.96076
 20
-4.50315
 30
0.0
 10
-7.63495
 20
-4.43522
 30
0.0
 10
-6.89634
 20
-4.23958
 30
0.0
 10
-6.89634
 20
-4.23958
 30
0.0
 10
-6.87955
 20
-4.29316
 30
0.0
 10
-6.85855
 20
-4.35207
 30
0.0
 10
-6.82915
 20
-4.38953
 30
0.0
 10
-6.82915
 20
-4.38953
 30
0.0
 10
-6.01983
 20
-3.76662
 30
0.0
 10
-5.31271
 20
-3.02768
 30
0.0
 10
-4.71943
 20
-2.26735
 30
0.0
 10
-4.71943
 20
-2.26735
 30
0.0
 10
-4.63128
 20
-2.15894
 30
0.0
 10
-4.62388
 20
-2.2058
 30
0.0
 10
-4.69725
 20
-2.40788
 30
0.0
 10
-4.69725
 20
-2.40788
 30
0.0
 10
-4.72573
 20
-2.8169
 30
0.0
 10
-4.70111
 20
-2.89185
 30
0.0
 10
-4.5204
 20
-3.02602
 30
0.0
 10
-4.5204
 20
-3.02602
 30
0.0
 10
-4.70309
 20
-2.1681
 30
0.0
 10
-3.61778
 20
-0.06555
 30
0.0
 10
-2.42855
 20
0.80229
 30
0.0
 10
-2.42855
 20
0.80229
 30
0.0
 10
-2.33762
 20
0.78259
 30
0.0
 10
-2.3339
 20
0.74043
 30
0.0
 10
-2.4174
 20
0.67581
 30
0.0
 10
-2.4174
 20
0.67581
 30
0.0
 10
-2.67375
 20
0.4148
 30
0.0
 10
-2.97282
 20
0.21442
 30
0.0
 10
-3.05996
 20
-0.16961
 30
0.0
 10
-3.05996
 20
-0.16961
 30
0.0
 10
-2.93372
 20
-0.15734
 30
0.0
 10
-2.80176
 20
-0.06338
 30
0.0
 10
-2.66408
 20
0.1123
 30
0.0
 10
-2.66408
 20
0.1123
 30
0.0
 10
-2.84881
 20
-0.26415
 30
0.0
 10
-2.84723
 20
-0.50794
 30
0.0
 10
-2.71818
 20
-0.66093
 30
0.0
 10
-2.71818
 20
-0.66093
 30
0.0
 10
-1.90212
 20
1.59185
 30
0.0
 10
-1.05574
 20
0.74596
 30
0.0
 10
-0.52802
 20
-0.11133
 30
0.0
 10
-0.52802
 20
-0.11133
 30
0.0
 10
-0.52877
 20
-0.11131
 30
0.0
 10
-0.5295
 20
-0.11128
 30
0.0
 10
-0.53022
 20
-0.11128
 30
0.0
 10
-0.53022
 20
-0.11128
 30
0.0
 10
-0.64301
 20
-0.12111
 30
0.0
 10
-0.61889
 20
-0.27208
 30
0.0
 10
-0.53002
 20
-0.27364
 30
0.0
 10
-0.53002
 20
-0.27364
 30
0.0
 10
-0.31678
 20
-0.27847
 30
0.0
 10
-0.10352
 20
-0.28327
 30
0.0
 10
0.10972
 20
-0.28809
 30
0.0
 10
0.10972
 20
-0.28809
 30
0.0
 10
0.18426
 20
-0.27048
 30
0.0
 10
0.19547
 20
-0.1953
 30
0.0
 10
0.15862
 20
-0.1524
 30
0.0
 10
0.15862
 20
-0.1524
 30
0.0
 10
0.68536
 20
0.69714
 30
0.0
 10
1.52035
 20
1.50424
 30
0.0
 10
2.33297
 20
-0.72114
 30
0.0
 10
2.33297
 20
-0.72114
 30
0.0
 10
2.46167
 20
-0.56762
 30
0.0
 10
2.46267
 20
-0.32385
 30
0.0
 10
2.27703
 20
0.05188
 30
0.0
 10
2.27703
 20
0.05188
 30
0.0
 10
2.41512
 20
-0.12325
 30
0.0
 10
2.5473
 20
-0.21672
 30
0.0
 10
2.67358
 20
-0.22847
 30
0.0
 10
2.67358
 20
-0.22847
 30
0.0
 10
2.58551
 20
0.15522
 30
0.0
 10
2.28598
 20
0.35443
 30
0.0
 10
2.02898
 20
0.61441
 30
0.0
 10
2.02898
 20
0.61441
 30
0.0
 10
1.94533
 20
0.6787
 30
0.0
 10
1.94894
 20
0.72089
 30
0.0
 10
2.03983
 20
0.74096
 30
0.0
 10
2.03983
 20
0.74096
 30
0.0
 10
3.23113
 20
-0.12221
 30
0.0
 10
4.32151
 20
-2.22049
 30
0.0
 10
4.14088
 20
-3.07915
 30
0.0
 10
4.14088
 20
-3.07915
 30
0.0
 10
4.32128
 20
-2.94426
 30
0.0
 10
4.3457
 20
-2.8692
 30
0.0
 10
4.31626
 20
-2.46028
 30
0.0
 10
4.31626
 20
-2.46028
 30
0.0
 10
4.24239
 20
-2.2585
 30
0.0
 10
4.24967
 20
-2.21161
 30
0.0
 10
4.33808
 20
-2.31968
 30
0.0
 10
4.33808
 20
-2.31968
 30
0.0
 10
4.9332
 20
-3.07767
 30
0.0
 10
5.64209
 20
-3.81383
 30
0.0
 10
6.45291
 20
-4.43355
 30
0.0
 10
6.45291
 20
-4.43355
 30
0.0
 10
6.48221
 20
-4.39604
 30
0.0
 10
6.50308
 20
-4.33699
 30
0.0
 10
6.51976
 20
-4.28335
 30
0.0
 10
6.51976
 20
-4.28335
 30
0.0
 10
7.25881
 20
-4.4761
 30
0.0
 10
7.5848
 20
-4.54276
 30
0.0
 10
8.06271
 20
-4.11452
 30
0.0
 10
8.06271
 20
-4.11452
 30
0.0
 10
7.98048
 20
-4.11362
 30
0.0
 10
7.82667
 20
-4.07881
 30
0.0
 10
7.71916
 20
-4.04204
 30
0.0
 10
7.71916
 20
-4.04204
 30
0.0
 10
7.64448
 20
-4.01901
 30
0.0
 10
7.63709
 20
-3.98156
 30
0.0
 10
7.69702
 20
-3.92962
 30
0.0
 10
7.69702
 20
-3.92962
 30
0.0
 10
8.10445
 20
-3.62742
 30
0.0
 10
8.15703
 20
-3.38505
 30
0.0
 10
8.04831
 20
-3.16985
 30
0.0
 10
8.04831
 20
-3.16985
 30
0.0
 10
6.27671
 20
-5.16575
 30
0.0
 10
5.2407
 20
-3.07628
 30
0.0
 10
3.23553
 20
-0.27155
 30
0.0
 10
3.23553
 20
-0.27155
 30
0.0
 10
3.26752
 20
-0.23057
 30
0.0
 10
3.29952
 20
-0.1896
 30
0.0
 10
3.33151
 20
-0.14859
 30
0.0
 10
3.33151
 20
-0.14859
 30
0.0
 10
4.05643
 20
-1.20051
 30
0.0
 10
4.77947
 20
-2.33679
 30
0.0
 10
5.81455
 20
-2.14985
 30
0.0
 10
5.81455
 20
-2.14985
 30
0.0
 10
5.36827
 20
-2.04897
 30
0.0
 10
5.28027
 20
-1.75407
 30
0.0
 10
5.55057
 20
-1.26516
 30
0.0
 10
5.55057
 20
-1.26516
 30
0.0
 10
5.17771
 20
-0.93569
 30
0.0
 10
4.91164
 20
-1.0673
 30
0.0
 10
4.62422
 20
-1.1067
 30
0.0
 10
4.62422
 20
-1.1067
 30
0.0
 10
4.16089
 20
-1.06536
 30
0.0
 10
4.11121
 20
-0.54069
 30
0.0
 10
4.31284
 20
-0.55788
 30
0.0
 10
4.31284
 20
-0.55788
 30
0.0
 10
5.33122
 20
-0.84053
 30
0.0
 10
5.61225
 20
0.119
 30
0.0
 10
5.27335
 20
0.6879
 30
0.0
 10
5.27335
 20
0.6879
 30
0.0
 10
5.34817
 20
-0.18436
 30
0.0
 10
4.81445
 20
-0.38556
 30
0.0
 10
4.55688
 20
0.21335
 30
0.0
 10
4.55688
 20
0.21335
 30
0.0
 10
4.51662
 20
0.43446
 30
0.0
 10
4.5968
 20
0.69584
 30
0.0
 10
4.27551
 20
0.67831
 30
0.0
 10
4.27551
 20
0.67831
 30
0.0
 10
3.76675
 20
0.62605
 30
0.0
 10
3.64507
 20
0.23118
 30
0.0
 10
3.98387
 20
-0.29144
 30
0.0
 10
3.98387
 20
-0.29144
 30
0.0
 10
4.05961
 20
-0.47928
 30
0.0
 10
4.00323
 20
-0.53824
 30
0.0
 10
3.90035
 20
-0.39845
 30
0.0
 10
3.90035
 20
-0.39845
 30
0.0
 10
3.65714
 20
-0.12875
 30
0.0
 10
3.49915
 20
0.04441
 30
0.0
 10
3.27867
 20
0.35812
 30
0.0
 10
3.27867
 20
0.35812
 30
0.0
 10
3.20202
 20
0.29132
 30
0.0
 10
3.03296
 20
0.16469
 30
0.0
 10
2.97213
 20
0.09303
 30
0.0
 10
2.97213
 20
0.09303
 30
0.0
 10
2.97153
 20
0.09381
 30
0.0
 10
2.97097
 20
0.09462
 30
0.0
 10
2.97037
 20
0.09542
 30
0.0
 10
2.97037
 20
0.09542
 30
0.0
 10
1.66622
 20
1.80947
 30
0.0
 10
0.5997
 20
1.01078
 30
0.0
 10
0.07743
 20
-0.12266
 30
0.0
 10
0.07743
 20
-0.12266
 30
0.0
 10
-0.01289
 20
-0.12096
 30
0.0
 10
-0.054
 20
-0.11927
 30
0.0
 10
-0.14432
 20
-0.1176
 30
0.0
 10
-0.14432
 20
-0.1176
 30
0.0
 10
-0.13986
 20
0.29292
 30
0.0
 10
-0.14883
 20
0.70344
 30
0.0
 10
-0.12648
 20
1.11391
 30
0.0
 10
-0.12648
 20
1.11391
 30
0.0
 10
-0.10301
 20
1.31094
 30
0.0
 10
-0.00283
 20
1.3686
 30
0.0
 10
0.02346
 20
1.19806
 30
0.0
 10
0.02346
 20
1.19806
 30
0.0
 10
0.02295
 20
1.08284
 30
0.0
 10
0.04153
 20
0.98905
 30
0.0
 10
0.12229
 20
0.91677
 30
0.0
 10
0.12229
 20
0.91677
 30
0.0
 10
0.2509
 20
0.76931
 30
0.0
 10
0.87632
 20
1.07486
 30
0.0
 10
0.82961
 20
1.547
 30
0.0
 10
0.82961
 20
1.547
 30
0.0
 10
0.49702
 20
2.45551
 30
0.0
 10
1.48381
 20
2.51049
 30
0.0
 10
1.42068
 20
1.38048
 30
0.0
 10
1.42068
 20
1.38048
 30
0.0
 10
1.55554
 20
1.57213
 30
0.0
 10
1.51372
 20
2.11872
 30
0.0
 10
1.15209
 20
2.45197
 30
0.0
 10
1.15209
 20
2.45197
 30
0.0
 10
0.25043
 20
3.04563
 30
0.0
 10
0.27412
 20
1.72324
 30
0.0
 10
-0.01502
 20
2.0005
 30
0.0
 10
-0.01502
 20
2.0005
 30
0.0
 10
-0.05882
 20
2.10398
 30
0.0
 10
-0.02397
 20
2.21355
 30
0.0
 10
0.02211
 20
2.32398
 30
0.0
 10
0.02211
 20
2.32398
 30
0.0
 10
0.24609
 20
2.81242
 30
0.0
 10
0.7092
 20
3.20311
 30
0.0
 10
0.28296
 20
3.7738
 30
0.0
 10
0.28296
 20
3.7738
 30
0.0
 10
0.18489
 20
3.70734
 30
0.0
 10
0.10825
 20
3.61356
 30
0.0
 10
0.06294
 20
3.47993
 30
0.0
 10
0.06294
 20
3.47993
 30
0.0
 10
0.02952
 20
3.42277
 30
0.0
 10
0.00659
 20
3.41105
 30
0.0
 10
-0.03557
 20
3.49768
 30
0.0
 10
-0.03557
 20
3.49768
 30
0.0
 10
-0.16283
 20
3.59999
 30
0.0
 10
-0.03018
 20
4.41932
 30
0.0
 10
-0.27584
 20
4.4255
 30
0.0
 10
-0.27584
 20
4.4255
 30
0.0
 10
-0.61338
 20
4.18334
 30
0.0
 10
-0.42888
 20
3.50825
 30
0.0
 10
-0.58882
 20
3.41277
 30
0.0
 10
-0.58882
 20
3.41277
 30
0.0
 10
-0.71286
 20
3.31753
 30
0.0
 10
-0.71098
 20
3.61616
 30
0.0
 10
-0.77206
 20
3.71784
 30
0.0
 10
-0.77206
 20
3.71784
 30
0.0
 10
-0.86828
 20
3.87523
 30
0.0
 10
-0.93354
 20
3.70888
 30
0.0
 10
-0.94032
 20
3.25037
 30
0.0
 10
-0.94032
 20
3.25037
 30
0.0
 10
-0.97575
 20
2.78271
 30
0.0
 10
-0.35196
 20
2.41724
 30
0.0
 10
-0.58255
 20
2.11317
 30
0.0
 10
-0.58255
 20
2.11317
 30
0.0
 10
-0.66848
 20
1.982
 30
0.0
 10
-0.82477
 20
2.19693
 30
0.0
 10
-0.99567
 20
2.48369
 30
0.0
 10
-0.99567
 20
2.48369
 30
0.0
 10
-1.43451
 20
3.07737
 30
0.0
 10
-2.20096
 20
2.34526
 30
0.0
 10
-1.87595
 20
1.39197
 30
0.0
 10
-1.87595
 20
1.39197
 30
0.0
 10
-1.85956
 20
2.60172
 30
0.0
 10
-0.99433
 20
2.45738
 30
0.0
 10
-1.26185
 20
1.55488
 30
0.0
 10
-1.26185
 20
1.55488
 30
0.0
 10
-1.32056
 20
1.32238
 30
0.0
 10
-0.80186
 20
0.66921
 30
0.0
 10
-0.52501
 20
1.05923
 30
0.0
 10
-0.52501
 20
1.05923
 30
0.0
 10
-0.44722
 20
1.28703
 30
0.0
 10
-0.34574
 20
1.28225
 30
0.0
 10
-0.32346
 20
1.12551
 30
0.0
 10
-0.32346
 20
1.12551
 30
0.0
 10
-0.31671
 20
0.71183
 30
0.0
 10
-0.30999
 20
0.29813
 30
0.0
 10
-0.30324
 20
-0.11553
 30
0.0
 10
-0.30324
 20
-0.11553
 30
0.0
 10
-0.34786
 20
-0.1147
 30
0.0
 10
-0.39246
 20
-0.11387
 30
0.0
 10
-0.43708
 20
-0.11303
 30
0.0
 10
-0.43708
 20
-0.11303
 30
0.0
 10
-0.43708
 20
-0.11303
 30
0.0
 10
-0.43708
 20
-0.11303
 30
0.0
 10
-0.43708
 20
-0.11303
 30
0.0
  0
SPLINE
  5
67
330
1F
100
AcDbEntity
  8
layer 1
 62
    22
370
     9
100
AcDbSpline
210
0.0
220
0.0
230
1.0
 70
    11
 71
     3
 72
   148
 73
   144
 74
     0
 42
0.0000000001
 43
0.0000000001
 40
0.0
 40
0.0
 40
0.0
 40
0.0
 40
0.0277777777777778
 40
0.0277777777777778
 40
0.0277777777777778
 40
0.0277777777777778
 40
0.0555555555555556
 40
0.0555555555555556
 40
0.0555555555555556
 40
0.0555555555555556
 40
0.0833333333333333
 40
0.0833333333333333
 40
0.0833333333333333
 40
0.0833333333333333
 40
0.1111111111111111
 40
0.1111111111111111
 40
0.1111111111111111
 40
0.1111111111111111
 40
0.1388888888888889
 40
0.1388888888888889
 40
0.1388888888888889
 40
0.1388888888888889
 40
0.1666666666666667
 40
0.1666666666666667
 40
0.1666666666666667
 40
0.1666666666666667
 40
0.1944444444444445
 40
0.1944444444444445
 40
0.1944444444444445
 40
0.1944444444444445
 40
0.2222222222222223
 40
0.2222222222222223
 40
0.2222222222222223
 40
0.2222222222222223
 40
0.2500000000000001
 40
0.2500000000000001
 40
0.2500000000000001
 40
0.2500000000000001
 40
0.2777777777777778
 40
0.2777777777777778
 40
0.2777777777777778
 40
0.2777777777777778
 40
0.3055555555555556
 40
0.3055555555555556
 40
0.3055555555555556
 40
0.3055555555555556
 40
0.3333333333333334
 40
0.3333333333333334
 40
0.3333333333333334
 40
0.3333333333333334
 40
0.3611111111111112
 40
0.3611111111111112
 40
0.3611111111111112
 40
0.3611111111111112
 40
0.388888888888889
 40
0.388888888888889
 40
0.388888888888889
 40
0.388888888888889
 40
0.4166666666666668
 40
0.4166666666666668
 40
0.4166666666666668
 40
0.4166666666666668
 40
0.4444444444444446
 40
0.4444444444444446
 40
0.4444444444444446
 40
0.4444444444444446
 40
0.4722222222222224
 40
0.4722222222222224
 40
0.4722222222222224
 40
0.4722222222222224
 40
0.5000000000000001
 40
0.5000000000000001
 40
0.5000000000000001
 40
0.5000000000000001
 40
0.5277777777777779
 40
0.5277777777777779
 40
0.5277777777777779
 40
0.5277777777777779
 40
0.5555555555555557
 40
0.5555555555555557
 40
0.5555555555555557
 40
0.5555555555555557
 40
0.5833333333333335
 40
0.5833333333333335
 40
0.5833333333333335
 40
0.5833333333333335
 40
0.6111111111111113
 40
0.6111111111111113
 40
0.6111111111111113
 40
0.6111111111111113
 40
0.6388888888888891
 40
0.6388888888888891
 40
0.6388888888888891
 40
0.6388888888888891
 40
0.6666666666666669
 40
0.6666666666666669
 40
0.6666666666666669
 40
0.6666666666666669
 40
0.6944444444444446
 40
0.6944444444444446
 40
0.6944444444444446
 40
0.6944444444444446
 40
0.7222222222222224
 40
0.7222222222222224
 40
0.7222222222222224
 40
0.7222222222222224
 40
0.7500000000000002
 40
0.7500000000000002
 40
0.7500000000000002
 40
0.7500000000000002
 40
0.777777777777778
 40
0.777777777777778
 40
0.777777777777778
 40
0.777777777777778
 40
0.8055555555555558
 40
0.8055555555555558
 40
0.8055555555555558
 40
0.8055555555555558
 40
0.8333333333333336
 40
0.8333333333333336
 40
0.8333333333333336
 40
0.8333333333333336
 40
0.8611111111111114
 40
0.8611111111111114
 40
0.8611111111111114
 40
0.8611111111111114
 40
0.8888888888888892
 40
0.8888888888888892
 40
0.8888888888888892
 40
0.8888888888888892
 40
0.916666666666667
 40
0.916666666666667
 40
0.916666666666667
 40
0.916666666666667
 40
0.9444444444444448
 40
0.9444444444444448
 40
0.9444444444444448
 40
0.9444444444444448
 40
0.9722222222222225
 40
0.9722222222222225
 40
0.9722222222222225
 40
0.9722222222222225
 40
1.0
 40
1.0
 40
1.0
 40
1.0
 10
-0.52323
 20
-0.8157
 30
0.0
 10
-0.63602
 20
-0.82554
 30
0.0
 10
-0.6119
 20
-0.97649
 30
0.0
 10
-0.52303
 20
-0.97806
 30
0.0
 10
-0.52303
 20
-0.97806
 30
0.0
 10
-0.49115
 20
-0.97877
 30
0.0
 10
-0.45925
 20
-0.97951
 30
0.0
 10
-0.42739
 20
-0.98021
 30
0.0
 10
-0.42739
 20
-0.98021
 30
0.0
 10
-0.77575
 20
-1.907
 30
0.0
 10
-1.71506
 20
-2.06595
 30
0.0
 10
-2.19572
 20
-1.19733
 30
0.0
 10
-2.19572
 20
-1.19733
 30
0.0
 10
-2.24565
 20
-1.03524
 30
0.0
 10
-2.16546
 20
-0.88674
 30
0.0
 10
-2.06212
 20
-1.02617
 30
0.0
 10
-2.06212
 20
-1.02617
 30
0.0
 10
-1.98693
 20
-1.24642
 30
0.0
 10
-1.88036
 20
-1.38409
 30
0.0
 10
-1.77577
 20
-1.45282
 30
0.0
 10
-1.77577
 20
-1.45282
 30
0.0
 10
-1.29543
 20
-1.72352
 30
0.0
 10
-1.09466
 20
-1.0815
 30
0.0
 10
-1.39966
 20
-0.62873
 30
0.0
 10
-1.39966
 20
-0.62873
 30
0.0
 10
-1.86224
 20
-1.11927
 30
0.0
 10
-2.09388
 20
0.09426
 30
0.0
 10
-1.13879
 20
-0.07673
 30
0.0
 10
-1.13879
 20
-0.07673
 30
0.0
 10
-1.38024
 20
0.2947
 30
0.0
 10
-2.53239
 20
0.34838
 30
0.0
 10
-2.30518
 20
-1.21308
 30
0.0
 10
-2.30518
 20
-1.21308
 30
0.0
 10
-3.53762
 20
-0.16647
 30
0.0
 10
-4.2868
 20
-1.77464
 30
0.0
 10
-3.92145
 20
-2.50568
 30
0.0
 10
-3.92145
 20
-2.50568
 30
0.0
 10
-3.94292
 20
-2.20658
 30
0.0
 10
-3.80815
 20
-1.20848
 30
0.0
 10
-3.41725
 20
-1.9998
 30
0.0
 10
-3.41725
 20
-1.9998
 30
0.0
 10
-3.37206
 20
-2.1176
 30
0.0
 10
-3.51892
 20
-2.28323
 30
0.0
 10
-3.27706
 20
-2.25585
 30
0.0
 10
-3.27706
 20
-2.25585
 30
0.0
 10
-3.05107
 20
-2.27482
 30
0.0
 10
-2.79691
 20
-2.21731
 30
0.0
 10
-2.69335
 20
-2.1149
 30
0.0
 10
-2.69335
 20
-2.1149
 30
0.0
 10
-2.21552
 20
-1.71302
 30
0.0
 10
-2.55461
 20
-1.35513
 30
0.0
 10
-2.91949
 20
-1.19099
 30
0.0
 10
-2.91949
 20
-1.19099
 30
0.0
 10
-3.05763
 20
-1.16079
 30
0.0
 10
-3.02278
 20
-0.99106
 30
0.0
 10
-2.87709
 20
-1.05885
 30
0.0
 10
-2.87709
 20
-1.05885
 30
0.0
 10
-2.36729
 20
-1.18636
 30
0.0
 10
-2.13596
 20
-1.58151
 30
0.0
 10
-1.89096
 20
-1.75602
 30
0.0
 10
-1.89096
 20
-1.75602
 30
0.0
 10
-1.16102
 20
-2.22444
 30
0.0
 10
-0.46718
 20
-1.65019
 30
0.0
 10
-0.32624
 20
-0.9825
 30
0.0
 10
-0.32624
 20
-0.9825
 30
0.0
 10
-0.24032
 20
-0.98445
 30
0.0
 10
-0.1544
 20
-0.98639
 30
0.0
 10
-0.06848
 20
-0.98832
 30
0.0
 10
-0.06848
 20
-0.98832
 30
0.0
 10
-0.06683
 20
-1.00648
 30
0.0
 10
-0.06266
 20
-1.02596
 30
0.0
 10
-0.06124
 20
-1.03785
 30
0.0
 10
-0.06124
 20
-1.03785
 30
0.0
 10
0.07438
 20
-1.71104
 30
0.0
 10
0.77439
 20
-2.29409
 30
0.0
 10
1.5084
 20
-1.81943
 30
0.0
 10
1.5084
 20
-1.81943
 30
0.0
 10
1.753
 20
-1.64398
 30
0.0
 10
1.98336
 20
-1.24794
 30
0.0
 10
2.49285
 20
-1.11842
 30
0.0
 10
2.49285
 20
-1.11842
 30
0.0
 10
2.63837
 20
-1.05007
 30
0.0
 10
2.67364
 20
-1.21966
 30
0.0
 10
2.53558
 20
-1.2504
 30
0.0
 10
2.53558
 20
-1.2504
 30
0.0
 10
2.17109
 20
-1.41597
 30
0.0
 10
1.83287
 20
-1.77518
 30
0.0
 10
2.31167
 20
-2.17518
 30
0.0
 10
2.31167
 20
-2.17518
 30
0.0
 10
2.41546
 20
-2.27719
 30
0.0
 10
2.66977
 20
-2.3337
 30
0.0
 10
2.8957
 20
-2.31386
 30
0.0
 10
2.8957
 20
-2.31386
 30
0.0
 10
3.13763
 20
-2.34026
 30
0.0
 10
2.99038
 20
-2.17524
 30
0.0
 10
3.03528
 20
-2.05724
 30
0.0
 10
3.03528
 20
-2.05724
 30
0.0
 10
3.42428
 20
-1.26441
 30
0.0
 10
3.56145
 20
-2.26195
 30
0.0
 10
3.54069
 20
-2.56114
 30
0.0
 10
3.54069
 20
-2.56114
 30
0.0
 10
3.90427
 20
-1.82867
 30
0.0
 10
3.15122
 20
-0.22346
 30
0.0
 10
1.92131
 20
-1.27491
 30
0.0
 10
1.92131
 20
-1.27491
 30
0.0
 10
2.14477
 20
0.28745
 30
0.0
 10
0.99276
 20
0.22928
 30
0.0
 10
0.7522
 20
-0.14312
 30
0.0
 10
0.7522
 20
-0.14312
 30
0.0
 10
1.70686
 20
0.03161
 30
0.0
 10
1.47814
 20
-1.18282
 30
0.0
 10
1.01439
 20
-0.69411
 30
0.0
 10
1.01439
 20
-0.69411
 30
0.0
 10
0.71049
 20
-1.14808
 30
0.0
 10
0.91281
 20
-1.78932
 30
0.0
 10
1.39246
 20
-1.51674
 30
0.0
 10
1.39246
 20
-1.51674
 30
0.0
 10
1.49692
 20
-1.44756
 30
0.0
 10
1.60315
 20
-1.3095
 30
0.0
 10
1.67781
 20
-1.08895
 30
0.0
 10
1.67781
 20
-1.08895
 30
0.0
 10
1.78081
 20
-0.9491
 30
0.0
 10
1.86136
 20
-1.09727
 30
0.0
 10
1.81183
 20
-1.25957
 30
0.0
 10
1.81183
 20
-1.25957
 30
0.0
 10
1.32991
 20
-2.13614
 30
0.0
 10
0.3803
 20
-1.97273
 30
0.0
 10
0.03559
 20
-1.03006
 30
0.0
 10
0.03559
 20
-1.03006
 30
0.0
 10
0.03062
 20
-1.01443
 30
0.0
 10
0.02606
 20
-1.00135
 30
0.0
 10
0.02179
 20
-0.99037
 30
0.0
 10
0.02179
 20
-0.99037
 30
0.0
 10
0.05343
 20
-0.99106
 30
0.0
 10
0.08509
 20
-0.9918
 30
0.0
 10
0.11673
 20
-0.99251
 30
0.0
 10
0.11673
 20
-0.99251
 30
0.0
 10
0.21717
 20
-0.96875
 30
0.0
 10
0.20267
 20
-0.84048
 30
0.0
 10
0.11039
 20
-0.82757
 30
0.0
 10
0.11039
 20
-0.82757
 30
0.0
 10
-0.10084
 20
-0.82361
 30
0.0
 10
-0.31203
 20
-0.81964
 30
0.0
 10
-0.52323
 20
-0.8157
 30
0.0
  0
SPLINE
  5
68
330
1F
100
AcDbEntity
  8
layer 1
 62
    22
370
     9
100
AcDbSpline
210
0.0
220
0.0
230
1.0
 70
    11
 71
     3
 72
    20
 73
    16
 74
     0
 42
0.0000000001
 43
0.0000000001
 40
0.0
 40
0.0
 40
0.0
 40
0.0
 40
0.25
 40
0.25
 40
0.25
 40
0.25
 40
0.5
 40
0.5
 40
0.5
 40
0.5
 40
0.75
 40
0.75
 40
0.75
 40
0.75
 40
1.0
 40
1.0
 40
1.0
 40
1.0
 10
-10.73634
 20
9.03621
 30
0.0
 10
-10.73634
 20
9.03621
 30
0.0
 10
10.35753
 20
9.03621
 30
0.0
 10
10.35753
 20
9.03621
 30
0.0
 10
10.35753
 20
9.03621
 30
0.0
 10
10.35753
 20
9.03621
 30
0.0
 10
10.35753
 20
-9.04425
 30
0.0
 10
10.35753
 20
-9.04425
 30
0.0
 10
10.35753
 20
-9.04425
 30
0.0
 10
10.35753
 20
-9.04425
 30
0.0
 10
-10.73634
 20
-9.04425
 30
0.0
 10
-10.73634
 20
-9.04425
 30
0.0
 10
-10.73634
 20
-9.04425
 30
0.0
 10
-10.73634
 20
-9.04425
 30
0.0
 10
-10.73634
 20
9.03621
 30
0.0
 10
-10.73634
 20
9.03621
 30
0.0
  0
ENDSEC
  0
SECTION
  2
OBJECTS
  0
DICTIONARY
  5
C
330
0
100
AcDbDictionary
281
     1
  3
ACAD_GROUP
350
D
  3
ACAD_LAYOUT
350
1A
  3
ACAD_MLEADERSTYLE
350
6A
  3
ACAD_MLINESTYLE
350
17
  3
ACAD_PLOTSETTINGS
350
19
  3
ACAD_PLOTSTYLENAME
350
E
  3
ACAD_SCALELIST
350
3B
  3
ACAD_TABLESTYLE
350
69
  3
ACAD_VISUALSTYLE
350
2A
  0
DICTIONARY
  5
D
102
{ACAD_REACTORS
330
C
102
}
330
C
100
AcDbDictionary
281
     1
  0
DICTIONARY
  5
1A
102
{ACAD_REACTORS
330
C
102
}
330
C
100
AcDbDictionary
281
     1
  3
Layout1
350
1E
  3
Layout2
350
26
  3
Model
350
22
  0
DICTIONARY
  5
6A
102
{ACAD_REACTORS
330
C
102
}
330
C
100
AcDbDictionary
281
     1
  0
DICTIONARY
  5
17
102
{ACAD_REACTORS
330
C
102
}
330
C
100
AcDbDictionary
281
     1
  3
Standard
350
18
  0
DICTIONARY
  5
19
102
{ACAD_REACTORS
330
C
102
}
330
C
100
AcDbDictionary
281
     1
  0
ACDBDICTIONARYWDFLT
  5
E
102
{ACAD_REACTORS
330
C
102
}
330
C
100
AcDbDictionary
281
     1
  3
Normal
350
F
100
AcDbDictionaryWithDefault
340
F
  0
DICTIONARY
  5
3B
102
{ACAD_REACTORS
330
C
102
}
330
C
100
AcDbDictionary
281
     1
  3
A0
350
3C
  3
A1
350
3D
  3
A2
350
3E
  3
A3
350
3F
  3
A4
350
40
  3
A5
350
41
  3
A6
350
42
  3
A7
350
43
  3
A8
350
44
  3
A9
350
45
  3
B0
350
46
  3
B1
350
47
  3
B2
350
48
  3
B3
350
49
  3
B4
350
4A
  3
B5
350
4B
  3
B6
350
4C
  3
B7
350
4D
  3
B8
350
4E
  3
B9
350
4F
  3
C0
350
50
  3
C1
350
51
  3
C2
350
52
  3
C3
350
53
  3
C4
350
54
  3
C5
350
55
  3
C6
350
56
  3
C7
350
57
  3
C8
350
58
  3
C9
350
59
  3
D0
350
5A
  3
D1
350
5B
  3
D2
350
5C
  0
DICTIONARY
  5
69
102
{ACAD_REACTORS
330
C
102
}
330
C
100
AcDbDictionary
281
     1
  0
DICTIONARY
  5
2A
102
{ACAD_REACTORS
330
C
102
}
330
C
100
AcDbDictionary
281
     1
  3
2dWireframe
350
2F
  3
3D Hidden
350
31
  3
3dWireframe
350
30
  3
Basic
350
32
  3
Brighten
350
36
  3
ColorChange
350
3A
  3
Conceptual
350
34
  3
Dim
350
35
  3
Facepattern
350
39
  3
Flat
350
2B
  3
FlatWithEdges
350
2C
  3
Gouraud
350
2D
  3
GouraudWithEdges
350
2E
  3
Linepattern
350
38
  3
Realistic
350
33
  3
Thicken
350
37
  0
LAYOUT
  5
1E
102
{ACAD_REACTORS
330
1A
102
}
330
1A
100
AcDbPlotSettings
  1

  2
none_device
  4

  6

 40
0.0
 41
0.0
 42
0.0
 43
0.0
 44
0.0
 45
0.0
 46
0.0
 47
0.0
 48
0.0
 49
0.0
140
0.0
141
0.0
142
1.0
143
1.0
 70
   688
 72
     0
 73
     0
 74
     5
  7

 75
    16
 76
     0
 77
     2
 78
   300
147
1.0
148
0.0
149
0.0
100
AcDbLayout
  1
Layout1
 70
     1
 71
     1
 10
0.0
 20
0.0
 11
12.0
 21
9.0
 12
0.0
 22
0.0
 32
0.0
 14
1.000000000000000E+20
 24
1.000000000000000E+20
 34
1.000000000000000E+20
 15
-1.000000000000000E+20
 25
-1.000000000000000E+20
 35
-1.000000000000000E+20
146
0.0
 13
0.0
 23
0.0
 33
0.0
 16
1.0
 26
0.0
 36
0.0
 17
0.0
 27
1.0
 37
0.0
 76
     0
330
1B
  0
LAYOUT
  5
26
102
{ACAD_REACTORS
330
1A
102
}
330
1A
100
AcDbPlotSettings
  1

  2
none_device
  4

  6

 40
0.0
 41
0.0
 42
0.0
 43
0.0
 44
0.0
 45
0.0
 46
0.0
 47
0.0
 48
0.0
 49
0.0
140
0.0
141
0.0
142
1.0
143
1.0
 70
   688
 72
     0
 73
     0
 74
     5
  7

 75
    16
 76
     0
 77
     2
 78
   300
147
1.0
148
0.0
149
0.0
100
AcDbLayout
  1
Layout2
 70
     1
 71
     2
 10
0.0
 20
0.0
 11
0.0
 21
0.0
 12
0.0
 22
0.0
 32
0.0
 14
0.0
 24
0.0
 34
0.0
 15
0.0
 25
0.0
 35
0.0
146
0.0
 13
0.0
 23
0.0
 33
0.0
 16
1.0
 26
0.0
 36
0.0
 17
0.0
 27
1.0
 37
0.0
 76
     0
330
23
  0
LAYOUT
  5
22
102
{ACAD_REACTORS
330
1A
102
}
330
1A
100
AcDbPlotSettings
  1

  2
none_device
  4

  6

 40
0.0
 41
0.0
 42
0.0
 43
0.0
 44
0.0
 45
0.0
 46
0.0
 47
0.0
 48
0.0
 49
0.0
140
0.0
141
0.0
142
1.0
143
1.0
 70
  1712
 72
     0
 73
     0
 74
     0
  7

 75
     0
 76
     0
 77
     2
 78
   300
147
1.0
148
0.0
149
0.0
100
AcDbLayout
  1
Model
 70
     1
 71
     0
 10
0.0
 20
0.0
 11
12.0
 21
9.0
 12
0.0
 22
0.0
 32
0.0
 14
-10.74014
 24
-9.04805
 34
0.0
 15
10.36133
 25
9.04001
 35
0.0
146
0.0
 13
0.0
 23
0.0
 33
0.0
 16
1.0
 26
0.0
 36
0.0
 17
0.0
 27
1.0
 37
0.0
 76
     0
330
1F
331
29
  0
MLINESTYLE
  5
18
102
{ACAD_REACTORS
330
17
102
}
330
17
100
AcDbMlineStyle
  2
Standard
 70
     0
  3

 62
   256
 51
90.0
 52
90.0
 71
     2
 49
0.5
 62
   256
  6
BYLAYER
 49
-0.5
 62
   256
  6
BYLAYER
  0
ACDBPLACEHOLDER
  5
F
102
{ACAD_REACTORS
330
E
102
}
330
E
  0
SCALE
  5
3C
102
{ACAD_REACTORS
330
3B
102
}
330
3B
100
AcDbScale
 70
     0
300
1:1
140
1.0
141
1.0
290
     1
  0
SCALE
  5
3D
102
{ACAD_REACTORS
330
3B
102
}
330
3B
100
AcDbScale
 70
     0
300
1:2
140
1.0
141
2.0
290
     0
  0
SCALE
  5
3E
102
{ACAD_REACTORS
330
3B
102
}
330
3B
100
AcDbScale
 70
     0
300
1:4
140
1.0
141
4.0
290
     0
  0
SCALE
  5
3F
102
{ACAD_REACTORS
330
3B
102
}
330
3B
100
AcDbScale
 70
     0
300
1:5
140
1.0
141
5.0
290
     0
  0
SCALE
  5
40
102
{ACAD_REACTORS
330
3B
102
}
330
3B
100
AcDbScale
 70
     0
300
1:8
140
1.0
141
8.0
290
     0
  0
SCALE
  5
41
102
{ACAD_REACTORS
330
3B
102
}
330
3B
100
AcDbScale
 70
     0
300
1:10
140
1.0
141
10.0
290
     0
  0
SCALE
  5
42
102
{ACAD_REACTORS
330
3B
102
}
330
3B
100
AcDbScale
 70
     0
300
1:16
140
1.0
141
16.0
290
     0
  0
SCALE
  5
43
102
{ACAD_REACTORS
330
3B
102
}
330
3B
100
AcDbScale
 70
     0
300
1:20
140
1.0
141
20.0
290
     0
  0
SCALE
  5
44
102
{ACAD_REACTORS
330
3B
102
}
330
3B
100
AcDbScale
 70
     0
300
1:30
140
1.0
141
30.0
290
     0
  0
SCALE
  5
45
102
{ACAD_REACTORS
330
3B
102
}
330
3B
100
AcDbScale
 70
     0
300
1:40
140
1.0
141
40.0
290
     0
  0
SCALE
  5
46
102
{ACAD_REACTORS
330
3B
102
}
330
3B
100
AcDbScale
 70
     0
300
1:50
140
1.0
141
50.0
290
     0
  0
SCALE
  5
47
102
{ACAD_REACTORS
330
3B
102
}
330
3B
100
AcDbScale
 70
     0
300
1:100
140
1.0
141
100.0
290
     0
  0
SCALE
  5
48
102
{ACAD_REACTORS
330
3B
102
}
330
3B
100
AcDbScale
 70
     0
300
2:1
140
2.0
141
1.0
290
     0
  0
SCALE
  5
49
102
{ACAD_REACTORS
330
3B
102
}
330
3B
100
AcDbScale
 70
     0
300
4:1
140
4.0
141
1.0
290
     0
  0
SCALE
  5
4A
102
{ACAD_REACTORS
330
3B
102
}
330
3B
100
AcDbScale
 70
     0
300
8:1
140
8.0
141
1.0
290
     0
  0
SCALE
  5
4B
102
{ACAD_REACTORS
330
3B
102
}
330
3B
100
AcDbScale
 70
     0
300
10:1
140
10.0
141
1.0
290
     0
  0
SCALE
  5
4C
102
{ACAD_REACTORS
330
3B
102
}
330
3B
100
AcDbScale
 70
     0
300
100:1
140
100.0
141
1.0
290
     0
  0
SCALE
  5
4D
102
{ACAD_REACTORS
330
3B
102
}
330
3B
100
AcDbScale
 70
     0
300
1/128" = 1'-0"
140
0.0078125
141
12.0
290
     0
  0
SCALE
  5
4E
102
{ACAD_REACTORS
330
3B
102
}
330
3B
100
AcDbScale
 70
     0
300
1/64" = 1'-0"
140
0.015625
141
12.0
290
     0
  0
SCALE
  5
4F
102
{ACAD_REACTORS
330
3B
102
}
330
3B
100
AcDbScale
 70
     0
300
1/32" = 1'-0"
140
0.03125
141
12.0
290
     0
  0
SCALE
  5
50
102
{ACAD_REACTORS
330
3B
102
}
330
3B
100
AcDbScale
 70
     0
300
1/16" = 1'-0"
140
0.0625
141
12.0
290
     0
  0
SCALE
  5
51
102
{ACAD_REACTORS
330
3B
102
}
330
3B
100
AcDbScale
 70
     0
300
3/32" = 1'-0"
140
0.09375
141
12.0
290
     0
  0
SCALE
  5
52
102
{ACAD_REACTORS
330
3B
102
}
330
3B
100
AcDbScale
 70
     0
300
1/8" = 1'-0"
140
0.125
141
12.0
290
     0
  0
SCALE
  5
53
102
{ACAD_REACTORS
330
3B
102
}
330
3B
100
AcDbScale
 70
     0
300
3/16" = 1'-0"
140
0.1875
141
12.0
290
     0
  0
SCALE
  5
54
102
{ACAD_REACTORS
330
3B
102
}
330
3B
100
AcDbScale
 70
     0
300
1/4" = 1'-0"
140
0.25
141
12.0
290
     0
  0
SCALE
  5
55
102
{ACAD_REACTORS
330
3B
102
}
330
3B
100
AcDbScale
 70
     0
300
3/8" = 1'-0"
140
0.375
141
12.0
290
     0
  0
SCALE
  5
56
102
{ACAD_REACTORS
330
3B
102
}
330
3B
100
AcDbScale
 70
     0
300
1/2" = 1'-0"
140
0.5
141
12.0
290
     0
  0
SCALE
  5
57
102
{ACAD_REACTORS
330
3B
102
}
330
3B
100
AcDbScale
 70
     0
300
3/4" = 1'-0"
140
0.75
141
12.0
290
     0
  0
SCALE
  5
58
102
{ACAD_REACTORS
330
3B
102
}
330
3B
100
AcDbScale
 70
     0
300
1" = 1'-0"
140
1.0
141
12.0
290
     0
  0
SCALE
  5
59
102
{ACAD_REACTORS
330
3B
102
}
330
3B
100
AcDbScale
 70
     0
300
1-1/2" = 1'-0"
140
1.5
141
12.0
290
     0
  0
SCALE
  5
5A
102
{ACAD_REACTORS
330
3B
102
}
330
3B
100
AcDbScale
 70
     0
300
3" = 1'-0"
140
3.0
141
12.0
290
     0
  0
SCALE
  5
5B
102
{ACAD_REACTORS
330
3B
102
}
330
3B
100
AcDbScale
 70
     0
300
6" = 1'-0"
140
6.0
141
12.0
290
     0
  0
SCALE
  5
5C
102
{ACAD_REACTORS
330
3B
102
}
330
3B
100
AcDbScale
 70
     0
300
1'-0" = 1'-0"
140
12.0
141
12.0
290
     0
  0
VISUALSTYLE
  5
2F
102
{ACAD_REACTORS
330
2A
102
}
330
2A
100
AcDbVisualStyle
  2
2dWireframe
 70
     4
 71
     0
 72
     2
 73
     0
 90
        0
 40
-0.6
 41
-30.0
 62
     5
 63
     7
421
 16777215
 74
     1
 91
        4
 64
     7
 65
   257
 75
     1
175
     1
 42
1.0
 92
        0
 66
   257
 43
1.0
 76
     1
 77
     6
 78
     2
 67
     7
 79
     5
170
     0
171
     0
290
     0
174
     0
 93
        1
 44
0.0
173
     0
291
     0
 45
0.0
  0
VISUALSTYLE
  5
31
102
{ACAD_REACTORS
330
2A
102
}
330
2A
100
AcDbVisualStyle
  2
3D Hidden
 70
     6
 71
     1
 72
     2
 73
     2
 90
        0
 40
-0.6
 41
-30.0
 62
     5
 63
     7
421
 16777215
 74
     2
 91
        2
 64
     7
 65
   257
 75
     2
175
     1
 42
40.0
 92
        0
 66
   257
 43
1.0
 76
     1
 77
     6
 78
     2
 67
     7
 79
     3
170
     0
171
     0
290
     0
174
     0
 93
        1
 44
0.0
173
     0
291
     0
 45
0.0
  0
VISUALSTYLE
  5
30
102
{ACAD_REACTORS
330
2A
102
}
330
2A
100
AcDbVisualStyle
  2
3dWireframe
 70
     5
 71
     0
 72
     2
 73
     0
 90
        0
 40
-0.6
 41
-30.0
 62
     5
 63
     7
421
 16777215
 74
     1
 91
        4
 64
     7
 65
   257
 75
     1
175
     1
 42
1.0
 92
        0
 66
   257
 43
1.0
 76
     1
 77
     6
 78
     2
 67
     7
 79
     5
170
     0
171
     0
290
     0
174
     0
 93
        1
 44
0.0
173
     0
291
     0
 45
0.0
  0
VISUALSTYLE
  5
32
102
{ACAD_REACTORS
330
2A
102
}
330
2A
100
AcDbVisualStyle
  2
Basic
 70
     7
 71
     1
 72
     0
 73
     1
 90
        0
 40
-0.6
 41
-30.0
 62
     5
 63
     7
421
 16777215
 74
     0
 91
        4
 64
     7
 65
   257
 75
     1
175
     1
 42
1.0
 92
        8
 66
     7
 43
1.0
 76
     1
 77
     6
 78
     2
 67
     7
 79
     5
170
     0
171
     0
290
     0
174
     0
 93
        1
 44
0.0
173
     0
291
     1
 45
0.0
  0
VISUALSTYLE
  5
36
102
{ACAD_REACTORS
330
2A
102
}
330
2A
100
AcDbVisualStyle
  2
Brighten
 70
    12
 71
     2
 72
     2
 73
     0
 90
        0
 40
-0.6
 41
-30.0
 62
     5
 63
     7
421
 16777215
 74
     1
 91
        4
 64
     7
 65
   257
 75
     1
175
     1
 42
1.0
 92
        8
 66
     7
 43
1.0
 76
     1
 77
     6
 78
     2
 67
     7
 79
     5
170
     0
171
     0
290
     0
174
     0
 93
        1
 44
50.0
173
     0
291
     1
 45
0.0
  0
VISUALSTYLE
  5
3A
102
{ACAD_REACTORS
330
2A
102
}
330
2A
100
AcDbVisualStyle
  2
ColorChange
 70
    16
 71
     2
 72
     2
 73
     3
 90
        0
 40
-0.6
 41
-30.0
 62
     5
 63
     8
421
  8421504
 74
     1
 91
        4
 64
     7
 65
   257
 75
     1
175
     1
 42
1.0
 92
        8
 66
     8
424
  8421504
 43
1.0
 76
     1
 77
     6
 78
     2
 67
     7
 79
     5
170
     0
171
     0
290
     0
174
     0
 93
        1
 44
0.0
173
     0
291
     1
 45
0.0
  0
VISUALSTYLE
  5
34
102
{ACAD_REACTORS
330
2A
102
}
330
2A
100
AcDbVisualStyle
  2
Conceptual
 70
     9
 71
     3
 72
     2
 73
     0
 90
        0
 40
-0.6
 41
-30.0
 62
     5
 63
     7
421
 16777215
 74
     2
 91
        2
 64
     7
 65
   257
 75
     1
175
     1
 42
40.0
 92
        8
 66
     7
 43
1.0
 76
     1
 77
     6
 78
     2
 67
     7
 79
     3
170
     0
171
     0
290
     0
174
     0
 93
        1
 44
0.0
173
     0
291
     0
 45
0.0
  0
VISUALSTYLE
  5
35
102
{ACAD_REACTORS
330
2A
102
}
330
2A
100
AcDbVisualStyle
  2
Dim
 70
    11
 71
     2
 72
     2
 73
     0
 90
        0
 40
-0.6
 41
-30.0
 62
     5
 63
     7
421
 16777215
 74
     1
 91
        4
 64
     7
 65
   257
 75
     1
175
     1
 42
1.0
 92
        8
 66
     7
 43
1.0
 76
     1
 77
     6
 78
     2
 67
     7
 79
     5
170
     0
171
     0
290
     0
174
     0
 93
        1
 44
-50.0
173
     0
291
     1
 45
0.0
  0
VISUALSTYLE
  5
39
102
{ACAD_REACTORS
330
2A
102
}
330
2A
100
AcDbVisualStyle
  2
Facepattern
 70
    15
 71
     2
 72
     2
 73
     0
 90
        0
 40
-0.6
 41
-30.0
 62
     5
 63
     7
421
 16777215
 74
     1
 91
        4
 64
     7
 65
   257
 75
     1
175
     1
 42
1.0
 92
        8
 66
     7
 43
1.0
 76
     1
 77
     6
 78
     2
 67
     7
 79
     5
170
     0
171
     0
290
     0
174
     0
 93
        1
 44
0.0
173
     0
291
     1
 45
0.0
  0
VISUALSTYLE
  5
2B
102
{ACAD_REACTORS
330
2A
102
}
330
2A
100
AcDbVisualStyle
  2
Flat
 70
     0
 71
     2
 72
     1
 73
     1
 90
        2
 40
-0.6
 41
30.0
 62
     5
 63
     7
421
 16777215
 74
     0
 91
        4
 64
     7
 65
   257
 75
     1
175
     1
 42
1.0
 92
        8
 66
     7
 43
1.0
 76
     1
 77
     6
 78
     2
 67
     7
 79
     5
170
     0
171
     0
290
     0
174
     0
 93
       13
 44
0.0
173
     0
291
     1
 45
0.0
  0
VISUALSTYLE
  5
2C
102
{ACAD_REACTORS
330
2A
102
}
330
2A
100
AcDbVisualStyle
  2
FlatWithEdges
 70
     1
 71
     2
 72
     1
 73
     1
 90
        2
 40
-0.6
 41
30.0
 62
     5
 63
     7
421
 16777215
 74
     1
 91
        4
 64
     7
 65
   257
 75
     1
175
     1
 42
1.0
 92
        0
 66
   257
 43
1.0
 76
     1
 77
     6
 78
     2
 67
     7
 79
     5
170
     0
171
     0
290
     0
174
     0
 93
       13
 44
0.0
173
     0
291
     1
 45
0.0
  0
VISUALSTYLE
  5
2D
102
{ACAD_REACTORS
330
2A
102
}
330
2A
100
AcDbVisualStyle
  2
Gouraud
 70
     2
 71
     2
 72
     2
 73
     1
 90
        2
 40
-0.6
 41
30.0
 62
     5
 63
     7
421
 16777215
 74
     0
 91
        4
 64
     7
 65
   257
 75
     1
175
     1
 42
1.0
 92
        0
 66
     7
 43
1.0
 76
     1
 77
     6
 78
     2
 67
     7
 79
     5
170
     0
171
     0
290
     0
174
     0
 93
       13
 44
0.0
173
     0
291
     1
 45
0.0
  0
VISUALSTYLE
  5
2E
102
{ACAD_REACTORS
330
2A
102
}
330
2A
100
AcDbVisualStyle
  2
GouraudWithEdges
 70
     3
 71
     2
 72
     2
 73
     1
 90
        2
 40
-0.6
 41
30.0
 62
     5
 63
     7
421
 16777215
 74
     1
 91
        4
 64
     7
 65
   257
 75
     1
175
     1
 42
1.0
 92
        0
 66
   257
 43
1.0
 76
     1
 77
     6
 78
     2
 67
     7
 79
     5
170
     0
171
     0
290
     0
174
     0
 93
       13
 44
0.0
173
     0
291
     1
 45
0.0
  0
VISUALSTYLE
  5
38
102
{ACAD_REACTORS
330
2A
102
}
330
2A
100
AcDbVisualStyle
  2
Linepattern
 70
    14
 71
     2
 72
     2
 73
     0
 90
        0
 40
-0.6
 41
-30.0
 62
     5
 63
     7
421
 16777215
 74
     1
 91
        4
 64
     7
 65
   257
 75
     7
175
     7
 42
1.0
 92
        8
 66
     7
 43
1.0
 76
     1
 77
     6
 78
     2
 67
     7
 79
     5
170
     0
171
     0
290
     0
174
     0
 93
        1
 44
0.0
173
     0
291
     1
 45
0.0
  0
VISUALSTYLE
  5
33
102
{ACAD_REACTORS
330
2A
102
}
330
2A
100
AcDbVisualStyle
  2
Realistic
 70
     8
 71
     2
 72
     2
 73
     0
 90
        0
 40
-0.6
 41
-30.0
 62
     5
 63
     7
421
 16777215
 74
     1
 91
        0
 64
     7
 65
   257
 75
     1
175
     1
 42
1.0
 92
        8
 66
     8
424
  7895160
 43
1.0
 76
     1
 77
     6
 78
     2
 67
     7
 79
     5
170
     0
171
     0
290
     0
174
     0
 93
       13
 44
0.0
173
     0
291
     0
 45
0.0
  0
VISUALSTYLE
  5
37
102
{ACAD_REACTORS
330
2A
102
}
330
2A
100
AcDbVisualStyle
  2
Thicken
 70
    13
 71
     2
 72
     2
 73
     0
 90
        0
 40
-0.6
 41
-30.0
 62
     5
 63
     7
421
 16777215
 74
     1
 91
        4
 64
     7
 65
   257
 75
     1
175
     1
 42
1.0
 92
       12
 66
     7
 43
1.0
 76
     1
 77
     6
 78
     2
 67
     7
 79
     5
170
     0
171
     0
290
     0
174
     0
 93
        1
 44
0.0
173
     0
291
     1
 45
0.0
  0
ENDSEC
  0
EOF
