  0
SECTION
  2
HEADER
  9
$ACADVER
  1
AC1021
  9
$ACADMAINTVER
 70
    25
  9
$DWGCODEPAGE
  3
ANSI_936
  9
$INSBASE
 10
0.0
 20
0.0
 30
0.0
  9
$EXTMIN
 10
-12.4477
 20
-10.73131
 30
0.0
  9
$EXTMAX
 10
11.07458
 20
10.13057
 30
0.0
  9
$LIMMIN
 10
0.0
 20
0.0
  9
$LIMMAX
 10
12.0
 20
9.0
  9
$ORTHOMODE
 70
     0
  9
$REGENMODE
 70
     1
  9
$FILLMODE
 70
     1
  9
$QTEXTMODE
 70
     0
  9
$MIRRTEXT
 70
     1
  9
$LTSCALE
 40
1.0
  9
$ATTMODE
 70
     1
  9
$TEXTSIZE
 40
0.2
  9
$TRACEWID
 40
0.05
  9
$TEXTSTYLE
  7
Standard
  9
$CLAYER
  8
0
  9
$CELTYPE
  6
ByLayer
  9
$CECOLOR
 62
   256
  9
$CELTSCALE
 40
1.0
  9
$DISPSILH
 70
     0
  9
$DIMSCALE
 40
1.0
  9
$DIMASZ
 40
0.18
  9
$DIMEXO
 40
0.0625
  9
$DIMDLI
 40
0.38
  9
$DIMRND
 40
0.0
  9
$DIMDLE
 40
0.0
  9
$DIMEXE
 40
0.18
  9
$DIMTP
 40
0.0
  9
$DIMTM
 40
0.0
  9
$DIMTXT
 40
0.18
  9
$DIMCEN
 40
0.09
  9
$DIMTSZ
 40
0.0
  9
$DIMTOL
 70
     0
  9
$DIMLIM
 70
     0
  9
$DIMTIH
 70
     1
  9
$DIMTOH
 70
     1
  9
$DIMSE1
 70
     0
  9
$DIMSE2
 70
     0
  9
$DIMTAD
 70
     0
  9
$DIMZIN
 70
     0
  9
$DIMBLK
  1

  9
$DIMASO
 70
     1
  9
$DIMSHO
 70
     1
  9
$DIMPOST
  1

  9
$DIMAPOST
  1

  9
$DIMALT
 70
     0
  9
$DIMALTD
 70
     2
  9
$DIMALTF
 40
25.4
  9
$DIMLFAC
 40
1.0
  9
$DIMTOFL
 70
     0
  9
$DIMTVP
 40
0.0
  9
$DIMTIX
 70
     0
  9
$DIMSOXD
 70
     0
  9
$DIMSAH
 70
     0
  9
$DIMBLK1
  1

  9
$DIMBLK2
  1

  9
$DIMSTYLE
  2
Standard
  9
$DIMCLRD
 70
     0
  9
$DIMCLRE
 70
     0
  9
$DIMCLRT
 70
     0
  9
$DIMTFAC
 40
1.0
  9
$DIMGAP
 40
0.09
  9
$DIMJUST
 70
     0
  9
$DIMSD1
 70
     0
  9
$DIMSD2
 70
     0
  9
$DIMTOLJ
 70
     1
  9
$DIMTZIN
 70
     0
  9
$DIMALTZ
 70
     0
  9
$DIMALTTZ
 70
     0
  9
$DIMUPT
 70
     0
  9
$DIMDEC
 70
     4
  9
$DIMTDEC
 70
     4
  9
$DIMALTU
 70
     2
  9
$DIMALTTD
 70
     2
  9
$DIMTXSTY
  7
Standard
  9
$DIMAUNIT
 70
     0
  9
$DIMADEC
 70
     0
  9
$DIMALTRND
 40
0.0
  9
$DIMAZIN
 70
     0
  9
$DIMDSEP
 70
    46
  9
$DIMATFIT
 70
     3
  9
$DIMFRAC
 70
     0
  9
$DIMLDRBLK
  1

  9
$DIMLUNIT
 70
     2
  9
$DIMLWD
 70
    -2
  9
$DIMLWE
 70
    -2
  9
$DIMTMOVE
 70
     0
  9
$DIMFXL
 40
1.0
  9
$DIMFXLON
 70
     0
  9
$DIMJOGANG
 40
0.7853981633974483
  9
$DIMTFILL
 70
     0
  9
$DIMTFILLCLR
 70
     0
  9
$DIMARCSYM
 70
     0
  9
$DIMLTYPE
  6

  9
$DIMLTEX1
  6

  9
$DIMLTEX2
  6

  9
$LUNITS
 70
     2
  9
$LUPREC
 70
     4
  9
$SKETCHINC
 40
0.1
  9
$FILLETRAD
 40
0.5
  9
$AUNITS
 70
     0
  9
$AUPREC
 70
     0
  9
$MENU
  1
.
  9
$ELEVATION
 40
0.0
  9
$PELEVATION
 40
0.0
  9
$THICKNESS
 40
0.0
  9
$LIMCHECK
 70
     0
  9
$CHAMFERA
 40
0.5
  9
$CHAMFERB
 40
0.5
  9
$CHAMFERC
 40
1.0
  9
$CHAMFERD
 40
0.0
  9
$SKPOLY
 70
     0
  9
$TDCREATE
 40
2455663.6204125
  9
$TDUCREATE
 40
2455663.287079167
  9
$TDUPDATE
 40
2455663.620412512
  9
$TDUUPDATE
 40
2455663.287079178
  9
$TDINDWG
 40
0.0000000116
  9
$TDUSRTIMER
 40
0.0000000116
  9
$USRTIMER
 70
     1
  9
$ANGBASE
 50
0.0
  9
$ANGDIR
 70
     0
  9
$PDMODE
 70
     0
  9
$PDSIZE
 40
0.0
  9
$PLINEWID
 40
0.0
  9
$SPLFRAME
 70
     0
  9
$SPLINETYPE
 70
     6
  9
$SPLINESEGS
 70
     8
  9
$HANDSEED
  5
A7
  9
$SURFTAB1
 70
     6
  9
$SURFTAB2
 70
     6
  9
$SURFTYPE
 70
     6
  9
$SURFU
 70
     6
  9
$SURFV
 70
     6
  9
$UCSBASE
  2

  9
$UCSNAME
  2

  9
$UCSORG
 10
0.0
 20
0.0
 30
0.0
  9
$UCSXDIR
 10
1.0
 20
0.0
 30
0.0
  9
$UCSYDIR
 10
0.0
 20
1.0
 30
0.0
  9
$UCSORTHOREF
  2

  9
$UCSORTHOVIEW
 70
     0
  9
$UCSORGTOP
 10
0.0
 20
0.0
 30
0.0
  9
$UCSORGBOTTOM
 10
0.0
 20
0.0
 30
0.0
  9
$UCSORGLEFT
 10
0.0
 20
0.0
 30
0.0
  9
$UCSORGRIGHT
 10
0.0
 20
0.0
 30
0.0
  9
$UCSORGFRONT
 10
0.0
 20
0.0
 30
0.0
  9
$UCSORGBACK
 10
0.0
 20
0.0
 30
0.0
  9
$PUCSBASE
  2

  9
$PUCSNAME
  2

  9
$PUCSORG
 10
0.0
 20
0.0
 30
0.0
  9
$PUCSXDIR
 10
1.0
 20
0.0
 30
0.0
  9
$PUCSYDIR
 10
0.0
 20
1.0
 30
0.0
  9
$PUCSORTHOREF
  2

  9
$PUCSORTHOVIEW
 70
     0
  9
$PUCSORGTOP
 10
0.0
 20
0.0
 30
0.0
  9
$PUCSORGBOTTOM
 10
0.0
 20
0.0
 30
0.0
  9
$PUCSORGLEFT
 10
0.0
 20
0.0
 30
0.0
  9
$PUCSORGRIGHT
 10
0.0
 20
0.0
 30
0.0
  9
$PUCSORGFRONT
 10
0.0
 20
0.0
 30
0.0
  9
$PUCSORGBACK
 10
0.0
 20
0.0
 30
0.0
  9
$USERI1
 70
     0
  9
$USERI2
 70
     0
  9
$USERI3
 70
     0
  9
$USERI4
 70
     0
  9
$USERI5
 70
     0
  9
$USERR1
 40
0.0
  9
$USERR2
 40
0.0
  9
$USERR3
 40
0.0
  9
$USERR4
 40
0.0
  9
$USERR5
 40
0.0
  9
$WORLDVIEW
 70
     1
  9
$SHADEDGE
 70
     3
  9
$SHADEDIF
 70
    70
  9
$TILEMODE
 70
     1
  9
$MAXACTVP
 70
    64
  9
$PINSBASE
 10
0.0
 20
0.0
 30
0.0
  9
$PLIMCHECK
 70
     0
  9
$PEXTMIN
 10
1.000000000000000E+20
 20
1.000000000000000E+20
 30
1.000000000000000E+20
  9
$PEXTMAX
 10
-1.000000000000000E+20
 20
-1.000000000000000E+20
 30
-1.000000000000000E+20
  9
$PLIMMIN
 10
0.0
 20
0.0
  9
$PLIMMAX
 10
12.0
 20
9.0
  9
$UNITMODE
 70
     0
  9
$VISRETAIN
 70
     1
  9
$PLINEGEN
 70
     0
  9
$PSLTSCALE
 70
     1
  9
$TREEDEPTH
 70
  3020
  9
$CMLSTYLE
  2
Standard
  9
$CMLJUST
 70
     0
  9
$CMLSCALE
 40
1.0
  9
$PROXYGRAPHICS
 70
     1
  9
$MEASUREMENT
 70
     0
  9
$CELWEIGHT
370
    -1
  9
$ENDCAPS
280
     0
  9
$JOINSTYLE
280
     0
  9
$LWDISPLAY
290
     0
  9
$INSUNITS
 70
     5
  9
$HYPERLINKBASE
  1

  9
$STYLESHEET
  1

  9
$XEDIT
290
     1
  9
$CEPSNTYPE
380
     0
  9
$PSTYLEMODE
290
     1
  9
$FINGERPRINTGUID
  2
{E93DC530-59C5-4246-A5AE-9B72579AC354}
  9
$VERSIONGUID
  2
{FAEB1C32-E019-11D5-929B-00C0DF256EC4}
  9
$EXTNAMES
290
     1
  9
$PSVPSCALE
 40
0.0
  9
$OLESTARTUP
290
     0
  9
$SORTENTS
280
   127
  9
$INDEXCTL
280
     0
  9
$HIDETEXT
280
     1
  9
$XCLIPFRAME
290
     0
  9
$HALOGAP
280
     0
  9
$OBSCOLOR
 70
   257
  9
$OBSLTYPE
280
     0
  9
$INTERSECTIONDISPLAY
280
     0
  9
$INTERSECTIONCOLOR
 70
   257
  9
$DIMASSOC
280
     2
  9
$PROJECTNAME
  1

  9
$CAMERADISPLAY
290
     0
  9
$LENSLENGTH
 40
50.0
  9
$CAMERAHEIGHT
 40
0.0
  9
$STEPSPERSEC
 40
2.0
  9
$STEPSIZE
 40
6.0
  9
$3DDWFPREC
 40
2.0
  9
$PSOLWIDTH
 40
0.25
  9
$PSOLHEIGHT
 40
4.0
  9
$LOFTANG1
 40
1.570796326794897
  9
$LOFTANG2
 40
1.570796326794897
  9
$LOFTMAG1
 40
0.0
  9
$LOFTMAG2
 40
0.0
  9
$LOFTPARAM
 70
     7
  9
$LOFTNORMALS
280
     1
  9
$LATITUDE
 40
37.795
  9
$LONGITUDE
 40
-122.394
  9
$NORTHDIRECTION
 40
0.0
  9
$TIMEZONE
 70
 -8000
  9
$LIGHTGLYPHDISPLAY
280
     1
  9
$TILEMODELIGHTSYNCH
280
     1
  9
$SOLIDHIST
280
     1
  9
$SHOWHIST
280
     1
  9
$DWFFRAME
280
     2
  9
$DGNFRAME
280
     2
  9
$REALWORLDSCALE
290
     1
  9
$INTERFERECOLOR
 62
   256
  9
$CSHADOW
280
     0
  9
$SHADOWPLANELOCATION
 40
0.0
  0
ENDSEC
  0
SECTION
  2
CLASSES
  0
CLASS
  1
ACDBDICTIONARYWDFLT
  2
AcDbDictionaryWithDefault
  3
ObjectDBX Classes
 90
        0
 91
        3
280
     0
281
     0
  0
CLASS
  1
VISUALSTYLE
  2
AcDbVisualStyle
  3
ObjectDBX Classes
 90
     4095
 91
        3
280
     0
281
     0
  0
CLASS
  1
SCALE
  2
AcDbScale
  3
ObjectDBX Classes
 90
     1153
 91
        3
280
     0
281
     0
  0
ENDSEC
  0
SECTION
  2
TABLES
  0
TABLE
  2
VPORT
  5
8
330
0
100
AcDbSymbolTable
 70
     1
  0
VPORT
  5
29
330
8
100
AcDbSymbolTableRecord
100
AcDbViewportTableRecord
  2
*Active
 70
     0
 10
0.0
 20
0.0
 11
1.0
 21
1.0
 12
10.42990654205607
 22
4.5
 13
0.0
 23
0.0
 14
0.5
 24
0.5
 15
0.5
 25
0.5
 16
0.0
 26
0.0
 36
1.0
 17
0.0
 27
0.0
 37
0.0
 40
9.0
 41
1.972972972850329
 42
50.0
 43
0.0
 44
0.0
 50
0.0
 51
0.0
 71
     0
 72
   100
 73
     1
 74
     3
 75
     0
 76
     0
 77
     0
 78
     0
281
     0
 65
     1
110
0.0
120
0.0
130
0.0
111
1.0
121
0.0
131
0.0
112
0.0
122
1.0
132
0.0
 79
     0
146
0.0
 60
     3
 61
     5
292
     1
282
     1
141
0.0
142
0.0
 63
   256
  0
ENDTAB
  0
TABLE
  2
LTYPE
  5
5
330
0
100
AcDbSymbolTable
 70
     1
  0
LTYPE
  5
14
330
5
100
AcDbSymbolTableRecord
100
AcDbLinetypeTableRecord
  2
ByBlock
 70
     0
  3

 72
    65
 73
     0
 40
0.0
  0
LTYPE
  5
15
330
5
100
AcDbSymbolTableRecord
100
AcDbLinetypeTableRecord
  2
ByLayer
 70
     0
  3

 72
    65
 73
     0
 40
0.0
  0
LTYPE
  5
16
330
5
100
AcDbSymbolTableRecord
100
AcDbLinetypeTableRecord
  2
Continuous
 70
     0
  3
Solid line
 72
    65
 73
     0
 40
0.0
  0
ENDTAB
  0
TABLE
  2
LAYER
  5
2
330
0
100
AcDbSymbolTable
 70
     2
  0
LAYER
  5
10
330
2
100
AcDbSymbolTableRecord
100
AcDbLayerTableRecord
  2
0
 70
     0
 62
     7
  6
Continuous
370
    -3
390
F
347
0
  0
LAYER
  5
5E
330
2
100
AcDbSymbolTableRecord
100
AcDbLayerTableRecord
  2
layer 1
 70
     0
 62
     7
  6
Continuous
370
    -3
390
F
347
0
  0
ENDTAB
  0
TABLE
  2
STYLE
  5
3
330
0
100
AcDbSymbolTable
 70
     1
  0
STYLE
  5
11
330
3
100
AcDbSymbolTableRecord
100
AcDbTextStyleTableRecord
  2
Standard
 70
     0
 40
0.0
 41
1.0
 50
0.0
 71
     0
 42
0.2
  3
txt
  4

  0
ENDTAB
  0
TABLE
  2
VIEW
  5
6
330
0
100
AcDbSymbolTable
 70
     0
  0
ENDTAB
  0
TABLE
  2
UCS
  5
7
330
0
100
AcDbSymbolTable
 70
     0
  0
ENDTAB
  0
TABLE
  2
APPID
  5
9
330
0
100
AcDbSymbolTable
 70
     2
  0
APPID
  5
12
330
9
100
AcDbSymbolTableRecord
100
AcDbRegAppTableRecord
  2
ACAD
 70
     0
  0
APPID
  5
5D
330
9
100
AcDbSymbolTableRecord
100
AcDbRegAppTableRecord
  2
ODA
 70
     0
  0
ENDTAB
  0
TABLE
  2
DIMSTYLE
  5
A
330
0
100
AcDbSymbolTable
 70
     1
100
AcDbDimStyleTable
  0
DIMSTYLE
105
27
330
A
100
AcDbSymbolTableRecord
100
AcDbDimStyleTableRecord
  2
Standard
 70
     0
340
11
  0
ENDTAB
  0
TABLE
  2
BLOCK_RECORD
  5
1
330
0
100
AcDbSymbolTable
 70
     1
  0
BLOCK_RECORD
  5
1F
330
1
100
AcDbSymbolTableRecord
100
AcDbBlockTableRecord
  2
*Model_Space
340
22
 70
     0
280
     1
281
     0
  0
BLOCK_RECORD
  5
1B
330
1
100
AcDbSymbolTableRecord
100
AcDbBlockTableRecord
  2
*Paper_Space
340
1E
 70
     0
280
     1
281
     0
  0
BLOCK_RECORD
  5
23
330
1
100
AcDbSymbolTableRecord
100
AcDbBlockTableRecord
  2
*Paper_Space0
340
26
 70
     0
280
     1
281
     0
  0
ENDTAB
  0
ENDSEC
  0
SECTION
  2
BLOCKS
  0
BLOCK
  5
20
330
1F
100
AcDbEntity
  8
0
100
AcDbBlockBegin
  2
*Model_Space
 70
     0
 10
0.0
 20
0.0
 30
0.0
  3
*Model_Space
  1

  0
ENDBLK
  5
21
330
1F
100
AcDbEntity
  8
0
100
AcDbBlockEnd
  0
BLOCK
  5
1C
330
1B
100
AcDbEntity
 67
     1
  8
0
100
AcDbBlockBegin
  2
*Paper_Space
 70
     0
 10
0.0
 20
0.0
 30
0.0
  3
*Paper_Space
  1

  0
ENDBLK
  5
1D
330
1B
100
AcDbEntity
 67
     1
  8
0
100
AcDbBlockEnd
  0
BLOCK
  5
24
330
23
100
AcDbEntity
  8
0
100
AcDbBlockBegin
  2
*Paper_Space0
 70
     0
 10
0.0
 20
0.0
 30
0.0
  3
*Paper_Space0
  1

  0
ENDBLK
  5
25
330
23
100
AcDbEntity
  8
0
100
AcDbBlockEnd
  0
ENDSEC
  0
SECTION
  2
ENTITIES
  0
LWPOLYLINE
  5
5F
330
1F
100
AcDbEntity
  8
layer 1
 62
   251
370
     9
100
AcDbPolyline
 90
        5
 70
     1
 43
0.0
 10
-12.4439
 20
-10.7275
 10
11.07078
 20
-10.7275
 10
11.07078
 20
10.12676
 10
-12.4439
 20
10.12676
 10
-12.4439
 20
-10.7275
  0
SPLINE
  5
60
330
1F
100
AcDbEntity
  8
layer 1
 62
     7
100
AcDbSpline
210
0.0
220
0.0
230
1.0
 70
    11
 71
     3
 72
   224
 73
   220
 74
     0
 42
0.0000000001
 43
0.0000000001
 40
0.0
 40
0.0
 40
0.0
 40
0.0
 40
0.0181818181818182
 40
0.0181818181818182
 40
0.0181818181818182
 40
0.0181818181818182
 40
0.0363636363636364
 40
0.0363636363636364
 40
0.0363636363636364
 40
0.0363636363636364
 40
0.0545454545454545
 40
0.0545454545454545
 40
0.0545454545454545
 40
0.0545454545454545
 40
0.0727272727272727
 40
0.0727272727272727
 40
0.0727272727272727
 40
0.0727272727272727
 40
0.0909090909090909
 40
0.0909090909090909
 40
0.0909090909090909
 40
0.0909090909090909
 40
0.1090909090909091
 40
0.1090909090909091
 40
0.1090909090909091
 40
0.1090909090909091
 40
0.1272727272727273
 40
0.1272727272727273
 40
0.1272727272727273
 40
0.1272727272727273
 40
0.1454545454545455
 40
0.1454545454545455
 40
0.1454545454545455
 40
0.1454545454545455
 40
0.1636363636363637
 40
0.1636363636363637
 40
0.1636363636363637
 40
0.1636363636363637
 40
0.1818181818181819
 40
0.1818181818181819
 40
0.1818181818181819
 40
0.1818181818181819
 40
0.2
 40
0.2
 40
0.2
 40
0.2
 40
0.2181818181818182
 40
0.2181818181818182
 40
0.2181818181818182
 40
0.2181818181818182
 40
0.2363636363636364
 40
0.2363636363636364
 40
0.2363636363636364
 40
0.2363636363636364
 40
0.2545454545454546
 40
0.2545454545454546
 40
0.2545454545454546
 40
0.2545454545454546
 40
0.2727272727272728
 40
0.2727272727272728
 40
0.2727272727272728
 40
0.2727272727272728
 40
0.290909090909091
 40
0.290909090909091
 40
0.290909090909091
 40
0.290909090909091
 40
0.3090909090909091
 40
0.3090909090909091
 40
0.3090909090909091
 40
0.3090909090909091
 40
0.3272727272727273
 40
0.3272727272727273
 40
0.3272727272727273
 40
0.3272727272727273
 40
0.3454545454545455
 40
0.3454545454545455
 40
0.3454545454545455
 40
0.3454545454545455
 40
0.3636363636363637
 40
0.3636363636363637
 40
0.3636363636363637
 40
0.3636363636363637
 40
0.3818181818181819
 40
0.3818181818181819
 40
0.3818181818181819
 40
0.3818181818181819
 40
0.4000000000000001
 40
0.4000000000000001
 40
0.4000000000000001
 40
0.4000000000000001
 40
0.4181818181818183
 40
0.4181818181818183
 40
0.4181818181818183
 40
0.4181818181818183
 40
0.4363636363636365
 40
0.4363636363636365
 40
0.4363636363636365
 40
0.4363636363636365
 40
0.4545454545454546
 40
0.4545454545454546
 40
0.4545454545454546
 40
0.4545454545454546
 40
0.4727272727272728
 40
0.4727272727272728
 40
0.4727272727272728
 40
0.4727272727272728
 40
0.490909090909091
 40
0.490909090909091
 40
0.490909090909091
 40
0.490909090909091
 40
0.5090909090909091
 40
0.5090909090909091
 40
0.5090909090909091
 40
0.5090909090909091
 40
0.5272727272727273
 40
0.5272727272727273
 40
0.5272727272727273
 40
0.5272727272727273
 40
0.5454545454545455
 40
0.5454545454545455
 40
0.5454545454545455
 40
0.5454545454545455
 40
0.5636363636363637
 40
0.5636363636363637
 40
0.5636363636363637
 40
0.5636363636363637
 40
0.5818181818181819
 40
0.5818181818181819
 40
0.5818181818181819
 40
0.5818181818181819
 40
0.6000000000000001
 40
0.6000000000000001
 40
0.6000000000000001
 40
0.6000000000000001
 40
0.6181818181818183
 40
0.6181818181818183
 40
0.6181818181818183
 40
0.6181818181818183
 40
0.6363636363636365
 40
0.6363636363636365
 40
0.6363636363636365
 40
0.6363636363636365
 40
0.6545454545454547
 40
0.6545454545454547
 40
0.6545454545454547
 40
0.6545454545454547
 40
0.6727272727272728
 40
0.6727272727272728
 40
0.6727272727272728
 40
0.6727272727272728
 40
0.690909090909091
 40
0.690909090909091
 40
0.690909090909091
 40
0.690909090909091
 40
0.7090909090909092
 40
0.7090909090909092
 40
0.7090909090909092
 40
0.7090909090909092
 40
0.7272727272727274
 40
0.7272727272727274
 40
0.7272727272727274
 40
0.7272727272727274
 40
0.7454545454545456
 40
0.7454545454545456
 40
0.7454545454545456
 40
0.7454545454545456
 40
0.7636363636363638
 40
0.7636363636363638
 40
0.7636363636363638
 40
0.7636363636363638
 40
0.781818181818182
 40
0.781818181818182
 40
0.781818181818182
 40
0.781818181818182
 40
0.8000000000000002
 40
0.8000000000000002
 40
0.8000000000000002
 40
0.8000000000000002
 40
0.8181818181818183
 40
0.8181818181818183
 40
0.8181818181818183
 40
0.8181818181818183
 40
0.8363636363636365
 40
0.8363636363636365
 40
0.8363636363636365
 40
0.8363636363636365
 40
0.8545454545454547
 40
0.8545454545454547
 40
0.8545454545454547
 40
0.8545454545454547
 40
0.8727272727272729
 40
0.8727272727272729
 40
0.8727272727272729
 40
0.8727272727272729
 40
0.8909090909090911
 40
0.8909090909090911
 40
0.8909090909090911
 40
0.8909090909090911
 40
0.9090909090909093
 40
0.9090909090909093
 40
0.9090909090909093
 40
0.9090909090909093
 40
0.9272727272727275
 40
0.9272727272727275
 40
0.9272727272727275
 40
0.9272727272727275
 40
0.9454545454545457
 40
0.9454545454545457
 40
0.9454545454545457
 40
0.9454545454545457
 40
0.9636363636363638
 40
0.9636363636363638
 40
0.9636363636363638
 40
0.9636363636363638
 40
0.981818181818182
 40
0.981818181818182
 40
0.981818181818182
 40
0.981818181818182
 40
1.0
 40
1.0
 40
1.0
 40
1.0
 10
-10.12751
 20
1.21757
 30
0.0
 10
-10.41606
 20
2.34384
 30
0.0
 10
-9.87546
 20
3.4687
 30
0.0
 10
-8.64924
 20
3.77287
 30
0.0
 10
-8.64924
 20
3.77287
 30
0.0
 10
-8.6556
 20
4.55354
 30
0.0
 10
-8.54932
 20
5.29197
 30
0.0
 10
-8.1952
 20
5.93748
 30
0.0
 10
-8.1952
 20
5.93748
 30
0.0
 10
-7.44483
 20
5.58092
 30
0.0
 10
-6.92228
 20
5.22206
 30
0.0
 10
-6.6747
 20
4.86045
 30
0.0
 10
-6.6747
 20
4.86045
 30
0.0
 10
-6.6747
 20
4.86045
 30
0.0
 10
-7.59334
 20
5.80021
 30
0.0
 10
-7.59334
 20
5.80021
 30
0.0
 10
-7.59334
 20
5.80021
 30
0.0
 10
-7.05345
 20
6.66471
 30
0.0
 10
-6.26574
 20
6.97161
 30
0.0
 10
-5.36537
 20
7.02506
 30
0.0
 10
-5.36537
 20
7.02506
 30
0.0
 10
-4.94978
 20
7.8921
 30
0.0
 10
-4.24411
 20
8.38135
 30
0.0
 10
-3.02126
 20
8.19712
 30
0.0
 10
-3.02126
 20
8.19712
 30
0.0
 10
-1.69025
 20
9.4415
 30
0.0
 10
-0.2163
 20
9.75245
 30
0.0
 10
1.54027
 20
8.21824
 30
0.0
 10
1.54027
 20
8.21824
 30
0.0
 10
2.40967
 20
8.47907
 30
0.0
 10
3.22587
 20
8.33412
 30
0.0
 10
3.89494
 20
7.0673
 30
0.0
 10
3.89494
 20
7.0673
 30
0.0
 10
4.77917
 20
6.98303
 30
0.0
 10
5.58674
 20
6.62088
 30
0.0
 10
6.27073
 20
5.81077
 30
0.0
 10
6.27073
 20
5.81077
 30
0.0
 10
6.27073
 20
5.81077
 30
0.0
 10
5.93284
 20
5.54679
 30
0.0
 10
5.93284
 20
5.54679
 30
0.0
 10
5.93284
 20
5.54679
 30
0.0
 10
6.16663
 20
5.73225
 30
0.0
 10
6.39013
 20
5.87659
 30
0.0
 10
6.57695
 20
5.87412
 30
0.0
 10
6.57695
 20
5.87412
 30
0.0
 10
6.88668
 20
5.52566
 30
0.0
 10
7.02747
 20
4.96603
 30
0.0
 10
6.99931
 20
4.19523
 30
0.0
 10
6.99931
 20
4.19523
 30
0.0
 10
7.96987
 20
3.95941
 30
0.0
 10
8.47845
 20
3.23082
 30
0.0
 10
8.60429
 20
2.09397
 30
0.0
 10
8.60429
 20
2.09397
 30
0.0
 10
8.67467
 20
1.7164
 30
0.0
 10
8.65356
 20
1.42202
 30
0.0
 10
8.4987
 20
1.24925
 30
0.0
 10
8.4987
 20
1.24925
 30
0.0
 10
8.92049
 20
0.91625
 30
0.0
 10
9.26819
 20
0.50214
 30
0.0
 10
9.25895
 20
-0.30294
 30
0.0
 10
9.25895
 20
-0.30294
 30
0.0
 10
9.30192
 20
-1.06175
 30
0.0
 10
8.48798
 20
-2.57782
 30
0.0
 10
8.2664
 20
-2.79488
 30
0.0
 10
8.2664
 20
-2.79488
 30
0.0
 10
8.47118
 20
-3.46681
 30
0.0
 10
8.11665
 20
-4.4184
 30
0.0
 10
7.37944
 20
-5.56136
 30
0.0
 10
7.37944
 20
-5.56136
 30
0.0
 10
7.37944
 20
-5.56136
 30
0.0
 10
6.97819
 20
-5.59304
 30
0.0
 10
6.97819
 20
-5.59304
 30
0.0
 10
6.97819
 20
-5.59304
 30
0.0
 10
6.55282
 20
-5.43915
 30
0.0
 10
6.1566
 20
-5.24153
 30
0.0
 10
5.79557
 20
-4.99117
 30
0.0
 10
5.79557
 20
-4.99117
 30
0.0
 10
6.1933
 20
-5.3819
 30
0.0
 10
6.58599
 20
-5.86812
 30
0.0
 10
6.96763
 20
-6.56447
 30
0.0
 10
6.96763
 20
-6.56447
 30
0.0
 10
6.96763
 20
-6.56447
 30
0.0
 10
6.88316
 20
-6.74398
 30
0.0
 10
6.88316
 20
-6.74398
 30
0.0
 10
6.88316
 20
-6.74398
 30
0.0
 10
4.79242
 20
-7.33094
 30
0.0
 10
3.54342
 20
-7.1351
 30
0.0
 10
3.06077
 20
-6.22658
 30
0.0
 10
3.06077
 20
-6.22658
 30
0.0
 10
3.44504
 20
-6.77412
 30
0.0
 10
3.73945
 20
-7.7434
 30
0.0
 10
3.76823
 20
-9.10921
 30
0.0
 10
3.76823
 20
-9.10921
 30
0.0
 10
2.61795
 20
-8.86866
 30
0.0
 10
1.63345
 20
-8.47153
 30
0.0
 10
1.10734
 20
-7.6415
 30
0.0
 10
1.10734
 20
-7.6415
 30
0.0
 10
0.96125
 20
-9.40192
 30
0.0
 10
0.38895
 20
-9.59457
 30
0.0
 10
-0.24422
 20
-9.56325
 30
0.0
 10
-0.24422
 20
-9.56325
 30
0.0
 10
-0.55644
 20
-9.33922
 30
0.0
 10
-0.81086
 20
-9.08629
 30
0.0
 10
-0.96224
 20
-8.78188
 30
0.0
 10
-0.96224
 20
-8.78188
 30
0.0
 10
-1.15936
 20
-9.10205
 30
0.0
 10
-1.36433
 20
-9.29647
 30
0.0
 10
-1.57466
 20
-9.40486
 30
0.0
 10
-1.57466
 20
-9.40486
 30
0.0
 10
-2.41066
 20
-9.0634
 30
0.0
 10
-2.72089
 20
-8.42513
 30
0.0
 10
-2.73616
 20
-7.62038
 30
0.0
 10
-2.73616
 20
-7.62038
 30
0.0
 10
-2.92555
 20
-8.46177
 30
0.0
 10
-4.06811
 20
-8.6904
 30
0.0
 10
-5.55543
 20
-8.6974
 30
0.0
 10
-5.55543
 20
-8.6974
 30
0.0
 10
-5.55543
 20
-8.6974
 30
0.0
 10
-5.34425
 20
-7.34584
 30
0.0
 10
-5.34425
 20
-7.34584
 30
0.0
 10
-5.34425
 20
-7.34584
 30
0.0
 10
-5.26136
 20
-6.88407
 30
0.0
 10
-5.13286
 20
-6.44738
 30
0.0
 10
-4.78462
 20
-6.13155
 30
0.0
 10
-4.78462
 20
-6.13155
 30
0.0
 10
-5.19017
 20
-6.70667
 30
0.0
 10
-6.07056
 20
-6.71651
 30
0.0
 10
-7.03371
 20
-6.62783
 30
0.0
 10
-7.03371
 20
-6.62783
 30
0.0
 10
-7.03371
 20
-6.62783
 30
0.0
 10
-7.34813
 20
-6.59146
 30
0.0
 10
-7.34813
 20
-6.59146
 30
0.0
 10
-7.34813
 20
-6.59146
 30
0.0
 10
-7.34813
 20
-6.59146
 30
0.0
 10
-7.37394
 20
-6.53514
 30
0.0
 10
-7.37394
 20
-6.53514
 30
0.0
 10
-7.37394
 20
-6.53514
 30
0.0
 10
-7.37394
 20
-6.53514
 30
0.0
 10
-7.48423
 20
-6.54922
 30
0.0
 10
-7.48423
 20
-6.54922
 30
0.0
 10
-7.48423
 20
-6.54922
 30
0.0
 10
-7.48423
 20
-6.54922
 30
0.0
 10
-7.48188
 20
-6.51872
 30
0.0
 10
-7.48188
 20
-6.51872
 30
0.0
 10
-7.48188
 20
-6.51872
 30
0.0
 10
-7.48188
 20
-6.51872
 30
0.0
 10
-7.58747
 20
-6.53514
 30
0.0
 10
-7.58747
 20
-6.53514
 30
0.0
 10
-7.58747
 20
-6.53514
 30
0.0
 10
-7.58747
 20
-6.53514
 30
0.0
 10
-7.61328
 20
-6.48821
 30
0.0
 10
-7.61328
 20
-6.48821
 30
0.0
 10
-7.61328
 20
-6.48821
 30
0.0
 10
-7.61328
 20
-6.48821
 30
0.0
 10
-7.75876
 20
-6.49525
 30
0.0
 10
-7.75876
 20
-6.49525
 30
0.0
 10
-7.75876
 20
-6.49525
 30
0.0
 10
-7.75876
 20
-6.49525
 30
0.0
 10
-7.76815
 20
-6.45771
 30
0.0
 10
-7.76815
 20
-6.45771
 30
0.0
 10
-7.76815
 20
-6.45771
 30
0.0
 10
-7.76815
 20
-6.45771
 30
0.0
 10
-7.85966
 20
-6.45771
 30
0.0
 10
-7.85966
 20
-6.45771
 30
0.0
 10
-7.85966
 20
-6.45771
 30
0.0
 10
-7.85731
 20
-6.43424
 30
0.0
 10
-7.9676
 20
-6.43894
 30
0.0
 10
-7.9676
 20
-6.43894
 30
0.0
 10
-7.9676
 20
-6.43894
 30
0.0
 10
-7.9676
 20
-6.43894
 30
0.0
 10
-7.97229
 20
-6.39435
 30
0.0
 10
-7.97229
 20
-6.39435
 30
0.0
 10
-7.97229
 20
-6.39435
 30
0.0
 10
-7.97229
 20
-6.39435
 30
0.0
 10
-8.10369
 20
-6.40843
 30
0.0
 10
-8.10369
 20
-6.40843
 30
0.0
 10
-8.10369
 20
-6.40843
 30
0.0
 10
-8.10369
 20
-6.40843
 30
0.0
 10
-8.11542
 20
-6.35681
 30
0.0
 10
-8.11542
 20
-6.35681
 30
0.0
 10
-8.11542
 20
-6.35681
 30
0.0
 10
-8.11542
 20
-6.35681
 30
0.0
 10
-8.25621
 20
-6.34742
 30
0.0
 10
-8.25621
 20
-6.34742
 30
0.0
 10
-8.25621
 20
-6.34742
 30
0.0
 10
-8.25621
 20
-6.34742
 30
0.0
 10
-8.25856
 20
-6.31692
 30
0.0
 10
-8.25856
 20
-6.31692
 30
0.0
 10
-8.25856
 20
-6.31692
 30
0.0
 10
-8.25856
 20
-6.31692
 30
0.0
 10
-8.3665
 20
-6.31457
 30
0.0
 10
-8.3665
 20
-6.31457
 30
0.0
 10
-8.3665
 20
-6.31457
 30
0.0
 10
-8.3665
 20
-6.31457
 30
0.0
 10
-8.3665
 20
-6.27234
 30
0.0
 10
-8.3665
 20
-6.27234
 30
0.0
 10
-8.3665
 20
-6.27234
 30
0.0
 10
-8.3665
 20
-6.27234
 30
0.0
 10
-8.49555
 20
-6.25591
 30
0.0
 10
-8.49555
 20
-6.25591
 30
0.0
 10
-8.49555
 20
-6.25591
 30
0.0
 10
-8.49555
 20
-6.25591
 30
0.0
 10
-7.70245
 20
-5.28682
 30
0.0
 10
-7.70245
 20
-5.28682
 30
0.0
 10
-7.70245
 20
-5.28682
 30
0.0
 10
-7.5948
 20
-5.08488
 30
0.0
 10
-7.42502
 20
-4.91401
 30
0.0
 10
-7.23785
 20
-4.75183
 30
0.0
 10
-7.23785
 20
-4.75183
 30
0.0
 10
-7.57457
 20
-5.08737
 30
0.0
 10
-7.9612
 20
-5.32309
 30
0.0
 10
-8.36415
 20
-5.52616
 30
0.0
 10
-8.36415
 20
-5.52616
 30
0.0
 10
-9.34444
 20
-4.94504
 30
0.0
 10
-9.83792
 20
-4.07342
 30
0.0
 10
-9.74387
 20
-2.8512
 30
0.0
 10
-9.74387
 20
-2.8512
 30
0.0
 10
-11.1437
 20
-1.75249
 30
0.0
 10
-11.71951
 20
0.01768
 30
0.0
 10
-10.12751
 20
1.21757
 30
0.0
  0
SPLINE
  5
61
330
1F
100
AcDbEntity
  8
layer 1
 62
     7
100
AcDbSpline
210
0.0
220
0.0
230
1.0
 70
    11
 71
     3
 72
    16
 73
    12
 74
     0
 42
0.0000000001
 43
0.0000000001
 40
0.0
 40
0.0
 40
0.0
 40
0.0
 40
0.3333333333333333
 40
0.3333333333333333
 40
0.3333333333333333
 40
0.3333333333333333
 40
0.6666666666666666
 40
0.6666666666666666
 40
0.6666666666666666
 40
0.6666666666666666
 40
1.0
 40
1.0
 40
1.0
 40
1.0
 10
3.46374
 20
-1.33773
 30
0.0
 10
3.8193
 20
-1.66161
 30
0.0
 10
4.17899
 20
-1.92342
 30
0.0
 10
4.54781
 20
-2.04871
 30
0.0
 10
4.54781
 20
-2.04871
 30
0.0
 10
4.74236
 20
-2.40068
 30
0.0
 10
4.73258
 20
-2.76839
 30
0.0
 10
4.583
 20
-3.14685
 30
0.0
 10
4.583
 20
-3.14685
 30
0.0
 10
4.12913
 20
-2.68332
 30
0.0
 10
3.77197
 20
-2.05277
 30
0.0
 10
3.46374
 20
-1.33773
 30
0.0
  0
SPLINE
  5
62
330
1F
100
AcDbEntity
  8
layer 1
 62
     7
100
AcDbSpline
210
0.0
220
0.0
230
1.0
 70
    11
 71
     3
 72
    20
 73
    16
 74
     0
 42
0.0000000001
 43
0.0000000001
 40
0.0
 40
0.0
 40
0.0
 40
0.0
 40
0.25
 40
0.25
 40
0.25
 40
0.25
 40
0.5
 40
0.5
 40
0.5
 40
0.5
 40
0.75
 40
0.75
 40
0.75
 40
0.75
 40
1.0
 40
1.0
 40
1.0
 40
1.0
 10
5.0476
 20
-0.64787
 30
0.0
 10
5.21715
 20
-0.80436
 30
0.0
 10
5.43302
 20
-0.80201
 30
0.0
 10
5.69523
 20
-0.64083
 30
0.0
 10
5.69523
 20
-0.64083
 30
0.0
 10
5.58627
 20
-0.90399
 30
0.0
 10
5.55177
 20
-1.12164
 30
0.0
 10
5.68115
 20
-1.23918
 30
0.0
 10
5.68115
 20
-1.23918
 30
0.0
 10
5.26988
 20
-1.43672
 30
0.0
 10
4.98631
 20
-1.78321
 30
0.0
 10
4.89274
 20
-2.3514
 30
0.0
 10
4.89274
 20
-2.3514
 30
0.0
 10
4.65901
 20
-1.84816
 30
0.0
 10
4.57894
 20
-1.31014
 30
0.0
 10
5.0476
 20
-0.64787
 30
0.0
  0
SPLINE
  5
63
330
1F
100
AcDbEntity
  8
layer 1
 62
     7
100
AcDbSpline
210
0.0
220
0.0
230
1.0
 70
    11
 71
     3
 72
    16
 73
    12
 74
     0
 42
0.0000000001
 43
0.0000000001
 40
0.0
 40
0.0
 40
0.0
 40
0.0
 40
0.3333333333333333
 40
0.3333333333333333
 40
0.3333333333333333
 40
0.3333333333333333
 40
0.6666666666666666
 40
0.6666666666666666
 40
0.6666666666666666
 40
0.6666666666666666
 40
1.0
 40
1.0
 40
1.0
 40
1.0
 10
4.66748
 20
-3.21724
 30
0.0
 10
5.00687
 20
-2.57092
 30
0.0
 10
5.63581
 20
-2.51304
 30
0.0
 10
6.03312
 20
-3.32283
 30
0.0
 10
6.03312
 20
-3.32283
 30
0.0
 10
5.76844
 20
-3.4742
 30
0.0
 10
5.57415
 20
-3.71353
 30
0.0
 10
5.39957
 20
-3.9775
 30
0.0
 10
5.39957
 20
-3.9775
 30
0.0
 10
5.13841
 20
-3.75833
 30
0.0
 10
4.89489
 20
-3.50386
 30
0.0
 10
4.66748
 20
-3.21724
 30
0.0
  0
SPLINE
  5
64
330
1F
100
AcDbEntity
  8
layer 1
 62
     7
100
AcDbSpline
210
0.0
220
0.0
230
1.0
 70
    11
 71
     3
 72
    28
 73
    24
 74
     0
 42
0.0000000001
 43
0.0000000001
 40
0.0
 40
0.0
 40
0.0
 40
0.0
 40
0.1666666666666667
 40
0.1666666666666667
 40
0.1666666666666667
 40
0.1666666666666667
 40
0.3333333333333333
 40
0.3333333333333333
 40
0.3333333333333333
 40
0.3333333333333333
 40
0.5
 40
0.5
 40
0.5
 40
0.5
 40
0.6666666666666666
 40
0.6666666666666666
 40
0.6666666666666666
 40
0.6666666666666666
 40
0.8333333333333333
 40
0.8333333333333333
 40
0.8333333333333333
 40
0.8333333333333333
 40
1.0
 40
1.0
 40
1.0
 40
1.0
 10
6.11055
 20
-3.39323
 30
0.0
 10
6.34972
 20
-3.62095
 30
0.0
 10
6.67783
 20
-3.77952
 30
0.0
 10
7.01863
 20
-3.92822
 30
0.0
 10
7.01863
 20
-3.92822
 30
0.0
 10
6.96044
 20
-3.73347
 30
0.0
 10
6.9121
 20
-3.53869
 30
0.0
 10
6.89896
 20
-3.34395
 30
0.0
 10
6.89896
 20
-3.34395
 30
0.0
 10
6.89896
 20
-3.34395
 30
0.0
 10
7.55362
 20
-3.40731
 30
0.0
 10
7.55362
 20
-3.40731
 30
0.0
 10
7.55362
 20
-3.40731
 30
0.0
 10
7.55362
 20
-3.40731
 30
0.0
 10
6.73002
 20
-4.94189
 30
0.0
 10
6.73002
 20
-4.94189
 30
0.0
 10
6.73002
 20
-4.94189
 30
0.0
 10
6.2891
 20
-4.67888
 30
0.0
 10
5.8673
 20
-4.39952
 30
0.0
 10
5.50516
 20
-4.06901
 30
0.0
 10
5.50516
 20
-4.06901
 30
0.0
 10
5.50516
 20
-4.06901
 30
0.0
 10
6.11055
 20
-3.39323
 30
0.0
 10
6.11055
 20
-3.39323
 30
0.0
  0
SPLINE
  5
65
330
1F
100
AcDbEntity
  8
layer 1
 62
     7
100
AcDbSpline
210
0.0
220
0.0
230
1.0
 70
    11
 71
     3
 72
    28
 73
    24
 74
     0
 42
0.0000000001
 43
0.0000000001
 40
0.0
 40
0.0
 40
0.0
 40
0.0
 40
0.1666666666666667
 40
0.1666666666666667
 40
0.1666666666666667
 40
0.1666666666666667
 40
0.3333333333333333
 40
0.3333333333333333
 40
0.3333333333333333
 40
0.3333333333333333
 40
0.5
 40
0.5
 40
0.5
 40
0.5
 40
0.6666666666666666
 40
0.6666666666666666
 40
0.6666666666666666
 40
0.6666666666666666
 40
0.8333333333333333
 40
0.8333333333333333
 40
0.8333333333333333
 40
0.8333333333333333
 40
1.0
 40
1.0
 40
1.0
 40
1.0
 10
1.17594
 20
-3.02718
 30
0.0
 10
1.54199
 20
-2.98729
 30
0.0
 10
1.87049
 20
-2.91455
 30
0.0
 10
2.16145
 20
-2.80896
 30
0.0
 10
2.16145
 20
-2.80896
 30
0.0
 10
2.16145
 20
-2.80896
 30
0.0
 10
1.76725
 20
-2.6189
 30
0.0
 10
1.76725
 20
-2.6189
 30
0.0
 10
1.76725
 20
-2.6189
 30
0.0
 10
1.76725
 20
-2.6189
 30
0.0
 10
2.66125
 20
-2.02055
 30
0.0
 10
2.66125
 20
-2.02055
 30
0.0
 10
2.66125
 20
-2.02055
 30
0.0
 10
2.93816
 20
-2.59919
 30
0.0
 10
3.30504
 20
-3.1238
 30
0.0
 10
3.78051
 20
-3.58329
 30
0.0
 10
3.78051
 20
-3.58329
 30
0.0
 10
2.77669
 20
-3.28202
 30
0.0
 10
1.97996
 20
-3.38555
 30
0.0
 10
1.26745
 20
-3.65369
 30
0.0
 10
1.26745
 20
-3.65369
 30
0.0
 10
1.26745
 20
-3.65369
 30
0.0
 10
1.17594
 20
-3.02718
 30
0.0
 10
1.17594
 20
-3.02718
 30
0.0
  0
SPLINE
  5
66
330
1F
100
AcDbEntity
  8
layer 1
 62
     7
100
AcDbSpline
210
0.0
220
0.0
230
1.0
 70
    11
 71
     3
 72
    40
 73
    36
 74
     0
 42
0.0000000001
 43
0.0000000001
 40
0.0
 40
0.0
 40
0.0
 40
0.0
 40
0.1111111111111111
 40
0.1111111111111111
 40
0.1111111111111111
 40
0.1111111111111111
 40
0.2222222222222222
 40
0.2222222222222222
 40
0.2222222222222222
 40
0.2222222222222222
 40
0.3333333333333333
 40
0.3333333333333333
 40
0.3333333333333333
 40
0.3333333333333333
 40
0.4444444444444444
 40
0.4444444444444444
 40
0.4444444444444444
 40
0.4444444444444444
 40
0.5555555555555556
 40
0.5555555555555556
 40
0.5555555555555556
 40
0.5555555555555556
 40
0.6666666666666667
 40
0.6666666666666667
 40
0.6666666666666667
 40
0.6666666666666667
 40
0.7777777777777779
 40
0.7777777777777779
 40
0.7777777777777779
 40
0.7777777777777779
 40
0.8888888888888891
 40
0.8888888888888891
 40
0.8888888888888891
 40
0.8888888888888891
 40
1.0
 40
1.0
 40
1.0
 40
1.0
 10
-1.42159
 20
-1.79529
 30
0.0
 10
-1.28563
 20
-2.20866
 30
0.0
 10
-1.07489
 20
-2.57787
 30
0.0
 10
-0.6895
 20
-2.34436
 30
0.0
 10
-0.6895
 20
-2.34436
 30
0.0
 10
-0.31515
 20
-2.87246
 30
0.0
 10
0.14057
 20
-3.28404
 30
0.0
 10
1.06331
 20
-3.02718
 30
0.0
 10
1.06331
 20
-3.02718
 30
0.0
 10
1.06331
 20
-3.02718
 30
0.0
 10
1.15482
 20
-3.71
 30
0.0
 10
1.15482
 20
-3.71
 30
0.0
 10
1.15482
 20
-3.71
 30
0.0
 10
0.80094
 20
-3.79608
 30
0.0
 10
0.45983
 20
-3.92894
 30
0.0
 10
0.13411
 20
-4.11829
 30
0.0
 10
0.13411
 20
-4.11829
 30
0.0
 10
-0.09368
 20
-3.54839
 30
0.0
 10
-0.56063
 20
-3.35833
 30
0.0
 10
-1.26673
 20
-3.54809
 30
0.0
 10
-1.26673
 20
-3.54809
 30
0.0
 10
-1.26673
 20
-3.54809
 30
0.0
 10
-1.41455
 20
-3.09053
 30
0.0
 10
-1.41455
 20
-3.09053
 30
0.0
 10
-1.41455
 20
-3.09053
 30
0.0
 10
-1.41455
 20
-3.09053
 30
0.0
 10
-0.94995
 20
-3.03422
 30
0.0
 10
-0.94995
 20
-3.03422
 30
0.0
 10
-0.94995
 20
-3.03422
 30
0.0
 10
-1.16278
 20
-2.8973
 30
0.0
 10
-1.28683
 20
-2.71079
 30
0.0
 10
-1.25265
 20
-2.43587
 30
0.0
 10
-1.25265
 20
-2.43587
 30
0.0
 10
-1.51122
 20
-2.27477
 30
0.0
 10
-1.55527
 20
-2.05806
 30
0.0
 10
-1.42159
 20
-1.79529
 30
0.0
  0
SPLINE
  5
67
330
1F
100
AcDbEntity
  8
layer 1
 62
     7
100
AcDbSpline
210
0.0
220
0.0
230
1.0
 70
    11
 71
     3
 72
    32
 73
    28
 74
     0
 42
0.0000000001
 43
0.0000000001
 40
0.0
 40
0.0
 40
0.0
 40
0.0
 40
0.1428571428571428
 40
0.1428571428571428
 40
0.1428571428571428
 40
0.1428571428571428
 40
0.2857142857142857
 40
0.2857142857142857
 40
0.2857142857142857
 40
0.2857142857142857
 40
0.4285714285714285
 40
0.4285714285714285
 40
0.4285714285714285
 40
0.4285714285714285
 40
0.5714285714285714
 40
0.5714285714285714
 40
0.5714285714285714
 40
0.5714285714285714
 40
0.7142857142857143
 40
0.7142857142857143
 40
0.7142857142857143
 40
0.7142857142857143
 40
0.8571428571428572
 40
0.8571428571428572
 40
0.8571428571428572
 40
0.8571428571428572
 40
1.0
 40
1.0
 40
1.0
 40
1.0
 10
-3.04769
 20
-2.5485
 30
0.0
 10
-2.73636
 20
-2.45856
 30
0.0
 10
-2.45725
 20
-2.54056
 30
0.0
 10
-2.21704
 20
-2.83008
 30
0.0
 10
-2.21704
 20
-2.83008
 30
0.0
 10
-1.97956
 20
-2.97767
 30
0.0
 10
-1.74579
 20
-3.0919
 30
0.0
 10
-1.52014
 20
-3.13277
 30
0.0
 10
-1.52014
 20
-3.13277
 30
0.0
 10
-1.52014
 20
-3.13277
 30
0.0
 10
-1.36528
 20
-3.60441
 30
0.0
 10
-1.36528
 20
-3.60441
 30
0.0
 10
-1.36528
 20
-3.60441
 30
0.0
 10
-1.53696
 20
-3.66813
 30
0.0
 10
-1.64527
 20
-3.80223
 30
0.0
 10
-1.71021
 20
-3.98454
 30
0.0
 10
-1.71021
 20
-3.98454
 30
0.0
 10
-2.09618
 20
-3.73344
 30
0.0
 10
-2.59833
 20
-3.58561
 30
0.0
 10
-3.15328
 20
-3.48474
 30
0.0
 10
-3.15328
 20
-3.48474
 30
0.0
 10
-3.15328
 20
-3.48474
 30
0.0
 10
-3.14624
 20
-3.15389
 30
0.0
 10
-3.14624
 20
-3.15389
 30
0.0
 10
-3.14624
 20
-3.15389
 30
0.0
 10
-2.79174
 20
-2.98081
 30
0.0
 10
-2.73814
 20
-2.78087
 30
0.0
 10
-3.04769
 20
-2.5485
 30
0.0
  0
SPLINE
  5
68
330
1F
100
AcDbEntity
  8
layer 1
 62
     7
100
AcDbSpline
210
0.0
220
0.0
230
1.0
 70
    11
 71
     3
 72
    60
 73
    56
 74
     0
 42
0.0000000001
 43
0.0000000001
 40
0.0
 40
0.0
 40
0.0
 40
0.0
 40
0.0714285714285714
 40
0.0714285714285714
 40
0.0714285714285714
 40
0.0714285714285714
 40
0.1428571428571428
 40
0.1428571428571428
 40
0.1428571428571428
 40
0.1428571428571428
 40
0.2142857142857143
 40
0.2142857142857143
 40
0.2142857142857143
 40
0.2142857142857143
 40
0.2857142857142857
 40
0.2857142857142857
 40
0.2857142857142857
 40
0.2857142857142857
 40
0.3571428571428572
 40
0.3571428571428572
 40
0.3571428571428572
 40
0.3571428571428572
 40
0.4285714285714286
 40
0.4285714285714286
 40
0.4285714285714286
 40
0.4285714285714286
 40
0.5
 40
0.5
 40
0.5
 40
0.5
 40
0.5714285714285714
 40
0.5714285714285714
 40
0.5714285714285714
 40
0.5714285714285714
 40
0.6428571428571428
 40
0.6428571428571428
 40
0.6428571428571428
 40
0.6428571428571428
 40
0.7142857142857142
 40
0.7142857142857142
 40
0.7142857142857142
 40
0.7142857142857142
 40
0.7857142857142856
 40
0.7857142857142856
 40
0.7857142857142856
 40
0.7857142857142856
 40
0.857142857142857
 40
0.857142857142857
 40
0.857142857142857
 40
0.857142857142857
 40
0.9285714285714284
 40
0.9285714285714284
 40
0.9285714285714284
 40
0.9285714285714284
 40
1.0
 40
1.0
 40
1.0
 40
1.0
 10
-4.4978
 20
-2.34436
 30
0.0
 10
-4.4978
 20
-2.34436
 30
0.0
 10
-4.34684
 20
-2.37061
 30
0.0
 10
-4.34684
 20
-2.37061
 30
0.0
 10
-4.34684
 20
-2.37061
 30
0.0
 10
-4.34684
 20
-2.37061
 30
0.0
 10
-4.34806
 20
-2.41677
 30
0.0
 10
-4.34806
 20
-2.41677
 30
0.0
 10
-4.34806
 20
-2.41677
 30
0.0
 10
-4.34806
 20
-2.41677
 30
0.0
 10
-4.20427
 20
-2.39489
 30
0.0
 10
-4.20427
 20
-2.39489
 30
0.0
 10
-4.20427
 20
-2.39489
 30
0.0
 10
-4.20427
 20
-2.42928
 30
0.0
 10
-4.0636
 20
-2.42928
 30
0.0
 10
-4.0636
 20
-2.42928
 30
0.0
 10
-4.0636
 20
-2.42928
 30
0.0
 10
-4.0636
 20
-2.42928
 30
0.0
 10
-4.03234
 20
-2.48867
 30
0.0
 10
-4.03234
 20
-2.48867
 30
0.0
 10
-4.03234
 20
-2.48867
 30
0.0
 10
-4.03234
 20
-2.48867
 30
0.0
 10
-3.89168
 20
-2.48554
 30
0.0
 10
-3.89168
 20
-2.48554
 30
0.0
 10
-3.89168
 20
-2.48554
 30
0.0
 10
-3.89168
 20
-2.48554
 30
0.0
 10
-3.90106
 20
-2.53556
 30
0.0
 10
-3.82603
 20
-2.54181
 30
0.0
 10
-3.82603
 20
-2.54181
 30
0.0
 10
-3.75101
 20
-2.54806
 30
0.0
 10
-3.68537
 20
-2.54806
 30
0.0
 10
-3.68537
 20
-2.54806
 30
0.0
 10
-3.68537
 20
-2.54806
 30
0.0
 10
-3.68537
 20
-2.54806
 30
0.0
 10
-3.66974
 20
-2.59495
 30
0.0
 10
-3.66974
 20
-2.59495
 30
0.0
 10
-3.66974
 20
-2.59495
 30
0.0
 10
-3.66974
 20
-2.59495
 30
0.0
 10
-3.54783
 20
-2.58557
 30
0.0
 10
-3.54783
 20
-2.58557
 30
0.0
 10
-3.54783
 20
-2.58557
 30
0.0
 10
-3.55585
 20
-2.88846
 30
0.0
 10
-3.46753
 20
-3.09499
 30
0.0
 10
-3.23837
 20
-3.16073
 30
0.0
 10
-3.23837
 20
-3.16073
 30
0.0
 10
-3.23837
 20
-3.16073
 30
0.0
 10
-3.23212
 20
-3.47019
 30
0.0
 10
-3.23212
 20
-3.47019
 30
0.0
 10
-3.23212
 20
-3.47019
 30
0.0
 10
-4.0471
 20
-3.25827
 30
0.0
 10
-4.77127
 20
-3.27332
 30
0.0
 10
-5.42023
 20
-3.47645
 30
0.0
 10
-5.42023
 20
-3.47645
 30
0.0
 10
-5.08025
 20
-3.14086
 30
0.0
 10
-4.75458
 20
-2.7869
 30
0.0
 10
-4.4978
 20
-2.34436
 30
0.0
  0
SPLINE
  5
69
330
1F
100
AcDbEntity
  8
layer 1
 62
     7
100
AcDbSpline
210
0.0
220
0.0
230
1.0
 70
    11
 71
     3
 72
    24
 73
    20
 74
     0
 42
0.0000000001
 43
0.0000000001
 40
0.0
 40
0.0
 40
0.0
 40
0.0
 40
0.2
 40
0.2
 40
0.2
 40
0.2
 40
0.4
 40
0.4
 40
0.4
 40
0.4
 40
0.6
 40
0.6
 40
0.6
 40
0.6
 40
0.7999999999999999
 40
0.7999999999999999
 40
0.7999999999999999
 40
0.7999999999999999
 40
1.0
 40
1.0
 40
1.0
 40
1.0
 10
-6.89471
 20
-5.07564
 30
0.0
 10
-6.39829
 20
-4.62316
 30
0.0
 10
-5.89107
 20
-4.18105
 30
0.0
 10
-5.22638
 20
-3.88951
 30
0.0
 10
-5.22638
 20
-3.88951
 30
0.0
 10
-5.31595
 20
-4.26674
 30
0.0
 10
-5.29881
 20
-4.56224
 30
0.0
 10
-5.04688
 20
-4.67792
 30
0.0
 10
-5.04688
 20
-4.67792
 30
0.0
 10
-5.32286
 20
-4.70397
 30
0.0
 10
-5.49101
 20
-4.84645
 30
0.0
 10
-5.58539
 20
-5.0686
 30
0.0
 10
-5.58539
 20
-5.0686
 30
0.0
 10
-5.98934
 20
-4.94302
 30
0.0
 10
-6.34563
 20
-5.00414
 30
0.0
 10
-6.66241
 20
-5.21995
 30
0.0
 10
-6.66241
 20
-5.21995
 30
0.0
 10
-6.66241
 20
-5.21995
 30
0.0
 10
-6.89471
 20
-5.07564
 30
0.0
 10
-6.89471
 20
-5.07564
 30
0.0
  0
SPLINE
  5
6A
330
1F
100
AcDbEntity
  8
layer 1
 62
     7
100
AcDbSpline
210
0.0
220
0.0
230
1.0
 70
    11
 71
     3
 72
    24
 73
    20
 74
     0
 42
0.0000000001
 43
0.0000000001
 40
0.0
 40
0.0
 40
0.0
 40
0.0
 40
0.2
 40
0.2
 40
0.2
 40
0.2
 40
0.4
 40
0.4
 40
0.4
 40
0.4
 40
0.6
 40
0.6
 40
0.6
 40
0.6
 40
0.7999999999999999
 40
0.7999999999999999
 40
0.7999999999999999
 40
0.7999999999999999
 40
1.0
 40
1.0
 40
1.0
 40
1.0
 10
-5.06799
 20
-3.86135
 30
0.0
 10
-4.7395
 20
-3.75355
 30
0.0
 10
-4.41099
 20
-3.68751
 30
0.0
 10
-4.08248
 20
-3.69592
 30
0.0
 10
-4.08248
 20
-3.69592
 30
0.0
 10
-4.03864
 20
-3.97852
 30
0.0
 10
-3.93303
 20
-4.22059
 30
0.0
 10
-3.6566
 20
-4.35058
 30
0.0
 10
-3.6566
 20
-4.35058
 30
0.0
 10
-3.95575
 20
-4.35881
 30
0.0
 10
-4.20554
 20
-4.423
 30
0.0
 10
-4.39573
 20
-4.55473
 30
0.0
 10
-4.39573
 20
-4.55473
 30
0.0
 10
-4.48094
 20
-4.50895
 30
0.0
 10
-4.56724
 20
-4.47181
 30
0.0
 10
-4.65971
 20
-4.48433
 30
0.0
 10
-4.65971
 20
-4.48433
 30
0.0
 10
-4.62416
 20
-4.17041
 30
0.0
 10
-4.79841
 20
-3.98636
 30
0.0
 10
-5.06799
 20
-3.86135
 30
0.0
  0
SPLINE
  5
6B
330
1F
100
AcDbEntity
  8
layer 1
 62
     7
100
AcDbSpline
210
0.0
220
0.0
230
1.0
 70
    11
 71
     3
 72
    24
 73
    20
 74
     0
 42
0.0000000001
 43
0.0000000001
 40
0.0
 40
0.0
 40
0.0
 40
0.0
 40
0.2
 40
0.2
 40
0.2
 40
0.2
 40
0.4
 40
0.4
 40
0.4
 40
0.4
 40
0.6
 40
0.6
 40
0.6
 40
0.6
 40
0.7999999999999999
 40
0.7999999999999999
 40
0.7999999999999999
 40
0.7999999999999999
 40
1.0
 40
1.0
 40
1.0
 40
1.0
 10
-4.3359
 20
-5.57192
 30
0.0
 10
-4.3359
 20
-5.57192
 30
0.0
 10
-4.23735
 20
-5.64231
 30
0.0
 10
-4.23735
 20
-5.64231
 30
0.0
 10
-4.23735
 20
-5.64231
 30
0.0
 10
-3.9631
 20
-5.26758
 30
0.0
 10
-3.62514
 20
-4.95078
 30
0.0
 10
-3.11104
 20
-4.79407
 30
0.0
 10
-3.11104
 20
-4.79407
 30
0.0
 10
-3.37334
 20
-4.45192
 30
0.0
 10
-3.82178
 20
-4.43086
 30
0.0
 10
-4.37461
 20
-4.58992
 30
0.0
 10
-4.37461
 20
-4.58992
 30
0.0
 10
-4.32073
 20
-4.71883
 30
0.0
 10
-4.37032
 20
-4.83479
 30
0.0
 10
-4.49076
 20
-4.94189
 30
0.0
 10
-4.49076
 20
-4.94189
 30
0.0
 10
-4.25426
 20
-5.09309
 30
0.0
 10
-4.25261
 20
-5.31899
 30
0.0
 10
-4.3359
 20
-5.57192
 30
0.0
  0
SPLINE
  5
6C
330
1F
100
AcDbEntity
  8
layer 1
 62
     7
100
AcDbSpline
210
0.0
220
0.0
230
1.0
 70
    11
 71
     3
 72
    40
 73
    36
 74
     0
 42
0.0000000001
 43
0.0000000001
 40
0.0
 40
0.0
 40
0.0
 40
0.0
 40
0.1111111111111111
 40
0.1111111111111111
 40
0.1111111111111111
 40
0.1111111111111111
 40
0.2222222222222222
 40
0.2222222222222222
 40
0.2222222222222222
 40
0.2222222222222222
 40
0.3333333333333333
 40
0.3333333333333333
 40
0.3333333333333333
 40
0.3333333333333333
 40
0.4444444444444444
 40
0.4444444444444444
 40
0.4444444444444444
 40
0.4444444444444444
 40
0.5555555555555556
 40
0.5555555555555556
 40
0.5555555555555556
 40
0.5555555555555556
 40
0.6666666666666667
 40
0.6666666666666667
 40
0.6666666666666667
 40
0.6666666666666667
 40
0.7777777777777779
 40
0.7777777777777779
 40
0.7777777777777779
 40
0.7777777777777779
 40
0.8888888888888891
 40
0.8888888888888891
 40
0.8888888888888891
 40
0.8888888888888891
 40
1.0
 40
1.0
 40
1.0
 40
1.0
 10
-4.7477
 20
-5.14604
 30
0.0
 10
-4.75519
 20
-5.34912
 30
0.0
 10
-4.67191
 20
-5.47231
 30
0.0
 10
-4.4978
 20
-5.5156
 30
0.0
 10
-4.4978
 20
-5.5156
 30
0.0
 10
-5.14342
 20
-6.11822
 30
0.0
 10
-5.89543
 20
-6.36973
 30
0.0
 10
-6.75897
 20
-6.25327
 30
0.0
 10
-6.75897
 20
-6.25327
 30
0.0
 10
-6.75897
 20
-6.25327
 30
0.0
 10
-6.65847
 20
-5.80703
 30
0.0
 10
-6.65847
 20
-5.80703
 30
0.0
 10
-6.65847
 20
-5.80703
 30
0.0
 10
-6.46064
 20
-5.83586
 30
0.0
 10
-6.26609
 20
-5.71988
 30
0.0
 10
-6.07554
 20
-5.42914
 30
0.0
 10
-6.07554
 20
-5.42914
 30
0.0
 10
-5.95058
 20
-5.28359
 30
0.0
 10
-5.80051
 20
-5.16893
 30
0.0
 10
-5.58107
 20
-5.13969
 30
0.0
 10
-5.58107
 20
-5.13969
 30
0.0
 10
-5.58107
 20
-5.13969
 30
0.0
 10
-5.61725
 20
-5.28039
 30
0.0
 10
-5.61725
 20
-5.28039
 30
0.0
 10
-5.61725
 20
-5.28039
 30
0.0
 10
-5.61725
 20
-5.28039
 30
0.0
 10
-5.72579
 20
-5.51758
 30
0.0
 10
-5.72579
 20
-5.51758
 30
0.0
 10
-5.72579
 20
-5.51758
 30
0.0
 10
-5.58402
 20
-5.46431
 30
0.0
 10
-5.44621
 20
-5.45474
 30
0.0
 10
-5.31171
 20
-5.4814
 30
0.0
 10
-5.31171
 20
-5.4814
 30
0.0
 10
-5.10921
 20
-5.43629
 30
0.0
 10
-4.91381
 20
-5.35848
 30
0.0
 10
-4.7477
 20
-5.14604
 30
0.0
  0
SPLINE
  5
6D
330
1F
100
AcDbEntity
  8
layer 1
 62
     7
100
AcDbSpline
210
0.0
220
0.0
230
1.0
 70
    11
 71
     3
 72
    60
 73
    56
 74
     0
 42
0.0000000001
 43
0.0000000001
 40
0.0
 40
0.0
 40
0.0
 40
0.0
 40
0.0714285714285714
 40
0.0714285714285714
 40
0.0714285714285714
 40
0.0714285714285714
 40
0.1428571428571428
 40
0.1428571428571428
 40
0.1428571428571428
 40
0.1428571428571428
 40
0.2142857142857143
 40
0.2142857142857143
 40
0.2142857142857143
 40
0.2142857142857143
 40
0.2857142857142857
 40
0.2857142857142857
 40
0.2857142857142857
 40
0.2857142857142857
 40
0.3571428571428572
 40
0.3571428571428572
 40
0.3571428571428572
 40
0.3571428571428572
 40
0.4285714285714286
 40
0.4285714285714286
 40
0.4285714285714286
 40
0.4285714285714286
 40
0.5
 40
0.5
 40
0.5
 40
0.5
 40
0.5714285714285714
 40
0.5714285714285714
 40
0.5714285714285714
 40
0.5714285714285714
 40
0.6428571428571428
 40
0.6428571428571428
 40
0.6428571428571428
 40
0.6428571428571428
 40
0.7142857142857142
 40
0.7142857142857142
 40
0.7142857142857142
 40
0.7142857142857142
 40
0.7857142857142856
 40
0.7857142857142856
 40
0.7857142857142856
 40
0.7857142857142856
 40
0.857142857142857
 40
0.857142857142857
 40
0.857142857142857
 40
0.857142857142857
 40
0.9285714285714284
 40
0.9285714285714284
 40
0.9285714285714284
 40
0.9285714285714284
 40
1.0
 40
1.0
 40
1.0
 40
1.0
 10
-6.97664
 20
-5.13497
 30
0.0
 10
-6.97664
 20
-5.13497
 30
0.0
 10
-6.96207
 20
-5.16701
 30
0.0
 10
-6.96207
 20
-5.16701
 30
0.0
 10
-6.96207
 20
-5.16701
 30
0.0
 10
-6.96207
 20
-5.16701
 30
0.0
 10
-6.86013
 20
-5.17866
 30
0.0
 10
-6.86013
 20
-5.17866
 30
0.0
 10
-6.86013
 20
-5.17866
 30
0.0
 10
-6.86013
 20
-5.17866
 30
0.0
 10
-6.8747
 20
-5.22234
 30
0.0
 10
-6.8747
 20
-5.22234
 30
0.0
 10
-6.8747
 20
-5.22234
 30
0.0
 10
-6.8747
 20
-5.22234
 30
0.0
 10
-6.72324
 20
-5.22817
 30
0.0
 10
-6.72324
 20
-5.22817
 30
0.0
 10
-6.72324
 20
-5.22817
 30
0.0
 10
-6.72324
 20
-5.22817
 30
0.0
 10
-7.31375
 20
-5.94171
 30
0.0
 10
-7.31375
 20
-5.94171
 30
0.0
 10
-7.31375
 20
-5.94171
 30
0.0
 10
-7.31375
 20
-5.94171
 30
0.0
 10
-7.19508
 20
-5.91845
 30
0.0
 10
-7.19508
 20
-5.91845
 30
0.0
 10
-7.19508
 20
-5.91845
 30
0.0
 10
-7.19508
 20
-5.91845
 30
0.0
 10
-6.99702
 20
-5.92427
 30
0.0
 10
-6.99702
 20
-5.92427
 30
0.0
 10
-6.99702
 20
-5.92427
 30
0.0
 10
-6.99702
 20
-5.92427
 30
0.0
 10
-6.99411
 20
-5.88058
 30
0.0
 10
-6.99411
 20
-5.88058
 30
0.0
 10
-6.99411
 20
-5.88058
 30
0.0
 10
-6.99411
 20
-5.88058
 30
0.0
 10
-6.83101
 20
-5.87767
 30
0.0
 10
-6.83101
 20
-5.87767
 30
0.0
 10
-6.83101
 20
-5.87767
 30
0.0
 10
-6.83101
 20
-5.87767
 30
0.0
 10
-6.81936
 20
-5.84855
 30
0.0
 10
-6.81936
 20
-5.84855
 30
0.0
 10
-6.81936
 20
-5.84855
 30
0.0
 10
-6.81936
 20
-5.84855
 30
0.0
 10
-6.71742
 20
-5.81942
 30
0.0
 10
-6.71742
 20
-5.81942
 30
0.0
 10
-6.71742
 20
-5.81942
 30
0.0
 10
-6.71742
 20
-5.81942
 30
0.0
 10
-6.82592
 20
-6.21602
 30
0.0
 10
-6.82592
 20
-6.21602
 30
0.0
 10
-6.82592
 20
-6.21602
 30
0.0
 10
-6.82592
 20
-6.21602
 30
0.0
 10
-7.98166
 20
-6.09699
 30
0.0
 10
-7.98166
 20
-6.09699
 30
0.0
 10
-7.98166
 20
-6.09699
 30
0.0
 10
-7.98166
 20
-6.09699
 30
0.0
 10
-6.97664
 20
-5.13497
 30
0.0
 10
-6.97664
 20
-5.13497
 30
0.0
  0
SPLINE
  5
6E
330
1F
100
AcDbEntity
  8
layer 1
 62
     7
100
AcDbSpline
210
0.0
220
0.0
230
1.0
 70
    11
 71
     3
 72
    64
 73
    60
 74
     0
 42
0.0000000001
 43
0.0000000001
 40
0.0
 40
0.0
 40
0.0
 40
0.0
 40
0.0666666666666667
 40
0.0666666666666667
 40
0.0666666666666667
 40
0.0666666666666667
 40
0.1333333333333333
 40
0.1333333333333333
 40
0.1333333333333333
 40
0.1333333333333333
 40
0.2
 40
0.2
 40
0.2
 40
0.2
 40
0.2666666666666667
 40
0.2666666666666667
 40
0.2666666666666667
 40
0.2666666666666667
 40
0.3333333333333333
 40
0.3333333333333333
 40
0.3333333333333333
 40
0.3333333333333333
 40
0.4
 40
0.4
 40
0.4
 40
0.4
 40
0.4666666666666666
 40
0.4666666666666666
 40
0.4666666666666666
 40
0.4666666666666666
 40
0.5333333333333333
 40
0.5333333333333333
 40
0.5333333333333333
 40
0.5333333333333333
 40
0.6
 40
0.6
 40
0.6
 40
0.6
 40
0.6666666666666666
 40
0.6666666666666666
 40
0.6666666666666666
 40
0.6666666666666666
 40
0.7333333333333333
 40
0.7333333333333333
 40
0.7333333333333333
 40
0.7333333333333333
 40
0.7999999999999999
 40
0.7999999999999999
 40
0.7999999999999999
 40
0.7999999999999999
 40
0.8666666666666666
 40
0.8666666666666666
 40
0.8666666666666666
 40
0.8666666666666666
 40
0.9333333333333332
 40
0.9333333333333332
 40
0.9333333333333332
 40
0.9333333333333332
 40
1.0
 40
1.0
 40
1.0
 40
1.0
 10
4.8215
 20
-5.37446
 30
0.0
 10
4.97498
 20
-5.26709
 30
0.0
 10
5.07025
 20
-5.17637
 30
0.0
 10
5.0804
 20
-5.10994
 30
0.0
 10
5.0804
 20
-5.10994
 30
0.0
 10
5.0804
 20
-5.10994
 30
0.0
 10
6.04283
 20
-6.23558
 30
0.0
 10
6.04283
 20
-6.23558
 30
0.0
 10
6.04283
 20
-6.23558
 30
0.0
 10
6.04283
 20
-6.23558
 30
0.0
 10
6.29047
 20
-6.44383
 30
0.0
 10
6.29047
 20
-6.44383
 30
0.0
 10
6.29047
 20
-6.44383
 30
0.0
 10
5.92525
 20
-6.50145
 30
0.0
 10
5.54082
 20
-6.53666
 30
0.0
 10
5.11417
 20
-6.52262
 30
0.0
 10
5.11417
 20
-6.52262
 30
0.0
 10
5.11417
 20
-6.52262
 30
0.0
 10
5.04663
 20
-6.11739
 30
0.0
 10
5.04663
 20
-6.11739
 30
0.0
 10
5.04663
 20
-6.11739
 30
0.0
 10
5.04663
 20
-6.11739
 30
0.0
 10
5.09729
 20
-6.16241
 30
0.0
 10
5.09729
 20
-6.16241
 30
0.0
 10
5.09729
 20
-6.16241
 30
0.0
 10
5.09729
 20
-6.16241
 30
0.0
 10
5.13669
 20
-6.17367
 30
0.0
 10
5.13669
 20
-6.17367
 30
0.0
 10
5.13669
 20
-6.17367
 30
0.0
 10
5.13669
 20
-6.17367
 30
0.0
 10
5.15638
 20
-6.20181
 30
0.0
 10
5.15638
 20
-6.20181
 30
0.0
 10
5.15638
 20
-6.20181
 30
0.0
 10
5.15638
 20
-6.20181
 30
0.0
 10
5.22392
 20
-6.199
 30
0.0
 10
5.22392
 20
-6.199
 30
0.0
 10
5.22392
 20
-6.199
 30
0.0
 10
5.22392
 20
-6.199
 30
0.0
 10
5.22392
 20
-6.2384
 30
0.0
 10
5.22392
 20
-6.2384
 30
0.0
 10
5.22392
 20
-6.2384
 30
0.0
 10
5.22392
 20
-6.2384
 30
0.0
 10
5.31116
 20
-6.24402
 30
0.0
 10
5.31116
 20
-6.24402
 30
0.0
 10
5.31116
 20
-6.24402
 30
0.0
 10
5.31116
 20
-6.24402
 30
0.0
 10
5.32805
 20
-6.30312
 30
0.0
 10
5.32805
 20
-6.30312
 30
0.0
 10
5.32805
 20
-6.30312
 30
0.0
 10
5.32805
 20
-6.30312
 30
0.0
 10
5.41247
 20
-6.30031
 30
0.0
 10
5.41247
 20
-6.30031
 30
0.0
 10
5.41247
 20
-6.30031
 30
0.0
 10
5.41247
 20
-6.30031
 30
0.0
 10
5.49126
 20
-6.32282
 30
0.0
 10
5.49126
 20
-6.32282
 30
0.0
 10
5.49126
 20
-6.32282
 30
0.0
 10
5.35231
 20
-5.96205
 30
0.0
 10
5.1345
 20
-5.64306
 30
0.0
 10
4.8215
 20
-5.37446
 30
0.0
  0
SPLINE
  5
6F
330
1F
100
AcDbEntity
  8
layer 1
 62
     7
100
AcDbSpline
210
0.0
220
0.0
230
1.0
 70
    11
 71
     3
 72
    32
 73
    28
 74
     0
 42
0.0000000001
 43
0.0000000001
 40
0.0
 40
0.0
 40
0.0
 40
0.0
 40
0.1428571428571428
 40
0.1428571428571428
 40
0.1428571428571428
 40
0.1428571428571428
 40
0.2857142857142857
 40
0.2857142857142857
 40
0.2857142857142857
 40
0.2857142857142857
 40
0.4285714285714285
 40
0.4285714285714285
 40
0.4285714285714285
 40
0.4285714285714285
 40
0.5714285714285714
 40
0.5714285714285714
 40
0.5714285714285714
 40
0.5714285714285714
 40
0.7142857142857143
 40
0.7142857142857143
 40
0.7142857142857143
 40
0.7142857142857143
 40
0.8571428571428572
 40
0.8571428571428572
 40
0.8571428571428572
 40
0.8571428571428572
 40
1.0
 40
1.0
 40
1.0
 40
1.0
 10
3.10717
 20
-5.20818
 30
0.0
 10
3.3689
 20
-5.47095
 30
0.0
 10
3.66909
 20
-5.57216
 30
0.0
 10
4.00117
 20
-5.53953
 30
0.0
 10
4.00117
 20
-5.53953
 30
0.0
 10
4.01565
 20
-5.47284
 30
0.0
 10
3.98852
 20
-5.40616
 30
0.0
 10
3.86988
 20
-5.33947
 30
0.0
 10
3.86988
 20
-5.33947
 30
0.0
 10
4.18984
 20
-5.41563
 30
0.0
 10
4.41305
 20
-5.58144
 30
0.0
 10
4.5607
 20
-5.8146
 30
0.0
 10
4.5607
 20
-5.8146
 30
0.0
 10
4.65975
 20
-5.97101
 30
0.0
 10
4.78822
 20
-6.07098
 30
0.0
 10
4.94519
 20
-6.12719
 30
0.0
 10
4.94519
 20
-6.12719
 30
0.0
 10
4.94519
 20
-6.12719
 30
0.0
 10
5.02646
 20
-6.55231
 30
0.0
 10
5.02646
 20
-6.55231
 30
0.0
 10
5.02646
 20
-6.55231
 30
0.0
 10
4.13891
 20
-6.55719
 30
0.0
 10
3.34763
 20
-6.24114
 30
0.0
 10
2.62891
 20
-5.68332
 30
0.0
 10
2.62891
 20
-5.68332
 30
0.0
 10
2.92567
 20
-5.56499
 30
0.0
 10
3.14847
 20
-5.42509
 30
0.0
 10
3.10717
 20
-5.20818
 30
0.0
  0
SPLINE
  5
70
330
1F
100
AcDbEntity
  8
layer 1
 62
     7
100
AcDbSpline
210
0.0
220
0.0
230
1.0
 70
    11
 71
     3
 72
    56
 73
    52
 74
     0
 42
0.0000000001
 43
0.0000000001
 40
0.0
 40
0.0
 40
0.0
 40
0.0
 40
0.0769230769230769
 40
0.0769230769230769
 40
0.0769230769230769
 40
0.0769230769230769
 40
0.1538461538461539
 40
0.1538461538461539
 40
0.1538461538461539
 40
0.1538461538461539
 40
0.2307692307692308
 40
0.2307692307692308
 40
0.2307692307692308
 40
0.2307692307692308
 40
0.3076923076923077
 40
0.3076923076923077
 40
0.3076923076923077
 40
0.3076923076923077
 40
0.3846153846153846
 40
0.3846153846153846
 40
0.3846153846153846
 40
0.3846153846153846
 40
0.4615384615384616
 40
0.4615384615384616
 40
0.4615384615384616
 40
0.4615384615384616
 40
0.5384615384615384
 40
0.5384615384615384
 40
0.5384615384615384
 40
0.5384615384615384
 40
0.6153846153846153
 40
0.6153846153846153
 40
0.6153846153846153
 40
0.6153846153846153
 40
0.6923076923076922
 40
0.6923076923076922
 40
0.6923076923076922
 40
0.6923076923076922
 40
0.769230769230769
 40
0.769230769230769
 40
0.769230769230769
 40
0.769230769230769
 40
0.8461538461538459
 40
0.8461538461538459
 40
0.8461538461538459
 40
0.8461538461538459
 40
0.9230769230769228
 40
0.9230769230769228
 40
0.9230769230769228
 40
0.9230769230769228
 40
1.0
 40
1.0
 40
1.0
 40
1.0
 10
2.74103
 20
-7.60982
 30
0.0
 10
2.74103
 20
-7.60982
 30
0.0
 10
3.00618
 20
-7.6239
 30
0.0
 10
3.00618
 20
-7.6239
 30
0.0
 10
3.00618
 20
-7.6239
 30
0.0
 10
3.00618
 20
-7.6239
 30
0.0
 10
3.2596
 20
-8.67277
 30
0.0
 10
3.2596
 20
-8.67277
 30
0.0
 10
3.2596
 20
-8.67277
 30
0.0
 10
2.28789
 20
-8.32122
 30
0.0
 10
1.46658
 20
-7.79521
 30
0.0
 10
1.007
 20
-6.84957
 30
0.0
 10
1.007
 20
-6.84957
 30
0.0
 10
1.007
 20
-6.84957
 30
0.0
 10
1.11963
 20
-6.79325
 30
0.0
 10
1.11963
 20
-6.79325
 30
0.0
 10
1.11963
 20
-6.79325
 30
0.0
 10
1.38158
 20
-6.90631
 30
0.0
 10
1.54114
 20
-6.8453
 30
0.0
 10
1.5983
 20
-6.61023
 30
0.0
 10
1.5983
 20
-6.61023
 30
0.0
 10
1.61438
 20
-6.73224
 30
0.0
 10
1.6816
 20
-6.85428
 30
0.0
 10
1.82356
 20
-6.97628
 30
0.0
 10
1.82356
 20
-6.97628
 30
0.0
 10
1.88418
 20
-6.95009
 30
0.0
 10
1.9358
 20
-6.96886
 30
0.0
 10
1.97843
 20
-7.03259
 30
0.0
 10
1.97843
 20
-7.03259
 30
0.0
 10
1.97843
 20
-7.03259
 30
0.0
 10
2.0629
 20
-6.97628
 30
0.0
 10
2.0629
 20
-6.97628
 30
0.0
 10
2.0629
 20
-6.97628
 30
0.0
 10
2.22481
 20
-7.08187
 30
0.0
 10
2.31163
 20
-7.24377
 30
0.0
 10
2.32336
 20
-7.46199
 30
0.0
 10
2.32336
 20
-7.46199
 30
0.0
 10
2.35621
 20
-7.6544
 30
0.0
 10
2.46024
 20
-7.8468
 30
0.0
 10
2.66829
 20
-8.03922
 30
0.0
 10
2.66829
 20
-8.03922
 30
0.0
 10
2.66829
 20
-8.03922
 30
0.0
 10
2.71889
 20
-8.03574
 30
0.0
 10
2.71889
 20
-8.03574
 30
0.0
 10
2.71889
 20
-8.03574
 30
0.0
 10
2.71889
 20
-8.03574
 30
0.0
 10
2.88787
 20
-8.21806
 30
0.0
 10
2.88787
 20
-8.21806
 30
0.0
 10
2.88787
 20
-8.21806
 30
0.0
 10
2.83893
 20
-8.01531
 30
0.0
 10
2.82752
 20
-7.80318
 30
0.0
 10
2.74103
 20
-7.60982
 30
0.0
  0
SPLINE
  5
71
330
1F
100
AcDbEntity
  8
layer 1
 62
     7
100
AcDbSpline
210
0.0
220
0.0
230
1.0
 70
    11
 71
     3
 72
    44
 73
    40
 74
     0
 42
0.0000000001
 43
0.0000000001
 40
0.0
 40
0.0
 40
0.0
 40
0.0
 40
0.1
 40
0.1
 40
0.1
 40
0.1
 40
0.2
 40
0.2
 40
0.2
 40
0.2
 40
0.3
 40
0.3
 40
0.3
 40
0.3
 40
0.4
 40
0.4
 40
0.4
 40
0.4
 40
0.4999999999999999
 40
0.4999999999999999
 40
0.4999999999999999
 40
0.4999999999999999
 40
0.6
 40
0.6
 40
0.6
 40
0.6
 40
0.7
 40
0.7
 40
0.7
 40
0.7
 40
0.7999999999999999
 40
0.7999999999999999
 40
0.7999999999999999
 40
0.7999999999999999
 40
0.8999999999999999
 40
0.8999999999999999
 40
0.8999999999999999
 40
0.8999999999999999
 40
1.0
 40
1.0
 40
1.0
 40
1.0
 10
-3.69963
 20
0.12431
 30
0.0
 10
-3.69963
 20
0.12431
 30
0.0
 10
-2.46142
 20
0.3607
 30
0.0
 10
-2.46142
 20
0.3607
 30
0.0
 10
-2.46142
 20
0.3607
 30
0.0
 10
-2.33801
 20
0.31828
 30
0.0
 10
-2.23357
 20
0.26637
 30
0.0
 10
-2.19689
 20
0.1806
 30
0.0
 10
-2.19689
 20
0.1806
 30
0.0
 10
-2.19689
 20
0.1806
 30
0.0
 10
-2.01116
 20
0.19185
 30
0.0
 10
-2.01116
 20
0.19185
 30
0.0
 10
-2.01116
 20
0.19185
 30
0.0
 10
-1.96361
 20
0.10469
 30
0.0
 10
-1.89427
 20
0.0331
 30
0.0
 10
-1.78603
 20
-0.01076
 30
0.0
 10
-1.78603
 20
-0.01076
 30
0.0
 10
-1.78603
 20
-0.01076
 30
0.0
 10
-1.83106
 20
-1.10827
 30
0.0
 10
-1.83106
 20
-1.10827
 30
0.0
 10
-1.83106
 20
-1.10827
 30
0.0
 10
-2.08605
 20
-1.24037
 30
0.0
 10
-1.99358
 20
-1.54621
 30
0.0
 10
-1.58342
 20
-1.56415
 30
0.0
 10
-1.58342
 20
-1.56415
 30
0.0
 10
-2.15705
 20
-1.64868
 30
0.0
 10
-2.33638
 20
-1.96811
 30
0.0
 10
-2.09558
 20
-2.53784
 30
0.0
 10
-2.09558
 20
-2.53784
 30
0.0
 10
-2.74236
 20
-2.11749
 30
0.0
 10
-3.22451
 20
-2.10436
 30
0.0
 10
-3.54204
 20
-2.49844
 30
0.0
 10
-3.54204
 20
-2.49844
 30
0.0
 10
-3.78784
 20
-2.35777
 30
0.0
 10
-4.08426
 20
-2.26209
 30
0.0
 10
-4.4313
 20
-2.2114
 30
0.0
 10
-4.4313
 20
-2.2114
 30
0.0
 10
-4.05021
 20
-1.54891
 30
0.0
 10
-3.78802
 20
-0.78581
 30
0.0
 10
-3.69963
 20
0.12431
 30
0.0
  0
SPLINE
  5
72
330
1F
100
AcDbEntity
  8
layer 1
 62
     7
100
AcDbSpline
210
0.0
220
0.0
230
1.0
 70
    11
 71
     3
 72
    48
 73
    44
 74
     0
 42
0.0000000001
 43
0.0000000001
 40
0.0
 40
0.0
 40
0.0
 40
0.0
 40
0.0909090909090909
 40
0.0909090909090909
 40
0.0909090909090909
 40
0.0909090909090909
 40
0.1818181818181818
 40
0.1818181818181818
 40
0.1818181818181818
 40
0.1818181818181818
 40
0.2727272727272727
 40
0.2727272727272727
 40
0.2727272727272727
 40
0.2727272727272727
 40
0.3636363636363636
 40
0.3636363636363636
 40
0.3636363636363636
 40
0.3636363636363636
 40
0.4545454545454545
 40
0.4545454545454545
 40
0.4545454545454545
 40
0.4545454545454545
 40
0.5454545454545454
 40
0.5454545454545454
 40
0.5454545454545454
 40
0.5454545454545454
 40
0.6363636363636364
 40
0.6363636363636364
 40
0.6363636363636364
 40
0.6363636363636364
 40
0.7272727272727273
 40
0.7272727272727273
 40
0.7272727272727273
 40
0.7272727272727273
 40
0.8181818181818182
 40
0.8181818181818182
 40
0.8181818181818182
 40
0.8181818181818182
 40
0.9090909090909092
 40
0.9090909090909092
 40
0.9090909090909092
 40
0.9090909090909092
 40
1.0
 40
1.0
 40
1.0
 40
1.0
 10
-1.28351
 20
0.31768
 30
0.0
 10
-1.37588
 20
0.10384
 30
0.0
 10
-1.51457
 20
-0.01073
 30
0.0
 10
-1.6996
 20
-0.02604
 30
0.0
 10
-1.6996
 20
-0.02604
 30
0.0
 10
-1.6996
 20
-0.02604
 30
0.0
 10
-1.6996
 20
-1.11751
 30
0.0
 10
-1.6996
 20
-1.11751
 30
0.0
 10
-1.6996
 20
-1.11751
 30
0.0
 10
-1.56067
 20
-1.08785
 30
0.0
 10
-1.44904
 20
-1.15831
 30
0.0
 10
-1.34985
 20
-1.2743
 30
0.0
 10
-1.34985
 20
-1.2743
 30
0.0
 10
-1.3277
 20
-0.95178
 30
0.0
 10
-1.23525
 20
-0.75338
 30
0.0
 10
-0.98803
 20
-0.82806
 30
0.0
 10
-0.98803
 20
-0.82806
 30
0.0
 10
-0.76704
 20
-0.96275
 30
0.0
 10
-0.81326
 20
-1.16033
 30
0.0
 10
-1.0423
 20
-1.40093
 30
0.0
 10
-1.0423
 20
-1.40093
 30
0.0
 10
-0.81416
 20
-1.4552
 30
0.0
 10
-0.68151
 20
-1.58585
 30
0.0
 10
-0.61416
 20
-1.76878
 30
0.0
 10
-0.61416
 20
-1.76878
 30
0.0
 10
-0.44891
 20
-1.52389
 30
0.0
 10
-0.41605
 20
-1.25003
 30
0.0
 10
-0.67446
 20
-0.91249
 30
0.0
 10
-0.67446
 20
-0.91249
 30
0.0
 10
-0.63117
 20
-0.66704
 30
0.0
 10
-0.556
 20
-0.44768
 30
0.0
 10
-0.36692
 20
-0.32152
 30
0.0
 10
-0.36692
 20
-0.32152
 30
0.0
 10
-0.36692
 20
-0.32152
 30
0.0
 10
-0.57194
 20
-0.0984
 30
0.0
 10
-0.57194
 20
-0.0984
 30
0.0
 10
-0.57194
 20
-0.0984
 30
0.0
 10
-0.55383
 20
-0.20225
 30
0.0
 10
-0.57795
 20
-0.29673
 30
0.0
 10
-0.64431
 20
-0.38182
 30
0.0
 10
-0.64431
 20
-0.38182
 30
0.0
 10
-0.92689
 20
-0.22395
 30
0.0
 10
-1.15982
 20
-0.0123
 30
0.0
 10
-1.28351
 20
0.31768
 30
0.0
  0
SPLINE
  5
73
330
1F
100
AcDbEntity
  8
layer 1
 62
     7
100
AcDbSpline
210
0.0
220
0.0
230
1.0
 70
    11
 71
     3
 72
    92
 73
    88
 74
     0
 42
0.0000000001
 43
0.0000000001
 40
0.0
 40
0.0
 40
0.0
 40
0.0
 40
0.0454545454545455
 40
0.0454545454545455
 40
0.0454545454545455
 40
0.0454545454545455
 40
0.0909090909090909
 40
0.0909090909090909
 40
0.0909090909090909
 40
0.0909090909090909
 40
0.1363636363636364
 40
0.1363636363636364
 40
0.1363636363636364
 40
0.1363636363636364
 40
0.1818181818181818
 40
0.1818181818181818
 40
0.1818181818181818
 40
0.1818181818181818
 40
0.2272727272727272
 40
0.2272727272727272
 40
0.2272727272727272
 40
0.2272727272727272
 40
0.2727272727272727
 40
0.2727272727272727
 40
0.2727272727272727
 40
0.2727272727272727
 40
0.3181818181818182
 40
0.3181818181818182
 40
0.3181818181818182
 40
0.3181818181818182
 40
0.3636363636363636
 40
0.3636363636363636
 40
0.3636363636363636
 40
0.3636363636363636
 40
0.4090909090909091
 40
0.4090909090909091
 40
0.4090909090909091
 40
0.4090909090909091
 40
0.4545454545454546
 40
0.4545454545454546
 40
0.4545454545454546
 40
0.4545454545454546
 40
0.5
 40
0.5
 40
0.5
 40
0.5
 40
0.5454545454545454
 40
0.5454545454545454
 40
0.5454545454545454
 40
0.5454545454545454
 40
0.5909090909090908
 40
0.5909090909090908
 40
0.5909090909090908
 40
0.5909090909090908
 40
0.6363636363636362
 40
0.6363636363636362
 40
0.6363636363636362
 40
0.6363636363636362
 40
0.6818181818181817
 40
0.6818181818181817
 40
0.6818181818181817
 40
0.6818181818181817
 40
0.7272727272727271
 40
0.7272727272727271
 40
0.7272727272727271
 40
0.7272727272727271
 40
0.7727272727272725
 40
0.7727272727272725
 40
0.7727272727272725
 40
0.7727272727272725
 40
0.8181818181818179
 40
0.8181818181818179
 40
0.8181818181818179
 40
0.8181818181818179
 40
0.8636363636363633
 40
0.8636363636363633
 40
0.8636363636363633
 40
0.8636363636363633
 40
0.9090909090909087
 40
0.9090909090909087
 40
0.9090909090909087
 40
0.9090909090909087
 40
0.9545454545454541
 40
0.9545454545454541
 40
0.9545454545454541
 40
0.9545454545454541
 40
1.0
 40
1.0
 40
1.0
 40
1.0
 10
-0.56591
 20
-1.99793
 30
0.0
 10
-0.35121
 20
-1.75797
 30
0.0
 10
-0.06848
 20
-1.65412
 30
0.0
 10
0.29641
 20
-1.71451
 30
0.0
 10
0.29641
 20
-1.71451
 30
0.0
 10
0.21458
 20
-1.37185
 30
0.0
 10
0.28292
 20
-1.11055
 30
0.0
 10
0.50144
 20
-0.93058
 30
0.0
 10
0.50144
 20
-0.93058
 30
0.0
 10
-0.00925
 20
-0.66331
 30
0.0
 10
-0.16912
 20
-0.34656
 30
0.0
 10
0.29641
 20
0.05838
 30
0.0
 10
0.29641
 20
0.05838
 30
0.0
 10
0.56018
 20
0.2181
 30
0.0
 10
0.79425
 20
0.22177
 30
0.0
 10
1.00798
 20
0.11869
 30
0.0
 10
1.00798
 20
0.11869
 30
0.0
 10
0.67203
 20
-0.0366
 30
0.0
 10
0.74437
 20
-0.50025
 30
0.0
 10
1.22507
 20
-0.46625
 30
0.0
 10
1.22507
 20
-0.46625
 30
0.0
 10
1.34471
 20
-0.44152
 30
0.0
 10
1.42914
 20
-0.36985
 30
0.0
 10
1.43613
 20
-0.19489
 30
0.0
 10
1.43613
 20
-0.19489
 30
0.0
 10
1.43613
 20
-0.19489
 30
0.0
 10
1.57175
 20
-0.18943
 30
0.0
 10
1.57175
 20
-0.18943
 30
0.0
 10
1.57175
 20
-0.18943
 30
0.0
 10
1.57175
 20
-0.18943
 30
0.0
 10
1.59796
 20
-0.21273
 30
0.0
 10
1.59796
 20
-0.21273
 30
0.0
 10
1.59796
 20
-0.21273
 30
0.0
 10
1.59796
 20
-0.21273
 30
0.0
 10
1.65912
 20
-0.21564
 30
0.0
 10
1.65912
 20
-0.21564
 30
0.0
 10
1.65912
 20
-0.21564
 30
0.0
 10
1.65912
 20
-0.21564
 30
0.0
 10
1.67369
 20
-0.26516
 30
0.0
 10
1.67369
 20
-0.26516
 30
0.0
 10
1.67369
 20
-0.26516
 30
0.0
 10
1.67369
 20
-0.26516
 30
0.0
 10
1.81058
 20
-0.26516
 30
0.0
 10
1.81058
 20
-0.26516
 30
0.0
 10
1.81058
 20
-0.26516
 30
0.0
 10
1.81058
 20
-0.26516
 30
0.0
 10
1.81349
 20
-0.30302
 30
0.0
 10
1.81349
 20
-0.30302
 30
0.0
 10
1.81349
 20
-0.30302
 30
0.0
 10
1.81349
 20
-0.30302
 30
0.0
 10
1.97368
 20
-0.30011
 30
0.0
 10
1.97368
 20
-0.30011
 30
0.0
 10
1.97368
 20
-0.30011
 30
0.0
 10
1.97368
 20
-0.30011
 30
0.0
 10
1.97368
 20
-0.33797
 30
0.0
 10
1.97368
 20
-0.33797
 30
0.0
 10
1.97368
 20
-0.33797
 30
0.0
 10
1.97368
 20
-0.33797
 30
0.0
 10
2.05523
 20
-0.3205
 30
0.0
 10
2.05523
 20
-0.3205
 30
0.0
 10
2.05523
 20
-0.3205
 30
0.0
 10
2.05523
 20
-0.3205
 30
0.0
 10
2.07853
 20
-0.35545
 30
0.0
 10
2.07853
 20
-0.35545
 30
0.0
 10
2.07853
 20
-0.35545
 30
0.0
 10
2.07853
 20
-0.35545
 30
0.0
 10
2.21251
 20
-0.35545
 30
0.0
 10
2.21251
 20
-0.35545
 30
0.0
 10
2.21251
 20
-0.35545
 30
0.0
 10
2.26406
 20
-0.89647
 30
0.0
 10
2.38289
 20
-1.41649
 30
0.0
 10
2.63472
 20
-1.89492
 30
0.0
 10
2.63472
 20
-1.89492
 30
0.0
 10
2.63472
 20
-1.89492
 30
0.0
 10
1.65354
 20
-2.5707
 30
0.0
 10
1.65354
 20
-2.5707
 30
0.0
 10
1.65354
 20
-2.5707
 30
0.0
 10
1.29425
 20
-2.40168
 30
0.0
 10
0.8634
 20
-2.34598
 30
0.0
 10
0.35396
 20
-2.41475
 30
0.0
 10
0.35396
 20
-2.41475
 30
0.0
 10
-0.00816
 20
-2.47401
 30
0.0
 10
-0.32529
 20
-2.44333
 30
0.0
 10
-0.56225
 20
-2.25231
 30
0.0
 10
-0.56225
 20
-2.25231
 30
0.0
 10
-0.56225
 20
-2.25231
 30
0.0
 10
-0.56591
 20
-1.99793
 30
0.0
 10
-0.56591
 20
-1.99793
 30
0.0
  0
SPLINE
  5
74
330
1F
100
AcDbEntity
  8
layer 1
 62
     7
100
AcDbSpline
210
0.0
220
0.0
230
1.0
 70
    11
 71
     3
 72
   144
 73
   140
 74
     0
 42
0.0000000001
 43
0.0000000001
 40
0.0
 40
0.0
 40
0.0
 40
0.0
 40
0.0285714285714286
 40
0.0285714285714286
 40
0.0285714285714286
 40
0.0285714285714286
 40
0.0571428571428571
 40
0.0571428571428571
 40
0.0571428571428571
 40
0.0571428571428571
 40
0.0857142857142857
 40
0.0857142857142857
 40
0.0857142857142857
 40
0.0857142857142857
 40
0.1142857142857143
 40
0.1142857142857143
 40
0.1142857142857143
 40
0.1142857142857143
 40
0.1428571428571428
 40
0.1428571428571428
 40
0.1428571428571428
 40
0.1428571428571428
 40
0.1714285714285714
 40
0.1714285714285714
 40
0.1714285714285714
 40
0.1714285714285714
 40
0.2
 40
0.2
 40
0.2
 40
0.2
 40
0.2285714285714286
 40
0.2285714285714286
 40
0.2285714285714286
 40
0.2285714285714286
 40
0.2571428571428572
 40
0.2571428571428572
 40
0.2571428571428572
 40
0.2571428571428572
 40
0.2857142857142858
 40
0.2857142857142858
 40
0.2857142857142858
 40
0.2857142857142858
 40
0.3142857142857143
 40
0.3142857142857143
 40
0.3142857142857143
 40
0.3142857142857143
 40
0.3428571428571429
 40
0.3428571428571429
 40
0.3428571428571429
 40
0.3428571428571429
 40
0.3714285714285715
 40
0.3714285714285715
 40
0.3714285714285715
 40
0.3714285714285715
 40
0.4000000000000001
 40
0.4000000000000001
 40
0.4000000000000001
 40
0.4000000000000001
 40
0.4285714285714287
 40
0.4285714285714287
 40
0.4285714285714287
 40
0.4285714285714287
 40
0.4571428571428572
 40
0.4571428571428572
 40
0.4571428571428572
 40
0.4571428571428572
 40
0.4857142857142858
 40
0.4857142857142858
 40
0.4857142857142858
 40
0.4857142857142858
 40
0.5142857142857143
 40
0.5142857142857143
 40
0.5142857142857143
 40
0.5142857142857143
 40
0.5428571428571429
 40
0.5428571428571429
 40
0.5428571428571429
 40
0.5428571428571429
 40
0.5714285714285715
 40
0.5714285714285715
 40
0.5714285714285715
 40
0.5714285714285715
 40
0.6000000000000001
 40
0.6000000000000001
 40
0.6000000000000001
 40
0.6000000000000001
 40
0.6285714285714287
 40
0.6285714285714287
 40
0.6285714285714287
 40
0.6285714285714287
 40
0.6571428571428573
 40
0.6571428571428573
 40
0.6571428571428573
 40
0.6571428571428573
 40
0.6857142857142858
 40
0.6857142857142858
 40
0.6857142857142858
 40
0.6857142857142858
 40
0.7142857142857144
 40
0.7142857142857144
 40
0.7142857142857144
 40
0.7142857142857144
 40
0.742857142857143
 40
0.742857142857143
 40
0.742857142857143
 40
0.742857142857143
 40
0.7714285714285716
 40
0.7714285714285716
 40
0.7714285714285716
 40
0.7714285714285716
 40
0.8000000000000002
 40
0.8000000000000002
 40
0.8000000000000002
 40
0.8000000000000002
 40
0.8285714285714287
 40
0.8285714285714287
 40
0.8285714285714287
 40
0.8285714285714287
 40
0.8571428571428573
 40
0.8571428571428573
 40
0.8571428571428573
 40
0.8571428571428573
 40
0.8857142857142859
 40
0.8857142857142859
 40
0.8857142857142859
 40
0.8857142857142859
 40
0.9142857142857145
 40
0.9142857142857145
 40
0.9142857142857145
 40
0.9142857142857145
 40
0.9428571428571431
 40
0.9428571428571431
 40
0.9428571428571431
 40
0.9428571428571431
 40
0.9714285714285716
 40
0.9714285714285716
 40
0.9714285714285716
 40
0.9714285714285716
 40
1.0
 40
1.0
 40
1.0
 40
1.0
 10
-0.60123
 20
1.93883
 30
0.0
 10
-0.58756
 20
1.59108
 30
0.0
 10
-0.71503
 20
1.30276
 30
0.0
 10
-0.93912
 20
1.05512
 30
0.0
 10
-0.93912
 20
1.05512
 30
0.0
 10
-0.9012
 20
0.96144
 30
0.0
 10
-0.94933
 20
0.87637
 30
0.0
 10
-1.03659
 20
0.79521
 30
0.0
 10
-1.03659
 20
0.79521
 30
0.0
 10
-0.69055
 20
0.63358
 30
0.0
 10
-0.52032
 20
0.36988
 30
0.0
 10
-0.56225
 20
-0.01703
 30
0.0
 10
-0.56225
 20
-0.01703
 30
0.0
 10
-0.56225
 20
-0.01703
 30
0.0
 10
-0.34782
 20
-0.23146
 30
0.0
 10
-0.34782
 20
-0.23146
 30
0.0
 10
-0.34782
 20
-0.23146
 30
0.0
 10
-0.15025
 20
0.01873
 30
0.0
 10
0.11386
 20
0.24232
 30
0.0
 10
0.56189
 20
0.39234
 30
0.0
 10
0.56189
 20
0.39234
 30
0.0
 10
0.56189
 20
0.39234
 30
0.0
 10
0.57489
 20
1.28905
 30
0.0
 10
0.57489
 20
1.28905
 30
0.0
 10
0.57489
 20
1.28905
 30
0.0
 10
0.57489
 20
1.28905
 30
0.0
 10
0.36193
 20
1.31836
 30
0.0
 10
0.36193
 20
1.31836
 30
0.0
 10
0.36193
 20
1.31836
 30
0.0
 10
0.36193
 20
1.31836
 30
0.0
 10
0.36193
 20
1.36353
 30
0.0
 10
0.36193
 20
1.36353
 30
0.0
 10
0.36193
 20
1.36353
 30
0.0
 10
0.36193
 20
1.36353
 30
0.0
 10
0.21439
 20
1.35148
 30
0.0
 10
0.21439
 20
1.35148
 30
0.0
 10
0.21439
 20
1.35148
 30
0.0
 10
0.21439
 20
1.35148
 30
0.0
 10
0.19331
 20
1.40267
 30
0.0
 10
0.19331
 20
1.40267
 30
0.0
 10
0.19331
 20
1.40267
 30
0.0
 10
0.19331
 20
1.40267
 30
0.0
 10
0.12406
 20
1.39665
 30
0.0
 10
0.12406
 20
1.39665
 30
0.0
 10
0.12406
 20
1.39665
 30
0.0
 10
0.12406
 20
1.39665
 30
0.0
 10
0.12231
 20
1.42105
 30
0.0
 10
0.12231
 20
1.42105
 30
0.0
 10
0.12231
 20
1.42105
 30
0.0
 10
0.12231
 20
1.42105
 30
0.0
 10
0.02819
 20
1.42498
 30
0.0
 10
0.02819
 20
1.42498
 30
0.0
 10
0.02819
 20
1.42498
 30
0.0
 10
0.02819
 20
1.42498
 30
0.0
 10
0.03015
 20
1.45831
 30
0.0
 10
0.03015
 20
1.45831
 30
0.0
 10
0.03015
 20
1.45831
 30
0.0
 10
0.03015
 20
1.45831
 30
0.0
 10
-0.04436
 20
1.45635
 30
0.0
 10
-0.04436
 20
1.45635
 30
0.0
 10
-0.04436
 20
1.45635
 30
0.0
 10
-0.04436
 20
1.45635
 30
0.0
 10
-0.03652
 20
1.49753
 30
0.0
 10
-0.03652
 20
1.49753
 30
0.0
 10
-0.03652
 20
1.49753
 30
0.0
 10
-0.03652
 20
1.49753
 30
0.0
 10
-0.11691
 20
1.50145
 30
0.0
 10
-0.11691
 20
1.50145
 30
0.0
 10
-0.11691
 20
1.50145
 30
0.0
 10
-0.11691
 20
1.50145
 30
0.0
 10
-0.11495
 20
1.54067
 30
0.0
 10
-0.11495
 20
1.54067
 30
0.0
 10
-0.11495
 20
1.54067
 30
0.0
 10
-0.11495
 20
1.54067
 30
0.0
 10
-0.19142
 20
1.54067
 30
0.0
 10
-0.19142
 20
1.54067
 30
0.0
 10
-0.19142
 20
1.54067
 30
0.0
 10
-0.19142
 20
1.54067
 30
0.0
 10
-0.19731
 20
1.58577
 30
0.0
 10
-0.19731
 20
1.58577
 30
0.0
 10
-0.19731
 20
1.58577
 30
0.0
 10
-0.19731
 20
1.58577
 30
0.0
 10
-0.25809
 20
1.59753
 30
0.0
 10
-0.25809
 20
1.59753
 30
0.0
 10
-0.25809
 20
1.59753
 30
0.0
 10
-0.25809
 20
1.59753
 30
0.0
 10
-0.26201
 20
1.62694
 30
0.0
 10
-0.26201
 20
1.62694
 30
0.0
 10
-0.26201
 20
1.62694
 30
0.0
 10
-0.26201
 20
1.62694
 30
0.0
 10
-0.30907
 20
1.63283
 30
0.0
 10
-0.30907
 20
1.63283
 30
0.0
 10
-0.30907
 20
1.63283
 30
0.0
 10
-0.30907
 20
1.63283
 30
0.0
 10
-0.313
 20
1.68381
 30
0.0
 10
-0.313
 20
1.68381
 30
0.0
 10
-0.313
 20
1.68381
 30
0.0
 10
-0.313
 20
1.68381
 30
0.0
 10
-0.37182
 20
1.69557
 30
0.0
 10
-0.37182
 20
1.69557
 30
0.0
 10
-0.37182
 20
1.69557
 30
0.0
 10
-0.37182
 20
1.69557
 30
0.0
 10
-0.37967
 20
1.73087
 30
0.0
 10
-0.37967
 20
1.73087
 30
0.0
 10
-0.37967
 20
1.73087
 30
0.0
 10
-0.37967
 20
1.73087
 30
0.0
 10
-0.43849
 20
1.75244
 30
0.0
 10
-0.43849
 20
1.75244
 30
0.0
 10
-0.43849
 20
1.75244
 30
0.0
 10
-0.43849
 20
1.75244
 30
0.0
 10
-0.42476
 20
1.78185
 30
0.0
 10
-0.42476
 20
1.78185
 30
0.0
 10
-0.42476
 20
1.78185
 30
0.0
 10
-0.42476
 20
1.78185
 30
0.0
 10
-0.47379
 20
1.79754
 30
0.0
 10
-0.47379
 20
1.79754
 30
0.0
 10
-0.47379
 20
1.79754
 30
0.0
 10
-0.47379
 20
1.79754
 30
0.0
 10
-0.46594
 20
1.82891
 30
0.0
 10
-0.46594
 20
1.82891
 30
0.0
 10
-0.46594
 20
1.82891
 30
0.0
 10
-0.46594
 20
1.82891
 30
0.0
 10
-0.51496
 20
1.85244
 30
0.0
 10
-0.51496
 20
1.85244
 30
0.0
 10
-0.51496
 20
1.85244
 30
0.0
 10
-0.51496
 20
1.85244
 30
0.0
 10
-0.513
 20
1.88774
 30
0.0
 10
-0.513
 20
1.88774
 30
0.0
 10
-0.513
 20
1.88774
 30
0.0
 10
-0.513
 20
1.88774
 30
0.0
 10
-0.54438
 20
1.91127
 30
0.0
 10
-0.54438
 20
1.91127
 30
0.0
 10
-0.54438
 20
1.91127
 30
0.0
 10
-0.54438
 20
1.91127
 30
0.0
 10
-0.54242
 20
1.95049
 30
0.0
 10
-0.54242
 20
1.95049
 30
0.0
 10
-0.54242
 20
1.95049
 30
0.0
 10
-0.54242
 20
1.95049
 30
0.0
 10
-0.60123
 20
1.93883
 30
0.0
 10
-0.60123
 20
1.93883
 30
0.0
  0
SPLINE
  5
75
330
1F
100
AcDbEntity
  8
layer 1
 62
     7
100
AcDbSpline
210
0.0
220
0.0
230
1.0
 70
    11
 71
     3
 72
    68
 73
    64
 74
     0
 42
0.0000000001
 43
0.0000000001
 40
0.0
 40
0.0
 40
0.0
 40
0.0
 40
0.0625
 40
0.0625
 40
0.0625
 40
0.0625
 40
0.125
 40
0.125
 40
0.125
 40
0.125
 40
0.1875
 40
0.1875
 40
0.1875
 40
0.1875
 40
0.25
 40
0.25
 40
0.25
 40
0.25
 40
0.3125
 40
0.3125
 40
0.3125
 40
0.3125
 40
0.375
 40
0.375
 40
0.375
 40
0.375
 40
0.4375
 40
0.4375
 40
0.4375
 40
0.4375
 40
0.5
 40
0.5
 40
0.5
 40
0.5
 40
0.5625
 40
0.5625
 40
0.5625
 40
0.5625
 40
0.625
 40
0.625
 40
0.625
 40
0.625
 40
0.6875
 40
0.6875
 40
0.6875
 40
0.6875
 40
0.75
 40
0.75
 40
0.75
 40
0.75
 40
0.8125
 40
0.8125
 40
0.8125
 40
0.8125
 40
0.875
 40
0.875
 40
0.875
 40
0.875
 40
0.9375
 40
0.9375
 40
0.9375
 40
0.9375
 40
1.0
 40
1.0
 40
1.0
 40
1.0
 10
-3.67752
 20
0.25738
 30
0.0
 10
-3.67752
 20
0.25738
 30
0.0
 10
-2.56192
 20
0.43829
 30
0.0
 10
-2.56192
 20
0.43829
 30
0.0
 10
-2.56192
 20
0.43829
 30
0.0
 10
-2.56192
 20
0.43829
 30
0.0
 10
-2.70062
 20
0.61317
 30
0.0
 10
-2.70062
 20
0.61317
 30
0.0
 10
-2.70062
 20
0.61317
 30
0.0
 10
-2.48663
 20
0.67362
 30
0.0
 10
-2.33209
 20
0.85297
 30
0.0
 10
-2.2182
 20
1.11368
 30
0.0
 10
-2.2182
 20
1.11368
 30
0.0
 10
-2.14901
 20
1.29063
 30
0.0
 10
-1.99223
 20
1.35495
 30
0.0
 10
-1.74784
 20
1.30664
 30
0.0
 10
-1.74784
 20
1.30664
 30
0.0
 10
-1.96677
 20
1.55991
 30
0.0
 10
-2.0093
 20
1.81317
 30
0.0
 10
-1.95287
 20
2.06645
 30
0.0
 10
-1.95287
 20
2.06645
 30
0.0
 10
-1.95287
 20
2.06645
 30
0.0
 10
-1.79608
 20
2.08455
 30
0.0
 10
-1.79608
 20
2.08455
 30
0.0
 10
-1.79608
 20
2.08455
 30
0.0
 10
-1.64184
 20
2.02854
 30
0.0
 10
-1.50978
 20
1.95314
 30
0.0
 10
-1.41015
 20
1.84937
 30
0.0
 10
-1.41015
 20
1.84937
 30
0.0
 10
-1.28257
 20
1.68625
 30
0.0
 10
-1.21633
 20
1.50104
 30
0.0
 10
-1.25939
 20
1.27649
 30
0.0
 10
-1.25939
 20
1.27649
 30
0.0
 10
-1.14216
 20
1.29955
 30
0.0
 10
-1.04988
 20
1.27822
 30
0.0
 10
-0.99406
 20
1.19207
 30
0.0
 10
-0.99406
 20
1.19207
 30
0.0
 10
-0.43108
 20
1.92726
 30
0.0
 10
-0.71327
 20
2.95779
 30
0.0
 10
-1.97096
 20
2.97099
 30
0.0
 10
-1.97096
 20
2.97099
 30
0.0
 10
-2.1177
 20
2.94888
 30
0.0
 10
-2.26443
 20
2.92677
 30
0.0
 10
-2.41117
 20
2.90466
 30
0.0
 10
-2.41117
 20
2.90466
 30
0.0
 10
-2.72275
 20
2.70084
 30
0.0
 10
-3.0343
 20
2.63944
 30
0.0
 10
-3.34586
 20
2.68757
 30
0.0
 10
-3.34586
 20
2.68757
 30
0.0
 10
-3.07462
 20
2.47829
 30
0.0
 10
-2.89918
 20
2.20743
 30
0.0
 10
-2.80313
 20
1.88555
 30
0.0
 10
-2.80313
 20
1.88555
 30
0.0
 10
-3.02907
 20
2.11214
 30
0.0
 10
-3.26325
 20
2.31953
 30
0.0
 10
-3.52676
 20
2.45842
 30
0.0
 10
-3.52676
 20
2.45842
 30
0.0
 10
-3.52676
 20
2.45842
 30
0.0
 10
-3.94888
 20
1.99409
 30
0.0
 10
-3.94888
 20
1.99409
 30
0.0
 10
-3.94888
 20
1.99409
 30
0.0
 10
-3.78802
 20
1.44452
 30
0.0
 10
-3.68818
 20
0.86952
 30
0.0
 10
-3.67752
 20
0.25738
 30
0.0
  0
SPLINE
  5
76
330
1F
100
AcDbEntity
  8
layer 1
 62
     7
100
AcDbSpline
210
0.0
220
0.0
230
1.0
 70
    11
 71
     3
 72
    40
 73
    36
 74
     0
 42
0.0000000001
 43
0.0000000001
 40
0.0
 40
0.0
 40
0.0
 40
0.0
 40
0.1111111111111111
 40
0.1111111111111111
 40
0.1111111111111111
 40
0.1111111111111111
 40
0.2222222222222222
 40
0.2222222222222222
 40
0.2222222222222222
 40
0.2222222222222222
 40
0.3333333333333333
 40
0.3333333333333333
 40
0.3333333333333333
 40
0.3333333333333333
 40
0.4444444444444444
 40
0.4444444444444444
 40
0.4444444444444444
 40
0.4444444444444444
 40
0.5555555555555556
 40
0.5555555555555556
 40
0.5555555555555556
 40
0.5555555555555556
 40
0.6666666666666667
 40
0.6666666666666667
 40
0.6666666666666667
 40
0.6666666666666667
 40
0.7777777777777779
 40
0.7777777777777779
 40
0.7777777777777779
 40
0.7777777777777779
 40
0.8888888888888891
 40
0.8888888888888891
 40
0.8888888888888891
 40
0.8888888888888891
 40
1.0
 40
1.0
 40
1.0
 40
1.0
 10
-2.14132
 20
3.93812
 30
0.0
 10
-2.14132
 20
3.93812
 30
0.0
 10
-2.10336
 20
3.94234
 30
0.0
 10
-2.10336
 20
3.94234
 30
0.0
 10
-2.10336
 20
3.94234
 30
0.0
 10
-2.10336
 20
3.94234
 30
0.0
 10
-2.08228
 20
3.85799
 30
0.0
 10
-2.08228
 20
3.85799
 30
0.0
 10
-2.08228
 20
3.85799
 30
0.0
 10
-2.08228
 20
3.85799
 30
0.0
 10
-1.87986
 20
3.87486
 30
0.0
 10
-1.87986
 20
3.87486
 30
0.0
 10
-1.87986
 20
3.87486
 30
0.0
 10
-1.87986
 20
3.87486
 30
0.0
 10
-1.72383
 20
3.85378
 30
0.0
 10
-1.72383
 20
3.85378
 30
0.0
 10
-1.72383
 20
3.85378
 30
0.0
 10
-1.62511
 20
3.86408
 30
0.0
 10
-1.53932
 20
3.9477
 30
0.0
 10
-1.46237
 20
4.0815
 30
0.0
 10
-1.46237
 20
4.0815
 30
0.0
 10
-1.46237
 20
4.0815
 30
0.0
 10
-1.42863
 20
4.05198
 30
0.0
 10
-1.42863
 20
4.05198
 30
0.0
 10
-1.42863
 20
4.05198
 30
0.0
 10
-1.78962
 20
3.79452
 30
0.0
 10
-1.64755
 20
3.4016
 30
0.0
 10
-1.27682
 20
2.94711
 30
0.0
 10
-1.27682
 20
2.94711
 30
0.0
 10
-1.61074
 20
3.07835
 30
0.0
 10
-1.97323
 20
3.12389
 30
0.0
 10
-2.37747
 20
3.0441
 30
0.0
 10
-2.37747
 20
3.0441
 30
0.0
 10
-2.21871
 20
3.26824
 30
0.0
 10
-2.11713
 20
3.54514
 30
0.0
 10
-2.14132
 20
3.93812
 30
0.0
  0
SPLINE
  5
77
330
1F
100
AcDbEntity
  8
layer 1
 62
     7
100
AcDbSpline
210
0.0
220
0.0
230
1.0
 70
    11
 71
     3
 72
   112
 73
   108
 74
     0
 42
0.0000000001
 43
0.0000000001
 40
0.0
 40
0.0
 40
0.0
 40
0.0
 40
0.037037037037037
 40
0.037037037037037
 40
0.037037037037037
 40
0.037037037037037
 40
0.0740740740740741
 40
0.0740740740740741
 40
0.0740740740740741
 40
0.0740740740740741
 40
0.1111111111111111
 40
0.1111111111111111
 40
0.1111111111111111
 40
0.1111111111111111
 40
0.1481481481481481
 40
0.1481481481481481
 40
0.1481481481481481
 40
0.1481481481481481
 40
0.1851851851851852
 40
0.1851851851851852
 40
0.1851851851851852
 40
0.1851851851851852
 40
0.2222222222222222
 40
0.2222222222222222
 40
0.2222222222222222
 40
0.2222222222222222
 40
0.2592592592592592
 40
0.2592592592592592
 40
0.2592592592592592
 40
0.2592592592592592
 40
0.2962962962962963
 40
0.2962962962962963
 40
0.2962962962962963
 40
0.2962962962962963
 40
0.3333333333333333
 40
0.3333333333333333
 40
0.3333333333333333
 40
0.3333333333333333
 40
0.3703703703703703
 40
0.3703703703703703
 40
0.3703703703703703
 40
0.3703703703703703
 40
0.4074074074074074
 40
0.4074074074074074
 40
0.4074074074074074
 40
0.4074074074074074
 40
0.4444444444444444
 40
0.4444444444444444
 40
0.4444444444444444
 40
0.4444444444444444
 40
0.4814814814814815
 40
0.4814814814814815
 40
0.4814814814814815
 40
0.4814814814814815
 40
0.5185185185185185
 40
0.5185185185185185
 40
0.5185185185185185
 40
0.5185185185185185
 40
0.5555555555555556
 40
0.5555555555555556
 40
0.5555555555555556
 40
0.5555555555555556
 40
0.5925925925925927
 40
0.5925925925925927
 40
0.5925925925925927
 40
0.5925925925925927
 40
0.6296296296296298
 40
0.6296296296296298
 40
0.6296296296296298
 40
0.6296296296296298
 40
0.6666666666666669
 40
0.6666666666666669
 40
0.6666666666666669
 40
0.6666666666666669
 40
0.7037037037037039
 40
0.7037037037037039
 40
0.7037037037037039
 40
0.7037037037037039
 40
0.740740740740741
 40
0.740740740740741
 40
0.740740740740741
 40
0.740740740740741
 40
0.7777777777777781
 40
0.7777777777777781
 40
0.7777777777777781
 40
0.7777777777777781
 40
0.8148148148148152
 40
0.8148148148148152
 40
0.8148148148148152
 40
0.8148148148148152
 40
0.8518518518518523
 40
0.8518518518518523
 40
0.8518518518518523
 40
0.8518518518518523
 40
0.8888888888888894
 40
0.8888888888888894
 40
0.8888888888888894
 40
0.8888888888888894
 40
0.9259259259259265
 40
0.9259259259259265
 40
0.9259259259259265
 40
0.9259259259259265
 40
0.9629629629629636
 40
0.9629629629629636
 40
0.9629629629629636
 40
0.9629629629629636
 40
1.0
 40
1.0
 40
1.0
 40
1.0
 10
-0.78764
 20
3.92968
 30
0.0
 10
-0.6885
 20
3.81536
 30
0.0
 10
-0.59342
 20
3.65695
 30
0.0
 10
-0.48401
 20
3.65558
 30
0.0
 10
-0.48401
 20
3.65558
 30
0.0
 10
-0.48401
 20
3.65558
 30
0.0
 10
-0.38702
 20
3.57545
 30
0.0
 10
-0.38702
 20
3.57545
 30
0.0
 10
-0.38702
 20
3.57545
 30
0.0
 10
-0.38702
 20
3.57545
 30
0.0
 10
-0.13399
 20
3.57967
 30
0.0
 10
-0.13399
 20
3.57967
 30
0.0
 10
-0.13399
 20
3.57967
 30
0.0
 10
-0.06091
 20
3.64432
 30
0.0
 10
0.01219
 20
3.664
 30
0.0
 10
0.0853
 20
3.63871
 30
0.0
 10
0.0853
 20
3.63871
 30
0.0
 10
0.12747
 20
3.69182
 30
0.0
 10
0.19212
 20
3.70447
 30
0.0
 10
0.27928
 20
3.67666
 30
0.0
 10
0.27928
 20
3.67666
 30
0.0
 10
0.28422
 20
3.72443
 30
0.0
 10
0.31374
 20
3.73708
 30
0.0
 10
0.36784
 20
3.71461
 30
0.0
 10
0.36784
 20
3.71461
 30
0.0
 10
0.36086
 20
3.79974
 30
0.0
 10
0.32975
 20
3.87829
 30
0.0
 10
0.24554
 20
3.94234
 30
0.0
 10
0.24554
 20
3.94234
 30
0.0
 10
0.24554
 20
3.94234
 30
0.0
 10
0.69677
 20
3.94655
 30
0.0
 10
0.69677
 20
3.94655
 30
0.0
 10
0.69677
 20
3.94655
 30
0.0
 10
0.71925
 20
3.97929
 30
0.0
 10
0.74174
 20
3.97788
 30
0.0
 10
0.76424
 20
3.94234
 30
0.0
 10
0.76424
 20
3.94234
 30
0.0
 10
0.76424
 20
3.94234
 30
0.0
 10
1.15221
 20
3.93812
 30
0.0
 10
1.15221
 20
3.93812
 30
0.0
 10
1.15221
 20
3.93812
 30
0.0
 10
1.19859
 20
3.99173
 30
0.0
 10
1.24497
 20
3.98497
 30
0.0
 10
1.29138
 20
3.95077
 30
0.0
 10
1.29138
 20
3.95077
 30
0.0
 10
1.29138
 20
3.95077
 30
0.0
 10
1.65404
 20
3.98872
 30
0.0
 10
1.65404
 20
3.98872
 30
0.0
 10
1.65404
 20
3.98872
 30
0.0
 10
1.65404
 20
3.98872
 30
0.0
 10
1.62452
 20
3.14109
 30
0.0
 10
1.62452
 20
3.14109
 30
0.0
 10
1.62452
 20
3.14109
 30
0.0
 10
1.88867
 20
3.61456
 30
0.0
 10
2.06941
 20
4.10947
 30
0.0
 10
1.72501
 20
4.73943
 30
0.0
 10
1.72501
 20
4.73943
 30
0.0
 10
2.02503
 20
4.66141
 30
0.0
 10
2.21131
 20
4.70254
 30
0.0
 10
2.14738
 20
5.00584
 30
0.0
 10
2.14738
 20
5.00584
 30
0.0
 10
2.09972
 20
5.22894
 30
0.0
 10
1.93944
 20
5.28742
 30
0.0
 10
1.66653
 20
5.18128
 30
0.0
 10
1.66653
 20
5.18128
 30
0.0
 10
1.85822
 20
5.3795
 30
0.0
 10
2.04448
 20
5.4748
 30
0.0
 10
2.21885
 20
5.34373
 30
0.0
 10
2.21885
 20
5.34373
 30
0.0
 10
2.48743
 20
5.23976
 30
0.0
 10
2.47877
 20
4.97119
 30
0.0
 10
2.19286
 20
4.53799
 30
0.0
 10
2.19286
 20
4.53799
 30
0.0
 10
2.38878
 20
4.19509
 30
0.0
 10
2.73528
 20
4.07803
 30
0.0
 10
3.20653
 20
4.14812
 30
0.0
 10
3.20653
 20
4.14812
 30
0.0
 10
3.20653
 20
4.14812
 30
0.0
 10
3.12856
 20
4.47301
 30
0.0
 10
3.12856
 20
4.47301
 30
0.0
 10
3.12856
 20
4.47301
 30
0.0
 10
3.12856
 20
4.47301
 30
0.0
 10
3.79784
 20
4.14162
 30
0.0
 10
3.79784
 20
4.14162
 30
0.0
 10
3.79784
 20
4.14162
 30
0.0
 10
3.24766
 20
3.54985
 30
0.0
 10
2.86456
 20
2.82735
 30
0.0
 10
2.60223
 20
2.01031
 30
0.0
 10
2.60223
 20
2.01031
 30
0.0
 10
2.26613
 20
1.87715
 30
0.0
 10
1.75382
 20
1.82232
 30
0.0
 10
1.19219
 20
1.78938
 30
0.0
 10
1.19219
 20
1.78938
 30
0.0
 10
0.91891
 20
2.10526
 30
0.0
 10
0.50328
 20
2.27878
 30
0.0
 10
-0.12039
 20
2.24424
 30
0.0
 10
-0.12039
 20
2.24424
 30
0.0
 10
-0.34177
 20
2.21573
 30
0.0
 10
-0.59718
 20
2.35169
 30
0.0
 10
-0.89364
 20
2.68609
 30
0.0
 10
-0.89364
 20
2.68609
 30
0.0
 10
-0.89364
 20
2.68609
 30
0.0
 10
-1.16005
 20
2.91352
 30
0.0
 10
-1.16005
 20
2.91352
 30
0.0
 10
-1.16005
 20
2.91352
 30
0.0
 10
-0.69645
 20
3.37348
 30
0.0
 10
-0.55042
 20
3.72003
 30
0.0
 10
-0.78764
 20
3.92968
 30
0.0
  0
SPLINE
  5
78
330
1F
100
AcDbEntity
  8
layer 1
 62
     7
100
AcDbSpline
210
0.0
220
0.0
230
1.0
 70
    11
 71
     3
 72
    48
 73
    44
 74
     0
 42
0.0000000001
 43
0.0000000001
 40
0.0
 40
0.0
 40
0.0
 40
0.0
 40
0.0909090909090909
 40
0.0909090909090909
 40
0.0909090909090909
 40
0.0909090909090909
 40
0.1818181818181818
 40
0.1818181818181818
 40
0.1818181818181818
 40
0.1818181818181818
 40
0.2727272727272727
 40
0.2727272727272727
 40
0.2727272727272727
 40
0.2727272727272727
 40
0.3636363636363636
 40
0.3636363636363636
 40
0.3636363636363636
 40
0.3636363636363636
 40
0.4545454545454545
 40
0.4545454545454545
 40
0.4545454545454545
 40
0.4545454545454545
 40
0.5454545454545454
 40
0.5454545454545454
 40
0.5454545454545454
 40
0.5454545454545454
 40
0.6363636363636364
 40
0.6363636363636364
 40
0.6363636363636364
 40
0.6363636363636364
 40
0.7272727272727273
 40
0.7272727272727273
 40
0.7272727272727273
 40
0.7272727272727273
 40
0.8181818181818182
 40
0.8181818181818182
 40
0.8181818181818182
 40
0.8181818181818182
 40
0.9090909090909092
 40
0.9090909090909092
 40
0.9090909090909092
 40
0.9090909090909092
 40
1.0
 40
1.0
 40
1.0
 40
1.0
 10
6.00063
 20
5.09681
 30
0.0
 10
5.50092
 20
4.59212
 30
0.0
 10
5.0286
 20
4.02354
 30
0.0
 10
4.57109
 20
3.42035
 30
0.0
 10
4.57109
 20
3.42035
 30
0.0
 10
4.57109
 20
3.42035
 30
0.0
 10
5.22088
 20
3.00449
 30
0.0
 10
5.22088
 20
3.00449
 30
0.0
 10
5.22088
 20
3.00449
 30
0.0
 10
5.22088
 20
3.00449
 30
0.0
 10
5.20148
 20
3.07137
 30
0.0
 10
5.20148
 20
3.07137
 30
0.0
 10
5.20148
 20
3.07137
 30
0.0
 10
5.20148
 20
3.07137
 30
0.0
 10
5.21108
 20
3.42022
 30
0.0
 10
5.21108
 20
3.42022
 30
0.0
 10
5.21108
 20
3.42022
 30
0.0
 10
6.06053
 20
2.85697
 30
0.0
 10
6.25208
 20
2.22148
 30
0.0
 10
5.94795
 20
1.53158
 30
0.0
 10
5.94795
 20
1.53158
 30
0.0
 10
6.11641
 20
1.70384
 30
0.0
 10
6.32706
 20
1.80574
 30
0.0
 10
6.57992
 20
1.83731
 30
0.0
 10
6.57992
 20
1.83731
 30
0.0
 10
6.57992
 20
1.83731
 30
0.0
 10
6.57392
 20
1.8771
 30
0.0
 10
6.57392
 20
1.8771
 30
0.0
 10
6.57392
 20
1.8771
 30
0.0
 10
6.71907
 20
2.13663
 30
0.0
 10
6.92892
 20
2.30988
 30
0.0
 10
7.36989
 20
2.175
 30
0.0
 10
7.36989
 20
2.175
 30
0.0
 10
7.36989
 20
2.175
 30
0.0
 10
7.83421
 20
2.54284
 30
0.0
 10
7.83421
 20
2.54284
 30
0.0
 10
7.83421
 20
2.54284
 30
0.0
 10
7.56455
 20
3.10476
 30
0.0
 10
7.07865
 20
3.49046
 30
0.0
 10
6.42917
 20
3.74286
 30
0.0
 10
6.42917
 20
3.74286
 30
0.0
 10
6.38787
 20
4.25947
 30
0.0
 10
6.23886
 20
4.70682
 30
0.0
 10
6.00063
 20
5.09681
 30
0.0
  0
SPLINE
  5
79
330
1F
100
AcDbEntity
  8
layer 1
 62
     7
100
AcDbSpline
210
0.0
220
0.0
230
1.0
 70
    11
 71
     3
 72
    36
 73
    32
 74
     0
 42
0.0000000001
 43
0.0000000001
 40
0.0
 40
0.0
 40
0.0
 40
0.0
 40
0.125
 40
0.125
 40
0.125
 40
0.125
 40
0.25
 40
0.25
 40
0.25
 40
0.25
 40
0.375
 40
0.375
 40
0.375
 40
0.375
 40
0.5
 40
0.5
 40
0.5
 40
0.5
 40
0.625
 40
0.625
 40
0.625
 40
0.625
 40
0.75
 40
0.75
 40
0.75
 40
0.75
 40
0.875
 40
0.875
 40
0.875
 40
0.875
 40
1.0
 40
1.0
 40
1.0
 40
1.0
 10
3.13666
 20
6.85447
 30
0.0
 10
3.07303
 20
6.51494
 30
0.0
 10
2.89354
 20
6.26035
 30
0.0
 10
2.64218
 20
6.05847
 30
0.0
 10
2.64218
 20
6.05847
 30
0.0
 10
2.64218
 20
6.05847
 30
0.0
 10
3.43214
 20
6.10069
 30
0.0
 10
3.43214
 20
6.10069
 30
0.0
 10
3.43214
 20
6.10069
 30
0.0
 10
3.35593
 20
5.53256
 30
0.0
 10
3.15108
 20
5.18953
 30
0.0
 10
2.82911
 20
5.05142
 30
0.0
 10
2.82911
 20
5.05142
 30
0.0
 10
3.02403
 20
4.94623
 30
0.0
 10
3.1139
 20
4.76464
 30
0.0
 10
3.1319
 20
4.53077
 30
0.0
 10
3.1319
 20
4.53077
 30
0.0
 10
3.1319
 20
4.53077
 30
0.0
 10
3.83177
 20
4.22799
 30
0.0
 10
3.83177
 20
4.22799
 30
0.0
 10
3.83177
 20
4.22799
 30
0.0
 10
4.30422
 20
4.81481
 30
0.0
 10
4.82895
 20
5.32324
 30
0.0
 10
5.43008
 20
5.71709
 30
0.0
 10
5.43008
 20
5.71709
 30
0.0
 10
4.88853
 20
6.24177
 30
0.0
 10
4.25768
 20
6.49851
 30
0.0
 10
3.51906
 20
6.43186
 30
0.0
 10
3.51906
 20
6.43186
 30
0.0
 10
3.51906
 20
6.43186
 30
0.0
 10
3.13666
 20
6.85447
 30
0.0
 10
3.13666
 20
6.85447
 30
0.0
  0
SPLINE
  5
7A
330
1F
100
AcDbEntity
  8
layer 1
 62
     7
100
AcDbSpline
210
0.0
220
0.0
230
1.0
 70
    11
 71
     3
 72
   200
 73
   196
 74
     0
 42
0.0000000001
 43
0.0000000001
 40
0.0
 40
0.0
 40
0.0
 40
0.0
 40
0.0204081632653061
 40
0.0204081632653061
 40
0.0204081632653061
 40
0.0204081632653061
 40
0.0408163265306122
 40
0.0408163265306122
 40
0.0408163265306122
 40
0.0408163265306122
 40
0.0612244897959184
 40
0.0612244897959184
 40
0.0612244897959184
 40
0.0612244897959184
 40
0.0816326530612245
 40
0.0816326530612245
 40
0.0816326530612245
 40
0.0816326530612245
 40
0.1020408163265306
 40
0.1020408163265306
 40
0.1020408163265306
 40
0.1020408163265306
 40
0.1224489795918367
 40
0.1224489795918367
 40
0.1224489795918367
 40
0.1224489795918367
 40
0.1428571428571428
 40
0.1428571428571428
 40
0.1428571428571428
 40
0.1428571428571428
 40
0.163265306122449
 40
0.163265306122449
 40
0.163265306122449
 40
0.163265306122449
 40
0.1836734693877551
 40
0.1836734693877551
 40
0.1836734693877551
 40
0.1836734693877551
 40
0.2040816326530612
 40
0.2040816326530612
 40
0.2040816326530612
 40
0.2040816326530612
 40
0.2244897959183673
 40
0.2244897959183673
 40
0.2244897959183673
 40
0.2244897959183673
 40
0.2448979591836734
 40
0.2448979591836734
 40
0.2448979591836734
 40
0.2448979591836734
 40
0.2653061224489796
 40
0.2653061224489796
 40
0.2653061224489796
 40
0.2653061224489796
 40
0.2857142857142857
 40
0.2857142857142857
 40
0.2857142857142857
 40
0.2857142857142857
 40
0.3061224489795918
 40
0.3061224489795918
 40
0.3061224489795918
 40
0.3061224489795918
 40
0.326530612244898
 40
0.326530612244898
 40
0.326530612244898
 40
0.326530612244898
 40
0.3469387755102041
 40
0.3469387755102041
 40
0.3469387755102041
 40
0.3469387755102041
 40
0.3673469387755103
 40
0.3673469387755103
 40
0.3673469387755103
 40
0.3673469387755103
 40
0.3877551020408164
 40
0.3877551020408164
 40
0.3877551020408164
 40
0.3877551020408164
 40
0.4081632653061226
 40
0.4081632653061226
 40
0.4081632653061226
 40
0.4081632653061226
 40
0.4285714285714287
 40
0.4285714285714287
 40
0.4285714285714287
 40
0.4285714285714287
 40
0.4489795918367349
 40
0.4489795918367349
 40
0.4489795918367349
 40
0.4489795918367349
 40
0.469387755102041
 40
0.469387755102041
 40
0.469387755102041
 40
0.469387755102041
 40
0.4897959183673471
 40
0.4897959183673471
 40
0.4897959183673471
 40
0.4897959183673471
 40
0.5102040816326533
 40
0.5102040816326533
 40
0.5102040816326533
 40
0.5102040816326533
 40
0.5306122448979594
 40
0.5306122448979594
 40
0.5306122448979594
 40
0.5306122448979594
 40
0.5510204081632656
 40
0.5510204081632656
 40
0.5510204081632656
 40
0.5510204081632656
 40
0.5714285714285717
 40
0.5714285714285717
 40
0.5714285714285717
 40
0.5714285714285717
 40
0.5918367346938779
 40
0.5918367346938779
 40
0.5918367346938779
 40
0.5918367346938779
 40
0.612244897959184
 40
0.612244897959184
 40
0.612244897959184
 40
0.612244897959184
 40
0.6326530612244902
 40
0.6326530612244902
 40
0.6326530612244902
 40
0.6326530612244902
 40
0.6530612244897963
 40
0.6530612244897963
 40
0.6530612244897963
 40
0.6530612244897963
 40
0.6734693877551025
 40
0.6734693877551025
 40
0.6734693877551025
 40
0.6734693877551025
 40
0.6938775510204086
 40
0.6938775510204086
 40
0.6938775510204086
 40
0.6938775510204086
 40
0.7142857142857147
 40
0.7142857142857147
 40
0.7142857142857147
 40
0.7142857142857147
 40
0.7346938775510209
 40
0.7346938775510209
 40
0.7346938775510209
 40
0.7346938775510209
 40
0.755102040816327
 40
0.755102040816327
 40
0.755102040816327
 40
0.755102040816327
 40
0.7755102040816332
 40
0.7755102040816332
 40
0.7755102040816332
 40
0.7755102040816332
 40
0.7959183673469393
 40
0.7959183673469393
 40
0.7959183673469393
 40
0.7959183673469393
 40
0.8163265306122455
 40
0.8163265306122455
 40
0.8163265306122455
 40
0.8163265306122455
 40
0.8367346938775516
 40
0.8367346938775516
 40
0.8367346938775516
 40
0.8367346938775516
 40
0.8571428571428578
 40
0.8571428571428578
 40
0.8571428571428578
 40
0.8571428571428578
 40
0.8775510204081639
 40
0.8775510204081639
 40
0.8775510204081639
 40
0.8775510204081639
 40
0.89795918367347
 40
0.89795918367347
 40
0.89795918367347
 40
0.89795918367347
 40
0.9183673469387762
 40
0.9183673469387762
 40
0.9183673469387762
 40
0.9183673469387762
 40
0.9387755102040823
 40
0.9387755102040823
 40
0.9387755102040823
 40
0.9387755102040823
 40
0.9591836734693885
 40
0.9591836734693885
 40
0.9591836734693885
 40
0.9591836734693885
 40
0.9795918367346946
 40
0.9795918367346946
 40
0.9795918367346946
 40
0.9795918367346946
 40
1.0
 40
1.0
 40
1.0
 40
1.0
 10
-0.59085
 20
5.86104
 30
0.0
 10
0.31516
 20
6.01658
 30
0.0
 10
1.01263
 20
5.80095
 30
0.0
 10
1.46907
 20
5.15619
 30
0.0
 10
1.46907
 20
5.15619
 30
0.0
 10
1.35442
 20
5.38025
 30
0.0
 10
1.28277
 20
5.60908
 30
0.0
 10
1.33008
 20
5.85111
 30
0.0
 10
1.33008
 20
5.85111
 30
0.0
 10
1.35889
 20
6.10072
 30
0.0
 10
1.41018
 20
6.33235
 30
0.0
 10
1.48396
 20
6.54602
 30
0.0
 10
1.48396
 20
6.54602
 30
0.0
 10
1.94891
 20
6.37083
 30
0.0
 10
2.22026
 20
6.14815
 30
0.0
 10
2.20865
 20
5.85607
 30
0.0
 10
2.20865
 20
5.85607
 30
0.0
 10
2.30685
 20
5.96057
 30
0.0
 10
2.42472
 20
6.03415
 30
0.0
 10
2.58589
 20
6.03973
 30
0.0
 10
2.58589
 20
6.03973
 30
0.0
 10
2.78372
 20
6.31983
 30
0.0
 10
2.95456
 20
6.61791
 30
0.0
 10
3.0773
 20
6.94808
 30
0.0
 10
3.0773
 20
6.94808
 30
0.0
 10
2.69111
 20
7.46225
 30
0.0
 10
2.05787
 20
7.62921
 30
0.0
 10
1.25563
 20
7.55861
 30
0.0
 10
1.25563
 20
7.55861
 30
0.0
 10
0.89424
 20
7.95584
 30
0.0
 10
0.41602
 20
8.23008
 30
0.0
 10
-0.15902
 20
8.40243
 30
0.0
 10
-0.15902
 20
8.40243
 30
0.0
 10
-0.15902
 20
8.40243
 30
0.0
 10
-0.22908
 20
8.4703
 30
0.0
 10
-0.22908
 20
8.4703
 30
0.0
 10
-0.22908
 20
8.4703
 30
0.0
 10
-0.22908
 20
8.4703
 30
0.0
 10
-0.35813
 20
8.45713
 30
0.0
 10
-0.35813
 20
8.45713
 30
0.0
 10
-0.35813
 20
8.45713
 30
0.0
 10
-0.35813
 20
8.45713
 30
0.0
 10
-0.39237
 20
8.51507
 30
0.0
 10
-0.39237
 20
8.51507
 30
0.0
 10
-0.39237
 20
8.51507
 30
0.0
 10
-0.39237
 20
8.51507
 30
0.0
 10
-0.57409
 20
8.49927
 30
0.0
 10
-0.57409
 20
8.49927
 30
0.0
 10
-0.57409
 20
8.49927
 30
0.0
 10
-0.57409
 20
8.49927
 30
0.0
 10
-0.61886
 20
8.54668
 30
0.0
 10
-0.61886
 20
8.54668
 30
0.0
 10
-0.61886
 20
8.54668
 30
0.0
 10
-0.61886
 20
8.54668
 30
0.0
 10
-0.87168
 20
8.54404
 30
0.0
 10
-0.87168
 20
8.54404
 30
0.0
 10
-0.87168
 20
8.54404
 30
0.0
 10
-0.87168
 20
8.54404
 30
0.0
 10
-0.88485
 20
8.57301
 30
0.0
 10
-0.88485
 20
8.57301
 30
0.0
 10
-0.88485
 20
8.57301
 30
0.0
 10
-0.88485
 20
8.57301
 30
0.0
 10
-1.06394
 20
8.56511
 30
0.0
 10
-1.06394
 20
8.56511
 30
0.0
 10
-1.06394
 20
8.56511
 30
0.0
 10
-1.06394
 20
8.56511
 30
0.0
 10
-1.08237
 20
8.52297
 30
0.0
 10
-1.08237
 20
8.52297
 30
0.0
 10
-1.08237
 20
8.52297
 30
0.0
 10
-1.08237
 20
8.52297
 30
0.0
 10
-1.22459
 20
8.54931
 30
0.0
 10
-1.22459
 20
8.54931
 30
0.0
 10
-1.22459
 20
8.54931
 30
0.0
 10
-1.22459
 20
8.54931
 30
0.0
 10
-1.26673
 20
8.49927
 30
0.0
 10
-1.26673
 20
8.49927
 30
0.0
 10
-1.26673
 20
8.49927
 30
0.0
 10
-1.26673
 20
8.49927
 30
0.0
 10
-1.43964
 20
8.49674
 30
0.0
 10
-1.43964
 20
8.49674
 30
0.0
 10
-1.43964
 20
8.49674
 30
0.0
 10
-1.43964
 20
8.49674
 30
0.0
 10
-1.48432
 20
8.45207
 30
0.0
 10
-1.48432
 20
8.45207
 30
0.0
 10
-1.48432
 20
8.45207
 30
0.0
 10
-1.48432
 20
8.45207
 30
0.0
 10
-1.64812
 20
8.48682
 30
0.0
 10
-1.64812
 20
8.48682
 30
0.0
 10
-1.64812
 20
8.48682
 30
0.0
 10
-1.64812
 20
8.48682
 30
0.0
 10
-1.6779
 20
8.42725
 30
0.0
 10
-1.6779
 20
8.42725
 30
0.0
 10
-1.6779
 20
8.42725
 30
0.0
 10
-2.18756
 20
8.27513
 30
0.0
 10
-2.59637
 20
7.9717
 30
0.0
 10
-2.9486
 20
7.58343
 30
0.0
 10
-2.9486
 20
7.58343
 30
0.0
 10
-3.09739
 20
7.66022
 30
0.0
 10
-3.30427
 20
7.69638
 30
0.0
 10
-3.55088
 20
7.70473
 30
0.0
 10
-3.55088
 20
7.70473
 30
0.0
 10
-3.57151
 20
7.55196
 30
0.0
 10
-3.53987
 20
7.39919
 30
0.0
 10
-3.47249
 20
7.24643
 30
0.0
 10
-3.47249
 20
7.24643
 30
0.0
 10
-3.47249
 20
7.24643
 30
0.0
 10
-3.17701
 20
7.47558
 30
0.0
 10
-3.17701
 20
7.47558
 30
0.0
 10
-3.17701
 20
7.47558
 30
0.0
 10
-3.15395
 20
7.27264
 30
0.0
 10
-3.09512
 20
7.09749
 30
0.0
 10
-2.98404
 20
6.96301
 30
0.0
 10
-2.98404
 20
6.96301
 30
0.0
 10
-2.92188
 20
6.73707
 30
0.0
 10
-2.9397
 20
6.5397
 30
0.0
 10
-3.07449
 20
6.38411
 30
0.0
 10
-3.07449
 20
6.38411
 30
0.0
 10
-2.76694
 20
6.51372
 30
0.0
 10
-2.41719
 20
6.45342
 30
0.0
 10
-2.02523
 20
6.2032
 30
0.0
 10
-2.02523
 20
6.2032
 30
0.0
 10
-2.02523
 20
6.2032
 30
0.0
 10
-2.24954
 20
5.95608
 30
0.0
 10
-2.24954
 20
5.95608
 30
0.0
 10
-2.24954
 20
5.95608
 30
0.0
 10
-2.24954
 20
5.95608
 30
0.0
 10
-2.38934
 20
5.85997
 30
0.0
 10
-2.38934
 20
5.85997
 30
0.0
 10
-2.38934
 20
5.85997
 30
0.0
 10
-2.38934
 20
5.85997
 30
0.0
 10
-2.34274
 20
5.82502
 30
0.0
 10
-2.34274
 20
5.82502
 30
0.0
 10
-2.34274
 20
5.82502
 30
0.0
 10
-2.34274
 20
5.82502
 30
0.0
 10
-2.32642
 20
5.93164
 30
0.0
 10
-2.32642
 20
5.93164
 30
0.0
 10
-2.32642
 20
5.93164
 30
0.0
 10
-2.32642
 20
5.93164
 30
0.0
 10
-1.87086
 20
5.66998
 30
0.0
 10
-1.87086
 20
5.66998
 30
0.0
 10
-1.87086
 20
5.66998
 30
0.0
 10
-1.87086
 20
5.66998
 30
0.0
 10
-1.85569
 20
5.80255
 30
0.0
 10
-1.85569
 20
5.80255
 30
0.0
 10
-1.85569
 20
5.80255
 30
0.0
 10
-1.53502
 20
5.78725
 30
0.0
 10
-1.26114
 20
5.73817
 30
0.0
 10
-1.10951
 20
5.60076
 30
0.0
 10
-1.10951
 20
5.60076
 30
0.0
 10
-0.78518
 20
5.84263
 30
0.0
 10
-0.75165
 20
6.28097
 30
0.0
 10
-0.9171
 20
6.85377
 30
0.0
 10
-0.9171
 20
6.85377
 30
0.0
 10
-0.9708
 20
7.17395
 30
0.0
 10
-0.97653
 20
7.45815
 30
0.0
 10
-0.92436
 20
7.69892
 30
0.0
 10
-0.92436
 20
7.69892
 30
0.0
 10
-0.92436
 20
7.69892
 30
0.0
 10
-0.88084
 20
7.69892
 30
0.0
 10
-0.88084
 20
7.69892
 30
0.0
 10
-0.88084
 20
7.69892
 30
0.0
 10
-0.88084
 20
7.69892
 30
0.0
 10
-0.90644
 20
7.85507
 30
0.0
 10
-0.90644
 20
7.85507
 30
0.0
 10
-0.90644
 20
7.85507
 30
0.0
 10
-0.90644
 20
7.85507
 30
0.0
 10
-0.8706
 20
7.83459
 30
0.0
 10
-0.8706
 20
7.83459
 30
0.0
 10
-0.8706
 20
7.83459
 30
0.0
 10
-0.8706
 20
7.83459
 30
0.0
 10
-0.8962
 20
8.01633
 30
0.0
 10
-0.8962
 20
8.01633
 30
0.0
 10
-0.8962
 20
8.01633
 30
0.0
 10
-0.8962
 20
8.01633
 30
0.0
 10
-0.8578
 20
8.0061
 30
0.0
 10
-0.8578
 20
8.0061
 30
0.0
 10
-0.8578
 20
8.0061
 30
0.0
 10
-0.8578
 20
8.0061
 30
0.0
 10
-0.86548
 20
8.1776
 30
0.0
 10
-0.86548
 20
8.1776
 30
0.0
 10
-0.86548
 20
8.1776
 30
0.0
 10
-0.86548
 20
8.1776
 30
0.0
 10
-0.82452
 20
8.16736
 30
0.0
 10
-0.82452
 20
8.16736
 30
0.0
 10
-0.82452
 20
8.16736
 30
0.0
 10
-0.82452
 20
8.16736
 30
0.0
 10
-0.86036
 20
8.3747
 30
0.0
 10
-0.86036
 20
8.3747
 30
0.0
 10
-0.86036
 20
8.3747
 30
0.0
 10
-0.48786
 20
7.92965
 30
0.0
 10
-0.16597
 20
7.44719
 30
0.0
 10
-0.05254
 20
6.81065
 30
0.0
 10
-0.05254
 20
6.81065
 30
0.0
 10
-0.06253
 20
6.38114
 30
0.0
 10
-0.25716
 20
6.07471
 30
0.0
 10
-0.59085
 20
5.86104
 30
0.0
  0
SPLINE
  5
7B
330
1F
100
AcDbEntity
  8
layer 1
 62
     7
100
AcDbSpline
210
0.0
220
0.0
230
1.0
 70
    11
 71
     3
 72
    40
 73
    36
 74
     0
 42
0.0000000001
 43
0.0000000001
 40
0.0
 40
0.0
 40
0.0
 40
0.0
 40
0.1111111111111111
 40
0.1111111111111111
 40
0.1111111111111111
 40
0.1111111111111111
 40
0.2222222222222222
 40
0.2222222222222222
 40
0.2222222222222222
 40
0.2222222222222222
 40
0.3333333333333333
 40
0.3333333333333333
 40
0.3333333333333333
 40
0.3333333333333333
 40
0.4444444444444444
 40
0.4444444444444444
 40
0.4444444444444444
 40
0.4444444444444444
 40
0.5555555555555556
 40
0.5555555555555556
 40
0.5555555555555556
 40
0.5555555555555556
 40
0.6666666666666667
 40
0.6666666666666667
 40
0.6666666666666667
 40
0.6666666666666667
 40
0.7777777777777779
 40
0.7777777777777779
 40
0.7777777777777779
 40
0.7777777777777779
 40
0.8888888888888891
 40
0.8888888888888891
 40
0.8888888888888891
 40
0.8888888888888891
 40
1.0
 40
1.0
 40
1.0
 40
1.0
 10
-0.95788
 20
5.47957
 30
0.0
 10
0.01516
 20
6.08889
 30
0.0
 10
1.44214
 20
5.79354
 30
0.0
 10
1.64165
 20
4.06
 30
0.0
 10
1.64165
 20
4.06
 30
0.0
 10
1.64165
 20
4.06
 30
0.0
 10
0.25235
 20
4.00466
 30
0.0
 10
0.25235
 20
4.00466
 30
0.0
 10
0.25235
 20
4.00466
 30
0.0
 10
0.16859
 20
4.24027
 30
0.0
 10
0.01983
 20
4.43796
 30
0.0
 10
-0.27191
 20
4.55223
 30
0.0
 10
-0.27191
 20
4.55223
 30
0.0
 10
-0.27191
 20
4.55223
 30
0.0
 10
-0.40297
 20
4.51728
 30
0.0
 10
-0.40297
 20
4.51728
 30
0.0
 10
-0.40297
 20
4.51728
 30
0.0
 10
-0.40297
 20
4.51728
 30
0.0
 10
-0.2457
 20
4.59009
 30
0.0
 10
-0.2457
 20
4.59009
 30
0.0
 10
-0.2457
 20
4.59009
 30
0.0
 10
-0.01132
 20
4.64415
 30
0.0
 10
0.14179
 20
4.88235
 30
0.0
 10
0.11619
 20
5.52567
 30
0.0
 10
0.11619
 20
5.52567
 30
0.0
 10
-0.42832
 20
5.58228
 30
0.0
 10
-0.73617
 20
5.41257
 30
0.0
 10
-0.88212
 20
5.08795
 30
0.0
 10
-0.88212
 20
5.08795
 30
0.0
 10
-0.88212
 20
5.08795
 30
0.0
 10
-0.92052
 20
5.09563
 30
0.0
 10
-0.92052
 20
5.09563
 30
0.0
 10
-0.92052
 20
5.09563
 30
0.0
 10
-0.92052
 20
5.09563
 30
0.0
 10
-0.95788
 20
5.47957
 30
0.0
 10
-0.95788
 20
5.47957
 30
0.0
  0
SPLINE
  5
7C
330
1F
100
AcDbEntity
  8
layer 1
 62
     7
100
AcDbSpline
210
0.0
220
0.0
230
1.0
 70
    11
 71
     3
 72
    44
 73
    40
 74
     0
 42
0.0000000001
 43
0.0000000001
 40
0.0
 40
0.0
 40
0.0
 40
0.0
 40
0.1
 40
0.1
 40
0.1
 40
0.1
 40
0.2
 40
0.2
 40
0.2
 40
0.2
 40
0.3
 40
0.3
 40
0.3
 40
0.3
 40
0.4
 40
0.4
 40
0.4
 40
0.4
 40
0.4999999999999999
 40
0.4999999999999999
 40
0.4999999999999999
 40
0.4999999999999999
 40
0.6
 40
0.6
 40
0.6
 40
0.6
 40
0.7
 40
0.7
 40
0.7
 40
0.7
 40
0.7999999999999999
 40
0.7999999999999999
 40
0.7999999999999999
 40
0.7999999999999999
 40
0.8999999999999999
 40
0.8999999999999999
 40
0.8999999999999999
 40
0.8999999999999999
 40
1.0
 40
1.0
 40
1.0
 40
1.0
 10
-4.06136
 20
5.91732
 30
0.0
 10
-3.95846
 20
6.10956
 30
0.0
 10
-3.81864
 20
6.24513
 30
0.0
 10
-3.54685
 20
6.17842
 30
0.0
 10
-3.54685
 20
6.17842
 30
0.0
 10
-3.35298
 20
6.09097
 30
0.0
 10
-3.26595
 20
5.90796
 30
0.0
 10
-3.28575
 20
5.62934
 30
0.0
 10
-3.28575
 20
5.62934
 30
0.0
 10
-2.94153
 20
5.4919
 30
0.0
 10
-2.63386
 20
5.5235
 30
0.0
 10
-2.37959
 20
5.80213
 30
0.0
 10
-2.37959
 20
5.80213
 30
0.0
 10
-2.37959
 20
5.80213
 30
0.0
 10
-1.90347
 20
5.60631
 30
0.0
 10
-1.90347
 20
5.60631
 30
0.0
 10
-1.90347
 20
5.60631
 30
0.0
 10
-1.97299
 20
5.11806
 30
0.0
 10
-1.81114
 20
4.87771
 30
0.0
 10
-1.56558
 20
4.72702
 30
0.0
 10
-1.56558
 20
4.72702
 30
0.0
 10
-1.56558
 20
4.72702
 30
0.0
 10
-1.58862
 20
4.68863
 30
0.0
 10
-1.58862
 20
4.68863
 30
0.0
 10
-1.58862
 20
4.68863
 30
0.0
 10
-1.7913
 20
4.90516
 30
0.0
 10
-2.06417
 20
4.75505
 30
0.0
 10
-2.36807
 20
4.44289
 30
0.0
 10
-2.36807
 20
4.44289
 30
0.0
 10
-2.96527
 20
5.32346
 30
0.0
 10
-3.27814
 20
5.36528
 30
0.0
 10
-3.639
 20
5.54871
 30
0.0
 10
-3.639
 20
5.54871
 30
0.0
 10
-3.4545
 20
5.72565
 30
0.0
 10
-3.4299
 20
5.89344
 30
0.0
 10
-3.639
 20
6.04787
 30
0.0
 10
-3.639
 20
6.04787
 30
0.0
 10
-3.78577
 20
6.13579
 30
0.0
 10
-3.92586
 20
6.0768
 30
0.0
 10
-4.06136
 20
5.91732
 30
0.0
  0
SPLINE
  5
7D
330
1F
100
AcDbEntity
  8
layer 1
 62
     7
100
AcDbSpline
210
0.0
220
0.0
230
1.0
 70
    11
 71
     3
 72
    32
 73
    28
 74
     0
 42
0.0000000001
 43
0.0000000001
 40
0.0
 40
0.0
 40
0.0
 40
0.0
 40
0.1428571428571428
 40
0.1428571428571428
 40
0.1428571428571428
 40
0.1428571428571428
 40
0.2857142857142857
 40
0.2857142857142857
 40
0.2857142857142857
 40
0.2857142857142857
 40
0.4285714285714285
 40
0.4285714285714285
 40
0.4285714285714285
 40
0.4285714285714285
 40
0.5714285714285714
 40
0.5714285714285714
 40
0.5714285714285714
 40
0.5714285714285714
 40
0.7142857142857143
 40
0.7142857142857143
 40
0.7142857142857143
 40
0.7142857142857143
 40
0.8571428571428572
 40
0.8571428571428572
 40
0.8571428571428572
 40
0.8571428571428572
 40
1.0
 40
1.0
 40
1.0
 40
1.0
 10
-5.88136
 20
6.38576
 30
0.0
 10
-6.35284
 20
6.33144
 30
0.0
 10
-6.73143
 20
6.112
 30
0.0
 10
-7.06782
 20
5.81749
 30
0.0
 10
-7.06782
 20
5.81749
 30
0.0
 10
-6.47354
 20
5.33343
 30
0.0
 10
-5.92618
 20
4.82121
 30
0.0
 10
-5.48204
 20
4.24706
 30
0.0
 10
-5.48204
 20
4.24706
 30
0.0
 10
-5.02814
 20
4.33681
 30
0.0
 10
-4.56065
 20
4.36536
 30
0.0
 10
-4.07672
 20
4.32002
 30
0.0
 10
-4.07672
 20
4.32002
 30
0.0
 10
-3.65374
 20
4.79918
 30
0.0
 10
-3.18825
 20
4.92109
 30
0.0
 10
-2.6714
 20
4.61183
 30
0.0
 10
-2.6714
 20
4.61183
 30
0.0
 10
-3.21365
 20
5.40024
 30
0.0
 10
-4.32843
 20
5.68182
 30
0.0
 10
-6.01575
 20
5.45656
 30
0.0
 10
-6.01575
 20
5.45656
 30
0.0
 10
-5.84558
 20
5.56543
 30
0.0
 10
-5.66678
 20
5.65708
 30
0.0
 10
-5.459
 20
5.69078
 30
0.0
 10
-5.459
 20
5.69078
 30
0.0
 10
-5.459
 20
5.69078
 30
0.0
 10
-5.88136
 20
6.38576
 30
0.0
 10
-5.88136
 20
6.38576
 30
0.0
  0
SPLINE
  5
7E
330
1F
100
AcDbEntity
  8
layer 1
 62
     7
100
AcDbSpline
210
0.0
220
0.0
230
1.0
 70
    11
 71
     3
 72
    44
 73
    40
 74
     0
 42
0.0000000001
 43
0.0000000001
 40
0.0
 40
0.0
 40
0.0
 40
0.0
 40
0.1
 40
0.1
 40
0.1
 40
0.1
 40
0.2
 40
0.2
 40
0.2
 40
0.2
 40
0.3
 40
0.3
 40
0.3
 40
0.3
 40
0.4
 40
0.4
 40
0.4
 40
0.4
 40
0.4999999999999999
 40
0.4999999999999999
 40
0.4999999999999999
 40
0.4999999999999999
 40
0.6
 40
0.6
 40
0.6
 40
0.6
 40
0.7
 40
0.7
 40
0.7
 40
0.7
 40
0.7999999999999999
 40
0.7999999999999999
 40
0.7999999999999999
 40
0.7999999999999999
 40
0.8999999999999999
 40
0.8999999999999999
 40
0.8999999999999999
 40
0.8999999999999999
 40
1.0
 40
1.0
 40
1.0
 40
1.0
 10
-5.82377
 20
6.4088
 30
0.0
 10
-5.82377
 20
6.4088
 30
0.0
 10
-5.19022
 20
6.50863
 30
0.0
 10
-5.19022
 20
6.50863
 30
0.0
 10
-5.19022
 20
6.50863
 30
0.0
 10
-4.84357
 20
7.08274
 30
0.0
 10
-4.44353
 20
7.59558
 30
0.0
 10
-3.66972
 20
7.67972
 30
0.0
 10
-3.66972
 20
7.67972
 30
0.0
 10
-3.69662
 20
7.52101
 30
0.0
 10
-3.63746
 20
7.3451
 30
0.0
 10
-3.53917
 20
7.16137
 30
0.0
 10
-3.53917
 20
7.16137
 30
0.0
 10
-3.74782
 20
7.10251
 30
0.0
 10
-3.83599
 20
6.90597
 30
0.0
 10
-3.86938
 20
6.64685
 30
0.0
 10
-3.86938
 20
6.64685
 30
0.0
 10
-3.98841
 20
6.8003
 30
0.0
 10
-4.16375
 20
6.89117
 30
0.0
 10
-4.39541
 20
6.91947
 30
0.0
 10
-4.39541
 20
6.91947
 30
0.0
 10
-4.39541
 20
6.91947
 30
0.0
 10
-4.7141
 20
6.97323
 30
0.0
 10
-4.7141
 20
6.97323
 30
0.0
 10
-4.7141
 20
6.97323
 30
0.0
 10
-4.7141
 20
6.97323
 30
0.0
 10
-4.67187
 20
6.32432
 30
0.0
 10
-4.67187
 20
6.32432
 30
0.0
 10
-4.67187
 20
6.32432
 30
0.0
 10
-4.57119
 20
6.0074
 30
0.0
 10
-4.36259
 20
5.78044
 30
0.0
 10
-3.96153
 20
5.71382
 30
0.0
 10
-3.96153
 20
5.71382
 30
0.0
 10
-4.43139
 20
5.82019
 30
0.0
 10
-4.90752
 20
5.82019
 30
0.0
 10
-5.38989
 20
5.71382
 30
0.0
 10
-5.38989
 20
5.71382
 30
0.0
 10
-5.54328
 20
5.97963
 30
0.0
 10
-5.68689
 20
6.20727
 30
0.0
 10
-5.82377
 20
6.4088
 30
0.0
  0
SPLINE
  5
7F
330
1F
100
AcDbEntity
  8
layer 1
 62
     7
100
AcDbSpline
210
0.0
220
0.0
230
1.0
 70
    11
 71
     3
 72
    36
 73
    32
 74
     0
 42
0.0000000001
 43
0.0000000001
 40
0.0
 40
0.0
 40
0.0
 40
0.0
 40
0.125
 40
0.125
 40
0.125
 40
0.125
 40
0.25
 40
0.25
 40
0.25
 40
0.25
 40
0.375
 40
0.375
 40
0.375
 40
0.375
 40
0.5
 40
0.5
 40
0.5
 40
0.5
 40
0.625
 40
0.625
 40
0.625
 40
0.625
 40
0.75
 40
0.75
 40
0.75
 40
0.75
 40
0.875
 40
0.875
 40
0.875
 40
0.875
 40
1.0
 40
1.0
 40
1.0
 40
1.0
 10
-7.23971
 20
-0.50934
 30
0.0
 10
-7.12346
 20
-0.60124
 30
0.0
 10
-7.12135
 20
-0.78284
 30
0.0
 10
-7.17113
 20
-1.00523
 30
0.0
 10
-7.17113
 20
-1.00523
 30
0.0
 10
-6.81959
 20
-1.09771
 30
0.0
 10
-6.57097
 20
-1.22854
 30
0.0
 10
-6.39036
 20
-1.5908
 30
0.0
 10
-6.39036
 20
-1.5908
 30
0.0
 10
-6.39036
 20
-1.5908
 30
0.0
 10
-6.17935
 20
-0.69925
 30
0.0
 10
-6.17935
 20
-0.69925
 30
0.0
 10
-6.17935
 20
-0.69925
 30
0.0
 10
-6.16346
 20
-0.13715
 30
0.0
 10
-6.16674
 20
0.41514
 30
0.0
 10
-7.08219
 20
0.84372
 30
0.0
 10
-7.08219
 20
0.84372
 30
0.0
 10
-7.05127
 20
0.52034
 30
0.0
 10
-7.12596
 20
0.3589
 30
0.0
 10
-7.2729
 20
0.30828
 30
0.0
 10
-7.2729
 20
0.30828
 30
0.0
 10
-6.92649
 20
0.3779
 30
0.0
 10
-6.61862
 20
0.29819
 30
0.0
 10
-6.36706
 20
0.00022
 30
0.0
 10
-6.36706
 20
0.00022
 30
0.0
 10
-6.36706
 20
0.00022
 30
0.0
 10
-6.64578
 20
-0.3115
 30
0.0
 10
-6.64578
 20
-0.3115
 30
0.0
 10
-6.64578
 20
-0.3115
 30
0.0
 10
-6.80226
 20
-0.5079
 30
0.0
 10
-7.00025
 20
-0.57383
 30
0.0
 10
-7.23971
 20
-0.50934
 30
0.0
  0
SPLINE
  5
80
330
1F
100
AcDbEntity
  8
layer 1
 62
     7
100
AcDbSpline
210
0.0
220
0.0
230
1.0
 70
    11
 71
     3
 72
    28
 73
    24
 74
     0
 42
0.0000000001
 43
0.0000000001
 40
0.0
 40
0.0
 40
0.0
 40
0.0
 40
0.1666666666666667
 40
0.1666666666666667
 40
0.1666666666666667
 40
0.1666666666666667
 40
0.3333333333333333
 40
0.3333333333333333
 40
0.3333333333333333
 40
0.3333333333333333
 40
0.5
 40
0.5
 40
0.5
 40
0.5
 40
0.6666666666666666
 40
0.6666666666666666
 40
0.6666666666666666
 40
0.6666666666666666
 40
0.8333333333333333
 40
0.8333333333333333
 40
0.8333333333333333
 40
0.8333333333333333
 40
1.0
 40
1.0
 40
1.0
 40
1.0
 10
-4.12756
 20
-5.63041
 30
0.0
 10
-4.10951
 20
-5.71225
 30
0.0
 10
-4.05511
 20
-5.77137
 30
0.0
 10
-3.98417
 20
-5.82018
 30
0.0
 10
-3.98417
 20
-5.82018
 30
0.0
 10
-4.16313
 20
-5.98251
 30
0.0
 10
-4.07453
 20
-6.13779
 30
0.0
 10
-3.80284
 20
-6.28827
 30
0.0
 10
-3.80284
 20
-6.28827
 30
0.0
 10
-3.98299
 20
-6.38973
 30
0.0
 10
-4.02936
 20
-6.56161
 30
0.0
 10
-3.98417
 20
-6.78167
 30
0.0
 10
-3.98417
 20
-6.78167
 30
0.0
 10
-4.35114
 20
-6.83188
 30
0.0
 10
-4.58916
 20
-7.08628
 30
0.0
 10
-4.67156
 20
-7.58713
 30
0.0
 10
-4.67156
 20
-7.58713
 30
0.0
 10
-4.67156
 20
-7.58713
 30
0.0
 10
-5.03422
 20
-7.55761
 30
0.0
 10
-5.03422
 20
-7.55761
 30
0.0
 10
-5.03422
 20
-7.55761
 30
0.0
 10
-4.90341
 20
-6.72361
 30
0.0
 10
-4.66172
 20
-6.01355
 30
0.0
 10
-4.12756
 20
-5.63041
 30
0.0
  0
SPLINE
  5
81
330
1F
100
AcDbEntity
  8
layer 1
 62
     7
100
AcDbSpline
210
0.0
220
0.0
230
1.0
 70
    11
 71
     3
 72
    36
 73
    32
 74
     0
 42
0.0000000001
 43
0.0000000001
 40
0.0
 40
0.0
 40
0.0
 40
0.0
 40
0.125
 40
0.125
 40
0.125
 40
0.125
 40
0.25
 40
0.25
 40
0.25
 40
0.25
 40
0.375
 40
0.375
 40
0.375
 40
0.375
 40
0.5
 40
0.5
 40
0.5
 40
0.5
 40
0.625
 40
0.625
 40
0.625
 40
0.625
 40
0.75
 40
0.75
 40
0.75
 40
0.75
 40
0.875
 40
0.875
 40
0.875
 40
0.875
 40
1.0
 40
1.0
 40
1.0
 40
1.0
 10
-3.99261
 20
-5.68945
 30
0.0
 10
-3.73754
 20
-5.57452
 30
0.0
 10
-3.50617
 20
-5.4325
 30
0.0
 10
-3.30944
 20
-5.25087
 30
0.0
 10
-3.30944
 20
-5.25087
 30
0.0
 10
-3.23942
 20
-5.50141
 30
0.0
 10
-3.06957
 20
-5.60456
 30
0.0
 10
-2.82448
 20
-5.59667
 30
0.0
 10
-2.82448
 20
-5.59667
 30
0.0
 10
-3.02581
 20
-5.66524
 30
0.0
 10
-3.17424
 20
-5.7867
 30
0.0
 10
-3.25884
 20
-5.97199
 30
0.0
 10
-3.25884
 20
-5.97199
 30
0.0
 10
-3.30933
 20
-5.96253
 30
0.0
 10
-3.3522
 20
-5.88438
 30
0.0
 10
-3.41487
 20
-5.98464
 30
0.0
 10
-3.41487
 20
-5.98464
 30
0.0
 10
-3.41487
 20
-5.98464
 30
0.0
 10
-3.50343
 20
-5.97621
 30
0.0
 10
-3.50343
 20
-5.97621
 30
0.0
 10
-3.50343
 20
-5.97621
 30
0.0
 10
-3.54488
 20
-5.8534
 30
0.0
 10
-3.62801
 20
-5.75406
 30
0.0
 10
-3.80284
 20
-5.70631
 30
0.0
 10
-3.80284
 20
-5.70631
 30
0.0
 10
-3.87279
 20
-5.69987
 30
0.0
 10
-3.91356
 20
-5.74344
 30
0.0
 10
-3.92514
 20
-5.83704
 30
0.0
 10
-3.92514
 20
-5.83704
 30
0.0
 10
-3.92514
 20
-5.83704
 30
0.0
 10
-3.99261
 20
-5.68945
 30
0.0
 10
-3.99261
 20
-5.68945
 30
0.0
  0
SPLINE
  5
82
330
1F
100
AcDbEntity
  8
layer 1
 62
     7
100
AcDbSpline
210
0.0
220
0.0
230
1.0
 70
    11
 71
     3
 72
    24
 73
    20
 74
     0
 42
0.0000000001
 43
0.0000000001
 40
0.0
 40
0.0
 40
0.0
 40
0.0
 40
0.2
 40
0.2
 40
0.2
 40
0.2
 40
0.4
 40
0.4
 40
0.4
 40
0.4
 40
0.6
 40
0.6
 40
0.6
 40
0.6
 40
0.7999999999999999
 40
0.7999999999999999
 40
0.7999999999999999
 40
0.7999999999999999
 40
1.0
 40
1.0
 40
1.0
 40
1.0
 10
-2.2847
 20
-5.70631
 30
0.0
 10
-2.66703
 20
-5.62373
 30
0.0
 10
-2.96926
 20
-5.74812
 30
0.0
 10
-3.21667
 20
-6.01416
 30
0.0
 10
-3.21667
 20
-6.01416
 30
0.0
 10
-3.10136
 20
-6.06263
 30
0.0
 10
-3.09434
 20
-6.16525
 30
0.0
 10
-3.13654
 20
-6.29249
 30
0.0
 10
-3.13654
 20
-6.29249
 30
0.0
 10
-2.9313
 20
-6.33324
 30
0.0
 10
-2.84977
 20
-6.47522
 30
0.0
 10
-2.89195
 20
-6.71841
 30
0.0
 10
-2.89195
 20
-6.71841
 30
0.0
 10
-2.89195
 20
-6.71841
 30
0.0
 10
-2.8287
 20
-6.79432
 30
0.0
 10
-2.8287
 20
-6.79432
 30
0.0
 10
-2.8287
 20
-6.79432
 30
0.0
 10
-2.67819
 20
-6.38762
 30
0.0
 10
-2.51409
 20
-6.00029
 30
0.0
 10
-2.2847
 20
-5.70631
 30
0.0
  0
SPLINE
  5
83
330
1F
100
AcDbEntity
  8
layer 1
 62
     7
100
AcDbSpline
210
0.0
220
0.0
230
1.0
 70
    11
 71
     3
 72
    32
 73
    28
 74
     0
 42
0.0000000001
 43
0.0000000001
 40
0.0
 40
0.0
 40
0.0
 40
0.0
 40
0.1428571428571428
 40
0.1428571428571428
 40
0.1428571428571428
 40
0.1428571428571428
 40
0.2857142857142857
 40
0.2857142857142857
 40
0.2857142857142857
 40
0.2857142857142857
 40
0.4285714285714285
 40
0.4285714285714285
 40
0.4285714285714285
 40
0.4285714285714285
 40
0.5714285714285714
 40
0.5714285714285714
 40
0.5714285714285714
 40
0.5714285714285714
 40
0.7142857142857143
 40
0.7142857142857143
 40
0.7142857142857143
 40
0.7142857142857143
 40
0.8571428571428572
 40
0.8571428571428572
 40
0.8571428571428572
 40
0.8571428571428572
 40
1.0
 40
1.0
 40
1.0
 40
1.0
 10
-1.5931
 20
-5.52076
 30
0.0
 10
-2.00069
 20
-5.85492
 30
0.0
 10
-2.26027
 20
-6.28486
 30
0.0
 10
-2.44916
 20
-6.76058
 30
0.0
 10
-2.44916
 20
-6.76058
 30
0.0
 10
-2.22141
 20
-6.70729
 30
0.0
 10
-2.01196
 20
-6.70628
 30
0.0
 10
-1.82925
 20
-6.78167
 30
0.0
 10
-1.82925
 20
-6.78167
 30
0.0
 10
-1.88136
 20
-6.66215
 30
0.0
 10
-1.86713
 20
-6.55872
 30
0.0
 10
-1.70696
 20
-6.49069
 30
0.0
 10
-1.70696
 20
-6.49069
 30
0.0
 10
-1.76482
 20
-6.24031
 30
0.0
 10
-1.694
 20
-6.07842
 30
0.0
 10
-1.34007
 20
-6.11115
 30
0.0
 10
-1.34007
 20
-6.11115
 30
0.0
 10
-1.07744
 20
-6.31503
 30
0.0
 10
-0.8726
 20
-6.54896
 30
0.0
 10
-0.77077
 20
-6.83649
 30
0.0
 10
-0.77077
 20
-6.83649
 30
0.0
 10
-0.77077
 20
-6.83649
 30
0.0
 10
-0.7286
 20
-6.8154
 30
0.0
 10
-0.7286
 20
-6.8154
 30
0.0
 10
-0.7286
 20
-6.8154
 30
0.0
 10
-0.73939
 20
-6.25721
 30
0.0
 10
-0.99057
 20
-5.80878
 30
0.0
 10
-1.5931
 20
-5.52076
 30
0.0
  0
SPLINE
  5
84
330
1F
100
AcDbEntity
  8
layer 1
 62
     7
100
AcDbSpline
210
0.0
220
0.0
230
1.0
 70
    11
 71
     3
 72
    56
 73
    52
 74
     0
 42
0.0000000001
 43
0.0000000001
 40
0.0
 40
0.0
 40
0.0
 40
0.0
 40
0.0769230769230769
 40
0.0769230769230769
 40
0.0769230769230769
 40
0.0769230769230769
 40
0.1538461538461539
 40
0.1538461538461539
 40
0.1538461538461539
 40
0.1538461538461539
 40
0.2307692307692308
 40
0.2307692307692308
 40
0.2307692307692308
 40
0.2307692307692308
 40
0.3076923076923077
 40
0.3076923076923077
 40
0.3076923076923077
 40
0.3076923076923077
 40
0.3846153846153846
 40
0.3846153846153846
 40
0.3846153846153846
 40
0.3846153846153846
 40
0.4615384615384616
 40
0.4615384615384616
 40
0.4615384615384616
 40
0.4615384615384616
 40
0.5384615384615384
 40
0.5384615384615384
 40
0.5384615384615384
 40
0.5384615384615384
 40
0.6153846153846153
 40
0.6153846153846153
 40
0.6153846153846153
 40
0.6153846153846153
 40
0.6923076923076922
 40
0.6923076923076922
 40
0.6923076923076922
 40
0.6923076923076922
 40
0.769230769230769
 40
0.769230769230769
 40
0.769230769230769
 40
0.769230769230769
 40
0.8461538461538459
 40
0.8461538461538459
 40
0.8461538461538459
 40
0.8461538461538459
 40
0.9230769230769228
 40
0.9230769230769228
 40
0.9230769230769228
 40
0.9230769230769228
 40
1.0
 40
1.0
 40
1.0
 40
1.0
 10
-0.89728
 20
-5.93404
 30
0.0
 10
-0.84109
 20
-6.02403
 30
0.0
 10
-0.77081
 20
-6.09392
 30
0.0
 10
-0.66956
 20
-6.11959
 30
0.0
 10
-0.66956
 20
-6.11959
 30
0.0
 10
-0.66956
 20
-6.11959
 30
0.0
 10
-0.65477
 20
-6.17992
 30
0.0
 10
-0.65477
 20
-6.17992
 30
0.0
 10
-0.65477
 20
-6.17992
 30
0.0
 10
-0.65477
 20
-6.17992
 30
0.0
 10
-0.60431
 20
-6.17151
 30
0.0
 10
-0.60431
 20
-6.17151
 30
0.0
 10
-0.60431
 20
-6.17151
 30
0.0
 10
-0.60431
 20
-6.17151
 30
0.0
 10
-0.5959
 20
-6.21188
 30
0.0
 10
-0.5959
 20
-6.21188
 30
0.0
 10
-0.5959
 20
-6.21188
 30
0.0
 10
-0.5959
 20
-6.21188
 30
0.0
 10
-0.50171
 20
-6.20515
 30
0.0
 10
-0.50171
 20
-6.20515
 30
0.0
 10
-0.50171
 20
-6.20515
 30
0.0
 10
-0.50171
 20
-6.20515
 30
0.0
 10
-0.48994
 20
-6.26738
 30
0.0
 10
-0.48994
 20
-6.26738
 30
0.0
 10
-0.48994
 20
-6.26738
 30
0.0
 10
-0.48994
 20
-6.26738
 30
0.0
 10
-0.40921
 20
-6.25224
 30
0.0
 10
-0.40921
 20
-6.25224
 30
0.0
 10
-0.40921
 20
-6.25224
 30
0.0
 10
-0.40921
 20
-6.25224
 30
0.0
 10
-0.39575
 20
-6.29934
 30
0.0
 10
-0.39575
 20
-6.29934
 30
0.0
 10
-0.39575
 20
-6.29934
 30
0.0
 10
-0.11657
 20
-6.33468
 30
0.0
 10
0.16629
 20
-6.32968
 30
0.0
 10
0.45193
 20
-6.29429
 30
0.0
 10
0.45193
 20
-6.29429
 30
0.0
 10
0.58099
 20
-6.6033
 30
0.0
 10
0.64573
 20
-6.94447
 30
0.0
 10
0.64617
 20
-7.31781
 30
0.0
 10
0.64617
 20
-7.31781
 30
0.0
 10
0.64617
 20
-7.31781
 30
0.0
 10
0.30847
 20
-7.1562
 30
0.0
 10
0.30847
 20
-7.1562
 30
0.0
 10
0.30847
 20
-7.1562
 30
0.0
 10
0.25396
 20
-6.64609
 30
0.0
 10
-0.24058
 20
-6.76904
 30
0.0
 10
-0.67566
 20
-6.80644
 30
0.0
 10
-0.67566
 20
-6.80644
 30
0.0
 10
-0.65728
 20
-6.51222
 30
0.0
 10
-0.742
 20
-6.22181
 30
0.0
 10
-0.89728
 20
-5.93404
 30
0.0
  0
SPLINE
  5
85
330
1F
100
AcDbEntity
  8
layer 1
 62
     7
100
AcDbSpline
210
0.0
220
0.0
230
1.0
 70
    11
 71
     3
 72
    48
 73
    44
 74
     0
 42
0.0000000001
 43
0.0000000001
 40
0.0
 40
0.0
 40
0.0
 40
0.0
 40
0.0909090909090909
 40
0.0909090909090909
 40
0.0909090909090909
 40
0.0909090909090909
 40
0.1818181818181818
 40
0.1818181818181818
 40
0.1818181818181818
 40
0.1818181818181818
 40
0.2727272727272727
 40
0.2727272727272727
 40
0.2727272727272727
 40
0.2727272727272727
 40
0.3636363636363636
 40
0.3636363636363636
 40
0.3636363636363636
 40
0.3636363636363636
 40
0.4545454545454545
 40
0.4545454545454545
 40
0.4545454545454545
 40
0.4545454545454545
 40
0.5454545454545454
 40
0.5454545454545454
 40
0.5454545454545454
 40
0.5454545454545454
 40
0.6363636363636364
 40
0.6363636363636364
 40
0.6363636363636364
 40
0.6363636363636364
 40
0.7272727272727273
 40
0.7272727272727273
 40
0.7272727272727273
 40
0.7272727272727273
 40
0.8181818181818182
 40
0.8181818181818182
 40
0.8181818181818182
 40
0.8181818181818182
 40
0.9090909090909092
 40
0.9090909090909092
 40
0.9090909090909092
 40
0.9090909090909092
 40
1.0
 40
1.0
 40
1.0
 40
1.0
 10
-2.46766
 20
-6.88368
 30
0.0
 10
-2.25258
 20
-6.8408
 30
0.0
 10
-2.03751
 20
-6.83232
 30
0.0
 10
-1.82242
 20
-6.83628
 30
0.0
 10
-1.82242
 20
-6.83628
 30
0.0
 10
-1.71532
 20
-7.01009
 30
0.0
 10
-1.54501
 20
-7.07857
 30
0.0
 10
-1.3115
 20
-7.0417
 30
0.0
 10
-1.3115
 20
-7.0417
 30
0.0
 10
-1.59013
 20
-7.25093
 30
0.0
 10
-1.73558
 20
-7.45867
 30
0.0
 10
-1.58803
 20
-7.66323
 30
0.0
 10
-1.58803
 20
-7.66323
 30
0.0
 10
-1.47245
 20
-7.7678
 30
0.0
 10
-1.35483
 20
-7.82928
 30
0.0
 10
-1.22986
 20
-7.73697
 30
0.0
 10
-1.22986
 20
-7.73697
 30
0.0
 10
-1.20747
 20
-7.81335
 30
0.0
 10
-1.17178
 20
-7.85548
 30
0.0
 10
-1.11661
 20
-7.84758
 30
0.0
 10
-1.11661
 20
-7.84758
 30
0.0
 10
-1.21213
 20
-8.11614
 30
0.0
 10
-1.60494
 20
-8.22731
 30
0.0
 10
-2.05944
 20
-8.30583
 30
0.0
 10
-2.05944
 20
-8.30583
 30
0.0
 10
-2.07856
 20
-8.32652
 30
0.0
 10
-2.06013
 20
-8.34145
 30
0.0
 10
-2.00414
 20
-8.3506
 30
0.0
 10
-2.00414
 20
-8.3506
 30
0.0
 10
-1.63318
 20
-8.42896
 30
0.0
 10
-1.33482
 20
-8.38901
 30
0.0
 10
-1.15348
 20
-8.15835
 30
0.0
 10
-1.15348
 20
-8.15835
 30
0.0
 10
-1.1875
 20
-8.33392
 30
0.0
 10
-1.1862
 20
-8.50949
 30
0.0
 10
-1.12188
 20
-8.68507
 30
0.0
 10
-1.12188
 20
-8.68507
 30
0.0
 10
-1.29767
 20
-8.78559
 30
0.0
 10
-1.43594
 20
-8.92779
 30
0.0
 10
-1.54852
 20
-9.09855
 30
0.0
 10
-1.54852
 20
-9.09855
 30
0.0
 10
-2.29514
 20
-8.43556
 30
0.0
 10
-2.72728
 20
-7.71877
 30
0.0
 10
-2.46766
 20
-6.88368
 30
0.0
  0
SPLINE
  5
86
330
1F
100
AcDbEntity
  8
layer 1
 62
     7
100
AcDbSpline
210
0.0
220
0.0
230
1.0
 70
    11
 71
     3
 72
    40
 73
    36
 74
     0
 42
0.0000000001
 43
0.0000000001
 40
0.0
 40
0.0
 40
0.0
 40
0.0
 40
0.1111111111111111
 40
0.1111111111111111
 40
0.1111111111111111
 40
0.1111111111111111
 40
0.2222222222222222
 40
0.2222222222222222
 40
0.2222222222222222
 40
0.2222222222222222
 40
0.3333333333333333
 40
0.3333333333333333
 40
0.3333333333333333
 40
0.3333333333333333
 40
0.4444444444444444
 40
0.4444444444444444
 40
0.4444444444444444
 40
0.4444444444444444
 40
0.5555555555555556
 40
0.5555555555555556
 40
0.5555555555555556
 40
0.5555555555555556
 40
0.6666666666666667
 40
0.6666666666666667
 40
0.6666666666666667
 40
0.6666666666666667
 40
0.7777777777777779
 40
0.7777777777777779
 40
0.7777777777777779
 40
0.7777777777777779
 40
0.8888888888888891
 40
0.8888888888888891
 40
0.8888888888888891
 40
0.8888888888888891
 40
1.0
 40
1.0
 40
1.0
 40
1.0
 10
-0.69013
 20
-7.2778
 30
0.0
 10
-0.60534
 20
-7.67063
 30
0.0
 10
-0.70874
 20
-7.87143
 30
0.0
 10
-0.96809
 20
-7.91315
 30
0.0
 10
-0.96809
 20
-7.91315
 30
0.0
 10
-0.96603
 20
-8.06151
 30
0.0
 10
-0.86739
 20
-8.23884
 30
0.0
 10
-0.72487
 20
-8.42937
 30
0.0
 10
-0.72487
 20
-8.42937
 30
0.0
 10
-0.4939
 20
-8.61178
 30
0.0
 10
-0.41139
 20
-8.88867
 30
0.0
 10
-0.41216
 20
-9.21859
 30
0.0
 10
-0.41216
 20
-9.21859
 30
0.0
 10
-0.41216
 20
-9.21859
 30
0.0
 10
-0.04485
 20
-9.17392
 30
0.0
 10
-0.04485
 20
-9.17392
 30
0.0
 10
-0.04485
 20
-9.17392
 30
0.0
 10
0.34068
 20
-8.56196
 30
0.0
 10
0.61866
 20
-7.98292
 30
0.0
 10
0.65999
 20
-7.47634
 30
0.0
 10
0.65999
 20
-7.47634
 30
0.0
 10
0.65999
 20
-7.47634
 30
0.0
 10
0.30261
 20
-7.24801
 30
0.0
 10
0.30261
 20
-7.24801
 30
0.0
 10
0.30261
 20
-7.24801
 30
0.0
 10
0.27629
 20
-7.33542
 30
0.0
 10
0.21838
 20
-7.37017
 30
0.0
 10
0.12888
 20
-7.35225
 30
0.0
 10
0.12888
 20
-7.35225
 30
0.0
 10
0.25131
 20
-7.5895
 30
0.0
 10
0.16109
 20
-7.70583
 30
0.0
 10
-0.07463
 20
-7.73942
 30
0.0
 10
-0.07463
 20
-7.73942
 30
0.0
 10
-0.29234
 20
-7.79429
 30
0.0
 10
-0.49355
 20
-7.57449
 30
0.0
 10
-0.69013
 20
-7.2778
 30
0.0
  0
SPLINE
  5
87
330
1F
100
AcDbEntity
  8
layer 1
 62
     7
100
AcDbSpline
210
0.0
220
0.0
230
1.0
 70
    11
 71
     3
 72
    32
 73
    28
 74
     0
 42
0.0000000001
 43
0.0000000001
 40
0.0
 40
0.0
 40
0.0
 40
0.0
 40
0.1428571428571428
 40
0.1428571428571428
 40
0.1428571428571428
 40
0.1428571428571428
 40
0.2857142857142857
 40
0.2857142857142857
 40
0.2857142857142857
 40
0.2857142857142857
 40
0.4285714285714285
 40
0.4285714285714285
 40
0.4285714285714285
 40
0.4285714285714285
 40
0.5714285714285714
 40
0.5714285714285714
 40
0.5714285714285714
 40
0.5714285714285714
 40
0.7142857142857143
 40
0.7142857142857143
 40
0.7142857142857143
 40
0.7142857142857143
 40
0.8571428571428572
 40
0.8571428571428572
 40
0.8571428571428572
 40
0.8571428571428572
 40
1.0
 40
1.0
 40
1.0
 40
1.0
 10
1.32075
 20
1.69459
 30
0.0
 10
1.75945
 20
1.6911
 30
0.0
 10
2.19031
 20
1.74234
 30
0.0
 10
2.60398
 20
1.91409
 30
0.0
 10
2.60398
 20
1.91409
 30
0.0
 10
2.34226
 20
1.25912
 30
0.0
 10
2.18841
 20
0.54482
 30
0.0
 10
2.22689
 20
-0.27529
 30
0.0
 10
2.22689
 20
-0.27529
 30
0.0
 10
2.22689
 20
-0.27529
 30
0.0
 10
1.46145
 20
-0.09519
 30
0.0
 10
1.46145
 20
-0.09519
 30
0.0
 10
1.46145
 20
-0.09519
 30
0.0
 10
1.43238
 20
0.28519
 30
0.0
 10
1.13597
 20
0.42497
 30
0.0
 10
0.65662
 20
0.4001
 30
0.0
 10
0.65662
 20
0.4001
 30
0.0
 10
0.65662
 20
0.4001
 30
0.0
 10
0.65099
 20
1.3175
 30
0.0
 10
0.65099
 20
1.3175
 30
0.0
 10
0.65099
 20
1.3175
 30
0.0
 10
0.65099
 20
1.3175
 30
0.0
 10
1.51211
 20
1.4976
 30
0.0
 10
1.51211
 20
1.4976
 30
0.0
 10
1.51211
 20
1.4976
 30
0.0
 10
1.51211
 20
1.4976
 30
0.0
 10
1.32075
 20
1.69459
 30
0.0
 10
1.32075
 20
1.69459
 30
0.0
  0
SPLINE
  5
88
330
1F
100
AcDbEntity
  8
layer 1
 62
     7
100
AcDbSpline
210
0.0
220
0.0
230
1.0
 70
    11
 71
     3
 72
    24
 73
    20
 74
     0
 42
0.0000000001
 43
0.0000000001
 40
0.0
 40
0.0
 40
0.0
 40
0.0
 40
0.2
 40
0.2
 40
0.2
 40
0.2
 40
0.4
 40
0.4
 40
0.4
 40
0.4
 40
0.6
 40
0.6
 40
0.6
 40
0.6
 40
0.7999999999999999
 40
0.7999999999999999
 40
0.7999999999999999
 40
0.7999999999999999
 40
1.0
 40
1.0
 40
1.0
 40
1.0
 10
3.605
 20
-4.0663
 30
0.0
 10
3.62108
 20
-4.48573
 30
0.0
 10
3.53534
 20
-4.69611
 30
0.0
 10
3.34771
 20
-4.69747
 30
0.0
 10
3.34771
 20
-4.69747
 30
0.0
 10
3.69815
 20
-4.76781
 30
0.0
 10
3.85761
 20
-4.95273
 30
0.0
 10
3.88642
 20
-5.21607
 30
0.0
 10
3.88642
 20
-5.21607
 30
0.0
 10
4.17971
 20
-5.17183
 30
0.0
 10
4.46815
 20
-5.20534
 30
0.0
 10
4.75075
 20
-5.33265
 30
0.0
 10
4.75075
 20
-5.33265
 30
0.0
 10
4.80366
 20
-5.18856
 30
0.0
 10
4.90819
 20
-5.12559
 30
0.0
 10
5.03618
 20
-5.09948
 30
0.0
 10
5.03618
 20
-5.09948
 30
0.0
 10
4.6422
 20
-4.67199
 30
0.0
 10
4.17048
 20
-4.32223
 30
0.0
 10
3.605
 20
-4.0663
 30
0.0
  0
SPLINE
  5
89
330
1F
100
AcDbEntity
  8
layer 1
 62
     7
100
AcDbSpline
210
0.0
220
0.0
230
1.0
 70
    11
 71
     3
 72
    20
 73
    16
 74
     0
 42
0.0000000001
 43
0.0000000001
 40
0.0
 40
0.0
 40
0.0
 40
0.0
 40
0.25
 40
0.25
 40
0.25
 40
0.25
 40
0.5
 40
0.5
 40
0.5
 40
0.5
 40
0.75
 40
0.75
 40
0.75
 40
0.75
 40
1.0
 40
1.0
 40
1.0
 40
1.0
 10
1.49844
 20
-4.91054
 30
0.0
 10
1.82105
 20
-4.71991
 30
0.0
 10
2.213
 20
-4.62946
 30
0.0
 10
2.72861
 20
-4.71757
 30
0.0
 10
2.72861
 20
-4.71757
 30
0.0
 10
2.67096
 20
-4.82009
 30
0.0
 10
2.71652
 20
-4.91522
 30
0.0
 10
2.80901
 20
-5.00702
 30
0.0
 10
2.80901
 20
-5.00702
 30
0.0
 10
2.58183
 20
-5.04115
 30
0.0
 10
2.52422
 20
-5.27433
 30
0.0
 10
2.54368
 20
-5.59798
 30
0.0
 10
2.54368
 20
-5.59798
 30
0.0
 10
2.27566
 20
-5.29915
 30
0.0
 10
1.92724
 20
-5.07
 30
0.0
 10
1.49844
 20
-4.91054
 30
0.0
  0
SPLINE
  5
8A
330
1F
100
AcDbEntity
  8
layer 1
 62
     7
100
AcDbSpline
210
0.0
220
0.0
230
1.0
 70
    11
 71
     3
 72
    24
 73
    20
 74
     0
 42
0.0000000001
 43
0.0000000001
 40
0.0
 40
0.0
 40
0.0
 40
0.0
 40
0.2
 40
0.2
 40
0.2
 40
0.2
 40
0.4
 40
0.4
 40
0.4
 40
0.4
 40
0.6
 40
0.6
 40
0.6
 40
0.6
 40
0.7999999999999999
 40
0.7999999999999999
 40
0.7999999999999999
 40
0.7999999999999999
 40
1.0
 40
1.0
 40
1.0
 40
1.0
 10
0.14364
 20
-4.36379
 30
0.0
 10
0.22141
 20
-4.41202
 30
0.0
 10
0.18119
 20
-4.51923
 30
0.0
 10
0.08736
 20
-4.65325
 30
0.0
 10
0.08736
 20
-4.65325
 30
0.0
 10
0.53125
 20
-4.62661
 30
0.0
 10
0.96341
 20
-4.68791
 30
0.0
 10
1.38587
 20
-4.82209
 30
0.0
 10
1.38587
 20
-4.82209
 30
0.0
 10
1.65153
 20
-4.68171
 30
0.0
 10
1.80898
 20
-4.48405
 30
0.0
 10
1.89242
 20
-4.24721
 30
0.0
 10
1.89242
 20
-4.24721
 30
0.0
 10
1.99677
 20
-4.04033
 30
0.0
 10
2.15388
 20
-3.89797
 30
0.0
 10
2.35473
 20
-3.80901
 30
0.0
 10
2.35473
 20
-3.80901
 30
0.0
 10
1.70692
 20
-3.83462
 30
0.0
 10
0.94171
 20
-4.06986
 30
0.0
 10
0.14364
 20
-4.36379
 30
0.0
  0
SPLINE
  5
8B
330
1F
100
AcDbEntity
  8
layer 1
 62
     7
100
AcDbSpline
210
0.0
220
0.0
230
1.0
 70
    11
 71
     3
 72
    92
 73
    88
 74
     0
 42
0.0000000001
 43
0.0000000001
 40
0.0
 40
0.0
 40
0.0
 40
0.0
 40
0.0454545454545455
 40
0.0454545454545455
 40
0.0454545454545455
 40
0.0454545454545455
 40
0.0909090909090909
 40
0.0909090909090909
 40
0.0909090909090909
 40
0.0909090909090909
 40
0.1363636363636364
 40
0.1363636363636364
 40
0.1363636363636364
 40
0.1363636363636364
 40
0.1818181818181818
 40
0.1818181818181818
 40
0.1818181818181818
 40
0.1818181818181818
 40
0.2272727272727272
 40
0.2272727272727272
 40
0.2272727272727272
 40
0.2272727272727272
 40
0.2727272727272727
 40
0.2727272727272727
 40
0.2727272727272727
 40
0.2727272727272727
 40
0.3181818181818182
 40
0.3181818181818182
 40
0.3181818181818182
 40
0.3181818181818182
 40
0.3636363636363636
 40
0.3636363636363636
 40
0.3636363636363636
 40
0.3636363636363636
 40
0.4090909090909091
 40
0.4090909090909091
 40
0.4090909090909091
 40
0.4090909090909091
 40
0.4545454545454546
 40
0.4545454545454546
 40
0.4545454545454546
 40
0.4545454545454546
 40
0.5
 40
0.5
 40
0.5
 40
0.5
 40
0.5454545454545454
 40
0.5454545454545454
 40
0.5454545454545454
 40
0.5454545454545454
 40
0.5909090909090908
 40
0.5909090909090908
 40
0.5909090909090908
 40
0.5909090909090908
 40
0.6363636363636362
 40
0.6363636363636362
 40
0.6363636363636362
 40
0.6363636363636362
 40
0.6818181818181817
 40
0.6818181818181817
 40
0.6818181818181817
 40
0.6818181818181817
 40
0.7272727272727271
 40
0.7272727272727271
 40
0.7272727272727271
 40
0.7272727272727271
 40
0.7727272727272725
 40
0.7727272727272725
 40
0.7727272727272725
 40
0.7727272727272725
 40
0.8181818181818179
 40
0.8181818181818179
 40
0.8181818181818179
 40
0.8181818181818179
 40
0.8636363636363633
 40
0.8636363636363633
 40
0.8636363636363633
 40
0.8636363636363633
 40
0.9090909090909087
 40
0.9090909090909087
 40
0.9090909090909087
 40
0.9090909090909087
 40
0.9545454545454541
 40
0.9545454545454541
 40
0.9545454545454541
 40
0.9545454545454541
 40
1.0
 40
1.0
 40
1.0
 40
1.0
 10
-0.03726
 20
-4.88239
 30
0.0
 10
-0.04593
 20
-4.99832
 30
0.0
 10
-0.11561
 20
-5.07202
 30
0.0
 10
-0.24631
 20
-5.1035
 30
0.0
 10
-0.24631
 20
-5.1035
 30
0.0
 10
-0.00819
 20
-5.26574
 30
0.0
 10
0.2549
 20
-5.4079
 30
0.0
 10
0.39289
 20
-5.65025
 30
0.0
 10
0.39289
 20
-5.65025
 30
0.0
 10
0.59549
 20
-5.6108
 30
0.0
 10
0.78879
 20
-5.52015
 30
0.0
 10
0.97984
 20
-5.41708
 30
0.0
 10
0.97984
 20
-5.41708
 30
0.0
 10
1.12005
 20
-5.34529
 30
0.0
 10
1.26397
 20
-5.31049
 30
0.0
 10
1.41
 20
-5.29647
 30
0.0
 10
1.41
 20
-5.29647
 30
0.0
 10
1.41
 20
-5.29647
 30
0.0
 10
1.34841
 20
-5.23403
 30
0.0
 10
1.34841
 20
-5.23403
 30
0.0
 10
1.34841
 20
-5.23403
 30
0.0
 10
1.34841
 20
-5.23403
 30
0.0
 10
1.2217
 20
-5.24107
 30
0.0
 10
1.2217
 20
-5.24107
 30
0.0
 10
1.2217
 20
-5.24107
 30
0.0
 10
1.2217
 20
-5.24107
 30
0.0
 10
1.21818
 20
-5.18827
 30
0.0
 10
1.21818
 20
-5.18827
 30
0.0
 10
1.21818
 20
-5.18827
 30
0.0
 10
1.21818
 20
-5.18827
 30
0.0
 10
1.13018
 20
-5.19531
 30
0.0
 10
1.13018
 20
-5.19531
 30
0.0
 10
1.13018
 20
-5.19531
 30
0.0
 10
1.13018
 20
-5.19531
 30
0.0
 10
1.13018
 20
-5.14252
 30
0.0
 10
1.13018
 20
-5.14252
 30
0.0
 10
1.13018
 20
-5.14252
 30
0.0
 10
1.13018
 20
-5.14252
 30
0.0
 10
1.00348
 20
-5.15659
 30
0.0
 10
1.00348
 20
-5.15659
 30
0.0
 10
1.00348
 20
-5.15659
 30
0.0
 10
1.00348
 20
-5.15659
 30
0.0
 10
0.97532
 20
-5.09324
 30
0.0
 10
0.97532
 20
-5.09324
 30
0.0
 10
0.97532
 20
-5.09324
 30
0.0
 10
0.97532
 20
-5.09324
 30
0.0
 10
0.87677
 20
-5.10732
 30
0.0
 10
0.87677
 20
-5.10732
 30
0.0
 10
0.87677
 20
-5.10732
 30
0.0
 10
0.87677
 20
-5.10732
 30
0.0
 10
0.85565
 20
-5.04044
 30
0.0
 10
0.85565
 20
-5.04044
 30
0.0
 10
0.85565
 20
-5.04044
 30
0.0
 10
0.85565
 20
-5.04044
 30
0.0
 10
0.75358
 20
-5.051
 30
0.0
 10
0.75358
 20
-5.051
 30
0.0
 10
0.75358
 20
-5.051
 30
0.0
 10
0.75358
 20
-5.051
 30
0.0
 10
0.72894
 20
-5.00877
 30
0.0
 10
0.72894
 20
-5.00877
 30
0.0
 10
0.72894
 20
-5.00877
 30
0.0
 10
0.72894
 20
-5.00877
 30
0.0
 10
0.64095
 20
-5.01933
 30
0.0
 10
0.64095
 20
-5.01933
 30
0.0
 10
0.64095
 20
-5.01933
 30
0.0
 10
0.64095
 20
-5.01933
 30
0.0
 10
0.59167
 20
-4.97709
 30
0.0
 10
0.59167
 20
-4.97709
 30
0.0
 10
0.59167
 20
-4.97709
 30
0.0
 10
0.59167
 20
-4.97709
 30
0.0
 10
0.42273
 20
-4.95597
 30
0.0
 10
0.42273
 20
-4.95597
 30
0.0
 10
0.42273
 20
-4.95597
 30
0.0
 10
0.42273
 20
-4.95597
 30
0.0
 10
0.41569
 20
-4.9067
 30
0.0
 10
0.41569
 20
-4.9067
 30
0.0
 10
0.41569
 20
-4.9067
 30
0.0
 10
0.41569
 20
-4.9067
 30
0.0
 10
0.14819
 20
-4.93133
 30
0.0
 10
0.14819
 20
-4.93133
 30
0.0
 10
0.14819
 20
-4.93133
 30
0.0
 10
0.14819
 20
-4.93133
 30
0.0
 10
0.12355
 20
-4.87502
 30
0.0
 10
0.12355
 20
-4.87502
 30
0.0
 10
0.12355
 20
-4.87502
 30
0.0
 10
0.12355
 20
-4.87502
 30
0.0
 10
-0.03726
 20
-4.88239
 30
0.0
 10
-0.03726
 20
-4.88239
 30
0.0
  0
SPLINE
  5
8C
330
1F
100
AcDbEntity
  8
layer 1
 62
     7
100
AcDbSpline
210
0.0
220
0.0
230
1.0
 70
    11
 71
     3
 72
    64
 73
    60
 74
     0
 42
0.0000000001
 43
0.0000000001
 40
0.0
 40
0.0
 40
0.0
 40
0.0
 40
0.0666666666666667
 40
0.0666666666666667
 40
0.0666666666666667
 40
0.0666666666666667
 40
0.1333333333333333
 40
0.1333333333333333
 40
0.1333333333333333
 40
0.1333333333333333
 40
0.2
 40
0.2
 40
0.2
 40
0.2
 40
0.2666666666666667
 40
0.2666666666666667
 40
0.2666666666666667
 40
0.2666666666666667
 40
0.3333333333333333
 40
0.3333333333333333
 40
0.3333333333333333
 40
0.3333333333333333
 40
0.4
 40
0.4
 40
0.4
 40
0.4
 40
0.4666666666666666
 40
0.4666666666666666
 40
0.4666666666666666
 40
0.4666666666666666
 40
0.5333333333333333
 40
0.5333333333333333
 40
0.5333333333333333
 40
0.5333333333333333
 40
0.6
 40
0.6
 40
0.6
 40
0.6
 40
0.6666666666666666
 40
0.6666666666666666
 40
0.6666666666666666
 40
0.6666666666666666
 40
0.7333333333333333
 40
0.7333333333333333
 40
0.7333333333333333
 40
0.7333333333333333
 40
0.7999999999999999
 40
0.7999999999999999
 40
0.7999999999999999
 40
0.7999999999999999
 40
0.8666666666666666
 40
0.8666666666666666
 40
0.8666666666666666
 40
0.8666666666666666
 40
0.9333333333333332
 40
0.9333333333333332
 40
0.9333333333333332
 40
0.9333333333333332
 40
1.0
 40
1.0
 40
1.0
 40
1.0
 10
0.44114
 20
-5.73869
 30
0.0
 10
0.44114
 20
-5.73869
 30
0.0
 10
0.57782
 20
-5.73065
 30
0.0
 10
0.57782
 20
-5.73065
 30
0.0
 10
0.57782
 20
-5.73065
 30
0.0
 10
0.57782
 20
-5.73065
 30
0.0
 10
0.59378
 20
-5.69731
 30
0.0
 10
0.59378
 20
-5.69731
 30
0.0
 10
0.59378
 20
-5.69731
 30
0.0
 10
0.59378
 20
-5.69731
 30
0.0
 10
0.84972
 20
-5.69129
 30
0.0
 10
0.84972
 20
-5.69129
 30
0.0
 10
0.84972
 20
-5.69129
 30
0.0
 10
0.84972
 20
-5.69129
 30
0.0
 10
0.85574
 20
-5.72742
 30
0.0
 10
0.85574
 20
-5.72742
 30
0.0
 10
0.85574
 20
-5.72742
 30
0.0
 10
0.85574
 20
-5.72742
 30
0.0
 10
1.01532
 20
-5.72742
 30
0.0
 10
1.01532
 20
-5.72742
 30
0.0
 10
1.01532
 20
-5.72742
 30
0.0
 10
1.01532
 20
-5.72742
 30
0.0
 10
1.03038
 20
-5.7756
 30
0.0
 10
1.03038
 20
-5.7756
 30
0.0
 10
1.03038
 20
-5.7756
 30
0.0
 10
1.03038
 20
-5.7756
 30
0.0
 10
1.10866
 20
-5.77259
 30
0.0
 10
1.10866
 20
-5.77259
 30
0.0
 10
1.10866
 20
-5.77259
 30
0.0
 10
1.10866
 20
-5.77259
 30
0.0
 10
1.5543
 20
-6.11585
 30
0.0
 10
1.5543
 20
-6.11585
 30
0.0
 10
1.5543
 20
-6.11585
 30
0.0
 10
1.5543
 20
-6.11585
 30
0.0
 10
1.56032
 20
-6.18811
 30
0.0
 10
1.56032
 20
-6.18811
 30
0.0
 10
1.56032
 20
-6.18811
 30
0.0
 10
1.56032
 20
-6.18811
 30
0.0
 10
1.48203
 20
-6.20317
 30
0.0
 10
1.48203
 20
-6.20317
 30
0.0
 10
1.48203
 20
-6.20317
 30
0.0
 10
1.48203
 20
-6.20317
 30
0.0
 10
1.43687
 20
-6.33565
 30
0.0
 10
1.43687
 20
-6.33565
 30
0.0
 10
1.43687
 20
-6.33565
 30
0.0
 10
1.24866
 20
-6.28342
 30
0.0
 10
1.13223
 20
-6.36373
 30
0.0
 10
1.04844
 20
-6.50427
 30
0.0
 10
1.04844
 20
-6.50427
 30
0.0
 10
1.01632
 20
-6.59359
 30
0.0
 10
1.04041
 20
-6.65481
 30
0.0
 10
1.12071
 20
-6.68794
 30
0.0
 10
1.12071
 20
-6.68794
 30
0.0
 10
1.12071
 20
-6.68794
 30
0.0
 10
0.99123
 20
-6.75719
 30
0.0
 10
0.99123
 20
-6.75719
 30
0.0
 10
0.99123
 20
-6.75719
 30
0.0
 10
0.89894
 20
-6.34729
 30
0.0
 10
0.71004
 20
-6.01206
 30
0.0
 10
0.44114
 20
-5.73869
 30
0.0
  0
SPLINE
  5
8D
330
1F
100
AcDbEntity
  8
layer 1
 62
     7
100
AcDbSpline
210
0.0
220
0.0
230
1.0
 70
    11
 71
     3
 72
    48
 73
    44
 74
     0
 42
0.0000000001
 43
0.0000000001
 40
0.0
 40
0.0
 40
0.0
 40
0.0
 40
0.0909090909090909
 40
0.0909090909090909
 40
0.0909090909090909
 40
0.0909090909090909
 40
0.1818181818181818
 40
0.1818181818181818
 40
0.1818181818181818
 40
0.1818181818181818
 40
0.2727272727272727
 40
0.2727272727272727
 40
0.2727272727272727
 40
0.2727272727272727
 40
0.3636363636363636
 40
0.3636363636363636
 40
0.3636363636363636
 40
0.3636363636363636
 40
0.4545454545454545
 40
0.4545454545454545
 40
0.4545454545454545
 40
0.4545454545454545
 40
0.5454545454545454
 40
0.5454545454545454
 40
0.5454545454545454
 40
0.5454545454545454
 40
0.6363636363636364
 40
0.6363636363636364
 40
0.6363636363636364
 40
0.6363636363636364
 40
0.7272727272727273
 40
0.7272727272727273
 40
0.7272727272727273
 40
0.7272727272727273
 40
0.8181818181818182
 40
0.8181818181818182
 40
0.8181818181818182
 40
0.8181818181818182
 40
0.9090909090909092
 40
0.9090909090909092
 40
0.9090909090909092
 40
0.9090909090909092
 40
1.0
 40
1.0
 40
1.0
 40
1.0
 10
1.18394
 20
-5.69731
 30
0.0
 10
1.33409
 20
-5.69274
 30
0.0
 10
1.48807
 20
-5.60428
 30
0.0
 10
1.64764
 20
-5.3932
 30
0.0
 10
1.64764
 20
-5.3932
 30
0.0
 10
2.4215
 20
-5.82347
 30
0.0
 10
2.93016
 20
-6.48637
 30
0.0
 10
3.02811
 20
-7.50957
 30
0.0
 10
3.02811
 20
-7.50957
 30
0.0
 10
3.02811
 20
-7.50957
 30
0.0
 10
2.7266
 20
-7.53369
 30
0.0
 10
2.7266
 20
-7.53369
 30
0.0
 10
2.7266
 20
-7.53369
 30
0.0
 10
2.65333
 20
-7.26355
 30
0.0
 10
2.44864
 20
-7.08542
 30
0.0
 10
2.20197
 20
-6.9367
 30
0.0
 10
2.20197
 20
-6.9367
 30
0.0
 10
2.39847
 20
-6.59056
 30
0.0
 10
2.26873
 20
-6.41979
 30
0.0
 10
1.93664
 20
-6.35779
 30
0.0
 10
1.93664
 20
-6.35779
 30
0.0
 10
2.28593
 20
-6.41518
 30
0.0
 10
2.40769
 20
-6.25681
 30
0.0
 10
2.26227
 20
-6.06231
 30
0.0
 10
2.26227
 20
-6.06231
 30
0.0
 10
2.34466
 20
-6.04654
 30
0.0
 10
2.37088
 20
-6.01096
 30
0.0
 10
2.34096
 20
-5.95556
 30
0.0
 10
2.34096
 20
-5.95556
 30
0.0
 10
2.29754
 20
-5.94018
 30
0.0
 10
2.25413
 20
-5.94752
 30
0.0
 10
2.21073
 20
-6.00484
 30
0.0
 10
2.21073
 20
-6.00484
 30
0.0
 10
2.01875
 20
-5.91773
 30
0.0
 10
1.88853
 20
-5.95409
 30
0.0
 10
1.82004
 20
-6.11395
 30
0.0
 10
1.82004
 20
-6.11395
 30
0.0
 10
1.74976
 20
-6.04645
 30
0.0
 10
1.67584
 20
-6.03707
 30
0.0
 10
1.5983
 20
-6.08579
 30
0.0
 10
1.5983
 20
-6.08579
 30
0.0
 10
1.51934
 20
-5.91989
 30
0.0
 10
1.38491
 20
-5.78811
 30
0.0
 10
1.18394
 20
-5.69731
 30
0.0
  0
SPLINE
  5
8E
330
1F
100
AcDbEntity
  8
layer 1
 62
     7
100
AcDbSpline
210
0.0
220
0.0
230
1.0
 70
    11
 71
     3
 72
    24
 73
    20
 74
     0
 42
0.0000000001
 43
0.0000000001
 40
0.0
 40
0.0
 40
0.0
 40
0.0
 40
0.2
 40
0.2
 40
0.2
 40
0.2
 40
0.4
 40
0.4
 40
0.4
 40
0.4
 40
0.6
 40
0.6
 40
0.6
 40
0.6
 40
0.7999999999999999
 40
0.7999999999999999
 40
0.7999999999999999
 40
0.7999999999999999
 40
1.0
 40
1.0
 40
1.0
 40
1.0
 10
-1.26095
 20
-5.21787
 30
0.0
 10
-0.97803
 20
-5.35521
 30
0.0
 10
-0.6951
 20
-5.35355
 30
0.0
 10
-0.41216
 20
-5.21291
 30
0.0
 10
-0.41216
 20
-5.21291
 30
0.0
 10
-0.08416
 20
-5.48383
 30
0.0
 10
0.18471
 20
-5.7924
 30
0.0
 10
0.36713
 20
-6.15601
 30
0.0
 10
0.36713
 20
-6.15601
 30
0.0
 10
0.08399
 20
-5.93821
 30
0.0
 10
-0.25313
 20
-5.78641
 30
0.0
 10
-0.65538
 20
-5.71424
 30
0.0
 10
-0.65538
 20
-5.71424
 30
0.0
 10
-0.96644
 20
-5.71299
 30
0.0
 10
-1.24607
 20
-5.60958
 30
0.0
 10
-1.50417
 20
-5.43627
 30
0.0
 10
-1.50417
 20
-5.43627
 30
0.0
 10
-1.50417
 20
-5.43627
 30
0.0
 10
-1.26095
 20
-5.21787
 30
0.0
 10
-1.26095
 20
-5.21787
 30
0.0
  0
SPLINE
  5
8F
330
1F
100
AcDbEntity
  8
layer 1
 62
     7
100
AcDbSpline
210
0.0
220
0.0
230
1.0
 70
    11
 71
     3
 72
    48
 73
    44
 74
     0
 42
0.0000000001
 43
0.0000000001
 40
0.0
 40
0.0
 40
0.0
 40
0.0
 40
0.0909090909090909
 40
0.0909090909090909
 40
0.0909090909090909
 40
0.0909090909090909
 40
0.1818181818181818
 40
0.1818181818181818
 40
0.1818181818181818
 40
0.1818181818181818
 40
0.2727272727272727
 40
0.2727272727272727
 40
0.2727272727272727
 40
0.2727272727272727
 40
0.3636363636363636
 40
0.3636363636363636
 40
0.3636363636363636
 40
0.3636363636363636
 40
0.4545454545454545
 40
0.4545454545454545
 40
0.4545454545454545
 40
0.4545454545454545
 40
0.5454545454545454
 40
0.5454545454545454
 40
0.5454545454545454
 40
0.5454545454545454
 40
0.6363636363636364
 40
0.6363636363636364
 40
0.6363636363636364
 40
0.6363636363636364
 40
0.7272727272727273
 40
0.7272727272727273
 40
0.7272727272727273
 40
0.7272727272727273
 40
0.8181818181818182
 40
0.8181818181818182
 40
0.8181818181818182
 40
0.8181818181818182
 40
0.9090909090909092
 40
0.9090909090909092
 40
0.9090909090909092
 40
0.9090909090909092
 40
1.0
 40
1.0
 40
1.0
 40
1.0
 10
-5.0705
 20
-7.6543
 30
0.0
 10
-5.0705
 20
-7.6543
 30
0.0
 10
-4.72678
 20
-7.6543
 30
0.0
 10
-4.72678
 20
-7.6543
 30
0.0
 10
-4.72678
 20
-7.6543
 30
0.0
 10
-4.72678
 20
-7.6543
 30
0.0
 10
-4.81723
 20
-8.02817
 30
0.0
 10
-4.81723
 20
-8.02817
 30
0.0
 10
-4.81723
 20
-8.02817
 30
0.0
 10
-4.44427
 20
-7.81011
 30
0.0
 10
-4.1682
 20
-7.56356
 30
0.0
 10
-4.15994
 20
-7.23821
 30
0.0
 10
-4.15994
 20
-7.23821
 30
0.0
 10
-4.14322
 20
-7.07538
 30
0.0
 10
-4.07957
 20
-6.93268
 30
0.0
 10
-3.9127
 20
-6.83418
 30
0.0
 10
-3.9127
 20
-6.83418
 30
0.0
 10
-3.7878
 20
-6.99024
 30
0.0
 10
-3.35166
 20
-6.96626
 30
0.0
 10
-3.3941
 20
-6.63519
 30
0.0
 10
-3.3941
 20
-6.63519
 30
0.0
 10
-3.21787
 20
-6.85701
 30
0.0
 10
-3.06846
 20
-6.9649
 30
0.0
 10
-2.97801
 20
-6.82212
 30
0.0
 10
-2.97801
 20
-6.82212
 30
0.0
 10
-2.98128
 20
-6.76536
 30
0.0
 10
-2.96454
 20
-6.75263
 30
0.0
 10
-2.92776
 20
-6.78393
 30
0.0
 10
-2.92776
 20
-6.78393
 30
0.0
 10
-2.92776
 20
-6.78393
 30
0.0
 10
-2.83931
 20
-6.84021
 30
0.0
 10
-2.83931
 20
-6.84021
 30
0.0
 10
-2.83931
 20
-6.84021
 30
0.0
 10
-3.24543
 20
-7.85886
 30
0.0
 10
-4.16568
 20
-8.28886
 30
0.0
 10
-5.31171
 20
-8.46034
 30
0.0
 10
-5.31171
 20
-8.46034
 30
0.0
 10
-5.26017
 20
-8.3363
 30
0.0
 10
-5.19882
 20
-8.36897
 30
0.0
 10
-5.16297
 20
-7.994
 30
0.0
 10
-5.16297
 20
-7.994
 30
0.0
 10
-5.0946
 20
-7.87607
 30
0.0
 10
-5.05307
 20
-7.76149
 30
0.0
 10
-5.0705
 20
-7.6543
 30
0.0
  0
SPLINE
  5
90
330
1F
100
AcDbEntity
  8
layer 1
 62
     7
100
AcDbSpline
210
0.0
220
0.0
230
1.0
 70
    11
 71
     3
 72
    32
 73
    28
 74
     0
 42
0.0000000001
 43
0.0000000001
 40
0.0
 40
0.0
 40
0.0
 40
0.0
 40
0.1428571428571428
 40
0.1428571428571428
 40
0.1428571428571428
 40
0.1428571428571428
 40
0.2857142857142857
 40
0.2857142857142857
 40
0.2857142857142857
 40
0.2857142857142857
 40
0.4285714285714285
 40
0.4285714285714285
 40
0.4285714285714285
 40
0.4285714285714285
 40
0.5714285714285714
 40
0.5714285714285714
 40
0.5714285714285714
 40
0.5714285714285714
 40
0.7142857142857143
 40
0.7142857142857143
 40
0.7142857142857143
 40
0.7142857142857143
 40
0.8571428571428572
 40
0.8571428571428572
 40
0.8571428571428572
 40
0.8571428571428572
 40
1.0
 40
1.0
 40
1.0
 40
1.0
 10
-1.72688
 20
-4.78772
 30
0.0
 10
-1.7194
 20
-4.87763
 30
0.0
 10
-1.66313
 20
-4.96379
 30
0.0
 10
-1.55806
 20
-5.04621
 30
0.0
 10
-1.55806
 20
-5.04621
 30
0.0
 10
-1.80126
 20
-5.18597
 30
0.0
 10
-2.00134
 20
-5.37604
 30
0.0
 10
-2.18584
 20
-5.58431
 30
0.0
 10
-2.18584
 20
-5.58431
 30
0.0
 10
-2.18584
 20
-5.58431
 30
0.0
 10
-2.53402
 20
-5.52628
 30
0.0
 10
-2.53402
 20
-5.52628
 30
0.0
 10
-2.53402
 20
-5.52628
 30
0.0
 10
-2.68335
 20
-5.37291
 30
0.0
 10
-2.87045
 20
-5.25193
 30
0.0
 10
-3.12487
 20
-5.18865
 30
0.0
 10
-3.12487
 20
-5.18865
 30
0.0
 10
-3.12487
 20
-5.18865
 30
0.0
 10
-3.27786
 20
-5.19392
 30
0.0
 10
-3.27786
 20
-5.19392
 30
0.0
 10
-3.27786
 20
-5.19392
 30
0.0
 10
-3.11571
 20
-5.18267
 30
0.0
 10
-3.00703
 20
-5.14467
 30
0.0
 10
-2.93495
 20
-5.08842
 30
0.0
 10
-2.93495
 20
-5.08842
 30
0.0
 10
-2.53226
 20
-4.95461
 30
0.0
 10
-2.12955
 20
-4.83886
 30
0.0
 10
-1.72688
 20
-4.78772
 30
0.0
  0
SPLINE
  5
91
330
1F
100
AcDbEntity
  8
layer 1
 62
     7
100
AcDbSpline
210
0.0
220
0.0
230
1.0
 70
    11
 71
     3
 72
   104
 73
   100
 74
     0
 42
0.0000000001
 43
0.0000000001
 40
0.0
 40
0.0
 40
0.0
 40
0.0
 40
0.04
 40
0.04
 40
0.04
 40
0.04
 40
0.08
 40
0.08
 40
0.08
 40
0.08
 40
0.12
 40
0.12
 40
0.12
 40
0.12
 40
0.16
 40
0.16
 40
0.16
 40
0.16
 40
0.2
 40
0.2
 40
0.2
 40
0.2
 40
0.24
 40
0.24
 40
0.24
 40
0.24
 40
0.28
 40
0.28
 40
0.28
 40
0.28
 40
0.32
 40
0.32
 40
0.32
 40
0.32
 40
0.36
 40
0.36
 40
0.36
 40
0.36
 40
0.4
 40
0.4
 40
0.4
 40
0.4
 40
0.4399999999999999
 40
0.4399999999999999
 40
0.4399999999999999
 40
0.4399999999999999
 40
0.4799999999999999
 40
0.4799999999999999
 40
0.4799999999999999
 40
0.4799999999999999
 40
0.5199999999999999
 40
0.5199999999999999
 40
0.5199999999999999
 40
0.5199999999999999
 40
0.5599999999999999
 40
0.5599999999999999
 40
0.5599999999999999
 40
0.5599999999999999
 40
0.6
 40
0.6
 40
0.6
 40
0.6
 40
0.64
 40
0.64
 40
0.64
 40
0.64
 40
0.68
 40
0.68
 40
0.68
 40
0.68
 40
0.7200000000000001
 40
0.7200000000000001
 40
0.7200000000000001
 40
0.7200000000000001
 40
0.7600000000000001
 40
0.7600000000000001
 40
0.7600000000000001
 40
0.7600000000000001
 40
0.8000000000000002
 40
0.8000000000000002
 40
0.8000000000000002
 40
0.8000000000000002
 40
0.8400000000000002
 40
0.8400000000000002
 40
0.8400000000000002
 40
0.8400000000000002
 40
0.8800000000000002
 40
0.8800000000000002
 40
0.8800000000000002
 40
0.8800000000000002
 40
0.9200000000000003
 40
0.9200000000000003
 40
0.9200000000000003
 40
0.9200000000000003
 40
0.9600000000000003
 40
0.9600000000000003
 40
0.9600000000000003
 40
0.9600000000000003
 40
1.0
 40
1.0
 40
1.0
 40
1.0
 10
-3.94133
 20
-3.65928
 30
0.0
 10
-3.86357
 20
-3.70099
 30
0.0
 10
-3.78582
 20
-3.71999
 30
0.0
 10
-3.70804
 20
-3.68906
 30
0.0
 10
-3.70804
 20
-3.68906
 30
0.0
 10
-3.64962
 20
-3.74845
 30
0.0
 10
-3.5821
 20
-3.77605
 30
0.0
 10
-3.4946
 20
-3.73374
 30
0.0
 10
-3.4946
 20
-3.73374
 30
0.0
 10
-3.46415
 20
-3.79996
 30
0.0
 10
-3.38886
 20
-3.81387
 30
0.0
 10
-3.27124
 20
-3.77841
 30
0.0
 10
-3.27124
 20
-3.77841
 30
0.0
 10
-3.27124
 20
-3.77841
 30
0.0
 10
-3.18189
 20
-3.78834
 30
0.0
 10
-3.18189
 20
-3.78834
 30
0.0
 10
-3.18189
 20
-3.78834
 30
0.0
 10
-3.18044
 20
-3.82864
 30
0.0
 10
-3.12087
 20
-3.84354
 30
0.0
 10
-3.0032
 20
-3.83301
 30
0.0
 10
-3.0032
 20
-3.83301
 30
0.0
 10
-3.01963
 20
-3.87563
 30
0.0
 10
-2.94116
 20
-3.87829
 30
0.0
 10
-2.81954
 20
-3.86279
 30
0.0
 10
-2.81954
 20
-3.86279
 30
0.0
 10
-2.81954
 20
-3.86279
 30
0.0
 10
-2.74509
 20
-3.88761
 30
0.0
 10
-2.74509
 20
-3.88761
 30
0.0
 10
-2.74509
 20
-3.88761
 30
0.0
 10
-2.74509
 20
-3.88761
 30
0.0
 10
-2.71034
 20
-3.93228
 30
0.0
 10
-2.71034
 20
-3.93228
 30
0.0
 10
-2.71034
 20
-3.93228
 30
0.0
 10
-2.71034
 20
-3.93228
 30
0.0
 10
-2.6061
 20
-3.93228
 30
0.0
 10
-2.6061
 20
-3.93228
 30
0.0
 10
-2.6061
 20
-3.93228
 30
0.0
 10
-2.6061
 20
-3.93228
 30
0.0
 10
-2.56143
 20
-3.99185
 30
0.0
 10
-2.56143
 20
-3.99185
 30
0.0
 10
-2.56143
 20
-3.99185
 30
0.0
 10
-2.56143
 20
-3.99185
 30
0.0
 10
-2.43734
 20
-3.95214
 30
0.0
 10
-2.43734
 20
-3.95214
 30
0.0
 10
-2.43734
 20
-3.95214
 30
0.0
 10
-2.43734
 20
-3.95214
 30
0.0
 10
-2.35792
 20
-4.0117
 30
0.0
 10
-2.35792
 20
-4.0117
 30
0.0
 10
-2.35792
 20
-4.0117
 30
0.0
 10
-2.35792
 20
-4.0117
 30
0.0
 10
-2.23879
 20
-4.0117
 30
0.0
 10
-2.23879
 20
-4.0117
 30
0.0
 10
-2.23879
 20
-4.0117
 30
0.0
 10
-2.23879
 20
-4.0117
 30
0.0
 10
-2.22887
 20
-4.06134
 30
0.0
 10
-2.22887
 20
-4.06134
 30
0.0
 10
-2.22887
 20
-4.06134
 30
0.0
 10
-2.22887
 20
-4.06134
 30
0.0
 10
-2.11966
 20
-4.05637
 30
0.0
 10
-2.11966
 20
-4.05637
 30
0.0
 10
-2.11966
 20
-4.05637
 30
0.0
 10
-2.11966
 20
-4.05637
 30
0.0
 10
-2.09485
 20
-4.11594
 30
0.0
 10
-2.09485
 20
-4.11594
 30
0.0
 10
-2.09485
 20
-4.11594
 30
0.0
 10
-2.09485
 20
-4.11594
 30
0.0
 10
-2.00054
 20
-4.11594
 30
0.0
 10
-2.00054
 20
-4.11594
 30
0.0
 10
-2.00054
 20
-4.11594
 30
0.0
 10
-2.0031
 20
-4.18385
 30
0.0
 10
-1.94186
 20
-4.17521
 30
0.0
 10
-1.87148
 20
-4.15565
 30
0.0
 10
-1.87148
 20
-4.15565
 30
0.0
 10
-1.87734
 20
-4.20883
 30
0.0
 10
-1.83597
 20
-4.22205
 30
0.0
 10
-1.74739
 20
-4.19536
 30
0.0
 10
-1.74739
 20
-4.19536
 30
0.0
 10
-1.85163
 20
-4.31449
 30
0.0
 10
-1.84336
 20
-4.43361
 30
0.0
 10
-1.72257
 20
-4.55274
 30
0.0
 10
-1.72257
 20
-4.55274
 30
0.0
 10
-2.15607
 20
-4.52626
 30
0.0
 10
-2.58957
 20
-4.59409
 30
0.0
 10
-3.02305
 20
-4.72647
 30
0.0
 10
-3.02305
 20
-4.72647
 30
0.0
 10
-3.04983
 20
-4.62405
 30
0.0
 10
-3.10593
 20
-4.53924
 30
0.0
 10
-3.22656
 20
-4.49318
 30
0.0
 10
-3.22656
 20
-4.49318
 30
0.0
 10
-3.22656
 20
-4.49318
 30
0.0
 10
-3.45986
 20
-4.11594
 30
0.0
 10
-3.45986
 20
-4.11594
 30
0.0
 10
-3.45986
 20
-4.11594
 30
0.0
 10
-3.51761
 20
-4.0411
 30
0.0
 10
-3.4979
 20
-3.98078
 30
0.0
 10
-3.73286
 20
-3.87272
 30
0.0
 10
-3.73286
 20
-3.87272
 30
0.0
 10
-3.73286
 20
-3.87272
 30
0.0
 10
-3.94133
 20
-3.65928
 30
0.0
 10
-3.94133
 20
-3.65928
 30
0.0
  0
SPLINE
  5
92
330
1F
100
AcDbEntity
  8
layer 1
 62
     7
100
AcDbSpline
210
0.0
220
0.0
230
1.0
 70
    11
 71
     3
 72
    52
 73
    48
 74
     0
 42
0.0000000001
 43
0.0000000001
 40
0.0
 40
0.0
 40
0.0
 40
0.0
 40
0.0833333333333333
 40
0.0833333333333333
 40
0.0833333333333333
 40
0.0833333333333333
 40
0.1666666666666667
 40
0.1666666666666667
 40
0.1666666666666667
 40
0.1666666666666667
 40
0.25
 40
0.25
 40
0.25
 40
0.25
 40
0.3333333333333333
 40
0.3333333333333333
 40
0.3333333333333333
 40
0.3333333333333333
 40
0.4166666666666666
 40
0.4166666666666666
 40
0.4166666666666666
 40
0.4166666666666666
 40
0.4999999999999999
 40
0.4999999999999999
 40
0.4999999999999999
 40
0.4999999999999999
 40
0.5833333333333333
 40
0.5833333333333333
 40
0.5833333333333333
 40
0.5833333333333333
 40
0.6666666666666666
 40
0.6666666666666666
 40
0.6666666666666666
 40
0.6666666666666666
 40
0.75
 40
0.75
 40
0.75
 40
0.75
 40
0.8333333333333334
 40
0.8333333333333334
 40
0.8333333333333334
 40
0.8333333333333334
 40
0.9166666666666667
 40
0.9166666666666667
 40
0.9166666666666667
 40
0.9166666666666667
 40
1.0
 40
1.0
 40
1.0
 40
1.0
 10
-5.35533
 20
4.17411
 30
0.0
 10
-5.08508
 20
4.25017
 30
0.0
 10
-4.65205
 20
4.24482
 30
0.0
 10
-4.19575
 20
4.22787
 30
0.0
 10
-4.19575
 20
4.22787
 30
0.0
 10
-4.19575
 20
4.22787
 30
0.0
 10
-4.38005
 20
4.05892
 30
0.0
 10
-4.38005
 20
4.05892
 30
0.0
 10
-4.38005
 20
4.05892
 30
0.0
 10
-3.81267
 20
4.02468
 30
0.0
 10
-3.29168
 20
4.05712
 30
0.0
 10
-2.93634
 20
4.3277
 30
0.0
 10
-2.93634
 20
4.3277
 30
0.0
 10
-2.78882
 20
4.39085
 30
0.0
 10
-2.65892
 20
4.40706
 30
0.0
 10
-2.56773
 20
4.32002
 30
0.0
 10
-2.56773
 20
4.32002
 30
0.0
 10
-2.56773
 20
4.32002
 30
0.0
 10
-2.43292
 20
4.30551
 30
0.0
 10
-2.43292
 20
4.30551
 30
0.0
 10
-2.43292
 20
4.30551
 30
0.0
 10
-2.43292
 20
4.30551
 30
0.0
 10
-2.59717
 20
4.10841
 30
0.0
 10
-2.59717
 20
4.10841
 30
0.0
 10
-2.59717
 20
4.10841
 30
0.0
 10
-2.59717
 20
4.10841
 30
0.0
 10
-2.21704
 20
3.90192
 30
0.0
 10
-2.21704
 20
3.90192
 30
0.0
 10
-2.21704
 20
3.90192
 30
0.0
 10
-2.36631
 20
2.79191
 30
0.0
 10
-2.92036
 20
2.63271
 30
0.0
 10
-3.639
 20
2.86009
 30
0.0
 10
-3.639
 20
2.86009
 30
0.0
 10
-3.639
 20
2.86009
 30
0.0
 10
-3.85487
 20
2.66768
 30
0.0
 10
-3.85487
 20
2.66768
 30
0.0
 10
-3.85487
 20
2.66768
 30
0.0
 10
-3.85487
 20
2.66768
 30
0.0
 10
-3.60615
 20
2.51282
 30
0.0
 10
-3.60615
 20
2.51282
 30
0.0
 10
-3.60615
 20
2.51282
 30
0.0
 10
-3.60615
 20
2.51282
 30
0.0
 10
-3.99097
 20
2.15146
 30
0.0
 10
-3.99097
 20
2.15146
 30
0.0
 10
-3.99097
 20
2.15146
 30
0.0
 10
-4.27906
 20
2.8898
 30
0.0
 10
-4.72311
 20
3.56816
 30
0.0
 10
-5.35533
 20
4.17411
 30
0.0
  0
SPLINE
  5
93
330
1F
100
AcDbEntity
  8
layer 1
 62
     7
100
AcDbSpline
210
0.0
220
0.0
230
1.0
 70
    11
 71
     3
 72
    24
 73
    20
 74
     0
 42
0.0000000001
 43
0.0000000001
 40
0.0
 40
0.0
 40
0.0
 40
0.0
 40
0.2
 40
0.2
 40
0.2
 40
0.2
 40
0.4
 40
0.4
 40
0.4
 40
0.4
 40
0.6
 40
0.6
 40
0.6
 40
0.6
 40
0.7999999999999999
 40
0.7999999999999999
 40
0.7999999999999999
 40
0.7999999999999999
 40
1.0
 40
1.0
 40
1.0
 40
1.0
 10
2.50404
 20
-3.82263
 30
0.0
 10
2.89582
 20
-3.78871
 30
0.0
 10
3.21164
 20
-3.86873
 30
0.0
 10
3.48486
 20
-4.01269
 30
0.0
 10
3.48486
 20
-4.01269
 30
0.0
 10
3.20547
 20
-4.08702
 30
0.0
 10
3.08098
 20
-4.28807
 30
0.0
 10
3.0625
 20
-4.57585
 30
0.0
 10
3.0625
 20
-4.57585
 30
0.0
 10
2.96394
 20
-4.51272
 30
0.0
 10
2.86539
 20
-4.53853
 30
0.0
 10
2.76684
 20
-4.65328
 30
0.0
 10
2.76684
 20
-4.65328
 30
0.0
 10
2.63103
 20
-4.57607
 30
0.0
 10
2.39737
 20
-4.55594
 30
0.0
 10
2.11922
 20
-4.56177
 30
0.0
 10
2.11922
 20
-4.56177
 30
0.0
 10
2.30538
 20
-4.4215
 30
0.0
 10
2.46037
 20
-4.22409
 30
0.0
 10
2.50404
 20
-3.82263
 30
0.0
  0
SPLINE
  5
94
330
1F
100
AcDbEntity
  8
layer 1
 62
     7
100
AcDbSpline
210
0.0
220
0.0
230
1.0
 70
    11
 71
     3
 72
    16
 73
    12
 74
     0
 42
0.0000000001
 43
0.0000000001
 40
0.0
 40
0.0
 40
0.0
 40
0.0
 40
0.3333333333333333
 40
0.3333333333333333
 40
0.3333333333333333
 40
0.3333333333333333
 40
0.6666666666666666
 40
0.6666666666666666
 40
0.6666666666666666
 40
0.6666666666666666
 40
1.0
 40
1.0
 40
1.0
 40
1.0
 10
-4.65736
 20
0.37284
 30
0.0
 10
-4.86932
 20
-0.00259
 30
0.0
 10
-5.19312
 20
-0.29667
 30
0.0
 10
-5.68042
 20
-0.47188
 30
0.0
 10
-5.68042
 20
-0.47188
 30
0.0
 10
-6.33278
 20
-0.7992
 30
0.0
 10
-6.393
 20
-1.94522
 30
0.0
 10
-5.91507
 20
-2.61186
 30
0.0
 10
-5.91507
 20
-2.61186
 30
0.0
 10
-5.27254
 20
-1.82907
 30
0.0
 10
-4.79923
 20
-0.88553
 30
0.0
 10
-4.65736
 20
0.37284
 30
0.0
  0
SPLINE
  5
95
330
1F
100
AcDbEntity
  8
layer 1
 62
     7
100
AcDbSpline
210
0.0
220
0.0
230
1.0
 70
    11
 71
     3
 72
    36
 73
    32
 74
     0
 42
0.0000000001
 43
0.0000000001
 40
0.0
 40
0.0
 40
0.0
 40
0.0
 40
0.125
 40
0.125
 40
0.125
 40
0.125
 40
0.25
 40
0.25
 40
0.25
 40
0.25
 40
0.375
 40
0.375
 40
0.375
 40
0.375
 40
0.5
 40
0.5
 40
0.5
 40
0.5
 40
0.625
 40
0.625
 40
0.625
 40
0.625
 40
0.75
 40
0.75
 40
0.75
 40
0.75
 40
0.875
 40
0.875
 40
0.875
 40
0.875
 40
1.0
 40
1.0
 40
1.0
 40
1.0
 10
4.93497
 20
-2.6494
 30
0.0
 10
5.01789
 20
-2.20433
 30
0.0
 10
4.95369
 20
-1.75629
 30
0.0
 10
5.76093
 20
-1.326
 30
0.0
 10
5.76093
 20
-1.326
 30
0.0
 10
5.90814
 20
-1.52658
 30
0.0
 10
6.09712
 20
-1.50997
 30
0.0
 10
6.31469
 20
-1.34477
 30
0.0
 10
6.31469
 20
-1.34477
 30
0.0
 10
6.91781
 20
-1.63926
 30
0.0
 10
7.49013
 20
-1.67871
 30
0.0
 10
7.99476
 20
-1.15705
 30
0.0
 10
7.99476
 20
-1.15705
 30
0.0
 10
7.99476
 20
-1.15705
 30
0.0
 10
8.48282
 20
-1.30722
 30
0.0
 10
8.48282
 20
-1.30722
 30
0.0
 10
8.48282
 20
-1.30722
 30
0.0
 10
8.28354
 20
-1.91845
 30
0.0
 10
7.96391
 20
-2.38527
 30
0.0
 10
7.55362
 20
-2.74326
 30
0.0
 10
7.55362
 20
-2.74326
 30
0.0
 10
7.55362
 20
-2.74326
 30
0.0
 10
7.60994
 20
-3.32518
 30
0.0
 10
7.60994
 20
-3.32518
 30
0.0
 10
7.60994
 20
-3.32518
 30
0.0
 10
7.60994
 20
-3.32518
 30
0.0
 10
6.87784
 20
-3.22194
 30
0.0
 10
6.87784
 20
-3.22194
 30
0.0
 10
6.87784
 20
-3.22194
 30
0.0
 10
6.52306
 20
-2.10488
 30
0.0
 10
5.65384
 20
-2.13357
 30
0.0
 10
4.93497
 20
-2.6494
 30
0.0
  0
SPLINE
  5
96
330
1F
100
AcDbEntity
  8
layer 1
 62
     7
100
AcDbSpline
210
0.0
220
0.0
230
1.0
 70
    11
 71
     3
 72
    20
 73
    16
 74
     0
 42
0.0000000001
 43
0.0000000001
 40
0.0
 40
0.0
 40
0.0
 40
0.0
 40
0.25
 40
0.25
 40
0.25
 40
0.25
 40
0.5
 40
0.5
 40
0.5
 40
0.5
 40
0.75
 40
0.75
 40
0.75
 40
0.75
 40
1.0
 40
1.0
 40
1.0
 40
1.0
 10
6.40257
 20
-0.7098
 30
0.0
 10
6.49236
 20
-0.89676
 30
0.0
 10
6.49061
 20
-1.07408
 30
0.0
 10
6.35509
 20
-1.23735
 30
0.0
 10
6.35509
 20
-1.23735
 30
0.0
 10
6.74899
 20
-1.35431
 30
0.0
 10
7.10243
 20
-1.24879
 30
0.0
 10
7.3838
 20
-0.74673
 30
0.0
 10
7.3838
 20
-0.74673
 30
0.0
 10
7.33251
 20
-0.80037
 30
0.0
 10
7.26391
 20
-0.78104
 30
0.0
 10
7.17806
 20
-0.6887
 30
0.0
 10
7.17806
 20
-0.6887
 30
0.0
 10
7.16822
 20
-1.10004
 30
0.0
 10
6.68499
 20
-1.15013
 30
0.0
 10
6.40257
 20
-0.7098
 30
0.0
  0
SPLINE
  5
97
330
1F
100
AcDbEntity
  8
layer 1
 62
     7
100
AcDbSpline
210
0.0
220
0.0
230
1.0
 70
    11
 71
     3
 72
    64
 73
    60
 74
     0
 42
0.0000000001
 43
0.0000000001
 40
0.0
 40
0.0
 40
0.0
 40
0.0
 40
0.0666666666666667
 40
0.0666666666666667
 40
0.0666666666666667
 40
0.0666666666666667
 40
0.1333333333333333
 40
0.1333333333333333
 40
0.1333333333333333
 40
0.1333333333333333
 40
0.2
 40
0.2
 40
0.2
 40
0.2
 40
0.2666666666666667
 40
0.2666666666666667
 40
0.2666666666666667
 40
0.2666666666666667
 40
0.3333333333333333
 40
0.3333333333333333
 40
0.3333333333333333
 40
0.3333333333333333
 40
0.4
 40
0.4
 40
0.4
 40
0.4
 40
0.4666666666666666
 40
0.4666666666666666
 40
0.4666666666666666
 40
0.4666666666666666
 40
0.5333333333333333
 40
0.5333333333333333
 40
0.5333333333333333
 40
0.5333333333333333
 40
0.6
 40
0.6
 40
0.6
 40
0.6
 40
0.6666666666666666
 40
0.6666666666666666
 40
0.6666666666666666
 40
0.6666666666666666
 40
0.7333333333333333
 40
0.7333333333333333
 40
0.7333333333333333
 40
0.7333333333333333
 40
0.7999999999999999
 40
0.7999999999999999
 40
0.7999999999999999
 40
0.7999999999999999
 40
0.8666666666666666
 40
0.8666666666666666
 40
0.8666666666666666
 40
0.8666666666666666
 40
0.9333333333333332
 40
0.9333333333333332
 40
0.9333333333333332
 40
0.9333333333333332
 40
1.0
 40
1.0
 40
1.0
 40
1.0
 10
8.03321
 20
-1.05721
 30
0.0
 10
8.03321
 20
-1.05721
 30
0.0
 10
8.52166
 20
-1.23812
 30
0.0
 10
8.52166
 20
-1.23812
 30
0.0
 10
8.52166
 20
-1.23812
 30
0.0
 10
8.77195
 20
-0.38103
 30
0.0
 10
8.59637
 20
0.4041
 30
0.0
 10
7.90687
 20
1.10238
 30
0.0
 10
7.90687
 20
1.10238
 30
0.0
 10
8.05514
 20
1.65943
 30
0.0
 10
8.04746
 20
2.11251
 30
0.0
 10
7.88383
 20
2.46162
 30
0.0
 10
7.88383
 20
2.46162
 30
0.0
 10
7.88383
 20
2.46162
 30
0.0
 10
7.44611
 20
2.14677
 30
0.0
 10
7.44611
 20
2.14677
 30
0.0
 10
7.44611
 20
2.14677
 30
0.0
 10
7.61577
 20
2.14297
 30
0.0
 10
7.71025
 20
2.08905
 30
0.0
 10
7.75329
 20
2.00086
 30
0.0
 10
7.75329
 20
2.00086
 30
0.0
 10
7.3252
 20
1.41613
 30
0.0
 10
6.94479
 20
1.42717
 30
0.0
 10
6.58603
 20
1.70905
 30
0.0
 10
6.58603
 20
1.70905
 30
0.0
 10
6.13812
 20
1.61684
 30
0.0
 10
5.94044
 20
1.27441
 30
0.0
 10
5.85649
 20
0.81824
 30
0.0
 10
5.85649
 20
0.81824
 30
0.0
 10
6.08329
 20
0.80177
 30
0.0
 10
6.16324
 20
0.53078
 30
0.0
 10
6.20206
 20
0.18854
 30
0.0
 10
6.20206
 20
0.18854
 30
0.0
 10
6.25932
 20
0.57372
 30
0.0
 10
6.42775
 20
0.85627
 30
0.0
 10
6.86248
 20
0.64162
 30
0.0
 10
6.86248
 20
0.64162
 30
0.0
 10
7.19472
 20
0.37411
 30
0.0
 10
7.0505
 20
-0.0592
 30
0.0
 10
6.65514
 20
-0.11863
 30
0.0
 10
6.65514
 20
-0.11863
 30
0.0
 10
6.95859
 20
-0.14934
 30
0.0
 10
7.16543
 20
-0.30209
 30
0.0
 10
7.23109
 20
-0.63315
 30
0.0
 10
7.23109
 20
-0.63315
 30
0.0
 10
7.23109
 20
-0.63315
 30
0.0
 10
7.47683
 20
-0.6869
 30
0.0
 10
7.47683
 20
-0.6869
 30
0.0
 10
7.47683
 20
-0.6869
 30
0.0
 10
7.59721
 20
-0.52519
 30
0.0
 10
7.7919
 20
-0.41547
 30
0.0
 10
8.03742
 20
-0.34134
 30
0.0
 10
8.03742
 20
-0.34134
 30
0.0
 10
8.15244
 20
-0.30813
 30
0.0
 10
8.23058
 20
-0.26613
 30
0.0
 10
8.29041
 20
-0.20439
 30
0.0
 10
8.29041
 20
-0.20439
 30
0.0
 10
8.26582
 20
-0.50905
 30
0.0
 10
8.19273
 20
-0.79756
 30
0.0
 10
8.03321
 20
-1.05721
 30
0.0
  0
SPLINE
  5
98
330
1F
100
AcDbEntity
  8
layer 1
 62
     7
100
AcDbSpline
210
0.0
220
0.0
230
1.0
 70
    11
 71
     3
 72
    36
 73
    32
 74
     0
 42
0.0000000001
 43
0.0000000001
 40
0.0
 40
0.0
 40
0.0
 40
0.0
 40
0.125
 40
0.125
 40
0.125
 40
0.125
 40
0.25
 40
0.25
 40
0.25
 40
0.25
 40
0.375
 40
0.375
 40
0.375
 40
0.375
 40
0.5
 40
0.5
 40
0.5
 40
0.5
 40
0.625
 40
0.625
 40
0.625
 40
0.625
 40
0.75
 40
0.75
 40
0.75
 40
0.75
 40
0.875
 40
0.875
 40
0.875
 40
0.875
 40
1.0
 40
1.0
 40
1.0
 40
1.0
 10
4.52199
 20
3.31061
 30
0.0
 10
4.52199
 20
3.31061
 30
0.0
 10
5.18839
 20
2.91641
 30
0.0
 10
5.18839
 20
2.91641
 30
0.0
 10
5.18839
 20
2.91641
 30
0.0
 10
5.17737
 20
2.34882
 30
0.0
 10
5.3535
 20
1.95054
 30
0.0
 10
5.65768
 20
1.66809
 30
0.0
 10
5.65768
 20
1.66809
 30
0.0
 10
5.78807
 20
1.38966
 30
0.0
 10
5.79371
 20
1.11121
 30
0.0
 10
5.714
 20
0.83275
 30
0.0
 10
5.714
 20
0.83275
 30
0.0
 10
5.32054
 20
0.74257
 30
0.0
 10
5.26864
 20
0.17019
 30
0.0
 10
5.6483
 20
-0.09645
 30
0.0
 10
5.6483
 20
-0.09645
 30
0.0
 10
5.53251
 20
0.04557
 30
0.0
 10
5.36981
 20
0.1219
 30
0.0
 10
5.10392
 20
0.05372
 30
0.0
 10
5.10392
 20
0.05372
 30
0.0
 10
5.04091
 20
0.68546
 30
0.0
 10
4.64465
 20
1.02474
 30
0.0
 10
3.84621
 20
1.01108
 30
0.0
 10
3.84621
 20
1.01108
 30
0.0
 10
3.8102
 20
1.18144
 30
0.0
 10
3.68507
 20
1.36072
 30
0.0
 10
3.49894
 20
1.54607
 30
0.0
 10
3.49894
 20
1.54607
 30
0.0
 10
3.80035
 20
2.18973
 30
0.0
 10
4.1267
 20
2.79845
 30
0.0
 10
4.52199
 20
3.31061
 30
0.0
  0
SPLINE
  5
99
330
1F
100
AcDbEntity
  8
layer 1
 62
     7
100
AcDbSpline
210
0.0
220
0.0
230
1.0
 70
    11
 71
     3
 72
    20
 73
    16
 74
     0
 42
0.0000000001
 43
0.0000000001
 40
0.0
 40
0.0
 40
0.0
 40
0.0
 40
0.25
 40
0.25
 40
0.25
 40
0.25
 40
0.5
 40
0.5
 40
0.5
 40
0.5
 40
0.75
 40
0.75
 40
0.75
 40
0.75
 40
1.0
 40
1.0
 40
1.0
 40
1.0
 10
6.10351
 20
-0.01432
 30
0.0
 10
6.28621
 20
-0.01432
 30
0.0
 10
6.43436
 20
-0.15145
 30
0.0
 10
6.43436
 20
-0.32054
 30
0.0
 10
6.43436
 20
-0.32054
 30
0.0
 10
6.43436
 20
-0.48962
 30
0.0
 10
6.28621
 20
-0.62675
 30
0.0
 10
6.10351
 20
-0.62675
 30
0.0
 10
6.10351
 20
-0.62675
 30
0.0
 10
5.92081
 20
-0.62675
 30
0.0
 10
5.77266
 20
-0.48962
 30
0.0
 10
5.77266
 20
-0.32054
 30
0.0
 10
5.77266
 20
-0.32054
 30
0.0
 10
5.77266
 20
-0.15145
 30
0.0
 10
5.92081
 20
-0.01432
 30
0.0
 10
6.10351
 20
-0.01432
 30
0.0
  0
SPLINE
  5
9A
330
1F
100
AcDbEntity
  8
layer 1
 62
     7
100
AcDbSpline
210
0.0
220
0.0
230
1.0
 70
    11
 71
     3
 72
    36
 73
    32
 74
     0
 42
0.0000000001
 43
0.0000000001
 40
0.0
 40
0.0
 40
0.0
 40
0.0
 40
0.125
 40
0.125
 40
0.125
 40
0.125
 40
0.25
 40
0.25
 40
0.25
 40
0.25
 40
0.375
 40
0.375
 40
0.375
 40
0.375
 40
0.5
 40
0.5
 40
0.5
 40
0.5
 40
0.625
 40
0.625
 40
0.625
 40
0.625
 40
0.75
 40
0.75
 40
0.75
 40
0.75
 40
0.875
 40
0.875
 40
0.875
 40
0.875
 40
1.0
 40
1.0
 40
1.0
 40
1.0
 10
3.4215
 20
-1.27437
 30
0.0
 10
3.92923
 20
-1.24033
 30
0.0
 10
4.33575
 20
-1.34122
 30
0.0
 10
4.56188
 20
-1.68266
 30
0.0
 10
4.56188
 20
-1.68266
 30
0.0
 10
4.59921
 20
-1.09931
 30
0.0
 10
4.76119
 20
-0.84315
 30
0.0
 10
4.94905
 20
-0.65491
 30
0.0
 10
4.94905
 20
-0.65491
 30
0.0
 10
4.8153
 20
-0.3921
 30
0.0
 10
4.8505
 20
-0.18562
 30
0.0
 10
5.05464
 20
-0.03544
 30
0.0
 10
5.05464
 20
-0.03544
 30
0.0
 10
4.95377
 20
0.13821
 30
0.0
 10
4.7942
 20
0.25319
 30
0.0
 10
4.50557
 20
0.23909
 30
0.0
 10
4.50557
 20
0.23909
 30
0.0
 10
4.11488
 20
0.36873
 30
0.0
 10
3.8028
 20
0.61628
 30
0.0
 10
3.56229
 20
0.97119
 30
0.0
 10
3.56229
 20
0.97119
 30
0.0
 10
3.56229
 20
0.97119
 30
0.0
 10
3.78051
 20
0.97823
 30
0.0
 10
3.78051
 20
0.97823
 30
0.0
 10
3.78051
 20
0.97823
 30
0.0
 10
3.78051
 20
0.97823
 30
0.0
 10
3.4567
 20
1.47099
 30
0.0
 10
3.4567
 20
1.47099
 30
0.0
 10
3.4567
 20
1.47099
 30
0.0
 10
3.16309
 20
0.60133
 30
0.0
 10
3.13318
 20
-0.31087
 30
0.0
 10
3.4215
 20
-1.27437
 30
0.0
  0
SPLINE
  5
9B
330
1F
100
AcDbEntity
  8
layer 1
 62
     7
100
AcDbSpline
210
0.0
220
0.0
230
1.0
 70
    11
 71
     3
 72
    28
 73
    24
 74
     0
 42
0.0000000001
 43
0.0000000001
 40
0.0
 40
0.0
 40
0.0
 40
0.0
 40
0.1666666666666667
 40
0.1666666666666667
 40
0.1666666666666667
 40
0.1666666666666667
 40
0.3333333333333333
 40
0.3333333333333333
 40
0.3333333333333333
 40
0.3333333333333333
 40
0.5
 40
0.5
 40
0.5
 40
0.5
 40
0.6666666666666666
 40
0.6666666666666666
 40
0.6666666666666666
 40
0.6666666666666666
 40
0.8333333333333333
 40
0.8333333333333333
 40
0.8333333333333333
 40
0.8333333333333333
 40
1.0
 40
1.0
 40
1.0
 40
1.0
 10
-7.81508
 20
5.14555
 30
0.0
 10
-7.97752
 20
4.66215
 30
0.0
 10
-8.09601
 20
4.14359
 30
0.0
 10
-8.11777
 20
3.54761
 30
0.0
 10
-8.11777
 20
3.54761
 30
0.0
 10
-8.11777
 20
3.54761
 30
0.0
 10
-7.46094
 20
2.85504
 30
0.0
 10
-7.46094
 20
2.85504
 30
0.0
 10
-7.46094
 20
2.85504
 30
0.0
 10
-7.46094
 20
2.85504
 30
0.0
 10
-6.70069
 20
3.50483
 30
0.0
 10
-6.70069
 20
3.50483
 30
0.0
 10
-6.70069
 20
3.50483
 30
0.0
 10
-6.64268
 20
3.37169
 30
0.0
 10
-6.6496
 20
3.18289
 30
0.0
 10
-6.6747
 20
2.9785
 30
0.0
 10
-6.6747
 20
2.9785
 30
0.0
 10
-6.6747
 20
2.9785
 30
0.0
 10
-6.12887
 20
3.49183
 30
0.0
 10
-6.12887
 20
3.49183
 30
0.0
 10
-6.12887
 20
3.49183
 30
0.0
 10
-6.64632
 20
4.1387
 30
0.0
 10
-7.19916
 20
4.70973
 30
0.0
 10
-7.81508
 20
5.14555
 30
0.0
  0
SPLINE
  5
9C
330
1F
100
AcDbEntity
  8
layer 1
 62
     7
100
AcDbSpline
210
0.0
220
0.0
230
1.0
 70
    11
 71
     3
 72
    36
 73
    32
 74
     0
 42
0.0000000001
 43
0.0000000001
 40
0.0
 40
0.0
 40
0.0
 40
0.0
 40
0.125
 40
0.125
 40
0.125
 40
0.125
 40
0.25
 40
0.25
 40
0.25
 40
0.25
 40
0.375
 40
0.375
 40
0.375
 40
0.375
 40
0.5
 40
0.5
 40
0.5
 40
0.5
 40
0.625
 40
0.625
 40
0.625
 40
0.625
 40
0.75
 40
0.75
 40
0.75
 40
0.75
 40
0.875
 40
0.875
 40
0.875
 40
0.875
 40
1.0
 40
1.0
 40
1.0
 40
1.0
 10
-9.62197
 20
1.83932
 30
0.0
 10
-9.62197
 20
1.83932
 30
0.0
 10
-9.3486
 20
1.67047
 30
0.0
 10
-9.3486
 20
1.67047
 30
0.0
 10
-9.3486
 20
1.67047
 30
0.0
 10
-9.37797
 20
1.72998
 30
0.0
 10
-9.36993
 20
1.77288
 30
0.0
 10
-9.32448
 20
1.79911
 30
0.0
 10
-9.32448
 20
1.79911
 30
0.0
 10
-9.13553
 20
2.00682
 30
0.0
 10
-8.91442
 20
2.03764
 30
0.0
 10
-8.66115
 20
1.89158
 30
0.0
 10
-8.66115
 20
1.89158
 30
0.0
 10
-8.34367
 20
1.98472
 30
0.0
 10
-8.01677
 20
2.02001
 30
0.0
 10
-7.62395
 20
1.65037
 30
0.0
 10
-7.62395
 20
1.65037
 30
0.0
 10
-7.71927
 20
2.10899
 30
0.0
 10
-7.70287
 20
2.49828
 30
0.0
 10
-7.48726
 20
2.76395
 30
0.0
 10
-7.48726
 20
2.76395
 30
0.0
 10
-7.48726
 20
2.76395
 30
0.0
 10
-8.13049
 20
3.41924
 30
0.0
 10
-8.13049
 20
3.41924
 30
0.0
 10
-8.13049
 20
3.41924
 30
0.0
 10
-8.13049
 20
3.41924
 30
0.0
 10
-8.23903
 20
3.42326
 30
0.0
 10
-8.23903
 20
3.42326
 30
0.0
 10
-8.23903
 20
3.42326
 30
0.0
 10
-9.0123
 20
3.09283
 30
0.0
 10
-9.37467
 20
2.50246
 30
0.0
 10
-9.62197
 20
1.83932
 30
0.0
  0
SPLINE
  5
9D
330
1F
100
AcDbEntity
  8
layer 1
 62
     7
100
AcDbSpline
210
0.0
220
0.0
230
1.0
 70
    11
 71
     3
 72
    20
 73
    16
 74
     0
 42
0.0000000001
 43
0.0000000001
 40
0.0
 40
0.0
 40
0.0
 40
0.0
 40
0.25
 40
0.25
 40
0.25
 40
0.25
 40
0.5
 40
0.5
 40
0.5
 40
0.5
 40
0.75
 40
0.75
 40
0.75
 40
0.75
 40
1.0
 40
1.0
 40
1.0
 40
1.0
 10
-7.48044
 20
0.28187
 30
0.0
 10
-7.30462
 20
0.28187
 30
0.0
 10
-7.16204
 20
0.1422
 30
0.0
 10
-7.16204
 20
-0.03003
 30
0.0
 10
-7.16204
 20
-0.03003
 30
0.0
 10
-7.16204
 20
-0.20225
 30
0.0
 10
-7.30462
 20
-0.34193
 30
0.0
 10
-7.48044
 20
-0.34193
 30
0.0
 10
-7.48044
 20
-0.34193
 30
0.0
 10
-7.65625
 20
-0.34193
 30
0.0
 10
-7.79883
 20
-0.20225
 30
0.0
 10
-7.79883
 20
-0.03003
 30
0.0
 10
-7.79883
 20
-0.03003
 30
0.0
 10
-7.79883
 20
0.1422
 30
0.0
 10
-7.65625
 20
0.28187
 30
0.0
 10
-7.48044
 20
0.28187
 30
0.0
  0
SPLINE
  5
9E
330
1F
100
AcDbEntity
  8
layer 1
 62
     7
100
AcDbSpline
210
0.0
220
0.0
230
1.0
 70
    11
 71
     3
 72
    12
 73
     8
 74
     0
 42
0.0000000001
 43
0.0000000001
 40
0.0
 40
0.0
 40
0.0
 40
0.0
 40
0.5
 40
0.5
 40
0.5
 40
0.5
 40
1.0
 40
1.0
 40
1.0
 40
1.0
 10
-7.48423
 20
-0.62675
 30
0.0
 10
-7.50253
 20
-0.72734
 30
0.0
 10
-7.48203
 20
-0.80204
 30
0.0
 10
-7.43495
 20
-0.85905
 30
0.0
 10
-7.43495
 20
-0.85905
 30
0.0
 10
-7.4225
 20
-0.75396
 30
0.0
 10
-7.43848
 20
-0.67662
 30
0.0
 10
-7.48423
 20
-0.62675
 30
0.0
  0
SPLINE
  5
9F
330
1F
100
AcDbEntity
  8
layer 1
 62
     7
100
AcDbSpline
210
0.0
220
0.0
230
1.0
 70
    11
 71
     3
 72
    12
 73
     8
 74
     0
 42
0.0000000001
 43
0.0000000001
 40
0.0
 40
0.0
 40
0.0
 40
0.0
 40
0.5
 40
0.5
 40
0.5
 40
0.5
 40
1.0
 40
1.0
 40
1.0
 40
1.0
 10
-8.24448
 20
0.3658
 30
0.0
 10
-8.17597
 20
0.29822
 30
0.0
 10
-8.09438
 20
0.24372
 30
0.0
 10
-7.98402
 20
0.21798
 30
0.0
 10
-7.98402
 20
0.21798
 30
0.0
 10
-8.05418
 20
0.2867
 30
0.0
 10
-8.14296
 20
0.33369
 30
0.0
 10
-8.24448
 20
0.3658
 30
0.0
  0
SPLINE
  5
A0
330
1F
100
AcDbEntity
  8
layer 1
 62
     7
100
AcDbSpline
210
0.0
220
0.0
230
1.0
 70
    11
 71
     3
 72
    12
 73
     8
 74
     0
 42
0.0000000001
 43
0.0000000001
 40
0.0
 40
0.0
 40
0.0
 40
0.0
 40
0.5
 40
0.5
 40
0.5
 40
0.5
 40
1.0
 40
1.0
 40
1.0
 40
1.0
 10
-7.42791
 20
0.74593
 30
0.0
 10
-7.40972
 20
0.67554
 30
0.0
 10
-7.40788
 20
0.60516
 30
0.0
 10
-7.44199
 20
0.53475
 30
0.0
 10
-7.44199
 20
0.53475
 30
0.0
 10
-7.46229
 20
0.60515
 30
0.0
 10
-7.45466
 20
0.67554
 30
0.0
 10
-7.42791
 20
0.74593
 30
0.0
  0
SPLINE
  5
A1
330
1F
100
AcDbEntity
  8
layer 1
 62
     7
100
AcDbSpline
210
0.0
220
0.0
230
1.0
 70
    11
 71
     3
 72
    12
 73
     8
 74
     0
 42
0.0000000001
 43
0.0000000001
 40
0.0
 40
0.0
 40
0.0
 40
0.0
 40
0.5
 40
0.5
 40
0.5
 40
0.5
 40
1.0
 40
1.0
 40
1.0
 40
1.0
 10
-6.99147
 20
-0.0284
 30
0.0
 10
-6.89224
 20
-0.00019
 30
0.0
 10
-6.81476
 20
-0.00614
 30
0.0
 10
-6.75213
 20
-0.03544
 30
0.0
 10
-6.75213
 20
-0.03544
 30
0.0
 10
-6.82358
 20
-0.04975
 30
0.0
 10
-6.90435
 20
-0.04544
 30
0.0
 10
-6.99147
 20
-0.0284
 30
0.0
  0
SPLINE
  5
A2
330
1F
100
AcDbEntity
  8
layer 1
 62
     7
100
AcDbSpline
210
0.0
220
0.0
230
1.0
 70
    11
 71
     3
 72
    20
 73
    16
 74
     0
 42
0.0000000001
 43
0.0000000001
 40
0.0
 40
0.0
 40
0.0
 40
0.0
 40
0.25
 40
0.25
 40
0.25
 40
0.25
 40
0.5
 40
0.5
 40
0.5
 40
0.5
 40
0.75
 40
0.75
 40
0.75
 40
0.75
 40
1.0
 40
1.0
 40
1.0
 40
1.0
 10
-7.33249
 20
-3.99394
 30
0.0
 10
-6.81375
 20
-3.65199
 30
0.0
 10
-6.31351
 20
-3.24846
 30
0.0
 10
-5.84302
 20
-2.74568
 30
0.0
 10
-5.84302
 20
-2.74568
 30
0.0
 10
-6.14253
 20
-2.53865
 30
0.0
 10
-6.44203
 20
-2.5085
 30
0.0
 10
-6.74152
 20
-2.65523
 30
0.0
 10
-6.74152
 20
-2.65523
 30
0.0
 10
-7.03293
 20
-2.90662
 30
0.0
 10
-7.3284
 20
-3.14594
 30
0.0
 10
-7.65209
 20
-3.30046
 30
0.0
 10
-7.65209
 20
-3.30046
 30
0.0
 10
-7.51234
 20
-3.48419
 30
0.0
 10
-7.41773
 20
-3.73238
 30
0.0
 10
-7.33249
 20
-3.99394
 30
0.0
  0
SPLINE
  5
A3
330
1F
100
AcDbEntity
  8
layer 1
 62
     7
100
AcDbSpline
210
0.0
220
0.0
230
1.0
 70
    11
 71
     3
 72
   152
 73
   148
 74
     0
 42
0.0000000001
 43
0.0000000001
 40
0.0
 40
0.0
 40
0.0
 40
0.0
 40
0.027027027027027
 40
0.027027027027027
 40
0.027027027027027
 40
0.027027027027027
 40
0.0540540540540541
 40
0.0540540540540541
 40
0.0540540540540541
 40
0.0540540540540541
 40
0.0810810810810811
 40
0.0810810810810811
 40
0.0810810810810811
 40
0.0810810810810811
 40
0.1081081081081081
 40
0.1081081081081081
 40
0.1081081081081081
 40
0.1081081081081081
 40
0.1351351351351351
 40
0.1351351351351351
 40
0.1351351351351351
 40
0.1351351351351351
 40
0.1621621621621622
 40
0.1621621621621622
 40
0.1621621621621622
 40
0.1621621621621622
 40
0.1891891891891892
 40
0.1891891891891892
 40
0.1891891891891892
 40
0.1891891891891892
 40
0.2162162162162162
 40
0.2162162162162162
 40
0.2162162162162162
 40
0.2162162162162162
 40
0.2432432432432433
 40
0.2432432432432433
 40
0.2432432432432433
 40
0.2432432432432433
 40
0.2702702702702703
 40
0.2702702702702703
 40
0.2702702702702703
 40
0.2702702702702703
 40
0.2972972972972973
 40
0.2972972972972973
 40
0.2972972972972973
 40
0.2972972972972973
 40
0.3243243243243243
 40
0.3243243243243243
 40
0.3243243243243243
 40
0.3243243243243243
 40
0.3513513513513514
 40
0.3513513513513514
 40
0.3513513513513514
 40
0.3513513513513514
 40
0.3783783783783784
 40
0.3783783783783784
 40
0.3783783783783784
 40
0.3783783783783784
 40
0.4054054054054054
 40
0.4054054054054054
 40
0.4054054054054054
 40
0.4054054054054054
 40
0.4324324324324325
 40
0.4324324324324325
 40
0.4324324324324325
 40
0.4324324324324325
 40
0.4594594594594595
 40
0.4594594594594595
 40
0.4594594594594595
 40
0.4594594594594595
 40
0.4864864864864865
 40
0.4864864864864865
 40
0.4864864864864865
 40
0.4864864864864865
 40
0.5135135135135135
 40
0.5135135135135135
 40
0.5135135135135135
 40
0.5135135135135135
 40
0.5405405405405405
 40
0.5405405405405405
 40
0.5405405405405405
 40
0.5405405405405405
 40
0.5675675675675674
 40
0.5675675675675674
 40
0.5675675675675674
 40
0.5675675675675674
 40
0.5945945945945944
 40
0.5945945945945944
 40
0.5945945945945944
 40
0.5945945945945944
 40
0.6216216216216214
 40
0.6216216216216214
 40
0.6216216216216214
 40
0.6216216216216214
 40
0.6486486486486484
 40
0.6486486486486484
 40
0.6486486486486484
 40
0.6486486486486484
 40
0.6756756756756753
 40
0.6756756756756753
 40
0.6756756756756753
 40
0.6756756756756753
 40
0.7027027027027023
 40
0.7027027027027023
 40
0.7027027027027023
 40
0.7027027027027023
 40
0.7297297297297293
 40
0.7297297297297293
 40
0.7297297297297293
 40
0.7297297297297293
 40
0.7567567567567562
 40
0.7567567567567562
 40
0.7567567567567562
 40
0.7567567567567562
 40
0.7837837837837832
 40
0.7837837837837832
 40
0.7837837837837832
 40
0.7837837837837832
 40
0.8108108108108102
 40
0.8108108108108102
 40
0.8108108108108102
 40
0.8108108108108102
 40
0.8378378378378372
 40
0.8378378378378372
 40
0.8378378378378372
 40
0.8378378378378372
 40
0.8648648648648641
 40
0.8648648648648641
 40
0.8648648648648641
 40
0.8648648648648641
 40
0.8918918918918911
 40
0.8918918918918911
 40
0.8918918918918911
 40
0.8918918918918911
 40
0.9189189189189181
 40
0.9189189189189181
 40
0.9189189189189181
 40
0.9189189189189181
 40
0.945945945945945
 40
0.945945945945945
 40
0.945945945945945
 40
0.945945945945945
 40
0.972972972972972
 40
0.972972972972972
 40
0.972972972972972
 40
0.972972972972972
 40
1.0
 40
1.0
 40
1.0
 40
1.0
 10
-9.4493
 20
-2.42125
 30
0.0
 10
-9.4493
 20
-2.42125
 30
0.0
 10
-9.07892
 20
-2.21332
 30
0.0
 10
-9.07892
 20
-2.21332
 30
0.0
 10
-9.07892
 20
-2.21332
 30
0.0
 10
-9.13744
 20
-2.33213
 30
0.0
 10
-9.15031
 20
-2.47699
 30
0.0
 10
-9.15039
 20
-2.62918
 30
0.0
 10
-9.15039
 20
-2.62918
 30
0.0
 10
-8.81793
 20
-1.92805
 30
0.0
 10
-8.40323
 20
-1.34204
 30
0.0
 10
-7.69487
 20
-1.16716
 30
0.0
 10
-7.69487
 20
-1.16716
 30
0.0
 10
-7.69487
 20
-1.16716
 30
0.0
 10
-7.64995
 20
-1.22352
 30
0.0
 10
-7.64995
 20
-1.22352
 30
0.0
 10
-7.64995
 20
-1.22352
 30
0.0
 10
-7.64995
 20
-1.22352
 30
0.0
 10
-7.59553
 20
-1.21858
 30
0.0
 10
-7.59553
 20
-1.21858
 30
0.0
 10
-7.59553
 20
-1.21858
 30
0.0
 10
-7.59553
 20
-1.21858
 30
0.0
 10
-7.57904
 20
-1.27794
 30
0.0
 10
-7.57904
 20
-1.27794
 30
0.0
 10
-7.57904
 20
-1.27794
 30
0.0
 10
-7.57904
 20
-1.27794
 30
0.0
 10
-7.51142
 20
-1.25486
 30
0.0
 10
-7.51142
 20
-1.25486
 30
0.0
 10
-7.51142
 20
-1.25486
 30
0.0
 10
-7.51142
 20
-1.25486
 30
0.0
 10
-7.48339
 20
-1.32247
 30
0.0
 10
-7.48339
 20
-1.32247
 30
0.0
 10
-7.48339
 20
-1.32247
 30
0.0
 10
-7.48339
 20
-1.32247
 30
0.0
 10
-7.39929
 20
-1.30598
 30
0.0
 10
-7.39929
 20
-1.30598
 30
0.0
 10
-7.39929
 20
-1.30598
 30
0.0
 10
-7.39929
 20
-1.30598
 30
0.0
 10
-7.39269
 20
-1.35215
 30
0.0
 10
-7.39269
 20
-1.35215
 30
0.0
 10
-7.39269
 20
-1.35215
 30
0.0
 10
-7.39269
 20
-1.35215
 30
0.0
 10
-7.2888
 20
-1.3538
 30
0.0
 10
-7.2888
 20
-1.3538
 30
0.0
 10
-7.2888
 20
-1.3538
 30
0.0
 10
-7.2888
 20
-1.3538
 30
0.0
 10
-7.2756
 20
-1.40657
 30
0.0
 10
-7.2756
 20
-1.40657
 30
0.0
 10
-7.2756
 20
-1.40657
 30
0.0
 10
-7.2756
 20
-1.40657
 30
0.0
 10
-7.18161
 20
-1.40822
 30
0.0
 10
-7.18161
 20
-1.40822
 30
0.0
 10
-7.18161
 20
-1.40822
 30
0.0
 10
-7.18161
 20
-1.40822
 30
0.0
 10
-7.18148
 20
-1.34782
 30
0.0
 10
-7.18148
 20
-1.34782
 30
0.0
 10
-7.18148
 20
-1.34782
 30
0.0
 10
-7.18148
 20
-1.34782
 30
0.0
 10
-7.14725
 20
-1.33728
 30
0.0
 10
-7.14725
 20
-1.33728
 30
0.0
 10
-7.14725
 20
-1.33728
 30
0.0
 10
-7.14725
 20
-1.33728
 30
0.0
 10
-7.14725
 20
-1.25828
 30
0.0
 10
-7.14725
 20
-1.25828
 30
0.0
 10
-7.14725
 20
-1.25828
 30
0.0
 10
-7.14725
 20
-1.25828
 30
0.0
 10
-7.12091
 20
-1.17927
 30
0.0
 10
-7.12091
 20
-1.17927
 30
0.0
 10
-7.12091
 20
-1.17927
 30
0.0
 10
-7.12091
 20
-1.17927
 30
0.0
 10
-7.08667
 20
-1.17663
 30
0.0
 10
-7.08667
 20
-1.17663
 30
0.0
 10
-7.08667
 20
-1.17663
 30
0.0
 10
-7.08667
 20
-1.17663
 30
0.0
 10
-7.11301
 20
-1.06602
 30
0.0
 10
-7.11301
 20
-1.06602
 30
0.0
 10
-7.11301
 20
-1.06602
 30
0.0
 10
-6.7256
 20
-1.23174
 30
0.0
 10
-6.38748
 20
-1.48622
 30
0.0
 10
-6.22546
 20
-2.05767
 30
0.0
 10
-6.22546
 20
-2.05767
 30
0.0
 10
-6.22185
 20
-2.1575
 30
0.0
 10
-6.16691
 20
-2.25734
 30
0.0
 10
-6.09107
 20
-2.35716
 30
0.0
 10
-6.09107
 20
-2.35716
 30
0.0
 10
-6.90071
 20
-1.97012
 30
0.0
 10
-7.63409
 20
-2.02317
 30
0.0
 10
-8.19963
 20
-3.04438
 30
0.0
 10
-8.19963
 20
-3.04438
 30
0.0
 10
-8.19963
 20
-3.04438
 30
0.0
 10
-8.54296
 20
-3.6072
 30
0.0
 10
-8.54296
 20
-3.6072
 30
0.0
 10
-8.54296
 20
-3.6072
 30
0.0
 10
-8.54296
 20
-3.6072
 30
0.0
 10
-8.30271
 20
-3.53978
 30
0.0
 10
-8.30271
 20
-3.53978
 30
0.0
 10
-8.30271
 20
-3.53978
 30
0.0
 10
-8.30271
 20
-3.53978
 30
0.0
 10
-8.24512
 20
-3.50906
 30
0.0
 10
-8.24512
 20
-3.50906
 30
0.0
 10
-8.24512
 20
-3.50906
 30
0.0
 10
-8.24512
 20
-3.50906
 30
0.0
 10
-8.16449
 20
-3.50138
 30
0.0
 10
-8.16449
 20
-3.50138
 30
0.0
 10
-8.16449
 20
-3.50138
 30
0.0
 10
-8.16449
 20
-3.50138
 30
0.0
 10
-8.12993
 20
-3.46298
 30
0.0
 10
-8.12993
 20
-3.46298
 30
0.0
 10
-8.12993
 20
-3.46298
 30
0.0
 10
-8.12993
 20
-3.46298
 30
0.0
 10
-8.03778
 20
-3.46298
 30
0.0
 10
-8.03778
 20
-3.46298
 30
0.0
 10
-8.03778
 20
-3.46298
 30
0.0
 10
-8.03778
 20
-3.46298
 30
0.0
 10
-7.93411
 20
-3.40539
 30
0.0
 10
-7.93411
 20
-3.40539
 30
0.0
 10
-7.93411
 20
-3.40539
 30
0.0
 10
-7.93411
 20
-3.40539
 30
0.0
 10
-7.82542
 20
-3.39622
 30
0.0
 10
-7.82542
 20
-3.39622
 30
0.0
 10
-7.82542
 20
-3.39622
 30
0.0
 10
-7.82542
 20
-3.39622
 30
0.0
 10
-7.82725
 20
-3.36695
 30
0.0
 10
-7.82725
 20
-3.36695
 30
0.0
 10
-7.82725
 20
-3.36695
 30
0.0
 10
-7.82725
 20
-3.36695
 30
0.0
 10
-7.76322
 20
-3.36329
 30
0.0
 10
-7.76322
 20
-3.36329
 30
0.0
 10
-7.76322
 20
-3.36329
 30
0.0
 10
-7.76322
 20
-3.36329
 30
0.0
 10
-7.75773
 20
-3.29011
 30
0.0
 10
-7.75773
 20
-3.29011
 30
0.0
 10
-7.75773
 20
-3.29011
 30
0.0
 10
-7.75773
 20
-3.29011
 30
0.0
 10
-7.45607
 20
-4.07605
 30
0.0
 10
-7.45607
 20
-4.07605
 30
0.0
 10
-7.45607
 20
-4.07605
 30
0.0
 10
-7.45607
 20
-4.07605
 30
0.0
 10
-8.4627
 20
-4.77999
 30
0.0
 10
-8.4627
 20
-4.77999
 30
0.0
 10
-8.4627
 20
-4.77999
 30
0.0
 10
-9.07405
 20
-4.29667
 30
0.0
 10
-9.23359
 20
-3.55517
 30
0.0
 10
-9.18776
 20
-2.69633
 30
0.0
 10
-9.18776
 20
-2.69633
 30
0.0
 10
-9.18776
 20
-2.69633
 30
0.0
 10
-9.4493
 20
-2.42125
 30
0.0
 10
-9.4493
 20
-2.42125
 30
0.0
  0
SPLINE
  5
A4
330
1F
100
AcDbEntity
  8
layer 1
 62
     7
100
AcDbSpline
210
0.0
220
0.0
230
1.0
 70
    11
 71
     3
 72
   160
 73
   156
 74
     0
 42
0.0000000001
 43
0.0000000001
 40
0.0
 40
0.0
 40
0.0
 40
0.0
 40
0.0256410256410256
 40
0.0256410256410256
 40
0.0256410256410256
 40
0.0256410256410256
 40
0.0512820512820513
 40
0.0512820512820513
 40
0.0512820512820513
 40
0.0512820512820513
 40
0.0769230769230769
 40
0.0769230769230769
 40
0.0769230769230769
 40
0.0769230769230769
 40
0.1025641025641026
 40
0.1025641025641026
 40
0.1025641025641026
 40
0.1025641025641026
 40
0.1282051282051282
 40
0.1282051282051282
 40
0.1282051282051282
 40
0.1282051282051282
 40
0.1538461538461539
 40
0.1538461538461539
 40
0.1538461538461539
 40
0.1538461538461539
 40
0.1794871794871795
 40
0.1794871794871795
 40
0.1794871794871795
 40
0.1794871794871795
 40
0.2051282051282051
 40
0.2051282051282051
 40
0.2051282051282051
 40
0.2051282051282051
 40
0.2307692307692308
 40
0.2307692307692308
 40
0.2307692307692308
 40
0.2307692307692308
 40
0.2564102564102564
 40
0.2564102564102564
 40
0.2564102564102564
 40
0.2564102564102564
 40
0.282051282051282
 40
0.282051282051282
 40
0.282051282051282
 40
0.282051282051282
 40
0.3076923076923077
 40
0.3076923076923077
 40
0.3076923076923077
 40
0.3076923076923077
 40
0.3333333333333334
 40
0.3333333333333334
 40
0.3333333333333334
 40
0.3333333333333334
 40
0.358974358974359
 40
0.358974358974359
 40
0.358974358974359
 40
0.358974358974359
 40
0.3846153846153847
 40
0.3846153846153847
 40
0.3846153846153847
 40
0.3846153846153847
 40
0.4102564102564104
 40
0.4102564102564104
 40
0.4102564102564104
 40
0.4102564102564104
 40
0.435897435897436
 40
0.435897435897436
 40
0.435897435897436
 40
0.435897435897436
 40
0.4615384615384617
 40
0.4615384615384617
 40
0.4615384615384617
 40
0.4615384615384617
 40
0.4871794871794873
 40
0.4871794871794873
 40
0.4871794871794873
 40
0.4871794871794873
 40
0.512820512820513
 40
0.512820512820513
 40
0.512820512820513
 40
0.512820512820513
 40
0.5384615384615387
 40
0.5384615384615387
 40
0.5384615384615387
 40
0.5384615384615387
 40
0.5641025641025643
 40
0.5641025641025643
 40
0.5641025641025643
 40
0.5641025641025643
 40
0.58974358974359
 40
0.58974358974359
 40
0.58974358974359
 40
0.58974358974359
 40
0.6153846153846156
 40
0.6153846153846156
 40
0.6153846153846156
 40
0.6153846153846156
 40
0.6410256410256413
 40
0.6410256410256413
 40
0.6410256410256413
 40
0.6410256410256413
 40
0.666666666666667
 40
0.666666666666667
 40
0.666666666666667
 40
0.666666666666667
 40
0.6923076923076926
 40
0.6923076923076926
 40
0.6923076923076926
 40
0.6923076923076926
 40
0.7179487179487183
 40
0.7179487179487183
 40
0.7179487179487183
 40
0.7179487179487183
 40
0.743589743589744
 40
0.743589743589744
 40
0.743589743589744
 40
0.743589743589744
 40
0.7692307692307696
 40
0.7692307692307696
 40
0.7692307692307696
 40
0.7692307692307696
 40
0.7948717948717953
 40
0.7948717948717953
 40
0.7948717948717953
 40
0.7948717948717953
 40
0.8205128205128209
 40
0.8205128205128209
 40
0.8205128205128209
 40
0.8205128205128209
 40
0.8461538461538466
 40
0.8461538461538466
 40
0.8461538461538466
 40
0.8461538461538466
 40
0.8717948717948723
 40
0.8717948717948723
 40
0.8717948717948723
 40
0.8717948717948723
 40
0.8974358974358979
 40
0.8974358974358979
 40
0.8974358974358979
 40
0.8974358974358979
 40
0.9230769230769236
 40
0.9230769230769236
 40
0.9230769230769236
 40
0.9230769230769236
 40
0.9487179487179492
 40
0.9487179487179492
 40
0.9487179487179492
 40
0.9487179487179492
 40
0.9743589743589749
 40
0.9743589743589749
 40
0.9743589743589749
 40
0.9743589743589749
 40
1.0
 40
1.0
 40
1.0
 40
1.0
 10
-9.63774
 20
1.7309
 30
0.0
 10
-9.70007
 20
1.55716
 30
0.0
 10
-9.69748
 20
1.31848
 30
0.0
 10
-9.67672
 20
1.06162
 30
0.0
 10
-9.67672
 20
1.06162
 30
0.0
 10
-10.721
 20
0.13748
 30
0.0
 10
-10.68855
 20
-1.17959
 30
0.0
 10
-9.54677
 20
-2.34436
 30
0.0
 10
-9.54677
 20
-2.34436
 30
0.0
 10
-9.41077
 20
-2.24288
 30
0.0
 10
-9.27125
 20
-2.16604
 30
0.0
 10
-9.12657
 20
-2.12523
 30
0.0
 10
-9.12657
 20
-2.12523
 30
0.0
 10
-8.90364
 20
-1.49233
 30
0.0
 10
-8.47319
 20
-1.12624
 30
0.0
 10
-7.83522
 20
-1.02698
 30
0.0
 10
-7.83522
 20
-1.02698
 30
0.0
 10
-7.90384
 20
-0.76335
 30
0.0
 10
-7.87166
 20
-0.60646
 30
0.0
 10
-7.73867
 20
-0.5563
 30
0.0
 10
-7.73867
 20
-0.5563
 30
0.0
 10
-7.74042
 20
-0.53027
 30
0.0
 10
-7.94491
 20
-0.60071
 30
0.0
 10
-7.94083
 20
-0.53251
 30
0.0
 10
-7.94083
 20
-0.53251
 30
0.0
 10
-7.94083
 20
-0.53251
 30
0.0
 10
-7.93835
 20
-0.49112
 30
0.0
 10
-7.93835
 20
-0.49112
 30
0.0
 10
-7.93835
 20
-0.49112
 30
0.0
 10
-7.93835
 20
-0.49112
 30
0.0
 10
-8.08534
 20
-0.49733
 30
0.0
 10
-8.08534
 20
-0.49733
 30
0.0
 10
-8.08534
 20
-0.49733
 30
0.0
 10
-8.08534
 20
-0.49733
 30
0.0
 10
-8.09693
 20
-0.45323
 30
0.0
 10
-8.09693
 20
-0.45323
 30
0.0
 10
-8.09693
 20
-0.45323
 30
0.0
 10
-8.09693
 20
-0.45323
 30
0.0
 10
-8.29538
 20
-0.43903
 30
0.0
 10
-8.29538
 20
-0.43903
 30
0.0
 10
-8.29538
 20
-0.43903
 30
0.0
 10
-8.29538
 20
-0.43903
 30
0.0
 10
-8.31513
 20
-0.40117
 30
0.0
 10
-8.31513
 20
-0.40117
 30
0.0
 10
-8.31513
 20
-0.40117
 30
0.0
 10
-8.31513
 20
-0.40117
 30
0.0
 10
-8.44029
 20
-0.41682
 30
0.0
 10
-8.44029
 20
-0.41682
 30
0.0
 10
-8.44029
 20
-0.41682
 30
0.0
 10
-8.44029
 20
-0.41682
 30
0.0
 10
-8.44116
 20
-0.36813
 30
0.0
 10
-8.44116
 20
-0.36813
 30
0.0
 10
-8.44116
 20
-0.36813
 30
0.0
 10
-8.44116
 20
-0.36813
 30
0.0
 10
-8.54727
 20
-0.35113
 30
0.0
 10
-8.54727
 20
-0.35113
 30
0.0
 10
-8.54727
 20
-0.35113
 30
0.0
 10
-8.54727
 20
-0.35113
 30
0.0
 10
-8.87098
 20
-0.36437
 30
0.0
 10
-8.87098
 20
-0.36437
 30
0.0
 10
-8.87098
 20
-0.36437
 30
0.0
 10
-8.87098
 20
-0.36437
 30
0.0
 10
-8.91241
 20
-0.30343
 30
0.0
 10
-8.91241
 20
-0.30343
 30
0.0
 10
-8.91241
 20
-0.30343
 30
0.0
 10
-9.12477
 20
-0.3345
 30
0.0
 10
-9.34865
 20
-0.33101
 30
0.0
 10
-9.58205
 20
-0.29888
 30
0.0
 10
-9.58205
 20
-0.29888
 30
0.0
 10
-9.58205
 20
-0.29888
 30
0.0
 10
-9.80045
 20
-0.29391
 30
0.0
 10
-9.80045
 20
-0.29391
 30
0.0
 10
-9.80045
 20
-0.29391
 30
0.0
 10
-9.80045
 20
-0.29391
 30
0.0
 10
-9.95433
 20
-0.22939
 30
0.0
 10
-9.95433
 20
-0.22939
 30
0.0
 10
-9.95433
 20
-0.22939
 30
0.0
 10
-9.95433
 20
-0.22939
 30
0.0
 10
-10.21244
 20
0.06347
 30
0.0
 10
-10.21244
 20
0.06347
 30
0.0
 10
-10.21244
 20
0.06347
 30
0.0
 10
-9.94278
 20
0.0687
 30
0.0
 10
-9.68561
 20
0.05398
 30
0.0
 10
-9.46292
 20
-0.01595
 30
0.0
 10
-9.46292
 20
-0.01595
 30
0.0
 10
-9.15461
 20
0.09861
 30
0.0
 10
-8.85353
 20
0.0105
 30
0.0
 10
-8.55843
 20
-0.24556
 30
0.0
 10
-8.55843
 20
-0.24556
 30
0.0
 10
-8.55843
 20
-0.24556
 30
0.0
 10
-8.44765
 20
0.08151
 30
0.0
 10
-8.44765
 20
0.08151
 30
0.0
 10
-8.44765
 20
0.08151
 30
0.0
 10
-8.58826
 20
0.20292
 30
0.0
 10
-8.6797
 20
0.36646
 30
0.0
 10
-8.72197
 20
0.57213
 30
0.0
 10
-8.72197
 20
0.57213
 30
0.0
 10
-8.26477
 20
0.70798
 30
0.0
 10
-7.94473
 20
0.68952
 30
0.0
 10
-7.82514
 20
0.44552
 30
0.0
 10
-7.82514
 20
0.44552
 30
0.0
 10
-7.83043
 20
0.79151
 30
0.0
 10
-7.72141
 20
1.0632
 30
0.0
 10
-7.44531
 20
1.22628
 30
0.0
 10
-7.44531
 20
1.22628
 30
0.0
 10
-7.44781
 20
1.23016
 30
0.0
 10
-7.45037
 20
1.23396
 30
0.0
 10
-7.45289
 20
1.2378
 30
0.0
 10
-7.45289
 20
1.2378
 30
0.0
 10
-7.3492
 20
1.15823
 30
0.0
 10
-7.2894
 20
1.07868
 30
0.0
 10
-7.27355
 20
0.9991
 30
0.0
 10
-7.27355
 20
0.9991
 30
0.0
 10
-6.37273
 20
0.77497
 30
0.0
 10
-6.00159
 20
0.30836
 30
0.0
 10
-5.95896
 20
-0.36775
 30
0.0
 10
-5.95896
 20
-0.36775
 30
0.0
 10
-5.74988
 20
0.10005
 30
0.0
 10
-5.40244
 20
0.46314
 30
0.0
 10
-4.67251
 20
0.53678
 30
0.0
 10
-4.67251
 20
0.53678
 30
0.0
 10
-4.83133
 20
1.7202
 30
0.0
 10
-5.37654
 20
2.63612
 30
0.0
 10
-6.1861
 20
3.36899
 30
0.0
 10
-6.1861
 20
3.36899
 30
0.0
 10
-6.1861
 20
3.36899
 30
0.0
 10
-6.80118
 20
2.85039
 30
0.0
 10
-6.80118
 20
2.85039
 30
0.0
 10
-6.80118
 20
2.85039
 30
0.0
 10
-6.8278
 20
2.46571
 30
0.0
 10
-7.04791
 20
2.17777
 30
0.0
 10
-7.35597
 20
1.93379
 30
0.0
 10
-7.35597
 20
1.93379
 30
0.0
 10
-7.5256
 20
1.79338
 30
0.0
 10
-7.56073
 20
1.58175
 30
0.0
 10
-7.51668
 20
1.32821
 30
0.0
 10
-7.51668
 20
1.32821
 30
0.0
 10
-7.78587
 20
1.68328
 30
0.0
 10
-8.14365
 20
1.83749
 30
0.0
 10
-8.59008
 20
1.79075
 30
0.0
 10
-8.59008
 20
1.79075
 30
0.0
 10
-8.51938
 20
1.34696
 30
0.0
 10
-8.84481
 20
1.15623
 30
0.0
 10
-9.28116
 20
1.03637
 30
0.0
 10
-9.28116
 20
1.03637
 30
0.0
 10
-9.34637
 20
1.09203
 30
0.0
 10
-9.43505
 20
1.10546
 30
0.0
 10
-9.53439
 20
1.09967
 30
0.0
 10
-9.53439
 20
1.09967
 30
0.0
 10
-9.50637
 20
1.27159
 30
0.0
 10
-9.47597
 20
1.44308
 30
0.0
 10
-9.42888
 20
1.61139
 30
0.0
 10
-9.42888
 20
1.61139
 30
0.0
 10
-9.42888
 20
1.61139
 30
0.0
 10
-9.63774
 20
1.7309
 30
0.0
 10
-9.63774
 20
1.7309
 30
0.0
  0
ENDSEC
  0
SECTION
  2
OBJECTS
  0
DICTIONARY
  5
C
330
0
100
AcDbDictionary
281
     1
  3
ACAD_GROUP
350
D
  3
ACAD_LAYOUT
350
1A
  3
ACAD_MLEADERSTYLE
350
A6
  3
ACAD_MLINESTYLE
350
17
  3
ACAD_PLOTSETTINGS
350
19
  3
ACAD_PLOTSTYLENAME
350
E
  3
ACAD_SCALELIST
350
3B
  3
ACAD_TABLESTYLE
350
A5
  3
ACAD_VISUALSTYLE
350
2A
  0
DICTIONARY
  5
D
102
{ACAD_REACTORS
330
C
102
}
330
C
100
AcDbDictionary
281
     1
  0
DICTIONARY
  5
1A
102
{ACAD_REACTORS
330
C
102
}
330
C
100
AcDbDictionary
281
     1
  3
Layout1
350
1E
  3
Layout2
350
26
  3
Model
350
22
  0
DICTIONARY
  5
A6
102
{ACAD_REACTORS
330
C
102
}
330
C
100
AcDbDictionary
281
     1
  0
DICTIONARY
  5
17
102
{ACAD_REACTORS
330
C
102
}
330
C
100
AcDbDictionary
281
     1
  3
Standard
350
18
  0
DICTIONARY
  5
19
102
{ACAD_REACTORS
330
C
102
}
330
C
100
AcDbDictionary
281
     1
  0
ACDBDICTIONARYWDFLT
  5
E
102
{ACAD_REACTORS
330
C
102
}
330
C
100
AcDbDictionary
281
     1
  3
Normal
350
F
100
AcDbDictionaryWithDefault
340
F
  0
DICTIONARY
  5
3B
102
{ACAD_REACTORS
330
C
102
}
330
C
100
AcDbDictionary
281
     1
  3
A0
350
3C
  3
A1
350
3D
  3
A2
350
3E
  3
A3
350
3F
  3
A4
350
40
  3
A5
350
41
  3
A6
350
42
  3
A7
350
43
  3
A8
350
44
  3
A9
350
45
  3
B0
350
46
  3
B1
350
47
  3
B2
350
48
  3
B3
350
49
  3
B4
350
4A
  3
B5
350
4B
  3
B6
350
4C
  3
B7
350
4D
  3
B8
350
4E
  3
B9
350
4F
  3
C0
350
50
  3
C1
350
51
  3
C2
350
52
  3
C3
350
53
  3
C4
350
54
  3
C5
350
55
  3
C6
350
56
  3
C7
350
57
  3
C8
350
58
  3
C9
350
59
  3
D0
350
5A
  3
D1
350
5B
  3
D2
350
5C
  0
DICTIONARY
  5
A5
102
{ACAD_REACTORS
330
C
102
}
330
C
100
AcDbDictionary
281
     1
  0
DICTIONARY
  5
2A
102
{ACAD_REACTORS
330
C
102
}
330
C
100
AcDbDictionary
281
     1
  3
2dWireframe
350
2F
  3
3D Hidden
350
31
  3
3dWireframe
350
30
  3
Basic
350
32
  3
Brighten
350
36
  3
ColorChange
350
3A
  3
Conceptual
350
34
  3
Dim
350
35
  3
Facepattern
350
39
  3
Flat
350
2B
  3
FlatWithEdges
350
2C
  3
Gouraud
350
2D
  3
GouraudWithEdges
350
2E
  3
Linepattern
350
38
  3
Realistic
350
33
  3
Thicken
350
37
  0
LAYOUT
  5
1E
102
{ACAD_REACTORS
330
1A
102
}
330
1A
100
AcDbPlotSettings
  1

  2
none_device
  4

  6

 40
0.0
 41
0.0
 42
0.0
 43
0.0
 44
0.0
 45
0.0
 46
0.0
 47
0.0
 48
0.0
 49
0.0
140
0.0
141
0.0
142
1.0
143
1.0
 70
   688
 72
     0
 73
     0
 74
     5
  7

 75
    16
 76
     0
 77
     2
 78
   300
147
1.0
148
0.0
149
0.0
100
AcDbLayout
  1
Layout1
 70
     1
 71
     1
 10
0.0
 20
0.0
 11
12.0
 21
9.0
 12
0.0
 22
0.0
 32
0.0
 14
1.000000000000000E+20
 24
1.000000000000000E+20
 34
1.000000000000000E+20
 15
-1.000000000000000E+20
 25
-1.000000000000000E+20
 35
-1.000000000000000E+20
146
0.0
 13
0.0
 23
0.0
 33
0.0
 16
1.0
 26
0.0
 36
0.0
 17
0.0
 27
1.0
 37
0.0
 76
     0
330
1B
  0
LAYOUT
  5
26
102
{ACAD_REACTORS
330
1A
102
}
330
1A
100
AcDbPlotSettings
  1

  2
none_device
  4

  6

 40
0.0
 41
0.0
 42
0.0
 43
0.0
 44
0.0
 45
0.0
 46
0.0
 47
0.0
 48
0.0
 49
0.0
140
0.0
141
0.0
142
1.0
143
1.0
 70
   688
 72
     0
 73
     0
 74
     5
  7

 75
    16
 76
     0
 77
     2
 78
   300
147
1.0
148
0.0
149
0.0
100
AcDbLayout
  1
Layout2
 70
     1
 71
     2
 10
0.0
 20
0.0
 11
0.0
 21
0.0
 12
0.0
 22
0.0
 32
0.0
 14
0.0
 24
0.0
 34
0.0
 15
0.0
 25
0.0
 35
0.0
146
0.0
 13
0.0
 23
0.0
 33
0.0
 16
1.0
 26
0.0
 36
0.0
 17
0.0
 27
1.0
 37
0.0
 76
     0
330
23
  0
LAYOUT
  5
22
102
{ACAD_REACTORS
330
1A
102
}
330
1A
100
AcDbPlotSettings
  1

  2
none_device
  4

  6

 40
0.0
 41
0.0
 42
0.0
 43
0.0
 44
0.0
 45
0.0
 46
0.0
 47
0.0
 48
0.0
 49
0.0
140
0.0
141
0.0
142
1.0
143
1.0
 70
  1712
 72
     0
 73
     0
 74
     0
  7

 75
     0
 76
     0
 77
     2
 78
   300
147
1.0
148
0.0
149
0.0
100
AcDbLayout
  1
Model
 70
     1
 71
     0
 10
0.0
 20
0.0
 11
12.0
 21
9.0
 12
0.0
 22
0.0
 32
0.0
 14
-12.4477
 24
-10.73131
 34
0.0
 15
11.07458
 25
10.13057
 35
0.0
146
0.0
 13
0.0
 23
0.0
 33
0.0
 16
1.0
 26
0.0
 36
0.0
 17
0.0
 27
1.0
 37
0.0
 76
     0
330
1F
331
29
  0
MLINESTYLE
  5
18
102
{ACAD_REACTORS
330
17
102
}
330
17
100
AcDbMlineStyle
  2
Standard
 70
     0
  3

 62
   256
 51
90.0
 52
90.0
 71
     2
 49
0.5
 62
   256
  6
BYLAYER
 49
-0.5
 62
   256
  6
BYLAYER
  0
ACDBPLACEHOLDER
  5
F
102
{ACAD_REACTORS
330
E
102
}
330
E
  0
SCALE
  5
3C
102
{ACAD_REACTORS
330
3B
102
}
330
3B
100
AcDbScale
 70
     0
300
1:1
140
1.0
141
1.0
290
     1
  0
SCALE
  5
3D
102
{ACAD_REACTORS
330
3B
102
}
330
3B
100
AcDbScale
 70
     0
300
1:2
140
1.0
141
2.0
290
     0
  0
SCALE
  5
3E
102
{ACAD_REACTORS
330
3B
102
}
330
3B
100
AcDbScale
 70
     0
300
1:4
140
1.0
141
4.0
290
     0
  0
SCALE
  5
3F
102
{ACAD_REACTORS
330
3B
102
}
330
3B
100
AcDbScale
 70
     0
300
1:5
140
1.0
141
5.0
290
     0
  0
SCALE
  5
40
102
{ACAD_REACTORS
330
3B
102
}
330
3B
100
AcDbScale
 70
     0
300
1:8
140
1.0
141
8.0
290
     0
  0
SCALE
  5
41
102
{ACAD_REACTORS
330
3B
102
}
330
3B
100
AcDbScale
 70
     0
300
1:10
140
1.0
141
10.0
290
     0
  0
SCALE
  5
42
102
{ACAD_REACTORS
330
3B
102
}
330
3B
100
AcDbScale
 70
     0
300
1:16
140
1.0
141
16.0
290
     0
  0
SCALE
  5
43
102
{ACAD_REACTORS
330
3B
102
}
330
3B
100
AcDbScale
 70
     0
300
1:20
140
1.0
141
20.0
290
     0
  0
SCALE
  5
44
102
{ACAD_REACTORS
330
3B
102
}
330
3B
100
AcDbScale
 70
     0
300
1:30
140
1.0
141
30.0
290
     0
  0
SCALE
  5
45
102
{ACAD_REACTORS
330
3B
102
}
330
3B
100
AcDbScale
 70
     0
300
1:40
140
1.0
141
40.0
290
     0
  0
SCALE
  5
46
102
{ACAD_REACTORS
330
3B
102
}
330
3B
100
AcDbScale
 70
     0
300
1:50
140
1.0
141
50.0
290
     0
  0
SCALE
  5
47
102
{ACAD_REACTORS
330
3B
102
}
330
3B
100
AcDbScale
 70
     0
300
1:100
140
1.0
141
100.0
290
     0
  0
SCALE
  5
48
102
{ACAD_REACTORS
330
3B
102
}
330
3B
100
AcDbScale
 70
     0
300
2:1
140
2.0
141
1.0
290
     0
  0
SCALE
  5
49
102
{ACAD_REACTORS
330
3B
102
}
330
3B
100
AcDbScale
 70
     0
300
4:1
140
4.0
141
1.0
290
     0
  0
SCALE
  5
4A
102
{ACAD_REACTORS
330
3B
102
}
330
3B
100
AcDbScale
 70
     0
300
8:1
140
8.0
141
1.0
290
     0
  0
SCALE
  5
4B
102
{ACAD_REACTORS
330
3B
102
}
330
3B
100
AcDbScale
 70
     0
300
10:1
140
10.0
141
1.0
290
     0
  0
SCALE
  5
4C
102
{ACAD_REACTORS
330
3B
102
}
330
3B
100
AcDbScale
 70
     0
300
100:1
140
100.0
141
1.0
290
     0
  0
SCALE
  5
4D
102
{ACAD_REACTORS
330
3B
102
}
330
3B
100
AcDbScale
 70
     0
300
1/128" = 1'-0"
140
0.0078125
141
12.0
290
     0
  0
SCALE
  5
4E
102
{ACAD_REACTORS
330
3B
102
}
330
3B
100
AcDbScale
 70
     0
300
1/64" = 1'-0"
140
0.015625
141
12.0
290
     0
  0
SCALE
  5
4F
102
{ACAD_REACTORS
330
3B
102
}
330
3B
100
AcDbScale
 70
     0
300
1/32" = 1'-0"
140
0.03125
141
12.0
290
     0
  0
SCALE
  5
50
102
{ACAD_REACTORS
330
3B
102
}
330
3B
100
AcDbScale
 70
     0
300
1/16" = 1'-0"
140
0.0625
141
12.0
290
     0
  0
SCALE
  5
51
102
{ACAD_REACTORS
330
3B
102
}
330
3B
100
AcDbScale
 70
     0
300
3/32" = 1'-0"
140
0.09375
141
12.0
290
     0
  0
SCALE
  5
52
102
{ACAD_REACTORS
330
3B
102
}
330
3B
100
AcDbScale
 70
     0
300
1/8" = 1'-0"
140
0.125
141
12.0
290
     0
  0
SCALE
  5
53
102
{ACAD_REACTORS
330
3B
102
}
330
3B
100
AcDbScale
 70
     0
300
3/16" = 1'-0"
140
0.1875
141
12.0
290
     0
  0
SCALE
  5
54
102
{ACAD_REACTORS
330
3B
102
}
330
3B
100
AcDbScale
 70
     0
300
1/4" = 1'-0"
140
0.25
141
12.0
290
     0
  0
SCALE
  5
55
102
{ACAD_REACTORS
330
3B
102
}
330
3B
100
AcDbScale
 70
     0
300
3/8" = 1'-0"
140
0.375
141
12.0
290
     0
  0
SCALE
  5
56
102
{ACAD_REACTORS
330
3B
102
}
330
3B
100
AcDbScale
 70
     0
300
1/2" = 1'-0"
140
0.5
141
12.0
290
     0
  0
SCALE
  5
57
102
{ACAD_REACTORS
330
3B
102
}
330
3B
100
AcDbScale
 70
     0
300
3/4" = 1'-0"
140
0.75
141
12.0
290
     0
  0
SCALE
  5
58
102
{ACAD_REACTORS
330
3B
102
}
330
3B
100
AcDbScale
 70
     0
300
1" = 1'-0"
140
1.0
141
12.0
290
     0
  0
SCALE
  5
59
102
{ACAD_REACTORS
330
3B
102
}
330
3B
100
AcDbScale
 70
     0
300
1-1/2" = 1'-0"
140
1.5
141
12.0
290
     0
  0
SCALE
  5
5A
102
{ACAD_REACTORS
330
3B
102
}
330
3B
100
AcDbScale
 70
     0
300
3" = 1'-0"
140
3.0
141
12.0
290
     0
  0
SCALE
  5
5B
102
{ACAD_REACTORS
330
3B
102
}
330
3B
100
AcDbScale
 70
     0
300
6" = 1'-0"
140
6.0
141
12.0
290
     0
  0
SCALE
  5
5C
102
{ACAD_REACTORS
330
3B
102
}
330
3B
100
AcDbScale
 70
     0
300
1'-0" = 1'-0"
140
12.0
141
12.0
290
     0
  0
VISUALSTYLE
  5
2F
102
{ACAD_REACTORS
330
2A
102
}
330
2A
100
AcDbVisualStyle
  2
2dWireframe
 70
     4
 71
     0
 72
     2
 73
     0
 90
        0
 40
-0.6
 41
-30.0
 62
     5
 63
     7
421
 16777215
 74
     1
 91
        4
 64
     7
 65
   257
 75
     1
175
     1
 42
1.0
 92
        0
 66
   257
 43
1.0
 76
     1
 77
     6
 78
     2
 67
     7
 79
     5
170
     0
171
     0
290
     0
174
     0
 93
        1
 44
0.0
173
     0
291
     0
 45
0.0
  0
VISUALSTYLE
  5
31
102
{ACAD_REACTORS
330
2A
102
}
330
2A
100
AcDbVisualStyle
  2
3D Hidden
 70
     6
 71
     1
 72
     2
 73
     2
 90
        0
 40
-0.6
 41
-30.0
 62
     5
 63
     7
421
 16777215
 74
     2
 91
        2
 64
     7
 65
   257
 75
     2
175
     1
 42
40.0
 92
        0
 66
   257
 43
1.0
 76
     1
 77
     6
 78
     2
 67
     7
 79
     3
170
     0
171
     0
290
     0
174
     0
 93
        1
 44
0.0
173
     0
291
     0
 45
0.0
  0
VISUALSTYLE
  5
30
102
{ACAD_REACTORS
330
2A
102
}
330
2A
100
AcDbVisualStyle
  2
3dWireframe
 70
     5
 71
     0
 72
     2
 73
     0
 90
        0
 40
-0.6
 41
-30.0
 62
     5
 63
     7
421
 16777215
 74
     1
 91
        4
 64
     7
 65
   257
 75
     1
175
     1
 42
1.0
 92
        0
 66
   257
 43
1.0
 76
     1
 77
     6
 78
     2
 67
     7
 79
     5
170
     0
171
     0
290
     0
174
     0
 93
        1
 44
0.0
173
     0
291
     0
 45
0.0
  0
VISUALSTYLE
  5
32
102
{ACAD_REACTORS
330
2A
102
}
330
2A
100
AcDbVisualStyle
  2
Basic
 70
     7
 71
     1
 72
     0
 73
     1
 90
        0
 40
-0.6
 41
-30.0
 62
     5
 63
     7
421
 16777215
 74
     0
 91
        4
 64
     7
 65
   257
 75
     1
175
     1
 42
1.0
 92
        8
 66
     7
 43
1.0
 76
     1
 77
     6
 78
     2
 67
     7
 79
     5
170
     0
171
     0
290
     0
174
     0
 93
        1
 44
0.0
173
     0
291
     1
 45
0.0
  0
VISUALSTYLE
  5
36
102
{ACAD_REACTORS
330
2A
102
}
330
2A
100
AcDbVisualStyle
  2
Brighten
 70
    12
 71
     2
 72
     2
 73
     0
 90
        0
 40
-0.6
 41
-30.0
 62
     5
 63
     7
421
 16777215
 74
     1
 91
        4
 64
     7
 65
   257
 75
     1
175
     1
 42
1.0
 92
        8
 66
     7
 43
1.0
 76
     1
 77
     6
 78
     2
 67
     7
 79
     5
170
     0
171
     0
290
     0
174
     0
 93
        1
 44
50.0
173
     0
291
     1
 45
0.0
  0
VISUALSTYLE
  5
3A
102
{ACAD_REACTORS
330
2A
102
}
330
2A
100
AcDbVisualStyle
  2
ColorChange
 70
    16
 71
     2
 72
     2
 73
     3
 90
        0
 40
-0.6
 41
-30.0
 62
     5
 63
     8
421
  8421504
 74
     1
 91
        4
 64
     7
 65
   257
 75
     1
175
     1
 42
1.0
 92
        8
 66
     8
424
  8421504
 43
1.0
 76
     1
 77
     6
 78
     2
 67
     7
 79
     5
170
     0
171
     0
290
     0
174
     0
 93
        1
 44
0.0
173
     0
291
     1
 45
0.0
  0
VISUALSTYLE
  5
34
102
{ACAD_REACTORS
330
2A
102
}
330
2A
100
AcDbVisualStyle
  2
Conceptual
 70
     9
 71
     3
 72
     2
 73
     0
 90
        0
 40
-0.6
 41
-30.0
 62
     5
 63
     7
421
 16777215
 74
     2
 91
        2
 64
     7
 65
   257
 75
     1
175
     1
 42
40.0
 92
        8
 66
     7
 43
1.0
 76
     1
 77
     6
 78
     2
 67
     7
 79
     3
170
     0
171
     0
290
     0
174
     0
 93
        1
 44
0.0
173
     0
291
     0
 45
0.0
  0
VISUALSTYLE
  5
35
102
{ACAD_REACTORS
330
2A
102
}
330
2A
100
AcDbVisualStyle
  2
Dim
 70
    11
 71
     2
 72
     2
 73
     0
 90
        0
 40
-0.6
 41
-30.0
 62
     5
 63
     7
421
 16777215
 74
     1
 91
        4
 64
     7
 65
   257
 75
     1
175
     1
 42
1.0
 92
        8
 66
     7
 43
1.0
 76
     1
 77
     6
 78
     2
 67
     7
 79
     5
170
     0
171
     0
290
     0
174
     0
 93
        1
 44
-50.0
173
     0
291
     1
 45
0.0
  0
VISUALSTYLE
  5
39
102
{ACAD_REACTORS
330
2A
102
}
330
2A
100
AcDbVisualStyle
  2
Facepattern
 70
    15
 71
     2
 72
     2
 73
     0
 90
        0
 40
-0.6
 41
-30.0
 62
     5
 63
     7
421
 16777215
 74
     1
 91
        4
 64
     7
 65
   257
 75
     1
175
     1
 42
1.0
 92
        8
 66
     7
 43
1.0
 76
     1
 77
     6
 78
     2
 67
     7
 79
     5
170
     0
171
     0
290
     0
174
     0
 93
        1
 44
0.0
173
     0
291
     1
 45
0.0
  0
VISUALSTYLE
  5
2B
102
{ACAD_REACTORS
330
2A
102
}
330
2A
100
AcDbVisualStyle
  2
Flat
 70
     0
 71
     2
 72
     1
 73
     1
 90
        2
 40
-0.6
 41
30.0
 62
     5
 63
     7
421
 16777215
 74
     0
 91
        4
 64
     7
 65
   257
 75
     1
175
     1
 42
1.0
 92
        8
 66
     7
 43
1.0
 76
     1
 77
     6
 78
     2
 67
     7
 79
     5
170
     0
171
     0
290
     0
174
     0
 93
       13
 44
0.0
173
     0
291
     1
 45
0.0
  0
VISUALSTYLE
  5
2C
102
{ACAD_REACTORS
330
2A
102
}
330
2A
100
AcDbVisualStyle
  2
FlatWithEdges
 70
     1
 71
     2
 72
     1
 73
     1
 90
        2
 40
-0.6
 41
30.0
 62
     5
 63
     7
421
 16777215
 74
     1
 91
        4
 64
     7
 65
   257
 75
     1
175
     1
 42
1.0
 92
        0
 66
   257
 43
1.0
 76
     1
 77
     6
 78
     2
 67
     7
 79
     5
170
     0
171
     0
290
     0
174
     0
 93
       13
 44
0.0
173
     0
291
     1
 45
0.0
  0
VISUALSTYLE
  5
2D
102
{ACAD_REACTORS
330
2A
102
}
330
2A
100
AcDbVisualStyle
  2
Gouraud
 70
     2
 71
     2
 72
     2
 73
     1
 90
        2
 40
-0.6
 41
30.0
 62
     5
 63
     7
421
 16777215
 74
     0
 91
        4
 64
     7
 65
   257
 75
     1
175
     1
 42
1.0
 92
        0
 66
     7
 43
1.0
 76
     1
 77
     6
 78
     2
 67
     7
 79
     5
170
     0
171
     0
290
     0
174
     0
 93
       13
 44
0.0
173
     0
291
     1
 45
0.0
  0
VISUALSTYLE
  5
2E
102
{ACAD_REACTORS
330
2A
102
}
330
2A
100
AcDbVisualStyle
  2
GouraudWithEdges
 70
     3
 71
     2
 72
     2
 73
     1
 90
        2
 40
-0.6
 41
30.0
 62
     5
 63
     7
421
 16777215
 74
     1
 91
        4
 64
     7
 65
   257
 75
     1
175
     1
 42
1.0
 92
        0
 66
   257
 43
1.0
 76
     1
 77
     6
 78
     2
 67
     7
 79
     5
170
     0
171
     0
290
     0
174
     0
 93
       13
 44
0.0
173
     0
291
     1
 45
0.0
  0
VISUALSTYLE
  5
38
102
{ACAD_REACTORS
330
2A
102
}
330
2A
100
AcDbVisualStyle
  2
Linepattern
 70
    14
 71
     2
 72
     2
 73
     0
 90
        0
 40
-0.6
 41
-30.0
 62
     5
 63
     7
421
 16777215
 74
     1
 91
        4
 64
     7
 65
   257
 75
     7
175
     7
 42
1.0
 92
        8
 66
     7
 43
1.0
 76
     1
 77
     6
 78
     2
 67
     7
 79
     5
170
     0
171
     0
290
     0
174
     0
 93
        1
 44
0.0
173
     0
291
     1
 45
0.0
  0
VISUALSTYLE
  5
33
102
{ACAD_REACTORS
330
2A
102
}
330
2A
100
AcDbVisualStyle
  2
Realistic
 70
     8
 71
     2
 72
     2
 73
     0
 90
        0
 40
-0.6
 41
-30.0
 62
     5
 63
     7
421
 16777215
 74
     1
 91
        0
 64
     7
 65
   257
 75
     1
175
     1
 42
1.0
 92
        8
 66
     8
424
  7895160
 43
1.0
 76
     1
 77
     6
 78
     2
 67
     7
 79
     5
170
     0
171
     0
290
     0
174
     0
 93
       13
 44
0.0
173
     0
291
     0
 45
0.0
  0
VISUALSTYLE
  5
37
102
{ACAD_REACTORS
330
2A
102
}
330
2A
100
AcDbVisualStyle
  2
Thicken
 70
    13
 71
     2
 72
     2
 73
     0
 90
        0
 40
-0.6
 41
-30.0
 62
     5
 63
     7
421
 16777215
 74
     1
 91
        4
 64
     7
 65
   257
 75
     1
175
     1
 42
1.0
 92
       12
 66
     7
 43
1.0
 76
     1
 77
     6
 78
     2
 67
     7
 79
     5
170
     0
171
     0
290
     0
174
     0
 93
        1
 44
0.0
173
     0
291
     1
 45
0.0
  0
ENDSEC
  0
EOF
