  0
SECTION
  2
HEADER
  9
$ACADVER
  1
AC1009
  9
$EXTMIN
 10
2874.99999843
 20
-718.75000017
 30
0.0
  9
$EXTMAX
 10
4017.56457200
 20
30.92179700
 30
0.0
  0
ENDSEC
  0
SECTION
  2
ENTITIES
  0
POLYLINE
  8
0
 66
   1
 70
    1
  0
VERTEX
  8
0
 10
3219.84961300
 20
-679.34992600
 42
0.10645654
  0
VERTEX
  8
0
 10
3222.73822634
 20
-682.71512539
 42
0.09878702
  0
VERTEX
  8
0
 10
3226.87721104
 20
-684.73100218
 42
0.09504840
  0
VERTEX
  8
0
 10
3231.55947377
 20
-685.05316857
 42
0.09683609
  0
VERTEX
  8
0
 10
3235.98511016
 20
-683.62658781
 42
0.10343829
  0
VERTEX
  8
0
 10
3239.39805677
 20
-680.69497263
 42
0.11141328
  0
VERTEX
  8
0
 10
3241.21525492
 20
-676.75915230
 42
0.11490586
  0
VERTEX
  8
0
 10
3241.12625900
 20
-672.49151000
  0
VERTEX
  8
0
 10
3231.26757356
 20
-644.50918423
 42
0.11294929
  0
VERTEX
  8
0
 10
3228.38925587
 20
-640.70417564
 42
0.10428403
  0
VERTEX
  8
0
 10
3224.01084691
 20
-638.36255878
 42
0.09977593
  0
VERTEX
  8
0
 10
3218.95385605
 20
-637.92368520
 42
0.10160127
  0
VERTEX
  8
0
 10
3214.16711341
 20
-639.46990030
 42
0.10895277
  0
VERTEX
  8
0
 10
3210.54874231
 20
-642.71109087
 42
0.11756233
  0
VERTEX
  8
0
 10
3208.77764868
 20
-647.03912197
 42
0.12039677
  0
VERTEX
  8
0
 10
3209.18613700
 20
-651.64193700
  0
VERTEX
  8
0
 10
3219.84961300
 20
-679.34992600
  0
SEQEND
  0
POLYLINE
  8
0
 66
   1
 70
    0
  0
VERTEX
  8
0
 10
3431.69603303
 20
-701.96776357
 42
0.19230821
  0
VERTEX
  8
0
 10
3435.94860467
 20
-712.85447861
 42
0.10210300
  0
VERTEX
  8
0
 10
3440.72701605
 20
-716.23495335
 42
0.09913752
  0
VERTEX
  8
0
 10
3446.30000001
 20
-717.44982760
 42
0.09913752
  0
VERTEX
  8
0
 10
3451.87298369
 20
-716.23495332
 42
0.10210300
  0
VERTEX
  8
0
 10
3456.65139526
 20
-712.85447866
 42
0.19230821
  0
VERTEX
  8
0
 10
3460.90396597
 20
-701.96776357
  0
SEQEND
  0
POLYLINE
  8
0
 66
   1
 70
    0
  0
VERTEX
  8
0
 10
2986.91421100
 20
-328.54269900
  0
VERTEX
  8
0
 10
3004.21675000
 20
-328.54269900
  0
SEQEND
  0
POLYLINE
  8
0
 66
   1
 70
    0
  0
VERTEX
  8
0
 10
2965.36061391
 20
-386.06405693
 42
0.13573415
  0
VERTEX
  8
0
 10
2980.76945053
 20
-373.57462480
 42
0.13703340
  0
VERTEX
  8
0
 10
2987.48823183
 20
-355.01267866
  0
SEQEND
  0
POLYLINE
  8
0
 66
   1
 70
    0
  0
VERTEX
  8
0
 10
2986.91421400
 20
-359.28589700
  0
VERTEX
  8
0
 10
3004.21675200
 20
-359.28589400
  0
SEQEND
  0
POLYLINE
  8
0
 66
   1
 70
    0
  0
VERTEX
  8
0
 10
2956.23506765
 20
-426.12911692
 42
0.10819831
  0
VERTEX
  8
0
 10
2962.90602977
 20
-430.32123709
 42
0.10763214
  0
VERTEX
  8
0
 10
2970.73756297
 20
-431.35526249
 42
0.10777871
  0
VERTEX
  8
0
 10
2978.28466091
 20
-429.04040299
 42
0.10893108
  0
VERTEX
  8
0
 10
2981.94180851
 20
-425.24601696
 42
0.10973270
  0
VERTEX
  8
0
 10
2983.64946600
 20
-420.28082707
 42
0.10993416
  0
VERTEX
  8
0
 10
2983.09123721
 20
-415.06478875
 42
0.10938743
  0
VERTEX
  8
0
 10
2980.37055122
 20
-410.56433358
 42
0.10849143
  0
VERTEX
  8
0
 10
2975.99149910
 20
-407.61330996
 42
-0.13354152
  0
VERTEX
  8
0
 10
2970.60003960
 20
-404.91211468
 42
-0.13487207
  0
VERTEX
  8
0
 10
2967.34805711
 20
-399.86928214
 42
-0.08224001
  0
VERTEX
  8
0
 10
2965.80864413
 20
-364.85796966
  0
SEQEND
  0
POLYLINE
  8
0
 66
   1
 70
    0
  0
VERTEX
  8
0
 10
2955.99615359
 20
-362.79745490
 42
0.11545145
  0
VERTEX
  8
0
 10
2945.18086354
 20
-386.30267520
 42
0.11994082
  0
VERTEX
  8
0
 10
2945.86270014
 20
-407.53465628
 42
0.11939108
  0
VERTEX
  8
0
 10
2956.23506787
 20
-426.12911693
 42
0.14718675
  0
VERTEX
  8
0
 10
2955.70329392
 20
-474.01179608
 42
0.27775941
  0
VERTEX
  8
0
 10
2974.38466388
 20
-490.93226879
 42
0.27775941
  0
VERTEX
  8
0
 10
2998.08108571
 20
-482.34299737
 42
0.10769303
  0
VERTEX
  8
0
 10
3003.06936249
 20
-470.48869043
 42
0.10465372
  0
VERTEX
  8
0
 10
3002.77798717
 20
-457.44581685
 42
0.09396376
  0
VERTEX
  8
0
 10
2999.79581235
 20
-450.31915644
 42
0.10011181
  0
VERTEX
  8
0
 10
2994.51943505
 20
-445.01070152
 42
0.10661142
  0
VERTEX
  8
0
 10
2987.77266160
 20
-442.34926919
 42
0.10892948
  0
VERTEX
  8
0
 10
2980.60887546
 20
-442.75039194
 42
0.10516118
  0
VERTEX
  8
0
 10
2974.14656718
 20
-446.15144040
 42
0.09874863
  0
VERTEX
  8
0
 10
2970.94893744
 20
-451.10749725
 42
0.09407779
  0
VERTEX
  8
0
 10
2969.80765317
 20
-457.04127156
 42
0.09403316
  0
VERTEX
  8
0
 10
2970.90903556
 20
-462.98403621
 42
0.09863211
  0
VERTEX
  8
0
 10
2974.07327744
 20
-467.96559927
 42
0.10578222
  0
VERTEX
  8
0
 10
2978.78379510
 20
-471.17268986
 42
0.11101337
  0
VERTEX
  8
0
 10
2984.27156904
 20
-472.08173024
 42
0.10801372
  0
VERTEX
  8
0
 10
2987.02058271
 20
-470.70620330
 42
0.10088471
  0
VERTEX
  8
0
 10
2989.04582787
 20
-468.25354231
 42
0.09513339
  0
VERTEX
  8
0
 10
2990.01589184
 20
-465.12510054
 42
0.09364326
  0
VERTEX
  8
0
 10
2989.77203317
 20
-461.83281668
 42
0.09700519
  0
VERTEX
  8
0
 10
2988.35415839
 20
-458.91544197
 42
0.10379522
  0
VERTEX
  8
0
 10
2985.99428832
 20
-456.85037501
 42
0.11013801
  0
VERTEX
  8
0
 10
2983.07859150
 20
-455.97554469
 42
-0.11015127
  0
VERTEX
  8
0
 10
2985.99447638
 20
-456.85652267
 42
-0.10379120
  0
VERTEX
  8
0
 10
2988.35206535
 20
-458.92762089
 42
-0.09700650
  0
VERTEX
  8
0
 10
2989.76534013
 20
-461.84972912
 42
-0.09366562
  0
VERTEX
  8
0
 10
2990.00289964
 20
-465.14439963
 42
-0.09518290
  0
VERTEX
  8
0
 10
2989.02584621
 20
-468.27218027
 42
-0.10095598
  0
VERTEX
  8
0
 10
2986.99415753
 20
-470.72094610
 42
-0.10808344
  0
VERTEX
  8
0
 10
2984.24049114
 20
-472.08975008
 42
-0.13892323
  0
VERTEX
  8
0
 10
2976.94655409
 20
-473.02119347
 42
-0.13549232
  0
VERTEX
  8
0
 10
2970.15691730
 20
-469.96456775
 42
-0.12456785
  0
VERTEX
  8
0
 10
2965.58161361
 20
-463.68971304
 42
-0.12464025
  0
VERTEX
  8
0
 10
2965.47938567
 20
-431.04355609
  0
SEQEND
  0
POLYLINE
  8
0
 66
   1
 70
    0
  0
VERTEX
  8
0
 10
2949.76718445
 20
-417.04589410
 42
-0.10701092
  0
VERTEX
  8
0
 10
2949.74236770
 20
-422.08578235
 42
-0.10664886
  0
VERTEX
  8
0
 10
2947.63377344
 20
-426.67284658
 42
-0.10583043
  0
VERTEX
  8
0
 10
2943.81187869
 20
-430.00114341
 42
-0.10511203
  0
VERTEX
  8
0
 10
2938.94818769
 20
-431.48589386
 42
-0.13722572
  0
VERTEX
  8
0
 10
2927.90517438
 20
-428.59996562
 42
0.04698340
  0
VERTEX
  8
0
 10
2910.31120396
 20
-586.03573930
 42
0.07153365
  0
VERTEX
  8
0
 10
2915.51684548
 20
-617.76258434
 42
0.10122294
  0
VERTEX
  8
0
 10
2921.35717925
 20
-628.27241190
 42
0.06335565
  0
VERTEX
  8
0
 10
2928.70737419
 20
-634.92051891
 42
0.12160915
  0
VERTEX
  8
0
 10
2944.51298121
 20
-640.97433561
 42
0.12385938
  0
VERTEX
  8
0
 10
2961.15033335
 20
-638.86536013
 42
0.10478446
  0
VERTEX
  8
0
 10
2971.42827798
 20
-631.34691150
 42
0.09835881
  0
VERTEX
  8
0
 10
2981.58187047
 20
-632.44727759
 42
0.09840531
  0
VERTEX
  8
0
 10
2991.38280494
 20
-629.58394865
 42
0.09862295
  0
VERTEX
  8
0
 10
2999.33286417
 20
-623.19462377
 42
0.09888487
  0
VERTEX
  8
0
 10
3004.21676537
 20
-614.25600674
 42
0.11191488
  0
VERTEX
  8
0
 10
3000.53574644
 20
-635.98007036
 42
0.11187774
  0
VERTEX
  8
0
 10
3006.58338905
 20
-657.17139090
 42
-0.10500533
  0
VERTEX
  8
0
 10
3014.12829799
 20
-646.92949278
 42
-0.10561347
  0
VERTEX
  8
0
 10
3023.34449855
 20
-641.72165347
 42
-0.10072640
  0
VERTEX
  8
0
 10
3034.12365327
 20
-640.58230637
 42
-0.10230398
  0
VERTEX
  8
0
 10
3044.40853703
 20
-643.72889694
 42
-0.10120143
  0
VERTEX
  8
0
 10
3049.46377799
 20
-648.75202574
 42
-0.10836756
  0
VERTEX
  8
0
 10
3051.95520076
 20
-655.17225501
 42
-0.11079273
  0
VERTEX
  8
0
 10
3051.48592119
 20
-661.96684113
 42
-0.10640196
  0
VERTEX
  8
0
 10
3048.13069598
 20
-668.05340243
 42
-0.10806172
  0
VERTEX
  8
0
 10
3042.43925938
 20
-671.82089890
 42
-0.10214571
  0
VERTEX
  8
0
 10
3035.51802385
 20
-672.99444098
 42
-0.10273492
  0
VERTEX
  8
0
 10
3028.71512751
 20
-671.34544350
 42
-0.11772185
  0
VERTEX
  8
0
 10
3024.50691544
 20
-667.71994984
 42
-0.12777873
  0
VERTEX
  8
0
 10
3022.57859982
 20
-662.74956592
 42
-0.12504465
  0
VERTEX
  8
0
 10
3022.92859358
 20
-659.13958681
 42
-0.11863666
  0
VERTEX
  8
0
 10
3024.98293451
 20
-656.03380067
 42
-0.10912369
  0
VERTEX
  8
0
 10
3028.32640241
 20
-654.05994287
 42
-0.10376156
  0
VERTEX
  8
0
 10
3032.28322166
 20
-653.61696717
 42
-0.10542859
  0
VERTEX
  8
0
 10
3036.05364662
 20
-654.79440662
 42
-0.11332489
  0
VERTEX
  8
0
 10
3038.87560536
 20
-657.35427879
 42
0.11341867
  0
VERTEX
  8
0
 10
3036.05303784
 20
-654.79031273
 42
0.10550630
  0
VERTEX
  8
0
 10
3032.27968616
 20
-653.61050947
 42
0.10383347
  0
VERTEX
  8
0
 10
3028.31924920
 20
-654.05365039
 42
0.10920416
  0
VERTEX
  8
0
 10
3024.97328886
 20
-656.03004831
 42
0.11873090
  0
VERTEX
  8
0
 10
3022.91900250
 20
-659.13969654
 42
0.12513564
  0
VERTEX
  8
0
 10
3022.57216037
 20
-662.75322362
 42
0.12271017
  0
VERTEX
  8
0
 10
3023.15166967
 20
-670.88273652
 42
0.11697981
  0
VERTEX
  8
0
 10
3027.52231389
 20
-677.99483863
 42
0.13897206
  0
VERTEX
  8
0
 10
3042.49716453
 20
-685.33660527
 42
0.04653816
  0
VERTEX
  8
0
 10
3089.77860376
 20
-688.81152956
 42
0.04117509
  0
VERTEX
  8
0
 10
3154.96662394
 20
-685.51948450
 42
0.06865808
  0
VERTEX
  8
0
 10
3215.34604148
 20
-667.64783621
  0
SEQEND
  0
POLYLINE
  8
0
 66
   1
 70
    0
  0
VERTEX
  8
0
 10
2927.90517442
 20
-428.59996711
 42
-0.13845649
  0
VERTEX
  8
0
 10
2920.01493453
 20
-420.42299615
 42
-0.19036117
  0
VERTEX
  8
0
 10
2919.13294762
 20
-403.88687036
 42
-0.17748888
  0
VERTEX
  8
0
 10
2951.92454628
 20
-360.68543176
  0
SEQEND
  0
POLYLINE
  8
0
 66
   1
 70
    0
  0
VERTEX
  8
0
 10
2945.66973619
 20
-355.00086180
 42
0.14695944
  0
VERTEX
  8
0
 10
2892.02664540
 20
-393.17332861
 42
0.11360343
  0
VERTEX
  8
0
 10
2889.59883959
 20
-400.36563894
 42
0.11379351
  0
VERTEX
  8
0
 10
2890.56421072
 20
-407.88862682
 42
0.11316643
  0
VERTEX
  8
0
 10
2894.73139981
 20
-414.25106610
 42
0.11627627
  0
VERTEX
  8
0
 10
2900.92804940
 20
-417.29128747
 42
0.11583173
  0
VERTEX
  8
0
 10
2907.84344378
 20
-417.25179102
 42
0.11629724
  0
VERTEX
  8
0
 10
2914.00426808
 20
-414.14099177
 42
0.11730999
  0
VERTEX
  8
0
 10
2918.09796805
 20
-408.62164068
  0
SEQEND
  0
POLYLINE
  8
0
 66
   1
 70
    0
  0
VERTEX
  8
0
 10
2918.09795492
 20
-279.20696969
 42
0.11730999
  0
VERTEX
  8
0
 10
2914.00425425
 20
-273.68761953
 42
0.11629724
  0
VERTEX
  8
0
 10
2907.84342932
 20
-270.57682132
 42
0.11583173
  0
VERTEX
  8
0
 10
2900.92803557
 20
-270.53732518
 42
0.11627627
  0
VERTEX
  8
0
 10
2894.73138572
 20
-273.57754758
 42
0.11316643
  0
VERTEX
  8
0
 10
2890.56419858
 20
-279.93998725
 42
0.11379352
  0
VERTEX
  8
0
 10
2889.59882960
 20
-287.46297691
 42
0.11360343
  0
VERTEX
  8
0
 10
2892.02663610
 20
-294.65528615
 42
0.14695944
  0
VERTEX
  8
0
 10
2945.66973367
 20
-332.82774320
  0
SEQEND
  0
POLYLINE
  8
0
 66
   1
 70
    0
  0
VERTEX
  8
0
 10
2949.76717092
 20
-270.78270966
 42
0.10701092
  0
VERTEX
  8
0
 10
2949.74235321
 20
-265.74282142
 42
0.10664886
  0
VERTEX
  8
0
 10
2947.63375706
 20
-261.15575759
 42
0.10583043
  0
VERTEX
  8
0
 10
2943.81186196
 20
-257.82746165
 42
0.10511203
  0
VERTEX
  8
0
 10
2938.94817035
 20
-256.34271194
 42
0.13722572
  0
VERTEX
  8
0
 10
2927.90515819
 20
-259.22864114
 42
0.13845649
  0
VERTEX
  8
0
 10
2920.01491986
 20
-267.40561305
 42
0.19036117
  0
VERTEX
  8
0
 10
2919.13293599
 20
-283.94173974
 42
0.17748888
  0
VERTEX
  8
0
 10
2951.92454247
 20
-327.14317125
  0
SEQEND
  0
POLYLINE
  8
0
 66
   1
 70
    0
  0
VERTEX
  8
0
 10
2955.99614928
 20
-325.03114771
 42
-0.11545145
  0
VERTEX
  8
0
 10
2945.18085531
 20
-301.52592924
 42
-0.11994082
  0
VERTEX
  8
0
 10
2945.86268743
 20
-280.29394864
 42
-0.11939108
  0
VERTEX
  8
0
 10
2956.23505113
 20
-261.69948556
 42
-0.10819831
  0
VERTEX
  8
0
 10
2962.90601242
 20
-257.50736411
 42
-0.10763214
  0
VERTEX
  8
0
 10
2970.73754643
 20
-256.47333722
 42
-0.10777871
  0
VERTEX
  8
0
 10
2978.28464488
 20
-258.78819527
 42
-0.10893108
  0
VERTEX
  8
0
 10
2981.94179329
 20
-262.58258106
 42
-0.10973270
  0
VERTEX
  8
0
 10
2983.64945160
 20
-267.54776998
 42
-0.10993416
  0
VERTEX
  8
0
 10
2983.09122296
 20
-272.76380904
 42
-0.10938743
  0
VERTEX
  8
0
 10
2980.37053784
 20
-277.26426428
 42
-0.10849143
  0
VERTEX
  8
0
 10
2975.99148666
 20
-280.21528824
 42
0.13354152
  0
VERTEX
  8
0
 10
2970.60002783
 20
-282.91648590
 42
0.13487207
  0
VERTEX
  8
0
 10
2967.34804647
 20
-287.95931984
 42
0.08224001
  0
VERTEX
  8
0
 10
2965.80864082
 20
-322.97063264
  0
SEQEND
  0
POLYLINE
  8
0
 66
   1
 70
    0
  0
VERTEX
  8
0
 10
2965.36060636
 20
-301.76454421
 42
-0.13573415
  0
VERTEX
  8
0
 10
2980.76944507
 20
-314.25397308
 42
-0.13703340
  0
VERTEX
  8
0
 10
2987.48822930
 20
-332.81591832
  0
SEQEND
  0
POLYLINE
  8
0
 66
   1
 70
    0
  0
VERTEX
  8
0
 10
2954.07860284
 20
-423.61914919
 42
0.00000000
  0
VERTEX
  8
0
 10
2954.07844275
 20
-423.61947022
  0
SEQEND
  0
POLYLINE
  8
0
 66
   1
 70
    0
  0
VERTEX
  8
0
 10
2895.54046601
 20
-298.96021370
 42
0.07820878
  0
VERTEX
  8
0
 10
2891.82943478
 20
-301.34254768
 42
0.09949864
  0
VERTEX
  8
0
 10
2888.49405423
 20
-305.76926621
 42
0.09996198
  0
VERTEX
  8
0
 10
2887.13669819
 20
-311.12984108
 42
0.10001982
  0
VERTEX
  8
0
 10
2887.96728197
 20
-316.59524387
 42
0.13597770
  0
VERTEX
  8
0
 10
2899.57462525
 20
-334.47748101
 42
0.13490983
  0
VERTEX
  8
0
 10
2918.78505375
 20
-343.91432104
 42
0.13490982
  0
VERTEX
  8
0
 10
2899.57462488
 20
-353.35115813
 42
0.13597771
  0
VERTEX
  8
0
 10
2887.96728219
 20
-371.23339788
 42
0.10001982
  0
VERTEX
  8
0
 10
2887.13669673
 20
-376.69880131
 42
0.09996197
  0
VERTEX
  8
0
 10
2888.49405567
 20
-382.05937509
 42
0.09949863
  0
VERTEX
  8
0
 10
2891.82943549
 20
-386.48609300
 42
0.07820858
  0
VERTEX
  8
0
 10
2895.54045605
 20
-388.86842191
  0
SEQEND
  0
POLYLINE
  8
0
 66
   1
 70
    0
  0
VERTEX
  8
0
 10
2892.55263249
 20
-326.32163518
 42
0.10638736
  0
VERTEX
  8
0
 10
2885.40050287
 20
-328.48917333
 42
0.10664932
  0
VERTEX
  8
0
 10
2879.78241628
 20
-333.40355144
 42
0.10694575
  0
VERTEX
  8
0
 10
2876.69881663
 20
-340.18963878
 42
0.10707405
  0
VERTEX
  8
0
 10
2876.69881661
 20
-347.63900058
 42
0.10694575
  0
VERTEX
  8
0
 10
2879.78241629
 20
-354.42508825
 42
0.10664932
  0
VERTEX
  8
0
 10
2885.40050221
 20
-359.33946604
 42
0.10638736
  0
VERTEX
  8
0
 10
2892.55263219
 20
-361.50700479
  0
SEQEND
  0
POLYLINE
  8
0
 66
   1
 70
    0
  0
VERTEX
  8
0
 10
2948.08564436
 20
-641.21850443
 42
0.03520561
  0
VERTEX
  8
0
 10
2947.87603735
 20
-642.85543351
 42
0.09973759
  0
VERTEX
  8
0
 10
2948.52829630
 20
-647.42239961
 42
0.09981921
  0
VERTEX
  8
0
 10
2950.89833175
 20
-651.37817432
 42
0.09958059
  0
VERTEX
  8
0
 10
2954.61961378
 20
-654.11098359
 42
0.13534805
  0
VERTEX
  8
0
 10
2972.03360531
 20
-657.83248826
 42
0.05665285
  0
VERTEX
  8
0
 10
2979.53098871
 20
-656.53406805
 42
-0.27424702
  0
VERTEX
  8
0
 10
2983.48446089
 20
-657.54635665
 42
-0.27424702
  0
VERTEX
  8
0
 10
2984.49201239
 20
-661.50103875
 42
0.05678795
  0
VERTEX
  8
0
 10
2983.19417150
 20
-668.95390790
 42
0.13621827
  0
VERTEX
  8
0
 10
2986.92877715
 20
-686.30682073
 42
0.09978798
  0
VERTEX
  8
0
 10
2989.67120569
 20
-690.01505023
 42
0.09948699
  0
VERTEX
  8
0
 10
2993.64090265
 20
-692.37677424
 42
0.09906684
  0
VERTEX
  8
0
 10
2998.22394422
 20
-693.02674313
 42
0.09877728
  0
VERTEX
  8
0
 10
3002.71154868
 20
-691.86444016
 42
0.17791713
  0
VERTEX
  8
0
 10
3008.38329958
 20
-686.00021083
  0
SEQEND
  0
POLYLINE
  8
0
 66
   1
 70
    1
  0
VERTEX
  8
0
 10
3042.31475966
 20
-552.83538295
 42
0.08165261
  0
VERTEX
  8
0
 10
3042.31473703
 20
-134.99321932
 42
-0.11548624
  0
VERTEX
  8
0
 10
3042.98368294
 20
-125.02703872
 42
-0.11528559
  0
VERTEX
  8
0
 10
3048.00859439
 20
-116.38434331
 42
-0.11492834
  0
VERTEX
  8
0
 10
3056.35228804
 20
-110.84905792
 42
-0.11469447
  0
VERTEX
  8
0
 10
3066.29255450
 20
-109.56371313
 42
0.04992635
  0
VERTEX
  8
0
 10
3826.30742896
 20
-109.56376979
 42
-0.11469445
  0
VERTEX
  8
0
 10
3836.24769327
 20
-110.84911530
 42
-0.11492832
  0
VERTEX
  8
0
 10
3844.59138471
 20
-116.38440042
 42
-0.11528557
  0
VERTEX
  8
0
 10
3849.61629595
 20
-125.02709303
 42
-0.11548623
  0
VERTEX
  8
0
 10
3850.28524247
 20
-134.99327230
 42
0.08165257
  0
VERTEX
  8
0
 10
3850.28524791
 20
-552.83524880
 42
-0.11548622
  0
VERTEX
  8
0
 10
3849.61630106
 20
-562.80142228
 42
-0.11528557
  0
VERTEX
  8
0
 10
3844.59139020
 20
-571.44411601
 42
-0.11492832
  0
VERTEX
  8
0
 10
3836.24769958
 20
-576.97940073
 42
-0.11469445
  0
VERTEX
  8
0
 10
3826.30741080
 20
-578.26474524
 42
0.04992635
  0
VERTEX
  8
0
 10
3066.29257981
 20
-578.26488564
 42
-0.11469447
  0
VERTEX
  8
0
 10
3056.35231270
 20
-576.97954218
 42
-0.11492834
  0
VERTEX
  8
0
 10
3048.00861913
 20
-571.44425853
 42
-0.11528559
  0
VERTEX
  8
0
 10
3042.98370627
 20
-562.80156370
 42
-0.11548624
  0
VERTEX
  8
0
 10
3042.31475966
 20
-552.83538295
  0
SEQEND
  0
POLYLINE
  8
0
 66
   1
 70
    0
  0
VERTEX
  8
0
 10
2983.87921798
 20
-677.88302186
 42
-0.10755796
  0
VERTEX
  8
0
 10
2981.95215840
 20
-686.37762092
 42
-0.10725808
  0
VERTEX
  8
0
 10
2976.66535408
 20
-693.31545963
 42
-0.10687321
  0
VERTEX
  8
0
 10
2968.96774656
 20
-697.45124542
 42
-0.10666653
  0
VERTEX
  8
0
 10
2960.24100105
 20
-698.04263575
 42
-0.10677756
  0
VERTEX
  8
0
 10
2952.05150489
 20
-694.98347845
 42
-0.10713150
  0
VERTEX
  8
0
 10
2945.86921288
 20
-688.82287244
 42
-0.10748749
  0
VERTEX
  8
0
 10
2942.80380309
 20
-680.66660033
 42
-0.10759955
  0
VERTEX
  8
0
 10
2943.40549459
 20
-671.97865459
 42
-0.10738950
  0
VERTEX
  8
0
 10
2947.56628577
 20
-664.31845878
 42
-0.10700360
  0
VERTEX
  8
0
 10
2954.53934688
 20
-659.06096225
 42
-0.10670721
  0
VERTEX
  8
0
 10
2963.07306417
 20
-657.14984788
  0
SEQEND
  0
POLYLINE
  8
0
 66
   1
 70
    0
  0
VERTEX
  8
0
 10
3219.63441834
 20
-678.79076990
 42
-0.07111241
  0
VERTEX
  8
0
 10
3140.48040009
 20
-703.07702391
 42
-0.04296504
  0
VERTEX
  8
0
 10
3059.59896380
 20
-707.83219967
 42
-0.07119170
  0
VERTEX
  8
0
 10
3027.70774737
 20
-702.62807615
 42
-0.10023333
  0
VERTEX
  8
0
 10
3017.27837845
 20
-696.88026863
 42
-0.06381129
  0
VERTEX
  8
0
 10
3010.54212210
 20
-689.50056060
 42
-0.12224536
  0
VERTEX
  8
0
 10
3004.46699380
 20
-673.75039120
 42
-0.12470489
  0
VERTEX
  8
0
 10
3006.58338896
 20
-657.17139131
  0
SEQEND
  0
POLYLINE
  8
0
 66
   1
 70
    0
  0
VERTEX
  8
0
 10
3126.77736759
 20
-672.07831890
 42
-0.08227710
  0
VERTEX
  8
0
 10
3092.91142732
 20
-668.60014069
 42
-0.16566840
  0
VERTEX
  8
0
 10
3075.60028717
 20
-656.49080211
 42
-0.11683585
  0
VERTEX
  8
0
 10
3072.55363102
 20
-647.21922460
 42
-0.11835880
  0
VERTEX
  8
0
 10
3074.04100370
 20
-637.63778470
 42
-0.10339457
  0
VERTEX
  8
0
 10
3076.83957026
 20
-634.41662055
 42
-0.09613331
  0
VERTEX
  8
0
 10
3080.80772313
 20
-632.45796485
 42
-0.09246326
  0
VERTEX
  8
0
 10
3085.30380690
 20
-632.07853514
 42
-0.09386745
  0
VERTEX
  8
0
 10
3089.60080130
 20
-633.33968606
 42
-0.09982418
  0
VERTEX
  8
0
 10
3093.00387800
 20
-636.03748700
  0
VERTEX
  8
0
 10
3093.06564500
 20
-636.19406200
  0
VERTEX
  8
0
 10
3093.03643200
 20
-636.22610600
  0
VERTEX
  8
0
 10
3093.00387766
 20
-636.22037778
 42
0.10228773
  0
VERTEX
  8
0
 10
3089.65674163
 20
-633.42517228
 42
0.09590161
  0
VERTEX
  8
0
 10
3085.35713097
 20
-632.08541896
 42
0.09425881
  0
VERTEX
  8
0
 10
3080.82741218
 20
-632.42620639
 42
0.09799940
  0
VERTEX
  8
0
 10
3076.82861030
 20
-634.39028029
 42
0.10555171
  0
VERTEX
  8
0
 10
3074.03255355
 20
-637.64766087
 42
0.12024526
  0
VERTEX
  8
0
 10
3073.68340996
 20
-643.41195290
 42
0.11693355
  0
VERTEX
  8
0
 10
3076.04355554
 20
-648.77152750
 42
0.10824844
  0
VERTEX
  8
0
 10
3080.67187312
 20
-652.72466374
 42
0.10114800
  0
VERTEX
  8
0
 10
3086.70331499
 20
-654.53250716
 42
0.09965931
  0
VERTEX
  8
0
 10
3093.01058585
 20
-653.85716857
 42
0.09754589
  0
VERTEX
  8
0
 10
3099.11776461
 20
-651.07602677
 42
0.10492712
  0
VERTEX
  8
0
 10
3103.48460441
 20
-646.30141917
 42
0.11212468
  0
VERTEX
  8
0
 10
3105.37753094
 20
-640.33542494
 42
0.13094723
  0
VERTEX
  8
0
 10
3103.28251456
 20
-629.28263906
 42
0.12239654
  0
VERTEX
  8
0
 10
3095.84148446
 20
-620.33617128
 42
0.11251019
  0
VERTEX
  8
0
 10
3084.71383984
 20
-615.49114348
 42
0.10887311
  0
VERTEX
  8
0
 10
3072.38112124
 20
-615.82803064
 42
0.10980097
  0
VERTEX
  8
0
 10
3060.05542312
 20
-622.71147475
 42
0.09333477
  0
VERTEX
  8
0
 10
3053.55740481
 20
-631.13211598
 42
0.06482462
  0
VERTEX
  8
0
 10
3051.82724228
 20
-635.99793603
 42
0.33222618
  0
VERTEX
  8
0
 10
3073.60647535
 20
-683.56888781
 42
0.08341659
  0
VERTEX
  8
0
 10
3088.42300880
 20
-688.83456480
  0
SEQEND
  0
POLYLINE
  8
0
 66
   1
 70
    0
  0
VERTEX
  8
0
 10
3189.73444851
 20
-677.44404374
 42
-0.16719107
  0
VERTEX
  8
0
 10
3120.55892557
 20
-669.32858296
 42
-0.37478989
  0
VERTEX
  8
0
 10
3108.00921347
 20
-630.07249444
 42
-0.10287310
  0
VERTEX
  8
0
 10
3113.44386547
 20
-622.45297190
 42
-0.09557856
  0
VERTEX
  8
0
 10
3121.69117326
 20
-617.32863676
 42
-0.09093248
  0
VERTEX
  8
0
 10
3131.47468357
 20
-615.49259477
 42
-0.09086377
  0
VERTEX
  8
0
 10
3141.28018321
 20
-617.22901096
 42
-0.09539635
  0
VERTEX
  8
0
 10
3149.59005169
 20
-622.26913973
 42
-0.13397846
  0
VERTEX
  8
0
 10
3154.82123937
 20
-630.39849045
 42
-0.14113113
  0
VERTEX
  8
0
 10
3155.01669002
 20
-639.81479539
 42
-0.13484246
  0
VERTEX
  8
0
 10
3150.12658053
 20
-648.11773825
 42
-0.09535062
  0
VERTEX
  8
0
 10
3145.05019042
 20
-651.12616300
 42
-0.09091860
  0
VERTEX
  8
0
 10
3139.08949697
 20
-652.11904182
 42
-0.09112819
  0
VERTEX
  8
0
 10
3133.16943679
 20
-650.94230785
 42
-0.09590612
  0
VERTEX
  8
0
 10
3128.20863829
 20
-647.77855908
 42
-0.10324448
  0
VERTEX
  8
0
 10
3124.97687981
 20
-643.11871937
 42
-0.10834585
  0
VERTEX
  8
0
 10
3124.92957899
 20
-639.92091627
 42
-0.10532029
  0
VERTEX
  8
0
 10
3126.23211562
 20
-636.95007706
 42
-0.09830454
  0
VERTEX
  8
0
 10
3128.68619136
 20
-634.65848426
 42
-0.09202829
  0
VERTEX
  8
0
 10
3131.91819625
 20
-633.39501347
 42
-0.08953267
  0
VERTEX
  8
0
 10
3135.43608613
 20
-633.35201472
 42
-0.09171659
  0
VERTEX
  8
0
 10
3138.70429333
 20
-634.53603595
 42
-0.09780298
  0
VERTEX
  8
0
 10
3141.22526368
 20
-636.76682157
 42
-0.10491325
  0
VERTEX
  8
0
 10
3142.61520258
 20
-639.70475215
 42
0.10490201
  0
VERTEX
  8
0
 10
3141.22249232
 20
-636.76683755
 42
0.09778952
  0
VERTEX
  8
0
 10
3138.69896807
 20
-634.53703185
 42
0.09170844
  0
VERTEX
  8
0
 10
3135.42881368
 20
-633.35480251
 42
0.08953299
  0
VERTEX
  8
0
 10
3131.90987993
 20
-633.40013373
 42
0.09203695
  0
VERTEX
  8
0
 10
3128.67789263
 20
-634.66612353
 42
0.09831814
  0
VERTEX
  8
0
 10
3126.22489311
 20
-636.96003735
 42
0.10533100
  0
VERTEX
  8
0
 10
3124.92432853
 20
-639.93264783
 42
0.10834540
  0
VERTEX
  8
0
 10
3124.97419734
 20
-643.13140001
 42
0.12672712
  0
VERTEX
  8
0
 10
3130.72347708
 20
-653.63188928
 42
0.11611216
  0
VERTEX
  8
0
 10
3141.13975537
 20
-660.55432864
 42
0.10474802
  0
VERTEX
  8
0
 10
3169.36359395
 20
-663.34506065
  0
SEQEND
  0
POLYLINE
  8
0
 66
   1
 70
    0
  0
VERTEX
  8
0
 10
3210.29277366
 20
-654.51742112
 42
-0.09816395
  0
VERTEX
  8
0
 10
3184.20836223
 20
-653.11415456
 42
-0.12429771
  0
VERTEX
  8
0
 10
3177.91142002
 20
-648.55489989
 42
-0.13612311
  0
VERTEX
  8
0
 10
3174.84403433
 20
-641.78907690
 42
-0.13987112
  0
VERTEX
  8
0
 10
3175.77875504
 20
-634.52072242
 42
-0.10854124
  0
VERTEX
  8
0
 10
3177.15237612
 20
-631.77671310
 42
-0.10082272
  0
VERTEX
  8
0
 10
3179.60976082
 20
-629.75215066
 42
-0.09463381
  0
VERTEX
  8
0
 10
3182.74854973
 20
-628.77852345
 42
-0.09301646
  0
VERTEX
  8
0
 10
3186.05481589
 20
-629.01524756
 42
-0.09658275
  0
VERTEX
  8
0
 10
3188.98721009
 20
-630.42356496
 42
-0.10388268
  0
VERTEX
  8
0
 10
3191.06559773
 20
-632.77288512
 42
-0.11079686
  0
VERTEX
  8
0
 10
3191.94967659
 20
-635.67854270
 42
0.11078517
  0
VERTEX
  8
0
 10
3191.07176650
 20
-632.77307286
 42
0.10388950
  0
VERTEX
  8
0
 10
3188.99943158
 20
-630.42147917
 42
0.09658348
  0
VERTEX
  8
0
 10
3186.07178801
 20
-629.00857846
 42
0.09299462
  0
VERTEX
  8
0
 10
3182.76791662
 20
-628.76557643
 42
0.09458301
  0
VERTEX
  8
0
 10
3179.62846516
 20
-629.73223901
 42
0.10074829
  0
VERTEX
  8
0
 10
3177.16717079
 20
-631.75038043
 42
0.10846801
  0
VERTEX
  8
0
 10
3175.78680323
 20
-634.48975308
 42
0.11175397
  0
VERTEX
  8
0
 10
3176.69904359
 20
-639.95827946
 42
0.10605277
  0
VERTEX
  8
0
 10
3179.91742343
 20
-644.65227570
 42
0.09833597
  0
VERTEX
  8
0
 10
3184.91652047
 20
-647.80541804
 42
0.09341800
  0
VERTEX
  8
0
 10
3190.88020268
 20
-648.90293580
 42
0.09346556
  0
VERTEX
  8
0
 10
3196.83486117
 20
-647.76565303
 42
0.09846104
  0
VERTEX
  8
0
 10
3201.80836135
 20
-644.57923854
 42
0.10557863
  0
VERTEX
  8
0
 10
3205.22137950
 20
-638.13959407
 42
0.10969276
  0
VERTEX
  8
0
 10
3205.62391185
 20
-631.00093319
 42
0.10715899
  0
VERTEX
  8
0
 10
3202.95311049
 20
-624.27782405
 42
0.10010507
  0
VERTEX
  8
0
 10
3197.62597167
 20
-619.01995276
 42
0.09350023
  0
VERTEX
  8
0
 10
3190.47422638
 20
-616.04823957
 42
0.10392162
  0
VERTEX
  8
0
 10
3177.38544515
 20
-615.75788965
 42
0.10716390
  0
VERTEX
  8
0
 10
3165.48941695
 20
-620.72867364
 42
0.10162917
  0
VERTEX
  8
0
 10
3157.96383395
 20
-628.65163886
 42
0.22506142
  0
VERTEX
  8
0
 10
3158.03847977
 20
-651.43473594
 42
0.22506142
  0
VERTEX
  8
0
 10
3175.72499552
 20
-665.79656973
 42
0.17060392
  0
VERTEX
  8
0
 10
3214.03346679
 20
-664.23724369
  0
SEQEND
  0
POLYLINE
  8
0
 66
   1
 70
    0
  0
VERTEX
  8
0
 10
3230.97002295
 20
-643.90002949
 42
-0.07040481
  0
VERTEX
  8
0
 10
3309.71221565
 20
-619.89478567
 42
-0.04286354
  0
VERTEX
  8
0
 10
3390.78651608
 20
-615.13961018
 42
-0.07103110
  0
VERTEX
  8
0
 10
3422.75378147
 20
-620.34373374
 42
-0.10010572
  0
VERTEX
  8
0
 10
3433.20801964
 20
-626.09154121
 42
-0.06382495
  0
VERTEX
  8
0
 10
3439.96033876
 20
-633.47124890
 42
-0.12246113
  0
VERTEX
  8
0
 10
3446.04995354
 20
-649.22141884
 42
-0.12499269
  0
VERTEX
  8
0
 10
3443.92851158
 20
-665.80041884
 42
-0.10507923
  0
VERTEX
  8
0
 10
3436.36561049
 20
-676.04231650
 42
-0.10548355
  0
VERTEX
  8
0
 10
3427.12743397
 20
-681.25015536
 42
-0.10049206
  0
VERTEX
  8
0
 10
3416.32257607
 20
-682.38950386
 42
-0.10210214
  0
VERTEX
  8
0
 10
3406.01316752
 20
-679.24291376
 42
-0.10119961
  0
VERTEX
  8
0
 10
3400.94587242
 20
-674.21978488
 42
-0.10855812
  0
VERTEX
  8
0
 10
3398.44850903
 20
-667.79955405
 42
-0.11105440
  0
VERTEX
  8
0
 10
3398.91890732
 20
-661.00496835
 42
-0.10653713
  0
VERTEX
  8
0
 10
3402.28213337
 20
-654.91840687
 42
-0.10796097
  0
VERTEX
  8
0
 10
3407.98714154
 20
-651.15091087
 42
-0.10191625
  0
VERTEX
  8
0
 10
3414.92488104
 20
-649.97736945
 42
-0.10251756
  0
VERTEX
  8
0
 10
3421.74399929
 20
-651.62636672
 42
-0.11768005
  0
VERTEX
  8
0
 10
3425.96224618
 20
-655.25186033
 42
-0.12800347
  0
VERTEX
  8
0
 10
3427.89516007
 20
-660.22224395
 42
-0.12533725
  0
VERTEX
  8
0
 10
3427.54433133
 20
-663.83222304
 42
-0.11874699
  0
VERTEX
  8
0
 10
3425.48509146
 20
-666.93800938
 42
-0.10899797
  0
VERTEX
  8
0
 10
3422.13365098
 20
-668.91186666
 42
-0.10352081
  0
VERTEX
  8
0
 10
3418.16739678
 20
-669.35484343
 42
-0.10522222
  0
VERTEX
  8
0
 10
3414.38798118
 20
-668.17740420
 42
-0.11329836
  0
VERTEX
  8
0
 10
3411.55929353
 20
-665.61753149
 42
0.11339249
  0
VERTEX
  8
0
 10
3414.38859164
 20
-668.18149762
 42
0.10529988
  0
VERTEX
  8
0
 10
3418.17094058
 20
-669.36130076
 42
0.10359255
  0
VERTEX
  8
0
 10
3422.14082063
 20
-668.91815916
 42
0.10907845
  0
VERTEX
  8
0
 10
3425.49476056
 20
-666.94176086
 42
0.11884162
  0
VERTEX
  8
0
 10
3427.55394546
 20
-663.83211392
 42
0.12542856
  0
VERTEX
  8
0
 10
3427.90161303
 20
-660.21858640
 42
0.12299981
  0
VERTEX
  8
0
 10
3427.32072364
 20
-652.08907361
 42
0.11710548
  0
VERTEX
  8
0
 10
3422.93965728
 20
-644.97697165
 42
0.13876926
  0
VERTEX
  8
0
 10
3407.92909849
 20
-637.63520495
 42
0.04642863
  0
VERTEX
  8
0
 10
3360.53491574
 20
-634.16027940
 42
0.04107764
  0
VERTEX
  8
0
 10
3295.19144924
 20
-637.45232532
 42
0.06808969
  0
VERTEX
  8
0
 10
3235.03004820
 20
-655.16096070
  0
SEQEND
  0
POLYLINE
  8
0
 66
   1
 70
    0
  0
VERTEX
  8
0
 10
3280.64170705
 20
-659.62674935
 42
-0.10474802
  0
VERTEX
  8
0
 10
3308.86554482
 20
-662.41748129
 42
-0.11611216
  0
VERTEX
  8
0
 10
3319.28182255
 20
-669.33992080
 42
-0.12672712
  0
VERTEX
  8
0
 10
3325.03110221
 20
-679.84040989
 42
-0.10834540
  0
VERTEX
  8
0
 10
3325.08097080
 20
-683.03916252
 42
-0.10533100
  0
VERTEX
  8
0
 10
3323.78040689
 20
-686.01177265
 42
-0.09831814
  0
VERTEX
  8
0
 10
3321.32740737
 20
-688.30568647
 42
-0.09203695
  0
VERTEX
  8
0
 10
3318.09542007
 20
-689.57167627
 42
-0.08953299
  0
VERTEX
  8
0
 10
3314.57648632
 20
-689.61700749
 42
-0.09170844
  0
VERTEX
  8
0
 10
3311.30633193
 20
-688.43477815
 42
-0.09778952
  0
VERTEX
  8
0
 10
3308.78280706
 20
-686.20497217
 42
-0.10490201
  0
VERTEX
  8
0
 10
3307.39009679
 20
-683.26705735
 42
0.10491325
  0
VERTEX
  8
0
 10
3308.78003632
 20
-686.20498843
 42
0.09780298
  0
VERTEX
  8
0
 10
3311.30100667
 20
-688.43577305
 42
0.09171659
  0
VERTEX
  8
0
 10
3314.56921487
 20
-689.61979528
 42
0.08953267
  0
VERTEX
  8
0
 10
3318.08710375
 20
-689.57679653
 42
0.09202829
  0
VERTEX
  8
0
 10
3321.31910864
 20
-688.31332574
 42
0.09830454
  0
VERTEX
  8
0
 10
3323.77318438
 20
-686.02173294
 42
0.10532029
  0
VERTEX
  8
0
 10
3325.07572201
 20
-683.05089373
 42
0.10834585
  0
VERTEX
  8
0
 10
3325.02842019
 20
-679.85308963
 42
0.10324448
  0
VERTEX
  8
0
 10
3321.79666171
 20
-675.19325092
 42
0.09590612
  0
VERTEX
  8
0
 10
3316.83586321
 20
-672.02950115
 42
0.09112819
  0
VERTEX
  8
0
 10
3310.91580303
 20
-670.85276818
 42
0.09091860
  0
VERTEX
  8
0
 10
3304.95511058
 20
-671.84564700
 42
0.09535062
  0
VERTEX
  8
0
 10
3299.87871947
 20
-674.85407175
 42
0.13484246
  0
VERTEX
  8
0
 10
3294.98860998
 20
-683.15701361
 42
0.14113113
  0
VERTEX
  8
0
 10
3295.18406063
 20
-692.57331955
 42
0.13397846
  0
VERTEX
  8
0
 10
3300.41524931
 20
-700.70266927
 42
0.09539635
  0
VERTEX
  8
0
 10
3308.72511779
 20
-705.74279804
 42
0.09086377
  0
VERTEX
  8
0
 10
3318.53061643
 20
-707.47921523
 42
0.09093248
  0
VERTEX
  8
0
 10
3328.31412674
 20
-705.64317224
 42
0.09557856
  0
VERTEX
  8
0
 10
3336.56143453
 20
-700.51883710
 42
0.10287310
  0
VERTEX
  8
0
 10
3341.99608653
 20
-692.89931456
 42
0.37478989
  0
VERTEX
  8
0
 10
3329.44637443
 20
-653.64322604
 42
0.16663772
  0
VERTEX
  8
0
 10
3260.49615663
 20
-645.47892930
  0
SEQEND
  0
POLYLINE
  8
0
 66
   1
 70
    0
  0
VERTEX
  8
0
 10
3236.24186434
 20
-658.62792374
 42
-0.16931232
  0
VERTEX
  8
0
 10
3274.28030548
 20
-657.17524027
 42
-0.22506142
  0
VERTEX
  8
0
 10
3291.96682123
 20
-671.53707406
 42
-0.22506142
  0
VERTEX
  8
0
 10
3292.04146605
 20
-694.32017114
 42
-0.10162917
  0
VERTEX
  8
0
 10
3284.51588305
 20
-702.24313536
 42
-0.10716390
  0
VERTEX
  8
0
 10
3272.61985485
 20
-707.21392035
 42
-0.10392162
  0
VERTEX
  8
0
 10
3259.53107362
 20
-706.92357043
 42
-0.09350023
  0
VERTEX
  8
0
 10
3252.37932933
 20
-703.95185624
 42
-0.10010507
  0
VERTEX
  8
0
 10
3247.05218951
 20
-698.69398595
 42
-0.10715899
  0
VERTEX
  8
0
 10
3244.38138915
 20
-691.97087581
 42
-0.10969276
  0
VERTEX
  8
0
 10
3244.78392150
 20
-684.83221593
 42
-0.10557863
  0
VERTEX
  8
0
 10
3248.19693965
 20
-678.39257146
 42
-0.09846104
  0
VERTEX
  8
0
 10
3253.17043983
 20
-675.20615597
 42
-0.09346556
  0
VERTEX
  8
0
 10
3259.12509732
 20
-674.06887320
 42
-0.09341800
  0
VERTEX
  8
0
 10
3265.08877953
 20
-675.16639196
 42
-0.09833597
  0
VERTEX
  8
0
 10
3270.08787657
 20
-678.31953430
 42
-0.10605277
  0
VERTEX
  8
0
 10
3273.30625641
 20
-683.01353054
 42
-0.11175397
  0
VERTEX
  8
0
 10
3274.21849777
 20
-688.48205692
 42
-0.10846801
  0
VERTEX
  8
0
 10
3272.83812921
 20
-691.22142857
 42
-0.10074829
  0
VERTEX
  8
0
 10
3270.37683584
 20
-693.23956999
 42
-0.09458301
  0
VERTEX
  8
0
 10
3267.23738338
 20
-694.20623357
 42
-0.09299462
  0
VERTEX
  8
0
 10
3263.93351199
 20
-693.96323154
 42
-0.09658348
  0
VERTEX
  8
0
 10
3261.00586842
 20
-692.55032983
 42
-0.10388950
  0
VERTEX
  8
0
 10
3258.93353350
 20
-690.19873614
 42
-0.11078517
  0
VERTEX
  8
0
 10
3258.05562302
 20
-687.29326635
 42
0.11079686
  0
VERTEX
  8
0
 10
3258.93970230
 20
-690.19892496
 42
0.10388268
  0
VERTEX
  8
0
 10
3261.01808991
 20
-692.54824404
 42
0.09658275
  0
VERTEX
  8
0
 10
3263.95048411
 20
-693.95656144
 42
0.09301646
  0
VERTEX
  8
0
 10
3267.25675027
 20
-694.19328655
 42
0.09463381
  0
VERTEX
  8
0
 10
3270.39553918
 20
-693.21965934
 42
0.10082272
  0
VERTEX
  8
0
 10
3272.85292361
 20
-691.19509592
 42
0.10854124
  0
VERTEX
  8
0
 10
3274.22654496
 20
-688.45108758
 42
0.13987112
  0
VERTEX
  8
0
 10
3275.16126518
 20
-681.18273271
 42
0.13612311
  0
VERTEX
  8
0
 10
3272.09387998
 20
-674.41690911
 42
0.12429771
  0
VERTEX
  8
0
 10
3265.79693891
 20
-669.85765478
 42
0.09819510
  0
VERTEX
  8
0
 10
3239.70432146
 20
-668.45556115
  0
SEQEND
  0
POLYLINE
  8
0
 66
   1
 70
    0
  0
VERTEX
  8
0
 10
3905.68578900
 20
-328.54269900
  0
VERTEX
  8
0
 10
3888.38325000
 20
-328.54269900
  0
SEQEND
  0
POLYLINE
  8
0
 66
   1
 70
    0
  0
VERTEX
  8
0
 10
3927.23938609
 20
-386.06405693
 42
-0.13573415
  0
VERTEX
  8
0
 10
3911.83054884
 20
-373.57462518
 42
-0.13703340
  0
VERTEX
  8
0
 10
3905.11176817
 20
-355.01267866
  0
SEQEND
  0
POLYLINE
  8
0
 66
   1
 70
    0
  0
VERTEX
  8
0
 10
3905.68578600
 20
-359.28589700
  0
VERTEX
  8
0
 10
3888.38324800
 20
-359.28589400
  0
SEQEND
  0
POLYLINE
  8
0
 66
   1
 70
    0
  0
VERTEX
  8
0
 10
3926.79135487
 20
-364.85796966
 42
-0.08224001
  0
VERTEX
  8
0
 10
3925.25194189
 20
-399.86928214
 42
-0.13487207
  0
VERTEX
  8
0
 10
3921.99996040
 20
-404.91211468
 42
-0.13354152
  0
VERTEX
  8
0
 10
3916.60850053
 20
-407.61330989
 42
0.10849143
  0
VERTEX
  8
0
 10
3912.22944879
 20
-410.56433301
 42
0.10938743
  0
VERTEX
  8
0
 10
3909.50876279
 20
-415.06478875
 42
0.10993416
  0
VERTEX
  8
0
 10
3908.95053314
 20
-420.28082671
 42
0.10973270
  0
VERTEX
  8
0
 10
3910.65819049
 20
-425.24601696
 42
0.10893108
  0
VERTEX
  8
0
 10
3914.31533817
 20
-429.04040343
 42
0.10777871
  0
VERTEX
  8
0
 10
3921.86243703
 20
-431.35526249
 42
0.10763214
  0
VERTEX
  8
0
 10
3929.69397023
 20
-430.32123709
 42
0.10819831
  0
VERTEX
  8
0
 10
3936.36493235
 20
-426.12911692
 42
0.11939108
  0
VERTEX
  8
0
 10
3946.73729903
 20
-407.53465648
 42
0.11994082
  0
VERTEX
  8
0
 10
3947.41913546
 20
-386.30267520
 42
0.11545145
  0
VERTEX
  8
0
 10
3936.60384641
 20
-362.79745490
  0
SEQEND
  0
POLYLINE
  8
0
 66
   1
 70
    0
  0
VERTEX
  8
0
 10
3942.83281455
 20
-417.04589410
 42
0.10701092
  0
VERTEX
  8
0
 10
3942.85763130
 20
-422.08578235
 42
0.10664886
  0
VERTEX
  8
0
 10
3944.96622656
 20
-426.67284658
 42
0.10583043
  0
VERTEX
  8
0
 10
3948.78812100
 20
-430.00114322
 42
0.10511203
  0
VERTEX
  8
0
 10
3953.65181231
 20
-431.48589386
 42
0.13722572
  0
VERTEX
  8
0
 10
3964.69482529
 20
-428.59996591
 42
0.13845649
  0
VERTEX
  8
0
 10
3972.58506524
 20
-420.42299648
 42
0.19036117
  0
VERTEX
  8
0
 10
3973.46705138
 20
-403.88687036
 42
0.17748888
  0
VERTEX
  8
0
 10
3940.67545372
 20
-360.68543176
  0
SEQEND
  0
POLYLINE
  8
0
 66
   1
 70
    0
  0
VERTEX
  8
0
 10
3974.50203195
 20
-408.62164068
 42
0.11730999
  0
VERTEX
  8
0
 10
3978.59573157
 20
-414.14099163
 42
0.11629724
  0
VERTEX
  8
0
 10
3984.75655588
 20
-417.25179100
 42
0.11583173
  0
VERTEX
  8
0
 10
3991.67195060
 20
-417.29128747
 42
0.11627627
  0
VERTEX
  8
0
 10
3997.86860005
 20
-414.25106626
 42
0.11316643
  0
VERTEX
  8
0
 10
4002.03578928
 20
-407.88862682
 42
0.11379351
  0
VERTEX
  8
0
 10
4003.00115975
 20
-400.36563861
 42
0.11360343
  0
VERTEX
  8
0
 10
4000.57335460
 20
-393.17332861
 42
0.14695944
  0
VERTEX
  8
0
 10
3946.93026381
 20
-355.00086180
  0
SEQEND
  0
POLYLINE
  8
0
 66
   1
 70
    0
  0
VERTEX
  8
0
 10
3946.93026633
 20
-332.82774320
 42
0.14695944
  0
VERTEX
  8
0
 10
4000.57336338
 20
-294.65528674
 42
0.11360343
  0
VERTEX
  8
0
 10
4003.00117040
 20
-287.46297691
 42
0.11379352
  0
VERTEX
  8
0
 10
4002.03580093
 20
-279.93998800
 42
0.11316643
  0
VERTEX
  8
0
 10
3997.86861328
 20
-273.57754758
 42
0.11627627
  0
VERTEX
  8
0
 10
3991.67196403
 20
-270.53732532
 42
0.11583173
  0
VERTEX
  8
0
 10
3984.75657068
 20
-270.57682132
 42
0.11629724
  0
VERTEX
  8
0
 10
3978.59574575
 20
-273.68761953
 42
0.11730999
  0
VERTEX
  8
0
 10
3974.50204508
 20
-279.20696969
  0
SEQEND
  0
POLYLINE
  8
0
 66
   1
 70
    0
  0
VERTEX
  8
0
 10
3948.78813804
 20
-257.82746165
 42
0.10583043
  0
VERTEX
  8
0
 10
3944.96624253
 20
-261.15575766
 42
0.10664886
  0
VERTEX
  8
0
 10
3942.85764679
 20
-265.74282142
 42
0.10701092
  0
VERTEX
  8
0
 10
3942.83282908
 20
-270.78270966
  0
SEQEND
  0
POLYLINE
  8
0
 66
   1
 70
    0
  0
VERTEX
  8
0
 10
3940.67545753
 20
-327.14317125
 42
0.17748888
  0
VERTEX
  8
0
 10
3973.46706401
 20
-283.94173974
 42
0.19036117
  0
VERTEX
  8
0
 10
3972.58508027
 20
-267.40561378
 42
0.13845649
  0
VERTEX
  8
0
 10
3964.69484204
 20
-259.22864092
 42
0.04698340
  0
VERTEX
  8
0
 10
3982.28876981
 20
-101.79276088
 42
0.07153365
  0
VERTEX
  8
0
 10
3977.08312506
 20
-70.06591672
 42
0.10122294
  0
VERTEX
  8
0
 10
3971.24279010
 20
-59.55609004
 42
0.06335566
  0
VERTEX
  8
0
 10
3963.89259408
 20
-52.90798390
 42
0.12160915
  0
VERTEX
  8
0
 10
3948.08698662
 20
-46.85416789
 42
0.12385938
  0
VERTEX
  8
0
 10
3931.44963471
 20
-48.96314519
 42
0.10478447
  0
VERTEX
  8
0
 10
3921.17169058
 20
-56.48159546
 42
0.10599515
  0
VERTEX
  8
0
 10
3915.94552456
 20
-65.66547325
 42
0.10142084
  0
VERTEX
  8
0
 10
3914.80217008
 20
-76.40682232
 42
0.10290075
  0
VERTEX
  8
0
 10
3917.95983887
 20
-86.65563272
 42
0.10120346
  0
VERTEX
  8
0
 10
3923.00064925
 20
-91.69314134
 42
0.10780564
  0
VERTEX
  8
0
 10
3929.44347697
 20
-94.17582356
 42
0.11002420
  0
VERTEX
  8
0
 10
3936.26197696
 20
-93.70818778
 42
0.10600166
  0
VERTEX
  8
0
 10
3942.36996064
 20
-90.36472871
 42
0.10835648
  0
VERTEX
  8
0
 10
3946.15071517
 20
-84.69325269
 42
0.10282534
  0
VERTEX
  8
0
 10
3947.32838591
 20
-77.79629153
 42
0.10337818
  0
VERTEX
  8
0
 10
3945.67358266
 20
-71.01725583
 42
0.11784146
  0
VERTEX
  8
0
 10
3942.03532621
 20
-66.82380362
 42
0.12711605
  0
VERTEX
  8
0
 10
3937.04744756
 20
-64.90225285
 42
0.12418518
  0
VERTEX
  8
0
 10
3933.42476300
 20
-65.25102130
 42
0.11830844
  0
VERTEX
  8
0
 10
3930.30804611
 20
-67.29815800
 42
0.10949269
  0
VERTEX
  8
0
 10
3928.32724273
 20
-70.62989942
 42
0.10447495
  0
VERTEX
  8
0
 10
3927.88270846
 20
-74.57284085
 42
0.10603869
  0
VERTEX
  8
0
 10
3929.06429305
 20
-78.33004110
 42
0.11339952
  0
VERTEX
  8
0
 10
3931.63317597
 20
-81.14210126
 42
-0.11349227
  0
VERTEX
  8
0
 10
3929.06018498
 20
-78.32943482
 42
-0.10611655
  0
VERTEX
  8
0
 10
3927.87622737
 20
-74.56931788
 42
-0.10454738
  0
VERTEX
  8
0
 10
3928.32092692
 20
-70.62277160
 42
-0.10957310
  0
VERTEX
  8
0
 10
3930.30428121
 20
-67.28854644
 42
-0.11840153
  0
VERTEX
  8
0
 10
3933.42487323
 20
-65.24146339
 42
-0.12427522
  0
VERTEX
  8
0
 10
3937.05111885
 20
-64.89583731
 42
-0.12185951
  0
VERTEX
  8
0
 10
3945.20924451
 20
-65.47331105
 42
-0.11660677
  0
VERTEX
  8
0
 10
3952.34638042
 20
-69.82862322
 42
-0.13956925
  0
VERTEX
  8
0
 10
3959.71399225
 20
-84.75094897
 42
-0.04686277
  0
VERTEX
  8
0
 10
3963.20116278
 20
-131.86655401
 42
-0.04146396
  0
VERTEX
  8
0
 10
3959.89755091
 20
-196.82594546
 42
-0.03269302
  0
VERTEX
  8
0
 10
3953.46982879
 20
-225.95875348
  0
SEQEND
  0
POLYLINE
  8
0
 66
   1
 70
    0
  0
VERTEX
  8
0
 10
3926.79135918
 20
-322.97063264
 42
0.08224001
  0
VERTEX
  8
0
 10
3925.25195353
 20
-287.95931984
 42
0.13487207
  0
VERTEX
  8
0
 10
3921.99997217
 20
-282.91648590
 42
0.13354152
  0
VERTEX
  8
0
 10
3916.60851307
 20
-280.21528847
 42
-0.10849143
  0
VERTEX
  8
0
 10
3912.22946117
 20
-277.26426473
 42
-0.10938743
  0
VERTEX
  8
0
 10
3909.50877604
 20
-272.76380904
 42
-0.10993416
  0
VERTEX
  8
0
 10
3908.95054826
 20
-267.54777062
 42
-0.10973270
  0
VERTEX
  8
0
 10
3910.65820671
 20
-262.58258106
 42
-0.10893108
  0
VERTEX
  8
0
 10
3914.31535512
 20
-258.78819527
 42
-0.10777871
  0
VERTEX
  8
0
 10
3921.86245330
 20
-256.47333761
 42
-0.10763214
  0
VERTEX
  8
0
 10
3929.69398658
 20
-257.50736411
 42
-0.10819831
  0
VERTEX
  8
0
 10
3936.36494887
 20
-261.69948556
  0
SEQEND
  0
POLYLINE
  8
0
 66
   1
 70
    0
  0
VERTEX
  8
0
 10
3936.60384972
 20
-325.03114771
 42
0.11545145
  0
VERTEX
  8
0
 10
3947.41914361
 20
-301.52592968
 42
0.11994082
  0
VERTEX
  8
0
 10
3946.73731257
 20
-280.29394864
 42
0.11939108
  0
VERTEX
  8
0
 10
3936.36494867
 20
-261.69948496
 42
0.14718674
  0
VERTEX
  8
0
 10
3936.89669207
 20
-213.81671007
 42
0.27775941
  0
VERTEX
  8
0
 10
3918.21532061
 20
-196.89623871
 42
0.27775941
  0
VERTEX
  8
0
 10
3894.51889944
 20
-205.48551311
 42
0.10769302
  0
VERTEX
  8
0
 10
3889.53062393
 20
-217.33981968
 42
0.10465372
  0
VERTEX
  8
0
 10
3889.82200071
 20
-230.38269389
 42
0.09396376
  0
VERTEX
  8
0
 10
3892.80417536
 20
-237.50935465
 42
0.10011181
  0
VERTEX
  8
0
 10
3898.08055387
 20
-242.81780876
 42
0.10661142
  0
VERTEX
  8
0
 10
3904.82732718
 20
-245.47924011
 42
0.10892948
  0
VERTEX
  8
0
 10
3911.99111364
 20
-245.07811633
 42
0.10516118
  0
VERTEX
  8
0
 10
3918.45342224
 20
-241.67706642
 42
0.09874864
  0
VERTEX
  8
0
 10
3921.65105114
 20
-236.72100968
 42
0.09407779
  0
VERTEX
  8
0
 10
3922.79233484
 20
-230.78723575
 42
0.09403316
  0
VERTEX
  8
0
 10
3921.69095135
 20
-224.84447054
 42
0.09863211
  0
VERTEX
  8
0
 10
3918.52670929
 20
-219.86290751
 42
0.10578222
  0
VERTEX
  8
0
 10
3913.81619058
 20
-216.65581760
 42
0.11101337
  0
VERTEX
  8
0
 10
3908.32841663
 20
-215.74677784
 42
0.10801372
  0
VERTEX
  8
0
 10
3905.57940301
 20
-217.12230481
 42
0.10088471
  0
VERTEX
  8
0
 10
3903.55415878
 20
-219.57496664
 42
0.09513339
  0
VERTEX
  8
0
 10
3902.58409505
 20
-222.70340851
 42
0.09364327
  0
VERTEX
  8
0
 10
3902.82795405
 20
-225.99569206
 42
0.09700519
  0
VERTEX
  8
0
 10
3904.24582875
 20
-228.91306693
 42
0.10379522
  0
VERTEX
  8
0
 10
3906.60569937
 20
-230.97813339
 42
0.11013800
  0
VERTEX
  8
0
 10
3909.52139555
 20
-231.85296347
 42
-0.11015127
  0
VERTEX
  8
0
 10
3906.60551144
 20
-230.97198579
 42
-0.10379120
  0
VERTEX
  8
0
 10
3904.24792218
 20
-228.90088751
 42
-0.09700650
  0
VERTEX
  8
0
 10
3902.83464626
 20
-225.97877962
 42
-0.09366562
  0
VERTEX
  8
0
 10
3902.59708724
 20
-222.68410943
 42
-0.09518290
  0
VERTEX
  8
0
 10
3903.57414040
 20
-219.55632846
 42
-0.10095598
  0
VERTEX
  8
0
 10
3905.60582862
 20
-217.10756259
 42
-0.10808344
  0
VERTEX
  8
0
 10
3908.35949556
 20
-215.73875848
 42
-0.13892323
  0
VERTEX
  8
0
 10
3915.65343246
 20
-214.80731431
 42
-0.13549232
  0
VERTEX
  8
0
 10
3922.44306937
 20
-217.86393933
 42
-0.12456786
  0
VERTEX
  8
0
 10
3927.01837366
 20
-224.13879321
 42
-0.12464025
  0
VERTEX
  8
0
 10
3927.12060502
 20
-256.78495015
  0
SEQEND
  0
POLYLINE
  8
0
 66
   1
 70
    0
  0
VERTEX
  8
0
 10
3927.23939364
 20
-301.76454421
 42
0.13573415
  0
VERTEX
  8
0
 10
3911.83055462
 20
-314.25397339
 42
0.13703340
  0
VERTEX
  8
0
 10
3905.11177070
 20
-332.81591832
  0
SEQEND
  0
POLYLINE
  8
0
 66
   1
 70
    0
  0
VERTEX
  8
0
 10
3938.52155725
 20
-423.61947022
 42
0.00000000
  0
VERTEX
  8
0
 10
3938.52139716
 20
-423.61914919
  0
SEQEND
  0
POLYLINE
  8
0
 66
   1
 70
    0
  0
VERTEX
  8
0
 10
3997.05954395
 20
-388.86842191
 42
0.07820858
  0
VERTEX
  8
0
 10
4000.77056451
 20
-386.48609300
 42
0.09949863
  0
VERTEX
  8
0
 10
4004.10594409
 20
-382.05937512
 42
0.09996197
  0
VERTEX
  8
0
 10
4005.46330253
 20
-376.69880152
 42
0.10001982
  0
VERTEX
  8
0
 10
4004.63271781
 20
-371.23339788
 42
0.13597771
  0
VERTEX
  8
0
 10
3993.02537427
 20
-353.35115845
 42
0.13490982
  0
VERTEX
  8
0
 10
3973.81494625
 20
-343.91432104
 42
0.13490983
  0
VERTEX
  8
0
 10
3993.02537475
 20
-334.47748153
 42
0.13597770
  0
VERTEX
  8
0
 10
4004.63271803
 20
-316.59524387
 42
0.10001982
  0
VERTEX
  8
0
 10
4005.46330181
 20
-311.12984108
 42
0.09996198
  0
VERTEX
  8
0
 10
4004.10594554
 20
-305.76926653
 42
0.09949864
  0
VERTEX
  8
0
 10
4000.77056523
 20
-301.34254786
 42
0.07820878
  0
VERTEX
  8
0
 10
3997.05953399
 20
-298.96021370
  0
SEQEND
  0
POLYLINE
  8
0
 66
   1
 70
    0
  0
VERTEX
  8
0
 10
4000.04736751
 20
-326.32163518
 42
-0.10638736
  0
VERTEX
  8
0
 10
4007.19949752
 20
-328.48917381
 42
-0.10664932
  0
VERTEX
  8
0
 10
4012.81758353
 20
-333.40355150
 42
-0.10694575
  0
VERTEX
  8
0
 10
4015.90118326
 20
-340.18963882
 42
-0.10707405
  0
VERTEX
  8
0
 10
4015.90118344
 20
-347.63900092
 42
-0.10694575
  0
VERTEX
  8
0
 10
4012.81758371
 20
-354.42508825
 42
-0.10664932
  0
VERTEX
  8
0
 10
4007.19949767
 20
-359.33946637
 42
-0.10638736
  0
VERTEX
  8
0
 10
4000.04736781
 20
-361.50700479
  0
SEQEND
  0
POLYLINE
  8
0
 66
   1
 70
    0
  0
VERTEX
  8
0
 10
3944.51435564
 20
-641.21850443
 42
-0.03520561
  0
VERTEX
  8
0
 10
3944.72396142
 20
-642.85543318
 42
-0.09973759
  0
VERTEX
  8
0
 10
3944.07170333
 20
-647.42239954
 42
-0.09981921
  0
VERTEX
  8
0
 10
3941.70166825
 20
-651.37817432
 42
-0.09958059
  0
VERTEX
  8
0
 10
3937.98038557
 20
-654.11098274
 42
-0.13534805
  0
VERTEX
  8
0
 10
3920.56639469
 20
-657.83248826
 42
-0.05665285
  0
VERTEX
  8
0
 10
3913.06901094
 20
-656.53406791
 42
0.27424702
  0
VERTEX
  8
0
 10
3909.11553911
 20
-657.54635665
 42
0.27424702
  0
VERTEX
  8
0
 10
3908.10798715
 20
-661.50103896
 42
-0.05678795
  0
VERTEX
  8
0
 10
3909.40582797
 20
-668.95390782
 42
-0.13621827
  0
VERTEX
  8
0
 10
3905.67122285
 20
-686.30682073
 42
-0.09978798
  0
VERTEX
  8
0
 10
3902.92879431
 20
-690.01505023
 42
-0.09948699
  0
VERTEX
  8
0
 10
3898.95909668
 20
-692.37677335
 42
-0.09906684
  0
VERTEX
  8
0
 10
3894.37605512
 20
-693.02674331
 42
-0.09877728
  0
VERTEX
  8
0
 10
3889.88845136
 20
-691.86443973
 42
-0.17791713
  0
VERTEX
  8
0
 10
3884.21670042
 20
-686.00021083
  0
SEQEND
  0
POLYLINE
  8
0
 66
   1
 70
    0
  0
VERTEX
  8
0
 10
3908.72078202
 20
-677.88302186
 42
0.10755796
  0
VERTEX
  8
0
 10
3910.64784029
 20
-686.37762106
 42
0.10725808
  0
VERTEX
  8
0
 10
3915.93464497
 20
-693.31545913
 42
0.10687321
  0
VERTEX
  8
0
 10
3923.63225244
 20
-697.45124542
 42
0.10666653
  0
VERTEX
  8
0
 10
3932.35899895
 20
-698.04263575
 42
0.10677756
  0
VERTEX
  8
0
 10
3940.54849479
 20
-694.98347850
 42
0.10713150
  0
VERTEX
  8
0
 10
3946.73078633
 20
-688.82287207
 42
0.10748749
  0
VERTEX
  8
0
 10
3949.79619591
 20
-680.66660033
 42
0.10759955
  0
VERTEX
  8
0
 10
3949.19450499
 20
-671.97865485
 42
0.10738950
  0
VERTEX
  8
0
 10
3945.03371344
 20
-664.31845853
 42
0.10700360
  0
VERTEX
  8
0
 10
3938.06065312
 20
-659.06096225
 42
0.10670721
  0
VERTEX
  8
0
 10
3929.52693583
 20
-657.14984788
  0
SEQEND
  0
POLYLINE
  8
0
 66
   1
 70
    0
  0
VERTEX
  8
0
 10
3921.17172201
 20
-631.34691101
 42
-0.09835881
  0
VERTEX
  8
0
 10
3911.01812889
 20
-632.44727872
 42
-0.09840531
  0
VERTEX
  8
0
 10
3901.21719406
 20
-629.58394865
 42
-0.09862295
  0
VERTEX
  8
0
 10
3893.26713583
 20
-623.19462377
 42
-0.09888487
  0
VERTEX
  8
0
 10
3888.38323403
 20
-614.25600669
 42
-0.11191488
  0
VERTEX
  8
0
 10
3892.06425313
 20
-635.98007023
 42
-0.11187774
  0
VERTEX
  8
0
 10
3886.01660999
 20
-657.17139136
  0
SEQEND
  0
POLYLINE
  8
0
 66
   1
 70
    0
  0
VERTEX
  8
0
 10
3963.20815725
 20
-555.74272020
 42
-0.09260022
  0
VERTEX
  8
0
 10
3957.66860265
 20
-572.10187176
 42
-0.26143658
  0
VERTEX
  8
0
 10
3917.34904611
 20
-595.02411485
 42
-0.09166469
  0
VERTEX
  8
0
 10
3907.76500504
 20
-593.28411764
 42
-0.11913829
  0
VERTEX
  8
0
 10
3896.59698902
 20
-585.60538385
 42
-0.11020444
  0
VERTEX
  8
0
 10
3889.68932013
 20
-573.32291463
 42
-0.10963970
  0
VERTEX
  8
0
 10
3889.35124962
 20
-561.03345050
 42
-0.11304860
  0
VERTEX
  8
0
 10
3894.21333282
 20
-549.94483479
 42
-0.12223703
  0
VERTEX
  8
0
 10
3903.19129092
 20
-542.52990452
 42
-0.13009325
  0
VERTEX
  8
0
 10
3914.28297909
 20
-540.44223921
 42
-0.11148184
  0
VERTEX
  8
0
 10
3920.26997185
 20
-542.32852779
 42
-0.10485893
  0
VERTEX
  8
0
 10
3925.06138282
 20
-546.68005317
 42
-0.09799553
  0
VERTEX
  8
0
 10
3927.85231246
 20
-552.76581150
 42
-0.10034599
  0
VERTEX
  8
0
 10
3928.53002685
 20
-559.05096109
 42
-0.10174256
  0
VERTEX
  8
0
 10
3926.71581836
 20
-565.06124826
 42
-0.10836485
  0
VERTEX
  8
0
 10
3922.74876754
 20
-569.67333207
 42
-0.11637853
  0
VERTEX
  8
0
 10
3917.37032889
 20
-572.02519924
 42
-0.11940935
  0
VERTEX
  8
0
 10
3911.58574984
 20
-571.67727924
 42
-0.10543683
  0
VERTEX
  8
0
 10
3908.31690366
 20
-568.89102838
 42
-0.09841973
  0
VERTEX
  8
0
 10
3906.34591786
 20
-564.90625142
 42
-0.09491594
  0
VERTEX
  8
0
 10
3906.00393206
 20
-560.39241940
 42
-0.09645706
  0
VERTEX
  8
0
 10
3907.34840180
 20
-556.10788908
 42
-0.10241350
  0
VERTEX
  8
0
 10
3910.15344600
 20
-552.77249300
  0
VERTEX
  8
0
 10
3910.15919400
 20
-552.74005300
  0
VERTEX
  8
0
 10
3910.12703800
 20
-552.71094200
  0
VERTEX
  8
0
 10
3909.96991200
 20
-552.77249300
 42
0.09998201
  0
VERTEX
  8
0
 10
3907.26261488
 20
-556.16363349
 42
0.09442339
  0
VERTEX
  8
0
 10
3905.99702512
 20
-560.44555598
 42
0.09310597
  0
VERTEX
  8
0
 10
3906.37778846
 20
-564.92587091
 42
0.09654354
  0
VERTEX
  8
0
 10
3908.34333742
 20
-568.88010581
 42
0.10329061
  0
VERTEX
  8
0
 10
3911.57583926
 20
-571.66885738
 42
0.11756863
  0
VERTEX
  8
0
 10
3921.19100048
 20
-573.15101541
 42
0.02053112
  0
VERTEX
  8
0
 10
3922.92950788
 20
-572.93229936
 42
0.18331675
  0
VERTEX
  8
0
 10
3933.34240599
 20
-566.84778879
 42
0.21075532
  0
VERTEX
  8
0
 10
3945.53607335
 20
-521.72772631
  0
SEQEND
  0
POLYLINE
  8
0
 66
   1
 70
    0
  0
VERTEX
  8
0
 10
3940.15466703
 20
-450.03132103
 42
-0.04765601
  0
VERTEX
  8
0
 10
3937.35140059
 20
-492.04925771
 42
-0.05226108
  0
VERTEX
  8
0
 10
3934.47602133
 20
-505.88320124
 42
-0.11642614
  0
VERTEX
  8
0
 10
3927.52921523
 20
-516.26294545
 42
-0.12624609
  0
VERTEX
  8
0
 10
3916.99176567
 20
-521.99205854
 42
-0.10758708
  0
VERTEX
  8
0
 10
3913.78175446
 20
-522.04175215
 42
-0.10482848
  0
VERTEX
  8
0
 10
3910.79868296
 20
-520.74574736
 42
-0.09836199
  0
VERTEX
  8
0
 10
3908.49669574
 20
-518.30135129
 42
-0.09251181
  0
VERTEX
  8
0
 10
3907.22625017
 20
-515.08069955
 42
-0.09016414
  0
VERTEX
  8
0
 10
3907.18075999
 20
-511.57410801
 42
-0.09220430
  0
VERTEX
  8
0
 10
3908.36715110
 20
-508.31542244
 42
-0.09787177
  0
VERTEX
  8
0
 10
3910.60480470
 20
-505.80074919
 42
-0.10443488
  0
VERTEX
  8
0
 10
3913.55306105
 20
-504.41292519
 42
0.10444519
  0
VERTEX
  8
0
 10
3910.60478961
 20
-505.79798850
 42
0.09788426
  0
VERTEX
  8
0
 10
3908.36615166
 20
-508.31011688
 42
0.09221193
  0
VERTEX
  8
0
 10
3907.17796189
 20
-511.56686170
 42
0.09016385
  0
VERTEX
  8
0
 10
3907.22111142
 20
-515.07241270
 42
0.09250369
  0
VERTEX
  8
0
 10
3908.48902820
 20
-518.29308198
 42
0.09834938
  0
VERTEX
  8
0
 10
3910.78868592
 20
-520.73855144
 42
0.10481865
  0
VERTEX
  8
0
 10
3913.76998212
 20
-522.03651973
 42
0.10758750
  0
VERTEX
  8
0
 10
3916.97904072
 20
-521.98938455
 42
0.10298832
  0
VERTEX
  8
0
 10
3921.65528188
 20
-518.76896261
 42
0.09618881
  0
VERTEX
  8
0
 10
3924.83016762
 20
-513.82556391
 42
0.09172145
  0
VERTEX
  8
0
 10
3926.01104369
 20
-507.92626722
 42
0.09152477
  0
VERTEX
  8
0
 10
3925.01467151
 20
-501.98648076
 42
0.09567105
  0
VERTEX
  8
0
 10
3921.99565943
 20
-496.92789389
 42
0.13438122
  0
VERTEX
  8
0
 10
3913.66349386
 20
-492.05493422
 42
0.14014372
  0
VERTEX
  8
0
 10
3904.21404601
 20
-492.24969743
 42
0.13358621
  0
VERTEX
  8
0
 10
3896.05608318
 20
-497.46253647
 42
0.09570478
  0
VERTEX
  8
0
 10
3890.99821321
 20
-505.74325844
 42
0.09146516
  0
VERTEX
  8
0
 10
3889.25568124
 20
-515.51436486
 42
0.09152964
  0
VERTEX
  8
0
 10
3891.09818451
 20
-525.26356248
 42
0.09587460
  0
VERTEX
  8
0
 10
3896.24055385
 20
-533.48194620
 42
0.10263572
  0
VERTEX
  8
0
 10
3903.88689363
 20
-538.89753811
 42
0.21668954
  0
VERTEX
  8
0
 10
3933.03069367
 20
-534.97545683
 42
0.21668954
  0
VERTEX
  8
0
 10
3949.23121376
 20
-510.43392265
 42
0.11699036
  0
VERTEX
  8
0
 10
3948.78812117
 20
-430.00114401
  0
SEQEND
  0
POLYLINE
  8
0
 66
   1
 70
    0
  0
VERTEX
  8
0
 10
3672.96558166
 20
-678.79076990
 42
0.07111241
  0
VERTEX
  8
0
 10
3752.11959880
 20
-703.07702418
 42
0.04296504
  0
VERTEX
  8
0
 10
3833.00103651
 20
-707.83219912
 42
0.07119170
  0
VERTEX
  8
0
 10
3864.89225170
 20
-702.62807652
 42
0.10023333
  0
VERTEX
  8
0
 10
3875.32162155
 20
-696.88026863
 42
0.06381129
  0
VERTEX
  8
0
 10
3882.05787784
 20
-689.50056012
 42
0.12224536
  0
VERTEX
  8
0
 10
3888.13300640
 20
-673.75039036
 42
0.12470489
  0
VERTEX
  8
0
 10
3886.01661104
 20
-657.17139131
 42
0.10500533
  0
VERTEX
  8
0
 10
3878.47170201
 20
-646.92949278
 42
0.10561347
  0
VERTEX
  8
0
 10
3869.25550145
 20
-641.72165347
 42
0.10072640
  0
VERTEX
  8
0
 10
3858.47634585
 20
-640.58230538
 42
0.10230398
  0
VERTEX
  8
0
 10
3848.19146297
 20
-643.72889694
 42
0.10120143
  0
VERTEX
  8
0
 10
3843.13622201
 20
-648.75202574
 42
0.10836756
  0
VERTEX
  8
0
 10
3840.64479850
 20
-655.17225460
 42
0.11079273
  0
VERTEX
  8
0
 10
3841.11407781
 20
-661.96684113
 42
0.10640196
  0
VERTEX
  8
0
 10
3844.46930402
 20
-668.05340243
 42
0.10806172
  0
VERTEX
  8
0
 10
3850.16074023
 20
-671.82089804
 42
0.10214571
  0
VERTEX
  8
0
 10
3857.08197615
 20
-672.99444098
 42
0.10273492
  0
VERTEX
  8
0
 10
3863.88487249
 20
-671.34544350
 42
0.11772185
  0
VERTEX
  8
0
 10
3868.09308445
 20
-667.71994919
 42
0.12777873
  0
VERTEX
  8
0
 10
3870.02140018
 20
-662.74956592
 42
0.12504465
  0
VERTEX
  8
0
 10
3869.67140640
 20
-659.13958650
 42
0.11863666
  0
VERTEX
  8
0
 10
3867.61706549
 20
-656.03380067
 42
0.10912369
  0
VERTEX
  8
0
 10
3864.27359759
 20
-654.05994287
 42
0.10376156
  0
VERTEX
  8
0
 10
3860.31677834
 20
-653.61696717
 42
0.10542859
  0
VERTEX
  8
0
 10
3856.54635338
 20
-654.79440662
 42
0.11332489
  0
VERTEX
  8
0
 10
3853.72439464
 20
-657.35427879
 42
-0.11341867
  0
VERTEX
  8
0
 10
3856.54696216
 20
-654.79031273
 42
-0.10550630
  0
VERTEX
  8
0
 10
3860.32031384
 20
-653.61050947
 42
-0.10383347
  0
VERTEX
  8
0
 10
3864.28075080
 20
-654.05365039
 42
-0.10920416
  0
VERTEX
  8
0
 10
3867.62671079
 20
-656.03004932
 42
-0.11873090
  0
VERTEX
  8
0
 10
3869.68099750
 20
-659.13969654
 42
-0.12513564
  0
VERTEX
  8
0
 10
3870.02783895
 20
-662.75322371
 42
-0.12271017
  0
VERTEX
  8
0
 10
3869.44833033
 20
-670.88273652
 42
-0.11697981
  0
VERTEX
  8
0
 10
3865.07768611
 20
-677.99483863
 42
-0.13897206
  0
VERTEX
  8
0
 10
3850.10283547
 20
-685.33660527
 42
-0.04653816
  0
VERTEX
  8
0
 10
3802.82139451
 20
-688.81152967
 42
-0.04117509
  0
VERTEX
  8
0
 10
3737.63337510
 20
-685.51948482
 42
-0.06865808
  0
VERTEX
  8
0
 10
3677.25395852
 20
-667.64783621
  0
SEQEND
  0
POLYLINE
  8
0
 66
   1
 70
    0
  0
VERTEX
  8
0
 10
3804.17699120
 20
-688.83456480
 42
0.08341659
  0
VERTEX
  8
0
 10
3818.99352465
 20
-683.56888781
 42
0.33222618
  0
VERTEX
  8
0
 10
3840.77275709
 20
-635.99793589
 42
0.06482462
  0
VERTEX
  8
0
 10
3839.04259521
 20
-631.13211593
 42
0.09333477
  0
VERTEX
  8
0
 10
3832.54457688
 20
-622.71147475
 42
0.10980097
  0
VERTEX
  8
0
 10
3820.21887876
 20
-615.82803064
 42
0.10887311
  0
VERTEX
  8
0
 10
3807.88615975
 20
-615.49114311
 42
0.11251019
  0
VERTEX
  8
0
 10
3796.75851530
 20
-620.33617086
 42
0.12239654
  0
VERTEX
  8
0
 10
3789.31748544
 20
-629.28263906
 42
0.13094723
  0
VERTEX
  8
0
 10
3787.22246906
 20
-640.33542494
 42
0.11212468
  0
VERTEX
  8
0
 10
3789.11539559
 20
-646.30141917
 42
0.10492712
  0
VERTEX
  8
0
 10
3793.48223539
 20
-651.07602677
 42
0.09754589
  0
VERTEX
  8
0
 10
3799.58941339
 20
-653.85716859
 42
0.09965931
  0
VERTEX
  8
0
 10
3805.89668486
 20
-654.53250725
 42
0.10114800
  0
VERTEX
  8
0
 10
3811.92812573
 20
-652.72466265
 42
0.10824844
  0
VERTEX
  8
0
 10
3816.55644446
 20
-648.77152750
 42
0.11693355
  0
VERTEX
  8
0
 10
3818.91659004
 20
-643.41195290
 42
0.12024526
  0
VERTEX
  8
0
 10
3818.56744645
 20
-637.64766087
 42
0.10555171
  0
VERTEX
  8
0
 10
3815.77138960
 20
-634.39028043
 42
0.09799940
  0
VERTEX
  8
0
 10
3811.77258782
 20
-632.42620639
 42
0.09425881
  0
VERTEX
  8
0
 10
3807.24286837
 20
-632.08541826
 42
0.09590161
  0
VERTEX
  8
0
 10
3802.94325837
 20
-633.42517228
 42
0.10228773
  0
VERTEX
  8
0
 10
3799.59612234
 20
-636.22037778
  0
VERTEX
  8
0
 10
3799.56356800
 20
-636.22610600
  0
VERTEX
  8
0
 10
3799.53435500
 20
-636.19406200
  0
VERTEX
  8
0
 10
3799.59612200
 20
-636.03748700
 42
-0.09982418
  0
VERTEX
  8
0
 10
3802.99919870
 20
-633.33968606
 42
-0.09386745
  0
VERTEX
  8
0
 10
3807.29619310
 20
-632.07853514
 42
-0.09246326
  0
VERTEX
  8
0
 10
3811.79227638
 20
-632.45796526
 42
-0.09613331
  0
VERTEX
  8
0
 10
3815.76042874
 20
-634.41662055
 42
-0.10339457
  0
VERTEX
  8
0
 10
3818.55899612
 20
-637.63778567
 42
-0.11835880
  0
VERTEX
  8
0
 10
3820.04636898
 20
-647.21922460
 42
-0.11683585
  0
VERTEX
  8
0
 10
3816.99971283
 20
-656.49080211
 42
-0.16566840
  0
VERTEX
  8
0
 10
3799.68857338
 20
-668.60014178
 42
-0.08227710
  0
VERTEX
  8
0
 10
3765.82263241
 20
-672.07831890
  0
SEQEND
  0
POLYLINE
  8
0
 66
   1
 70
    0
  0
VERTEX
  8
0
 10
3723.23640605
 20
-663.34506065
 42
0.10474802
  0
VERTEX
  8
0
 10
3751.46024382
 20
-660.55432871
 42
0.11611216
  0
VERTEX
  8
0
 10
3761.87652192
 20
-653.63188928
 42
0.12672712
  0
VERTEX
  8
0
 10
3767.62580266
 20
-643.13140001
 42
0.10834540
  0
VERTEX
  8
0
 10
3767.67567080
 20
-639.93264748
 42
0.10533100
  0
VERTEX
  8
0
 10
3766.37510639
 20
-636.96003804
 42
0.09831814
  0
VERTEX
  8
0
 10
3763.92210637
 20
-634.66612353
 42
0.09203695
  0
VERTEX
  8
0
 10
3760.69011954
 20
-633.40013427
 42
0.08953299
  0
VERTEX
  8
0
 10
3757.17118632
 20
-633.35480251
 42
0.09170844
  0
VERTEX
  8
0
 10
3753.90103126
 20
-634.53703161
 42
0.09778952
  0
VERTEX
  8
0
 10
3751.37750768
 20
-636.76683755
 42
0.10490201
  0
VERTEX
  8
0
 10
3749.98479679
 20
-639.70475165
 42
-0.10491325
  0
VERTEX
  8
0
 10
3751.37473632
 20
-636.76682157
 42
-0.09780298
  0
VERTEX
  8
0
 10
3753.89570603
 20
-634.53603649
 42
-0.09171659
  0
VERTEX
  8
0
 10
3757.16391463
 20
-633.35201572
 42
-0.08953267
  0
VERTEX
  8
0
 10
3760.68180375
 20
-633.39501347
 42
-0.09202829
  0
VERTEX
  8
0
 10
3763.91380830
 20
-634.65848464
 42
-0.09830454
  0
VERTEX
  8
0
 10
3766.36788399
 20
-636.95007665
 42
-0.10532029
  0
VERTEX
  8
0
 10
3767.67042101
 20
-639.92091627
 42
-0.10834585
  0
VERTEX
  8
0
 10
3767.62312031
 20
-643.11872005
 42
-0.10324448
  0
VERTEX
  8
0
 10
3764.39136086
 20
-647.77855848
 42
-0.09590612
  0
VERTEX
  8
0
 10
3759.43056234
 20
-650.94230844
 42
-0.09112819
  0
VERTEX
  8
0
 10
3753.51050203
 20
-652.11904182
 42
-0.09091860
  0
VERTEX
  8
0
 10
3747.54980958
 20
-651.12616300
 42
-0.09535062
  0
VERTEX
  8
0
 10
3742.47341930
 20
-648.11773826
 42
-0.13484246
  0
VERTEX
  8
0
 10
3737.58330995
 20
-639.81479607
 42
-0.14113113
  0
VERTEX
  8
0
 10
3737.77876063
 20
-630.39849045
 42
-0.13397846
  0
VERTEX
  8
0
 10
3743.00994811
 20
-622.26913963
 42
-0.09539635
  0
VERTEX
  8
0
 10
3751.31981679
 20
-617.22901096
 42
-0.09086377
  0
VERTEX
  8
0
 10
3761.12531643
 20
-615.49259477
 42
-0.09093248
  0
VERTEX
  8
0
 10
3770.90882647
 20
-617.32863675
 42
-0.09557856
  0
VERTEX
  8
0
 10
3779.15613453
 20
-622.45297190
 42
-0.10287310
  0
VERTEX
  8
0
 10
3784.59078653
 20
-630.07249444
 42
-0.37478989
  0
VERTEX
  8
0
 10
3772.04107325
 20
-669.32858308
 42
-0.16719107
  0
VERTEX
  8
0
 10
3702.86555149
 20
-677.44404374
  0
SEQEND
  0
POLYLINE
  8
0
 66
   1
 70
    0
  0
VERTEX
  8
0
 10
3678.56653221
 20
-664.23724369
 42
0.17060392
  0
VERTEX
  8
0
 10
3716.87500448
 20
-665.79656973
 42
0.22506142
  0
VERTEX
  8
0
 10
3734.56152023
 20
-651.43473594
 42
0.22506142
  0
VERTEX
  8
0
 10
3734.63616605
 20
-628.65163886
 42
0.10162917
  0
VERTEX
  8
0
 10
3727.11058305
 20
-620.72867364
 42
0.10716390
  0
VERTEX
  8
0
 10
3715.21455450
 20
-615.75788972
 42
0.10392162
  0
VERTEX
  8
0
 10
3702.12577362
 20
-616.04823957
 42
0.09350023
  0
VERTEX
  8
0
 10
3694.97402838
 20
-619.01995356
 42
0.10010507
  0
VERTEX
  8
0
 10
3689.64688863
 20
-624.27782336
 42
0.10715899
  0
VERTEX
  8
0
 10
3686.97608815
 20
-631.00093319
 42
0.10969276
  0
VERTEX
  8
0
 10
3687.37862050
 20
-638.13959407
 42
0.10557863
  0
VERTEX
  8
0
 10
3690.79163865
 20
-644.57923854
 42
0.09846104
  0
VERTEX
  8
0
 10
3695.76513854
 20
-647.76565355
 42
0.09346556
  0
VERTEX
  8
0
 10
3701.71979705
 20
-648.90293567
 42
0.09341800
  0
VERTEX
  8
0
 10
3707.68347853
 20
-647.80541804
 42
0.09833597
  0
VERTEX
  8
0
 10
3712.68257607
 20
-644.65227575
 42
0.10605277
  0
VERTEX
  8
0
 10
3715.90095583
 20
-639.95827948
 42
0.11175397
  0
VERTEX
  8
0
 10
3716.81319677
 20
-634.48975308
 42
0.10846801
  0
VERTEX
  8
0
 10
3715.43282880
 20
-631.75038085
 42
0.10074829
  0
VERTEX
  8
0
 10
3712.97153484
 20
-629.73223901
 42
0.09458301
  0
VERTEX
  8
0
 10
3709.83208251
 20
-628.76557672
 42
0.09299462
  0
VERTEX
  8
0
 10
3706.52821134
 20
-629.00857830
 42
0.09658348
  0
VERTEX
  8
0
 10
3703.60056851
 20
-630.42147977
 42
0.10388950
  0
VERTEX
  8
0
 10
3701.52823277
 20
-632.77307234
 42
0.11078517
  0
VERTEX
  8
0
 10
3700.65032241
 20
-635.67854270
 42
-0.11079686
  0
VERTEX
  8
0
 10
3701.53440130
 20
-632.77288504
 42
-0.10388268
  0
VERTEX
  8
0
 10
3703.61278991
 20
-630.42356496
 42
-0.09658275
  0
VERTEX
  8
0
 10
3706.54518363
 20
-629.01524805
 42
-0.09301646
  0
VERTEX
  8
0
 10
3709.85145027
 20
-628.77852345
 42
-0.09463381
  0
VERTEX
  8
0
 10
3712.99023947
 20
-629.75214957
 42
-0.10082272
  0
VERTEX
  8
0
 10
3715.44762361
 20
-631.77671308
 42
-0.10854124
  0
VERTEX
  8
0
 10
3716.82124496
 20
-634.52072242
 42
-0.13987112
  0
VERTEX
  8
0
 10
3717.75596467
 20
-641.78907690
 42
-0.13612311
  0
VERTEX
  8
0
 10
3714.68857918
 20
-648.55489977
 42
-0.12429771
  0
VERTEX
  8
0
 10
3708.39163791
 20
-653.11415422
 42
-0.09816395
  0
VERTEX
  8
0
 10
3682.30722634
 20
-654.51742112
  0
SEQEND
  0
POLYLINE
  8
0
 66
   1
 70
    0
  0
VERTEX
  8
0
 10
3657.56995180
 20
-655.16096070
 42
0.06808969
  0
VERTEX
  8
0
 10
3597.40855076
 20
-637.45232532
 42
0.04107764
  0
VERTEX
  8
0
 10
3532.06508189
 20
-634.16028010
 42
0.04642863
  0
VERTEX
  8
0
 10
3484.67090151
 20
-637.63520495
 42
0.13876926
  0
VERTEX
  8
0
 10
3469.66034254
 20
-644.97697147
 42
0.11710548
  0
VERTEX
  8
0
 10
3465.27927636
 20
-652.08907361
 42
0.12299981
  0
VERTEX
  8
0
 10
3464.69838593
 20
-660.21858628
 42
0.12542856
  0
VERTEX
  8
0
 10
3465.04605454
 20
-663.83211392
 42
0.11884162
  0
VERTEX
  8
0
 10
3467.10523944
 20
-666.94176086
 42
0.10907845
  0
VERTEX
  8
0
 10
3470.45917833
 20
-668.91815933
 42
0.10359255
  0
VERTEX
  8
0
 10
3474.42905888
 20
-669.36130071
 42
0.10529988
  0
VERTEX
  8
0
 10
3478.21140836
 20
-668.18149762
 42
0.11339249
  0
VERTEX
  8
0
 10
3481.04070525
 20
-665.61753079
 42
-0.11329836
  0
VERTEX
  8
0
 10
3478.21201882
 20
-668.17740420
 42
-0.10522222
  0
VERTEX
  8
0
 10
3474.43260264
 20
-669.35484237
 42
-0.10352081
  0
VERTEX
  8
0
 10
3470.46634902
 20
-668.91186666
 42
-0.10899797
  0
VERTEX
  8
0
 10
3467.11490810
 20
-666.93800947
 42
-0.11874699
  0
VERTEX
  8
0
 10
3465.05566867
 20
-663.83222304
 42
-0.12533725
  0
VERTEX
  8
0
 10
3464.70483949
 20
-660.22224405
 42
-0.12800347
  0
VERTEX
  8
0
 10
3466.63775382
 20
-655.25186033
 42
-0.11768005
  0
VERTEX
  8
0
 10
3470.85600054
 20
-651.62636684
 42
-0.10251756
  0
VERTEX
  8
0
 10
3477.67511885
 20
-649.97736837
 42
-0.10191625
  0
VERTEX
  8
0
 10
3484.61285846
 20
-651.15091087
 42
-0.10796097
  0
VERTEX
  8
0
 10
3490.31786663
 20
-654.91840687
 42
-0.10653713
  0
VERTEX
  8
0
 10
3493.68109184
 20
-661.00496896
 42
-0.11105440
  0
VERTEX
  8
0
 10
3494.15149097
 20
-667.79955405
 42
-0.10855812
  0
VERTEX
  8
0
 10
3491.65412758
 20
-674.21978488
 42
-0.10119961
  0
VERTEX
  8
0
 10
3486.58683269
 20
-679.24291321
 42
-0.10210214
  0
VERTEX
  8
0
 10
3476.27742385
 20
-682.38950306
 42
-0.10049206
  0
VERTEX
  8
0
 10
3465.47256603
 20
-681.25015536
 42
-0.10548355
  0
VERTEX
  8
0
 10
3456.23438796
 20
-676.04231694
 42
-0.10507923
  0
VERTEX
  8
0
 10
3448.67148842
 20
-665.80041884
 42
-0.12499269
  0
VERTEX
  8
0
 10
3446.55004668
 20
-649.22141851
 42
-0.12246113
  0
VERTEX
  8
0
 10
3452.63966119
 20
-633.47124884
 42
-0.06382495
  0
VERTEX
  8
0
 10
3459.39198036
 20
-626.09154121
 42
-0.10010572
  0
VERTEX
  8
0
 10
3469.84621874
 20
-620.34373328
 42
-0.07103110
  0
VERTEX
  8
0
 10
3501.81348292
 20
-615.13961018
 42
-0.04286354
  0
VERTEX
  8
0
 10
3582.88778223
 20
-619.89478518
 42
-0.07040481
  0
VERTEX
  8
0
 10
3661.62997705
 20
-643.90002949
  0
SEQEND
  0
POLYLINE
  8
0
 66
   1
 70
    0
  0
VERTEX
  8
0
 10
3569.37206759
 20
-650.89349110
 42
0.08227710
  0
VERTEX
  8
0
 10
3535.50612632
 20
-654.37166831
 42
0.16566840
  0
VERTEX
  8
0
 10
3518.19498617
 20
-666.48100789
 42
0.11683585
  0
VERTEX
  8
0
 10
3515.14832973
 20
-675.75258531
 42
0.11835880
  0
VERTEX
  8
0
 10
3516.63570270
 20
-685.33402430
 42
0.10339457
  0
VERTEX
  8
0
 10
3519.43427026
 20
-688.55518945
 42
0.09613331
  0
VERTEX
  8
0
 10
3523.40242262
 20
-690.51384474
 42
0.09246326
  0
VERTEX
  8
0
 10
3527.89850678
 20
-690.89327376
 42
0.09386745
  0
VERTEX
  8
0
 10
3532.19550130
 20
-689.63212394
 42
0.09982418
  0
VERTEX
  8
0
 10
3535.59857811
 20
-686.93432321
  0
VERTEX
  8
0
 10
3535.66034500
 20
-686.77774700
  0
VERTEX
  8
0
 10
3535.63113100
 20
-686.74570400
  0
VERTEX
  8
0
 10
3535.59857766
 20
-686.75143222
 42
-0.10228773
  0
VERTEX
  8
0
 10
3532.25144163
 20
-689.54663772
 42
-0.09590161
  0
VERTEX
  8
0
 10
3527.95183063
 20
-690.88639174
 42
-0.09425881
  0
VERTEX
  8
0
 10
3523.42211118
 20
-690.54560361
 42
-0.09799940
  0
VERTEX
  8
0
 10
3519.42330940
 20
-688.58152957
 42
-0.10555171
  0
VERTEX
  8
0
 10
3516.62725355
 20
-685.32414813
 42
-0.12024526
  0
VERTEX
  8
0
 10
3516.27810996
 20
-679.55985710
 42
-0.11693355
  0
VERTEX
  8
0
 10
3518.63825554
 20
-674.20028250
 42
-0.10824844
  0
VERTEX
  8
0
 10
3523.26657327
 20
-670.24714735
 42
-0.10114800
  0
VERTEX
  8
0
 10
3529.29801514
 20
-668.43930275
 42
-0.09965931
  0
VERTEX
  8
0
 10
3535.60528561
 20
-669.11464141
 42
-0.09754589
  0
VERTEX
  8
0
 10
3541.71246361
 20
-671.89578323
 42
-0.10492712
  0
VERTEX
  8
0
 10
3546.07930441
 20
-676.67038983
 42
-0.11212468
  0
VERTEX
  8
0
 10
3547.97223094
 20
-682.63638506
 42
-0.13094723
  0
VERTEX
  8
0
 10
3545.87721456
 20
-693.68917094
 42
-0.12239654
  0
VERTEX
  8
0
 10
3538.43618470
 20
-702.63563914
 42
-0.11251019
  0
VERTEX
  8
0
 10
3527.30854025
 20
-707.48066589
 42
-0.10887311
  0
VERTEX
  8
0
 10
3514.97582124
 20
-707.14377836
 42
-0.10980097
  0
VERTEX
  8
0
 10
3502.65012312
 20
-700.26033525
 42
-0.09333477
  0
VERTEX
  8
0
 10
3496.15210479
 20
-691.83969407
 42
-0.06482462
  0
VERTEX
  8
0
 10
3494.42194191
 20
-686.97387411
 42
-0.33222618
  0
VERTEX
  8
0
 10
3516.20117435
 20
-639.40292219
 42
-0.08328674
  0
VERTEX
  8
0
 10
3530.99360535
 20
-634.14151368
  0
SEQEND
  0
POLYLINE
  8
0
 66
   1
 70
    0
  0
VERTEX
  8
0
 10
3632.10384337
 20
-645.47892930
 42
0.16663772
  0
VERTEX
  8
0
 10
3563.15362575
 20
-653.64322692
 42
0.37478989
  0
VERTEX
  8
0
 10
3550.60391334
 20
-692.89931457
 42
0.10287310
  0
VERTEX
  8
0
 10
3556.03856447
 20
-700.51883710
 42
0.09557856
  0
VERTEX
  8
0
 10
3564.28587253
 20
-705.64317225
 42
0.09093248
  0
VERTEX
  8
0
 10
3574.06938357
 20
-707.47921523
 42
0.09086377
  0
VERTEX
  8
0
 10
3583.87488221
 20
-705.74279804
 42
0.09539635
  0
VERTEX
  8
0
 10
3592.18475069
 20
-700.70266927
 42
0.13397846
  0
VERTEX
  8
0
 10
3597.41593897
 20
-692.57331940
 42
0.14113113
  0
VERTEX
  8
0
 10
3597.61139005
 20
-683.15701393
 42
0.13484246
  0
VERTEX
  8
0
 10
3592.72128053
 20
-674.85407175
 42
0.09535062
  0
VERTEX
  8
0
 10
3587.64488979
 20
-671.84564769
 42
0.09091860
  0
VERTEX
  8
0
 10
3581.68419663
 20
-670.85276790
 42
0.09112819
  0
VERTEX
  8
0
 10
3575.76413666
 20
-672.02950156
 42
0.09590612
  0
VERTEX
  8
0
 10
3570.80333829
 20
-675.19325092
 42
0.10324448
  0
VERTEX
  8
0
 10
3567.57157969
 20
-679.85308995
 42
0.10834585
  0
VERTEX
  8
0
 10
3567.52427799
 20
-683.05089373
 42
0.10532029
  0
VERTEX
  8
0
 10
3568.82681501
 20
-686.02173335
 42
0.09830454
  0
VERTEX
  8
0
 10
3571.28089136
 20
-688.31332574
 42
0.09202829
  0
VERTEX
  8
0
 10
3574.51289578
 20
-689.57679688
 42
0.08953267
  0
VERTEX
  8
0
 10
3578.03078513
 20
-689.61979528
 42
0.09171659
  0
VERTEX
  8
0
 10
3581.29899297
 20
-688.43577351
 42
0.09780298
  0
VERTEX
  8
0
 10
3583.81996368
 20
-686.20498843
 42
0.10491325
  0
VERTEX
  8
0
 10
3585.20990258
 20
-683.26705785
 42
-0.10490201
  0
VERTEX
  8
0
 10
3583.81719232
 20
-686.20497245
 42
-0.09778952
  0
VERTEX
  8
0
 10
3581.29366774
 20
-688.43477839
 42
-0.09170844
  0
VERTEX
  8
0
 10
3578.02351368
 20
-689.61700749
 42
-0.08953299
  0
VERTEX
  8
0
 10
3574.50457946
 20
-689.57167573
 42
-0.09203695
  0
VERTEX
  8
0
 10
3571.27259263
 20
-688.30568647
 42
-0.09831814
  0
VERTEX
  8
0
 10
3568.81959361
 20
-686.01177196
 42
-0.10533100
  0
VERTEX
  8
0
 10
3567.51902920
 20
-683.03916252
 42
-0.10834540
  0
VERTEX
  8
0
 10
3567.56889734
 20
-679.84040999
 42
-0.12672712
  0
VERTEX
  8
0
 10
3573.31817708
 20
-669.33991972
 42
-0.11611216
  0
VERTEX
  8
0
 10
3583.73445518
 20
-662.41748129
 42
-0.10474802
  0
VERTEX
  8
0
 10
3611.95829295
 20
-659.62674935
  0
SEQEND
  0
POLYLINE
  8
0
 66
   1
 70
    0
  0
VERTEX
  8
0
 10
3652.89567854
 20
-668.45556115
 42
0.09819510
  0
VERTEX
  8
0
 10
3626.80306109
 20
-669.85765478
 42
0.12429771
  0
VERTEX
  8
0
 10
3620.50611982
 20
-674.41690923
 42
0.13612311
  0
VERTEX
  8
0
 10
3617.43873433
 20
-681.18273210
 42
0.13987112
  0
VERTEX
  8
0
 10
3618.37345504
 20
-688.45108758
 42
0.10854124
  0
VERTEX
  8
0
 10
3619.74707639
 20
-691.19509592
 42
0.10082272
  0
VERTEX
  8
0
 10
3622.20446053
 20
-693.21965943
 42
0.09463381
  0
VERTEX
  8
0
 10
3625.34324973
 20
-694.19328655
 42
0.09301646
  0
VERTEX
  8
0
 10
3628.64951537
 20
-693.95656095
 42
0.09658275
  0
VERTEX
  8
0
 10
3631.58191009
 20
-692.54824404
 42
0.10388268
  0
VERTEX
  8
0
 10
3633.66029770
 20
-690.19892496
 42
0.11079686
  0
VERTEX
  8
0
 10
3634.54437659
 20
-687.29326630
 42
-0.11078517
  0
VERTEX
  8
0
 10
3633.66646623
 20
-690.19873666
 42
-0.10388950
  0
VERTEX
  8
0
 10
3631.59413058
 20
-692.55032983
 42
-0.09658348
  0
VERTEX
  8
0
 10
3628.66648766
 20
-693.96323170
 42
-0.09299462
  0
VERTEX
  8
0
 10
3625.36261662
 20
-694.20623357
 42
-0.09458301
  0
VERTEX
  8
0
 10
3622.22316415
 20
-693.23957026
 42
-0.10074829
  0
VERTEX
  8
0
 10
3619.76187020
 20
-691.22142915
 42
-0.10846801
  0
VERTEX
  8
0
 10
3618.38150223
 20
-688.48205692
 42
-0.11175397
  0
VERTEX
  8
0
 10
3619.29374359
 20
-683.01353054
 42
-0.10605277
  0
VERTEX
  8
0
 10
3622.51212293
 20
-678.31953425
 42
-0.09833597
  0
VERTEX
  8
0
 10
3627.51122047
 20
-675.16639196
 42
-0.09341800
  0
VERTEX
  8
0
 10
3633.47490195
 20
-674.06887333
 42
-0.09346556
  0
VERTEX
  8
0
 10
3639.42956046
 20
-675.20615645
 42
-0.09846104
  0
VERTEX
  8
0
 10
3644.40306015
 20
-678.39257191
 42
-0.10557863
  0
VERTEX
  8
0
 10
3647.81607850
 20
-684.83221593
 42
-0.10969276
  0
VERTEX
  8
0
 10
3648.21861169
 20
-691.97087676
 42
-0.10715899
  0
VERTEX
  8
0
 10
3645.54781049
 20
-698.69398595
 42
-0.10010507
  0
VERTEX
  8
0
 10
3640.22067067
 20
-703.95185624
 42
-0.09350023
  0
VERTEX
  8
0
 10
3633.06892606
 20
-706.92357040
 42
-0.10392162
  0
VERTEX
  8
0
 10
3619.98014515
 20
-707.21392035
 42
-0.10716390
  0
VERTEX
  8
0
 10
3608.08411683
 20
-702.24313638
 42
-0.10162917
  0
VERTEX
  8
0
 10
3600.55853302
 20
-694.32017168
 42
-0.22506142
  0
VERTEX
  8
0
 10
3600.63317877
 20
-671.53707406
 42
-0.22506142
  0
VERTEX
  8
0
 10
3618.31969481
 20
-657.17524065
 42
-0.16931232
  0
VERTEX
  8
0
 10
3656.35813566
 20
-658.62792374
  0
SEQEND
  0
POLYLINE
  8
0
 66
   1
 70
    0
  0
VERTEX
  8
0
 10
3431.69599504
 20
14.13920392
 42
-0.19230821
  0
VERTEX
  8
0
 10
3435.94856470
 20
25.02591956
 42
-0.10210300
  0
VERTEX
  8
0
 10
3440.72697569
 20
28.40639361
 42
-0.09913752
  0
VERTEX
  8
0
 10
3446.29995947
 20
29.62126863
 42
-0.09913752
  0
VERTEX
  8
0
 10
3451.87294329
 20
28.40639493
 42
-0.10210300
  0
VERTEX
  8
0
 10
3456.65135520
 20
25.02592082
 42
-0.19230821
  0
VERTEX
  8
0
 10
3460.90392799
 20
14.13920622
  0
SEQEND
  0
POLYLINE
  8
0
 66
   1
 70
    0
  0
VERTEX
  8
0
 10
2954.07843442
 20
-264.20914018
 42
0.00000000
  0
VERTEX
  8
0
 10
2954.07859629
 20
-264.20946478
  0
SEQEND
  0
POLYLINE
  8
0
 66
   1
 70
    0
  0
VERTEX
  8
0
 10
2948.08561260
 20
-46.61010777
 42
-0.03520561
  0
VERTEX
  8
0
 10
2947.87600565
 20
-44.97317904
 42
-0.09973759
  0
VERTEX
  8
0
 10
2948.52826326
 20
-40.40621161
 42
-0.09981921
  0
VERTEX
  8
0
 10
2950.89829879
 20
-36.45043774
 42
-0.09958059
  0
VERTEX
  8
0
 10
2954.61958032
 20
-33.71762788
 42
-0.13534805
  0
VERTEX
  8
0
 10
2972.03357179
 20
-29.99612054
 42
-0.05665285
  0
VERTEX
  8
0
 10
2979.53095511
 20
-31.29454107
 42
0.27424702
  0
VERTEX
  8
0
 10
2983.48442718
 20
-30.28225205
 42
0.27424702
  0
VERTEX
  8
0
 10
2984.49197827
 20
-26.32756985
 42
-0.05678795
  0
VERTEX
  8
0
 10
2983.19413624
 20
-18.87470064
 42
-0.13621827
  0
VERTEX
  8
0
 10
2986.92874063
 20
-1.52178738
 42
-0.09978798
  0
VERTEX
  8
0
 10
2989.67116878
 20
2.18644241
 42
-0.09948698
  0
VERTEX
  8
0
 10
2993.64086516
 20
4.54816694
 42
-0.09906684
  0
VERTEX
  8
0
 10
2998.22390664
 20
5.19813638
 42
-0.09877728
  0
VERTEX
  8
0
 10
3002.71151034
 20
4.03583436
 42
-0.17791713
  0
VERTEX
  8
0
 10
3008.38326208
 20
-1.82839403
  0
SEQEND
  0
POLYLINE
  8
0
 66
   1
 70
    0
  0
VERTEX
  8
0
 10
2983.87918096
 20
-9.94558563
 42
0.10755795
  0
VERTEX
  8
0
 10
2981.95212180
 20
-1.45098700
 42
0.10725808
  0
VERTEX
  8
0
 10
2976.66531612
 20
5.48685076
 42
0.10687321
  0
VERTEX
  8
0
 10
2968.96770848
 20
9.62263602
 42
0.10666653
  0
VERTEX
  8
0
 10
2960.24096290
 20
10.21402444
 42
0.10677756
  0
VERTEX
  8
0
 10
2952.05146738
 20
7.15486733
 42
0.10713150
  0
VERTEX
  8
0
 10
2945.86917650
 20
0.99426025
 42
0.10748749
  0
VERTEX
  8
0
 10
2942.80376678
 20
-7.16201179
 42
0.10759955
  0
VERTEX
  8
0
 10
2943.40545961
 20
-15.84995821
 42
0.10738950
  0
VERTEX
  8
0
 10
2947.56625196
 20
-23.51015310
 42
0.10700360
  0
VERTEX
  8
0
 10
2954.53931317
 20
-28.76764981
 42
0.10670721
  0
VERTEX
  8
0
 10
2963.07303034
 20
-30.67876314
  0
SEQEND
  0
POLYLINE
  8
0
 66
   1
 70
    0
  0
VERTEX
  8
0
 10
3006.58335551
 20
-30.65721422
 42
0.11187774
  0
VERTEX
  8
0
 10
3000.53571459
 20
-51.84853598
 42
0.11191488
  0
VERTEX
  8
0
 10
3004.21673556
 20
-73.57259966
 42
0.09888487
  0
VERTEX
  8
0
 10
2999.33283359
 20
-64.63398334
 42
0.09862295
  0
VERTEX
  8
0
 10
2991.38277408
 20
-58.24465930
 42
0.09840531
  0
VERTEX
  8
0
 10
2981.58183973
 20
-55.38133117
 42
0.09835881
  0
VERTEX
  8
0
 10
2971.42824737
 20
-56.48169881
  0
SEQEND
  0
POLYLINE
  8
0
 66
   1
 70
    0
  0
VERTEX
  8
0
 10
2947.06390757
 20
-166.10088568
 42
-0.21075532
  0
VERTEX
  8
0
 10
2959.25756989
 20
-120.98082259
 42
-0.18331675
  0
VERTEX
  8
0
 10
2969.67046791
 20
-114.89631001
 42
-0.02053112
  0
VERTEX
  8
0
 10
2971.40897433
 20
-114.67759377
 42
-0.11756862
  0
VERTEX
  8
0
 10
2981.02413678
 20
-116.15975109
 42
-0.10329061
  0
VERTEX
  8
0
 10
2984.25663784
 20
-118.94850223
 42
-0.09654354
  0
VERTEX
  8
0
 10
2986.22218714
 20
-122.90273665
 42
-0.09310597
  0
VERTEX
  8
0
 10
2986.60295100
 20
-127.38305178
 42
-0.09442339
  0
VERTEX
  8
0
 10
2985.33736265
 20
-131.66497449
 42
-0.09998201
  0
VERTEX
  8
0
 10
2982.63006600
 20
-135.05611600
  0
VERTEX
  8
0
 10
2982.47293900
 20
-135.11766600
  0
VERTEX
  8
0
 10
2982.44078300
 20
-135.08855500
  0
VERTEX
  8
0
 10
2982.44653100
 20
-135.05611600
 42
0.10241350
  0
VERTEX
  8
0
 10
2985.25157588
 20
-131.72071965
 42
0.09645706
  0
VERTEX
  8
0
 10
2986.59604508
 20
-127.43618937
 42
0.09491594
  0
VERTEX
  8
0
 10
2986.25405778
 20
-122.92235724
 42
0.09841973
  0
VERTEX
  8
0
 10
2984.28307149
 20
-118.93758051
 42
0.10543683
  0
VERTEX
  8
0
 10
2981.01422564
 20
-116.15133024
 42
0.11940935
  0
VERTEX
  8
0
 10
2975.22964579
 20
-115.80341000
 42
0.11637854
  0
VERTEX
  8
0
 10
2969.85120722
 20
-118.15527786
 42
0.10836485
  0
VERTEX
  8
0
 10
2965.88415742
 20
-122.76736200
 42
0.10174257
  0
VERTEX
  8
0
 10
2964.06994897
 20
-128.77764984
 42
0.10034598
  0
VERTEX
  8
0
 10
2964.74766404
 20
-135.06279909
 42
0.09799553
  0
VERTEX
  8
0
 10
2967.53859514
 20
-141.14855716
 42
0.10485893
  0
VERTEX
  8
0
 10
2972.33000625
 20
-145.50008208
 42
0.11148184
  0
VERTEX
  8
0
 10
2978.31699910
 20
-147.38637042
 42
0.13009325
  0
VERTEX
  8
0
 10
2989.40868725
 20
-145.29870370
 42
0.12223703
  0
VERTEX
  8
0
 10
2998.38664439
 20
-137.88377182
 42
0.11304860
  0
VERTEX
  8
0
 10
3003.24872579
 20
-126.79515598
 42
0.10963970
  0
VERTEX
  8
0
 10
3002.91065490
 20
-114.50569212
 42
0.11020444
  0
VERTEX
  8
0
 10
2996.00298454
 20
-102.22322401
 42
0.11913829
  0
VERTEX
  8
0
 10
2984.83496738
 20
-94.54449112
 42
0.09166469
  0
VERTEX
  8
0
 10
2975.25092561
 20
-92.80449416
 42
0.26143658
  0
VERTEX
  8
0
 10
2934.93137215
 20
-115.72674138
 42
0.09260022
  0
VERTEX
  8
0
 10
2929.39182006
 20
-132.08589368
  0
SEQEND
  0
POLYLINE
  8
0
 66
   1
 70
    0
  0
VERTEX
  8
0
 10
2952.44532063
 20
-237.79728914
 42
-0.04765600
  0
VERTEX
  8
0
 10
2955.24858370
 20
-195.77935335
 42
-0.05226108
  0
VERTEX
  8
0
 10
2958.12396067
 20
-181.94540943
 42
-0.11642614
  0
VERTEX
  8
0
 10
2965.07076661
 20
-171.56566456
 42
-0.12624609
  0
VERTEX
  8
0
 10
2975.60821456
 20
-165.83655064
 42
-0.10758708
  0
VERTEX
  8
0
 10
2978.81822561
 20
-165.78685666
 42
-0.10482848
  0
VERTEX
  8
0
 10
2981.80129830
 20
-167.08286111
 42
-0.09836199
  0
VERTEX
  8
0
 10
2984.10328574
 20
-169.52725688
 42
-0.09251181
  0
VERTEX
  8
0
 10
2985.37373164
 20
-172.74790844
 42
-0.09016414
  0
VERTEX
  8
0
 10
2985.41922220
 20
-176.25450085
 42
-0.09220430
  0
VERTEX
  8
0
 10
2984.23283144
 20
-179.51318564
 42
-0.09787178
  0
VERTEX
  8
0
 10
2981.99517696
 20
-182.02785931
 42
-0.10443487
  0
VERTEX
  8
0
 10
2979.04692156
 20
-183.41568456
 42
0.10444519
  0
VERTEX
  8
0
 10
2981.99519305
 20
-182.03062000
 42
0.09788426
  0
VERTEX
  8
0
 10
2984.23382961
 20
-179.51849155
 42
0.09221193
  0
VERTEX
  8
0
 10
2985.42201913
 20
-176.26174629
 42
0.09016385
  0
VERTEX
  8
0
 10
2985.37886972
 20
-172.75619618
 42
0.09250369
  0
VERTEX
  8
0
 10
2984.11095190
 20
-169.53552732
 42
0.09834938
  0
VERTEX
  8
0
 10
2981.81129387
 20
-167.09005795
 42
0.10481865
  0
VERTEX
  8
0
 10
2978.82999808
 20
-165.79208910
 42
0.10758750
  0
VERTEX
  8
0
 10
2975.62093951
 20
-165.83922463
 42
0.10298831
  0
VERTEX
  8
0
 10
2970.94469901
 20
-169.05964756
 42
0.09618881
  0
VERTEX
  8
0
 10
2967.76981368
 20
-174.00304684
 42
0.09172145
  0
VERTEX
  8
0
 10
2966.58893828
 20
-179.90234252
 42
0.09152477
  0
VERTEX
  8
0
 10
2967.58531105
 20
-185.84212977
 42
0.09567105
  0
VERTEX
  8
0
 10
2970.60432332
 20
-190.90071642
 42
0.13438123
  0
VERTEX
  8
0
 10
2978.93648985
 20
-195.77367529
 42
0.14014372
  0
VERTEX
  8
0
 10
2988.38593745
 20
-195.57891050
 42
0.13358621
  0
VERTEX
  8
0
 10
2996.54389963
 20
-190.36607055
 42
0.09570479
  0
VERTEX
  8
0
 10
3001.60176889
 20
-182.08534763
 42
0.09146515
  0
VERTEX
  8
0
 10
3003.34429890
 20
-172.31424068
 42
0.09152964
  0
VERTEX
  8
0
 10
3001.50179489
 20
-162.56504359
 42
0.09587460
  0
VERTEX
  8
0
 10
2996.35942473
 20
-154.34666137
 42
0.10263572
  0
VERTEX
  8
0
 10
2988.71308491
 20
-148.93106999
 42
0.21668954
  0
VERTEX
  8
0
 10
2959.56928566
 20
-152.85315448
 42
0.21668954
  0
VERTEX
  8
0
 10
2943.36876744
 20
-177.39469209
 42
0.11699036
  0
VERTEX
  8
0
 10
2943.81186985
 20
-257.82747067
  0
SEQEND
  0
POLYLINE
  8
0
 66
   1
 70
    0
  0
VERTEX
  8
0
 10
3219.63438362
 20
-9.03781306
 42
0.07111242
  0
VERTEX
  8
0
 10
3140.48035889
 20
15.24843372
 42
0.04296504
  0
VERTEX
  8
0
 10
3059.59892604
 20
20.00359877
 42
0.07119170
  0
VERTEX
  8
0
 10
3027.70770990
 20
14.79947294
 42
0.10023333
  0
VERTEX
  8
0
 10
3017.27834105
 20
9.05166460
 42
0.06381129
  0
VERTEX
  8
0
 10
3010.54208479
 20
1.67195575
 42
0.12224535
  0
VERTEX
  8
0
 10
3004.46695814
 20
-14.07821528
 42
0.12470490
  0
VERTEX
  8
0
 10
3006.58335548
 20
-30.65721556
 42
0.10500533
  0
VERTEX
  8
0
 10
3014.12826578
 20
-40.89911171
 42
0.10561347
  0
VERTEX
  8
0
 10
3023.34446609
 20
-46.10695033
 42
0.10072640
  0
VERTEX
  8
0
 10
3034.12362098
 20
-47.24629735
 42
0.10230398
  0
VERTEX
  8
0
 10
3044.40850488
 20
-44.09970450
 42
0.10120143
  0
VERTEX
  8
0
 10
3049.46374502
 20
-39.07657571
 42
0.10836755
  0
VERTEX
  8
0
 10
3051.95516775
 20
-32.65634574
 42
0.11079273
  0
VERTEX
  8
0
 10
3051.48588772
 20
-25.86176031
 42
0.10640196
  0
VERTEX
  8
0
 10
3048.13066084
 20
-19.77519826
 42
0.10806172
  0
VERTEX
  8
0
 10
3042.43922421
 20
-16.00770336
 42
0.10214571
  0
VERTEX
  8
0
 10
3035.51798804
 20
-14.83416208
 42
0.10273491
  0
VERTEX
  8
0
 10
3028.71509188
 20
-16.48316027
 42
0.11772185
  0
VERTEX
  8
0
 10
3024.50687982
 20
-20.10865483
 42
0.12777873
  0
VERTEX
  8
0
 10
3022.57856469
 20
-25.07903818
 42
0.12504465
  0
VERTEX
  8
0
 10
3022.92855986
 20
-28.68901722
 42
0.11863666
  0
VERTEX
  8
0
 10
3024.98290112
 20
-31.79480289
 42
0.10912369
  0
VERTEX
  8
0
 10
3028.32636930
 20
-33.76866043
 42
0.10376156
  0
VERTEX
  8
0
 10
3032.28318784
 20
-34.21163572
 42
0.10542859
  0
VERTEX
  8
0
 10
3036.05361249
 20
-33.03419589
 42
0.11332489
  0
VERTEX
  8
0
 10
3038.87557087
 20
-30.47432348
 42
-0.11341867
  0
VERTEX
  8
0
 10
3036.05300362
 20
-33.03828983
 42
-0.10550630
  0
VERTEX
  8
0
 10
3032.27965309
 20
-34.21809407
 42
-0.10383347
  0
VERTEX
  8
0
 10
3028.31921612
 20
-33.77495351
 42
-0.10920416
  0
VERTEX
  8
0
 10
3024.97325554
 20
-31.79855533
 42
-0.11873090
  0
VERTEX
  8
0
 10
3022.91896788
 20
-28.68890747
 42
-0.12513564
  0
VERTEX
  8
0
 10
3022.57212635
 20
-25.07538103
 42
-0.12271017
  0
VERTEX
  8
0
 10
3023.15163412
 20
-16.94586815
 42
-0.11697981
  0
VERTEX
  8
0
 10
3027.52227755
 20
-9.83376471
 42
-0.13897206
  0
VERTEX
  8
0
 10
3042.49712806
 20
-2.49199640
 42
-0.04653815
  0
VERTEX
  8
0
 10
3089.77856201
 20
0.98293313
 42
-0.04117509
  0
VERTEX
  8
0
 10
3154.96658773
 20
-2.30910499
 42
-0.06865808
  0
VERTEX
  8
0
 10
3215.34600750
 20
-20.18074684
  0
SEQEND
  0
POLYLINE
  8
0
 66
   1
 70
    0
  0
VERTEX
  8
0
 10
3088.42297109
 20
1.00596780
 42
0.08341658
  0
VERTEX
  8
0
 10
3073.60643900
 20
-4.25971061
 42
0.33222618
  0
VERTEX
  8
0
 10
3051.82721087
 20
-51.83066458
 42
0.06482462
  0
VERTEX
  8
0
 10
3053.55737374
 20
-56.69648494
 42
0.09333478
  0
VERTEX
  8
0
 10
3060.05539374
 20
-65.11712559
 42
0.10980096
  0
VERTEX
  8
0
 10
3072.38109250
 20
-72.00056734
 42
0.10887311
  0
VERTEX
  8
0
 10
3084.71381119
 20
-72.33745433
 42
0.11251019
  0
VERTEX
  8
0
 10
3095.84145500
 20
-67.49242544
 42
0.12239654
  0
VERTEX
  8
0
 10
3103.28248366
 20
-58.54595667
 42
0.13094722
  0
VERTEX
  8
0
 10
3105.37749877
 20
-47.49317078
 42
0.11212468
  0
VERTEX
  8
0
 10
3103.48457166
 20
-41.52717556
 42
0.10492712
  0
VERTEX
  8
0
 10
3099.11773129
 20
-36.75256928
 42
0.09754589
  0
VERTEX
  8
0
 10
3093.01055284
 20
-33.97142799
 42
0.09965931
  0
VERTEX
  8
0
 10
3086.70328146
 20
-33.29608990
 42
0.10114800
  0
VERTEX
  8
0
 10
3080.67184082
 20
-35.10393513
 42
0.10824844
  0
VERTEX
  8
0
 10
3076.04352264
 20
-39.05707069
 42
0.11693355
  0
VERTEX
  8
0
 10
3073.68337772
 20
-44.41664541
 42
0.12024526
  0
VERTEX
  8
0
 10
3074.03252193
 20
-50.18093735
 42
0.10555171
  0
VERTEX
  8
0
 10
3076.82857925
 20
-53.43831822
 42
0.09799940
  0
VERTEX
  8
0
 10
3080.82738034
 20
-55.40239092
 42
0.09425881
  0
VERTEX
  8
0
 10
3085.35709990
 20
-55.74317859
 42
0.09590161
  0
VERTEX
  8
0
 10
3089.65671073
 20
-54.40342513
 42
0.10228773
  0
VERTEX
  8
0
 10
3093.00384636
 20
-51.60821834
  0
VERTEX
  8
0
 10
3093.03640000
 20
-51.60249100
  0
VERTEX
  8
0
 10
3093.06561400
 20
-51.63453400
  0
VERTEX
  8
0
 10
3093.00384600
 20
-51.79111000
 42
-0.09982418
  0
VERTEX
  8
0
 10
3089.60077033
 20
-54.48891142
 42
-0.09386745
  0
VERTEX
  8
0
 10
3085.30377606
 20
-55.75006163
 42
-0.09246326
  0
VERTEX
  8
0
 10
3080.80769198
 20
-55.37063311
 42
-0.09613332
  0
VERTEX
  8
0
 10
3076.83953923
 20
-53.41197819
 42
-0.10339457
  0
VERTEX
  8
0
 10
3074.04097184
 20
-50.19081368
 42
-0.11835881
  0
VERTEX
  8
0
 10
3072.55359751
 20
-40.60937488
 42
-0.11683585
  0
VERTEX
  8
0
 10
3075.60025301
 20
-31.33779678
 42
-0.16566840
  0
VERTEX
  8
0
 10
3092.91139148
 20
-19.22845543
 42
-0.08227710
  0
VERTEX
  8
0
 10
3126.77733090
 20
-15.75027432
  0
SEQEND
  0
POLYLINE
  8
0
 66
   1
 70
    0
  0
VERTEX
  8
0
 10
3189.73441073
 20
-10.38454247
 42
0.16719106
  0
VERTEX
  8
0
 10
3120.55889077
 20
-18.50000974
 42
0.37478989
  0
VERTEX
  8
0
 10
3108.00918244
 20
-57.75609977
 42
0.10287310
  0
VERTEX
  8
0
 10
3113.44383471
 20
-65.37562193
 42
0.09557856
  0
VERTEX
  8
0
 10
3121.69114395
 20
-70.49995628
 42
0.09093248
  0
VERTEX
  8
0
 10
3131.47465490
 20
-72.33599818
 42
0.09086377
  0
VERTEX
  8
0
 10
3141.28015274
 20
-70.59958010
 42
0.09539635
  0
VERTEX
  8
0
 10
3149.59002089
 20
-65.55945056
 42
0.13397846
  0
VERTEX
  8
0
 10
3154.82120855
 20
-57.43009957
 42
0.14113113
  0
VERTEX
  8
0
 10
3155.01665860
 20
-48.01379420
 42
0.13484246
  0
VERTEX
  8
0
 10
3150.12654831
 20
-39.71085266
 42
0.09535062
  0
VERTEX
  8
0
 10
3145.05015677
 20
-36.70242840
 42
0.09091860
  0
VERTEX
  8
0
 10
3139.08946388
 20
-35.70954993
 42
0.09112819
  0
VERTEX
  8
0
 10
3133.16940403
 20
-36.88628385
 42
0.09590612
  0
VERTEX
  8
0
 10
3128.20860597
 20
-40.05003363
 42
0.10324448
  0
VERTEX
  8
0
 10
3124.97684763
 20
-44.70987339
 42
0.10834585
  0
VERTEX
  8
0
 10
3124.92954639
 20
-47.90767683
 42
0.10532029
  0
VERTEX
  8
0
 10
3126.23208415
 20
-50.87851567
 42
0.09830455
  0
VERTEX
  8
0
 10
3128.68616020
 20
-53.17010827
 42
0.09202829
  0
VERTEX
  8
0
 10
3131.91816492
 20
-54.43357910
 42
0.08953268
  0
VERTEX
  8
0
 10
3135.43605428
 20
-54.47657709
 42
0.09171658
  0
VERTEX
  8
0
 10
3138.70426183
 20
-53.29255500
 42
0.09780298
  0
VERTEX
  8
0
 10
3141.22523218
 20
-51.06176978
 42
0.10491325
  0
VERTEX
  8
0
 10
3142.61517077
 20
-48.12383905
 42
-0.10490201
  0
VERTEX
  8
0
 10
3141.22246087
 20
-51.06175372
 42
-0.09778952
  0
VERTEX
  8
0
 10
3138.69893660
 20
-53.29155989
 42
-0.09170844
  0
VERTEX
  8
0
 10
3135.42878270
 20
-54.47378932
 42
-0.08953299
  0
VERTEX
  8
0
 10
3131.90984843
 20
-54.42845792
 42
-0.09203695
  0
VERTEX
  8
0
 10
3128.67786140
 20
-53.16246894
 42
-0.09831814
  0
VERTEX
  8
0
 10
3126.22486208
 20
-50.86855562
 42
-0.10533100
  0
VERTEX
  8
0
 10
3124.92429735
 20
-47.89594529
 42
-0.10834539
  0
VERTEX
  8
0
 10
3124.97416562
 20
-44.69719283
 42
-0.12672713
  0
VERTEX
  8
0
 10
3130.72344380
 20
-34.19670315
 42
-0.11611217
  0
VERTEX
  8
0
 10
3141.13972135
 20
-27.27426246
 42
-0.10474802
  0
VERTEX
  8
0
 10
3169.36355883
 20
-24.48352756
  0
SEQEND
  0
POLYLINE
  8
0
 66
   1
 70
    0
  0
VERTEX
  8
0
 10
3210.29273969
 20
-33.31116188
 42
0.09816395
  0
VERTEX
  8
0
 10
3184.20832827
 20
-34.71443151
 42
0.12429771
  0
VERTEX
  8
0
 10
3177.91138775
 20
-39.27368750
 42
0.13612311
  0
VERTEX
  8
0
 10
3174.84400307
 20
-46.03951078
 42
0.13987112
  0
VERTEX
  8
0
 10
3175.77872360
 20
-53.30786486
 42
0.10854124
  0
VERTEX
  8
0
 10
3177.15234486
 20
-56.05187350
 42
0.10082272
  0
VERTEX
  8
0
 10
3179.60972927
 20
-58.07643682
 42
0.09463381
  0
VERTEX
  8
0
 10
3182.74851864
 20
-59.05006365
 42
0.09301646
  0
VERTEX
  8
0
 10
3186.05478528
 20
-58.81333771
 42
0.09658275
  0
VERTEX
  8
0
 10
3188.98717880
 20
-57.40502051
 42
0.10388268
  0
VERTEX
  8
0
 10
3191.06556709
 20
-55.05570026
 42
0.11079686
  0
VERTEX
  8
0
 10
3191.94964565
 20
-52.15004258
 42
-0.11078517
  0
VERTEX
  8
0
 10
3191.07173569
 20
-55.05551285
 42
-0.10388950
  0
VERTEX
  8
0
 10
3188.99940020
 20
-57.40710670
 42
-0.09658348
  0
VERTEX
  8
0
 10
3186.07175687
 20
-58.82000831
 42
-0.09299462
  0
VERTEX
  8
0
 10
3182.76788655
 20
-59.06301068
 42
-0.09458301
  0
VERTEX
  8
0
 10
3179.62843401
 20
-58.09634772
 42
-0.10074830
  0
VERTEX
  8
0
 10
3177.16713975
 20
-56.07820683
 42
-0.10846801
  0
VERTEX
  8
0
 10
3175.78677086
 20
-53.33883462
 42
-0.11175397
  0
VERTEX
  8
0
 10
3176.69901109
 20
-47.87030776
 42
-0.10605278
  0
VERTEX
  8
0
 10
3179.91739078
 20
-43.17631134
 42
-0.09833597
  0
VERTEX
  8
0
 10
3184.91648774
 20
-40.02316863
 42
-0.09341800
  0
VERTEX
  8
0
 10
3190.88017023
 20
-38.92565032
 42
-0.09346556
  0
VERTEX
  8
0
 10
3196.83482798
 20
-40.06293187
 42
-0.09846104
  0
VERTEX
  8
0
 10
3201.80832798
 20
-43.24934651
 42
-0.10557863
  0
VERTEX
  8
0
 10
3205.22134681
 20
-49.68899072
 42
-0.10969276
  0
VERTEX
  8
0
 10
3205.62388013
 20
-56.82765111
 42
-0.10715899
  0
VERTEX
  8
0
 10
3202.95308048
 20
-63.55076047
 42
-0.10010508
  0
VERTEX
  8
0
 10
3197.62594132
 20
-68.80863216
 42
-0.09350023
  0
VERTEX
  8
0
 10
3190.47419631
 20
-71.78034664
 42
-0.10392162
  0
VERTEX
  8
0
 10
3177.38541597
 20
-72.07069806
 42
-0.10716390
  0
VERTEX
  8
0
 10
3165.48938716
 20
-67.09991501
 42
-0.10162917
  0
VERTEX
  8
0
 10
3157.96380320
 20
-59.17695120
 42
-0.22506142
  0
VERTEX
  8
0
 10
3158.03844657
 20
-36.39385358
 42
-0.22506142
  0
VERTEX
  8
0
 10
3175.72496082
 20
-22.03201793
 42
-0.17060391
  0
VERTEX
  8
0
 10
3214.03343223
 20
-23.59133970
  0
SEQEND
  0
POLYLINE
  8
0
 66
   1
 70
    0
  0
VERTEX
  8
0
 10
3230.96999448
 20
-43.92855368
 42
0.07040481
  0
VERTEX
  8
0
 10
3309.71218716
 20
-67.93378758
 42
0.04286354
  0
VERTEX
  8
0
 10
3390.78649403
 20
-72.68895425
 42
0.07103110
  0
VERTEX
  8
0
 10
3422.75375071
 20
-67.48482713
 42
0.10010572
  0
VERTEX
  8
0
 10
3433.20798904
 20
-61.73701876
 42
0.06382495
  0
VERTEX
  8
0
 10
3439.96030719
 20
-54.35730979
 42
0.12246113
  0
VERTEX
  8
0
 10
3446.04991978
 20
-38.60713986
 42
0.12499269
  0
VERTEX
  8
0
 10
3443.92847628
 20
-22.02813985
 42
0.10507923
  0
VERTEX
  8
0
 10
3436.36557564
 20
-11.78624194
 42
0.10548355
  0
VERTEX
  8
0
 10
3427.12739843
 20
-6.57840484
 42
0.10049206
  0
VERTEX
  8
0
 10
3416.32253930
 20
-5.43905821
 42
0.10210214
  0
VERTEX
  8
0
 10
3406.01313185
 20
-8.58564912
 42
0.10119961
  0
VERTEX
  8
0
 10
3400.94583638
 20
-13.60877867
 42
0.10855813
  0
VERTEX
  8
0
 10
3398.44847372
 20
-20.02900889
 42
0.11105440
  0
VERTEX
  8
0
 10
3398.91887362
 20
-26.82359460
 42
0.10653713
  0
VERTEX
  8
0
 10
3402.28209969
 20
-32.91015565
 42
0.10796097
  0
VERTEX
  8
0
 10
3407.98710811
 20
-36.67765074
 42
0.10191625
  0
VERTEX
  8
0
 10
3414.92484797
 20
-37.85119257
 42
0.10251756
  0
VERTEX
  8
0
 10
3421.74396610
 20
-36.20219439
 42
0.11768006
  0
VERTEX
  8
0
 10
3425.96221304
 20
-32.57670048
 42
0.12800347
  0
VERTEX
  8
0
 10
3427.89512664
 20
-27.60631585
 42
0.12533725
  0
VERTEX
  8
0
 10
3427.54429707
 20
-23.99633723
 42
0.11874699
  0
VERTEX
  8
0
 10
3425.48505729
 20
-20.89055096
 42
0.10899798
  0
VERTEX
  8
0
 10
3422.13361594
 20
-18.91669400
 42
0.10352081
  0
VERTEX
  8
0
 10
3418.16736134
 20
-18.47371873
 42
0.10522222
  0
VERTEX
  8
0
 10
3414.38794631
 20
-19.65115829
 42
0.11329836
  0
VERTEX
  8
0
 10
3411.55925924
 20
-22.21103095
 42
-0.11339249
  0
VERTEX
  8
0
 10
3414.38855712
 20
-19.64706462
 42
-0.10529988
  0
VERTEX
  8
0
 10
3418.17090494
 20
-18.46726040
 42
-0.10359255
  0
VERTEX
  8
0
 10
3422.14078566
 20
-18.91040152
 42
-0.10907845
  0
VERTEX
  8
0
 10
3425.49472487
 20
-20.88679950
 42
-0.11884162
  0
VERTEX
  8
0
 10
3427.55391048
 20
-23.99644691
 42
-0.12542856
  0
VERTEX
  8
0
 10
3427.90157915
 20
-27.60997384
 42
-0.12299981
  0
VERTEX
  8
0
 10
3427.32068969
 20
-35.73948629
 42
-0.11710547
  0
VERTEX
  8
0
 10
3422.93962484
 20
-42.85158879
 42
-0.13876927
  0
VERTEX
  8
0
 10
3407.92906570
 20
-50.19335870
 42
-0.04642863
  0
VERTEX
  8
0
 10
3360.53488359
 20
-53.66828813
 42
-0.04107764
  0
VERTEX
  8
0
 10
3295.19141625
 20
-50.37624930
 42
-0.06808969
  0
VERTEX
  8
0
 10
3235.03001430
 20
-32.66762022
  0
SEQEND
  0
POLYLINE
  8
0
 66
   1
 70
    0
  0
VERTEX
  8
0
 10
3361.60636254
 20
-53.68705345
 42
0.08328674
  0
VERTEX
  8
0
 10
3376.39879300
 20
-48.42564339
 42
0.33222618
  0
VERTEX
  8
0
 10
3398.17802013
 20
-0.85468942
 42
0.06482462
  0
VERTEX
  8
0
 10
3396.44785726
 20
4.01112994
 42
0.09333478
  0
VERTEX
  8
0
 10
3389.94983826
 20
12.43177159
 42
0.10980096
  0
VERTEX
  8
0
 10
3377.62413950
 20
19.31521334
 42
0.10887311
  0
VERTEX
  8
0
 10
3365.29142081
 20
19.65209933
 42
0.11251019
  0
VERTEX
  8
0
 10
3354.16377700
 20
14.80707044
 42
0.12239654
  0
VERTEX
  8
0
 10
3346.72274734
 20
5.86060167
 42
0.13094722
  0
VERTEX
  8
0
 10
3344.62773323
 20
-5.19218422
 42
0.11212468
  0
VERTEX
  8
0
 10
3346.52065934
 20
-11.15817844
 42
0.10492712
  0
VERTEX
  8
0
 10
3350.88750071
 20
-15.93278572
 42
0.09754589
  0
VERTEX
  8
0
 10
3356.99467916
 20
-18.71392701
 42
0.09965931
  0
VERTEX
  8
0
 10
3363.30194954
 20
-19.38926510
 42
0.10114800
  0
VERTEX
  8
0
 10
3369.33339118
 20
-17.58141987
 42
0.10824844
  0
VERTEX
  8
0
 10
3373.96170836
 20
-13.62828331
 42
0.11693355
  0
VERTEX
  8
0
 10
3376.32185428
 20
-8.26870859
 42
0.12024526
  0
VERTEX
  8
0
 10
3375.97271007
 20
-2.50441765
 42
0.10555171
  0
VERTEX
  8
0
 10
3373.17665275
 20
0.75296322
 42
0.09799940
  0
VERTEX
  8
0
 10
3369.17785066
 20
2.71703692
 42
0.09425881
  0
VERTEX
  8
0
 10
3364.64813210
 20
3.05782459
 42
0.09590161
  0
VERTEX
  8
0
 10
3360.34852127
 20
1.71807013
 42
0.10228773
  0
VERTEX
  8
0
 10
3357.00138564
 20
-1.07713566
  0
VERTEX
  8
0
 10
3356.96883200
 20
-1.08286400
  0
VERTEX
  8
0
 10
3356.93961800
 20
-1.05082100
  0
VERTEX
  8
0
 10
3357.00138500
 20
-0.89424500
 42
-0.09982418
  0
VERTEX
  8
0
 10
3360.40446167
 20
1.80355642
 42
-0.09386745
  0
VERTEX
  8
0
 10
3364.70145594
 20
3.06470663
 42
-0.09246326
  0
VERTEX
  8
0
 10
3369.19753963
 20
2.68527749
 42
-0.09613332
  0
VERTEX
  8
0
 10
3373.16569225
 20
0.72662361
 42
-0.10339457
  0
VERTEX
  8
0
 10
3375.96425916
 20
-2.49454132
 42
-0.11835881
  0
VERTEX
  8
0
 10
3377.45163315
 20
-12.07598043
 42
-0.11683585
  0
VERTEX
  8
0
 10
3374.40497799
 20
-21.34755822
 42
-0.16566840
  0
VERTEX
  8
0
 10
3357.09383990
 20
-33.45689990
 42
-0.08227710
  0
VERTEX
  8
0
 10
3323.22790110
 20
-36.93508068
  0
SEQEND
  0
POLYLINE
  8
0
 66
   1
 70
    0
  0
VERTEX
  8
0
 10
3280.64167217
 20
-28.20182644
 42
0.10474802
  0
VERTEX
  8
0
 10
3308.86550965
 20
-25.41109154
 42
0.11611217
  0
VERTEX
  8
0
 10
3319.28178820
 20
-18.48865185
 42
0.12672713
  0
VERTEX
  8
0
 10
3325.03106638
 20
-7.98816117
 42
0.10834539
  0
VERTEX
  8
0
 10
3325.08093465
 20
-4.78940871
 42
0.10533100
  0
VERTEX
  8
0
 10
3323.78036992
 20
-1.81679938
 42
0.09831814
  0
VERTEX
  8
0
 10
3321.32736960
 20
0.47711394
 42
0.09203695
  0
VERTEX
  8
0
 10
3318.09538257
 20
1.74310392
 42
0.08953299
  0
VERTEX
  8
0
 10
3314.57644930
 20
1.78843532
 42
0.09170844
  0
VERTEX
  8
0
 10
3311.30629440
 20
0.60620489
 42
0.09778952
  0
VERTEX
  8
0
 10
3308.78277113
 20
-1.62360028
 42
0.10490201
  0
VERTEX
  8
0
 10
3307.39006060
 20
-4.56151545
 42
-0.10491325
  0
VERTEX
  8
0
 10
3308.77999924
 20
-1.62358434
 42
-0.09780298
  0
VERTEX
  8
0
 10
3311.30096917
 20
0.60720000
 42
-0.09171658
  0
VERTEX
  8
0
 10
3314.56917672
 20
1.79122209
 42
-0.08953268
  0
VERTEX
  8
0
 10
3318.08706673
 20
1.74822473
 42
-0.09202829
  0
VERTEX
  8
0
 10
3321.31907140
 20
0.48475392
 42
-0.09830455
  0
VERTEX
  8
0
 10
3323.77314751
 20
-1.80683799
 42
-0.10532029
  0
VERTEX
  8
0
 10
3325.07568484
 20
-4.77767747
 42
-0.10834585
  0
VERTEX
  8
0
 10
3325.02838397
 20
-7.97548149
 42
-0.10324448
  0
VERTEX
  8
0
 10
3321.79662577
 20
-12.63532108
 42
-0.09590612
  0
VERTEX
  8
0
 10
3316.83582797
 20
-15.79907115
 42
-0.09112819
  0
VERTEX
  8
0
 10
3310.91576712
 20
-16.97580507
 42
-0.09091860
  0
VERTEX
  8
0
 10
3304.95507423
 20
-15.98292660
 42
-0.09535062
  0
VERTEX
  8
0
 10
3299.87868367
 20
-12.97450259
 42
-0.13484246
  0
VERTEX
  8
0
 10
3294.98857340
 20
-4.67156080
 42
-0.14113113
  0
VERTEX
  8
0
 10
3295.18402310
 20
4.74474485
 42
-0.13397846
  0
VERTEX
  8
0
 10
3300.41521011
 20
12.87409556
 42
-0.09539635
  0
VERTEX
  8
0
 10
3308.72507826
 20
17.91422510
 42
-0.09086377
  0
VERTEX
  8
0
 10
3318.53057706
 20
19.65064325
 42
-0.09093248
  0
VERTEX
  8
0
 10
3328.31408796
 20
17.81460121
 42
-0.09557856
  0
VERTEX
  8
0
 10
3336.56139656
 20
12.69026692
 42
-0.10287310
  0
VERTEX
  8
0
 10
3341.99604856
 20
5.07074577
 42
-0.37478989
  0
VERTEX
  8
0
 10
3329.44634036
 20
-34.18534422
 42
-0.16663772
  0
VERTEX
  8
0
 10
3260.49612359
 20
-42.34964906
  0
SEQEND
  0
POLYLINE
  8
0
 66
   1
 70
    0
  0
VERTEX
  8
0
 10
3236.24182997
 20
-29.20065747
 42
0.16931232
  0
VERTEX
  8
0
 10
3274.28027098
 20
-30.65333658
 42
0.22506142
  0
VERTEX
  8
0
 10
3291.96678543
 20
-16.29150142
 42
0.22506142
  0
VERTEX
  8
0
 10
3292.04142855
 20
6.49159556
 42
0.10162917
  0
VERTEX
  8
0
 10
3284.51584443
 20
14.41456018
 42
0.10716390
  0
VERTEX
  8
0
 10
3272.61981503
 20
19.38534306
 42
0.10392162
  0
VERTEX
  8
0
 10
3259.53103448
 20
19.09499198
 42
0.09350023
  0
VERTEX
  8
0
 10
3252.37928955
 20
16.12327724
 42
0.10010508
  0
VERTEX
  8
0
 10
3247.05215035
 20
10.86540573
 42
0.10715899
  0
VERTEX
  8
0
 10
3244.38135087
 20
4.14229611
 42
0.10969276
  0
VERTEX
  8
0
 10
3244.78388400
 20
-2.99636483
 42
0.10557863
  0
VERTEX
  8
0
 10
3248.19690279
 20
-9.43600864
 42
0.09846104
  0
VERTEX
  8
0
 10
3253.17040302
 20
-12.62242313
 42
0.09346556
  0
VERTEX
  8
0
 10
3259.12506177
 20
-13.75970468
 42
0.09341800
  0
VERTEX
  8
0
 10
3265.08874394
 20
-12.66218605
 42
0.09833597
  0
VERTEX
  8
0
 10
3270.08784061
 20
-9.50904272
 42
0.10605278
  0
VERTEX
  8
0
 10
3273.30621991
 20
-4.81504724
 42
0.11175397
  0
VERTEX
  8
0
 10
3274.21846014
 20
0.65347962
 42
0.10846801
  0
VERTEX
  8
0
 10
3272.83809168
 20
3.39285222
 42
0.10074830
  0
VERTEX
  8
0
 10
3270.37679803
 20
5.41099342
 42
0.09458301
  0
VERTEX
  8
0
 10
3267.23734545
 20
6.37765568
 42
0.09299462
  0
VERTEX
  8
0
 10
3263.93347413
 20
6.13465331
 42
0.09658348
  0
VERTEX
  8
0
 10
3261.00583080
 20
4.72175170
 42
0.10388950
  0
VERTEX
  8
0
 10
3258.93349531
 20
2.37015885
 42
0.11078517
  0
VERTEX
  8
0
 10
3258.05558597
 20
-0.53531137
 42
-0.11079686
  0
VERTEX
  8
0
 10
3258.93966391
 20
2.37034626
 42
-0.10388268
  0
VERTEX
  8
0
 10
3261.01805220
 20
4.71966651
 42
-0.09658275
  0
VERTEX
  8
0
 10
3263.95044672
 20
6.12798371
 42
-0.09301646
  0
VERTEX
  8
0
 10
3267.25671236
 20
6.36470865
 42
-0.09463381
  0
VERTEX
  8
0
 10
3270.39550173
 20
5.39108282
 42
-0.10082272
  0
VERTEX
  8
0
 10
3272.85288614
 20
3.36651950
 42
-0.10854124
  0
VERTEX
  8
0
 10
3274.22650840
 20
0.62251086
 42
-0.13987112
  0
VERTEX
  8
0
 10
3275.16122893
 20
-6.64584422
 42
-0.13612311
  0
VERTEX
  8
0
 10
3272.09384425
 20
-13.41166750
 42
-0.12429771
  0
VERTEX
  8
0
 10
3265.79690273
 20
-17.97092249
 42
-0.09819510
  0
VERTEX
  8
0
 10
3239.70428543
 20
-19.37301884
  0
SEQEND
  0
POLYLINE
  8
0
 66
   1
 70
    1
  0
VERTEX
  8
0
 10
3661.33239390
 20
-43.31935079
  0
VERTEX
  8
0
 10
3651.47370500
 20
-15.33702600
 42
-0.11490586
  0
VERTEX
  8
0
 10
3651.38470907
 20
-11.06938443
 42
-0.11141328
  0
VERTEX
  8
0
 10
3653.20190665
 20
-7.13356346
 42
-0.10343829
  0
VERTEX
  8
0
 10
3656.61485246
 20
-4.20194783
 42
-0.09683609
  0
VERTEX
  8
0
 10
3661.04048897
 20
-2.77536558
 42
-0.09504839
  0
VERTEX
  8
0
 10
3665.72275177
 20
-3.09753251
 42
-0.09878702
  0
VERTEX
  8
0
 10
3669.86173653
 20
-5.11340890
 42
-0.10645655
  0
VERTEX
  8
0
 10
3672.75035000
 20
-8.47860800
  0
VERTEX
  8
0
 10
3683.41382900
 20
-36.18659600
 42
-0.12039677
  0
VERTEX
  8
0
 10
3683.82231803
 20
-40.78940955
 42
-0.11756233
  0
VERTEX
  8
0
 10
3682.05122475
 20
-45.11744079
 42
-0.10895277
  0
VERTEX
  8
0
 10
3678.43285471
 20
-48.35863378
 42
-0.10160127
  0
VERTEX
  8
0
 10
3673.64611226
 20
-49.90484866
 42
-0.09977593
  0
VERTEX
  8
0
 10
3668.58912112
 20
-49.46597551
 42
-0.10428403
  0
VERTEX
  8
0
 10
3664.21071235
 20
-47.12435979
 42
-0.11294929
  0
VERTEX
  8
0
 10
3661.33239390
 20
-43.31935079
  0
SEQEND
  0
POLYLINE
  8
0
 66
   1
 70
    0
  0
VERTEX
  8
0
 10
3938.52138783
 20
-264.20935641
 42
0.00000000
  0
VERTEX
  8
0
 10
3938.52154970
 20
-264.20903181
  0
SEQEND
  0
POLYLINE
  8
0
 66
   1
 70
    0
  0
VERTEX
  8
0
 10
3884.21666391
 20
-1.82829930
 42
-0.17791713
  0
VERTEX
  8
0
 10
3889.88841420
 20
4.03592962
 42
-0.09877728
  0
VERTEX
  8
0
 10
3894.37601788
 20
5.19823324
 42
-0.09906684
  0
VERTEX
  8
0
 10
3898.95905919
 20
4.54826464
 42
-0.09948699
  0
VERTEX
  8
0
 10
3902.92875625
 20
2.18654065
 42
-0.09978798
  0
VERTEX
  8
0
 10
3905.67118517
 20
-1.52168829
 42
-0.13621827
  0
VERTEX
  8
0
 10
3909.40579317
 20
-18.87460071
 42
-0.05678795
  0
VERTEX
  8
0
 10
3908.10795249
 20
-26.32746966
 42
0.27424702
  0
VERTEX
  8
0
 10
3909.11550441
 20
-30.28215165
 42
0.27424702
  0
VERTEX
  8
0
 10
3913.06897670
 20
-31.29443983
 42
-0.05665285
  0
VERTEX
  8
0
 10
3920.56636017
 20
-29.99601795
 42
-0.13534805
  0
VERTEX
  8
0
 10
3937.98035211
 20
-33.71752189
 42
-0.09958059
  0
VERTEX
  8
0
 10
3941.70163443
 20
-36.45033077
 42
-0.09981921
  0
VERTEX
  8
0
 10
3944.07167029
 20
-40.40610424
 42
-0.09973759
  0
VERTEX
  8
0
 10
3944.72392949
 20
-44.97307060
 42
-0.03520561
  0
VERTEX
  8
0
 10
3944.51432388
 20
-46.61000037
  0
SEQEND
  0
POLYLINE
  8
0
 66
   1
 70
    0
  0
VERTEX
  8
0
 10
3929.52690237
 20
-30.67865810
 42
0.10670721
  0
VERTEX
  8
0
 10
3938.06061808
 20
-28.76754284
 42
0.10700360
  0
VERTEX
  8
0
 10
3945.03367864
 20
-23.51004559
 42
0.10738950
  0
VERTEX
  8
0
 10
3949.19446959
 20
-15.84984909
 42
0.10759955
  0
VERTEX
  8
0
 10
3949.79615927
 20
-7.16190356
 42
0.10748749
  0
VERTEX
  8
0
 10
3946.73074916
 20
0.99436788
 42
0.10713150
  0
VERTEX
  8
0
 10
3940.54845666
 20
7.15497387
 42
0.10677756
  0
VERTEX
  8
0
 10
3932.35896033
 20
10.21412948
 42
0.10666653
  0
VERTEX
  8
0
 10
3923.63221436
 20
9.62273882
 42
0.10687322
  0
VERTEX
  8
0
 10
3915.93460700
 20
5.48695199
 42
0.10725808
  0
VERTEX
  8
0
 10
3910.64780338
 20
-1.45088689
 42
0.10755796
  0
VERTEX
  8
0
 10
3908.72074600
 20
-9.94548628
  0
SEQEND
  0
POLYLINE
  8
0
 66
   1
 70
    0
  0
VERTEX
  8
0
 10
3921.17169039
 20
-56.48159617
 42
0.09835881
  0
VERTEX
  8
0
 10
3911.01809780
 20
-55.38123065
 42
0.09840530
  0
VERTEX
  8
0
 10
3901.21716362
 20
-58.24456062
 42
0.09862295
  0
VERTEX
  8
0
 10
3893.26710508
 20
-64.63388632
 42
0.09888487
  0
VERTEX
  8
0
 10
3888.38320582
 20
-73.57250385
 42
0.11191488
  0
VERTEX
  8
0
 10
3892.06422228
 20
-51.84843943
 42
0.11187773
  0
VERTEX
  8
0
 10
3886.01657648
 20
-30.65712006
  0
SEQEND
  0
POLYLINE
  8
0
 66
   1
 70
    0
  0
VERTEX
  8
0
 10
3945.53605426
 20
-166.10077769
 42
0.21075532
  0
VERTEX
  8
0
 10
3933.34238201
 20
-120.98071737
 42
0.18331675
  0
VERTEX
  8
0
 10
3922.92948268
 20
-114.89620727
 42
0.02053112
  0
VERTEX
  8
0
 10
3921.19097629
 20
-114.67749141
 42
0.11756863
  0
VERTEX
  8
0
 10
3911.57581418
 20
-116.15965069
 42
0.10329061
  0
VERTEX
  8
0
 10
3908.34331256
 20
-118.94840230
 42
0.09654353
  0
VERTEX
  8
0
 10
3906.37776412
 20
-122.90263732
 42
0.09310597
  0
VERTEX
  8
0
 10
3905.99700049
 20
-127.38295206
 42
0.09442339
  0
VERTEX
  8
0
 10
3907.26259140
 20
-131.66487553
 42
0.09998201
  0
VERTEX
  8
0
 10
3909.96988859
 20
-135.05601580
  0
VERTEX
  8
0
 10
3910.12701600
 20
-135.11756600
  0
VERTEX
  8
0
 10
3910.15917200
 20
-135.08845500
  0
VERTEX
  8
0
 10
3910.15342333
 20
-135.05601587
 42
-0.10241350
  0
VERTEX
  8
0
 10
3907.34837839
 20
-131.72062000
 42
-0.09645706
  0
VERTEX
  8
0
 10
3906.00390814
 20
-127.43608965
 42
-0.09491594
  0
VERTEX
  8
0
 10
3906.34589455
 20
-122.92225773
 42
-0.09841973
  0
VERTEX
  8
0
 10
3908.31687922
 20
-118.93748000
 42
-0.10543683
  0
VERTEX
  8
0
 10
3911.58572460
 20
-116.15122914
 42
-0.11940935
  0
VERTEX
  8
0
 10
3917.37030458
 20
-115.80330852
 42
-0.11637853
  0
VERTEX
  8
0
 10
3922.74874376
 20
-118.15517519
 42
-0.10836485
  0
VERTEX
  8
0
 10
3926.71579458
 20
-122.76725830
 42
-0.10174256
  0
VERTEX
  8
0
 10
3928.53000369
 20
-128.77754525
 42
-0.10034598
  0
VERTEX
  8
0
 10
3927.85229030
 20
-135.06269495
 42
-0.09799553
  0
VERTEX
  8
0
 10
3925.06136077
 20
-141.14845351
 42
-0.10485893
  0
VERTEX
  8
0
 10
3920.26995033
 20
-145.49997958
 42
-0.11148184
  0
VERTEX
  8
0
 10
3914.28295751
 20
-147.38626908
 42
-0.13009325
  0
VERTEX
  8
0
 10
3903.19126958
 20
-145.29860375
 42
-0.12223703
  0
VERTEX
  8
0
 10
3894.21331099
 20
-137.88367438
 42
-0.11304860
  0
VERTEX
  8
0
 10
3889.35122628
 20
-126.79505990
 42
-0.10963970
  0
VERTEX
  8
0
 10
3889.68929515
 20
-114.50559561
 42
-0.11020444
  0
VERTEX
  8
0
 10
3896.59696243
 20
-102.22312651
 42
-0.11913829
  0
VERTEX
  8
0
 10
3907.76497842
 20
-94.54439035
 42
-0.09166469
  0
VERTEX
  8
0
 10
3917.34901877
 20
-92.80439285
 42
-0.26143658
  0
VERTEX
  8
0
 10
3957.66857763
 20
-115.72663007
 42
-0.09260022
  0
VERTEX
  8
0
 10
3963.20813343
 20
-132.08578111
  0
SEQEND
  0
POLYLINE
  8
0
 66
   1
 70
    0
  0
VERTEX
  8
0
 10
3940.15465570
 20
-237.79718379
 42
0.04765601
  0
VERTEX
  8
0
 10
3937.35138388
 20
-195.77924723
 42
0.05226108
  0
VERTEX
  8
0
 10
3934.47600323
 20
-181.94530377
 42
0.11642614
  0
VERTEX
  8
0
 10
3927.52919638
 20
-171.56556083
 42
0.12624609
  0
VERTEX
  8
0
 10
3916.99174690
 20
-165.83644928
 42
0.10758709
  0
VERTEX
  8
0
 10
3913.78173555
 20
-165.78675662
 42
0.10482848
  0
VERTEX
  8
0
 10
3910.79866323
 20
-167.08276116
 42
0.09836199
  0
VERTEX
  8
0
 10
3908.49667621
 20
-169.52715755
 42
0.09251181
  0
VERTEX
  8
0
 10
3907.22623107
 20
-172.74780931
 42
0.09016414
  0
VERTEX
  8
0
 10
3907.18074215
 20
-176.25440097
 42
0.09220430
  0
VERTEX
  8
0
 10
3908.36713256
 20
-179.51308534
 42
0.09787178
  0
VERTEX
  8
0
 10
3910.60478736
 20
-182.02775831
 42
0.10443488
  0
VERTEX
  8
0
 10
3913.55304318
 20
-183.41558297
 42
-0.10444519
  0
VERTEX
  8
0
 10
3910.60477227
 20
-182.03051929
 42
-0.09788426
  0
VERTEX
  8
0
 10
3908.36613425
 20
-179.51839211
 42
-0.09221193
  0
VERTEX
  8
0
 10
3907.17794524
 20
-176.26164748
 42
-0.09016385
  0
VERTEX
  8
0
 10
3907.22109291
 20
-172.75609612
 42
-0.09250369
  0
VERTEX
  8
0
 10
3908.48900972
 20
-169.53542679
 42
-0.09834938
  0
VERTEX
  8
0
 10
3910.78866768
 20
-167.08995699
 42
-0.10481865
  0
VERTEX
  8
0
 10
3913.76996318
 20
-165.79198761
 42
-0.10758750
  0
VERTEX
  8
0
 10
3916.97902161
 20
-165.83912267
 42
-0.10298832
  0
VERTEX
  8
0
 10
3921.65526276
 20
-169.05954422
 42
-0.09618881
  0
VERTEX
  8
0
 10
3924.83014937
 20
-174.00294333
 42
-0.09172145
  0
VERTEX
  8
0
 10
3926.01102566
 20
-179.90223904
 42
-0.09152477
  0
VERTEX
  8
0
 10
3925.01465415
 20
-185.84202546
 42
-0.09567106
  0
VERTEX
  8
0
 10
3921.99564299
 20
-190.90061252
 42
-0.13438123
  0
VERTEX
  8
0
 10
3913.66347860
 20
-195.77357332
 42
-0.14014372
  0
VERTEX
  8
0
 10
3904.21403023
 20
-195.57881165
 42
-0.13358620
  0
VERTEX
  8
0
 10
3896.05606698
 20
-190.36597351
 42
-0.09570478
  0
VERTEX
  8
0
 10
3890.99819616
 20
-182.08525163
 42
-0.09146515
  0
VERTEX
  8
0
 10
3889.25566323
 20
-172.31414500
 42
-0.09152964
  0
VERTEX
  8
0
 10
3891.09816503
 20
-162.56494799
 42
-0.09587460
  0
VERTEX
  8
0
 10
3896.24053293
 20
-154.34656386
 42
-0.10263573
  0
VERTEX
  8
0
 10
3903.88687237
 20
-148.93097131
 42
-0.21668954
  0
VERTEX
  8
0
 10
3933.03067252
 20
-152.85304919
 42
-0.21668954
  0
VERTEX
  8
0
 10
3949.23119565
 20
-177.39458157
 42
-0.11699036
  0
VERTEX
  8
0
 10
3948.78813836
 20
-257.82746145
 42
-0.10511203
  0
VERTEX
  8
0
 10
3953.65182931
 20
-256.34271206
 42
-0.13722572
  0
VERTEX
  8
0
 10
3964.69484181
 20
-259.22864114
  0
SEQEND
  0
POLYLINE
  8
0
 66
   1
 70
    0
  0
VERTEX
  8
0
 10
3677.25392454
 20
-20.18069673
 42
-0.06865808
  0
VERTEX
  8
0
 10
3737.63334086
 20
-2.30904200
 42
-0.04117509
  0
VERTEX
  8
0
 10
3802.82135951
 20
0.98301003
 42
-0.04653816
  0
VERTEX
  8
0
 10
3850.10279832
 20
-2.49190916
 42
-0.13897206
  0
VERTEX
  8
0
 10
3865.07764977
 20
-9.83367502
 42
-0.11697981
  0
VERTEX
  8
0
 10
3869.44829478
 20
-16.94577680
 42
-0.12271017
  0
VERTEX
  8
0
 10
3870.02780452
 20
-25.07528862
 42
-0.12513564
  0
VERTEX
  8
0
 10
3869.68096279
 20
-28.68881568
 42
-0.11873090
  0
VERTEX
  8
0
 10
3867.62667683
 20
-31.79846404
 42
-0.10920416
  0
VERTEX
  8
0
 10
3864.28071677
 20
-33.77486329
 42
-0.10383347
  0
VERTEX
  8
0
 10
3860.32027983
 20
-34.21800462
 42
-0.10550630
  0
VERTEX
  8
0
 10
3856.54692906
 20
-33.03820178
 42
-0.11341867
  0
VERTEX
  8
0
 10
3853.72436067
 20
-30.47423577
 42
0.11332489
  0
VERTEX
  8
0
 10
3856.54631967
 20
-33.03410776
 42
0.10542859
  0
VERTEX
  8
0
 10
3860.31674517
 20
-34.21154668
 42
0.10376156
  0
VERTEX
  8
0
 10
3864.27356349
 20
-33.76856984
 42
0.10912369
  0
VERTEX
  8
0
 10
3867.61703127
 20
-31.79471212
 42
0.11863665
  0
VERTEX
  8
0
 10
3869.67137166
 20
-28.68892577
 42
0.12504465
  0
VERTEX
  8
0
 10
3870.02136541
 20
-25.07894690
 42
0.12777873
  0
VERTEX
  8
0
 10
3868.09304991
 20
-20.10856326
 42
0.11772185
  0
VERTEX
  8
0
 10
3863.88483712
 20
-16.48306962
 42
0.10273492
  0
VERTEX
  8
0
 10
3857.08194003
 20
-14.83407294
 42
0.10214571
  0
VERTEX
  8
0
 10
3850.16070467
 20
-16.00761656
 42
0.10806172
  0
VERTEX
  8
0
 10
3844.46926878
 20
-19.77511302
 42
0.10640196
  0
VERTEX
  8
0
 10
3841.11404407
 20
-25.86167482
 42
0.11079273
  0
VERTEX
  8
0
 10
3840.64476476
 20
-32.65626006
 42
0.10836756
  0
VERTEX
  8
0
 10
3843.13618831
 20
-39.07648971
 42
0.10120143
  0
VERTEX
  8
0
 10
3848.19143007
 20
-44.09961803
 42
0.10230398
  0
VERTEX
  8
0
 10
3858.47631368
 20
-47.24620789
 42
0.10072640
  0
VERTEX
  8
0
 10
3869.25546880
 20
-46.10685895
 42
0.10561347
  0
VERTEX
  8
0
 10
3878.47166841
 20
-40.89901809
 42
0.10500533
  0
VERTEX
  8
0
 10
3886.01657628
 20
-30.65711918
 42
0.12470489
  0
VERTEX
  8
0
 10
3888.13297077
 20
-14.07811927
 42
0.12224535
  0
VERTEX
  8
0
 10
3882.05784048
 20
1.67204949
 42
0.06381130
  0
VERTEX
  8
0
 10
3875.32158275
 20
9.05175700
 42
0.10023332
  0
VERTEX
  8
0
 10
3864.89221330
 20
14.79956309
 42
0.07119170
  0
VERTEX
  8
0
 10
3833.00099726
 20
20.00368291
 42
0.04296504
  0
VERTEX
  8
0
 10
3752.11956054
 20
15.24849943
 42
0.07111242
  0
VERTEX
  8
0
 10
3672.96554132
 20
-9.03776531
  0
SEQEND
  0
POLYLINE
  8
0
 66
   1
 70
    0
  0
VERTEX
  8
0
 10
3804.17695431
 20
1.00604467
 42
-0.08341659
  0
VERTEX
  8
0
 10
3818.99348701
 20
-4.25963060
 42
-0.33222619
  0
VERTEX
  8
0
 10
3840.77272505
 20
-51.83057963
 42
-0.06482462
  0
VERTEX
  8
0
 10
3839.04256356
 20
-56.69640034
 42
-0.09333477
  0
VERTEX
  8
0
 10
3832.54454613
 20
-65.11704225
 42
-0.10980097
  0
VERTEX
  8
0
 10
3820.21884855
 20
-72.00048692
 42
-0.10887311
  0
VERTEX
  8
0
 10
3807.88612997
 20
-72.33737605
 42
-0.11251019
  0
VERTEX
  8
0
 10
3796.75848460
 20
-67.49234983
 42
-0.12239655
  0
VERTEX
  8
0
 10
3789.31745391
 20
-58.54588212
 42
-0.13094722
  0
VERTEX
  8
0
 10
3787.22243687
 20
-47.49309672
 42
-0.11212468
  0
VERTEX
  8
0
 10
3789.11536215
 20
-41.52710157
 42
-0.10492712
  0
VERTEX
  8
0
 10
3793.48220203
 20
-36.75249492
 42
-0.09754589
  0
VERTEX
  8
0
 10
3799.58937962
 20
-33.97135183
 42
-0.09965931
  0
VERTEX
  8
0
 10
3805.89665118
 20
-33.29601259
 42
-0.10114800
  0
VERTEX
  8
0
 10
3811.92809328
 20
-35.10385557
 42
-0.10824844
  0
VERTEX
  8
0
 10
3816.55641115
 20
-39.05699188
 42
-0.11693354
  0
VERTEX
  8
0
 10
3818.91655776
 20
-44.41656558
 42
-0.12024526
  0
VERTEX
  8
0
 10
3818.56741483
 20
-50.18085691
 42
-0.10555171
  0
VERTEX
  8
0
 10
3815.77135866
 20
-53.43823799
 42
-0.09799940
  0
VERTEX
  8
0
 10
3811.77255696
 20
-55.40231272
 42
-0.09425881
  0
VERTEX
  8
0
 10
3807.24283763
 20
-55.74310088
 42
-0.09590160
  0
VERTEX
  8
0
 10
3802.94322649
 20
-54.40334779
 42
-0.10228773
  0
VERTEX
  8
0
 10
3799.59609000
 20
-51.60814200
  0
VERTEX
  8
0
 10
3799.56353700
 20
-51.60241400
  0
VERTEX
  8
0
 10
3799.53432300
 20
-51.63445800
  0
VERTEX
  8
0
 10
3799.59609000
 20
-51.79103300
 42
0.09982418
  0
VERTEX
  8
0
 10
3802.99916789
 20
-54.48883355
 42
0.09386745
  0
VERTEX
  8
0
 10
3807.29616136
 20
-55.74998398
 42
0.09246326
  0
VERTEX
  8
0
 10
3811.79224511
 20
-55.37055381
 42
0.09613331
  0
VERTEX
  8
0
 10
3815.76039771
 20
-53.41189772
 42
0.10339457
  0
VERTEX
  8
0
 10
3818.55896483
 20
-50.19073334
 42
0.11835880
  0
VERTEX
  8
0
 10
3820.04633580
 20
-40.60929323
 42
0.11683585
  0
VERTEX
  8
0
 10
3816.99967867
 20
-31.33771600
 42
0.16566840
  0
VERTEX
  8
0
 10
3799.68853838
 20
-19.22837936
 42
0.08227710
  0
VERTEX
  8
0
 10
3765.82259652
 20
-15.75020478
  0
SEQEND
  0
POLYLINE
  8
0
 66
   1
 70
    0
  0
VERTEX
  8
0
 10
3702.86551554
 20
-10.38448665
 42
-0.16719107
  0
VERTEX
  8
0
 10
3772.04103862
 20
-18.49993934
 42
-0.37478989
  0
VERTEX
  8
0
 10
3784.59075550
 20
-57.75602736
 42
-0.10287310
  0
VERTEX
  8
0
 10
3779.15610450
 20
-65.37555028
 42
-0.09557855
  0
VERTEX
  8
0
 10
3770.90879689
 20
-70.49988603
 42
-0.09093248
  0
VERTEX
  8
0
 10
3761.12528633
 20
-72.33592921
 42
-0.09086377
  0
VERTEX
  8
0
 10
3751.31978731
 20
-70.59951397
 42
-0.09539635
  0
VERTEX
  8
0
 10
3743.00991874
 20
-65.55938555
 42
-0.13397846
  0
VERTEX
  8
0
 10
3737.77872916
 20
-57.43003625
 42
-0.14113112
  0
VERTEX
  8
0
 10
3737.58327740
 20
-48.01373176
 42
-0.13484246
  0
VERTEX
  8
0
 10
3742.47338624
 20
-39.71078783
 42
-0.09535062
  0
VERTEX
  8
0
 10
3747.54977693
 20
-36.70236259
 42
-0.09091860
  0
VERTEX
  8
0
 10
3753.51046928
 20
-35.70948316
 42
-0.09112819
  0
VERTEX
  8
0
 10
3759.43052971
 20
-36.88621555
 42
-0.09590612
  0
VERTEX
  8
0
 10
3764.39132866
 20
-40.04996492
 42
-0.10324448
  0
VERTEX
  8
0
 10
3767.62308701
 20
-44.70980387
 42
-0.10834585
  0
VERTEX
  8
0
 10
3767.67038920
 20
-47.90760680
 42
-0.10532029
  0
VERTEX
  8
0
 10
3766.36785299
 20
-50.87844708
 42
-0.09830455
  0
VERTEX
  8
0
 10
3763.91377649
 20
-53.17004022
 42
-0.09202829
  0
VERTEX
  8
0
 10
3760.68177194
 20
-54.43351130
 42
-0.08953268
  0
VERTEX
  8
0
 10
3757.16388286
 20
-54.47650944
 42
-0.09171658
  0
VERTEX
  8
0
 10
3753.89567545
 20
-53.29248851
 42
-0.09780298
  0
VERTEX
  8
0
 10
3751.37470482
 20
-51.06170408
 42
-0.10491325
  0
VERTEX
  8
0
 10
3749.98476498
 20
-48.12377314
 42
0.10490201
  0
VERTEX
  8
0
 10
3751.37747523
 20
-51.06168817
 42
0.09778952
  0
VERTEX
  8
0
 10
3753.90099972
 20
-53.29149361
 42
0.09170844
  0
VERTEX
  8
0
 10
3757.17115434
 20
-54.47372266
 42
0.08953299
  0
VERTEX
  8
0
 10
3760.69008809
 20
-54.42839108
 42
0.09203696
  0
VERTEX
  8
0
 10
3763.92207513
 20
-53.16239999
 42
0.09831814
  0
VERTEX
  8
0
 10
3766.37507442
 20
-50.86848591
 42
0.10533100
  0
VERTEX
  8
0
 10
3767.67563898
 20
-47.89587563
 42
0.10834539
  0
VERTEX
  8
0
 10
3767.62577004
 20
-44.69712355
 42
0.12672712
  0
VERTEX
  8
0
 10
3761.87648884
 20
-34.19663497
 42
0.11611217
  0
VERTEX
  8
0
 10
3751.46020885
 20
-27.27419676
 42
0.10474802
  0
VERTEX
  8
0
 10
3723.23637074
 20
-24.48346827
  0
SEQEND
  0
POLYLINE
  8
0
 66
   1
 70
    0
  0
VERTEX
  8
0
 10
3678.56649858
 20
-23.59128955
 42
-0.17060391
  0
VERTEX
  8
0
 10
3716.87496977
 20
-22.03195861
 42
-0.22506142
  0
VERTEX
  8
0
 10
3734.56148693
 20
-36.39379034
 42
-0.22506142
  0
VERTEX
  8
0
 10
3734.63613456
 20
-59.17688873
 42
-0.10162917
  0
VERTEX
  8
0
 10
3727.11055266
 20
-67.09985353
 42
-0.10716390
  0
VERTEX
  8
0
 10
3715.21452513
 20
-72.07063973
 42
-0.10392162
  0
VERTEX
  8
0
 10
3702.12574376
 20
-71.78029088
 42
-0.09350022
  0
VERTEX
  8
0
 10
3694.97399899
 20
-68.80857833
 42
-0.10010507
  0
VERTEX
  8
0
 10
3689.64685951
 20
-63.55070744
 42
-0.10715899
  0
VERTEX
  8
0
 10
3686.97605748
 20
-56.82759880
 42
-0.10969277
  0
VERTEX
  8
0
 10
3687.37858900
 20
-49.68893769
 42
-0.10557863
  0
VERTEX
  8
0
 10
3690.79160651
 20
-43.24929356
 42
-0.09846104
  0
VERTEX
  8
0
 10
3695.76510597
 20
-40.06287770
 42
-0.09346556
  0
VERTEX
  8
0
 10
3701.71976460
 20
-38.92559421
 42
-0.09341800
  0
VERTEX
  8
0
 10
3707.68344605
 20
-40.02311240
 42
-0.09833597
  0
VERTEX
  8
0
 10
3712.68254354
 20
-43.17625332
 42
-0.10605277
  0
VERTEX
  8
0
 10
3715.90092391
 20
-47.87024933
 42
-0.11175396
  0
VERTEX
  8
0
 10
3716.81316595
 20
-53.33877619
 42
-0.10846801
  0
VERTEX
  8
0
 10
3715.43279783
 20
-56.07814782
 42
-0.10074830
  0
VERTEX
  8
0
 10
3712.97150478
 20
-58.09629049
 42
-0.09458302
  0
VERTEX
  8
0
 10
3709.83205231
 20
-59.06295347
 42
-0.09299462
  0
VERTEX
  8
0
 10
3706.52818085
 20
-58.81995176
 42
-0.09658347
  0
VERTEX
  8
0
 10
3703.60053706
 20
-57.40705031
 42
-0.10388950
  0
VERTEX
  8
0
 10
3701.52820186
 20
-55.05545777
 42
-0.11078517
  0
VERTEX
  8
0
 10
3700.65029107
 20
-52.14998807
 42
0.11079686
  0
VERTEX
  8
0
 10
3701.53436970
 20
-55.05564565
 42
0.10388268
  0
VERTEX
  8
0
 10
3703.61275828
 20
-57.40496520
 42
0.09658275
  0
VERTEX
  8
0
 10
3706.54515297
 20
-58.81328167
 42
0.09301646
  0
VERTEX
  8
0
 10
3709.85141919
 20
-59.05000645
 42
0.09463381
  0
VERTEX
  8
0
 10
3712.99020798
 20
-58.07637891
 42
0.10082272
  0
VERTEX
  8
0
 10
3715.44759208
 20
-56.05181533
 42
0.10854124
  0
VERTEX
  8
0
 10
3716.82121295
 20
-53.30780632
 42
0.13987112
  0
VERTEX
  8
0
 10
3717.75593244
 20
-46.03945166
 42
0.13612311
  0
VERTEX
  8
0
 10
3714.68854605
 20
-39.27362899
 42
0.12429771
  0
VERTEX
  8
0
 10
3708.39160397
 20
-34.71437472
 42
0.09816396
  0
VERTEX
  8
0
 10
3682.30719222
 20
-33.31111104
  0
SEQEND
  0
POLYLINE
  8
0
 66
   1
 70
    0
  0
VERTEX
  8
0
 10
3657.56991690
 20
-32.66757537
 42
-0.06808969
  0
VERTEX
  8
0
 10
3597.40851716
 20
-50.37621617
 42
-0.04107764
  0
VERTEX
  8
0
 10
3532.06505211
 20
-53.66826908
 42
-0.04642863
  0
VERTEX
  8
0
 10
3484.67086967
 20
-50.19334862
 42
-0.13876926
  0
VERTEX
  8
0
 10
3469.66031006
 20
-42.85158369
 42
-0.11710548
  0
VERTEX
  8
0
 10
3465.27924300
 20
-35.73948235
 42
-0.12299981
  0
VERTEX
  8
0
 10
3464.69835211
 20
-27.60996948
 42
-0.12542856
  0
VERTEX
  8
0
 10
3465.04602020
 20
-23.99644299
 42
-0.11884163
  0
VERTEX
  8
0
 10
3467.10520463
 20
-20.88679490
 42
-0.10907846
  0
VERTEX
  8
0
 10
3470.45914340
 20
-18.91039616
 42
-0.10359255
  0
VERTEX
  8
0
 10
3474.42902443
 20
-18.46725415
 42
-0.10529988
  0
VERTEX
  8
0
 10
3478.21137358
 20
-19.64705694
 42
-0.11339249
  0
VERTEX
  8
0
 10
3481.04067074
 20
-22.21102348
 42
0.11329836
  0
VERTEX
  8
0
 10
3478.21198280
 20
-19.65115166
 42
0.10522222
  0
VERTEX
  8
0
 10
3474.43256763
 20
-18.47371254
 42
0.10352081
  0
VERTEX
  8
0
 10
3470.46631312
 20
-18.91668863
 42
0.10899797
  0
VERTEX
  8
0
 10
3467.11487285
 20
-20.89054627
 42
0.11874699
  0
VERTEX
  8
0
 10
3465.05563413
 20
-23.99633265
 42
0.12533725
  0
VERTEX
  8
0
 10
3464.70480564
 20
-27.60631223
 42
0.12800347
  0
VERTEX
  8
0
 10
3466.63771955
 20
-32.57669568
 42
0.11768005
  0
VERTEX
  8
0
 10
3470.85596683
 20
-36.20218886
 42
0.10251756
  0
VERTEX
  8
0
 10
3477.67508568
 20
-37.85118570
 42
0.10191625
  0
VERTEX
  8
0
 10
3484.61282502
 20
-36.67764253
 42
0.10796097
  0
VERTEX
  8
0
 10
3490.31783243
 20
-32.91014608
 42
0.10653713
  0
VERTEX
  8
0
 10
3493.68105731
 20
-26.82358448
 42
0.11105440
  0
VERTEX
  8
0
 10
3494.15145513
 20
-20.02899871
 42
0.10855812
  0
VERTEX
  8
0
 10
3491.65409143
 20
-13.60876899
 42
0.10119961
  0
VERTEX
  8
0
 10
3486.58679592
 20
-8.58564021
 42
0.10210214
  0
VERTEX
  8
0
 10
3476.27738700
 20
-5.43905167
 42
0.10049207
  0
VERTEX
  8
0
 10
3465.47252879
 20
-6.57840057
 42
0.10548356
  0
VERTEX
  8
0
 10
3456.23435256
 20
-11.78624019
 42
0.10507923
  0
VERTEX
  8
0
 10
3448.67145312
 20
-22.02813960
 42
0.12499269
  0
VERTEX
  8
0
 10
3446.55001389
 20
-38.60713869
 42
0.12246113
  0
VERTEX
  8
0
 10
3452.63962956
 20
-54.35730853
 42
0.06382495
  0
VERTEX
  8
0
 10
3459.39194977
 20
-61.73701583
 42
0.10010572
  0
VERTEX
  8
0
 10
3469.84618819
 20
-67.48482230
 42
0.07103110
  0
VERTEX
  8
0
 10
3501.81345150
 20
-72.68894216
 42
0.04286354
  0
VERTEX
  8
0
 10
3582.88775062
 20
-67.93375806
 42
0.07040481
  0
VERTEX
  8
0
 10
3661.62994293
 20
-43.92850550
  0
SEQEND
  0
POLYLINE
  8
0
 66
   1
 70
    0
  0
VERTEX
  8
0
 10
3569.37203348
 20
-36.93505422
 42
-0.08227710
  0
VERTEX
  8
0
 10
3535.50609262
 20
-33.45687964
 42
-0.16566840
  0
VERTEX
  8
0
 10
3518.19495133
 20
-21.34754200
 42
-0.11683585
  0
VERTEX
  8
0
 10
3515.14829420
 20
-12.07596477
 42
-0.11835880
  0
VERTEX
  8
0
 10
3516.63566617
 20
-2.49452566
 42
-0.10339457
  0
VERTEX
  8
0
 10
3519.43423329
 20
0.72663872
 42
-0.09613331
  0
VERTEX
  8
0
 10
3523.40238489
 20
2.68529481
 42
-0.09246326
  0
VERTEX
  8
0
 10
3527.89846864
 20
3.06472498
 42
-0.09386745
  0
VERTEX
  8
0
 10
3532.19546311
 20
1.80357555
 42
-0.09982418
  0
VERTEX
  8
0
 10
3535.59854000
 20
-0.89422600
  0
VERTEX
  8
0
 10
3535.66030800
 20
-1.05080100
  0
VERTEX
  8
0
 10
3535.63109400
 20
-1.08284500
  0
VERTEX
  8
0
 10
3535.59854000
 20
-1.07711700
 42
0.10228773
  0
VERTEX
  8
0
 10
3532.25140436
 20
1.71808840
 42
0.09590160
  0
VERTEX
  8
0
 10
3527.95179337
 20
3.05784188
 42
0.09425881
  0
VERTEX
  8
0
 10
3523.42207402
 20
2.71705329
 42
0.09799940
  0
VERTEX
  8
0
 10
3519.42327240
 20
0.75297881
 42
0.10555171
  0
VERTEX
  8
0
 10
3516.62721644
 20
-2.50440269
 42
0.12024526
  0
VERTEX
  8
0
 10
3516.27807306
 20
-8.26869354
 42
0.11693354
  0
VERTEX
  8
0
 10
3518.63821944
 20
-13.62826768
 42
0.10824844
  0
VERTEX
  8
0
 10
3523.26653744
 20
-17.58140344
 42
0.10114800
  0
VERTEX
  8
0
 10
3529.29797963
 20
-19.38924631
 42
0.09965931
  0
VERTEX
  8
0
 10
3535.60525038
 20
-18.71390717
 42
0.09754589
  0
VERTEX
  8
0
 10
3541.71242794
 20
-15.93276482
 42
0.10492712
  0
VERTEX
  8
0
 10
3546.07926785
 20
-11.15815743
 42
0.11212468
  0
VERTEX
  8
0
 10
3547.97219413
 20
-5.19216228
 42
0.13094722
  0
VERTEX
  8
0
 10
3545.87717646
 20
5.86062322
 42
0.12239655
  0
VERTEX
  8
0
 10
3538.43614509
 20
14.80709046
 42
0.11251019
  0
VERTEX
  8
0
 10
3527.30849981
 20
19.65211655
 42
0.10887311
  0
VERTEX
  8
0
 10
3514.97578145
 20
19.31522792
 42
0.10980097
  0
VERTEX
  8
0
 10
3502.65008387
 20
12.43178325
 42
0.09333477
  0
VERTEX
  8
0
 10
3496.15206644
 20
4.01114134
 42
0.06482462
  0
VERTEX
  8
0
 10
3494.42190495
 20
-0.85467937
 42
0.33222619
  0
VERTEX
  8
0
 10
3516.20114269
 20
-48.42562823
 42
0.08328674
  0
VERTEX
  8
0
 10
3530.99357425
 20
-53.68703518
  0
SEQEND
  0
POLYLINE
  8
0
 66
   1
 70
    0
  0
VERTEX
  8
0
 10
3611.95826026
 20
-28.20179073
 42
-0.10474802
  0
VERTEX
  8
0
 10
3583.73442149
 20
-25.41106280
 42
-0.11611217
  0
VERTEX
  8
0
 10
3573.31814204
 20
-18.48862436
 42
-0.12672712
  0
VERTEX
  8
0
 10
3567.56886097
 20
-7.98813587
 42
-0.10834539
  0
VERTEX
  8
0
 10
3567.51899137
 20
-4.78938262
 42
-0.10533100
  0
VERTEX
  8
0
 10
3568.81955613
 20
-1.81677270
 42
-0.09831814
  0
VERTEX
  8
0
 10
3571.27255577
 20
0.47714095
 42
-0.09203696
  0
VERTEX
  8
0
 10
3574.50454191
 20
1.74313208
 42
-0.08953299
  0
VERTEX
  8
0
 10
3578.02347614
 20
1.78846265
 42
-0.09170844
  0
VERTEX
  8
0
 10
3581.29363028
 20
0.60623461
 42
-0.09778952
  0
VERTEX
  8
0
 10
3583.81715477
 20
-1.62357083
 42
-0.10490201
  0
VERTEX
  8
0
 10
3585.20986539
 20
-4.56148535
 42
0.10491325
  0
VERTEX
  8
0
 10
3583.81992618
 20
-1.62355492
 42
0.09780298
  0
VERTEX
  8
0
 10
3581.29895555
 20
0.60722951
 42
0.09171658
  0
VERTEX
  8
0
 10
3578.03074814
 20
1.79125144
 42
0.08953268
  0
VERTEX
  8
0
 10
3574.51285806
 20
1.74825230
 42
0.09202829
  0
VERTEX
  8
0
 10
3571.28085451
 20
0.48478122
 42
0.09830455
  0
VERTEX
  8
0
 10
3568.82677801
 20
-1.80681192
 42
0.10532029
  0
VERTEX
  8
0
 10
3567.52424180
 20
-4.77765220
 42
0.10834585
  0
VERTEX
  8
0
 10
3567.57154299
 20
-7.97545513
 42
0.10324448
  0
VERTEX
  8
0
 10
3570.80330234
 20
-12.63529408
 42
0.09590612
  0
VERTEX
  8
0
 10
3575.76410129
 20
-15.79904245
 42
0.09112819
  0
VERTEX
  8
0
 10
3581.68416172
 20
-16.97577584
 42
0.09091860
  0
VERTEX
  8
0
 10
3587.64485407
 20
-15.98289641
 42
0.09535062
  0
VERTEX
  8
0
 10
3592.72124476
 20
-12.97447117
 42
0.13484246
  0
VERTEX
  8
0
 10
3597.61135360
 20
-4.67152724
 42
0.14113112
  0
VERTEX
  8
0
 10
3597.41590184
 20
4.74477825
 42
0.13397846
  0
VERTEX
  8
0
 10
3592.18471226
 20
12.87412755
 42
0.09539635
  0
VERTEX
  8
0
 10
3583.87484369
 20
17.91425497
 42
0.09086377
  0
VERTEX
  8
0
 10
3574.06934367
 20
19.65067021
 42
0.09093248
  0
VERTEX
  8
0
 10
3564.28583311
 20
17.81462703
 42
0.09557855
  0
VERTEX
  8
0
 10
3556.03852650
 20
12.69029128
 42
0.10287310
  0
VERTEX
  8
0
 10
3550.60387550
 20
5.07076836
 42
0.37478989
  0
VERTEX
  8
0
 10
3563.15359138
 20
-34.18531966
 42
0.16663772
  0
VERTEX
  8
0
 10
3632.10381033
 20
-42.34960933
  0
SEQEND
  0
POLYLINE
  8
0
 66
   1
 70
    0
  0
VERTEX
  8
0
 10
3656.35810130
 20
-29.20061205
 42
-0.16931231
  0
VERTEX
  8
0
 10
3618.31966123
 20
-30.65329939
 42
-0.22506142
  0
VERTEX
  8
0
 10
3600.63314407
 20
-16.29146766
 42
-0.22506142
  0
VERTEX
  8
0
 10
3600.55849544
 20
6.49162973
 42
-0.10162917
  0
VERTEX
  8
0
 10
3608.08407834
 20
14.41459553
 42
-0.10716390
  0
VERTEX
  8
0
 10
3619.98010587
 20
19.38538073
 42
-0.10392162
  0
VERTEX
  8
0
 10
3633.06888724
 20
19.09503288
 42
-0.09350022
  0
VERTEX
  8
0
 10
3640.22063201
 20
16.12331933
 42
-0.10010507
  0
VERTEX
  8
0
 10
3645.54777149
 20
10.86544844
 42
-0.10715899
  0
VERTEX
  8
0
 10
3648.21857352
 20
4.14233980
 42
-0.10969277
  0
VERTEX
  8
0
 10
3647.81604200
 20
-2.99632131
 42
-0.10557863
  0
VERTEX
  8
0
 10
3644.40302449
 20
-9.43596544
 42
-0.09846104
  0
VERTEX
  8
0
 10
3639.42952503
 20
-12.62238130
 42
-0.09346556
  0
VERTEX
  8
0
 10
3633.47486640
 20
-13.75966479
 42
-0.09341800
  0
VERTEX
  8
0
 10
3627.51118495
 20
-12.66214660
 42
-0.09833597
  0
VERTEX
  8
0
 10
3622.51208646
 20
-9.50900468
 42
-0.10605277
  0
VERTEX
  8
0
 10
3619.29370609
 20
-4.81500967
 42
-0.11175396
  0
VERTEX
  8
0
 10
3618.38146505
 20
0.65351719
 42
-0.10846801
  0
VERTEX
  8
0
 10
3619.76183317
 20
3.39288982
 42
-0.10074830
  0
VERTEX
  8
0
 10
3622.22312622
 20
5.41103149
 42
-0.09458302
  0
VERTEX
  8
0
 10
3625.36257869
 20
6.37769447
 42
-0.09299462
  0
VERTEX
  8
0
 10
3628.66645015
 20
6.13469276
 42
-0.09658347
  0
VERTEX
  8
0
 10
3631.59409294
 20
4.72179231
 42
-0.10388950
  0
VERTEX
  8
0
 10
3633.66642914
 20
2.37019877
 42
-0.11078517
  0
VERTEX
  8
0
 10
3634.54433954
 20
-0.53527098
 42
0.11079686
  0
VERTEX
  8
0
 10
3633.66026037
 20
2.37038651
 42
0.10388268
  0
VERTEX
  8
0
 10
3631.58187172
 20
4.71970620
 42
0.09658275
  0
VERTEX
  8
0
 10
3628.64947746
 20
6.12802319
 42
0.09301646
  0
VERTEX
  8
0
 10
3625.34321126
 20
6.36474791
 42
0.09463381
  0
VERTEX
  8
0
 10
3622.20442302
 20
5.39111991
 42
0.10082272
  0
VERTEX
  8
0
 10
3619.74703892
 20
3.36655633
 42
0.10854124
  0
VERTEX
  8
0
 10
3618.37341749
 20
0.62254729
 42
0.13987112
  0
VERTEX
  8
0
 10
3617.43869756
 20
-6.64580734
 42
0.13612311
  0
VERTEX
  8
0
 10
3620.50608406
 20
-13.41163026
 42
0.12429771
  0
VERTEX
  8
0
 10
3626.80302603
 20
-17.97088428
 42
0.09819511
  0
VERTEX
  8
0
 10
3652.89564466
 20
-19.37297469
  0
SEQEND
  0
POLYLINE
  8
0
 66
   1
 70
    0
  0
VERTEX
  8
0
 10
3420.37602154
 20
-682.47436925
 42
0.13193896
  0
VERTEX
  8
0
 10
3417.19905147
 20
-687.55186074
 42
0.10941221
  0
VERTEX
  8
0
 10
3416.80745642
 20
-692.51783212
 42
0.10932331
  0
VERTEX
  8
0
 10
3418.54967652
 20
-697.18678006
 42
0.10902870
  0
VERTEX
  8
0
 10
3422.10206061
 20
-700.69135993
 42
0.10873834
  0
VERTEX
  8
0
 10
3426.80468731
 20
-702.38053079
 42
0.10865671
  0
VERTEX
  8
0
 10
3431.78395677
 20
-701.94049822
 42
0.10884085
  0
VERTEX
  8
0
 10
3436.11487784
 20
-699.45300699
 42
0.10916180
  0
VERTEX
  8
0
 10
3438.99289856
 20
-695.38015306
 42
0.13395658
  0
VERTEX
  8
0
 10
3446.02535905
 20
-657.64350162
  0
SEQEND
  0
POLYLINE
  8
0
 66
   1
 70
    0
  0
VERTEX
  8
0
 10
3446.57467332
 20
-657.64350123
 42
0.13395658
  0
VERTEX
  8
0
 10
3453.60713713
 20
-695.38015297
 42
0.10916181
  0
VERTEX
  8
0
 10
3456.48516006
 20
-699.45300581
 42
0.10884084
  0
VERTEX
  8
0
 10
3460.81608076
 20
-701.94049701
 42
0.10865671
  0
VERTEX
  8
0
 10
3465.79535111
 20
-702.38052936
 42
0.10873834
  0
VERTEX
  8
0
 10
3470.49797741
 20
-700.69135728
 42
0.10902870
  0
VERTEX
  8
0
 10
3474.05036097
 20
-697.18677715
 42
0.10932331
  0
VERTEX
  8
0
 10
3475.79258011
 20
-692.51782935
 42
0.10941221
  0
VERTEX
  8
0
 10
3475.40098418
 20
-687.55185758
 42
0.13193896
  0
VERTEX
  8
0
 10
3472.22401358
 20
-682.47436643
  0
SEQEND
  0
POLYLINE
  8
0
 66
   1
 70
    0
  0
VERTEX
  8
0
 10
3420.37598542
 20
-5.35419157
 42
-0.13193896
  0
VERTEX
  8
0
 10
3417.19901440
 20
-0.27670066
 42
-0.10941221
  0
VERTEX
  8
0
 10
3416.80741889
 20
4.68927135
 42
-0.10932331
  0
VERTEX
  8
0
 10
3418.54963803
 20
9.35821815
 42
-0.10902869
  0
VERTEX
  8
0
 10
3422.10202142
 20
12.86279818
 42
-0.10873834
  0
VERTEX
  8
0
 10
3426.80464789
 20
14.55197036
 42
-0.10865671
  0
VERTEX
  8
0
 10
3431.78391761
 20
14.11193858
 42
-0.10884084
  0
VERTEX
  8
0
 10
3436.11483851
 20
11.62444676
 42
-0.10916180
  0
VERTEX
  8
0
 10
3438.99286110
 20
7.55159418
 42
-0.13395658
  0
VERTEX
  8
0
 10
3446.02532568
 20
-30.18505677
  0
SEQEND
  0
POLYLINE
  8
0
 66
   1
 70
    0
  0
VERTEX
  8
0
 10
3472.22397746
 20
-5.35418875
 42
0.13193896
  0
VERTEX
  8
0
 10
3475.40094753
 20
-0.27669726
 42
0.10941221
  0
VERTEX
  8
0
 10
3475.79254258
 20
4.68927412
 42
0.10932331
  0
VERTEX
  8
0
 10
3474.05032248
 20
9.35822206
 42
0.10902870
  0
VERTEX
  8
0
 10
3470.49793839
 20
12.86280193
 42
0.10873834
  0
VERTEX
  8
0
 10
3465.79531169
 20
14.55197279
 42
0.10865671
  0
VERTEX
  8
0
 10
3460.81604204
 20
14.11194016
 42
0.10884084
  0
VERTEX
  8
0
 10
3456.48512216
 20
11.62444899
 42
0.10916181
  0
VERTEX
  8
0
 10
3453.60710036
 20
7.55159488
 42
0.13395658
  0
VERTEX
  8
0
 10
3446.57464005
 20
-30.18505765
  0
SEQEND
  0
POLYLINE
  8
0
 66
   1
 70
    0
  0
VERTEX
  8
0
 10
2971.42827767
 20
-631.34691151
 42
0.10599515
  0
VERTEX
  8
0
 10
2976.65444446
 20
-622.16303416
 42
0.10142084
  0
VERTEX
  8
0
 10
2977.79780001
 20
-611.42168530
 42
0.10290075
  0
VERTEX
  8
0
 10
2974.64013246
 20
-601.17287470
 42
0.10120347
  0
VERTEX
  8
0
 10
2969.59932275
 20
-596.13536544
 42
0.10780564
  0
VERTEX
  8
0
 10
2963.15649541
 20
-593.65268228
 42
0.11002420
  0
VERTEX
  8
0
 10
2956.33799551
 20
-594.12031805
 42
0.10600166
  0
VERTEX
  8
0
 10
2950.23001193
 20
-597.46377685
 42
0.10835648
  0
VERTEX
  8
0
 10
2946.44925615
 20
-603.13525185
 42
0.10282534
  0
VERTEX
  8
0
 10
2945.27158502
 20
-610.03221237
 42
0.10337818
  0
VERTEX
  8
0
 10
2946.92638776
 20
-616.81124906
 42
0.11784145
  0
VERTEX
  8
0
 10
2950.56464286
 20
-621.00470096
 42
0.12711605
  0
VERTEX
  8
0
 10
2955.55252233
 20
-622.92625202
 42
0.12418518
  0
VERTEX
  8
0
 10
2959.17520687
 20
-622.57748414
 42
0.11830844
  0
VERTEX
  8
0
 10
2962.29192366
 20
-620.53034809
 42
0.10949269
  0
VERTEX
  8
0
 10
2964.27272748
 20
-617.19860656
 42
0.10447495
  0
VERTEX
  8
0
 10
2964.71726206
 20
-613.25566547
 42
0.10603869
  0
VERTEX
  8
0
 10
2963.53567772
 20
-609.49846539
 42
0.11339952
  0
VERTEX
  8
0
 10
2960.96679513
 20
-606.68640493
 42
-0.11349227
  0
VERTEX
  8
0
 10
2963.53978651
 20
-609.49907104
 42
-0.10611655
  0
VERTEX
  8
0
 10
2964.72374375
 20
-613.25918829
 42
-0.10454738
  0
VERTEX
  8
0
 10
2964.27904278
 20
-617.20573429
 42
-0.10957310
  0
VERTEX
  8
0
 10
2962.29568821
 20
-620.53995917
 42
-0.11840153
  0
VERTEX
  8
0
 10
2959.17509703
 20
-622.58704187
 42
-0.12427522
  0
VERTEX
  8
0
 10
2955.54885110
 20
-622.93266704
 42
-0.12185951
  0
VERTEX
  8
0
 10
2947.39072568
 20
-622.35519336
 42
-0.11660677
  0
VERTEX
  8
0
 10
2940.25358944
 20
-617.99988042
 42
-0.13956925
  0
VERTEX
  8
0
 10
2932.88597861
 20
-603.07755060
 42
-0.04686277
  0
VERTEX
  8
0
 10
2929.39881390
 20
-555.96194987
 42
-0.04146396
  0
VERTEX
  8
0
 10
2932.70243271
 20
-491.00255790
 42
-0.03269302
  0
VERTEX
  8
0
 10
2939.13015788
 20
-461.86975055
  0
SEQEND
  0
POLYLINE
  8
0
 66
   1
 70
    0
  0
VERTEX
  8
0
 10
2947.06392665
 20
-521.72772631
 42
0.21075532
  0
VERTEX
  8
0
 10
2959.25759401
 20
-566.84778879
 42
0.18331675
  0
VERTEX
  8
0
 10
2969.67049232
 20
-572.93229992
 42
0.02053112
  0
VERTEX
  8
0
 10
2971.40899883
 20
-573.15101599
 42
0.11756863
  0
VERTEX
  8
0
 10
2981.02416074
 20
-571.66885738
 42
0.10329061
  0
VERTEX
  8
0
 10
2984.25666202
 20
-568.88010527
 42
0.09654354
  0
VERTEX
  8
0
 10
2986.22221078
 20
-564.92587081
 42
0.09310597
  0
VERTEX
  8
0
 10
2986.60297488
 20
-560.44555598
 42
0.09442339
  0
VERTEX
  8
0
 10
2985.33738512
 20
-556.16363349
 42
0.09998201
  0
VERTEX
  8
0
 10
2982.63008800
 20
-552.77249300
  0
VERTEX
  8
0
 10
2982.47296200
 20
-552.71094200
  0
VERTEX
  8
0
 10
2982.44080500
 20
-552.74005300
  0
VERTEX
  8
0
 10
2982.44655370
 20
-552.77249194
 42
-0.10241350
  0
VERTEX
  8
0
 10
2985.25159820
 20
-556.10788908
 42
-0.09645706
  0
VERTEX
  8
0
 10
2986.59606800
 20
-560.39241861
 42
-0.09491594
  0
VERTEX
  8
0
 10
2986.25408114
 20
-564.90625142
 42
-0.09841973
  0
VERTEX
  8
0
 10
2984.28309602
 20
-568.89102800
 42
-0.10543683
  0
VERTEX
  8
0
 10
2981.01425016
 20
-571.67727924
 42
-0.11940935
  0
VERTEX
  8
0
 10
2975.22967111
 20
-572.02519924
 42
-0.11637853
  0
VERTEX
  8
0
 10
2969.85123185
 20
-569.67333176
 42
-0.10836485
  0
VERTEX
  8
0
 10
2965.88418164
 20
-565.06124826
 42
-0.10174256
  0
VERTEX
  8
0
 10
2964.06997215
 20
-559.05096109
 42
-0.10034599
  0
VERTEX
  8
0
 10
2964.74768712
 20
-552.76581130
 42
-0.09799553
  0
VERTEX
  8
0
 10
2967.53861718
 20
-546.68005317
 42
-0.10485893
  0
VERTEX
  8
0
 10
2972.33002796
 20
-542.32852767
 42
-0.11148184
  0
VERTEX
  8
0
 10
2978.31702080
 20
-540.44223875
 42
-0.13009325
  0
VERTEX
  8
0
 10
2989.40870908
 20
-542.52990452
 42
-0.12223703
  0
VERTEX
  8
0
 10
2998.38666670
 20
-549.94483490
 42
-0.11304860
  0
VERTEX
  8
0
 10
3003.24875038
 20
-561.03345050
 42
-0.10963970
  0
VERTEX
  8
0
 10
3002.91067987
 20
-573.32291463
 42
-0.11020444
  0
VERTEX
  8
0
 10
2996.00301055
 20
-585.60538374
 42
-0.11913829
  0
VERTEX
  8
0
 10
2984.83499496
 20
-593.28411764
 42
-0.09166469
  0
VERTEX
  8
0
 10
2975.25095344
 20
-595.02411412
 42
-0.26143658
  0
VERTEX
  8
0
 10
2934.93139656
 20
-572.10187192
 42
-0.09260022
  0
VERTEX
  8
0
 10
2929.39184275
 20
-555.74272020
  0
SEQEND
  0
POLYLINE
  8
0
 66
   1
 70
    0
  0
VERTEX
  8
0
 10
2943.81187883
 20
-430.00114401
 42
0.11699036
  0
VERTEX
  8
0
 10
2943.36878624
 20
-510.43392265
 42
0.21668954
  0
VERTEX
  8
0
 10
2959.56930633
 20
-534.97545683
 42
0.21668954
  0
VERTEX
  8
0
 10
2988.71310607
 20
-538.89753776
 42
0.10263572
  0
VERTEX
  8
0
 10
2996.35944615
 20
-533.48194620
 42
0.09587460
  0
VERTEX
  8
0
 10
3001.50181501
 20
-525.26356250
 42
0.09152964
  0
VERTEX
  8
0
 10
3003.34431876
 20
-515.51436486
 42
0.09146516
  0
VERTEX
  8
0
 10
3001.60178684
 20
-505.74325805
 42
0.09570478
  0
VERTEX
  8
0
 10
2996.54391682
 20
-497.46253647
 42
0.13358621
  0
VERTEX
  8
0
 10
2988.38595361
 20
-492.24969692
 42
0.14014372
  0
VERTEX
  8
0
 10
2978.93650614
 20
-492.05493422
 42
0.13438122
  0
VERTEX
  8
0
 10
2970.60434057
 20
-496.92789389
 42
0.09567105
  0
VERTEX
  8
0
 10
2967.58532849
 20
-501.98648076
 42
0.09152477
  0
VERTEX
  8
0
 10
2966.58895631
 20
-507.92626722
 42
0.09172145
  0
VERTEX
  8
0
 10
2967.76983199
 20
-513.82556307
 42
0.09618881
  0
VERTEX
  8
0
 10
2970.94471812
 20
-518.76896261
 42
0.10298832
  0
VERTEX
  8
0
 10
2975.62095905
 20
-521.98938476
 42
0.10758750
  0
VERTEX
  8
0
 10
2978.83001805
 20
-522.03651955
 42
0.10481865
  0
VERTEX
  8
0
 10
2981.81131354
 20
-520.73855057
 42
0.09834938
  0
VERTEX
  8
0
 10
2984.11097180
 20
-518.29308198
 42
0.09250369
  0
VERTEX
  8
0
 10
2985.37888790
 20
-515.07241185
 42
0.09016385
  0
VERTEX
  8
0
 10
2985.42203693
 20
-511.56686153
 42
0.09221193
  0
VERTEX
  8
0
 10
2984.23384734
 20
-508.31011688
 42
0.09788426
  0
VERTEX
  8
0
 10
2981.99521045
 20
-505.79798825
 42
0.10444519
  0
VERTEX
  8
0
 10
2979.04693895
 20
-504.41292519
 42
-0.10443488
  0
VERTEX
  8
0
 10
2981.99519449
 20
-505.80074951
 42
-0.09787177
  0
VERTEX
  8
0
 10
2984.23284918
 20
-508.31542314
 42
-0.09220430
  0
VERTEX
  8
0
 10
2985.41923984
 20
-511.57410785
 42
-0.09016414
  0
VERTEX
  8
0
 10
2985.37374975
 20
-515.08069966
 42
-0.09251181
  0
VERTEX
  8
0
 10
2984.10330400
 20
-518.30135104
 42
-0.09836199
  0
VERTEX
  8
0
 10
2981.80131704
 20
-520.74574736
 42
-0.10482848
  0
VERTEX
  8
0
 10
2978.81824554
 20
-522.04175215
 42
-0.10758708
  0
VERTEX
  8
0
 10
2975.60823371
 20
-521.99205874
 42
-0.12624609
  0
VERTEX
  8
0
 10
2965.07078477
 20
-516.26294545
 42
-0.11642614
  0
VERTEX
  8
0
 10
2958.12397861
 20
-505.88320147
 42
-0.05226108
  0
VERTEX
  8
0
 10
2955.24859995
 20
-492.04925908
 42
-0.04765601
  0
VERTEX
  8
0
 10
2952.44533297
 20
-450.03132103
  0
SEQEND
  0
POLYLINE
  8
0
 66
   1
 70
    0
  0
VERTEX
  8
0
 10
2939.13014555
 20
-225.95886142
 42
-0.03269302
  0
VERTEX
  8
0
 10
2932.70241699
 20
-196.82605522
 42
-0.04146395
  0
VERTEX
  8
0
 10
2929.39879136
 20
-131.86667010
 42
-0.04686277
  0
VERTEX
  8
0
 10
2932.88595120
 20
-84.75106248
 42
-0.13956925
  0
VERTEX
  8
0
 10
2940.25355955
 20
-69.82873218
 42
-0.11660677
  0
VERTEX
  8
0
 10
2947.39069487
 20
-65.47341824
 42
-0.12185951
  0
VERTEX
  8
0
 10
2955.54882059
 20
-64.89594374
 42
-0.12427523
  0
VERTEX
  8
0
 10
2959.17506630
 20
-65.24156887
 42
-0.11840153
  0
VERTEX
  8
0
 10
2962.29565864
 20
-67.28865122
 42
-0.10957311
  0
VERTEX
  8
0
 10
2964.27901298
 20
-70.62287639
 42
-0.10454738
  0
VERTEX
  8
0
 10
2964.72371384
 20
-74.56942271
 42
-0.10611655
  0
VERTEX
  8
0
 10
2963.53975708
 20
-78.32953897
 42
-0.11349227
  0
VERTEX
  8
0
 10
2960.96676649
 20
-81.14220624
 42
0.11339952
  0
VERTEX
  8
0
 10
2963.53564916
 20
-78.33014583
 42
0.10603869
  0
VERTEX
  8
0
 10
2964.71723272
 20
-74.57294489
 42
0.10447495
  0
VERTEX
  8
0
 10
2964.27269764
 20
-70.63000451
 42
0.10949269
  0
VERTEX
  8
0
 10
2962.29189391
 20
-67.29826311
 42
0.11830844
  0
VERTEX
  8
0
 10
2959.17517630
 20
-65.25112668
 42
0.12418518
  0
VERTEX
  8
0
 10
2955.55249135
 20
-64.90235964
 42
0.12711606
  0
VERTEX
  8
0
 10
2950.56461382
 20
-66.82391103
 42
0.11784146
  0
VERTEX
  8
0
 10
2946.92635809
 20
-71.01736324
 42
0.10337818
  0
VERTEX
  8
0
 10
2945.27155677
 20
-77.79640011
 42
0.10282534
  0
VERTEX
  8
0
 10
2946.44922780
 20
-84.69336082
 42
0.10835648
  0
VERTEX
  8
0
 10
2950.22998376
 20
-90.36483602
 42
0.10600166
  0
VERTEX
  8
0
 10
2956.33796818
 20
-93.70829344
 42
0.11002421
  0
VERTEX
  8
0
 10
2963.15646855
 20
-94.17592803
 42
0.10780564
  0
VERTEX
  8
0
 10
2969.59929617
 20
-91.69324362
 42
0.10120347
  0
VERTEX
  8
0
 10
2974.64010497
 20
-86.65573462
 42
0.10290075
  0
VERTEX
  8
0
 10
2977.79777144
 20
-76.40692383
 42
0.10142084
  0
VERTEX
  8
0
 10
2976.65441461
 20
-65.66557515
 42
0.10599515
  0
VERTEX
  8
0
 10
2971.42824691
 20
-56.48169852
 42
0.10478446
  0
VERTEX
  8
0
 10
2961.15030142
 20
-48.96325055
 42
0.12385938
  0
VERTEX
  8
0
 10
2944.51294863
 20
-46.85427682
 42
0.12160915
  0
VERTEX
  8
0
 10
2928.70734385
 20
-52.90809612
 42
0.06335565
  0
VERTEX
  8
0
 10
2921.35714857
 20
-59.55620322
 42
0.10122294
  0
VERTEX
  8
0
 10
2915.51681605
 20
-70.06603171
 42
0.07153365
  0
VERTEX
  8
0
 10
2910.31117772
 20
-101.79287653
 42
0.04698340
  0
VERTEX
  8
0
 10
2927.90516541
 20
-259.22864599
  0
SEQEND
  0
POLYLINE
  8
0
 66
   1
 70
    0
  0
VERTEX
  8
0
 10
3953.46984212
 20
-461.86975055
 42
-0.03269302
  0
VERTEX
  8
0
 10
3959.89756729
 20
-491.00255790
 42
-0.04146396
  0
VERTEX
  8
0
 10
3963.20118610
 20
-555.96194987
 42
-0.04686277
  0
VERTEX
  8
0
 10
3959.71402110
 20
-603.07755254
 42
-0.13956925
  0
VERTEX
  8
0
 10
3952.34641009
 20
-617.99988016
 42
-0.11660677
  0
VERTEX
  8
0
 10
3945.20927432
 20
-622.35519336
 42
-0.12185951
  0
VERTEX
  8
0
 10
3937.05114851
 20
-622.93266739
 42
-0.12427522
  0
VERTEX
  8
0
 10
3933.42490297
 20
-622.58704187
 42
-0.11840153
  0
VERTEX
  8
0
 10
3930.30431132
 20
-620.53995976
 42
-0.10957310
  0
VERTEX
  8
0
 10
3928.32095670
 20
-617.20573465
 42
-0.10454738
  0
VERTEX
  8
0
 10
3927.87625625
 20
-613.25918829
 42
-0.10611655
  0
VERTEX
  8
0
 10
3929.06021349
 20
-609.49907104
 42
-0.11349227
  0
VERTEX
  8
0
 10
3931.63320487
 20
-606.68640493
 42
0.11339952
  0
VERTEX
  8
0
 10
3929.06432228
 20
-609.49846539
 42
0.10603869
  0
VERTEX
  8
0
 10
3927.88273737
 20
-613.25566513
 42
0.10447495
  0
VERTEX
  8
0
 10
3928.32727205
 20
-617.19860654
 42
0.10949269
  0
VERTEX
  8
0
 10
3930.30807634
 20
-620.53034809
 42
0.11830844
  0
VERTEX
  8
0
 10
3933.42479279
 20
-622.57748399
 42
0.12418518
  0
VERTEX
  8
0
 10
3937.04747788
 20
-622.92625148
 42
0.12711605
  0
VERTEX
  8
0
 10
3942.03535612
 20
-621.00470073
 42
0.11784145
  0
VERTEX
  8
0
 10
3945.67361224
 20
-616.81124906
 42
0.10337818
  0
VERTEX
  8
0
 10
3947.32841517
 20
-610.03221167
 42
0.10282534
  0
VERTEX
  8
0
 10
3946.15074385
 20
-603.13525185
 42
0.10835648
  0
VERTEX
  8
0
 10
3942.36998844
 20
-597.46377614
 42
0.10600166
  0
VERTEX
  8
0
 10
3936.26200449
 20
-594.12031805
 42
0.11002420
  0
VERTEX
  8
0
 10
3929.44350434
 20
-593.65268269
 42
0.10780564
  0
VERTEX
  8
0
 10
3923.00067725
 20
-596.13536544
 42
0.10120347
  0
VERTEX
  8
0
 10
3917.95986705
 20
-601.17287483
 42
0.10290075
  0
VERTEX
  8
0
 10
3914.80219982
 20
-611.42168542
 42
0.10142084
  0
VERTEX
  8
0
 10
3915.94555554
 20
-622.16303416
 42
0.10599515
  0
VERTEX
  8
0
 10
3921.17172133
 20
-631.34691151
 42
0.10478446
  0
VERTEX
  8
0
 10
3931.44966665
 20
-638.86536013
 42
0.12385938
  0
VERTEX
  8
0
 10
3948.08701879
 20
-640.97433561
 42
0.12160915
  0
VERTEX
  8
0
 10
3963.89262511
 20
-634.92051799
 42
0.06335565
  0
VERTEX
  8
0
 10
3971.24282075
 20
-628.27241190
 42
0.10122294
  0
VERTEX
  8
0
 10
3977.08315401
 20
-617.76258428
 42
0.07153365
  0
VERTEX
  8
0
 10
3982.28879604
 20
-586.03573930
 42
0.04698340
  0
VERTEX
  8
0
 10
3964.69482562
 20
-428.59996562
  0
SEQEND
  0
POLYLINE
  8
0
 66
   1
 70
    0
  0
VERTEX
  8
0
 10
3361.60640638
 20
-634.14151911
 42
-0.08328674
  0
VERTEX
  8
0
 10
3376.39883776
 20
-639.40292658
 42
-0.33222618
  0
VERTEX
  8
0
 10
3398.17807402
 20
-686.97387660
 42
-0.06482462
  0
VERTEX
  8
0
 10
3396.44791210
 20
-691.83969723
 42
-0.09333478
  0
VERTEX
  8
0
 10
3389.94989308
 20
-700.26033818
 42
-0.10980096
  0
VERTEX
  8
0
 10
3377.62419594
 20
-707.14378271
 42
-0.10887311
  0
VERTEX
  8
0
 10
3365.29147756
 20
-707.48067179
 42
-0.11251019
  0
VERTEX
  8
0
 10
3354.16383284
 20
-702.63564527
 42
-0.12239655
  0
VERTEX
  8
0
 10
3346.72280142
 20
-693.68917709
 42
-0.13094722
  0
VERTEX
  8
0
 10
3344.62778495
 20
-682.63639158
 42
-0.11212468
  0
VERTEX
  8
0
 10
3346.52071042
 20
-676.67039610
 42
-0.10492712
  0
VERTEX
  8
0
 10
3350.88755052
 20
-671.89578956
 42
-0.09754589
  0
VERTEX
  8
0
 10
3356.99472821
 20
-669.11464669
 42
-0.09965931
  0
VERTEX
  8
0
 10
3363.30199974
 20
-668.43930764
 42
-0.10114800
  0
VERTEX
  8
0
 10
3369.33344176
 20
-670.24715183
 42
-0.10824844
  0
VERTEX
  8
0
 10
3373.96175942
 20
-674.20028723
 42
-0.11693355
  0
VERTEX
  8
0
 10
3376.32190588
 20
-679.55986123
 42
-0.12024526
  0
VERTEX
  8
0
 10
3375.97276230
 20
-685.32415278
 42
-0.10555171
  0
VERTEX
  8
0
 10
3373.17670618
 20
-688.58153435
 42
-0.09799940
  0
VERTEX
  8
0
 10
3369.17790455
 20
-690.54560883
 42
-0.09425881
  0
VERTEX
  8
0
 10
3364.64818521
 20
-690.88639683
 42
-0.09590161
  0
VERTEX
  8
0
 10
3360.34857399
 20
-689.54664352
 42
-0.10228773
  0
VERTEX
  8
0
 10
3357.00143781
 20
-686.75143781
  0
VERTEX
  8
0
 10
3356.96888500
 20
-686.74571000
  0
VERTEX
  8
0
 10
3356.93967100
 20
-686.77775300
  0
VERTEX
  8
0
 10
3357.00143800
 20
-686.93432900
 42
0.09982418
  0
VERTEX
  8
0
 10
3360.40451538
 20
-689.63212929
 42
0.09386745
  0
VERTEX
  8
0
 10
3364.70150994
 20
-690.89327994
 42
0.09246326
  0
VERTEX
  8
0
 10
3369.19759370
 20
-690.51384892
 42
0.09613332
  0
VERTEX
  8
0
 10
3373.16574538
 20
-688.55519396
 42
0.10339457
  0
VERTEX
  8
0
 10
3375.96431266
 20
-685.33402966
 42
0.11835880
  0
VERTEX
  8
0
 10
3377.45168489
 20
-675.75259032
 42
0.11683585
  0
VERTEX
  8
0
 10
3374.40502825
 20
-666.48101295
 42
0.16566840
  0
VERTEX
  8
0
 10
3357.09388803
 20
-654.37167483
 42
0.08227710
  0
VERTEX
  8
0
 10
3323.22794696
 20
-650.89349844
  0
SEQEND
  0
POLYLINE
  8
0
 66
   1
 70
    1
  0
VERTEX
  8
0
 10
2969.69701786
 20
-463.45415746
 42
0.09861453
  0
VERTEX
  8
0
 10
2973.13313760
 20
-468.86345160
 42
0.07831276
  0
VERTEX
  8
0
 10
2976.82453468
 20
-471.68256829
 42
-0.12896063
  0
VERTEX
  8
0
 10
2970.98705439
 20
-468.96413138
 42
-0.12309559
  0
VERTEX
  8
0
 10
2966.81934316
 20
-463.28265791
 42
-0.11961494
  0
VERTEX
  8
0
 10
2966.45938661
 20
-432.53000912
 42
0.05539909
  0
VERTEX
  8
0
 10
2970.84537037
 20
-432.65078462
 42
0.10838907
  0
VERTEX
  8
0
 10
2978.96377273
 20
-430.14989027
 42
0.10984507
  0
VERTEX
  8
0
 10
2983.05015134
 20
-425.92541093
 42
0.10973788
  0
VERTEX
  8
0
 10
2984.94124552
 20
-420.42679182
 42
0.10994060
  0
VERTEX
  8
0
 10
2984.32288308
 20
-414.64879780
 42
0.10939044
  0
VERTEX
  8
0
 10
2981.31134791
 20
-409.66717051
 42
0.11076545
  0
VERTEX
  8
0
 10
2976.35594507
 20
-406.36002826
 42
-0.13627939
  0
VERTEX
  8
0
 10
2971.46691138
 20
-403.94333539
 42
-0.13332172
  0
VERTEX
  8
0
 10
2968.60670732
 20
-399.53759161
 42
-0.03023810
  0
VERTEX
  8
0
 10
2966.73154180
 20
-386.87200910
 42
0.12956644
  0
VERTEX
  8
0
 10
2981.82767788
 20
-374.32971081
 42
0.10005315
  0
VERTEX
  8
0
 10
2987.96900100
 20
-360.58589700
  0
VERTEX
  8
0
 10
3002.91675300
 20
-360.58589400
  0
VERTEX
  8
0
 10
3002.91675723
 20
-453.47320235
 42
0.04973324
  0
VERTEX
  8
0
 10
3000.88089226
 20
-449.60319504
 42
0.10011044
  0
VERTEX
  8
0
 10
2995.24109662
 20
-443.92940499
 42
0.10663771
  0
VERTEX
  8
0
 10
2987.98258791
 20
-441.06633001
 42
0.10896807
  0
VERTEX
  8
0
 10
2980.25721241
 20
-441.49885903
 42
0.10610850
  0
VERTEX
  8
0
 10
2973.26181076
 20
-445.19661694
 42
0.09980912
  0
VERTEX
  8
0
 10
2969.74017308
 20
-450.62907381
 42
0.09404654
  0
VERTEX
  8
0
 10
2968.50765989
 20
-457.03693234
 42
0.09400181
  0
VERTEX
  8
0
 10
2969.69701786
 20
-463.45415746
  0
SEQEND
  0
POLYLINE
  8
0
 66
   1
 70
    1
  0
VERTEX
  8
0
 10
2988.47929647
 20
-490.92067374
 42
-0.00412286
  0
VERTEX
  8
0
 10
2988.77142283
 20
-491.00815775
 42
-0.13359748
  0
VERTEX
  8
0
 10
2997.50578069
 20
-496.58799631
 42
-0.09568071
  0
VERTEX
  8
0
 10
3002.81927576
 20
-505.28749381
 42
-0.00245368
  0
VERTEX
  8
0
 10
3002.91676015
 20
-505.55130230
  0
VERTEX
  8
0
 10
3002.91675900
 20
-475.91139700
 42
-0.06498343
  0
VERTEX
  8
0
 10
2999.11896880
 20
-483.12701400
 42
-0.13028925
  0
VERTEX
  8
0
 10
2988.47929647
 20
-490.92067374
  0
SEQEND
  0
POLYLINE
  8
0
 66
   1
 70
    1
  0
VERTEX
  8
0
 10
2959.35257634
 20
-505.45707711
 42
0.11611867
  0
VERTEX
  8
0
 10
2965.95612421
 20
-515.31101368
 42
0.02729771
  0
VERTEX
  8
0
 10
2967.87002735
 20
-516.90537710
 42
-0.04359212
  0
VERTEX
  8
0
 10
2966.56247433
 20
-514.30752596
 42
-0.09169311
  0
VERTEX
  8
0
 10
2965.28911176
 20
-507.94639900
 42
-0.09149599
  0
VERTEX
  8
0
 10
2966.36326549
 20
-501.54312670
 42
-0.09610275
  0
VERTEX
  8
0
 10
2969.65442497
 20
-496.03993202
 42
-0.08054021
  0
VERTEX
  8
0
 10
2974.69247713
 20
-492.31127746
 42
-0.28706041
  0
VERTEX
  8
0
 10
2954.36854478
 20
-474.08155917
 42
0.02037219
  0
VERTEX
  8
0
 10
2956.53806192
 20
-491.87926364
 42
0.05229089
  0
VERTEX
  8
0
 10
2959.35257634
 20
-505.45707711
  0
SEQEND
  0
POLYLINE
  8
0
 66
   1
 70
    1
  0
VERTEX
  8
0
 10
2987.88271994
 20
-540.48365092
 42
0.00903218
  0
VERTEX
  8
0
 10
2989.16215463
 20
-540.11985261
 42
0.10343847
  0
VERTEX
  8
0
 10
2997.31052038
 20
-534.36820532
 42
0.09586436
  0
VERTEX
  8
0
 10
3002.71447685
 20
-525.73201802
 42
0.00502476
  0
VERTEX
  8
0
 10
3002.91676103
 20
-525.19339026
  0
VERTEX
  8
0
 10
3002.91676242
 20
-555.35760463
 42
0.06271694
  0
VERTEX
  8
0
 10
2999.43111098
 20
-549.17079569
 42
0.12224423
  0
VERTEX
  8
0
 10
2989.96938884
 20
-541.35702758
 42
0.02422696
  0
VERTEX
  8
0
 10
2987.88271994
 20
-540.48365092
  0
SEQEND
  0
POLYLINE
  8
0
 66
   1
 70
    1
  0
VERTEX
  8
0
 10
2960.26894904
 20
-566.03098956
 42
-0.19432710
  0
VERTEX
  8
0
 10
2947.92164095
 20
-525.47065853
 42
0.20194328
  0
VERTEX
  8
0
 10
2971.83774523
 20
-541.11214944
 42
0.00301174
  0
VERTEX
  8
0
 10
2971.67528297
 20
-541.20544732
 42
0.10486153
  0
VERTEX
  8
0
 10
2966.48431582
 20
-545.91949488
 42
0.09734470
  0
VERTEX
  8
0
 10
2963.49435239
 20
-552.41762898
 42
0.09962877
  0
VERTEX
  8
0
 10
2962.77540818
 20
-559.16973017
 42
0.10170643
  0
VERTEX
  8
0
 10
2964.74034862
 20
-565.67902400
 42
0.10835571
  0
VERTEX
  8
0
 10
2969.07045575
 20
-570.71274931
 42
0.03456456
  0
VERTEX
  8
0
 10
2970.70238511
 20
-571.77000049
 42
-0.01029735
  0
VERTEX
  8
0
 10
2969.88556690
 20
-571.65021454
 42
-0.18331675
  0
VERTEX
  8
0
 10
2960.26894904
 20
-566.03098956
  0
SEQEND
  0
POLYLINE
  8
0
 66
   1
 70
    1
  0
VERTEX
  8
0
 10
2945.76286900
 20
-617.39149601
 42
-0.10366371
  0
VERTEX
  8
0
 10
2943.97236342
 20
-610.07718928
 42
-0.10278667
  0
VERTEX
  8
0
 10
2945.23868366
 20
-602.66142156
 42
-0.10886283
  0
VERTEX
  8
0
 10
2949.35363115
 20
-596.50297705
 42
-0.10652334
  0
VERTEX
  8
0
 10
2955.96795882
 20
-592.87409400
 42
-0.01417925
  0
VERTEX
  8
0
 10
2956.90067525
 20
-592.62660807
 42
-0.16048013
  0
VERTEX
  8
0
 10
2933.80751712
 20
-572.75555118
 42
-0.03815465
  0
VERTEX
  8
0
 10
2930.70156808
 20
-566.07724554
 42
0.03679766
  0
VERTEX
  8
0
 10
2934.16627424
 20
-602.85188547
 42
0.13917751
  0
VERTEX
  8
0
 10
2941.19306178
 20
-617.10058290
 42
0.11605115
  0
VERTEX
  8
0
 10
2947.79282704
 20
-621.11894198
 42
0.02055379
  0
VERTEX
  8
0
 10
2949.03782906
 20
-621.46616696
 42
-0.09967834
  0
VERTEX
  8
0
 10
2945.76286900
 20
-617.39149601
  0
SEQEND
  0
POLYLINE
  8
0
 66
   1
 70
    1
  0
VERTEX
  8
0
 10
3024.03735085
 20
-669.23212299
 42
0.09998620
  0
VERTEX
  8
0
 10
3028.13845087
 20
-672.51073198
 42
0.10301341
  0
VERTEX
  8
0
 10
3035.47338794
 20
-674.29367546
 42
0.10210469
  0
VERTEX
  8
0
 10
3042.90996341
 20
-673.03269073
 42
0.10856525
  0
VERTEX
  8
0
 10
3049.08816480
 20
-668.93342272
 42
0.10692867
  0
VERTEX
  8
0
 10
3052.73136959
 20
-662.33947700
 42
0.00454272
  0
VERTEX
  8
0
 10
3052.81620543
 20
-662.04516135
 42
0.17353083
  0
VERTEX
  8
0
 10
3072.97873419
 20
-684.70729334
 42
0.03351212
  0
VERTEX
  8
0
 10
3078.88276093
 20
-687.49265783
 42
-0.03580839
  0
VERTEX
  8
0
 10
3042.72105171
 20
-684.05599956
 42
-0.13858488
  0
VERTEX
  8
0
 10
3028.41793630
 20
-677.05185969
 42
-0.11641836
  0
VERTEX
  8
0
 10
3024.38699990
 20
-670.47781340
 42
-0.02080415
  0
VERTEX
  8
0
 10
3024.03735085
 20
-669.23212299
  0
SEQEND
  0
POLYLINE
  8
0
 66
   1
 70
    0
  0
VERTEX
  8
0
 10
3104.47486371
 20
-647.17821699
 42
0.22491028
  0
VERTEX
  8
0
 10
3119.93976336
 20
-670.47332930
 42
0.00270020
  0
VERTEX
  8
0
 10
3120.99700195
 20
-670.97529094
 42
-0.06830756
  0
VERTEX
  8
0
 10
3093.26362394
 20
-667.34871671
 42
-0.16514898
  0
VERTEX
  8
0
 10
3076.68085788
 20
-655.76598592
 42
-0.10593523
  0
VERTEX
  8
0
 10
3073.93312624
 20
-647.90720993
 42
0.03520388
  0
VERTEX
  8
0
 10
3075.00702771
 20
-649.55613582
 42
0.10823819
  0
VERTEX
  8
0
 10
3080.05773648
 20
-653.87045481
 42
0.10110951
  0
VERTEX
  8
0
 10
3086.58543571
 20
-655.82715256
 42
0.09895078
  0
VERTEX
  8
0
 10
3093.35634333
 20
-655.11116717
 42
0.09690141
  0
VERTEX
  8
0
 10
3099.87453313
 20
-652.13305171
 42
0.10492961
  0
VERTEX
  8
0
 10
3104.60550114
 20
-646.95989720
  0
SEQEND
  0
POLYLINE
  8
0
 66
   1
 70
    1
  0
VERTEX
  8
0
 10
3089.73933600
 20
-615.55599100
 42
-0.06866254
  0
VERTEX
  8
0
 10
3096.61164920
 20
-619.28886666
 42
-0.12240409
  0
VERTEX
  8
0
 10
3104.45367592
 20
-628.71838423
 42
-0.04062590
  0
VERTEX
  8
0
 10
3105.79964533
 20
-632.22391367
 42
-0.02189510
  0
VERTEX
  8
0
 10
3106.81753833
 20
-629.55294730
 42
-0.10291693
  0
VERTEX
  8
0
 10
3112.56119167
 20
-621.49856721
 42
-0.09556743
  0
VERTEX
  8
0
 10
3121.22576859
 20
-616.11480011
 42
-0.01459894
  0
VERTEX
  8
0
 10
3122.81742429
 20
-615.55598467
  0
VERTEX
  8
0
 10
3089.73933600
 20
-615.55599100
  0
SEQEND
  0
POLYLINE
  8
0
 66
   1
 70
    1
  0
VERTEX
  8
0
 10
3130.07813879
 20
-650.84451317
 42
0.02732403
  0
VERTEX
  8
0
 10
3131.67196426
 20
-652.74286056
 42
0.11580976
  0
VERTEX
  8
0
 10
3141.56299213
 20
-659.32474287
 42
0.09026106
  0
VERTEX
  8
0
 10
3165.41192393
 20
-662.36485144
 42
-0.19467860
  0
VERTEX
  8
0
 10
3154.50923678
 20
-644.50458980
 42
-0.07419368
  0
VERTEX
  8
0
 10
3151.01087452
 20
-649.07106460
 42
-0.09577674
  0
VERTEX
  8
0
 10
3145.49061256
 20
-652.34928575
 42
-0.09088811
  0
VERTEX
  8
0
 10
3139.06951573
 20
-653.41888875
 42
-0.09109812
  0
VERTEX
  8
0
 10
3132.69058738
 20
-652.15090377
 42
-0.04360417
  0
VERTEX
  8
0
 10
3130.07813879
 20
-650.84451317
  0
SEQEND
  0
POLYLINE
  8
0
 66
   1
 70
    1
  0
VERTEX
  8
0
 10
3178.90863205
 20
-647.72089251
 42
0.12284319
  0
VERTEX
  8
0
 10
3184.61260417
 20
-651.87555713
 42
0.09156679
  0
VERTEX
  8
0
 10
3208.48590900
 20
-653.44190400
  0
VERTEX
  8
0
 10
3207.96401315
 20
-652.08580735
 42
-0.12104987
  0
VERTEX
  8
0
 10
3207.49278455
 20
-646.84131710
 42
-0.11762100
  0
VERTEX
  8
0
 10
3209.49287876
 20
-641.95270283
 42
-0.10894321
  0
VERTEX
  8
0
 10
3213.52774037
 20
-638.33799792
 42
-0.10155465
  0
VERTEX
  8
0
 10
3218.80968494
 20
-636.63170295
 42
-0.09972301
  0
VERTEX
  8
0
 10
3224.37557514
 20
-637.11477068
 42
-0.10424872
  0
VERTEX
  8
0
 10
3229.22532431
 20
-639.70869056
 42
-0.07088432
  0
VERTEX
  8
0
 10
3231.48450770
 20
-642.22810407
 42
-0.06941215
  0
VERTEX
  8
0
 10
3309.51821051
 20
-618.60932326
 42
-0.01377759
  0
VERTEX
  8
0
 10
3335.55886400
 20
-615.55594700
  0
VERTEX
  8
0
 10
3193.53087342
 20
-615.55597305
 42
-0.06064349
  0
VERTEX
  8
0
 10
3198.33817658
 20
-617.93240416
 42
-0.10010333
  0
VERTEX
  8
0
 10
3204.03187008
 20
-623.55237387
 42
-0.10718767
  0
VERTEX
  8
0
 10
3206.90659430
 20
-630.78944305
 42
-0.10973526
  0
VERTEX
  8
0
 10
3206.47221057
 20
-638.49374578
 42
-0.10653326
  0
VERTEX
  8
0
 10
3202.75985527
 20
-645.46757579
 42
-0.09951630
  0
VERTEX
  8
0
 10
3197.31017776
 20
-648.97564276
 42
-0.09343242
  0
VERTEX
  8
0
 10
3190.88450978
 20
-650.20292925
 42
-0.09338475
  0
VERTEX
  8
0
 10
3184.44946919
 20
-649.01862211
 42
-0.09831686
  0
VERTEX
  8
0
 10
3179.02313645
 20
-645.59580675
 42
-0.07903038
  0
VERTEX
  8
0
 10
3176.17946283
 20
-641.89057008
 42
0.12992381
  0
VERTEX
  8
0
 10
3178.90863205
 20
-647.72089251
  0
SEQEND
  0
POLYLINE
  8
0
 66
   1
 70
    1
  0
VERTEX
  8
0
 10
3284.59337628
 20
-660.60695906
 42
-0.19467860
  0
VERTEX
  8
0
 10
3295.49606322
 20
-678.46721920
 42
-0.07419368
  0
VERTEX
  8
0
 10
3298.99442548
 20
-673.90074540
 42
-0.09577674
  0
VERTEX
  8
0
 10
3304.51468844
 20
-670.62252425
 42
-0.09088811
  0
VERTEX
  8
0
 10
3310.93578427
 20
-669.55292125
 42
-0.09109812
  0
VERTEX
  8
0
 10
3317.31471262
 20
-670.82090523
 42
-0.04360417
  0
VERTEX
  8
0
 10
3319.92716060
 20
-672.12729663
 42
0.02732403
  0
VERTEX
  8
0
 10
3318.33333537
 20
-670.22894952
 42
0.11580976
  0
VERTEX
  8
0
 10
3308.44230748
 20
-663.64706690
 42
0.09026106
  0
VERTEX
  8
0
 10
3284.59337628
 20
-660.60695906
  0
SEQEND
  0
POLYLINE
  8
0
 66
   1
 70
    1
  0
VERTEX
  8
0
 10
3345.53043637
 20
-675.79359236
 42
0.22491028
  0
VERTEX
  8
0
 10
3330.06553664
 20
-652.49847970
 42
0.00270020
  0
VERTEX
  8
0
 10
3329.00829805
 20
-651.99651906
 42
-0.06830756
  0
VERTEX
  8
0
 10
3356.74167669
 20
-655.62309218
 42
-0.16514898
  0
VERTEX
  8
0
 10
3373.32444212
 20
-667.20582408
 42
-0.10593523
  0
VERTEX
  8
0
 10
3376.07217351
 20
-675.06460035
 42
0.03520388
  0
VERTEX
  8
0
 10
3374.99827178
 20
-673.41567461
 42
0.10823819
  0
VERTEX
  8
0
 10
3369.94756352
 20
-669.10135519
 42
0.10110951
  0
VERTEX
  8
0
 10
3363.41986429
 20
-667.14465744
 42
0.09895078
  0
VERTEX
  8
0
 10
3356.64895667
 20
-667.86064283
 42
0.09690141
  0
VERTEX
  8
0
 10
3350.13076810
 20
-670.83875883
 42
0.10112289
  0
VERTEX
  8
0
 10
3345.53043637
 20
-675.79359236
  0
SEQEND
  0
POLYLINE
  8
0
 66
   1
 70
    1
  0
VERTEX
  8
0
 10
3408.54091194
 20
-615.55593308
  0
VERTEX
  8
0
 10
3484.05916600
 20
-615.55592000
 42
0.03245417
  0
VERTEX
  8
0
 10
3469.45809958
 20
-619.10302279
 42
0.10010566
  0
VERTEX
  8
0
 10
3458.55224844
 20
-625.09914497
 42
0.06382879
  0
VERTEX
  8
0
 10
3451.57643237
 20
-632.72322155
 42
0.08563647
  0
VERTEX
  8
0
 10
3446.29999994
 20
-643.87880285
 42
0.08563647
  0
VERTEX
  8
0
 10
3441.02356754
 20
-632.72322156
 42
0.06382879
  0
VERTEX
  8
0
 10
3434.04775156
 20
-625.09914497
 42
0.10010566
  0
VERTEX
  8
0
 10
3423.14189960
 20
-619.10302213
 42
0.03245400
  0
VERTEX
  8
0
 10
3408.54091194
 20
-615.55593308
  0
SEQEND
  0
POLYLINE
  8
0
 66
   1
 70
    1
  0
VERTEX
  8
0
 10
3371.10223339
 20
-635.47119139
 42
-0.03365075
  0
VERTEX
  8
0
 10
3377.03110450
 20
-638.26704004
 42
-0.17725954
  0
VERTEX
  8
0
 10
3397.43029636
 20
-661.53729893
 42
-0.01394319
  0
VERTEX
  8
0
 10
3397.67372309
 20
-660.63144707
 42
-0.10706495
  0
VERTEX
  8
0
 10
3401.32579729
 20
-654.03715520
 42
-0.10846298
  0
VERTEX
  8
0
 10
3407.51749388
 20
-649.93870920
 42
-0.10187452
  0
VERTEX
  8
0
 10
3414.96940258
 20
-648.67813100
 42
-0.10279340
  0
VERTEX
  8
0
 10
3422.31946905
 20
-650.46048307
 42
-0.10021276
  0
VERTEX
  8
0
 10
3426.43813457
 20
-653.74883030
 42
0.02099477
  0
VERTEX
  8
0
 10
3426.08570841
 20
-652.49495672
 42
0.11654280
  0
VERTEX
  8
0
 10
3422.04528392
 20
-645.92113463
 42
0.13838411
  0
VERTEX
  8
0
 10
3407.70581161
 20
-638.91591479
 42
0.03607212
  0
VERTEX
  8
0
 10
3371.10223339
 20
-635.47119139
  0
SEQEND
  0
POLYLINE
  8
0
 66
   1
 70
    1
  0
VERTEX
  8
0
 10
3915.77546691
 20
-471.68253848
 42
0.07831276
  0
VERTEX
  8
0
 10
3919.46686394
 20
-468.86342103
 42
0.09861453
  0
VERTEX
  8
0
 10
3922.90298404
 20
-463.45412715
 42
0.09400180
  0
VERTEX
  8
0
 10
3924.09234100
 20
-457.03690174
 42
0.09404654
  0
VERTEX
  8
0
 10
3922.85982747
 20
-450.62904267
 42
0.09980912
  0
VERTEX
  8
0
 10
3919.33818964
 20
-445.19658732
 42
0.10610851
  0
VERTEX
  8
0
 10
3912.34278789
 20
-441.49882897
 42
0.10896807
  0
VERTEX
  8
0
 10
3904.61741155
 20
-441.06630069
 42
0.10663771
  0
VERTEX
  8
0
 10
3897.35890288
 20
-443.92937511
 42
0.10011045
  0
VERTEX
  8
0
 10
3891.71910796
 20
-449.60316621
 42
0.04973324
  0
VERTEX
  8
0
 10
3889.68324319
 20
-453.47317378
  0
VERTEX
  8
0
 10
3889.68324200
 20
-360.58586600
  0
VERTEX
  8
0
 10
3904.63099400
 20
-360.58586700
 42
0.10005314
  0
VERTEX
  8
0
 10
3910.77231756
 20
-374.32968071
 42
0.12956644
  0
VERTEX
  8
0
 10
3925.86845425
 20
-386.87197749
 42
-0.03023810
  0
VERTEX
  8
0
 10
3923.99328931
 20
-399.53756180
 42
-0.13332172
  0
VERTEX
  8
0
 10
3921.13308614
 20
-403.94330492
 42
-0.13627940
  0
VERTEX
  8
0
 10
3916.24405272
 20
-406.35999852
 42
0.11076545
  0
VERTEX
  8
0
 10
3911.28865039
 20
-409.66714067
 42
0.10939044
  0
VERTEX
  8
0
 10
3908.27711562
 20
-414.64876769
 42
0.10994060
  0
VERTEX
  8
0
 10
3907.65875270
 20
-420.42676218
 42
0.10973787
  0
VERTEX
  8
0
 10
3909.54984702
 20
-425.92538153
 42
0.10984508
  0
VERTEX
  8
0
 10
3913.63622631
 20
-430.14986033
 42
0.10838907
  0
VERTEX
  8
0
 10
3921.75462900
 20
-432.65075373
 42
0.05539909
  0
VERTEX
  8
0
 10
3926.14061228
 20
-432.52997874
 42
-0.11961494
  0
VERTEX
  8
0
 10
3925.78065754
 20
-463.28262701
 42
-0.12309559
  0
VERTEX
  8
0
 10
3921.61294720
 20
-468.96410109
 42
-0.12896063
  0
VERTEX
  8
0
 10
3915.77546691
 20
-471.68253848
  0
SEQEND
  0
POLYLINE
  8
0
 66
   1
 70
    1
  0
VERTEX
  8
0
 10
3924.72997661
 20
-516.90534639
 42
0.04359212
  0
VERTEX
  8
0
 10
3926.03753001
 20
-514.30749609
 42
0.09169312
  0
VERTEX
  8
0
 10
3927.31089285
 20
-507.94636841
 42
0.09149599
  0
VERTEX
  8
0
 10
3926.23673811
 20
-501.54309559
 42
0.09610275
  0
VERTEX
  8
0
 10
3922.94557846
 20
-496.03990092
 42
0.08054021
  0
VERTEX
  8
0
 10
3917.90752618
 20
-492.31124677
 42
0.28706040
  0
VERTEX
  8
0
 10
3938.23145729
 20
-474.08152828
 42
-0.02037220
  0
VERTEX
  8
0
 10
3936.06194154
 20
-491.87923202
 42
-0.05229089
  0
VERTEX
  8
0
 10
3933.24742806
 20
-505.45704560
 42
-0.11611867
  0
VERTEX
  8
0
 10
3926.64387996
 20
-515.31098260
 42
-0.02729771
  0
VERTEX
  8
0
 10
3924.72997661
 20
-516.90534639
  0
SEQEND
  0
POLYLINE
  8
0
 66
   1
 70
    1
  0
VERTEX
  8
0
 10
3921.89762328
 20
-571.76997032
 42
0.03456456
  0
VERTEX
  8
0
 10
3923.52955211
 20
-570.71271866
 42
0.10835571
  0
VERTEX
  8
0
 10
3927.85965951
 20
-565.67899292
 42
0.10170643
  0
VERTEX
  8
0
 10
3929.82459893
 20
-559.16969897
 42
0.09962877
  0
VERTEX
  8
0
 10
3929.10565483
 20
-552.41759804
 42
0.09734470
  0
VERTEX
  8
0
 10
3926.11569149
 20
-545.91946392
 42
0.10486153
  0
VERTEX
  8
0
 10
3920.92472401
 20
-541.20541695
 42
0.00301174
  0
VERTEX
  8
0
 10
3920.76226066
 20
-541.11211909
 42
0.20194328
  0
VERTEX
  8
0
 10
3944.67836449
 20
-525.47062640
 42
-0.19432710
  0
VERTEX
  8
0
 10
3932.33105847
 20
-566.03095792
 42
-0.18331675
  0
VERTEX
  8
0
 10
3922.71444134
 20
-571.65018380
 42
-0.01029734
  0
VERTEX
  8
0
 10
3921.89762328
 20
-571.76997032
  0
SEQEND
  0
POLYLINE
  8
0
 66
   1
 70
    1
  0
VERTEX
  8
0
 10
3943.56218247
 20
-621.46613452
 42
0.02055379
  0
VERTEX
  8
0
 10
3944.80718480
 20
-621.11891070
 42
0.11605116
  0
VERTEX
  8
0
 10
3951.40694967
 20
-617.10055073
 42
0.13917751
  0
VERTEX
  8
0
 10
3958.43373626
 20
-602.85185192
 42
0.03679766
  0
VERTEX
  8
0
 10
3961.89844010
 20
-566.07721451
 42
-0.03815465
  0
VERTEX
  8
0
 10
3958.79249093
 20
-572.75551793
 42
-0.16048013
  0
VERTEX
  8
0
 10
3935.69933459
 20
-592.62657680
 42
-0.01417925
  0
VERTEX
  8
0
 10
3936.63205098
 20
-592.87406165
 42
-0.10652335
  0
VERTEX
  8
0
 10
3943.24637949
 20
-596.50294463
 42
-0.10886283
  0
VERTEX
  8
0
 10
3947.36132627
 20
-602.66138995
 42
-0.10278667
  0
VERTEX
  8
0
 10
3948.62764781
 20
-610.07715617
 42
-0.10366371
  0
VERTEX
  8
0
 10
3946.83714243
 20
-617.39146319
 42
-0.09967834
  0
VERTEX
  8
0
 10
3943.56218247
 20
-621.46613452
  0
SEQEND
  0
POLYLINE
  8
0
 66
   1
 70
    1
  0
VERTEX
  8
0
 10
3813.71725565
 20
-687.49263383
 42
0.03351212
  0
VERTEX
  8
0
 10
3819.62128178
 20
-684.70726869
 42
0.17353083
  0
VERTEX
  8
0
 10
3839.78380788
 20
-662.04513648
 42
0.00454272
  0
VERTEX
  8
0
 10
3839.86864374
 20
-662.33945213
 42
0.10692867
  0
VERTEX
  8
0
 10
3843.51185001
 20
-668.93339765
 42
0.10856525
  0
VERTEX
  8
0
 10
3849.69005144
 20
-673.03266435
 42
0.10210469
  0
VERTEX
  8
0
 10
3857.12662736
 20
-674.29364941
 42
0.10301342
  0
VERTEX
  8
0
 10
3864.46156430
 20
-672.51070443
 42
0.09998620
  0
VERTEX
  8
0
 10
3868.56266421
 20
-669.23209552
 42
-0.02080416
  0
VERTEX
  8
0
 10
3868.21301506
 20
-670.47778623
 42
-0.11641836
  0
VERTEX
  8
0
 10
3864.18207932
 20
-677.05183306
 42
-0.13858488
  0
VERTEX
  8
0
 10
3849.87896456
 20
-684.05597361
 42
-0.03580839
  0
VERTEX
  8
0
 10
3813.71725565
 20
-687.49263383
  0
SEQEND
  0
POLYLINE
  8
0
 66
   1
 70
    0
  0
VERTEX
  8
0
 10
3788.12514961
 20
-647.17819573
 42
-0.22491028
  0
VERTEX
  8
0
 10
3772.66025054
 20
-670.47330850
 42
-0.00270020
  0
VERTEX
  8
0
 10
3771.60301322
 20
-670.97526998
 42
0.06830756
  0
VERTEX
  8
0
 10
3799.33639065
 20
-667.34869425
 42
0.16514899
  0
VERTEX
  8
0
 10
3815.91915566
 20
-655.76596203
 42
0.10593524
  0
VERTEX
  8
0
 10
3818.66688699
 20
-647.90718580
 42
-0.03520388
  0
VERTEX
  8
0
 10
3817.59298594
 20
-649.55611195
 42
-0.10823819
  0
VERTEX
  8
0
 10
3812.54227641
 20
-653.87043017
 42
-0.10110951
  0
VERTEX
  8
0
 10
3806.01457703
 20
-655.82712957
 42
-0.09895078
  0
VERTEX
  8
0
 10
3799.24367027
 20
-655.11114453
 42
-0.09690141
  0
VERTEX
  8
0
 10
3792.72548082
 20
-652.13302940
 42
-0.10492961
  0
VERTEX
  8
0
 10
3787.99451245
 20
-646.95987522
  0
SEQEND
  0
POLYLINE
  8
0
 66
   1
 70
    1
  0
VERTEX
  8
0
 10
3719.65352000
 20
-615.55595800
 42
-0.07265886
  0
VERTEX
  8
0
 10
3727.85418577
 20
-619.66231966
 42
-0.10230411
  0
VERTEX
  8
0
 10
3735.77997523
 20
-628.02927142
 42
-0.01811656
  0
VERTEX
  8
0
 10
3736.57787992
 20
-629.88543774
 42
-0.13229609
  0
VERTEX
  8
0
 10
3742.13912709
 20
-621.30390011
 42
-0.09537034
  0
VERTEX
  8
0
 10
3750.86705646
 20
-616.01038780
 42
-0.01203868
  0
VERTEX
  8
0
 10
3752.18348179
 20
-615.55596292
  0
VERTEX
  8
0
 10
3719.65352000
 20
-615.55595800
  0
SEQEND
  0
POLYLINE
  8
0
 66
   1
 70
    1
  0
VERTEX
  8
0
 10
3727.18809064
 20
-662.36483328
 42
0.09026106
  0
VERTEX
  8
0
 10
3751.03702095
 20
-659.32472369
 42
0.11580976
  0
VERTEX
  8
0
 10
3760.92804898
 20
-652.74284024
 42
0.02732403
  0
VERTEX
  8
0
 10
3762.52187355
 20
-650.84449310
 42
-0.04360417
  0
VERTEX
  8
0
 10
3759.90942571
 20
-652.15088434
 42
-0.09109812
  0
VERTEX
  8
0
 10
3753.53049753
 20
-653.41886873
 42
-0.09088811
  0
VERTEX
  8
0
 10
3747.10940163
 20
-652.34926618
 42
-0.09577674
  0
VERTEX
  8
0
 10
3741.58913838
 20
-649.07104563
 42
-0.07419368
  0
VERTEX
  8
0
 10
3738.09077588
 20
-644.50457099
 42
-0.19467859
  0
VERTEX
  8
0
 10
3727.18809064
 20
-662.36483328
  0
SEQEND
  0
POLYLINE
  8
0
 66
   1
 70
    1
  0
VERTEX
  8
0
 10
3557.04115063
 20
-615.55593915
  0
VERTEX
  8
0
 10
3699.06913812
 20
-615.55595657
 42
0.06064349
  0
VERTEX
  8
0
 10
3694.26183524
 20
-617.93238894
 42
0.10010333
  0
VERTEX
  8
0
 10
3688.56814138
 20
-623.55235867
 42
0.10718767
  0
VERTEX
  8
0
 10
3685.69341762
 20
-630.78942849
 42
0.10973526
  0
VERTEX
  8
0
 10
3686.12780300
 20
-638.49373058
 42
0.10653326
  0
VERTEX
  8
0
 10
3689.84015855
 20
-645.46755959
 42
0.09951630
  0
VERTEX
  8
0
 10
3695.28983639
 20
-648.97562721
 42
0.09343241
  0
VERTEX
  8
0
 10
3701.71550345
 20
-650.20291325
 42
0.09338475
  0
VERTEX
  8
0
 10
3708.15054360
 20
-649.01860536
 42
0.09831686
  0
VERTEX
  8
0
 10
3713.57687630
 20
-645.59578904
 42
0.07903038
  0
VERTEX
  8
0
 10
3716.42054933
 20
-641.89055322
 42
-0.12992381
  0
VERTEX
  8
0
 10
3713.69138060
 20
-647.72087586
 42
-0.12284319
  0
VERTEX
  8
0
 10
3707.98740939
 20
-651.87554093
 42
-0.09156678
  0
VERTEX
  8
0
 10
3684.11410400
 20
-653.44188800
  0
VERTEX
  8
0
 10
3684.63600010
 20
-652.08579262
 42
0.12104987
  0
VERTEX
  8
0
 10
3685.10722882
 20
-646.84130211
 42
0.11762101
  0
VERTEX
  8
0
 10
3683.10713411
 20
-641.95268852
 42
0.10894321
  0
VERTEX
  8
0
 10
3679.07227279
 20
-638.33798344
 42
0.10155465
  0
VERTEX
  8
0
 10
3673.79032842
 20
-636.63168936
 42
0.09972301
  0
VERTEX
  8
0
 10
3668.22443783
 20
-637.11475600
 42
0.10424873
  0
VERTEX
  8
0
 10
3663.37468821
 20
-639.70867696
 42
0.07088433
  0
VERTEX
  8
0
 10
3661.11550238
 20
-642.22808982
 42
0.06941215
  0
VERTEX
  8
0
 10
3583.08179762
 20
-618.60931349
 42
0.01377758
  0
VERTEX
  8
0
 10
3557.04115063
 20
-615.55593915
  0
SEQEND
  0
POLYLINE
  8
0
 66
   1
 70
    1
  0
VERTEX
  8
0
 10
3572.67285379
 20
-672.12728844
 42
-0.02732403
  0
VERTEX
  8
0
 10
3574.26667902
 20
-670.22894076
 42
-0.11580976
  0
VERTEX
  8
0
 10
3584.15770705
 20
-663.64705831
 42
-0.09026106
  0
VERTEX
  8
0
 10
3608.00663804
 20
-660.60694881
 42
0.19467859
  0
VERTEX
  8
0
 10
3597.10395156
 20
-678.46720975
 42
0.07419368
  0
VERTEX
  8
0
 10
3593.60558964
 20
-673.90073561
 42
0.09577674
  0
VERTEX
  8
0
 10
3588.08532677
 20
-670.62251552
 42
0.09088811
  0
VERTEX
  8
0
 10
3581.66422999
 20
-669.55291199
 42
0.09109812
  0
VERTEX
  8
0
 10
3575.28530229
 20
-670.82089766
 42
0.04360417
  0
VERTEX
  8
0
 10
3572.67285379
 20
-672.12728844
  0
SEQEND
  0
POLYLINE
  8
0
 66
   1
 70
    1
  0
VERTEX
  8
0
 10
3516.52784107
 20
-675.06459544
 42
-0.03520388
  0
VERTEX
  8
0
 10
3517.60174206
 20
-673.41567005
 42
-0.10823819
  0
VERTEX
  8
0
 10
3522.65245052
 20
-669.10135070
 42
-0.10110951
  0
VERTEX
  8
0
 10
3529.18015053
 20
-667.14465155
 42
-0.09895078
  0
VERTEX
  8
0
 10
3535.95105773
 20
-667.86063647
 42
-0.09690141
  0
VERTEX
  8
0
 10
3542.46924685
 20
-670.83875207
 42
-0.10112289
  0
VERTEX
  8
0
 10
3547.06957839
 20
-675.79358627
 42
-0.22491028
  0
VERTEX
  8
0
 10
3562.53447690
 20
-652.49847258
 42
-0.00270020
  0
VERTEX
  8
0
 10
3563.59171412
 20
-651.99651186
 42
0.06830756
  0
VERTEX
  8
0
 10
3535.85833638
 20
-655.62308607
 42
0.16514899
  0
VERTEX
  8
0
 10
3519.27557263
 20
-667.20581967
 42
0.10593524
  0
VERTEX
  8
0
 10
3516.52784107
 20
-675.06459544
  0
SEQEND
  0
POLYLINE
  8
0
 66
   1
 70
    1
  0
VERTEX
  8
0
 10
3466.16187898
 20
-653.74882883
 42
-0.02099478
  0
VERTEX
  8
0
 10
3466.51430477
 20
-652.49495593
 42
-0.11654280
  0
VERTEX
  8
0
 10
3470.55472926
 20
-645.92113346
 42
-0.13838411
  0
VERTEX
  8
0
 10
3484.89419943
 20
-638.91591175
 42
-0.03607213
  0
VERTEX
  8
0
 10
3521.49777971
 20
-635.47118684
 42
0.03365075
  0
VERTEX
  8
0
 10
3515.56890738
 20
-638.26703554
 42
0.17725954
  0
VERTEX
  8
0
 10
3495.16971751
 20
-661.53729686
 42
0.01394319
  0
VERTEX
  8
0
 10
3494.92629077
 20
-660.63144465
 42
0.10706496
  0
VERTEX
  8
0
 10
3491.27421590
 20
-654.03715226
 42
0.10846298
  0
VERTEX
  8
0
 10
3485.08252027
 20
-649.93870688
 42
0.10187452
  0
VERTEX
  8
0
 10
3477.63061112
 20
-648.67812797
 42
0.10279340
  0
VERTEX
  8
0
 10
3470.28054461
 20
-650.46048174
 42
0.10021276
  0
VERTEX
  8
0
 10
3466.16187898
 20
-653.74882883
  0
SEQEND
  0
POLYLINE
  8
0
 66
   1
 70
    1
  0
VERTEX
  8
0
 10
2966.73150938
 20
-300.95656217
 42
-0.03023810
  0
VERTEX
  8
0
 10
2968.60666555
 20
-288.29097687
 42
-0.13332172
  0
VERTEX
  8
0
 10
2971.46686553
 20
-283.88523220
 42
-0.13627939
  0
VERTEX
  8
0
 10
2976.35589738
 20
-281.46853520
 42
0.11076545
  0
VERTEX
  8
0
 10
2981.31129717
 20
-278.16138845
 42
0.10939044
  0
VERTEX
  8
0
 10
2984.32282939
 20
-273.17975941
 42
0.10994060
  0
VERTEX
  8
0
 10
2984.94118723
 20
-267.40176431
 42
0.10973787
  0
VERTEX
  8
0
 10
2983.05008909
 20
-261.90314749
 42
0.10984507
  0
VERTEX
  8
0
 10
2978.96370680
 20
-257.67867047
 42
0.10838907
  0
VERTEX
  8
0
 10
2970.84530320
 20
-255.17778312
 42
0.05539909
  0
VERTEX
  8
0
 10
2966.45931885
 20
-255.29856167
 42
-0.11961494
  0
VERTEX
  8
0
 10
2966.81925178
 20
-224.54591260
 42
-0.12309559
  0
VERTEX
  8
0
 10
2970.98695881
 20
-218.86443574
 42
-0.12896063
  0
VERTEX
  8
0
 10
2976.82443661
 20
-216.14599416
 42
0.07831276
  0
VERTEX
  8
0
 10
2973.13304169
 20
-218.96511369
 42
0.09861453
  0
VERTEX
  8
0
 10
2969.69692583
 20
-224.37441053
 42
0.09400181
  0
VERTEX
  8
0
 10
2968.50757305
 20
-230.79163679
 42
0.09404654
  0
VERTEX
  8
0
 10
2969.74009103
 20
-237.19949469
 42
0.09980912
  0
VERTEX
  8
0
 10
2973.26173355
 20
-242.63194806
 42
0.10610850
  0
VERTEX
  8
0
 10
2980.25713778
 20
-246.32970160
 42
0.10896807
  0
VERTEX
  8
0
 10
2987.98251383
 20
-246.76222330
 42
0.10663771
  0
VERTEX
  8
0
 10
2995.24102087
 20
-243.89914472
 42
0.10011044
  0
VERTEX
  8
0
 10
3000.88081179
 20
-238.22534903
 42
0.04973324
  0
VERTEX
  8
0
 10
3002.91667358
 20
-234.35534097
  0
VERTEX
  8
0
 10
3002.91674000
 20
-327.24264900
  0
VERTEX
  8
0
 10
2987.96898800
 20
-327.24265700
 42
0.10005315
  0
VERTEX
  8
0
 10
2981.82765465
 20
-313.49884816
 42
0.12956644
  0
VERTEX
  8
0
 10
2966.73150938
 20
-300.95656217
  0
SEQEND
  0
POLYLINE
  8
0
 66
   1
 70
    1
  0
VERTEX
  8
0
 10
2954.36844418
 20
-213.74702031
 42
-0.28706041
  0
VERTEX
  8
0
 10
2974.69236312
 20
-195.51728731
 42
-0.08054021
  0
VERTEX
  8
0
 10
2969.65430838
 20
-191.78863683
 42
-0.09610275
  0
VERTEX
  8
0
 10
2966.36314444
 20
-186.28544455
 42
-0.09149599
  0
VERTEX
  8
0
 10
2965.28898553
 20
-179.88217273
 42
-0.09169311
  0
VERTEX
  8
0
 10
2966.56234397
 20
-173.52104412
 42
-0.04359212
  0
VERTEX
  8
0
 10
2967.86989512
 20
-170.92319273
 42
0.02729771
  0
VERTEX
  8
0
 10
2965.95599337
 20
-172.51755725
 42
0.11611867
  0
VERTEX
  8
0
 10
2959.35245242
 20
-182.37149974
 42
0.05229089
  0
VERTEX
  8
0
 10
2956.53794883
 20
-195.94931416
 42
0.02037220
  0
VERTEX
  8
0
 10
2954.36844418
 20
-213.74702031
  0
SEQEND
  0
POLYLINE
  8
0
 66
   1
 70
    1
  0
VERTEX
  8
0
 10
2947.92150215
 20
-162.35792691
 42
-0.19432710
  0
VERTEX
  8
0
 10
2960.26877947
 20
-121.79758582
 42
-0.18331675
  0
VERTEX
  8
0
 10
2969.88539251
 20
-116.17835357
 42
-0.01029735
  0
VERTEX
  8
0
 10
2970.70221084
 20
-116.05856643
 42
0.03456456
  0
VERTEX
  8
0
 10
2969.07028224
 20
-117.11581984
 42
0.10835571
  0
VERTEX
  8
0
 10
2964.74017836
 20
-122.14954860
 42
0.10170643
  0
VERTEX
  8
0
 10
2962.77524369
 20
-128.65884353
 42
0.09962877
  0
VERTEX
  8
0
 10
2963.49419273
 20
-135.41094387
 42
0.09734470
  0
VERTEX
  8
0
 10
2966.48416041
 20
-141.90907565
 42
0.10486153
  0
VERTEX
  8
0
 10
2971.67513106
 20
-146.62311955
 42
0.00301174
  0
VERTEX
  8
0
 10
2971.83759410
 20
-146.71641779
 42
0.20194328
  0
VERTEX
  8
0
 10
2947.92150215
 20
-162.35792691
  0
SEQEND
  0
POLYLINE
  8
0
 66
   1
 70
    1
  0
VERTEX
  8
0
 10
2930.70139834
 20
-121.75135142
 42
-0.03679766
  0
VERTEX
  8
0
 10
2934.16607608
 20
-84.97671105
 42
-0.13917751
  0
VERTEX
  8
0
 10
2941.19285194
 20
-70.72800754
 42
-0.11605116
  0
VERTEX
  8
0
 10
2947.79261401
 20
-66.70964296
 42
-0.02055379
  0
VERTEX
  8
0
 10
2949.03761716
 20
-66.36241783
 42
0.09967834
  0
VERTEX
  8
0
 10
2945.76266032
 20
-70.43709102
 42
0.10366371
  0
VERTEX
  8
0
 10
2943.97215976
 20
-77.75139863
 42
0.10278667
  0
VERTEX
  8
0
 10
2945.23848644
 20
-85.16716507
 42
0.10886283
  0
VERTEX
  8
0
 10
2949.35343717
 20
-91.32560769
 42
0.10652334
  0
VERTEX
  8
0
 10
2955.96776800
 20
-94.95448492
 42
0.01417925
  0
VERTEX
  8
0
 10
2956.90048497
 20
-95.20196992
 42
0.16048013
  0
VERTEX
  8
0
 10
2933.80734254
 20
-115.07304519
 42
0.03815465
  0
VERTEX
  8
0
 10
2930.70139834
 20
-121.75135142
  0
SEQEND
  0
POLYLINE
  8
0
 66
   1
 70
    1
  0
VERTEX
  8
0
 10
3024.03710110
 20
-18.59640363
 42
-0.09998620
  0
VERTEX
  8
0
 10
3028.13819903
 20
-15.31779212
 42
-0.10301341
  0
VERTEX
  8
0
 10
3035.47313462
 20
-13.53484205
 42
-0.10210469
  0
VERTEX
  8
0
 10
3042.90971103
 20
-14.79582119
 42
-0.10856525
  0
VERTEX
  8
0
 10
3049.08791581
 20
-18.89508398
 42
-0.10692867
  0
VERTEX
  8
0
 10
3052.73112589
 20
-25.48902760
 42
-0.00454272
  0
VERTEX
  8
0
 10
3052.81596196
 20
-25.78334318
 42
-0.17353083
  0
VERTEX
  8
0
 10
3072.97847248
 20
-3.12119587
 42
-0.03351212
  0
VERTEX
  8
0
 10
3078.88249707
 20
-0.33582684
 42
0.03580839
  0
VERTEX
  8
0
 10
3042.72079161
 20
-3.77251274
 42
0.13858488
  0
VERTEX
  8
0
 10
3028.41768118
 20
-10.77666327
 42
0.11641836
  0
VERTEX
  8
0
 10
3024.38674920
 20
-17.35071296
 42
0.02080415
  0
VERTEX
  8
0
 10
3024.03710110
 20
-18.59640363
  0
SEQEND
  0
POLYLINE
  8
0
 66
   1
 70
    0
  0
VERTEX
  8
0
 10
3104.60526857
 20
-40.86856762
 42
0.10492961
  0
VERTEX
  8
0
 10
3099.87429659
 20
-35.69541674
 42
0.09690141
  0
VERTEX
  8
0
 10
3093.35610506
 20
-32.71730644
 42
0.09895078
  0
VERTEX
  8
0
 10
3086.58519759
 20
-32.00132557
 42
0.10110951
  0
VERTEX
  8
0
 10
3080.05750012
 20
-33.95802946
 42
0.10823819
  0
VERTEX
  8
0
 10
3075.00679351
 20
-38.27235169
 42
0.03520388
  0
VERTEX
  8
0
 10
3073.93289334
 20
-39.92127821
 42
-0.10593523
  0
VERTEX
  8
0
 10
3076.68061894
 20
-32.06250011
 42
-0.16514899
  0
VERTEX
  8
0
 10
3093.26337511
 20
-20.47975597
 42
-0.06830756
  0
VERTEX
  8
0
 10
3120.99675061
 20
-16.85316193
 42
0.00270020
  0
VERTEX
  8
0
 10
3119.93951430
 20
-17.35512331
 42
0.22491028
  0
VERTEX
  8
0
 10
3104.47463212
 20
-40.65024783
  0
SEQEND
  0
POLYLINE
  8
0
 66
   1
 70
    1
  0
VERTEX
  8
0
 10
3140.41632200
 20
-72.27245500
 42
0.01203869
  0
VERTEX
  8
0
 10
3141.73274710
 20
-71.81802979
 42
0.09537035
  0
VERTEX
  8
0
 10
3150.46067211
 20
-66.52451071
 42
0.13229609
  0
VERTEX
  8
0
 10
3156.02191277
 20
-57.94296900
 42
0.01811656
  0
VERTEX
  8
0
 10
3156.81981891
 20
-59.79913467
 42
0.10230411
  0
VERTEX
  8
0
 10
3164.74561442
 20
-68.16608072
 42
0.07265886
  0
VERTEX
  8
0
 10
3172.94628300
 20
-72.27243600
  0
VERTEX
  8
0
 10
3140.41632200
 20
-72.27245500
  0
SEQEND
  0
POLYLINE
  8
0
 66
   1
 70
    1
  0
VERTEX
  8
0
 10
3130.07790381
 20
-36.98393157
 42
-0.02732403
  0
VERTEX
  8
0
 10
3131.67172761
 20
-35.08558300
 42
-0.11580976
  0
VERTEX
  8
0
 10
3141.56275137
 20
-28.50369347
 42
-0.09026106
  0
VERTEX
  8
0
 10
3165.41167972
 20
-25.46356632
 42
0.19467860
  0
VERTEX
  8
0
 10
3154.50900631
 20
-43.32383644
 42
0.07419368
  0
VERTEX
  8
0
 10
3151.01064082
 20
-38.75736477
 42
0.09577674
  0
VERTEX
  8
0
 10
3145.49037566
 20
-35.47914853
 42
0.09088811
  0
VERTEX
  8
0
 10
3139.06927838
 20
-34.40954919
 42
0.09109812
  0
VERTEX
  8
0
 10
3132.69035140
 20
-35.67753897
 42
0.04360417
  0
VERTEX
  8
0
 10
3130.07790381
 20
-36.98393157
  0
SEQEND
  0
POLYLINE
  8
0
 66
   1
 70
    1
  0
VERTEX
  8
0
 10
3176.17923518
 20
-45.93783961
 42
-0.12992381
  0
VERTEX
  8
0
 10
3178.90839987
 20
-40.10751495
 42
-0.12284319
  0
VERTEX
  8
0
 10
3184.61236792
 20
-35.95284665
 42
-0.09156679
  0
VERTEX
  8
0
 10
3208.48567233
 20
-34.38648189
  0
VERTEX
  8
0
 10
3207.96377700
 20
-35.74257800
 42
0.12104987
  0
VERTEX
  8
0
 10
3207.49255189
 20
-40.98706854
 42
0.11762100
  0
VERTEX
  8
0
 10
3209.49265040
 20
-45.87568102
 42
0.10894321
  0
VERTEX
  8
0
 10
3213.52751458
 20
-49.49038343
 42
0.10155465
  0
VERTEX
  8
0
 10
3218.80946016
 20
-51.19667370
 42
0.09972301
  0
VERTEX
  8
0
 10
3224.37534997
 20
-50.71360245
 42
0.10424872
  0
VERTEX
  8
0
 10
3229.22509742
 20
-48.11967823
 42
0.07088432
  0
VERTEX
  8
0
 10
3231.48427943
 20
-45.60026391
 42
0.06941215
  0
VERTEX
  8
0
 10
3309.51800114
 20
-69.21898528
 42
0.01377759
  0
VERTEX
  8
0
 10
3335.55865600
 20
-72.27234100
  0
VERTEX
  8
0
 10
3193.53066550
 20
-72.27242430
 42
0.06064349
  0
VERTEX
  8
0
 10
3198.33796657
 20
-69.89598882
 42
0.10010333
  0
VERTEX
  8
0
 10
3204.03165580
 20
-64.27601438
 42
0.10718767
  0
VERTEX
  8
0
 10
3206.90637448
 20
-57.03894286
 42
0.10973526
  0
VERTEX
  8
0
 10
3206.47198464
 20
-49.33464137
 42
0.10653326
  0
VERTEX
  8
0
 10
3202.75962368
 20
-42.36081456
 42
0.09951630
  0
VERTEX
  8
0
 10
3197.30994414
 20
-38.85275027
 42
0.09343242
  0
VERTEX
  8
0
 10
3190.88427521
 20
-37.62546869
 42
0.09338475
  0
VERTEX
  8
0
 10
3184.44923589
 20
-38.80978108
 42
0.09831686
  0
VERTEX
  8
0
 10
3179.02290516
 20
-42.23260110
 42
0.07903038
  0
VERTEX
  8
0
 10
3176.17923518
 20
-45.93783961
  0
SEQEND
  0
POLYLINE
  8
0
 66
   1
 70
    1
  0
VERTEX
  8
0
 10
3284.59313376
 20
-27.22136768
 42
0.19467860
  0
VERTEX
  8
0
 10
3295.49580647
 20
-9.36109889
 42
0.07419368
  0
VERTEX
  8
0
 10
3298.99417215
 20
-13.92757109
 42
0.09577674
  0
VERTEX
  8
0
 10
3304.51443748
 20
-17.20578746
 42
0.09088811
  0
VERTEX
  8
0
 10
3310.93553462
 20
-18.27538581
 42
0.09109812
  0
VERTEX
  8
0
 10
3317.31446160
 20
-17.00739603
 42
0.04360417
  0
VERTEX
  8
0
 10
3319.92690906
 20
-15.70100343
 42
-0.02732403
  0
VERTEX
  8
0
 10
3318.33308539
 20
-17.59935200
 42
-0.11580976
  0
VERTEX
  8
0
 10
3308.44206263
 20
-24.18124153
 42
-0.09026106
  0
VERTEX
  8
0
 10
3284.59313376
 20
-27.22136768
  0
SEQEND
  0
POLYLINE
  8
0
 66
   1
 70
    1
  0
VERTEX
  8
0
 10
3329.00806239
 20
-35.83177307
 42
0.06830756
  0
VERTEX
  8
0
 10
3356.74143789
 20
-32.20518003
 42
0.16514899
  0
VERTEX
  8
0
 10
3373.32419437
 20
-20.62243464
 42
0.10593523
  0
VERTEX
  8
0
 10
3376.07191973
 20
-12.76365626
 42
-0.03520388
  0
VERTEX
  8
0
 10
3374.99801926
 20
-14.41258282
 42
-0.10823819
  0
VERTEX
  8
0
 10
3369.94731388
 20
-18.72690554
 42
-0.10110951
  0
VERTEX
  8
0
 10
3363.41961631
 20
-20.68360939
 42
-0.09895078
  0
VERTEX
  8
0
 10
3356.64870840
 20
-19.96762915
 42
-0.09690141
  0
VERTEX
  8
0
 10
3350.13051741
 20
-16.98951826
 42
-0.10112289
  0
VERTEX
  8
0
 10
3345.53018188
 20
-12.03468817
 42
-0.22491028
  0
VERTEX
  8
0
 10
3330.06529870
 20
-35.32981169
 42
-0.00270020
  0
VERTEX
  8
0
 10
3329.00806239
 20
-35.83177307
  0
SEQEND
  0
POLYLINE
  8
0
 66
   1
 70
    1
  0
VERTEX
  8
0
 10
3371.10200898
 20
-52.35706874
 42
0.03607212
  0
VERTEX
  8
0
 10
3407.70558482
 20
-48.91231819
 42
0.13838411
  0
VERTEX
  8
0
 10
3422.04505116
 20
-41.90708685
 42
0.11654280
  0
VERTEX
  8
0
 10
3426.08547190
 20
-35.33326195
 42
0.02099477
  0
VERTEX
  8
0
 10
3426.43789712
 20
-34.07938788
 42
-0.10021276
  0
VERTEX
  8
0
 10
3422.31923412
 20
-37.36773770
 42
-0.10279340
  0
VERTEX
  8
0
 10
3414.96916895
 20
-39.15009657
 42
-0.10187452
  0
VERTEX
  8
0
 10
3407.51725929
 20
-37.88952359
 42
-0.10846298
  0
VERTEX
  8
0
 10
3401.32556029
 20
-33.79108209
 42
-0.10706495
  0
VERTEX
  8
0
 10
3397.67348060
 20
-27.19679260
 42
-0.01394319
  0
VERTEX
  8
0
 10
3397.43005283
 20
-26.29094082
 42
-0.17725954
  0
VERTEX
  8
0
 10
3377.03087936
 20
-49.56121591
 42
-0.03365075
  0
VERTEX
  8
0
 10
3371.10200898
 20
-52.35706874
  0
SEQEND
  0
POLYLINE
  8
0
 66
   1
 70
    1
  0
VERTEX
  8
0
 10
3904.63098038
 20
-327.24198383
  0
VERTEX
  8
0
 10
3889.68323000
 20
-327.24199800
  0
VERTEX
  8
0
 10
3889.68315900
 20
-234.35469000
 42
0.04973324
  0
VERTEX
  8
0
 10
3891.71902649
 20
-238.22469573
 42
0.10011044
  0
VERTEX
  8
0
 10
3897.35882570
 20
-243.89848277
 42
0.10663771
  0
VERTEX
  8
0
 10
3904.61733683
 20
-246.76155209
 42
0.10896807
  0
VERTEX
  8
0
 10
3912.34271282
 20
-246.32901710
 42
0.10610850
  0
VERTEX
  8
0
 10
3919.33811173
 20
-242.63125356
 42
0.09980912
  0
VERTEX
  8
0
 10
3922.85974625
 20
-237.19879486
 42
0.09404654
  0
VERTEX
  8
0
 10
3924.09225505
 20
-230.79093612
 42
0.09400181
  0
VERTEX
  8
0
 10
3922.90289249
 20
-224.37371110
 42
0.09861453
  0
VERTEX
  8
0
 10
3919.46676821
 20
-218.96441887
 42
0.07831276
  0
VERTEX
  8
0
 10
3915.77536915
 20
-216.14530475
 42
-0.12896063
  0
VERTEX
  8
0
 10
3921.61285161
 20
-218.86373798
 42
-0.12309559
  0
VERTEX
  8
0
 10
3925.78056659
 20
-224.54520899
 42
-0.11961494
  0
VERTEX
  8
0
 10
3926.14054417
 20
-255.29785716
 42
0.05539909
  0
VERTEX
  8
0
 10
3921.75456067
 20
-255.17708491
 42
0.10838907
  0
VERTEX
  8
0
 10
3913.63615963
 20
-257.67798440
 42
0.10984508
  0
VERTEX
  8
0
 10
3909.54978377
 20
-261.90246697
 42
0.10973787
  0
VERTEX
  8
0
 10
3907.65869443
 20
-267.40108748
 42
0.10994060
  0
VERTEX
  8
0
 10
3908.27706093
 20
-273.17908111
 42
0.10939044
  0
VERTEX
  8
0
 10
3911.28859958
 20
-278.16070630
 42
0.11076545
  0
VERTEX
  8
0
 10
3916.24400448
 20
-281.46784424
 42
-0.13627940
  0
VERTEX
  8
0
 10
3921.13304041
 20
-283.88453495
 42
-0.13332172
  0
VERTEX
  8
0
 10
3923.99324706
 20
-288.29027520
 42
-0.03023810
  0
VERTEX
  8
0
 10
3925.86842144
 20
-300.95585799
 42
0.12956644
  0
VERTEX
  8
0
 10
3910.77229401
 20
-313.49816550
 42
0.10005315
  0
VERTEX
  8
0
 10
3904.63098038
 20
-327.24198383
  0
SEQEND
  0
POLYLINE
  8
0
 66
   1
 70
    1
  0
VERTEX
  8
0
 10
3889.68314234
 20
-211.91649514
  0
VERTEX
  8
0
 10
3889.68312000
 20
-182.27659000
 42
0.00245368
  0
VERTEX
  8
0
 10
3889.78060497
 20
-182.54039821
 42
0.09568070
  0
VERTEX
  8
0
 10
3895.09410549
 20
-191.23989263
 42
0.13359748
  0
VERTEX
  8
0
 10
3903.82846733
 20
-196.81972436
 42
0.00412286
  0
VERTEX
  8
0
 10
3904.12059438
 20
-196.90720797
 42
0.13028925
  0
VERTEX
  8
0
 10
3893.48092747
 20
-204.70087584
 42
0.06498343
  0
VERTEX
  8
0
 10
3889.68314234
 20
-211.91649514
  0
SEQEND
  0
POLYLINE
  8
0
 66
   1
 70
    1
  0
VERTEX
  8
0
 10
3917.90741302
 20
-195.51659527
 42
-0.28706040
  0
VERTEX
  8
0
 10
3938.23135785
 20
-213.74629865
 42
0.02037220
  0
VERTEX
  8
0
 10
3936.06182745
 20
-195.94859519
 42
0.05229089
  0
VERTEX
  8
0
 10
3933.24730355
 20
-182.37078368
 42
0.11611868
  0
VERTEX
  8
0
 10
3926.64374912
 20
-172.51685246
 42
0.02729771
  0
VERTEX
  8
0
 10
3924.72984455
 20
-170.92249014
 42
-0.04359212
  0
VERTEX
  8
0
 10
3926.03739904
 20
-173.52033948
 42
-0.09169311
  0
VERTEX
  8
0
 10
3927.31076704
 20
-179.88146651
 42
-0.09149599
  0
VERTEX
  8
0
 10
3926.23661751
 20
-186.28474025
 42
-0.09610275
  0
VERTEX
  8
0
 10
3922.94546258
 20
-191.78793720
 42
-0.08054021
  0
VERTEX
  8
0
 10
3917.90741302
 20
-195.51659527
  0
SEQEND
  0
POLYLINE
  8
0
 66
   1
 70
    1
  0
VERTEX
  8
0
 10
3889.68310500
 20
-162.63450100
 42
-0.00502476
  0
VERTEX
  8
0
 10
3889.88538900
 20
-162.09587296
 42
-0.09586436
  0
VERTEX
  8
0
 10
3895.28934003
 20
-153.45968312
 42
-0.10343847
  0
VERTEX
  8
0
 10
3903.43770137
 20
-147.70803032
 42
-0.00903218
  0
VERTEX
  8
0
 10
3904.71713639
 20
-147.34423064
 42
-0.02422696
  0
VERTEX
  8
0
 10
3902.63046619
 20
-146.47085510
 42
-0.12224423
  0
VERTEX
  8
0
 10
3893.16873812
 20
-138.65709372
 42
-0.06271694
  0
VERTEX
  8
0
 10
3889.68308200
 20
-132.47028700
  0
VERTEX
  8
0
 10
3889.68310500
 20
-162.63450100
  0
SEQEND
  0
POLYLINE
  8
0
 66
   1
 70
    1
  0
VERTEX
  8
0
 10
3920.76210973
 20
-146.71572056
 42
-0.20194328
  0
VERTEX
  8
0
 10
3944.67822505
 20
-162.35719503
 42
0.19432710
  0
VERTEX
  8
0
 10
3932.33088907
 20
-121.79687292
 42
0.18331675
  0
VERTEX
  8
0
 10
3922.71426651
 20
-116.17765471
 42
0.01029735
  0
VERTEX
  8
0
 10
3921.89744800
 20
-116.05786876
 42
-0.03456456
  0
VERTEX
  8
0
 10
3923.52937860
 20
-117.11511919
 42
-0.10835571
  0
VERTEX
  8
0
 10
3927.85948977
 20
-122.14884163
 42
-0.10170643
  0
VERTEX
  8
0
 10
3929.82443371
 20
-128.65813387
 42
-0.09962877
  0
VERTEX
  8
0
 10
3929.10549565
 20
-135.41023544
 42
-0.09734470
  0
VERTEX
  8
0
 10
3926.11553707
 20
-141.90837155
 42
-0.10486153
  0
VERTEX
  8
0
 10
3920.92457265
 20
-146.62242208
 42
-0.00301174
  0
VERTEX
  8
0
 10
3920.76210973
 20
-146.71572056
  0
SEQEND
  0
POLYLINE
  8
0
 66
   1
 70
    1
  0
VERTEX
  8
0
 10
3935.69914384
 20
-95.20125154
 42
0.01417925
  0
VERTEX
  8
0
 10
3936.63186016
 20
-94.95376543
 42
0.10652335
  0
VERTEX
  8
0
 10
3943.24618554
 20
-91.32487756
 42
0.10886283
  0
VERTEX
  8
0
 10
3947.36112746
 20
-85.16642983
 42
0.10278667
  0
VERTEX
  8
0
 10
3948.62744312
 20
-77.75066182
 42
0.10366371
  0
VERTEX
  8
0
 10
3946.83693156
 20
-70.43635640
 42
0.09967834
  0
VERTEX
  8
0
 10
3943.56196940
 20
-66.36168755
 42
-0.02055379
  0
VERTEX
  8
0
 10
3944.80697248
 20
-66.70891127
 42
-0.11605116
  0
VERTEX
  8
0
 10
3951.40674060
 20
-70.72726603
 42
-0.13917751
  0
VERTEX
  8
0
 10
3958.43353751
 20
-84.97595955
 42
-0.03679766
  0
VERTEX
  8
0
 10
3961.89826976
 20
-121.75059508
 42
0.03815465
  0
VERTEX
  8
0
 10
3958.79231564
 20
-115.07229204
 42
0.16048013
  0
VERTEX
  8
0
 10
3935.69914384
 20
-95.20125154
  0
SEQEND
  0
POLYLINE
  8
0
 66
   1
 70
    1
  0
VERTEX
  8
0
 10
3813.71699169
 20
-0.33528765
 42
-0.03351212
  0
VERTEX
  8
0
 10
3819.62102019
 20
-3.12064852
 42
-0.17353083
  0
VERTEX
  8
0
 10
3839.78356361
 20
-25.78276555
 42
-0.00454272
  0
VERTEX
  8
0
 10
3839.86839960
 20
-25.48845002
 42
-0.10692867
  0
VERTEX
  8
0
 10
3843.51160102
 20
-18.89450165
 42
-0.10856525
  0
VERTEX
  8
0
 10
3849.68979907
 20
-14.79522944
 42
-0.10210469
  0
VERTEX
  8
0
 10
3857.12637387
 20
-13.53423912
 42
-0.10301341
  0
VERTEX
  8
0
 10
3864.46131281
 20
-15.31717857
 42
-0.09998620
  0
VERTEX
  8
0
 10
3868.56241467
 20
-18.59578467
 42
0.02080415
  0
VERTEX
  8
0
 10
3868.21276473
 20
-17.35009428
 42
0.11641836
  0
VERTEX
  8
0
 10
3864.18182324
 20
-10.77604979
 42
0.13858488
  0
VERTEX
  8
0
 10
3849.87870318
 20
-3.77192078
 42
0.03580839
  0
VERTEX
  8
0
 10
3813.71699169
 20
-0.33528765
  0
SEQEND
  0
POLYLINE
  8
0
 66
   1
 70
    0
  0
VERTEX
  8
0
 10
3787.99427988
 20
-40.86806596
 42
-0.10492961
  0
VERTEX
  8
0
 10
3792.72524428
 20
-35.69490815
 42
-0.09690141
  0
VERTEX
  8
0
 10
3799.24343134
 20
-32.71678782
 42
-0.09895078
  0
VERTEX
  8
0
 10
3806.01433845
 20
-32.00079738
 42
-0.10110951
  0
VERTEX
  8
0
 10
3812.54203890
 20
-33.95749165
 42
-0.10823819
  0
VERTEX
  8
0
 10
3817.59275088
 20
-38.27180782
 42
-0.03520388
  0
VERTEX
  8
0
 10
3818.66665377
 20
-39.92073281
 42
0.10593524
  0
VERTEX
  8
0
 10
3815.91891672
 20
-32.06195794
 42
0.16514899
  0
VERTEX
  8
0
 10
3799.33614245
 20
-20.47923802
 42
0.06830756
  0
VERTEX
  8
0
 10
3771.60276251
 20
-16.85268457
 42
-0.00270020
  0
VERTEX
  8
0
 10
3772.65999956
 20
-17.35464440
 42
-0.22491028
  0
VERTEX
  8
0
 10
3788.12491703
 20
-40.64974545
  0
SEQEND
  0
POLYLINE
  8
0
 66
   1
 70
    1
  0
VERTEX
  8
0
 10
3769.78237900
 20
-72.27199100
 42
0.01459894
  0
VERTEX
  8
0
 10
3771.37403412
 20
-71.71317402
 42
0.09556742
  0
VERTEX
  8
0
 10
3780.03860653
 20
-66.32940089
 42
0.10291693
  0
VERTEX
  8
0
 10
3785.78225446
 20
-58.27501699
 42
0.02189510
  0
VERTEX
  8
0
 10
3786.80014634
 20
-55.60405123
 42
0.04062589
  0
VERTEX
  8
0
 10
3788.14611744
 20
-59.10957920
 42
0.12240409
  0
VERTEX
  8
0
 10
3795.98815047
 20
-68.53909146
 42
0.06866254
  0
VERTEX
  8
0
 10
3802.86046684
 20
-72.27196187
  0
VERTEX
  8
0
 10
3769.78237900
 20
-72.27199100
  0
SEQEND
  0
POLYLINE
  8
0
 66
   1
 70
    1
  0
VERTEX
  8
0
 10
3727.18784648
 20
-25.46315455
 42
-0.19467859
  0
VERTEX
  8
0
 10
3738.09054563
 20
-43.32340811
 42
-0.07419368
  0
VERTEX
  8
0
 10
3741.58890465
 20
-38.75693124
 42
-0.09577674
  0
VERTEX
  8
0
 10
3747.10916459
 20
-35.47870653
 42
-0.09088811
  0
VERTEX
  8
0
 10
3753.53026071
 20
-34.40909906
 42
-0.09109812
  0
VERTEX
  8
0
 10
3759.90918972
 20
-35.67707892
 42
-0.04360417
  0
VERTEX
  8
0
 10
3762.52163909
 20
-36.98346796
 42
0.02732403
  0
VERTEX
  8
0
 10
3760.92781254
 20
-35.08512196
 42
0.11580976
  0
VERTEX
  8
0
 10
3751.03677980
 20
-28.50324574
 42
0.09026106
  0
VERTEX
  8
0
 10
3727.18784648
 20
-25.46315455
  0
SEQEND
  0
POLYLINE
  8
0
 66
   1
 70
    1
  0
VERTEX
  8
0
 10
3684.11386700
 20
-34.38613200
 42
-0.09156678
  0
VERTEX
  8
0
 10
3707.98717316
 20
-35.95246195
 42
-0.12284319
  0
VERTEX
  8
0
 10
3713.69114742
 20
-40.10712256
 42
-0.12992381
  0
VERTEX
  8
0
 10
3716.42032143
 20
-45.93744345
 42
0.07903038
  0
VERTEX
  8
0
 10
3713.57664602
 20
-42.23220911
 42
0.09831686
  0
VERTEX
  8
0
 10
3708.15031007
 20
-38.80939777
 42
0.09338475
  0
VERTEX
  8
0
 10
3701.71526888
 20
-37.62509380
 42
0.09343242
  0
VERTEX
  8
0
 10
3695.28960177
 20
-38.85238475
 42
0.09951630
  0
VERTEX
  8
0
 10
3689.83992749
 20
-42.36045620
 42
0.10653326
  0
VERTEX
  8
0
 10
3686.12757685
 20
-49.33428882
 42
0.10973526
  0
VERTEX
  8
0
 10
3685.69319870
 20
-57.03859121
 42
0.10718767
  0
VERTEX
  8
0
 10
3688.56792725
 20
-64.27565904
 42
0.10010333
  0
VERTEX
  8
0
 10
3694.26162521
 20
-69.89562455
 42
0.06064349
  0
VERTEX
  8
0
 10
3699.06892919
 20
-72.27205308
  0
VERTEX
  8
0
 10
3557.04093900
 20
-72.27217900
 42
0.01377759
  0
VERTEX
  8
0
 10
3583.08158824
 20
-69.21878398
 42
0.06941215
  0
VERTEX
  8
0
 10
3661.11527532
 20
-45.59994859
 42
0.07088433
  0
VERTEX
  8
0
 10
3663.37446127
 20
-48.11935996
 42
0.10424872
  0
VERTEX
  8
0
 10
3668.22421280
 20
-50.71327692
 42
0.09972301
  0
VERTEX
  8
0
 10
3673.79010388
 20
-51.19633995
 42
0.10155465
  0
VERTEX
  8
0
 10
3679.07204701
 20
-49.49004134
 42
0.10894321
  0
VERTEX
  8
0
 10
3683.10690636
 20
-45.87533404
 42
0.11762101
  0
VERTEX
  8
0
 10
3685.10699670
 20
-40.98671785
 42
0.12104987
  0
VERTEX
  8
0
 10
3684.63576435
 20
-35.74222837
  0
VERTEX
  8
0
 10
3684.11386700
 20
-34.38613200
  0
SEQEND
  0
POLYLINE
  8
0
 66
   1
 70
    1
  0
VERTEX
  8
0
 10
3572.67260277
 20
-15.70081830
 42
0.02732403
  0
VERTEX
  8
0
 10
3574.26642867
 20
-17.59916480
 42
0.11580976
  0
VERTEX
  8
0
 10
3584.15746113
 20
-24.18104020
 42
0.09026106
  0
VERTEX
  8
0
 10
3608.00639456
 20
-27.22113104
 42
-0.19467859
  0
VERTEX
  8
0
 10
3597.10369537
 20
-9.36087789
 42
-0.07419368
  0
VERTEX
  8
0
 10
3593.60533635
 20
-13.92735476
 42
-0.09577674
  0
VERTEX
  8
0
 10
3588.08507641
 20
-17.20557947
 42
-0.09088811
  0
VERTEX
  8
0
 10
3581.66398129
 20
-18.27518694
 42
-0.09109812
  0
VERTEX
  8
0
 10
3575.28505228
 20
-17.00720708
 42
-0.04360417
  0
VERTEX
  8
0
 10
3572.67260277
 20
-15.70081830
  0
SEQEND
  0
POLYLINE
  8
0
 66
   1
 70
    1
  0
VERTEX
  8
0
 10
3519.27532428
 20
-20.62232806
 42
0.16514899
  0
VERTEX
  8
0
 10
3535.85809757
 20
-32.20504773
 42
0.06830756
  0
VERTEX
  8
0
 10
3563.59147849
 20
-35.83160143
 42
-0.00270020
  0
VERTEX
  8
0
 10
3562.53424138
 20
-35.32964136
 42
-0.22491028
  0
VERTEX
  8
0
 10
3547.06932497
 20
-12.03453955
 42
-0.10112289
  0
VERTEX
  8
0
 10
3542.46899649
 20
-16.98937658
 42
-0.09690141
  0
VERTEX
  8
0
 10
3535.95080991
 20
-19.96749756
 42
-0.09895078
  0
VERTEX
  8
0
 10
3529.17990255
 20
-20.68348762
 42
-0.10110951
  0
VERTEX
  8
0
 10
3522.65220203
 20
-18.72679392
 42
-0.10823819
  0
VERTEX
  8
0
 10
3517.60149112
 20
-14.41247818
 42
-0.03520388
  0
VERTEX
  8
0
 10
3516.52758698
 20
-12.76355369
 42
0.10593524
  0
VERTEX
  8
0
 10
3519.27532428
 20
-20.62232806
  0
SEQEND
  0
POLYLINE
  8
0
 66
   1
 70
    1
  0
VERTEX
  8
0
 10
3466.16164138
 20
-34.07935881
 42
0.02099477
  0
VERTEX
  8
0
 10
3466.51406895
 20
-35.33323158
 42
0.11654280
  0
VERTEX
  8
0
 10
3470.55449835
 20
-41.90705167
 42
0.13838411
  0
VERTEX
  8
0
 10
3484.89397557
 20
-48.91226087
 42
0.03607212
  0
VERTEX
  8
0
 10
3521.49755469
 20
-52.35695847
 42
-0.03365075
  0
VERTEX
  8
0
 10
3515.56868210
 20
-49.56111467
 42
-0.17725954
  0
VERTEX
  8
0
 10
3495.16947334
 20
-26.29086887
 42
-0.01394319
  0
VERTEX
  8
0
 10
3494.92604747
 20
-27.19672097
 42
-0.10706496
  0
VERTEX
  8
0
 10
3491.27397890
 20
-33.79101645
 42
-0.10846298
  0
VERTEX
  8
0
 10
3485.08228536
 20
-37.88946637
 42
-0.10187452
  0
VERTEX
  8
0
 10
3477.63037750
 20
-39.15005054
 42
-0.10279340
  0
VERTEX
  8
0
 10
3470.28030920
 20
-37.36770316
 42
-0.10021276
  0
VERTEX
  8
0
 10
3466.16164138
 20
-34.07935881
  0
SEQEND
  0
POLYLINE
  8
0
 66
   1
 70
    1
  0
VERTEX
  8
0
 10
2944.77733115
 20
-689.52841782
 42
0.10713150
  0
VERTEX
  8
0
 10
2951.34974402
 20
-696.07779636
 42
0.10677628
  0
VERTEX
  8
0
 10
2960.05341050
 20
-699.32902986
 42
0.10666486
  0
VERTEX
  8
0
 10
2969.32718486
 20
-698.70056688
 42
0.10687228
  0
VERTEX
  8
0
 10
2977.50874284
 20
-694.30474998
 42
0.10725853
  0
VERTEX
  8
0
 10
2983.12976397
 20
-686.92829789
 42
0.03895326
  0
VERTEX
  8
0
 10
2984.32188344
 20
-683.75643595
 42
0.02499182
  0
VERTEX
  8
0
 10
2985.76403134
 20
-686.88488593
 42
0.09921149
  0
VERTEX
  8
0
 10
2988.79939018
 20
-690.97938248
 42
0.09948805
  0
VERTEX
  8
0
 10
2993.20936839
 20
-693.60305981
 42
0.09906569
  0
VERTEX
  8
0
 10
2998.29743716
 20
-694.32466408
 42
0.09877094
  0
VERTEX
  8
0
 10
3003.27716893
 20
-693.03494168
 42
0.13101319
  0
VERTEX
  8
0
 10
3008.40370959
 20
-688.62411489
 42
0.01339369
  0
VERTEX
  8
0
 10
3009.47800222
 20
-690.24731977
 42
0.06381522
  0
VERTEX
  8
0
 10
3016.43742047
 20
-697.87162612
 42
0.10023333
  0
VERTEX
  8
0
 10
3027.31872871
 20
-703.86850530
 42
0.07118100
  0
VERTEX
  8
0
 10
3059.56855769
 20
-709.13185321
 42
0.04296628
  0
VERTEX
  8
0
 10
3140.67487442
 20
-704.36241604
 42
0.07001690
  0
VERTEX
  8
0
 10
3219.02062843
 20
-680.51302491
 42
0.09306321
  0
VERTEX
  8
0
 10
3221.95173616
 20
-683.75022608
 42
0.09875247
  0
VERTEX
  8
0
 10
3226.54644743
 20
-685.98822008
 42
0.09500076
  0
VERTEX
  8
0
 10
3231.71483481
 20
-686.34385233
 42
0.09679411
  0
VERTEX
  8
0
 10
3236.61317040
 20
-684.76480617
 42
0.10342690
  0
VERTEX
  8
0
 10
3240.42924285
 20
-681.48658830
 42
0.11146039
  0
VERTEX
  8
0
 10
3242.48688592
 20
-677.02925836
 42
0.11636193
  0
VERTEX
  8
0
 10
3242.37101585
 20
-672.11240055
  0
VERTEX
  8
0
 10
3241.46348225
 20
-669.53650751
 42
-0.09178226
  0
VERTEX
  8
0
 10
3265.39269683
 20
-671.09625187
 42
-0.12284319
  0
VERTEX
  8
0
 10
3271.09666795
 20
-675.25091649
 42
-0.12992381
  0
VERTEX
  8
0
 10
3273.82583638
 20
-681.08123958
 42
0.07903038
  0
VERTEX
  8
0
 10
3270.98216355
 20
-677.37600325
 42
0.09831686
  0
VERTEX
  8
0
 10
3265.55583081
 20
-673.95318789
 42
0.09338475
  0
VERTEX
  8
0
 10
3259.12079022
 20
-672.76887975
 42
0.09343242
  0
VERTEX
  8
0
 10
3252.69512316
 20
-673.99616664
 42
0.09951630
  0
VERTEX
  8
0
 10
3247.24544573
 20
-677.50423421
 42
0.10653326
  0
VERTEX
  8
0
 10
3243.53309043
 20
-684.47806422
 42
0.10973526
  0
VERTEX
  8
0
 10
3243.09870583
 20
-692.18236678
 42
0.10718767
  0
VERTEX
  8
0
 10
3245.97342992
 20
-699.41943613
 42
0.10010333
  0
VERTEX
  8
0
 10
3251.66712368
 20
-705.03940517
 42
0.09333032
  0
VERTEX
  8
0
 10
3259.24942196
 20
-708.19276907
 42
0.10380046
  0
VERTEX
  8
0
 10
3272.85720208
 20
-708.49207101
 42
0.10714632
  0
VERTEX
  8
0
 10
3285.25947452
 20
-703.30947223
 42
0.10230411
  0
VERTEX
  8
0
 10
3293.18526328
 20
-694.94251989
 42
0.01811656
  0
VERTEX
  8
0
 10
3293.98316824
 20
-693.08635324
 42
0.13229610
  0
VERTEX
  8
0
 10
3299.54441583
 20
-701.66789083
 42
0.09537034
  0
VERTEX
  8
0
 10
3308.27234490
 20
-706.96140283
 42
0.09084491
  0
VERTEX
  8
0
 10
3318.53718365
 20
-708.77919909
 42
0.09091370
  0
VERTEX
  8
0
 10
3328.77953112
 20
-706.85700890
 42
0.09556743
  0
VERTEX
  8
0
 10
3337.44410773
 20
-701.47324166
 42
0.10291693
  0
VERTEX
  8
0
 10
3343.18776146
 20
-693.41886189
 42
0.02189510
  0
VERTEX
  8
0
 10
3344.20565467
 20
-690.74789633
 42
0.04062590
  0
VERTEX
  8
0
 10
3345.55162345
 20
-694.25342564
 42
0.12240409
  0
VERTEX
  8
0
 10
3353.39365038
 20
-703.68294362
 42
0.11248538
  0
VERTEX
  8
0
 10
3365.04839705
 20
-708.75774287
 42
0.10911154
  0
VERTEX
  8
0
 10
3377.96779305
 20
-708.39789247
 42
0.11002327
  0
VERTEX
  8
0
 10
3390.81461512
 20
-701.23101951
 42
0.09333146
  0
VERTEX
  8
0
 10
3397.60628531
 20
-692.42972150
 42
0.06482462
  0
VERTEX
  8
0
 10
3399.44890776
 20
-687.24762323
 42
0.06451448
  0
VERTEX
  8
0
 10
3400.41161544
 20
-675.71919806
 42
0.08932319
  0
VERTEX
  8
0
 10
3405.34508015
 20
-680.35923970
 42
0.10255211
  0
VERTEX
  8
0
 10
3416.20056333
 20
-683.68376637
 42
0.01196640
  0
VERTEX
  8
0
 10
3417.56593850
 20
-683.78123201
 42
0.07343758
  0
VERTEX
  8
0
 10
3415.95585069
 20
-687.17179256
 42
0.10941464
  0
VERTEX
  8
0
 10
3415.52005239
 20
-692.69835740
 42
0.10932516
  0
VERTEX
  8
0
 10
3417.45869204
 20
-697.89371206
 42
0.10902866
  0
VERTEX
  8
0
 10
3421.40992453
 20
-701.79179045
 42
0.10873647
  0
VERTEX
  8
0
 10
3426.63839348
 20
-703.66985091
 42
0.07431656
  0
VERTEX
  8
0
 10
3430.46219330
 20
-703.59319207
 42
0.16752450
  0
VERTEX
  8
0
 10
3434.99916640
 20
-713.74249168
 42
0.10209422
  0
VERTEX
  8
0
 10
3440.20615978
 20
-717.42604896
 42
0.09948965
  0
VERTEX
  8
0
 10
3446.30000021
 20
-718.75000017
 42
0.09948993
  0
VERTEX
  8
0
 10
3452.39385798
 20
-717.42604863
 42
0.10209422
  0
VERTEX
  8
0
 10
3457.60085041
 20
-713.74249081
 42
0.16752450
  0
VERTEX
  8
0
 10
3462.13782280
 20
-703.59319088
 42
0.07431656
  0
VERTEX
  8
0
 10
3465.96162341
 20
-703.66984979
 42
0.10873647
  0
VERTEX
  8
0
 10
3471.19009224
 20
-701.79178897
 42
0.10902866
  0
VERTEX
  8
0
 10
3475.14132445
 20
-697.89371031
 42
0.10932516
  0
VERTEX
  8
0
 10
3477.07996370
 20
-692.69835574
 42
0.10941464
  0
VERTEX
  8
0
 10
3476.64416450
 20
-687.17179069
 42
0.07343758
  0
VERTEX
  8
0
 10
3475.03407712
 20
-683.78123045
 42
0.01196640
  0
VERTEX
  8
0
 10
3476.39945161
 20
-683.68376419
 42
0.10255211
  0
VERTEX
  8
0
 10
3487.25493497
 20
-680.35923698
 42
0.08932319
  0
VERTEX
  8
0
 10
3492.18839898
 20
-675.71919514
 42
0.06451448
  0
VERTEX
  8
0
 10
3493.15110790
 20
-687.24762030
 42
0.06482462
  0
VERTEX
  8
0
 10
3494.99373042
 20
-692.42971785
 42
0.09333146
  0
VERTEX
  8
0
 10
3501.78540105
 20
-701.23101555
 42
0.11002328
  0
VERTEX
  8
0
 10
3514.63222398
 20
-708.39788898
 42
0.10911153
  0
VERTEX
  8
0
 10
3527.55161951
 20
-708.75773801
 42
0.11248538
  0
VERTEX
  8
0
 10
3539.20636623
 20
-703.68293744
 42
0.12240409
  0
VERTEX
  8
0
 10
3547.04839225
 20
-694.25341918
 42
0.04062589
  0
VERTEX
  8
0
 10
3548.39436045
 20
-690.74789059
 42
0.02189510
  0
VERTEX
  8
0
 10
3549.41225423
 20
-693.41885580
 42
0.10291693
  0
VERTEX
  8
0
 10
3555.15590865
 20
-701.47323493
 42
0.09556742
  0
VERTEX
  8
0
 10
3563.82048500
 20
-706.85700143
 42
0.09091370
  0
VERTEX
  8
0
 10
3574.06283282
 20
-708.77919116
 42
0.09084491
  0
VERTEX
  8
0
 10
3584.32767154
 20
-706.96139420
 42
0.09537034
  0
VERTEX
  8
0
 10
3593.05560091
 20
-701.66788189
 42
0.13229609
  0
VERTEX
  8
0
 10
3598.61684808
 20
-693.08634426
 42
0.01811656
  0
VERTEX
  8
0
 10
3599.41475258
 20
-694.94251007
 42
0.10230411
  0
VERTEX
  8
0
 10
3607.34054212
 20
-703.30946137
 42
0.10714632
  0
VERTEX
  8
0
 10
3619.74281463
 20
-708.49205932
 42
0.10380046
  0
VERTEX
  8
0
 10
3633.35059454
 20
-708.19275584
 42
0.09333032
  0
VERTEX
  8
0
 10
3640.93289276
 20
-705.03939306
 42
0.10010333
  0
VERTEX
  8
0
 10
3646.62658594
 20
-699.41942307
 42
0.10718767
  0
VERTEX
  8
0
 10
3649.50130951
 20
-692.18235273
 42
0.10973526
  0
VERTEX
  8
0
 10
3649.06692522
 20
-684.47805097
 42
0.10653326
  0
VERTEX
  8
0
 10
3645.35456913
 20
-677.50422156
 42
0.09951630
  0
VERTEX
  8
0
 10
3639.90489177
 20
-673.99615422
 42
0.09343241
  0
VERTEX
  8
0
 10
3633.47922395
 20
-672.76886787
 42
0.09338475
  0
VERTEX
  8
0
 10
3627.04418412
 20
-673.95317630
 42
0.09831686
  0
VERTEX
  8
0
 10
3621.61785114
 20
-677.37599197
 42
0.07903038
  0
VERTEX
  8
0
 10
3618.77417913
 20
-681.08122849
 42
-0.12992381
  0
VERTEX
  8
0
 10
3621.50334740
 20
-675.25090514
 42
-0.12284319
  0
VERTEX
  8
0
 10
3627.20731861
 20
-671.09624107
 42
-0.09178226
  0
VERTEX
  8
0
 10
3651.13653300
 20
-669.53649500
  0
VERTEX
  8
0
 10
3650.22899901
 20
-672.11238709
 42
0.11636193
  0
VERTEX
  8
0
 10
3650.11312924
 20
-677.02924509
 42
0.11146039
  0
VERTEX
  8
0
 10
3652.17077262
 20
-681.48657492
 42
0.10342690
  0
VERTEX
  8
0
 10
3655.98684421
 20
-684.76479351
 42
0.09679412
  0
VERTEX
  8
0
 10
3660.88518012
 20
-686.34383944
 42
0.09500076
  0
VERTEX
  8
0
 10
3666.05356784
 20
-685.98820553
 42
0.09875247
  0
VERTEX
  8
0
 10
3670.64827925
 20
-683.75021163
 42
0.09306321
  0
VERTEX
  8
0
 10
3673.57938352
 20
-680.51300940
 42
0.07001690
  0
VERTEX
  8
0
 10
3751.92514385
 20
-704.36239722
 42
0.04296628
  0
VERTEX
  8
0
 10
3833.03145939
 20
-709.13182784
 42
0.07118100
  0
VERTEX
  8
0
 10
3865.28128838
 20
-703.86847865
 42
0.10023332
  0
VERTEX
  8
0
 10
3876.16259498
 20
-697.87159920
 42
0.06381523
  0
VERTEX
  8
0
 10
3883.12201340
 20
-690.24729192
 42
0.01339369
  0
VERTEX
  8
0
 10
3884.19630627
 20
-688.62408742
 42
0.13101319
  0
VERTEX
  8
0
 10
3889.32284788
 20
-693.03491361
 42
0.09877094
  0
VERTEX
  8
0
 10
3894.30257852
 20
-694.32463612
 42
0.09906569
  0
VERTEX
  8
0
 10
3899.39064726
 20
-693.60303158
 42
0.09948805
  0
VERTEX
  8
0
 10
3903.80062482
 20
-690.97935267
 42
0.09921149
  0
VERTEX
  8
0
 10
3906.83598395
 20
-686.88485631
 42
0.02499181
  0
VERTEX
  8
0
 10
3908.27813224
 20
-683.75640627
 42
0.03895327
  0
VERTEX
  8
0
 10
3909.47025139
 20
-686.92826846
 42
0.10725853
  0
VERTEX
  8
0
 10
3915.09127304
 20
-694.30471973
 42
0.10687228
  0
VERTEX
  8
0
 10
3923.27283113
 20
-698.70053692
 42
0.10666486
  0
VERTEX
  8
0
 10
3932.54660602
 20
-699.32899864
 42
0.10677628
  0
VERTEX
  8
0
 10
3941.25027226
 20
-696.07776453
 42
0.10713150
  0
VERTEX
  8
0
 10
3947.82268468
 20
-689.52838554
 42
0.10748878
  0
VERTEX
  8
0
 10
3951.08251506
 20
-680.85478028
 42
0.10760126
  0
VERTEX
  8
0
 10
3950.44260059
 20
-671.61489858
 42
0.10739043
  0
VERTEX
  8
0
 10
3946.01828115
 20
-663.46951295
 42
0.10700313
  0
VERTEX
  8
0
 10
3938.60600259
 20
-657.88084247
 42
0.03838434
  0
VERTEX
  8
0
 10
3935.44172172
 20
-656.70354283
 42
0.02461880
  0
VERTEX
  8
0
 10
3938.55490966
 20
-655.27745219
 42
0.09900854
  0
VERTEX
  8
0
 10
3942.66273027
 20
-652.25357594
 42
0.09982208
  0
VERTEX
  8
0
 10
3945.29697611
 20
-647.85680896
 42
0.09973937
  0
VERTEX
  8
0
 10
3946.02186593
 20
-642.78138746
 42
0.00609080
  0
VERTEX
  8
0
 10
3945.99992511
 20
-642.46462034
 42
0.01580389
  0
VERTEX
  8
0
 10
3948.24532068
 20
-642.26463333
 42
0.12162855
  0
VERTEX
  8
0
 10
3964.63552843
 20
-635.98730972
 42
0.06335940
  0
VERTEX
  8
0
 10
3972.22957595
 20
-629.11874515
 42
0.10122294
  0
VERTEX
  8
0
 10
3978.32299018
 20
-618.15349159
 42
0.07158697
  0
VERTEX
  8
0
 10
3983.58902771
 20
-586.03721321
 42
0.04671960
  0
VERTEX
  8
0
 10
3966.15349337
 20
-429.23091558
 42
0.12813033
  0
VERTEX
  8
0
 10
3973.74994626
 20
-421.00143115
 42
0.08513197
  0
VERTEX
  8
0
 10
3975.83222577
 20
-413.21678266
 42
0.04218469
  0
VERTEX
  8
0
 10
3977.75913458
 20
-415.13599876
 42
0.11629341
  0
VERTEX
  8
0
 10
3984.45235508
 20
-418.51566505
 42
0.11582537
  0
VERTEX
  8
0
 10
3991.96168876
 20
-418.55855379
 42
0.11706077
  0
VERTEX
  8
0
 10
3998.73292184
 20
-415.22330663
 42
0.11386763
  0
VERTEX
  8
0
 10
4003.25501504
 20
-408.33968071
 42
0.11379867
  0
VERTEX
  8
0
 10
4004.29477216
 20
-400.23692201
 42
0.11460485
  0
VERTEX
  8
0
 10
4001.64264162
 20
-392.43072292
 42
0.00872893
  0
VERTEX
  8
0
 10
3999.11055158
 20
-389.28250288
 42
0.05041706
  0
VERTEX
  8
0
 10
4001.63435831
 20
-387.45758010
 42
0.09949910
  0
VERTEX
  8
0
 10
4005.27803532
 20
-382.62165034
 42
0.09996507
  0
VERTEX
  8
0
 10
4006.76176058
 20
-376.76198302
 42
0.09953340
  0
VERTEX
  8
0
 10
4005.86390858
 20
-370.81508342
 42
0.05516078
  0
VERTEX
  8
0
 10
4002.19679747
 20
-362.52222787
 42
0.07909737
  0
VERTEX
  8
0
 10
4007.82982409
 20
-360.47639243
 42
0.10664911
  0
VERTEX
  8
0
 10
4013.86061163
 20
-355.20099186
 42
0.10694678
  0
VERTEX
  8
0
 10
4017.17169428
 20
-347.91425876
 42
0.09821059
  0
VERTEX
  8
0
 10
4017.17169128
 20
-339.91350810
 42
0.10694678
  0
VERTEX
  8
0
 10
4013.86060267
 20
-332.62677740
 42
0.10664911
  0
VERTEX
  8
0
 10
4007.82981110
 20
-327.35138111
 42
0.07909737
  0
VERTEX
  8
0
 10
4002.19678310
 20
-325.30554936
 42
0.05516078
  0
VERTEX
  8
0
 10
4005.86388858
 20
-317.01269156
 42
0.09953340
  0
VERTEX
  8
0
 10
4006.76173601
 20
-311.06579127
 42
0.09996507
  0
VERTEX
  8
0
 10
4005.27800621
 20
-305.20612502
 42
0.09949910
  0
VERTEX
  8
0
 10
4001.63432463
 20
-300.37019818
 42
0.05041706
  0
VERTEX
  8
0
 10
3999.11051590
 20
-298.54527710
 42
0.00872893
  0
VERTEX
  8
0
 10
4001.64260286
 20
-295.39705547
 42
0.11460485
  0
VERTEX
  8
0
 10
4004.29472953
 20
-287.59085410
 42
0.11379867
  0
VERTEX
  8
0
 10
4003.25496620
 20
-279.48809619
 42
0.11386763
  0
VERTEX
  8
0
 10
3998.73286767
 20
-272.60447365
 42
0.11706077
  0
VERTEX
  8
0
 10
3991.96163175
 20
-269.26923146
 42
0.11582537
  0
VERTEX
  8
0
 10
3984.45229850
 20
-269.31212690
 42
0.11629341
  0
VERTEX
  8
0
 10
3977.75908009
 20
-272.69179722
 42
0.04218469
  0
VERTEX
  8
0
 10
3975.83217210
 20
-274.61101411
 42
0.08513197
  0
VERTEX
  8
0
 10
3973.74988689
 20
-266.82636785
 42
0.12813033
  0
VERTEX
  8
0
 10
3966.15342801
 20
-258.59688921
 42
0.04671960
  0
VERTEX
  8
0
 10
3983.58884193
 20
-101.79058003
 42
0.07158698
  0
VERTEX
  8
0
 10
3978.32277995
 20
-69.67430449
 42
0.10122294
  0
VERTEX
  8
0
 10
3972.22935730
 20
-58.70905560
 42
0.06335940
  0
VERTEX
  8
0
 10
3964.63530487
 20
-51.84049647
 42
0.12162855
  0
VERTEX
  8
0
 10
3948.24509178
 20
-45.56318521
 42
0.01580390
  0
VERTEX
  8
0
 10
3945.99969693
 20
-45.36319969
 42
0.00609080
  0
VERTEX
  8
0
 10
3946.02163725
 20
-45.04643312
 42
0.09973937
  0
VERTEX
  8
0
 10
3945.29674316
 20
-39.97101161
 42
0.09982208
  0
VERTEX
  8
0
 10
3942.66249401
 20
-35.57424675
 42
0.09900854
  0
VERTEX
  8
0
 10
3938.55467094
 20
-32.55037400
 42
0.02461880
  0
VERTEX
  8
0
 10
3935.44148191
 20
-31.12428525
 42
0.03838434
  0
VERTEX
  8
0
 10
3938.60576258
 20
-29.94698348
 42
0.10700312
  0
VERTEX
  8
0
 10
3946.01803610
 20
-24.35830735
 42
0.10739043
  0
VERTEX
  8
0
 10
3950.44234928
 20
-16.21291833
 42
0.10760126
  0
VERTEX
  8
0
 10
3951.08225664
 20
-6.97303618
 42
0.10748879
  0
VERTEX
  8
0
 10
3947.82241891
 20
1.70056607
 42
0.10713150
  0
VERTEX
  8
0
 10
3941.25000210
 20
8.24994061
 42
0.10677628
  0
VERTEX
  8
0
 10
3932.54633388
 20
11.50116748
 42
0.10666486
  0
VERTEX
  8
0
 10
3923.27255940
 20
10.87269864
 42
0.10687228
  0
VERTEX
  8
0
 10
3915.09100419
 20
6.47687578
 42
0.10725853
  0
VERTEX
  8
0
 10
3909.46998830
 20
-0.89957969
 42
0.03895326
  0
VERTEX
  8
0
 10
3908.27787216
 20
-4.07144283
 42
0.02499181
  0
VERTEX
  8
0
 10
3906.83572133
 20
-0.94299365
 42
0.09921149
  0
VERTEX
  8
0
 10
3903.80035957
 20
3.15150023
 42
0.09948805
  0
VERTEX
  8
0
 10
3899.39037943
 20
5.77517474
 42
0.09906569
  0
VERTEX
  8
0
 10
3894.30230993
 20
6.49677574
 42
0.09877094
  0
VERTEX
  8
0
 10
3889.32257980
 20
5.20704923
 42
0.13101319
  0
VERTEX
  8
0
 10
3884.19604158
 20
0.79621910
 42
0.01339369
  0
VERTEX
  8
0
 10
3883.12174822
 20
2.41942354
 42
0.06381523
  0
VERTEX
  8
0
 10
3876.16232420
 20
10.04372537
 42
0.10023332
  0
VERTEX
  8
0
 10
3865.28101244
 20
16.04059684
 42
0.07118100
  0
VERTEX
  8
0
 10
3833.03117882
 20
21.30392172
 42
0.04296628
  0
VERTEX
  8
0
 10
3751.92486601
 20
16.53442758
 42
0.07001690
  0
VERTEX
  8
0
 10
3673.57912491
 20
-7.31501976
 42
0.09306321
  0
VERTEX
  8
0
 10
3670.64801858
 20
-4.07781940
 42
0.09875247
  0
VERTEX
  8
0
 10
3666.05330563
 20
-1.83982878
 42
0.09500076
  0
VERTEX
  8
0
 10
3660.88491789
 20
-1.48419978
 42
0.09679412
  0
VERTEX
  8
0
 10
3655.98658319
 20
-3.06324947
 42
0.10342690
  0
VERTEX
  8
0
 10
3652.17051341
 20
-6.34146987
 42
0.11146039
  0
VERTEX
  8
0
 10
3650.11287354
 20
-10.79880196
 42
0.11636193
  0
VERTEX
  8
0
 10
3650.22874709
 20
-15.71565986
  0
VERTEX
  8
0
 10
3651.13628341
 20
-18.29155108
 42
-0.09178225
  0
VERTEX
  8
0
 10
3627.20706784
 20
-16.73182405
 42
-0.12284319
  0
VERTEX
  8
0
 10
3621.50309369
 20
-12.57716326
 42
-0.12992381
  0
VERTEX
  8
0
 10
3618.77392040
 20
-6.74684273
 42
0.07903038
  0
VERTEX
  8
0
 10
3621.61759532
 20
-10.45207674
 42
0.09831686
  0
VERTEX
  8
0
 10
3627.04393093
 20
-13.87488823
 42
0.09338475
  0
VERTEX
  8
0
 10
3633.47897212
 20
-15.05919120
 42
0.09343242
  0
VERTEX
  8
0
 10
3639.90463923
 20
-13.83190025
 42
0.09951630
  0
VERTEX
  8
0
 10
3645.35431342
 20
-10.32382944
 42
0.10653326
  0
VERTEX
  8
0
 10
3649.06666415
 20
-3.34999718
 42
0.10973526
  0
VERTEX
  8
0
 10
3649.50104307
 20
4.35430543
 42
0.10718767
  0
VERTEX
  8
0
 10
3646.62631375
 20
11.59137304
 42
0.10010333
  0
VERTEX
  8
0
 10
3640.93261637
 20
17.21133866
 42
0.09333032
  0
VERTEX
  8
0
 10
3633.35031587
 20
20.36469635
 42
0.10380046
  0
VERTEX
  8
0
 10
3619.74253592
 20
20.66398881
 42
0.10714632
  0
VERTEX
  8
0
 10
3607.34026718
 20
15.48138187
 42
0.10230411
  0
VERTEX
  8
0
 10
3599.41448341
 20
7.11442472
 42
0.01811656
  0
VERTEX
  8
0
 10
3598.61657999
 20
5.25825787
 42
0.13229609
  0
VERTEX
  8
0
 10
3593.05532668
 20
13.83979099
 42
0.09537035
  0
VERTEX
  8
0
 10
3584.32739420
 20
19.13329677
 42
0.09084491
  0
VERTEX
  8
0
 10
3574.06255368
 20
20.95108600
 42
0.09091370
  0
VERTEX
  8
0
 10
3563.82020688
 20
19.02888902
 42
0.09556742
  0
VERTEX
  8
0
 10
3555.15563422
 20
13.64511528
 42
0.10291693
  0
VERTEX
  8
0
 10
3549.41198654
 20
5.59073099
 42
0.02189510
  0
VERTEX
  8
0
 10
3548.39409566
 20
2.91976523
 42
0.04062589
  0
VERTEX
  8
0
 10
3547.04812419
 20
6.42529376
 42
0.12240409
  0
VERTEX
  8
0
 10
3539.20609053
 20
15.85480546
 42
0.11248538
  0
VERTEX
  8
0
 10
3527.55134043
 20
20.92959625
 42
0.10911154
  0
VERTEX
  8
0
 10
3514.63194466
 20
20.56973739
 42
0.11002327
  0
VERTEX
  8
0
 10
3501.78512682
 20
13.40285521
 42
0.09333145
  0
VERTEX
  8
0
 10
3494.99346319
 20
4.60155276
 42
0.06482462
  0
VERTEX
  8
0
 10
3493.15084448
 20
-0.58054745
 42
0.06451448
  0
VERTEX
  8
0
 10
3492.18814499
 20
-12.10897334
 42
0.08932319
  0
VERTEX
  8
0
 10
3487.25467767
 20
-7.46893502
 42
0.10255211
  0
VERTEX
  8
0
 10
3476.39919166
 20
-4.14441653
 42
0.01196640
  0
VERTEX
  8
0
 10
3475.03381661
 20
-4.04695127
 42
0.07343758
  0
VERTEX
  8
0
 10
3476.64390138
 20
-0.65638889
 42
0.10941464
  0
VERTEX
  8
0
 10
3477.07969602
 20
4.87017568
 42
0.10932516
  0
VERTEX
  8
0
 10
3475.14105309
 20
10.06552858
 42
0.10902866
  0
VERTEX
  8
0
 10
3471.18981784
 20
13.96360525
 42
0.10873647
  0
VERTEX
  8
0
 10
3465.96134757
 20
15.84166206
 42
0.07431656
  0
VERTEX
  8
0
 10
3462.13754764
 20
15.76499993
 42
0.16752450
  0
VERTEX
  8
0
 10
3457.60056746
 20
25.91429638
 42
0.10209422
  0
VERTEX
  8
0
 10
3452.39357205
 20
29.59784970
 42
0.09948993
  0
VERTEX
  8
0
 10
3446.29971306
 20
30.92179698
 42
0.09948965
  0
VERTEX
  8
0
 10
3440.20587394
 20
29.59784107
 42
0.10209422
  0
VERTEX
  8
0
 10
3434.99888331
 20
25.91428000
 42
0.16752450
  0
VERTEX
  8
0
 10
3430.46191774
 20
15.76497738
 42
0.07431656
  0
VERTEX
  8
0
 10
3426.63811764
 20
15.84163264
 42
0.10873647
  0
VERTEX
  8
0
 10
3421.40965013
 20
13.96356816
 42
0.10902866
  0
VERTEX
  8
0
 10
3417.45842068
 20
10.06548679
 42
0.10932516
  0
VERTEX
  8
0
 10
3415.51978502
 20
4.87013065
 42
0.10941464
  0
VERTEX
  8
0
 10
3415.95558757
 20
-0.65643388
 42
0.07343758
  0
VERTEX
  8
0
 10
3417.56567787
 20
-4.04699300
 42
0.01196640
  0
VERTEX
  8
0
 10
3416.20030295
 20
-4.14445962
 42
0.10255211
  0
VERTEX
  8
0
 10
3405.34482185
 20
-7.46899530
 42
0.08932319
  0
VERTEX
  8
0
 10
3400.41136108
 20
-12.10904057
 42
0.06451448
  0
VERTEX
  8
0
 10
3399.44864495
 20
-0.58061592
 42
0.06482462
  0
VERTEX
  8
0
 10
3397.60601789
 20
4.60148108
 42
0.09333146
  0
VERTEX
  8
0
 10
3390.81434169
 20
13.40277383
 42
0.11002327
  0
VERTEX
  8
0
 10
3377.96751372
 20
20.56963706
 42
0.10911154
  0
VERTEX
  8
0
 10
3365.04811743
 20
20.92947697
 42
0.11248538
  0
VERTEX
  8
0
 10
3353.39337469
 20
15.85466959
 42
0.12240409
  0
VERTEX
  8
0
 10
3345.55135559
 20
6.42514519
 42
0.04062590
  0
VERTEX
  8
0
 10
3344.20538937
 20
2.91961523
 42
0.02189510
  0
VERTEX
  8
0
 10
3343.18749373
 20
5.59057972
 42
0.10291693
  0
VERTEX
  8
0
 10
3337.44383463
 20
13.64495545
 42
0.09556743
  0
VERTEX
  8
0
 10
3328.77925381
 20
19.02871629
 42
0.09091371
  0
VERTEX
  8
0
 10
3318.53690446
 20
20.95089818
 42
0.09084491
  0
VERTEX
  8
0
 10
3308.27206706
 20
19.13309397
 42
0.09537035
  0
VERTEX
  8
0
 10
3299.54414145
 20
13.83957592
 42
0.13229609
  0
VERTEX
  8
0
 10
3293.98290071
 20
5.25803419
 42
0.01811656
  0
VERTEX
  8
0
 10
3293.18499477
 20
7.11419947
 42
0.10230411
  0
VERTEX
  8
0
 10
3285.25919915
 20
15.48114533
 42
0.10714632
  0
VERTEX
  8
0
 10
3272.85692335
 20
20.66373424
 42
0.10380046
  0
VERTEX
  8
0
 10
3259.24914330
 20
20.36442164
 42
0.09333032
  0
VERTEX
  8
0
 10
3251.66684743
 20
17.21105282
 42
0.10010333
  0
VERTEX
  8
0
 10
3245.97315805
 20
11.59107942
 42
0.10718767
  0
VERTEX
  8
0
 10
3243.09843949
 20
4.35400747
 42
0.10973526
  0
VERTEX
  8
0
 10
3243.53282936
 20
-3.35029463
 42
0.10653326
  0
VERTEX
  8
0
 10
3247.24518979
 20
-10.32412159
 42
0.09951630
  0
VERTEX
  8
0
 10
3252.69486992
 20
-13.83218497
 42
0.09343242
  0
VERTEX
  8
0
 10
3259.12053869
 20
-15.05946616
 42
0.09338475
  0
VERTEX
  8
0
 10
3265.55557761
 20
-13.87515357
 42
0.09831686
  0
VERTEX
  8
0
 10
3270.98190820
 20
-10.45233412
 42
0.07903038
  0
VERTEX
  8
0
 10
3273.82557882
 20
-6.74709539
 42
-0.12992381
  0
VERTEX
  8
0
 10
3271.09641413
 20
-12.57742005
 42
-0.12284319
  0
VERTEX
  8
0
 10
3265.39244608
 20
-16.73208935
 42
-0.09178226
  0
VERTEX
  8
0
 10
3241.46323200
 20
-18.29185200
  0
VERTEX
  8
0
 10
3242.37076400
 20
-15.71595900
 42
0.11636193
  0
VERTEX
  8
0
 10
3242.48663090
 20
-10.79910092
 42
0.11146039
  0
VERTEX
  8
0
 10
3240.42898402
 20
-6.34177245
 42
0.10342690
  0
VERTEX
  8
0
 10
3236.61290947
 20
-3.06355734
 42
0.09679411
  0
VERTEX
  8
0
 10
3231.71457258
 20
-1.48451444
 42
0.09500076
  0
VERTEX
  8
0
 10
3226.54618572
 20
-1.84015146
 42
0.09875247
  0
VERTEX
  8
0
 10
3221.95147618
 20
-4.07814899
 42
0.09306321
  0
VERTEX
  8
0
 10
3219.02037081
 20
-7.31535193
 42
0.07001690
  0
VERTEX
  8
0
 10
3140.67459849
 20
16.53397903
 42
0.04296628
  0
VERTEX
  8
0
 10
3059.56827713
 20
21.30335347
 42
0.07118100
  0
VERTEX
  8
0
 10
3027.31845312
 20
16.03998116
 42
0.10023332
  0
VERTEX
  8
0
 10
3016.43715041
 20
10.04309386
 42
0.06381523
  0
VERTEX
  8
0
 10
3009.47773731
 20
2.41878172
 42
0.01339369
  0
VERTEX
  8
0
 10
3008.40344555
 20
0.79557698
 42
0.13101319
  0
VERTEX
  8
0
 10
3003.27690084
 20
5.20639908
 42
0.09877094
  0
VERTEX
  8
0
 10
2998.29716883
 20
6.49611783
 42
0.09906568
  0
VERTEX
  8
0
 10
2993.20910112
 20
5.77451054
 42
0.09948805
  0
VERTEX
  8
0
 10
2988.79912479
 20
3.15082880
 42
0.09921149
  0
VERTEX
  8
0
 10
2985.76376909
 20
-0.94367008
 42
0.02499182
  0
VERTEX
  8
0
 10
2984.32162257
 20
-4.07212162
 42
0.03895326
  0
VERTEX
  8
0
 10
2983.12950186
 20
-0.90025990
 42
0.10725853
  0
VERTEX
  8
0
 10
2977.50847490
 20
6.47618747
 42
0.10687228
  0
VERTEX
  8
0
 10
2969.32691309
 20
10.87199917
 42
0.10666486
  0
VERTEX
  8
0
 10
2960.05313776
 20
11.50045442
 42
0.10677628
  0
VERTEX
  8
0
 10
2951.34947387
 20
8.24921428
 42
0.10713150
  0
VERTEX
  8
0
 10
2944.77706667
 20
1.69983010
 42
0.10748879
  0
VERTEX
  8
0
 10
2941.51724236
 20
-6.97377710
 42
0.10760126
  0
VERTEX
  8
0
 10
2942.15716268
 20
-16.21365805
 42
0.10739043
  0
VERTEX
  8
0
 10
2946.58148780
 20
-24.35904059
 42
0.10700312
  0
VERTEX
  8
0
 10
2953.99377036
 20
-29.94770698
 42
0.03838434
  0
VERTEX
  8
0
 10
2957.15805225
 20
-31.12500474
 42
0.02461880
  0
VERTEX
  8
0
 10
2954.04486579
 20
-32.55109607
 42
0.09900854
  0
VERTEX
  8
0
 10
2949.93704664
 20
-35.57497575
 42
0.09982208
  0
VERTEX
  8
0
 10
2947.30280386
 20
-39.97174457
 42
0.09973937
  0
VERTEX
  8
0
 10
2946.57791759
 20
-45.04716662
 42
0.00609080
  0
VERTEX
  8
0
 10
2946.59985834
 20
-45.36393402
 42
0.01580390
  0
VERTEX
  8
0
 10
2944.35446358
 20
-45.56392249
 42
0.12162855
  0
VERTEX
  8
0
 10
2927.96426001
 20
-51.84125798
 42
0.06335940
  0
VERTEX
  8
0
 10
2920.37021758
 20
-58.70982751
 42
0.10122294
  0
VERTEX
  8
0
 10
2914.27681059
 20
-69.67508494
 42
0.07158698
  0
VERTEX
  8
0
 10
2909.01079569
 20
-101.79136852
 42
0.04671960
  0
VERTEX
  8
0
 10
2926.44644058
 20
-258.59765279
 42
0.12813033
  0
VERTEX
  8
0
 10
2918.84999343
 20
-266.82714253
 42
0.08513198
  0
VERTEX
  8
0
 10
2916.76771967
 20
-274.61179232
 42
0.04218469
  0
VERTEX
  8
0
 10
2914.84080940
 20
-272.69257682
 42
0.11629342
  0
VERTEX
  8
0
 10
2908.14758549
 20
-269.31291619
 42
0.11582537
  0
VERTEX
  8
0
 10
2900.63825178
 20
-269.27003283
 42
0.11706077
  0
VERTEX
  8
0
 10
2893.86702164
 20
-272.60528424
 42
0.11386763
  0
VERTEX
  8
0
 10
2889.34493310
 20
-279.48891334
 42
0.11379867
  0
VERTEX
  8
0
 10
2888.30518045
 20
-287.59167333
 42
0.11460485
  0
VERTEX
  8
0
 10
2890.95731770
 20
-295.39787098
 42
0.00872893
  0
VERTEX
  8
0
 10
2893.48940983
 20
-298.54608868
 42
0.05041706
  0
VERTEX
  8
0
 10
2890.96560441
 20
-300.37101326
 42
0.09949910
  0
VERTEX
  8
0
 10
2887.32193090
 20
-305.20694518
 42
0.09996507
  0
VERTEX
  8
0
 10
2885.83820917
 20
-311.06661380
 42
0.09953340
  0
VERTEX
  8
0
 10
2886.73606606
 20
-317.01351259
 42
0.05516078
  0
VERTEX
  8
0
 10
2890.40318298
 20
-325.30636551
 42
0.07909737
  0
VERTEX
  8
0
 10
2884.77015802
 20
-327.35220516
 42
0.10664911
  0
VERTEX
  8
0
 10
2878.73937445
 20
-332.62760978
 42
0.10694678
  0
VERTEX
  8
0
 10
2875.42829662
 20
-339.91434509
 42
0.10707560
  0
VERTEX
  8
0
 10
2875.42829970
 20
-347.91429511
 42
0.10694678
  0
VERTEX
  8
0
 10
2878.73938316
 20
-355.20102793
 42
0.10664911
  0
VERTEX
  8
0
 10
2884.77017078
 20
-360.47642791
 42
0.07909737
  0
VERTEX
  8
0
 10
2890.40319784
 20
-362.52226412
 42
0.05516078
  0
VERTEX
  8
0
 10
2886.73608706
 20
-370.81511942
 42
0.09953340
  0
VERTEX
  8
0
 10
2885.83823474
 20
-376.76201890
 42
0.09996506
  0
VERTEX
  8
0
 10
2887.32196085
 20
-382.62168615
 42
0.09949910
  0
VERTEX
  8
0
 10
2890.96563829
 20
-387.45761464
 42
0.05041706
  0
VERTEX
  8
0
 10
2893.48944512
 20
-389.28253728
 42
0.00872893
  0
VERTEX
  8
0
 10
2890.95735532
 20
-392.43075790
 42
0.11460485
  0
VERTEX
  8
0
 10
2888.30522406
 20
-400.23695760
 42
0.11379867
  0
VERTEX
  8
0
 10
2889.34498198
 20
-408.33971585
 42
0.11386763
  0
VERTEX
  8
0
 10
2893.86707609
 20
-415.22334151
 42
0.11706077
  0
VERTEX
  8
0
 10
2900.63830908
 20
-418.55858798
 42
0.11582537
  0
VERTEX
  8
0
 10
2908.14764276
 20
-418.51569885
 42
0.11629342
  0
VERTEX
  8
0
 10
2914.84086400
 20
-415.13603311
 42
0.04218469
  0
VERTEX
  8
0
 10
2916.76777235
 20
-413.21681690
 42
0.08513198
  0
VERTEX
  8
0
 10
2918.85005216
 20
-421.00146503
 42
0.12813033
  0
VERTEX
  8
0
 10
2926.44650456
 20
-429.23095269
 42
0.04671960
  0
VERTEX
  8
0
 10
2909.01098132
 20
-586.03724937
 42
0.07158698
  0
VERTEX
  8
0
 10
2914.27702097
 20
-618.15352573
 42
0.10122294
  0
VERTEX
  8
0
 10
2920.37043586
 20
-629.11877913
 42
0.06335940
  0
VERTEX
  8
0
 10
2927.96448331
 20
-635.98734294
 42
0.12162855
  0
VERTEX
  8
0
 10
2944.35469277
 20
-642.26466480
 42
0.01580390
  0
VERTEX
  8
0
 10
2946.60008781
 20
-642.46465224
 42
0.00609080
  0
VERTEX
  8
0
 10
2946.57814626
 20
-642.78141883
 42
0.09973937
  0
VERTEX
  8
0
 10
2947.30303681
 20
-647.85684085
 42
0.09982208
  0
VERTEX
  8
0
 10
2949.93728288
 20
-652.25360854
 42
0.09900854
  0
VERTEX
  8
0
 10
2954.04510384
 20
-655.27748415
 42
0.02461880
  0
VERTEX
  8
0
 10
2957.15829200
 20
-656.70357392
 42
0.03838434
  0
VERTEX
  8
0
 10
2953.99401032
 20
-657.88087410
 42
0.10700312
  0
VERTEX
  8
0
 10
2946.58173236
 20
-663.46954501
 42
0.10739043
  0
VERTEX
  8
0
 10
2942.15741399
 20
-671.61493105
 42
0.10760126
  0
VERTEX
  8
0
 10
2941.51749978
 20
-680.85481246
 42
0.10748879
  0
VERTEX
  8
0
 10
2944.77733115
 20
-689.52841782
  0
SEQEND
  0
POLYLINE
  8
0
 66
   1
 70
    1
  0
VERTEX
  8
0
 10
3043.59754116
 20
-553.04626588
 42
0.08165260
  0
VERTEX
  8
0
 10
3043.59751943
 20
-134.78234234
 42
-0.11548535
  0
VERTEX
  8
0
 10
3044.22675749
 20
-125.40751957
 42
-0.11528472
  0
VERTEX
  8
0
 10
3048.95428107
 20
-117.27635042
 42
-0.11492902
  0
VERTEX
  8
0
 10
3056.80651679
 20
-112.06712042
 42
-0.11469542
  0
VERTEX
  8
0
 10
3066.16305058
 20
-110.85724656
 42
0.04992635
  0
VERTEX
  8
0
 10
3826.43693231
 20
-110.85730327
 42
-0.11469540
  0
VERTEX
  8
0
 10
3835.79346404
 20
-112.06717762
 42
-0.11492901
  0
VERTEX
  8
0
 10
3843.64569788
 20
-117.27640738
 42
-0.11528470
  0
VERTEX
  8
0
 10
3848.37322150
 20
-125.40757419
 42
-0.11548531
  0
VERTEX
  8
0
 10
3849.00246037
 20
-134.78239696
 42
0.08165256
  0
VERTEX
  8
0
 10
3849.00246496
 20
-553.04612759
 42
-0.11548531
  0
VERTEX
  8
0
 10
3848.37322662
 20
-562.42094109
 42
-0.11528470
  0
VERTEX
  8
0
 10
3843.64570317
 20
-570.55210926
 42
-0.11492900
  0
VERTEX
  8
0
 10
3835.79347061
 20
-575.76133831
 42
-0.11469540
  0
VERTEX
  8
0
 10
3826.43693884
 20
-576.97121398
 42
0.04992635
  0
VERTEX
  8
0
 10
3066.16307475
 20
-576.97135222
 42
-0.11469542
  0
VERTEX
  8
0
 10
3056.80654135
 20
-575.76147965
 42
-0.11492902
  0
VERTEX
  8
0
 10
3048.95430561
 20
-570.55225120
 42
-0.11528472
  0
VERTEX
  8
0
 10
3044.22678071
 20
-562.42108250
 42
-0.11548535
  0
VERTEX
  8
0
 10
3043.59754116
 20
-553.04626588
  0
SEQEND
  0
POLYLINE
  8
0
 66
   1
 70
    0
  0
VERTEX
  8
0
 10
3936.36493213
 20
-426.12911693
 42
-0.14718675
  0
VERTEX
  8
0
 10
3936.89670581
 20
-474.01179548
 42
-0.27775941
  0
VERTEX
  8
0
 10
3918.21533612
 20
-490.93226879
 42
-0.27775941
  0
VERTEX
  8
0
 10
3894.51891456
 20
-482.34299691
 42
-0.10769303
  0
VERTEX
  8
0
 10
3889.53063818
 20
-470.48869053
 42
-0.10465372
  0
VERTEX
  8
0
 10
3889.82201280
 20
-457.44581723
 42
-0.09396376
  0
VERTEX
  8
0
 10
3892.80418627
 20
-450.31915600
 42
-0.10011181
  0
VERTEX
  8
0
 10
3898.08056415
 20
-445.01070171
 42
-0.10661142
  0
VERTEX
  8
0
 10
3904.82733801
 20
-442.34926968
 42
-0.10892948
  0
VERTEX
  8
0
 10
3911.99112387
 20
-442.75039117
 42
-0.10516118
  0
VERTEX
  8
0
 10
3918.45343347
 20
-446.15144040
 42
-0.09874863
  0
VERTEX
  8
0
 10
3921.65106251
 20
-451.10749774
 42
-0.09407779
  0
VERTEX
  8
0
 10
3922.79234673
 20
-457.04127095
 42
-0.09403316
  0
VERTEX
  8
0
 10
3921.69096392
 20
-462.98403598
 42
-0.09863211
  0
VERTEX
  8
0
 10
3918.52672328
 20
-467.96559946
 42
-0.10578222
  0
VERTEX
  8
0
 10
3913.81620532
 20
-471.17269011
 42
-0.11101337
  0
VERTEX
  8
0
 10
3908.32843069
 20
-472.08173036
 42
-0.10801372
  0
VERTEX
  8
0
 10
3905.57941666
 20
-470.70620372
 42
-0.10088471
  0
VERTEX
  8
0
 10
3903.55417220
 20
-468.25354216
 42
-0.09513339
  0
VERTEX
  8
0
 10
3902.58410900
 20
-465.12509963
 42
-0.09364326
  0
VERTEX
  8
0
 10
3902.82796682
 20
-461.83281680
 42
-0.09700519
  0
VERTEX
  8
0
 10
3904.24584119
 20
-458.91544181
 42
-0.10379522
  0
VERTEX
  8
0
 10
3906.60571149
 20
-456.85037534
 42
-0.11013801
  0
VERTEX
  8
0
 10
3909.52140782
 20
-455.97554458
 42
0.11015127
  0
VERTEX
  8
0
 10
3906.60552362
 20
-456.85652267
 42
0.10379120
  0
VERTEX
  8
0
 10
3904.24793465
 20
-458.92762089
 42
0.09700650
  0
VERTEX
  8
0
 10
3902.83465899
 20
-461.84972943
 42
0.09366562
  0
VERTEX
  8
0
 10
3902.59710003
 20
-465.14439972
 42
0.09518290
  0
VERTEX
  8
0
 10
3903.57415379
 20
-468.27218027
 42
0.10095598
  0
VERTEX
  8
0
 10
3905.60584221
 20
-470.72094588
 42
0.10808344
  0
VERTEX
  8
0
 10
3908.35950886
 20
-472.08975008
 42
0.13892323
  0
VERTEX
  8
0
 10
3915.65344545
 20
-473.02119347
 42
0.13549232
  0
VERTEX
  8
0
 10
3922.44308270
 20
-469.96456775
 42
0.12456785
  0
VERTEX
  8
0
 10
3927.01838582
 20
-463.68971268
 42
0.12464025
  0
VERTEX
  8
0
 10
3927.12061433
 20
-431.04355609
  0
SEQEND
  0
POLYLINE
  8
0
 66
   1
 70
    0
  0
VERTEX
  8
0
 10
2965.47937636
 20
-256.78505367
 42
-0.12464025
  0
VERTEX
  8
0
 10
2965.58160045
 20
-224.13889812
 42
-0.12456786
  0
VERTEX
  8
0
 10
2970.15690286
 20
-217.86404263
 42
-0.13549232
  0
VERTEX
  8
0
 10
2976.94653964
 20
-214.80741576
 42
-0.13892324
  0
VERTEX
  8
0
 10
2984.24047684
 20
-215.73885837
 42
-0.10808344
  0
VERTEX
  8
0
 10
2986.99414388
 20
-217.10766238
 42
-0.10095598
  0
VERTEX
  8
0
 10
2989.02583281
 20
-219.55642799
 42
-0.09518290
  0
VERTEX
  8
0
 10
2990.00288686
 20
-222.68420836
 42
-0.09366562
  0
VERTEX
  8
0
 10
2989.76532735
 20
-225.97887803
 42
-0.09700650
  0
VERTEX
  8
0
 10
2988.35205283
 20
-228.90098747
 42
-0.10379120
  0
VERTEX
  8
0
 10
2985.99446413
 20
-230.97208636
 42
-0.11015127
  0
VERTEX
  8
0
 10
2983.07857923
 20
-231.85306425
 42
0.11013801
  0
VERTEX
  8
0
 10
2985.99427615
 20
-230.97823230
 42
0.10379522
  0
VERTEX
  8
0
 10
2988.35414629
 20
-228.91316555
 42
0.09700519
  0
VERTEX
  8
0
 10
2989.77202041
 20
-225.99579035
 42
0.09364326
  0
VERTEX
  8
0
 10
2990.01587789
 20
-222.70350744
 42
0.09513339
  0
VERTEX
  8
0
 10
2989.04581437
 20
-219.57506604
 42
0.10088471
  0
VERTEX
  8
0
 10
2987.02056970
 20
-217.12240476
 42
0.10801372
  0
VERTEX
  8
0
 10
2984.27155546
 20
-215.74687842
 42
0.11101337
  0
VERTEX
  8
0
 10
2978.78378145
 20
-216.65591839
 42
0.10578222
  0
VERTEX
  8
0
 10
2974.07326374
 20
-219.86300957
 42
0.09863211
  0
VERTEX
  8
0
 10
2970.90902241
 20
-224.84457374
 42
0.09403316
  0
VERTEX
  8
0
 10
2969.80764128
 20
-230.78733874
 42
0.09407779
  0
VERTEX
  8
0
 10
2970.94892511
 20
-236.72111183
 42
0.09874863
  0
VERTEX
  8
0
 10
2974.14655563
 20
-241.67716873
 42
0.10516118
  0
VERTEX
  8
0
 10
2980.60886490
 20
-245.07821733
 42
0.10892948
  0
VERTEX
  8
0
 10
2987.77265171
 20
-245.47933804
 42
0.10661142
  0
VERTEX
  8
0
 10
2994.51942435
 20
-242.81790630
 42
0.10011181
  0
VERTEX
  8
0
 10
2999.79580181
 20
-237.50945134
 42
0.09396375
  0
VERTEX
  8
0
 10
3002.77797465
 20
-230.38278965
 42
0.10465372
  0
VERTEX
  8
0
 10
3003.06934821
 20
-217.33991523
 42
0.10769303
  0
VERTEX
  8
0
 10
2998.08106962
 20
-205.48560950
 42
0.27775941
  0
VERTEX
  8
0
 10
2974.38464695
 20
-196.89634078
 42
0.27775941
  0
VERTEX
  8
0
 10
2955.70327932
 20
-213.81681638
 42
0.14718674
  0
VERTEX
  8
0
 10
2956.23505847
 20
-261.69949438
  0
SEQEND
  0
POLYLINE
  8
0
 66
   1
 70
    1
  0
VERTEX
  8
0
 10
3004.21673700
 20
-73.57259900
  0
VERTEX
  8
0
 10
3888.38323400
 20
-73.57266600
  0
VERTEX
  8
0
 10
3888.38326300
 20
-614.25584700
  0
VERTEX
  8
0
 10
3004.21676600
 20
-614.25600700
  0
VERTEX
  8
0
 10
3004.21673700
 20
-73.57259900
  0
SEQEND
  0
POLYLINE
  8
0
 66
   1
 70
    1
  0
VERTEX
  8
0
 10
2967.19165700
 20
-336.03238300
  0
VERTEX
  8
0
 10
2966.18166700
 20
-336.07206400
  0
VERTEX
  8
0
 10
2965.20085200
 20
-336.18853100
  0
VERTEX
  8
0
 10
2964.25417700
 20
-336.37792100
  0
VERTEX
  8
0
 10
2963.34660900
 20
-336.63637200
  0
VERTEX
  8
0
 10
2962.48311200
 20
-336.96001800
  0
VERTEX
  8
0
 10
2961.66865200
 20
-337.34499800
  0
VERTEX
  8
0
 10
2960.90819300
 20
-337.78744700
  0
VERTEX
  8
0
 10
2960.20670200
 20
-338.28350300
  0
VERTEX
  8
0
 10
2959.56914400
 20
-338.82930200
  0
VERTEX
  8
0
 10
2959.00048400
 20
-339.42098100
  0
VERTEX
  8
0
 10
2958.50568700
 20
-340.05467700
  0
VERTEX
  8
0
 10
2958.08971900
 20
-340.72652600
  0
VERTEX
  8
0
 10
2957.75754500
 20
-341.43266500
  0
VERTEX
  8
0
 10
2957.51413000
 20
-342.16923000
  0
VERTEX
  8
0
 10
2957.31343900
 20
-343.71818800
  0
VERTEX
  8
0
 10
2957.36444000
 20
-344.50401700
  0
VERTEX
  8
0
 10
2957.51413000
 20
-345.26714600
  0
VERTEX
  8
0
 10
2957.75754500
 20
-346.00371100
  0
VERTEX
  8
0
 10
2958.08971900
 20
-346.70985000
  0
VERTEX
  8
0
 10
2958.50568700
 20
-347.38169900
  0
VERTEX
  8
0
 10
2959.00048400
 20
-348.01539500
  0
VERTEX
  8
0
 10
2959.56914400
 20
-348.60707400
  0
VERTEX
  8
0
 10
2960.20670200
 20
-349.15287300
  0
VERTEX
  8
0
 10
2960.90819300
 20
-349.64892900
  0
VERTEX
  8
0
 10
2961.66865200
 20
-350.09137800
  0
VERTEX
  8
0
 10
2962.48311200
 20
-350.47635800
  0
VERTEX
  8
0
 10
2963.34660900
 20
-350.80000400
  0
VERTEX
  8
0
 10
2964.25417700
 20
-351.05845400
  0
VERTEX
  8
0
 10
2965.20085200
 20
-351.24784500
  0
VERTEX
  8
0
 10
2967.19165700
 20
-351.40399300
  0
VERTEX
  8
0
 10
2968.20164800
 20
-351.36431200
  0
VERTEX
  8
0
 10
2969.18246300
 20
-351.24784500
  0
VERTEX
  8
0
 10
2970.12913700
 20
-351.05845400
  0
VERTEX
  8
0
 10
2971.03670500
 20
-350.80000400
  0
VERTEX
  8
0
 10
2971.90020200
 20
-350.47635800
  0
VERTEX
  8
0
 10
2972.71466300
 20
-350.09137800
  0
VERTEX
  8
0
 10
2973.47512100
 20
-349.64892900
  0
VERTEX
  8
0
 10
2974.17661200
 20
-349.15287300
  0
VERTEX
  8
0
 10
2974.81417000
 20
-348.60707400
  0
VERTEX
  8
0
 10
2975.38283100
 20
-348.01539500
  0
VERTEX
  8
0
 10
2975.87762700
 20
-347.38169900
  0
VERTEX
  8
0
 10
2976.29359600
 20
-346.70985000
  0
VERTEX
  8
0
 10
2976.62577000
 20
-346.00371100
  0
VERTEX
  8
0
 10
2976.86918500
 20
-345.26714600
  0
VERTEX
  8
0
 10
2977.06987500
 20
-343.71818800
  0
VERTEX
  8
0
 10
2977.01887500
 20
-342.93235900
  0
VERTEX
  8
0
 10
2976.86918500
 20
-342.16923000
  0
VERTEX
  8
0
 10
2976.62577000
 20
-341.43266500
  0
VERTEX
  8
0
 10
2976.29359600
 20
-340.72652600
  0
VERTEX
  8
0
 10
2975.87762700
 20
-340.05467700
  0
VERTEX
  8
0
 10
2975.38283100
 20
-339.42098100
  0
VERTEX
  8
0
 10
2974.81417000
 20
-338.82930200
  0
VERTEX
  8
0
 10
2974.17661200
 20
-338.28350300
  0
VERTEX
  8
0
 10
2973.47512100
 20
-337.78744700
  0
VERTEX
  8
0
 10
2972.71466300
 20
-337.34499800
  0
VERTEX
  8
0
 10
2971.90020200
 20
-336.96001800
  0
VERTEX
  8
0
 10
2971.03670500
 20
-336.63637200
  0
VERTEX
  8
0
 10
2970.12913700
 20
-336.37792100
  0
VERTEX
  8
0
 10
2969.18246300
 20
-336.18853100
  0
VERTEX
  8
0
 10
2967.19165700
 20
-336.03238300
  0
SEQEND
  0
POLYLINE
  8
0
 66
   1
 70
    1
  0
VERTEX
  8
0
 10
2941.28723600
 20
-343.91429200
  0
VERTEX
  8
0
 10
2941.31367200
 20
-343.44386100
  0
VERTEX
  8
0
 10
2941.47520700
 20
-342.30158700
  0
VERTEX
  8
0
 10
2941.69859000
 20
-341.17760000
  0
VERTEX
  8
0
 10
2941.98222400
 20
-340.07333400
  0
VERTEX
  8
0
 10
2942.32451400
 20
-338.99022300
  0
VERTEX
  8
0
 10
2942.72386300
 20
-337.92970200
  0
VERTEX
  8
0
 10
2943.17867600
 20
-336.89320500
  0
VERTEX
  8
0
 10
2943.68735700
 20
-335.88216500
  0
VERTEX
  8
0
 10
2944.24830900
 20
-334.89801700
  0
VERTEX
  8
0
 10
2944.85993600
 20
-333.94219500
  0
VERTEX
  8
0
 10
2945.52064400
 20
-333.01613300
  0
VERTEX
  8
0
 10
2946.22883400
 20
-332.12126600
  0
VERTEX
  8
0
 10
2946.98291300
 20
-331.25902600
  0
VERTEX
  8
0
 10
2947.78128300
 20
-330.43084900
  0
VERTEX
  8
0
 10
2948.62234800
 20
-329.63816800
  0
VERTEX
  8
0
 10
2949.50451400
 20
-328.88241800
  0
VERTEX
  8
0
 10
2950.42618200
 20
-328.16503200
  0
VERTEX
  8
0
 10
2951.38575900
 20
-327.48744500
  0
VERTEX
  8
0
 10
2952.38164600
 20
-326.85109100
  0
VERTEX
  8
0
 10
2953.41225000
 20
-326.25740400
  0
VERTEX
  8
0
 10
2954.47597300
 20
-325.70781800
  0
VERTEX
  8
0
 10
2955.57122000
 20
-325.20376800
  0
VERTEX
  8
0
 10
2956.69639400
 20
-324.74668600
  0
VERTEX
  8
0
 10
2957.84990000
 20
-324.33800800
  0
VERTEX
  8
0
 10
2959.03014100
 20
-323.97916800
  0
VERTEX
  8
0
 10
2960.23552200
 20
-323.67159900
  0
VERTEX
  8
0
 10
2961.46444700
 20
-323.41673600
  0
VERTEX
  8
0
 10
2962.71531900
 20
-323.21601300
  0
VERTEX
  8
0
 10
2963.98654200
 20
-323.07086300
  0
VERTEX
  8
0
 10
2965.27652200
 20
-322.98272200
  0
VERTEX
  8
0
 10
2966.58366100
 20
-322.95302300
  0
VERTEX
  8
0
 10
2969.18077900
 20
-323.07086300
  0
VERTEX
  8
0
 10
2970.45200200
 20
-323.21601300
  0
VERTEX
  8
0
 10
2971.70287500
 20
-323.41673600
  0
VERTEX
  8
0
 10
2972.93179900
 20
-323.67159900
  0
VERTEX
  8
0
 10
2974.13718000
 20
-323.97916800
  0
VERTEX
  8
0
 10
2975.31742100
 20
-324.33800800
  0
VERTEX
  8
0
 10
2976.47092700
 20
-324.74668600
  0
VERTEX
  8
0
 10
2977.59610100
 20
-325.20376800
  0
VERTEX
  8
0
 10
2978.69134800
 20
-325.70781800
  0
VERTEX
  8
0
 10
2979.75507100
 20
-326.25740400
  0
VERTEX
  8
0
 10
2980.78567500
 20
-326.85109100
  0
VERTEX
  8
0
 10
2981.78156300
 20
-327.48744500
  0
VERTEX
  8
0
 10
2982.74113900
 20
-328.16503200
  0
VERTEX
  8
0
 10
2983.66280800
 20
-328.88241800
  0
VERTEX
  8
0
 10
2984.54497300
 20
-329.63816800
  0
VERTEX
  8
0
 10
2985.38603800
 20
-330.43084900
  0
VERTEX
  8
0
 10
2986.18440800
 20
-331.25902600
  0
VERTEX
  8
0
 10
2986.93848700
 20
-332.12126600
  0
VERTEX
  8
0
 10
2987.64667800
 20
-333.01613300
  0
VERTEX
  8
0
 10
2988.30738500
 20
-333.94219500
  0
VERTEX
  8
0
 10
2988.91901300
 20
-334.89801700
  0
VERTEX
  8
0
 10
2989.47996500
 20
-335.88216500
  0
VERTEX
  8
0
 10
2989.98864500
 20
-336.89320500
  0
VERTEX
  8
0
 10
2990.44345800
 20
-337.92970200
  0
VERTEX
  8
0
 10
2990.84280700
 20
-338.99022300
  0
VERTEX
  8
0
 10
2991.18509700
 20
-340.07333400
  0
VERTEX
  8
0
 10
2991.46873100
 20
-341.17760000
  0
VERTEX
  8
0
 10
2991.69211400
 20
-342.30158700
  0
VERTEX
  8
0
 10
2991.85364900
 20
-343.44386100
  0
VERTEX
  8
0
 10
2991.89345800
 20
-343.91428000
  0
VERTEX
  8
0
 10
2991.85364900
 20
-344.38470000
  0
VERTEX
  8
0
 10
2991.69211500
 20
-345.52697400
  0
VERTEX
  8
0
 10
2991.46873300
 20
-346.65096100
  0
VERTEX
  8
0
 10
2991.18509900
 20
-347.75522700
  0
VERTEX
  8
0
 10
2990.84281000
 20
-348.83833800
  0
VERTEX
  8
0
 10
2990.44346100
 20
-349.89885900
  0
VERTEX
  8
0
 10
2989.98864900
 20
-350.93535700
  0
VERTEX
  8
0
 10
2989.47996900
 20
-351.94639700
  0
VERTEX
  8
0
 10
2988.91901700
 20
-352.93054500
  0
VERTEX
  8
0
 10
2988.30739000
 20
-353.88636700
  0
VERTEX
  8
0
 10
2987.64668300
 20
-354.81243000
  0
VERTEX
  8
0
 10
2986.93849300
 20
-355.70729800
  0
VERTEX
  8
0
 10
2986.18441500
 20
-356.56953800
  0
VERTEX
  8
0
 10
2985.38604500
 20
-357.39771500
  0
VERTEX
  8
0
 10
2984.54498000
 20
-358.19039700
  0
VERTEX
  8
0
 10
2983.66281500
 20
-358.94614700
  0
VERTEX
  8
0
 10
2982.74114700
 20
-359.66353300
  0
VERTEX
  8
0
 10
2981.78157100
 20
-360.34112100
  0
VERTEX
  8
0
 10
2980.78568300
 20
-360.97747500
  0
VERTEX
  8
0
 10
2979.75508000
 20
-361.57116200
  0
VERTEX
  8
0
 10
2978.69135700
 20
-362.12074900
  0
VERTEX
  8
0
 10
2977.59611100
 20
-362.62480000
  0
VERTEX
  8
0
 10
2976.47093600
 20
-363.08188200
  0
VERTEX
  8
0
 10
2975.31743100
 20
-363.49056000
  0
VERTEX
  8
0
 10
2974.13719000
 20
-363.84940100
  0
VERTEX
  8
0
 10
2972.93180900
 20
-364.15697100
  0
VERTEX
  8
0
 10
2971.70288400
 20
-364.41183400
  0
VERTEX
  8
0
 10
2970.45201200
 20
-364.61255800
  0
VERTEX
  8
0
 10
2969.18078900
 20
-364.75770800
  0
VERTEX
  8
0
 10
2966.58367100
 20
-364.87555000
  0
VERTEX
  8
0
 10
2965.27653200
 20
-364.84585100
  0
VERTEX
  8
0
 10
2963.98655300
 20
-364.75771100
  0
VERTEX
  8
0
 10
2962.71532900
 20
-364.61256200
  0
VERTEX
  8
0
 10
2961.46445700
 20
-364.41183900
  0
VERTEX
  8
0
 10
2960.23553200
 20
-364.15697700
  0
VERTEX
  8
0
 10
2959.03015100
 20
-363.84940900
  0
VERTEX
  8
0
 10
2957.84990900
 20
-363.49056900
  0
VERTEX
  8
0
 10
2956.69640300
 20
-363.08189100
  0
VERTEX
  8
0
 10
2955.57122900
 20
-362.62481000
  0
VERTEX
  8
0
 10
2954.47598200
 20
-362.12076000
  0
VERTEX
  8
0
 10
2953.41225800
 20
-361.57117500
  0
VERTEX
  8
0
 10
2952.38165500
 20
-360.97748800
  0
VERTEX
  8
0
 10
2951.38576600
 20
-360.34113500
  0
VERTEX
  8
0
 10
2950.42619000
 20
-359.66354900
  0
VERTEX
  8
0
 10
2949.50452100
 20
-358.94616300
  0
VERTEX
  8
0
 10
2948.62235500
 20
-358.19041400
  0
VERTEX
  8
0
 10
2947.78128900
 20
-357.39773300
  0
VERTEX
  8
0
 10
2946.98291900
 20
-356.56955600
  0
VERTEX
  8
0
 10
2946.22884000
 20
-355.70731700
  0
VERTEX
  8
0
 10
2945.52064900
 20
-354.81244900
  0
VERTEX
  8
0
 10
2944.85994100
 20
-353.88638800
  0
VERTEX
  8
0
 10
2944.24831300
 20
-352.93056600
  0
VERTEX
  8
0
 10
2943.68736000
 20
-351.94641800
  0
VERTEX
  8
0
 10
2943.17867900
 20
-350.93537900
  0
VERTEX
  8
0
 10
2942.72386600
 20
-349.89888200
  0
VERTEX
  8
0
 10
2942.32451600
 20
-348.83836100
  0
VERTEX
  8
0
 10
2941.98222600
 20
-347.75525100
  0
VERTEX
  8
0
 10
2941.69859100
 20
-346.65098500
  0
VERTEX
  8
0
 10
2941.47520800
 20
-345.52699800
  0
VERTEX
  8
0
 10
2941.31367300
 20
-344.38472300
  0
VERTEX
  8
0
 10
2941.28723600
 20
-343.91429200
  0
SEQEND
  0
POLYLINE
  8
0
 66
   1
 70
    1
  0
VERTEX
  8
0
 10
3651.47374069
 20
-672.49151029
 42
0.11490586
  0
VERTEX
  8
0
 10
3651.38474508
 20
-676.75915230
 42
0.11141328
  0
VERTEX
  8
0
 10
3653.20194323
 20
-680.69497263
 42
0.10343829
  0
VERTEX
  8
0
 10
3656.61488964
 20
-683.62658782
 42
0.09683609
  0
VERTEX
  8
0
 10
3661.04052523
 20
-685.05316857
 42
0.09504840
  0
VERTEX
  8
0
 10
3665.72278848
 20
-684.73100182
 42
0.09878702
  0
VERTEX
  8
0
 10
3669.86177366
 20
-682.71512539
 42
0.10645654
  0
VERTEX
  8
0
 10
3672.75038685
 20
-679.34992588
  0
VERTEX
  8
0
 10
3683.41386200
 20
-651.64193700
 42
0.12039677
  0
VERTEX
  8
0
 10
3683.82235132
 20
-647.03912197
 42
0.11756233
  0
VERTEX
  8
0
 10
3682.05125713
 20
-642.71109135
 42
0.10895277
  0
VERTEX
  8
0
 10
3678.43288668
 20
-639.46989964
 42
0.10160127
  0
VERTEX
  8
0
 10
3673.64614395
 20
-637.92368520
 42
0.09977593
  0
VERTEX
  8
0
 10
3668.58915283
 20
-638.36255787
 42
0.10428403
  0
VERTEX
  8
0
 10
3664.21074413
 20
-640.70417564
 42
0.11294929
  0
VERTEX
  8
0
 10
3661.33242644
 20
-644.50918423
  0
VERTEX
  8
0
 10
3651.47374069
 20
-672.49151029
  0
SEQEND
  0
POLYLINE
  8
0
 66
   1
 70
    1
  0
VERTEX
  8
0
 10
3925.40834300
 20
-336.03238300
  0
VERTEX
  8
0
 10
3926.41833300
 20
-336.07206400
  0
VERTEX
  8
0
 10
3927.39914800
 20
-336.18853100
  0
VERTEX
  8
0
 10
3928.34582200
 20
-336.37792100
  0
VERTEX
  8
0
 10
3929.25339100
 20
-336.63637200
  0
VERTEX
  8
0
 10
3930.11688800
 20
-336.96001800
  0
VERTEX
  8
0
 10
3930.93134800
 20
-337.34499800
  0
VERTEX
  8
0
 10
3931.69180600
 20
-337.78744700
  0
VERTEX
  8
0
 10
3932.39329700
 20
-338.28350300
  0
VERTEX
  8
0
 10
3933.03085600
 20
-338.82930200
  0
VERTEX
  8
0
 10
3933.59951600
 20
-339.42098100
  0
VERTEX
  8
0
 10
3934.09431300
 20
-340.05467700
  0
VERTEX
  8
0
 10
3934.51028100
 20
-340.72652600
  0
VERTEX
  8
0
 10
3934.84245500
 20
-341.43266500
  0
VERTEX
  8
0
 10
3935.08587000
 20
-342.16923000
  0
VERTEX
  8
0
 10
3935.28656000
 20
-343.71818800
  0
VERTEX
  8
0
 10
3935.23556000
 20
-344.50401700
  0
VERTEX
  8
0
 10
3935.08587000
 20
-345.26714600
  0
VERTEX
  8
0
 10
3934.84245500
 20
-346.00371100
  0
VERTEX
  8
0
 10
3934.51028100
 20
-346.70985000
  0
VERTEX
  8
0
 10
3934.09431300
 20
-347.38169900
  0
VERTEX
  8
0
 10
3933.59951600
 20
-348.01539500
  0
VERTEX
  8
0
 10
3933.03085600
 20
-348.60707400
  0
VERTEX
  8
0
 10
3932.39329700
 20
-349.15287300
  0
VERTEX
  8
0
 10
3931.69180600
 20
-349.64892900
  0
VERTEX
  8
0
 10
3930.93134800
 20
-350.09137800
  0
VERTEX
  8
0
 10
3930.11688800
 20
-350.47635800
  0
VERTEX
  8
0
 10
3929.25339100
 20
-350.80000400
  0
VERTEX
  8
0
 10
3928.34582200
 20
-351.05845400
  0
VERTEX
  8
0
 10
3927.39914800
 20
-351.24784500
  0
VERTEX
  8
0
 10
3925.40834300
 20
-351.40399300
  0
VERTEX
  8
0
 10
3924.39835200
 20
-351.36431200
  0
VERTEX
  8
0
 10
3923.41753700
 20
-351.24784500
  0
VERTEX
  8
0
 10
3922.47086300
 20
-351.05845400
  0
VERTEX
  8
0
 10
3921.56329500
 20
-350.80000400
  0
VERTEX
  8
0
 10
3920.69979800
 20
-350.47635800
  0
VERTEX
  8
0
 10
3919.88533700
 20
-350.09137800
  0
VERTEX
  8
0
 10
3919.12487900
 20
-349.64892900
  0
VERTEX
  8
0
 10
3918.42338800
 20
-349.15287300
  0
VERTEX
  8
0
 10
3917.78583000
 20
-348.60707400
  0
VERTEX
  8
0
 10
3917.21716900
 20
-348.01539500
  0
VERTEX
  8
0
 10
3916.72237200
 20
-347.38169900
  0
VERTEX
  8
0
 10
3916.30640400
 20
-346.70985000
  0
VERTEX
  8
0
 10
3915.97423000
 20
-346.00371100
  0
VERTEX
  8
0
 10
3915.73081500
 20
-345.26714600
  0
VERTEX
  8
0
 10
3915.53012500
 20
-343.71818800
  0
VERTEX
  8
0
 10
3915.58112500
 20
-342.93235900
  0
VERTEX
  8
0
 10
3915.73081500
 20
-342.16923000
  0
VERTEX
  8
0
 10
3915.97423000
 20
-341.43266500
  0
VERTEX
  8
0
 10
3916.30640400
 20
-340.72652600
  0
VERTEX
  8
0
 10
3916.72237200
 20
-340.05467700
  0
VERTEX
  8
0
 10
3917.21716900
 20
-339.42098100
  0
VERTEX
  8
0
 10
3917.78583000
 20
-338.82930200
  0
VERTEX
  8
0
 10
3918.42338800
 20
-338.28350300
  0
VERTEX
  8
0
 10
3919.12487900
 20
-337.78744700
  0
VERTEX
  8
0
 10
3919.88533700
 20
-337.34499800
  0
VERTEX
  8
0
 10
3920.69979800
 20
-336.96001800
  0
VERTEX
  8
0
 10
3921.56329500
 20
-336.63637200
  0
VERTEX
  8
0
 10
3922.47086300
 20
-336.37792100
  0
VERTEX
  8
0
 10
3923.41753700
 20
-336.18853100
  0
VERTEX
  8
0
 10
3925.40834300
 20
-336.03238300
  0
SEQEND
  0
POLYLINE
  8
0
 66
   1
 70
    1
  0
VERTEX
  8
0
 10
3951.31276400
 20
-343.91429200
  0
VERTEX
  8
0
 10
3951.28632800
 20
-343.44386100
  0
VERTEX
  8
0
 10
3951.12479300
 20
-342.30158700
  0
VERTEX
  8
0
 10
3950.90141000
 20
-341.17760000
  0
VERTEX
  8
0
 10
3950.61777600
 20
-340.07333400
  0
VERTEX
  8
0
 10
3950.27548600
 20
-338.99022300
  0
VERTEX
  8
0
 10
3949.87613700
 20
-337.92970200
  0
VERTEX
  8
0
 10
3949.42132400
 20
-336.89320500
  0
VERTEX
  8
0
 10
3948.91264300
 20
-335.88216500
  0
VERTEX
  8
0
 10
3948.35169100
 20
-334.89801700
  0
VERTEX
  8
0
 10
3947.74006400
 20
-333.94219500
  0
VERTEX
  8
0
 10
3947.07935600
 20
-333.01613300
  0
VERTEX
  8
0
 10
3946.37116600
 20
-332.12126600
  0
VERTEX
  8
0
 10
3945.61708700
 20
-331.25902600
  0
VERTEX
  8
0
 10
3944.81871700
 20
-330.43084900
  0
VERTEX
  8
0
 10
3943.97765200
 20
-329.63816800
  0
VERTEX
  8
0
 10
3943.09548600
 20
-328.88241800
  0
VERTEX
  8
0
 10
3942.17381800
 20
-328.16503200
  0
VERTEX
  8
0
 10
3941.21424100
 20
-327.48744500
  0
VERTEX
  8
0
 10
3940.21835300
 20
-326.85109100
  0
VERTEX
  8
0
 10
3939.18775000
 20
-326.25740400
  0
VERTEX
  8
0
 10
3938.12402700
 20
-325.70781800
  0
VERTEX
  8
0
 10
3937.02878000
 20
-325.20376800
  0
VERTEX
  8
0
 10
3935.90360600
 20
-324.74668600
  0
VERTEX
  8
0
 10
3934.75010000
 20
-324.33800800
  0
VERTEX
  8
0
 10
3933.56985900
 20
-323.97916800
  0
VERTEX
  8
0
 10
3932.36447800
 20
-323.67159900
  0
VERTEX
  8
0
 10
3931.13555300
 20
-323.41673600
  0
VERTEX
  8
0
 10
3929.88468100
 20
-323.21601300
  0
VERTEX
  8
0
 10
3928.61345700
 20
-323.07086300
  0
VERTEX
  8
0
 10
3927.32347800
 20
-322.98272200
  0
VERTEX
  8
0
 10
3926.01633900
 20
-322.95302300
  0
VERTEX
  8
0
 10
3923.41922100
 20
-323.07086300
  0
VERTEX
  8
0
 10
3922.14799700
 20
-323.21601300
  0
VERTEX
  8
0
 10
3920.89712500
 20
-323.41673600
  0
VERTEX
  8
0
 10
3919.66820100
 20
-323.67159900
  0
VERTEX
  8
0
 10
3918.46282000
 20
-323.97916800
  0
VERTEX
  8
0
 10
3917.28257800
 20
-324.33800800
  0
VERTEX
  8
0
 10
3916.12907300
 20
-324.74668600
  0
VERTEX
  8
0
 10
3915.00389800
 20
-325.20376800
  0
VERTEX
  8
0
 10
3913.90865200
 20
-325.70781800
  0
VERTEX
  8
0
 10
3912.84492900
 20
-326.25740400
  0
VERTEX
  8
0
 10
3911.81432500
 20
-326.85109100
  0
VERTEX
  8
0
 10
3910.81843700
 20
-327.48744500
  0
VERTEX
  8
0
 10
3909.85886100
 20
-328.16503200
  0
VERTEX
  8
0
 10
3908.93719200
 20
-328.88241800
  0
VERTEX
  8
0
 10
3908.05502700
 20
-329.63816800
  0
VERTEX
  8
0
 10
3907.21396100
 20
-330.43084900
  0
VERTEX
  8
0
 10
3906.41559100
 20
-331.25902600
  0
VERTEX
  8
0
 10
3905.66151300
 20
-332.12126600
  0
VERTEX
  8
0
 10
3904.95332200
 20
-333.01613300
  0
VERTEX
  8
0
 10
3904.29261500
 20
-333.94219500
  0
VERTEX
  8
0
 10
3903.68098700
 20
-334.89801700
  0
VERTEX
  8
0
 10
3903.12003500
 20
-335.88216500
  0
VERTEX
  8
0
 10
3902.61135500
 20
-336.89320500
  0
VERTEX
  8
0
 10
3902.15654200
 20
-337.92970200
  0
VERTEX
  8
0
 10
3901.75719300
 20
-338.99022300
  0
VERTEX
  8
0
 10
3901.41490300
 20
-340.07333400
  0
VERTEX
  8
0
 10
3901.13126900
 20
-341.17760000
  0
VERTEX
  8
0
 10
3900.90788600
 20
-342.30158700
  0
VERTEX
  8
0
 10
3900.74635100
 20
-343.44386100
  0
VERTEX
  8
0
 10
3900.70654200
 20
-343.91428000
  0
VERTEX
  8
0
 10
3900.74635100
 20
-344.38470000
  0
VERTEX
  8
0
 10
3900.90788500
 20
-345.52697400
  0
VERTEX
  8
0
 10
3901.13126700
 20
-346.65096100
  0
VERTEX
  8
0
 10
3901.41490100
 20
-347.75522700
  0
VERTEX
  8
0
 10
3901.75719000
 20
-348.83833800
  0
VERTEX
  8
0
 10
3902.15653900
 20
-349.89885900
  0
VERTEX
  8
0
 10
3902.61135100
 20
-350.93535700
  0
VERTEX
  8
0
 10
3903.12003100
 20
-351.94639700
  0
VERTEX
  8
0
 10
3903.68098300
 20
-352.93054500
  0
VERTEX
  8
0
 10
3904.29261000
 20
-353.88636700
  0
VERTEX
  8
0
 10
3904.95331700
 20
-354.81243000
  0
VERTEX
  8
0
 10
3905.66150700
 20
-355.70729800
  0
VERTEX
  8
0
 10
3906.41558500
 20
-356.56953800
  0
VERTEX
  8
0
 10
3907.21395500
 20
-357.39771500
  0
VERTEX
  8
0
 10
3908.05502000
 20
-358.19039700
  0
VERTEX
  8
0
 10
3908.93718500
 20
-358.94614700
  0
VERTEX
  8
0
 10
3909.85885300
 20
-359.66353300
  0
VERTEX
  8
0
 10
3910.81842900
 20
-360.34112100
  0
VERTEX
  8
0
 10
3911.81431700
 20
-360.97747500
  0
VERTEX
  8
0
 10
3912.84492000
 20
-361.57116200
  0
VERTEX
  8
0
 10
3913.90864300
 20
-362.12074900
  0
VERTEX
  8
0
 10
3915.00388900
 20
-362.62480000
  0
VERTEX
  8
0
 10
3916.12906300
 20
-363.08188200
  0
VERTEX
  8
0
 10
3917.28256900
 20
-363.49056000
  0
VERTEX
  8
0
 10
3918.46281000
 20
-363.84940100
  0
VERTEX
  8
0
 10
3919.66819100
 20
-364.15697100
  0
VERTEX
  8
0
 10
3920.89711500
 20
-364.41183400
  0
VERTEX
  8
0
 10
3922.14798800
 20
-364.61255800
  0
VERTEX
  8
0
 10
3923.41921100
 20
-364.75770800
  0
VERTEX
  8
0
 10
3926.01632900
 20
-364.87555000
  0
VERTEX
  8
0
 10
3927.32346800
 20
-364.84585100
  0
VERTEX
  8
0
 10
3928.61344700
 20
-364.75771100
  0
VERTEX
  8
0
 10
3929.88467100
 20
-364.61256200
  0
VERTEX
  8
0
 10
3931.13554300
 20
-364.41183900
  0
VERTEX
  8
0
 10
3932.36446800
 20
-364.15697700
  0
VERTEX
  8
0
 10
3933.56984900
 20
-363.84940900
  0
VERTEX
  8
0
 10
3934.75009100
 20
-363.49056900
  0
VERTEX
  8
0
 10
3935.90359700
 20
-363.08189100
  0
VERTEX
  8
0
 10
3937.02877100
 20
-362.62481000
  0
VERTEX
  8
0
 10
3938.12401800
 20
-362.12076000
  0
VERTEX
  8
0
 10
3939.18774100
 20
-361.57117500
  0
VERTEX
  8
0
 10
3940.21834500
 20
-360.97748800
  0
VERTEX
  8
0
 10
3941.21423300
 20
-360.34113500
  0
VERTEX
  8
0
 10
3942.17381000
 20
-359.66354900
  0
VERTEX
  8
0
 10
3943.09547900
 20
-358.94616300
  0
VERTEX
  8
0
 10
3943.97764500
 20
-358.19041400
  0
VERTEX
  8
0
 10
3944.81871100
 20
-357.39773300
  0
VERTEX
  8
0
 10
3945.61708100
 20
-356.56955600
  0
VERTEX
  8
0
 10
3946.37116000
 20
-355.70731700
  0
VERTEX
  8
0
 10
3947.07935100
 20
-354.81244900
  0
VERTEX
  8
0
 10
3947.74005900
 20
-353.88638800
  0
VERTEX
  8
0
 10
3948.35168700
 20
-352.93056600
  0
VERTEX
  8
0
 10
3948.91264000
 20
-351.94641800
  0
VERTEX
  8
0
 10
3949.42132000
 20
-350.93537900
  0
VERTEX
  8
0
 10
3949.87613400
 20
-349.89888200
  0
VERTEX
  8
0
 10
3950.27548400
 20
-348.83836100
  0
VERTEX
  8
0
 10
3950.61777400
 20
-347.75525100
  0
VERTEX
  8
0
 10
3950.90140900
 20
-346.65098500
  0
VERTEX
  8
0
 10
3951.12479200
 20
-345.52699800
  0
VERTEX
  8
0
 10
3951.28632700
 20
-344.38472300
  0
VERTEX
  8
0
 10
3951.31276400
 20
-343.91429200
  0
SEQEND
  0
POLYLINE
  8
0
 66
   1
 70
    1
  0
VERTEX
  8
0
 10
3241.12622459
 20
-15.33707060
 42
0.11490586
  0
VERTEX
  8
0
 10
3241.21521972
 20
-11.06942873
 42
0.11141328
  0
VERTEX
  8
0
 10
3239.39802115
 20
-7.13360755
 42
0.10343829
  0
VERTEX
  8
0
 10
3235.98507335
 20
-4.20199262
 42
0.09683609
  0
VERTEX
  8
0
 10
3231.55943751
 20
-2.77541228
 42
0.09504840
  0
VERTEX
  8
0
 10
3226.87717426
 20
-3.09757951
 42
0.09878702
  0
VERTEX
  8
0
 10
3222.73819036
 20
-5.11345636
 42
0.10645654
  0
VERTEX
  8
0
 10
3219.84957762
 20
-8.47865709
  0
VERTEX
  8
0
 10
3209.18610400
 20
-36.18664700
 42
0.12039677
  0
VERTEX
  8
0
 10
3208.77761583
 20
-40.78946104
 42
0.11756233
  0
VERTEX
  8
0
 10
3210.54871048
 20
-45.11749251
 42
0.10895277
  0
VERTEX
  8
0
 10
3214.16708135
 20
-48.35868394
 42
0.10160127
  0
VERTEX
  8
0
 10
3218.95382456
 20
-49.90489697
 42
0.09977592
  0
VERTEX
  8
0
 10
3224.01081446
 20
-49.46602375
 42
0.10428403
  0
VERTEX
  8
0
 10
3228.38922384
 20
-47.12440655
 42
0.11294929
  0
VERTEX
  8
0
 10
3231.26754102
 20
-43.31939774
  0
VERTEX
  8
0
 10
3241.12622459
 20
-15.33707060
  0
SEQEND
  0
POLYLINE
  8
0
 66
   1
 70
    1
  0
VERTEX
  8
0
 10
3156.02213276
 20
-629.88545576
 42
0.13229610
  0
VERTEX
  8
0
 10
3150.46088489
 20
-621.30391819
 42
0.09537034
  0
VERTEX
  8
0
 10
3141.73295610
 20
-616.01040617
 42
0.01203868
  0
VERTEX
  8
0
 10
3140.41652977
 20
-615.55598246
  0
VERTEX
  8
0
 10
3172.94649100
 20
-615.55597600
 42
0.07265886
  0
VERTEX
  8
0
 10
3164.74582587
 20
-619.66233761
 42
0.10230411
  0
VERTEX
  8
0
 10
3156.82003672
 20
-628.02929011
 42
0.01811656
  0
VERTEX
  8
0
 10
3156.02213276
 20
-629.88545576
  0
SEQEND
  0
POLYLINE
  8
0
 66
   1
 70
    1
  0
VERTEX
  8
0
 10
3889.68324400
 20
-505.55127400
  0
VERTEX
  8
0
 10
3889.68324400
 20
-475.91136900
 42
0.06498343
  0
VERTEX
  8
0
 10
3893.48103442
 20
-483.12698493
 42
0.13028925
  0
VERTEX
  8
0
 10
3904.12070678
 20
-490.92064423
 42
0.00412286
  0
VERTEX
  8
0
 10
3903.82858054
 20
-491.00812864
 42
0.13359748
  0
VERTEX
  8
0
 10
3895.09422330
 20
-496.58796660
 42
0.09568070
  0
VERTEX
  8
0
 10
3889.78072874
 20
-505.28746413
 42
0.00245368
  0
VERTEX
  8
0
 10
3889.68324400
 20
-505.55127400
  0
SEQEND
  0
POLYLINE
  8
0
 66
   1
 70
    1
  0
VERTEX
  8
0
 10
3889.68324400
 20
-555.35757600
  0
VERTEX
  8
0
 10
3889.68324400
 20
-525.19336200
 42
0.00502476
  0
VERTEX
  8
0
 10
3889.88552887
 20
-525.73198988
 42
0.09586436
  0
VERTEX
  8
0
 10
3895.28948573
 20
-534.36817681
 42
0.10343847
  0
VERTEX
  8
0
 10
3903.43785154
 20
-540.11982312
 42
0.00903217
  0
VERTEX
  8
0
 10
3904.71728627
 20
-540.48362228
 42
0.02422696
  0
VERTEX
  8
0
 10
3902.63061736
 20
-541.35699819
 42
0.12224423
  0
VERTEX
  8
0
 10
3893.16889548
 20
-549.17076700
 42
0.06271694
  0
VERTEX
  8
0
 10
3889.68324400
 20
-555.35757600
  0
SEQEND
  0
POLYLINE
  8
0
 66
   1
 70
    1
  0
VERTEX
  8
0
 10
3802.86067529
 20
-615.55596788
 42
0.06866254
  0
VERTEX
  8
0
 10
3795.98836177
 20
-619.28884356
 42
0.12240409
  0
VERTEX
  8
0
 10
3788.14633531
 20
-628.71836182
 42
0.04062589
  0
VERTEX
  8
0
 10
3786.80036733
 20
-632.22389083
 42
0.02189510
  0
VERTEX
  8
0
 10
3785.78247377
 20
-629.55292620
 42
0.10291693
  0
VERTEX
  8
0
 10
3780.03881908
 20
-621.49854606
 42
0.09556742
  0
VERTEX
  8
0
 10
3771.37424280
 20
-616.11477959
 42
0.01459894
  0
VERTEX
  8
0
 10
3769.78258679
 20
-615.55596406
  0
VERTEX
  8
0
 10
3802.86067529
 20
-615.55596788
  0
SEQEND
  0
POLYLINE
  8
0
 66
   1
 70
    1
  0
VERTEX
  8
0
 10
3002.91663600
 20
-182.27724100
  0
VERTEX
  8
0
 10
3002.91665800
 20
-211.91714600
 42
0.06498343
  0
VERTEX
  8
0
 10
2999.11886191
 20
-204.70153210
 42
0.13028925
  0
VERTEX
  8
0
 10
2988.47918348
 20
-196.90788022
 42
0.00412286
  0
VERTEX
  8
0
 10
2988.77130979
 20
-196.82039555
 42
0.13359748
  0
VERTEX
  8
0
 10
2997.50566396
 20
-191.24055120
 42
0.09568070
  0
VERTEX
  8
0
 10
3002.81915182
 20
-182.54104929
 42
0.00245368
  0
VERTEX
  8
0
 10
3002.91663600
 20
-182.27724100
  0
SEQEND
  0
POLYLINE
  8
0
 66
   1
 70
    1
  0
VERTEX
  8
0
 10
3002.91660100
 20
-132.47093800
  0
VERTEX
  8
0
 10
3002.91662200
 20
-162.63515200
 42
0.00502476
  0
VERTEX
  8
0
 10
3002.71433692
 20
-162.09652448
 42
0.09586436
  0
VERTEX
  8
0
 10
2997.31037451
 20
-153.46034150
 42
0.10343847
  0
VERTEX
  8
0
 10
2989.16200446
 20
-147.70870096
 42
0.00903218
  0
VERTEX
  8
0
 10
2987.88256927
 20
-147.34490297
 42
0.02422696
  0
VERTEX
  8
0
 10
2989.96923736
 20
-146.47152479
 42
0.12224423
  0
VERTEX
  8
0
 10
2999.43095410
 20
-138.65774971
 42
0.06271694
  0
VERTEX
  8
0
 10
3002.91660100
 20
-132.47093800
  0
SEQEND
  0
POLYLINE
  8
0
 66
   1
 70
    1
  0
VERTEX
  8
0
 10
3089.73912840
 20
-72.27248507
 42
0.06866254
  0
VERTEX
  8
0
 10
3096.61143931
 20
-68.53960459
 42
0.12240409
  0
VERTEX
  8
0
 10
3104.45345841
 20
-59.11008119
 42
0.04062590
  0
VERTEX
  8
0
 10
3105.79942433
 20
-55.60455028
 42
0.02189510
  0
VERTEX
  8
0
 10
3106.81732027
 20
-58.27551572
 42
0.10291693
  0
VERTEX
  8
0
 10
3112.56097937
 20
-66.32989145
 42
0.09556743
  0
VERTEX
  8
0
 10
3121.22556019
 20
-71.71365129
 42
0.01459894
  0
VERTEX
  8
0
 10
3122.81721643
 20
-72.27246606
  0
VERTEX
  8
0
 10
3089.73912840
 20
-72.27248507
  0
SEQEND
  0
POLYLINE
  8
0
 66
   1
 70
    1
  0
VERTEX
  8
0
 10
3484.05895800
 20
-72.27225400
  0
VERTEX
  8
0
 10
3408.54070400
 20
-72.27229800
 42
0.03245400
  0
VERTEX
  8
0
 10
3423.14168852
 20
-68.72519830
 42
0.10010566
  0
VERTEX
  8
0
 10
3434.04753596
 20
-62.72906746
 42
0.06382879
  0
VERTEX
  8
0
 10
3441.02334660
 20
-55.10498493
 42
0.08563647
  0
VERTEX
  8
0
 10
3446.29977052
 20
-43.94939930
 42
0.08563647
  0
VERTEX
  8
0
 10
3451.57621149
 20
-55.10497724
 42
0.06382879
  0
VERTEX
  8
0
 10
3458.55203362
 20
-62.72904874
 42
0.10010566
  0
VERTEX
  8
0
 10
3469.45788959
 20
-68.72516241
 42
0.03245417
  0
VERTEX
  8
0
 10
3484.05895800
 20
-72.27225400
  0
SEQEND
  0
POLYLINE
  8
0
 66
   1
 70
    1
  0
VERTEX
  8
0
 10
3736.57766056
 20
-57.94254363
 42
0.13229609
  0
VERTEX
  8
0
 10
3742.13891432
 20
-66.52407699
 42
0.09537035
  0
VERTEX
  8
0
 10
3750.86684702
 20
-71.81758255
 42
0.01203869
  0
VERTEX
  8
0
 10
3752.18327395
 20
-72.27200582
  0
VERTEX
  8
0
 10
3719.65331200
 20
-72.27203500
 42
0.07265885
  0
VERTEX
  8
0
 10
3727.85397429
 20
-68.16566772
 42
0.10230411
  0
VERTEX
  8
0
 10
3735.77975774
 20
-59.79871000
 42
0.01811656
  0
VERTEX
  8
0
 10
3736.57766056
 20
-57.94254363
  0
SEQEND
  0
POLYLINE
  8
0
 66
   1
 70
    1
  0
VERTEX
  8
0
 10
2875.00000000
 20
-718.75000000
  0
VERTEX
  8
0
 10
4017.56457200
 20
-718.75000000
  0
VERTEX
  8
0
 10
4017.56457200
 20
30.92179700
  0
VERTEX
  8
0
 10
2875.00000000
 20
30.92179700
  0
VERTEX
  8
0
 10
2875.00000000
 20
-718.75000000
  0
SEQEND
  0
ENDSEC
  0
EOF
