  0
SECTION
  2
HEADER
  9
$ACADVER
  1
AC1009
  9
$LIMMIN
 10
0.000000
 20
0.000000
  9
$LIMMAX
 10
190.275923
 20
221.581861
  0
ENDSEC
  0
SECTION
  2
TABLES
  0
TABLE
  2
LTYPE
 70
     4
  0
LTYPE
  2
CONTINUOUS
 70
     0
  3
Solid line
 72
     65
 73
     0
 40
0.000000
  0
LTYPE
  2
HIDDEN
 70
     0
  3
 _ _ _ _ _ _ _ _ _ _ _
 72
     65
 73
     2
 40
0.375000
 49
0.250000
 49
-0.125000
  0
LTYPE
  2
DASHED
 70
     0
  3
 ___ ___ ___ ___ ___ ___ ___ 
 72
     65
 73
     2
 40
0.750000
 49
0.500000
 49
-0.250000
  0
LTYPE
  2
CENTER
 70
     0
  3
___ _ ___ _ ___ _ ___
 72
     65
 73
     4
 40
2.000000
 49
1.250000
 49
-0.250000
 49
0.250000
 49
-0.250000
  0
LTYPE
  2
BORDER
 70
     0
  3
___ ___ . ___ ___ . ___ ___
 72
     65
 73
     6
 40
1.750000
 49
0.500000
 49
-0.250000
 49
0.500000
 49
-0.250000
 49
0.000000
 49
-0.250000
  0
LTYPE
  2
DOT
 70
     0
  3
.................
 72
     65
 73
     2
 40
0.250000
 49
0.000000
 49
-0.250000
  0
LTYPE
  2
DASHDOT
 70
     0
  3
__ . __ . __ . __
 72
     65
 73
     4
 40
1.000000
 49
0.500000
 49
-0.250000
 49
0.000000
 49
-0.250000
  0
LTYPE
  2
DIVIDE
 70
     0
  3
___ .. ___ .. ___ .. ___
 72
     65
 73
     6
 40
1.250000
 49
0.500000
 49
-0.250000
 49
0.000000
 49
-0.250000
 49
0.000000
 49
-0.250000
  0
ENDTAB
  0
TABLE
  2
LAYER
 70
     8
  0
LAYER
  2
BLACK
 70
     0
 62
     1
  6
CONTINUOUS
  0
LAYER
  2
WHITE
 70
     0
 62
     7
  6
CONTINUOUS
  0
LAYER
  2
RED
 70
     0
 62
     1
  6
CONTINUOUS
  0
LAYER
  2
YELLOW
 70
     0
 62
     2
  6
CONTINUOUS
  0
LAYER
  2
GREEN
 70
     0
 62
     3
  6
CONTINUOUS
  0
LAYER
  2
CYAN
 70
     0
 62
     4
  6
CONTINUOUS
  0
LAYER
  2
BLUE
 70
     0
 62
     5
  6
CONTINUOUS
  0
LAYER
  2
MAGENTA
 70
     0
 62
     6
  6
CONTINUOUS
  0
ENDTAB
  0
ENDSEC
  0
SECTION
  2
BLOCKS
  0
ENDSEC
  0
SECTION
  2
ENTITIES
  0
TEXT
  8
RED
  1
Ant1,5
 10
180.647623
 20
217.138359
 30
0.000000
 11
180.647623
 21
217.138359
 31
0.000000
 40
3.750000
 72
1
 73
2
  0
LINE
  8
WHITE
 10
190.275923
 20
0.000000
 30
0.000000
 11
190.275923
 21
221.581861
 31
0.000000
  6
CONTINUOUS
  0
LINE
  8
WHITE
 10
190.275923
 20
221.581861
 30
0.000000
 11
0.000000
 21
221.581861
 31
0.000000
  6
CONTINUOUS
  0
LINE
  8
WHITE
 10
0.000000
 20
221.581861
 30
0.000000
 11
0.000000
 21
0.000000
 31
0.000000
  6
CONTINUOUS
  0
LINE
  8
WHITE
 10
0.000000
 20
0.000000
 30
0.000000
 11
190.275923
 21
0.000000
 31
0.000000
  6
CONTINUOUS
  0
ARC
  8
WHITE
 10
117.636536
 20
164.740920
 30
0.000000
 40
24.443934
 50
92.480625
 51
126.341168
  6
CONTINUOUS
  0
ARC
  8
WHITE
 10
110.853977
 20
173.434151
 30
0.000000
 40
13.425844
 50
125.010292
 51
168.258595
  6
CONTINUOUS
  0
LINE
  8
WHITE
 10
97.709055
 20
176.166242
 30
0.000000
 11
97.709055
 21
152.340716
 31
0.000000
  6
CONTINUOUS
  0
LINE
  8
WHITE
 10
97.709055
 20
152.340716
 30
0.000000
 11
98.790451
 21
152.340716
 31
0.000000
  6
CONTINUOUS
  0
ARC
  8
WHITE
 10
176.680143
 20
151.229819
 30
0.000000
 40
77.897614
 50
179.182878
 51
187.100757
  6
CONTINUOUS
  0
ARC
  8
WHITE
 10
3.165278
 20
118.494589
 30
0.000000
 40
98.950258
 50
10.670616
 51
13.503852
  6
CONTINUOUS
  0
ARC
  8
WHITE
 10
106.273132
 20
138.397361
 30
0.000000
 40
6.077851
 50
-164.923715
 51
-129.807723
  6
CONTINUOUS
  0
LINE
  8
WHITE
 10
102.382011
 20
133.728372
 30
0.000000
 11
104.123291
 21
132.689410
 31
0.000000
  6
CONTINUOUS
  0
LINE
  8
WHITE
 10
104.123291
 20
132.689410
 30
0.000000
 11
104.123291
 21
130.533563
 31
0.000000
  6
CONTINUOUS
  0
LINE
  8
WHITE
 10
104.123291
 20
130.533563
 30
0.000000
 11
104.617087
 21
129.676419
 31
0.000000
  6
CONTINUOUS
  0
LINE
  8
WHITE
 10
104.617087
 20
129.676419
 30
0.000000
 11
104.617087
 21
127.182910
 31
0.000000
  6
CONTINUOUS
  0
LINE
  8
WHITE
 10
104.617087
 20
127.182910
 30
0.000000
 11
103.551527
 21
126.273818
 31
0.000000
  6
CONTINUOUS
  0
LINE
  8
WHITE
 10
103.551527
 20
126.273818
 30
0.000000
 11
98.327687
 21
126.273818
 31
0.000000
  6
CONTINUOUS
  0
LINE
  8
WHITE
 10
98.327687
 20
126.273818
 30
0.000000
 11
95.105019
 21
128.377717
 31
0.000000
  6
CONTINUOUS
  0
LINE
  8
WHITE
 10
95.105019
 20
128.377717
 30
0.000000
 11
92.220211
 21
128.377717
 31
0.000000
  6
CONTINUOUS
  0
ARC
  8
WHITE
 10
84.808686
 20
120.633692
 30
0.000000
 40
10.719171
 50
46.256815
 51
86.227156
  6
CONTINUOUS
  0
ARC
  8
WHITE
 10
74.865298
 20
126.188133
 30
0.000000
 40
11.824984
 50
25.772548
 51
60.291222
  6
CONTINUOUS
  0
ARC
  8
WHITE
 10
79.989433
 20
135.155744
 30
0.000000
 40
1.496650
 50
60.533252
 51
119.079752
  6
CONTINUOUS
  0
LINE
  8
WHITE
 10
79.262021
 20
136.463732
 30
0.000000
 11
76.747068
 21
134.452947
 31
0.000000
  6
CONTINUOUS
  0
LINE
  8
WHITE
 10
76.747068
 20
134.452947
 30
0.000000
 11
76.747068
 21
133.997535
 31
0.000000
  6
CONTINUOUS
  0
LINE
  8
WHITE
 10
76.747068
 20
133.997535
 30
0.000000
 11
76.162826
 21
133.997535
 31
0.000000
  6
CONTINUOUS
  0
ARC
  8
WHITE
 10
63.435302
 20
134.294668
 30
0.000000
 40
12.730992
 50
-1.337364
 51
53.173474
  6
CONTINUOUS
  0
ARC
  8
WHITE
 10
93.899515
 20
174.612418
 30
0.000000
 40
37.802219
 50
-136.184371
 51
-127.158418
  6
CONTINUOUS
  0
ARC
  8
WHITE
 10
61.655270
 20
149.006789
 30
0.000000
 40
4.999429
 50
-6.504712
 51
41.459465
  6
CONTINUOUS
  0
ARC
  8
WHITE
 10
55.050250
 20
158.634655
 30
0.000000
 40
12.127346
 50
-31.396292
 51
6.477447
  6
CONTINUOUS
  0
LINE
  8
WHITE
 10
67.100178
 20
160.002766
 30
0.000000
 11
66.753492
 21
162.653568
 31
0.000000
  6
CONTINUOUS
  0
ARC
  8
WHITE
 10
69.866044
 20
160.853971
 30
0.000000
 40
3.595348
 50
97.171375
 51
149.964621
  6
CONTINUOUS
  0
LINE
  8
WHITE
 10
69.417209
 20
164.421194
 30
0.000000
 11
69.417209
 21
168.412266
 31
0.000000
  6
CONTINUOUS
  0
LINE
  8
WHITE
 10
69.417209
 20
168.412266
 30
0.000000
 11
61.412173
 21
172.084203
 31
0.000000
  6
CONTINUOUS
  0
LINE
  8
WHITE
 10
61.412173
 20
172.084203
 30
0.000000
 11
61.412173
 21
175.444898
 31
0.000000
  6
CONTINUOUS
  0
LINE
  8
WHITE
 10
61.412173
 20
175.444898
 30
0.000000
 11
54.645414
 21
178.548833
 31
0.000000
  6
CONTINUOUS
  0
LINE
  8
WHITE
 10
54.645414
 20
178.548833
 30
0.000000
 11
54.645414
 21
176.264709
 31
0.000000
  6
CONTINUOUS
  0
LINE
  8
WHITE
 10
54.645414
 20
176.264709
 30
0.000000
 11
52.650434
 21
177.179813
 31
0.000000
  6
CONTINUOUS
  0
LINE
  8
WHITE
 10
52.650434
 20
177.179813
 30
0.000000
 11
52.650434
 21
179.463937
 31
0.000000
  6
CONTINUOUS
  0
LINE
  8
WHITE
 10
52.650434
 20
179.463937
 30
0.000000
 11
47.204676
 21
181.961925
 31
0.000000
  6
CONTINUOUS
  0
LINE
  8
WHITE
 10
47.204676
 20
181.961925
 30
0.000000
 11
47.204676
 21
176.247175
 31
0.000000
  6
CONTINUOUS
  0
LINE
  8
WHITE
 10
47.204676
 20
176.247175
 30
0.000000
 11
48.173035
 21
175.477574
 31
0.000000
  6
CONTINUOUS
  0
LINE
  8
WHITE
 10
48.173035
 20
175.477574
 30
0.000000
 11
46.083525
 21
174.065350
 31
0.000000
  6
CONTINUOUS
  0
LINE
  8
WHITE
 10
46.083525
 20
174.065350
 30
0.000000
 11
45.632551
 21
176.048472
 31
0.000000
  6
CONTINUOUS
  0
LINE
  8
WHITE
 10
45.632551
 20
176.048472
 30
0.000000
 11
46.383016
 21
176.624074
 31
0.000000
  6
CONTINUOUS
  0
LINE
  8
WHITE
 10
46.383016
 20
176.624074
 30
0.000000
 11
45.117623
 21
177.204514
 31
0.000000
  6
CONTINUOUS
  0
LINE
  8
WHITE
 10
45.117623
 20
177.204514
 30
0.000000
 11
45.117623
 21
182.919263
 31
0.000000
  6
CONTINUOUS
  0
LINE
  8
WHITE
 10
45.117623
 20
182.919263
 30
0.000000
 11
22.332076
 21
193.371070
 31
0.000000
  6
CONTINUOUS
  0
LINE
  8
WHITE
 10
22.332076
 20
193.371070
 30
0.000000
 11
22.332076
 21
200.995436
 31
0.000000
  6
CONTINUOUS
  0
LINE
  8
WHITE
 10
22.332076
 20
200.995436
 30
0.000000
 11
36.926738
 21
194.300815
 31
0.000000
  6
CONTINUOUS
  0
LINE
  8
WHITE
 10
36.926738
 20
194.300815
 30
0.000000
 11
36.926738
 21
195.469122
 31
0.000000
  6
CONTINUOUS
  0
LINE
  8
WHITE
 10
36.926738
 20
195.469122
 30
0.000000
 11
22.332076
 21
202.163742
 31
0.000000
  6
CONTINUOUS
  0
LINE
  8
WHITE
 10
22.332076
 20
202.163742
 30
0.000000
 11
22.332076
 21
203.611862
 31
0.000000
  6
CONTINUOUS
  0
ARC
  8
WHITE
 10
20.115613
 20
203.611862
 30
0.000000
 40
2.216463
 50
0.000000
 51
180.000000
  6
CONTINUOUS
  0
LINE
  8
WHITE
 10
17.899150
 20
203.611862
 30
0.000000
 11
17.899150
 21
201.589881
 31
0.000000
  6
CONTINUOUS
  0
LINE
  8
WHITE
 10
17.899150
 20
201.589881
 30
0.000000
 11
15.753938
 21
199.851593
 31
0.000000
  6
CONTINUOUS
  0
LINE
  8
WHITE
 10
15.753938
 20
199.851593
 30
0.000000
 11
15.753938
 21
185.454010
 31
0.000000
  6
CONTINUOUS
  0
LINE
  8
WHITE
 10
15.753938
 20
185.454010
 30
0.000000
 11
39.473220
 21
174.573896
 31
0.000000
  6
CONTINUOUS
  0
ARC
  8
WHITE
 10
42.902199
 20
171.725601
 30
0.000000
 40
4.457655
 50
140.285155
 51
180.931405
  6
CONTINUOUS
  0
LINE
  8
WHITE
 10
38.445134
 20
171.653141
 30
0.000000
 11
38.445133
 21
168.345430
 31
0.000000
  6
CONTINUOUS
  0
ARC
  8
WHITE
 10
37.337317
 20
164.604456
 30
0.000000
 40
3.901556
 50
73.504374
 51
182.305396
  6
CONTINUOUS
  0
ARC
  8
WHITE
 10
40.712867
 20
164.933581
 30
0.000000
 40
7.290171
 50
-176.177001
 51
-134.039754
  6
CONTINUOUS
  0
ARC
  8
WHITE
 10
37.220785
 20
153.302497
 30
0.000000
 40
6.581890
 50
103.851392
 51
124.619745
  6
CONTINUOUS
  0
ARC
  8
WHITE
 10
35.736393
 20
156.114059
 30
0.000000
 40
3.445370
 50
130.880987
 51
216.375731
  6
CONTINUOUS
  0
ARC
  8
WHITE
 10
38.090575
 20
158.466117
 30
0.000000
 40
6.754131
 50
-139.399819
 51
-107.955603
  6
CONTINUOUS
  0
ARC
  8
WHITE
 10
38.307199
 20
148.216492
 30
0.000000
 40
4.462155
 50
121.009099
 51
226.442664
  6
CONTINUOUS
  0
ARC
  8
WHITE
 10
59.839411
 20
184.315248
 30
0.000000
 40
46.395506
 50
-122.030765
 51
-110.619062
  6
CONTINUOUS
  0
ARC
  8
WHITE
 10
59.251524
 20
128.813632
 30
0.000000
 40
19.848336
 50
142.517492
 51
203.775311
  6
CONTINUOUS
  0
ARC
  8
WHITE
 10
59.952030
 20
117.675470
 30
0.000000
 40
19.123316
 50
170.560663
 51
208.230119
  6
CONTINUOUS
  0
ARC
  8
WHITE
 10
58.491230
 20
119.339045
 30
0.000000
 40
18.747627
 50
-145.164093
 51
-27.486655
  6
CONTINUOUS
  0
LINE
  8
WHITE
 10
75.122594
 20
110.686228
 30
0.000000
 11
75.746409
 21
109.931526
 31
0.000000
  6
CONTINUOUS
  0
ARC
  8
WHITE
 10
77.466621
 20
127.690317
 30
0.000000
 40
17.841911
 50
-95.532716
 51
-69.162417
  6
CONTINUOUS
  0
ARC
  8
WHITE
 10
60.410975
 20
117.413242
 30
0.000000
 40
24.261150
 50
-64.092427
 51
-15.290155
  6
CONTINUOUS
  0
ARC
  8
WHITE
 10
63.757725
 20
122.940083
 30
0.000000
 40
28.295249
 50
-119.474893
 51
-75.146487
  6
CONTINUOUS
  0
ARC
  8
WHITE
 10
49.619199
 20
97.838811
 30
0.000000
 40
0.515687
 50
65.228752
 51
224.807872
  6
CONTINUOUS
  0
ARC
  8
WHITE
 10
64.856036
 20
120.223752
 30
0.000000
 40
27.585002
 50
-124.445543
 51
-85.299558
  6
CONTINUOUS
  0
ARC
  8
WHITE
 10
-12.557871
 20
71.355916
 30
0.000000
 40
82.491972
 50
6.484926
 51
15.018061
  6
CONTINUOUS
  0
ARC
  8
WHITE
 10
124.671677
 20
87.526602
 30
0.000000
 40
55.688772
 50
-172.930399
 51
-168.503189
  6
CONTINUOUS
  0
ARC
  8
WHITE
 10
17.002356
 20
63.945290
 30
0.000000
 40
54.545230
 50
1.785550
 51
13.228424
  6
CONTINUOUS
  0
ARC
  8
WHITE
 10
103.191727
 20
66.611619
 30
0.000000
 40
31.685378
 50
-178.251542
 51
-157.892364
  6
CONTINUOUS
  0
LINE
  8
WHITE
 10
73.835906
 20
54.686898
 30
0.000000
 11
73.835906
 21
51.051342
 31
0.000000
  6
CONTINUOUS
  0
LINE
  8
WHITE
 10
73.835906
 20
51.051342
 30
0.000000
 11
10.502626
 21
51.051342
 31
0.000000
  6
CONTINUOUS
  0
LINE
  8
WHITE
 10
10.502626
 20
51.051342
 30
0.000000
 11
10.502626
 21
211.079235
 31
0.000000
  6
CONTINUOUS
  0
LINE
  8
WHITE
 10
10.502626
 20
211.079235
 30
0.000000
 11
179.773297
 21
211.079235
 31
0.000000
  6
CONTINUOUS
  0
LINE
  8
WHITE
 10
179.773297
 20
211.079235
 30
0.000000
 11
179.773297
 21
109.204461
 31
0.000000
  6
CONTINUOUS
  0
ARC
  8
WHITE
 10
194.989973
 20
84.212734
 30
0.000000
 40
29.259761
 50
121.335919
 51
143.199534
  6
CONTINUOUS
  0
ARC
  8
WHITE
 10
140.802696
 20
72.553657
 30
0.000000
 40
42.401917
 50
43.498141
 51
80.278803
  6
CONTINUOUS
  0
ARC
  8
WHITE
 10
143.062132
 20
114.485611
 30
0.000000
 40
4.902267
 50
-1.623437
 51
93.548200
  6
CONTINUOUS
  0
ARC
  8
WHITE
 10
139.825073
 20
116.154216
 30
0.000000
 40
4.359160
 50
47.701833
 51
127.222908
  6
CONTINUOUS
  0
ARC
  8
WHITE
 10
136.440779
 20
118.987585
 30
0.000000
 40
0.982503
 50
40.476559
 51
91.957174
  6
CONTINUOUS
  0
LINE
  8
WHITE
 10
136.407224
 20
119.969515
 30
0.000000
 11
136.407224
 21
121.479815
 31
0.000000
  6
CONTINUOUS
  0
LINE
  8
WHITE
 10
136.407224
 20
121.479815
 30
0.000000
 11
136.004242
 21
121.479815
 31
0.000000
  6
CONTINUOUS
  0
LINE
  8
WHITE
 10
136.004242
 20
121.479815
 30
0.000000
 11
136.004242
 21
127.521014
 31
0.000000
  6
CONTINUOUS
  0
LINE
  8
WHITE
 10
136.004242
 20
127.521014
 30
0.000000
 11
136.417427
 21
128.259383
 31
0.000000
  6
CONTINUOUS
  0
LINE
  8
WHITE
 10
136.417427
 20
128.259383
 30
0.000000
 11
136.417427
 21
133.314087
 31
0.000000
  6
CONTINUOUS
  0
ARC
  8
WHITE
 10
132.745115
 20
139.575322
 30
0.000000
 40
7.258714
 50
-59.607714
 51
-13.070913
  6
CONTINUOUS
  0
ARC
  8
WHITE
 10
64.186337
 20
154.351372
 30
0.000000
 40
77.390888
 50
-12.247757
 51
-2.774771
  6
CONTINUOUS
  0
LINE
  8
WHITE
 10
141.486488
 20
150.604881
 30
0.000000
 11
141.486488
 21
152.340716
 31
0.000000
  6
CONTINUOUS
  0
LINE
  8
WHITE
 10
141.486488
 20
152.340716
 30
0.000000
 11
143.157920
 21
152.340716
 31
0.000000
  6
CONTINUOUS
  0
LINE
  8
WHITE
 10
143.157920
 20
152.340716
 30
0.000000
 11
143.157920
 21
170.297609
 31
0.000000
  6
CONTINUOUS
  0
ARC
  8
WHITE
 10
123.764507
 20
169.830978
 30
0.000000
 40
19.399026
 50
1.378346
 51
35.670948
  6
CONTINUOUS
  0
ARC
  8
WHITE
 10
122.525287
 20
166.644019
 30
0.000000
 40
22.342245
 50
40.462824
 51
83.801842
  6
CONTINUOUS
  0
ARC
  8
WHITE
 10
117.507483
 20
100.297227
 30
0.000000
 40
88.869577
 50
85.204126
 51
90.598901
  6
CONTINUOUS
  0
ARC
  8
WHITE
 10
120.059209
 20
69.184609
 30
0.000000
 40
9.049573
 50
137.689596
 51
172.362162
  6
CONTINUOUS
  0
LINE
  8
WHITE
 10
113.366969
 20
75.276300
 30
0.000000
 11
113.366969
 21
100.566607
 31
0.000000
  6
CONTINUOUS
  0
LINE
  8
WHITE
 10
113.366969
 20
100.566607
 30
0.000000
 11
114.864068
 21
100.566607
 31
0.000000
  6
CONTINUOUS
  0
ARC
  8
WHITE
 10
127.281761
 20
114.180879
 30
0.000000
 40
18.426814
 50
-132.368207
 51
-111.145684
  6
CONTINUOUS
  0
ARC
  8
WHITE
 10
143.142517
 20
154.576098
 30
0.000000
 40
61.824082
 50
-111.350124
 51
-98.397566
  6
CONTINUOUS
  0
LINE
  8
WHITE
 10
134.113666
 20
93.414861
 30
0.000000
 11
137.209563
 21
85.593700
 31
0.000000
  6
CONTINUOUS
  0
LINE
  8
WHITE
 10
137.209563
 20
85.593700
 30
0.000000
 11
135.769542
 21
96.125298
 31
0.000000
  6
CONTINUOUS
  0
LINE
  8
WHITE
 10
135.769542
 20
96.125298
 30
0.000000
 11
137.006398
 21
95.749084
 31
0.000000
  6
CONTINUOUS
  0
LINE
  8
WHITE
 10
137.006398
 20
95.749084
 30
0.000000
 11
137.123645
 21
92.749473
 31
0.000000
  6
CONTINUOUS
  0
LINE
  8
WHITE
 10
137.123645
 20
92.749473
 30
0.000000
 11
139.555994
 21
92.172436
 31
0.000000
  6
CONTINUOUS
  0
LINE
  8
WHITE
 10
139.555994
 20
92.172436
 30
0.000000
 11
142.651890
 21
84.351275
 31
0.000000
  6
CONTINUOUS
  0
LINE
  8
WHITE
 10
142.651890
 20
84.351275
 30
0.000000
 11
141.211870
 21
94.882873
 31
0.000000
  6
CONTINUOUS
  0
LINE
  8
WHITE
 10
141.211870
 20
94.882873
 30
0.000000
 11
142.448725
 21
94.506658
 31
0.000000
  6
CONTINUOUS
  0
LINE
  8
WHITE
 10
142.448725
 20
94.506658
 30
0.000000
 11
142.565972
 21
91.507048
 31
0.000000
  6
CONTINUOUS
  0
LINE
  8
WHITE
 10
142.565972
 20
91.507048
 30
0.000000
 11
144.998322
 21
90.930011
 31
0.000000
  6
CONTINUOUS
  0
LINE
  8
WHITE
 10
144.998322
 20
90.930011
 30
0.000000
 11
148.094218
 21
83.108850
 31
0.000000
  6
CONTINUOUS
  0
LINE
  8
WHITE
 10
148.094218
 20
83.108850
 30
0.000000
 11
146.654198
 21
93.640448
 31
0.000000
  6
CONTINUOUS
  0
LINE
  8
WHITE
 10
146.654198
 20
93.640448
 30
0.000000
 11
147.891053
 21
93.264233
 31
0.000000
  6
CONTINUOUS
  0
LINE
  8
WHITE
 10
147.891053
 20
93.264233
 30
0.000000
 11
148.008300
 21
90.264623
 31
0.000000
  6
CONTINUOUS
  0
LINE
  8
WHITE
 10
148.008300
 20
90.264623
 30
0.000000
 11
149.419963
 21
89.881046
 31
0.000000
  6
CONTINUOUS
  0
LINE
  8
WHITE
 10
149.419963
 20
89.881046
 30
0.000000
 11
150.169465
 21
91.795320
 31
0.000000
  6
CONTINUOUS
  0
LINE
  8
WHITE
 10
150.169465
 20
91.795320
 30
0.000000
 11
156.250689
 21
91.795320
 31
0.000000
  6
CONTINUOUS
  0
LINE
  8
WHITE
 10
156.250689
 20
91.795320
 30
0.000000
 11
159.899319
 21
87.682730
 31
0.000000
  6
CONTINUOUS
  0
LINE
  8
WHITE
 10
159.899319
 20
87.682730
 30
0.000000
 11
160.777184
 21
87.682730
 31
0.000000
  6
CONTINUOUS
  0
LINE
  8
WHITE
 10
160.777184
 20
87.682730
 30
0.000000
 11
163.136449
 21
80.663911
 31
0.000000
  6
CONTINUOUS
  0
LINE
  8
WHITE
 10
163.136449
 20
80.663911
 30
0.000000
 11
162.346934
 21
90.268588
 31
0.000000
  6
CONTINUOUS
  0
LINE
  8
WHITE
 10
162.346934
 20
90.268588
 30
0.000000
 11
163.465648
 21
90.013197
 31
0.000000
  6
CONTINUOUS
  0
LINE
  8
WHITE
 10
163.465648
 20
90.013197
 30
0.000000
 11
164.023141
 21
86.741306
 31
0.000000
  6
CONTINUOUS
  0
LINE
  8
WHITE
 10
164.023141
 20
86.741306
 30
0.000000
 11
164.901007
 21
86.741306
 31
0.000000
  6
CONTINUOUS
  0
LINE
  8
WHITE
 10
164.901007
 20
86.741306
 30
0.000000
 11
167.260271
 21
79.722487
 31
0.000000
  6
CONTINUOUS
  0
LINE
  8
WHITE
 10
167.260271
 20
79.722487
 30
0.000000
 11
166.470756
 21
89.327164
 31
0.000000
  6
CONTINUOUS
  0
LINE
  8
WHITE
 10
166.470756
 20
89.327164
 30
0.000000
 11
167.589471
 21
89.071773
 31
0.000000
  6
CONTINUOUS
  0
LINE
  8
WHITE
 10
167.589471
 20
89.071773
 30
0.000000
 11
168.146964
 21
85.799881
 31
0.000000
  6
CONTINUOUS
  0
LINE
  8
WHITE
 10
168.146964
 20
85.799881
 30
0.000000
 11
169.024829
 21
85.799881
 31
0.000000
  6
CONTINUOUS
  0
LINE
  8
WHITE
 10
169.024829
 20
85.799881
 30
0.000000
 11
171.384093
 21
78.781063
 31
0.000000
  6
CONTINUOUS
  0
LINE
  8
WHITE
 10
171.384093
 20
78.781063
 30
0.000000
 11
170.594579
 21
88.385739
 31
0.000000
  6
CONTINUOUS
  0
LINE
  8
WHITE
 10
170.594579
 20
88.385739
 30
0.000000
 11
171.352138
 21
88.212796
 31
0.000000
  6
CONTINUOUS
  0
LINE
  8
WHITE
 10
171.352138
 20
88.212796
 30
0.000000
 11
171.352138
 21
86.566017
 31
0.000000
  6
CONTINUOUS
  0
LINE
  8
WHITE
 10
171.352138
 20
86.566017
 30
0.000000
 11
172.211463
 21
86.566017
 31
0.000000
  6
CONTINUOUS
  0
LINE
  8
WHITE
 10
172.211463
 20
86.566017
 30
0.000000
 11
172.646435
 21
87.376137
 31
0.000000
  6
CONTINUOUS
  0
LINE
  8
WHITE
 10
172.646435
 20
87.376137
 30
0.000000
 11
174.109769
 21
87.376137
 31
0.000000
  6
CONTINUOUS
  0
ARC
  8
WHITE
 10
157.718120
 20
72.022331
 30
0.000000
 40
22.459420
 50
10.887121
 51
43.127517
  6
CONTINUOUS
  0
LINE
  8
WHITE
 10
179.773297
 20
76.264347
 30
0.000000
 11
179.773297
 21
51.051342
 31
0.000000
  6
CONTINUOUS
  0
LINE
  8
WHITE
 10
179.773297
 20
51.051342
 30
0.000000
 11
174.521985
 21
51.051342
 31
0.000000
  6
CONTINUOUS
  0
LINE
  8
WHITE
 10
174.521985
 20
51.051342
 30
0.000000
 11
174.521985
 21
76.694503
 31
0.000000
  6
CONTINUOUS
  0
LINE
  8
WHITE
 10
174.521985
 20
76.694503
 30
0.000000
 11
163.982566
 21
76.694503
 31
0.000000
  6
CONTINUOUS
  0
LINE
  8
WHITE
 10
163.982566
 20
76.694503
 30
0.000000
 11
163.060923
 21
79.280677
 31
0.000000
  6
CONTINUOUS
  0
LINE
  8
WHITE
 10
163.060923
 20
79.280677
 30
0.000000
 11
162.281073
 21
79.776656
 31
0.000000
  6
CONTINUOUS
  0
LINE
  8
WHITE
 10
162.281073
 20
79.776656
 30
0.000000
 11
159.197116
 21
85.905534
 31
0.000000
  6
CONTINUOUS
  0
LINE
  8
WHITE
 10
159.197116
 20
85.905534
 30
0.000000
 11
151.292261
 21
85.905534
 31
0.000000
  6
CONTINUOUS
  0
LINE
  8
WHITE
 10
151.292261
 20
85.905534
 30
0.000000
 11
148.350097
 21
80.733186
 31
0.000000
  6
CONTINUOUS
  0
LINE
  8
WHITE
 10
148.350097
 20
80.733186
 30
0.000000
 11
148.350097
 21
79.422386
 31
0.000000
  6
CONTINUOUS
  0
LINE
  8
WHITE
 10
148.350097
 20
79.422386
 30
0.000000
 11
146.113842
 21
75.438346
 31
0.000000
  6
CONTINUOUS
  0
LINE
  8
WHITE
 10
146.113842
 20
75.438346
 30
0.000000
 11
144.279894
 21
75.438346
 31
0.000000
  6
CONTINUOUS
  0
LINE
  8
WHITE
 10
144.279894
 20
75.438346
 30
0.000000
 11
144.279894
 21
70.283384
 31
0.000000
  6
CONTINUOUS
  0
LINE
  8
WHITE
 10
144.279894
 20
70.283384
 30
0.000000
 11
128.920579
 21
60.438018
 31
0.000000
  6
CONTINUOUS
  0
LINE
  8
WHITE
 10
128.920579
 20
60.438018
 30
0.000000
 11
103.003863
 21
60.438018
 31
0.000000
  6
CONTINUOUS
  0
LINE
  8
WHITE
 10
103.003863
 20
60.438018
 30
0.000000
 11
110.074086
 21
66.732523
 31
0.000000
  6
CONTINUOUS
  0
LINE
  8
WHITE
 10
110.074086
 20
66.732523
 30
0.000000
 11
110.074086
 21
67.707156
 31
0.000000
  6
CONTINUOUS
  0
LINE
  8
WHITE
 10
110.074086
 20
67.707156
 30
0.000000
 11
111.089924
 21
68.478740
 31
0.000000
  6
CONTINUOUS
  0
LINE
  8
WHITE
 10
111.089924
 20
68.478740
 30
0.000000
 11
111.089924
 21
70.387396
 31
0.000000
  6
CONTINUOUS
  0
ARC
  8
WHITE
 10
127.356498
 20
87.995775
 30
0.000000
 40
29.610942
 50
18.349731
 51
46.421495
  6
CONTINUOUS
  0
LINE
  8
WHITE
 10
155.461800
 20
97.317786
 30
0.000000
 11
150.177734
 21
97.317786
 31
0.000000
  6
CONTINUOUS
  0
LINE
  8
WHITE
 10
150.177734
 20
97.317786
 30
0.000000
 11
150.177734
 21
96.136808
 31
0.000000
  6
CONTINUOUS
  0
LINE
  8
WHITE
 10
150.177734
 20
96.136808
 30
0.000000
 11
149.020486
 21
94.894777
 31
0.000000
  6
CONTINUOUS
  0
ARC
  8
WHITE
 10
103.363530
 20
-57.277346
 30
0.000000
 40
158.873888
 50
73.298918
 51
81.312185
  6
CONTINUOUS
  0
ARC
  8
WHITE
 10
129.441080
 20
108.263534
 30
0.000000
 40
8.740883
 50
-134.714384
 51
-103.763296
  6
CONTINUOUS
  0
ARC
  8
WHITE
 10
97.647781
 20
74.928304
 30
0.000000
 40
37.326731
 50
46.606931
 51
52.335187
  6
CONTINUOUS
  0
ARC
  8
WHITE
 10
131.556723
 20
117.705931
 30
0.000000
 40
17.270079
 50
-151.754805
 51
-129.999075
  6
CONTINUOUS
  0
ARC
  8
WHITE
 10
47.177639
 20
75.625019
 30
0.000000
 40
77.029813
 50
26.116143
 51
36.824707
  6
CONTINUOUS
  0
ARC
  8
WHITE
 10
110.928550
 20
70.257750
 30
0.000000
 40
51.578925
 50
78.786336
 51
92.322982
  6
CONTINUOUS
  0
ARC
  8
WHITE
 10
106.016328
 20
48.513587
 30
0.000000
 40
73.865592
 50
55.580456
 51
78.328766
  6
CONTINUOUS
  0
LINE
  8
WHITE
 10
10.502626
 20
10.502626
 30
0.000000
 11
16.671179
 21
10.502626
 31
0.000000
  6
CONTINUOUS
  0
LINE
  8
WHITE
 10
16.671179
 20
10.502626
 30
0.000000
 11
16.671179
 21
34.410482
 31
0.000000
  6
CONTINUOUS
  0
LINE
  8
WHITE
 10
16.671179
 20
34.410482
 30
0.000000
 11
26.102354
 21
34.410482
 31
0.000000
  6
CONTINUOUS
  0
LINE
  8
WHITE
 10
26.102354
 20
34.410482
 30
0.000000
 11
18.562865
 21
28.268517
 31
0.000000
  6
CONTINUOUS
  0
LINE
  8
WHITE
 10
18.562865
 20
28.268517
 30
0.000000
 11
18.562865
 21
21.306928
 31
0.000000
  6
CONTINUOUS
  0
LINE
  8
WHITE
 10
18.562865
 20
21.306928
 30
0.000000
 11
19.507145
 21
20.218012
 31
0.000000
  6
CONTINUOUS
  0
LINE
  8
WHITE
 10
19.507145
 20
20.218012
 30
0.000000
 11
27.469664
 21
20.218012
 31
0.000000
  6
CONTINUOUS
  0
LINE
  8
WHITE
 10
27.469664
 20
20.218012
 30
0.000000
 11
27.469664
 21
10.502626
 31
0.000000
  6
CONTINUOUS
  0
LINE
  8
WHITE
 10
27.469664
 20
10.502626
 30
0.000000
 11
34.123276
 21
10.502626
 31
0.000000
  6
CONTINUOUS
  0
LINE
  8
WHITE
 10
34.123276
 20
10.502626
 30
0.000000
 11
34.123276
 21
22.561766
 31
0.000000
  6
CONTINUOUS
  0
LINE
  8
WHITE
 10
34.123276
 20
22.561766
 30
0.000000
 11
31.287310
 21
26.322674
 31
0.000000
  6
CONTINUOUS
  0
LINE
  8
WHITE
 10
31.287310
 20
26.322674
 30
0.000000
 11
26.651597
 21
26.322674
 31
0.000000
  6
CONTINUOUS
  0
LINE
  8
WHITE
 10
26.651597
 20
26.322674
 30
0.000000
 11
35.050419
 21
34.825596
 31
0.000000
  6
CONTINUOUS
  0
LINE
  8
WHITE
 10
35.050419
 20
34.825596
 30
0.000000
 11
30.741932
 21
40.548716
 31
0.000000
  6
CONTINUOUS
  0
LINE
  8
WHITE
 10
30.741932
 20
40.548716
 30
0.000000
 11
10.502626
 21
40.548716
 31
0.000000
  6
CONTINUOUS
  0
LINE
  8
WHITE
 10
10.502626
 20
40.548716
 30
0.000000
 11
10.502626
 21
10.502626
 31
0.000000
  6
CONTINUOUS
  0
LINE
  8
WHITE
 10
114.223761
 20
10.502626
 30
0.000000
 11
109.428545
 21
14.926390
 31
0.000000
  6
CONTINUOUS
  0
LINE
  8
WHITE
 10
109.428545
 20
14.926390
 30
0.000000
 11
109.428545
 21
37.229538
 31
0.000000
  6
CONTINUOUS
  0
LINE
  8
WHITE
 10
109.428545
 20
37.229538
 30
0.000000
 11
113.178649
 21
40.548716
 31
0.000000
  6
CONTINUOUS
  0
LINE
  8
WHITE
 10
113.178649
 20
40.548716
 30
0.000000
 11
134.511214
 21
40.548716
 31
0.000000
  6
CONTINUOUS
  0
LINE
  8
WHITE
 10
134.511214
 20
40.548716
 30
0.000000
 11
129.162704
 21
34.526126
 31
0.000000
  6
CONTINUOUS
  0
LINE
  8
WHITE
 10
129.162704
 20
34.526126
 30
0.000000
 11
116.375460
 21
34.526126
 31
0.000000
  6
CONTINUOUS
  0
LINE
  8
WHITE
 10
116.375460
 20
34.526126
 30
0.000000
 11
116.375460
 21
16.462420
 31
0.000000
  6
CONTINUOUS
  0
LINE
  8
WHITE
 10
116.375460
 20
16.462420
 30
0.000000
 11
133.220194
 21
16.462420
 31
0.000000
  6
CONTINUOUS
  0
LINE
  8
WHITE
 10
133.220194
 20
16.462420
 30
0.000000
 11
133.220194
 21
10.502626
 31
0.000000
  6
CONTINUOUS
  0
LINE
  8
WHITE
 10
133.220194
 20
10.502626
 30
0.000000
 11
114.223761
 21
10.502626
 31
0.000000
  6
CONTINUOUS
  0
LINE
  8
WHITE
 10
103.080081
 20
169.490350
 30
0.000000
 11
101.092259
 21
165.258419
 31
0.000000
  6
CONTINUOUS
  0
LINE
  8
WHITE
 10
101.092259
 20
165.258419
 30
0.000000
 11
101.092259
 21
164.133616
 31
0.000000
  6
CONTINUOUS
  0
ARC
  8
WHITE
 10
111.874747
 20
126.673171
 30
0.000000
 40
38.981367
 50
93.143244
 51
106.057757
  6
CONTINUOUS
  0
ARC
  8
WHITE
 10
115.374827
 20
-199.567702
 30
0.000000
 40
365.207110
 50
89.545968
 51
90.884482
  6
CONTINUOUS
  0
LINE
  8
WHITE
 10
118.268827
 20
165.627942
 30
0.000000
 11
118.923023
 21
170.676850
 31
0.000000
  6
CONTINUOUS
  0
ARC
  8
WHITE
 10
122.788786
 20
-89.585435
 30
0.000000
 40
260.290993
 50
89.461688
 51
90.850971
  6
CONTINUOUS
  0
LINE
  8
WHITE
 10
125.234268
 20
170.694070
 30
0.000000
 11
125.242598
 21
171.580616
 31
0.000000
  6
CONTINUOUS
  0
ARC
  8
WHITE
 10
122.788786
 20
-89.585435
 30
0.000000
 40
261.177578
 50
89.461688
 51
90.806753
  6
CONTINUOUS
  0
LINE
  8
WHITE
 10
119.111399
 20
171.566253
 30
0.000000
 11
119.510389
 21
175.122579
 31
0.000000
  6
CONTINUOUS
  0
ARC
  8
WHITE
 10
124.231779
 20
-85.125590
 30
0.000000
 40
260.290993
 50
89.461688
 51
91.039339
  6
CONTINUOUS
  0
LINE
  8
WHITE
 10
126.677260
 20
175.153915
 30
0.000000
 11
126.685590
 21
176.040460
 31
0.000000
  6
CONTINUOUS
  0
ARC
  8
WHITE
 10
124.231779
 20
-85.125590
 30
0.000000
 40
261.177578
 50
89.461688
 51
90.999633
  6
CONTINUOUS
  0
LINE
  8
WHITE
 10
119.675274
 20
176.012239
 30
0.000000
 11
120.315022
 21
182.407842
 31
0.000000
  6
CONTINUOUS
  0
LINE
  8
WHITE
 10
120.315022
 20
182.407842
 30
0.000000
 11
120.201644
 21
185.856007
 31
0.000000
  6
CONTINUOUS
  0
ARC
  8
WHITE
 10
117.627191
 20
138.165577
 30
0.000000
 40
47.759868
 50
86.910025
 51
96.568768
  6
CONTINUOUS
  0
ARC
  8
WHITE
 10
115.616826
 20
166.489984
 30
0.000000
 40
19.431224
 50
100.236502
 51
124.693838
  6
CONTINUOUS
  0
LINE
  8
WHITE
 10
104.556746
 20
182.466439
 30
0.000000
 11
99.524122
 21
176.966356
 31
0.000000
  6
CONTINUOUS
  0
LINE
  8
WHITE
 10
99.524122
 20
176.966356
 30
0.000000
 11
99.524122
 21
174.666789
 31
0.000000
  6
CONTINUOUS
  0
ARC
  8
WHITE
 10
108.520303
 20
132.011762
 30
0.000000
 40
43.593378
 50
80.259890
 51
101.909462
  6
CONTINUOUS
  0
ARC
  8
WHITE
 10
117.295416
 20
94.835715
 30
0.000000
 40
80.153266
 50
91.000818
 51
99.449855
  6
CONTINUOUS
  0
ARC
  8
WHITE
 10
108.695234
 20
170.981076
 30
0.000000
 40
5.414674
 50
147.363175
 51
174.338577
  6
CONTINUOUS
  0
ARC
  8
WHITE
 10
111.131084
 20
132.608646
 30
0.000000
 40
39.685504
 50
101.370519
 51
107.557539
  6
CONTINUOUS
  0
LINE
  8
WHITE
 10
99.159419
 20
170.445380
 30
0.000000
 11
99.159419
 21
169.514409
 31
0.000000
  6
CONTINUOUS
  0
ARC
  8
WHITE
 10
108.716182
 20
140.874821
 30
0.000000
 40
30.192014
 50
79.047706
 51
108.453373
  6
CONTINUOUS
  0
ARC
  8
WHITE
 10
115.082647
 20
100.029808
 30
0.000000
 40
70.489919
 50
90.512276
 51
99.803722
  6
CONTINUOUS
  0
ARC
  8
WHITE
 10
103.306810
 20
151.442048
 30
0.000000
 40
29.472388
 50
-18.194958
 51
-0.606771
  6
CONTINUOUS
  0
LINE
  8
WHITE
 10
132.777545
 20
151.129937
 30
0.000000
 11
124.141159
 21
151.129937
 31
0.000000
  6
CONTINUOUS
  0
LINE
  8
WHITE
 10
124.141159
 20
151.129937
 30
0.000000
 11
124.135844
 21
150.547094
 31
0.000000
  6
CONTINUOUS
  0
LINE
  8
WHITE
 10
124.135844
 20
150.547094
 30
0.000000
 11
116.969753
 21
152.812277
 31
0.000000
  6
CONTINUOUS
  0
LINE
  8
WHITE
 10
116.969753
 20
152.812277
 30
0.000000
 11
116.969753
 21
152.121344
 31
0.000000
  6
CONTINUOUS
  0
LINE
  8
WHITE
 10
116.969753
 20
152.121344
 30
0.000000
 11
101.225959
 21
152.121345
 31
0.000000
  6
CONTINUOUS
  0
ARC
  8
WHITE
 10
151.360464
 20
151.235318
 30
0.000000
 40
50.142334
 50
178.987517
 51
187.670198
  6
CONTINUOUS
  0
ARC
  8
WHITE
 10
112.712026
 20
146.269230
 30
0.000000
 40
11.179372
 50
-171.116182
 51
-132.524731
  6
CONTINUOUS
  0
LINE
  8
WHITE
 10
105.155794
 20
138.030193
 30
0.000000
 11
110.493855
 21
142.427476
 31
0.000000
  6
CONTINUOUS
  0
LINE
  8
WHITE
 10
110.493855
 20
142.427476
 30
0.000000
 11
118.743585
 21
142.427476
 31
0.000000
  6
CONTINUOUS
  0
LINE
  8
WHITE
 10
118.743585
 20
142.427476
 30
0.000000
 11
125.897636
 21
139.648807
 31
0.000000
  6
CONTINUOUS
  0
LINE
  8
WHITE
 10
125.897636
 20
139.648807
 30
0.000000
 11
128.745598
 21
139.648807
 31
0.000000
  6
CONTINUOUS
  0
LINE
  8
WHITE
 10
128.745598
 20
139.648807
 30
0.000000
 11
131.305565
 21
142.239256
 31
0.000000
  6
CONTINUOUS
  0
LINE
  8
WHITE
 10
171.299797
 20
32.084204
 30
0.000000
 11
165.858478
 21
32.084204
 31
0.000000
  6
CONTINUOUS
  0
LINE
  8
WHITE
 10
165.858478
 20
32.084204
 30
0.000000
 11
165.858478
 21
14.692067
 31
0.000000
  6
CONTINUOUS
  0
LINE
  8
WHITE
 10
165.858478
 20
14.692067
 30
0.000000
 11
159.634908
 21
14.692067
 31
0.000000
  6
CONTINUOUS
  0
LINE
  8
WHITE
 10
159.634908
 20
14.692067
 30
0.000000
 11
159.634908
 21
37.677716
 31
0.000000
  6
CONTINUOUS
  0
LINE
  8
WHITE
 10
159.634908
 20
37.677716
 30
0.000000
 11
174.992119
 21
37.677716
 31
0.000000
  6
CONTINUOUS
  0
LINE
  8
WHITE
 10
174.992119
 20
37.677716
 30
0.000000
 11
179.811573
 21
32.433799
 31
0.000000
  6
CONTINUOUS
  0
LINE
  8
WHITE
 10
179.811573
 20
32.433799
 30
0.000000
 11
168.579137
 21
22.334403
 31
0.000000
  6
CONTINUOUS
  0
LINE
  8
WHITE
 10
168.579137
 20
22.334403
 30
0.000000
 11
167.750164
 21
23.297971
 31
0.000000
  6
CONTINUOUS
  0
LINE
  8
WHITE
 10
167.750164
 20
23.297971
 30
0.000000
 11
167.750164
 21
28.930821
 31
0.000000
  6
CONTINUOUS
  0
LINE
  8
WHITE
 10
167.750164
 20
28.930821
 30
0.000000
 11
171.299797
 21
32.084204
 31
0.000000
  6
CONTINUOUS
  0
LINE
  8
WHITE
 10
83.013830
 20
26.798374
 30
0.000000
 11
83.013830
 21
18.844124
 31
0.000000
  6
CONTINUOUS
  0
LINE
  8
WHITE
 10
83.013830
 20
18.844124
 30
0.000000
 11
79.359231
 21
14.692067
 31
0.000000
  6
CONTINUOUS
  0
LINE
  8
WHITE
 10
79.359231
 20
14.692067
 30
0.000000
 11
70.264601
 21
14.692067
 31
0.000000
  6
CONTINUOUS
  0
LINE
  8
WHITE
 10
70.264601
 20
14.692067
 30
0.000000
 11
70.264601
 21
20.584908
 31
0.000000
  6
CONTINUOUS
  0
LINE
  8
WHITE
 10
70.264601
 20
20.584908
 30
0.000000
 11
76.121879
 21
20.584908
 31
0.000000
  6
CONTINUOUS
  0
LINE
  8
WHITE
 10
76.121879
 20
20.584908
 30
0.000000
 11
76.121879
 21
23.710198
 31
0.000000
  6
CONTINUOUS
  0
LINE
  8
WHITE
 10
76.121879
 20
23.710198
 30
0.000000
 11
70.264601
 21
23.710198
 31
0.000000
  6
CONTINUOUS
  0
LINE
  8
WHITE
 10
70.264601
 20
23.710198
 30
0.000000
 11
70.264601
 21
29.855147
 31
0.000000
  6
CONTINUOUS
  0
LINE
  8
WHITE
 10
70.264601
 20
29.855147
 30
0.000000
 11
72.299661
 21
31.815094
 31
0.000000
  6
CONTINUOUS
  0
LINE
  8
WHITE
 10
72.299661
 20
31.815094
 30
0.000000
 11
70.264601
 21
31.815094
 31
0.000000
  6
CONTINUOUS
  0
LINE
  8
WHITE
 10
70.264601
 20
31.815094
 30
0.000000
 11
70.264601
 21
37.677716
 31
0.000000
  6
CONTINUOUS
  0
LINE
  8
WHITE
 10
70.264601
 20
37.677716
 30
0.000000
 11
77.731115
 21
37.677716
 31
0.000000
  6
CONTINUOUS
  0
LINE
  8
WHITE
 10
77.731115
 20
37.677716
 30
0.000000
 11
81.611831
 21
33.793132
 31
0.000000
  6
CONTINUOUS
  0
LINE
  8
WHITE
 10
81.611831
 20
33.793132
 30
0.000000
 11
77.004045
 21
29.192766
 31
0.000000
  6
CONTINUOUS
  0
LINE
  8
WHITE
 10
77.004045
 20
29.192766
 30
0.000000
 11
80.658644
 21
29.192766
 31
0.000000
  6
CONTINUOUS
  0
LINE
  8
WHITE
 10
80.658644
 20
29.192766
 30
0.000000
 11
83.013830
 21
26.798374
 31
0.000000
  6
CONTINUOUS
  0
ARC
  8
WHITE
 10
140.802696
 20
72.553657
 30
0.000000
 40
39.401166
 50
23.208570
 51
75.301058
  6
CONTINUOUS
  0
ARC
  8
WHITE
 10
125.348422
 20
86.638682
 30
0.000000
 40
35.001143
 50
14.614395
 51
43.349979
  6
CONTINUOUS
  0
LINE
  8
WHITE
 10
159.217131
 20
95.469907
 30
0.000000
 11
161.211283
 21
93.686179
 31
0.000000
  6
CONTINUOUS
  0
ARC
  8
WHITE
 10
155.085456
 20
51.332283
 30
0.000000
 40
42.794605
 50
59.173109
 51
81.770135
  6
CONTINUOUS
  0
LINE
  8
WHITE
 10
49.193950
 20
37.677716
 30
0.000000
 11
55.551001
 21
37.677716
 31
0.000000
  6
CONTINUOUS
  0
LINE
  8
WHITE
 10
55.551001
 20
37.677716
 30
0.000000
 11
59.282418
 21
34.084089
 31
0.000000
  6
CONTINUOUS
  0
LINE
  8
WHITE
 10
59.282418
 20
34.084089
 30
0.000000
 11
59.282418
 21
18.963737
 31
0.000000
  6
CONTINUOUS
  0
LINE
  8
WHITE
 10
59.282418
 20
18.963737
 30
0.000000
 11
55.551001
 21
14.692067
 31
0.000000
  6
CONTINUOUS
  0
LINE
  8
WHITE
 10
55.551001
 20
14.692067
 30
0.000000
 11
49.193950
 21
14.692067
 31
0.000000
  6
CONTINUOUS
  0
LINE
  8
WHITE
 10
49.193950
 20
14.692067
 30
0.000000
 11
49.193950
 21
20.794452
 31
0.000000
  6
CONTINUOUS
  0
LINE
  8
WHITE
 10
49.193950
 20
20.794452
 30
0.000000
 11
52.430179
 21
20.794452
 31
0.000000
  6
CONTINUOUS
  0
LINE
  8
WHITE
 10
52.430179
 20
20.794452
 30
0.000000
 11
52.430179
 21
31.439723
 31
0.000000
  6
CONTINUOUS
  0
LINE
  8
WHITE
 10
52.430179
 20
31.439723
 30
0.000000
 11
49.193950
 21
31.439723
 31
0.000000
  6
CONTINUOUS
  0
LINE
  8
WHITE
 10
49.193950
 20
31.439723
 30
0.000000
 11
49.193950
 21
37.677716
 31
0.000000
  6
CONTINUOUS
  0
LINE
  8
WHITE
 10
107.245830
 20
18.963737
 30
0.000000
 11
103.514412
 21
14.692067
 31
0.000000
  6
CONTINUOUS
  0
LINE
  8
WHITE
 10
103.514412
 20
14.692067
 30
0.000000
 11
97.157361
 21
14.692067
 31
0.000000
  6
CONTINUOUS
  0
LINE
  8
WHITE
 10
97.157361
 20
14.692067
 30
0.000000
 11
97.157361
 21
20.794452
 31
0.000000
  6
CONTINUOUS
  0
LINE
  8
WHITE
 10
97.157361
 20
20.794452
 30
0.000000
 11
100.393591
 21
20.794452
 31
0.000000
  6
CONTINUOUS
  0
LINE
  8
WHITE
 10
100.393591
 20
20.794452
 30
0.000000
 11
100.393591
 21
31.439723
 31
0.000000
  6
CONTINUOUS
  0
LINE
  8
WHITE
 10
100.393591
 20
31.439723
 30
0.000000
 11
97.157361
 21
31.439723
 31
0.000000
  6
CONTINUOUS
  0
LINE
  8
WHITE
 10
97.157361
 20
31.439723
 30
0.000000
 11
97.157361
 21
37.677716
 31
0.000000
  6
CONTINUOUS
  0
LINE
  8
WHITE
 10
97.157361
 20
37.677716
 30
0.000000
 11
103.514412
 21
37.677716
 31
0.000000
  6
CONTINUOUS
  0
LINE
  8
WHITE
 10
103.514412
 20
37.677716
 30
0.000000
 11
107.245830
 21
34.084089
 31
0.000000
  6
CONTINUOUS
  0
LINE
  8
WHITE
 10
107.245830
 20
34.084089
 30
0.000000
 11
107.245830
 21
18.963737
 31
0.000000
  6
CONTINUOUS
  0
LINE
  8
WHITE
 10
157.452193
 20
34.084089
 30
0.000000
 11
153.720775
 21
37.677716
 31
0.000000
  6
CONTINUOUS
  0
LINE
  8
WHITE
 10
153.720775
 20
37.677716
 30
0.000000
 11
147.363725
 21
37.677716
 31
0.000000
  6
CONTINUOUS
  0
LINE
  8
WHITE
 10
147.363725
 20
37.677716
 30
0.000000
 11
147.363725
 21
31.439723
 31
0.000000
  6
CONTINUOUS
  0
LINE
  8
WHITE
 10
147.363725
 20
31.439723
 30
0.000000
 11
150.599954
 21
31.439723
 31
0.000000
  6
CONTINUOUS
  0
LINE
  8
WHITE
 10
150.599954
 20
31.439723
 30
0.000000
 11
150.599954
 21
20.794452
 31
0.000000
  6
CONTINUOUS
  0
LINE
  8
WHITE
 10
150.599954
 20
20.794452
 30
0.000000
 11
147.363725
 21
20.794452
 31
0.000000
  6
CONTINUOUS
  0
LINE
  8
WHITE
 10
147.363725
 20
20.794452
 30
0.000000
 11
147.363725
 21
14.692067
 31
0.000000
  6
CONTINUOUS
  0
LINE
  8
WHITE
 10
147.363725
 20
14.692067
 30
0.000000
 11
153.720775
 21
14.692067
 31
0.000000
  6
CONTINUOUS
  0
LINE
  8
WHITE
 10
153.720775
 20
14.692067
 30
0.000000
 11
157.452193
 21
18.963737
 31
0.000000
  6
CONTINUOUS
  0
LINE
  8
WHITE
 10
157.452193
 20
18.963737
 30
0.000000
 11
157.452193
 21
34.084089
 31
0.000000
  6
CONTINUOUS
  0
LINE
  8
WHITE
 10
40.964552
 20
14.692067
 30
0.000000
 11
37.233134
 21
18.285694
 31
0.000000
  6
CONTINUOUS
  0
LINE
  8
WHITE
 10
37.233134
 20
18.285694
 30
0.000000
 11
37.233134
 21
34.084089
 31
0.000000
  6
CONTINUOUS
  0
LINE
  8
WHITE
 10
37.233134
 20
34.084089
 30
0.000000
 11
40.964552
 21
37.677716
 31
0.000000
  6
CONTINUOUS
  0
LINE
  8
WHITE
 10
40.964552
 20
37.677716
 30
0.000000
 11
47.253758
 21
37.677716
 31
0.000000
  6
CONTINUOUS
  0
LINE
  8
WHITE
 10
47.253758
 20
37.677716
 30
0.000000
 11
47.253758
 21
31.439723
 31
0.000000
  6
CONTINUOUS
  0
LINE
  8
WHITE
 10
47.253758
 20
31.439723
 30
0.000000
 11
44.017529
 21
31.439723
 31
0.000000
  6
CONTINUOUS
  0
LINE
  8
WHITE
 10
44.017529
 20
31.439723
 30
0.000000
 11
44.017529
 21
20.794452
 31
0.000000
  6
CONTINUOUS
  0
LINE
  8
WHITE
 10
44.017529
 20
20.794452
 30
0.000000
 11
47.253758
 21
20.794452
 31
0.000000
  6
CONTINUOUS
  0
LINE
  8
WHITE
 10
47.253758
 20
20.794452
 30
0.000000
 11
47.253758
 21
14.692067
 31
0.000000
  6
CONTINUOUS
  0
LINE
  8
WHITE
 10
47.253758
 20
14.692067
 30
0.000000
 11
40.964552
 21
14.692067
 31
0.000000
  6
CONTINUOUS
  0
LINE
  8
WHITE
 10
95.217170
 20
20.794452
 30
0.000000
 11
95.217170
 21
14.692067
 31
0.000000
  6
CONTINUOUS
  0
LINE
  8
WHITE
 10
95.217170
 20
14.692067
 30
0.000000
 11
88.927963
 21
14.692067
 31
0.000000
  6
CONTINUOUS
  0
LINE
  8
WHITE
 10
88.927963
 20
14.692067
 30
0.000000
 11
85.196545
 21
18.285694
 31
0.000000
  6
CONTINUOUS
  0
LINE
  8
WHITE
 10
85.196545
 20
18.285694
 30
0.000000
 11
85.196545
 21
34.084089
 31
0.000000
  6
CONTINUOUS
  0
LINE
  8
WHITE
 10
85.196545
 20
34.084089
 30
0.000000
 11
88.927963
 21
37.677716
 31
0.000000
  6
CONTINUOUS
  0
LINE
  8
WHITE
 10
88.927963
 20
37.677716
 30
0.000000
 11
95.217170
 21
37.677716
 31
0.000000
  6
CONTINUOUS
  0
LINE
  8
WHITE
 10
95.217170
 20
37.677716
 30
0.000000
 11
95.217170
 21
31.439723
 31
0.000000
  6
CONTINUOUS
  0
LINE
  8
WHITE
 10
95.217170
 20
31.439723
 30
0.000000
 11
91.980940
 21
31.439723
 31
0.000000
  6
CONTINUOUS
  0
LINE
  8
WHITE
 10
91.980940
 20
31.439723
 30
0.000000
 11
91.980940
 21
20.794452
 31
0.000000
  6
CONTINUOUS
  0
LINE
  8
WHITE
 10
91.980940
 20
20.794452
 30
0.000000
 11
95.217170
 21
20.794452
 31
0.000000
  6
CONTINUOUS
  0
LINE
  8
WHITE
 10
145.423534
 20
14.692067
 30
0.000000
 11
145.423534
 21
20.794452
 31
0.000000
  6
CONTINUOUS
  0
LINE
  8
WHITE
 10
145.423534
 20
20.794452
 30
0.000000
 11
142.187305
 21
20.794452
 31
0.000000
  6
CONTINUOUS
  0
LINE
  8
WHITE
 10
142.187305
 20
20.794452
 30
0.000000
 11
142.187305
 21
31.439723
 31
0.000000
  6
CONTINUOUS
  0
LINE
  8
WHITE
 10
142.187305
 20
31.439723
 30
0.000000
 11
145.423534
 21
31.439723
 31
0.000000
  6
CONTINUOUS
  0
LINE
  8
WHITE
 10
145.423534
 20
31.439723
 30
0.000000
 11
145.423534
 21
37.677716
 31
0.000000
  6
CONTINUOUS
  0
LINE
  8
WHITE
 10
145.423534
 20
37.677716
 30
0.000000
 11
139.134326
 21
37.677716
 31
0.000000
  6
CONTINUOUS
  0
LINE
  8
WHITE
 10
139.134326
 20
37.677716
 30
0.000000
 11
135.402909
 21
34.084089
 31
0.000000
  6
CONTINUOUS
  0
LINE
  8
WHITE
 10
135.402909
 20
34.084089
 30
0.000000
 11
135.402909
 21
18.285694
 31
0.000000
  6
CONTINUOUS
  0
LINE
  8
WHITE
 10
135.402909
 20
18.285694
 30
0.000000
 11
139.134326
 21
14.692067
 31
0.000000
  6
CONTINUOUS
  0
LINE
  8
WHITE
 10
139.134326
 20
14.692067
 30
0.000000
 11
145.423534
 21
14.692067
 31
0.000000
  6
CONTINUOUS
  0
LINE
  8
WHITE
 10
130.693332
 20
178.140998
 30
0.000000
 11
137.768231
 21
179.666118
 31
0.000000
  6
CONTINUOUS
  0
ARC
  8
WHITE
 10
131.713767
 20
171.713635
 30
0.000000
 40
9.994925
 50
7.437523
 51
52.716892
  6
CONTINUOUS
  0
ARC
  8
WHITE
 10
135.572274
 20
158.938470
 30
0.000000
 40
15.315556
 50
66.723103
 51
92.680705
  6
CONTINUOUS
  0
ARC
  8
WHITE
 10
126.668507
 20
149.750613
 30
0.000000
 40
25.819190
 50
58.195008
 51
71.511915
  6
CONTINUOUS
  0
ARC
  8
WHITE
 10
138.079716
 20
168.787781
 30
0.000000
 40
3.641942
 50
-6.112581
 51
52.911307
  6
CONTINUOUS
  0
ARC
  8
WHITE
 10
134.030201
 20
151.288876
 30
0.000000
 40
18.751806
 50
65.853743
 51
94.425955
  6
CONTINUOUS
  0
ARC
  8
WHITE
 10
125.618004
 20
138.414440
 30
0.000000
 40
32.329522
 50
67.026954
 51
77.558593
  6
CONTINUOUS
  0
ARC
  8
WHITE
 10
136.762409
 20
164.639260
 30
0.000000
 40
3.835071
 50
23.708513
 51
67.400914
  6
CONTINUOUS
  0
LINE
  8
WHITE
 10
140.273812
 20
166.181280
 30
0.000000
 11
141.330953
 21
166.894433
 31
0.000000
  6
CONTINUOUS
  0
LINE
  8
WHITE
 10
141.330953
 20
166.894433
 30
0.000000
 11
141.330953
 21
164.675736
 31
0.000000
  6
CONTINUOUS
  0
LINE
  8
WHITE
 10
141.330953
 20
164.675736
 30
0.000000
 11
131.658113
 21
164.675736
 31
0.000000
  6
CONTINUOUS
  0
LINE
  8
WHITE
 10
131.658113
 20
164.675736
 30
0.000000
 11
127.535264
 21
164.992693
 31
0.000000
  6
CONTINUOUS
  0
LINE
  8
WHITE
 10
127.535264
 20
164.992693
 30
0.000000
 11
130.116940
 21
183.924589
 31
0.000000
  6
CONTINUOUS
  0
ARC
  8
WHITE
 10
128.383603
 20
175.986937
 30
0.000000
 40
8.124702
 50
57.531054
 51
77.681748
  6
CONTINUOUS
  0
LINE
  8
WHITE
 10
132.745287
 20
182.841606
 30
0.000000
 11
133.828904
 21
182.841606
 31
0.000000
  6
CONTINUOUS
  0
LINE
  8
WHITE
 10
133.828904
 20
182.841606
 30
0.000000
 11
133.828904
 21
182.016819
 31
0.000000
  6
CONTINUOUS
  0
ARC
  8
WHITE
 10
128.383603
 20
175.986937
 30
0.000000
 40
8.124702
 50
41.683118
 51
47.916296
  6
CONTINUOUS
  0
LINE
  8
WHITE
 10
134.451408
 20
181.389948
 30
0.000000
 11
130.693332
 21
178.140998
 31
0.000000
  6
CONTINUOUS
  0
LINE
  8
WHITE
 10
61.465133
 20
14.692067
 30
0.000000
 11
68.372914
 21
14.692067
 31
0.000000
  6
CONTINUOUS
  0
LINE
  8
WHITE
 10
68.372914
 20
14.692067
 30
0.000000
 11
68.372914
 21
37.677716
 31
0.000000
  6
CONTINUOUS
  0
LINE
  8
WHITE
 10
68.372914
 20
37.677716
 30
0.000000
 11
61.465133
 21
37.677716
 31
0.000000
  6
CONTINUOUS
  0
LINE
  8
WHITE
 10
61.465133
 20
37.677716
 30
0.000000
 11
61.465133
 21
14.692067
 31
0.000000
  6
CONTINUOUS
  0
LINE
  8
WHITE
 10
102.617633
 20
154.484476
 30
0.000000
 11
101.179319
 21
155.527517
 31
0.000000
  6
CONTINUOUS
  0
LINE
  8
WHITE
 10
101.179319
 20
155.527517
 30
0.000000
 11
102.097652
 21
159.968461
 31
0.000000
  6
CONTINUOUS
  0
ARC
  8
WHITE
 10
110.355420
 20
122.966377
 30
0.000000
 40
37.912333
 50
102.580564
 51
106.799368
  6
CONTINUOUS
  0
LINE
  8
WHITE
 10
99.397950
 20
159.260713
 30
0.000000
 11
99.397950
 21
160.185860
 31
0.000000
  6
CONTINUOUS
  0
ARC
  8
WHITE
 10
110.355420
 20
122.966377
 30
0.000000
 40
38.798918
 50
97.908575
 51
106.404505
  6
CONTINUOUS
  0
ARC
  8
WHITE
 10
122.013122
 20
-99.227704
 30
0.000000
 40
261.177577
 50
89.461688
 51
93.731164
  6
CONTINUOUS
  0
LINE
  8
WHITE
 10
124.466934
 20
161.938347
 30
0.000000
 11
124.458604
 21
161.051801
 31
0.000000
  6
CONTINUOUS
  0
ARC
  8
WHITE
 10
122.013122
 20
-99.227704
 30
0.000000
 40
260.290993
 50
89.461688
 51
91.004316
  6
CONTINUOUS
  0
LINE
  8
WHITE
 10
117.450814
 20
161.023303
 30
0.000000
 11
116.713162
 21
154.484476
 31
0.000000
  6
CONTINUOUS
  0
LINE
  8
WHITE
 10
116.713162
 20
154.484476
 30
0.000000
 11
102.617633
 21
154.484476
 31
0.000000
  6
CONTINUOUS
  0
ARC
  8
WHITE
 10
149.550205
 20
160.799157
 30
0.000000
 40
11.321696
 50
179.892866
 51
219.726257
  6
CONTINUOUS
  0
LINE
  8
WHITE
 10
140.842612
 20
153.563231
 30
0.000000
 11
128.004558
 21
153.563231
 31
0.000000
  6
CONTINUOUS
  0
LINE
  8
WHITE
 10
128.004558
 20
153.563231
 30
0.000000
 11
125.971382
 21
153.911572
 31
0.000000
  6
CONTINUOUS
  0
LINE
  8
WHITE
 10
125.971382
 20
153.911572
 30
0.000000
 11
126.571654
 21
160.820327
 31
0.000000
  6
CONTINUOUS
  0
LINE
  8
WHITE
 10
126.571654
 20
160.820327
 30
0.000000
 11
138.228528
 21
160.820327
 31
0.000000
  6
CONTINUOUS
  0
LINE
  8
WHITE
 10
139.634059
 20
160.820327
 30
0.000000
 11
139.634060
 21
160.220285
 31
0.000000
  6
CONTINUOUS
  0
ARC
  8
WHITE
 10
139.950236
 20
159.545523
 30
0.000000
 40
0.745165
 50
73.404800
 51
115.106601
  6
CONTINUOUS
  0
ARC
  8
WHITE
 10
139.895765
 20
159.581623
 30
0.000000
 40
0.728812
 50
-39.204061
 51
68.484294
  6
CONTINUOUS
  0
ARC
  8
WHITE
 10
141.220982
 20
158.616318
 30
0.000000
 40
0.912665
 50
146.432132
 51
239.650655
  6
CONTINUOUS
  0
ARC
  8
WHITE
 10
140.053107
 20
155.954619
 30
0.000000
 40
2.002934
 50
55.478215
 51
69.338361
  6
CONTINUOUS
  0
ARC
  8
WHITE
 10
140.723337
 20
157.008794
 30
0.000000
 40
0.755908
 50
-9.469127
 51
52.049187
  6
CONTINUOUS
  0
ARC
  8
WHITE
 10
139.262187
 20
157.192015
 30
0.000000
 40
2.228090
 50
-49.241270
 51
-7.934804
  6
CONTINUOUS
  0
ARC
  8
WHITE
 10
149.550205
 20
160.799157
 30
0.000000
 40
10.298713
 50
179.882225
 51
210.939105
  6
CONTINUOUS
  0
LINE
  8
WHITE
 10
139.251513
 20
160.820327
 30
0.000000
 11
139.634059
 21
160.820327
 31
0.000000
  6
CONTINUOUS
  0
ENDSEC
  0
EOF
