  0
SECTION
  2
HEADER
  9
$ACADVER
  1
AC1015
  9
$ACADMAINTVER
 70
    20
  9
$DWGCODEPAGE
  3
ANSI_1252
  9
$INSBASE
 10
0.0
 20
0.0
 30
0.0
  9
$EXTMIN
 10
0.0
 20
0.0
 30
0.0
  9
$EXTMAX
 10
225.0
 20
225.0
 30
0.0
  9
$LIMMIN
 10
0.0
 20
0.0
  9
$LIMMAX
 10
12.0
 20
9.0
  9
$ORTHOMODE
 70
     0
  9
$REGENMODE
 70
     1
  9
$FILLMODE
 70
     1
  9
$QTEXTMODE
 70
     0
  9
$MIRRTEXT
 70
     1
  9
$LTSCALE
 40
1.0
  9
$ATTMODE
 70
     1
  9
$TEXTSIZE
 40
0.2
  9
$TRACEWID
 40
0.05
  9
$TEXTSTYLE
  7
Standard
  9
$CLAYER
  8
0
  9
$CELTYPE
  6
ByBlock
  9
$CECOLOR
 62
   256
  9
$CELTSCALE
 40
1.0
  9
$DISPSILH
 70
     0
  9
$DIMSCALE
 40
1.0
  9
$DIMASZ
 40
0.18
  9
$DIMEXO
 40
0.0625
  9
$DIMDLI
 40
0.38
  9
$DIMRND
 40
0.0
  9
$DIMDLE
 40
0.0
  9
$DIMEXE
 40
0.18
  9
$DIMTP
 40
0.0
  9
$DIMTM
 40
0.0
  9
$DIMTXT
 40
0.18
  9
$DIMCEN
 40
0.09
  9
$DIMTSZ
 40
0.0
  9
$DIMTOL
 70
     0
  9
$DIMLIM
 70
     0
  9
$DIMTIH
 70
     1
  9
$DIMTOH
 70
     1
  9
$DIMSE1
 70
     0
  9
$DIMSE2
 70
     0
  9
$DIMTAD
 70
     0
  9
$DIMZIN
 70
     0
  9
$DIMBLK
  1

  9
$DIMASO
 70
     1
  9
$DIMSHO
 70
     1
  9
$DIMPOST
  1

  9
$DIMAPOST
  1

  9
$DIMALT
 70
     0
  9
$DIMALTD
 70
     2
  9
$DIMALTF
 40
25.4
  9
$DIMLFAC
 40
1.0
  9
$DIMTOFL
 70
     0
  9
$DIMTVP
 40
0.0
  9
$DIMTIX
 70
     0
  9
$DIMSOXD
 70
     0
  9
$DIMSAH
 70
     0
  9
$DIMBLK1
  1

  9
$DIMBLK2
  1

  9
$DIMSTYLE
  2
Standard
  9
$DIMCLRD
 70
     0
  9
$DIMCLRE
 70
     0
  9
$DIMCLRT
 70
     0
  9
$DIMTFAC
 40
1.0
  9
$DIMGAP
 40
0.09
  9
$DIMJUST
 70
     0
  9
$DIMSD1
 70
     0
  9
$DIMSD2
 70
     0
  9
$DIMTOLJ
 70
     1
  9
$DIMTZIN
 70
     0
  9
$DIMALTZ
 70
     0
  9
$DIMALTTZ
 70
     0
  9
$DIMUPT
 70
     0
  9
$DIMDEC
 70
     4
  9
$DIMTDEC
 70
     4
  9
$DIMALTU
 70
     2
  9
$DIMALTTD
 70
     2
  9
$DIMTXSTY
  7
Standard
  9
$DIMAUNIT
 70
     0
  9
$DIMADEC
 70
     0
  9
$DIMALTRND
 40
0.0
  9
$DIMAZIN
 70
     0
  9
$DIMDSEP
 70
    46
  9
$DIMATFIT
 70
     3
  9
$DIMFRAC
 70
     0
  9
$DIMLDRBLK
  1

  9
$DIMLUNIT
 70
     2
  9
$DIMLWD
 70
    -2
  9
$DIMLWE
 70
    -2
  9
$DIMTMOVE
 70
     0
  9
$LUNITS
 70
     2
  9
$LUPREC
 70
     4
  9
$SKETCHINC
 40
0.1
  9
$FILLETRAD
 40
0.5
  9
$AUNITS
 70
     0
  9
$AUPREC
 70
     0
  9
$MENU
  1
.
  9
$ELEVATION
 40
0.0
  9
$PELEVATION
 40
0.0
  9
$THICKNESS
 40
0.0
  9
$LIMCHECK
 70
     0
  9
$CHAMFERA
 40
0.5
  9
$CHAMFERB
 40
0.5
  9
$CHAMFERC
 40
1.0
  9
$CHAMFERD
 40
0.0
  9
$SKPOLY
 70
     0
  9
$TDCREATE
 40
2455546.604872072
  9
$TDUCREATE
 40
2455546.813205405
  9
$TDUPDATE
 40
2455546.605291563
  9
$TDUUPDATE
 40
2455546.813624896
  9
$TDINDWG
 40
0.0002552083
  9
$TDUSRTIMER
 40
0.0002552083
  9
$USRTIMER
 70
     1
  9
$ANGBASE
 50
0.0
  9
$ANGDIR
 70
     0
  9
$PDMODE
 70
     0
  9
$PDSIZE
 40
0.0
  9
$PLINEWID
 40
0.0
  9
$SPLFRAME
 70
     0
  9
$SPLINETYPE
 70
     6
  9
$SPLINESEGS
 70
     8
  9
$HANDSEED
  5
4D0
  9
$SURFTAB1
 70
     6
  9
$SURFTAB2
 70
     6
  9
$SURFTYPE
 70
     6
  9
$SURFU
 70
     6
  9
$SURFV
 70
     6
  9
$UCSBASE
  2

  9
$UCSNAME
  2

  9
$UCSORG
 10
0.0
 20
0.0
 30
0.0
  9
$UCSXDIR
 10
1.0
 20
0.0
 30
0.0
  9
$UCSYDIR
 10
0.0
 20
1.0
 30
0.0
  9
$UCSORTHOREF
  2

  9
$UCSORTHOVIEW
 70
     0
  9
$UCSORGTOP
 10
0.0
 20
0.0
 30
0.0
  9
$UCSORGBOTTOM
 10
0.0
 20
0.0
 30
0.0
  9
$UCSORGLEFT
 10
0.0
 20
0.0
 30
0.0
  9
$UCSORGRIGHT
 10
0.0
 20
0.0
 30
0.0
  9
$UCSORGFRONT
 10
0.0
 20
0.0
 30
0.0
  9
$UCSORGBACK
 10
0.0
 20
0.0
 30
0.0
  9
$PUCSBASE
  2

  9
$PUCSNAME
  2

  9
$PUCSORG
 10
0.0
 20
0.0
 30
0.0
  9
$PUCSXDIR
 10
1.0
 20
0.0
 30
0.0
  9
$PUCSYDIR
 10
0.0
 20
1.0
 30
0.0
  9
$PUCSORTHOREF
  2

  9
$PUCSORTHOVIEW
 70
     0
  9
$PUCSORGTOP
 10
0.0
 20
0.0
 30
0.0
  9
$PUCSORGBOTTOM
 10
0.0
 20
0.0
 30
0.0
  9
$PUCSORGLEFT
 10
0.0
 20
0.0
 30
0.0
  9
$PUCSORGRIGHT
 10
0.0
 20
0.0
 30
0.0
  9
$PUCSORGFRONT
 10
0.0
 20
0.0
 30
0.0
  9
$PUCSORGBACK
 10
0.0
 20
0.0
 30
0.0
  9
$USERI1
 70
     0
  9
$USERI2
 70
     0
  9
$USERI3
 70
     0
  9
$USERI4
 70
     0
  9
$USERI5
 70
     0
  9
$USERR1
 40
0.0
  9
$USERR2
 40
0.0
  9
$USERR3
 40
0.0
  9
$USERR4
 40
0.0
  9
$USERR5
 40
0.0
  9
$WORLDVIEW
 70
     1
  9
$SHADEDGE
 70
     3
  9
$SHADEDIF
 70
    70
  9
$TILEMODE
 70
     1
  9
$MAXACTVP
 70
    64
  9
$PINSBASE
 10
0.0
 20
0.0
 30
0.0
  9
$PLIMCHECK
 70
     0
  9
$PEXTMIN
 10
1.000000000000000E 20
 20
1.000000000000000E 20
 30
1.000000000000000E 20
  9
$PEXTMAX
 10
-1.000000000000000E 20
 20
-1.000000000000000E 20
 30
-1.000000000000000E 20
  9
$PLIMMIN
 10
0.0
 20
0.0
  9
$PLIMMAX
 10
12.0
 20
9.0
  9
$UNITMODE
 70
     0
  9
$VISRETAIN
 70
     1
  9
$PLINEGEN
 70
     0
  9
$PSLTSCALE
 70
     1
  9
$TREEDEPTH
 70
  3020
  9
$CMLSTYLE
  2
Standard
  9
$CMLJUST
 70
     0
  9
$CMLSCALE
 40
1.0
  9
$PROXYGRAPHICS
 70
     1
  9
$MEASUREMENT
 70
     0
  9
$CELWEIGHT
370
    -1
  9
$ENDCAPS
280
     0
  9
$JOINSTYLE
280
     0
  9
$LWDISPLAY
290
     0
  9
$INSUNITS
 70
     0
  9
$HYPERLINKBASE
  1

  9
$STYLESHEET
  1

  9
$XEDIT
290
     1
  9
$CEPSNTYPE
380
     0
  9
$PSTYLEMODE
290
     1
  9
$FINGERPRINTGUID
  2
{508C176C-77EA-4BFB-B582-E1C19C924514}
  9
$VERSIONGUID
  2
{390AFC9D-A75B-4429-BC95-5DCAA9F366FA}
  9
$EXTNAMES
290
     1
  9
$PSVPSCALE
 40
0.0
  9
$OLESTARTUP
290
     0
  0
ENDSEC
  0
SECTION
  2
CLASSES
  0
CLASS
  1
ACDBDICTIONARYWDFLT
  2
AcDbDictionaryWithDefault
  3
ObjectDBX Classes
 90
        0
280
     0
281
     0
  0
CLASS
  1
TABLESTYLE
  2
AcDbTableStyle
  3
ObjectDBX Classes
 90
     2047
280
     0
281
     0
  0
CLASS
  1
DICTIONARYVAR
  2
AcDbDictionaryVar
  3
ObjectDBX Classes
 90
        0
280
     0
281
     0
  0
CLASS
  1
ACDBPLACEHOLDER
  2
AcDbPlaceHolder
  3
ObjectDBX Classes
 90
        0
280
     0
281
     0
  0
CLASS
  1
LAYOUT
  2
AcDbLayout
  3
ObjectDBX Classes
 90
        0
280
     0
281
     0
  0
ENDSEC
  0
SECTION
  2
TABLES
  0
TABLE
  2
VPORT
  5
8
330
0
100
AcDbSymbolTable
 70
     3
  0
VPORT
  5
4CA
330
8
100
AcDbSymbolTableRecord
100
AcDbViewportTableRecord
  2
*Active
 70
     0
 10
0.0
 20
0.0
 11
1.0
 21
1.0
 12
112.5
 22
112.5
 13
0.0
 23
0.0
 14
0.5
 24
0.5
 15
0.5
 25
0.5
 16
0.0
 26
0.0
 36
1.0
 17
0.0
 27
0.0
 37
0.0
 40
226.7693315858454
 41
2.10761154855643
 42
50.0
 43
0.0
 44
0.0
 50
0.0
 51
0.0
 71
     0
 72
 20000
 73
     1
 74
     3
 75
     0
 76
     0
 77
     0
 78
     0
281
     0
 65
     1
110
0.0
120
0.0
130
0.0
111
1.0
121
0.0
131
0.0
112
0.0
122
1.0
132
0.0
 79
     0
146
0.0
  0
ENDTAB
  0
TABLE
  2
LTYPE
  5
5
330
0
100
AcDbSymbolTable
 70
     1
  0
LTYPE
  5
14
330
5
100
AcDbSymbolTableRecord
100
AcDbLinetypeTableRecord
  2
ByBlock
 70
     0
  3

 72
    65
 73
     0
 40
0.0
  0
LTYPE
  5
15
330
5
100
AcDbSymbolTableRecord
100
AcDbLinetypeTableRecord
  2
ByLayer
 70
     0
  3

 72
    65
 73
     0
 40
0.0
  0
LTYPE
  5
16
330
5
100
AcDbSymbolTableRecord
100
AcDbLinetypeTableRecord
  2
Continuous
 70
     0
  3
Solid line
 72
    65
 73
     0
 40
0.0
  0
ENDTAB
  0
TABLE
  2
LAYER
  5
2
330
0
100
AcDbSymbolTable
 70
     1
  0
LAYER
  5
10
330
2
100
AcDbSymbolTableRecord
100
AcDbLayerTableRecord
  2
0
 70
     0
 62
     7
  6
Continuous
370
    -3
390
F
  0
ENDTAB
  0
TABLE
  2
STYLE
  5
3
330
0
100
AcDbSymbolTable
 70
     1
  0
STYLE
  5
11
330
3
100
AcDbSymbolTableRecord
100
AcDbTextStyleTableRecord
  2
Standard
 70
     0
 40
0.0
 41
1.0
 50
0.0
 71
     0
 42
0.2
  3
txt
  4

  0
ENDTAB
  0
TABLE
  2
VIEW
  5
6
330
0
100
AcDbSymbolTable
 70
     0
  0
ENDTAB
  0
TABLE
  2
UCS
  5
7
330
0
100
AcDbSymbolTable
 70
     0
  0
ENDTAB
  0
TABLE
  2
APPID
  5
9
330
0
100
AcDbSymbolTable
 70
     1
  0
APPID
  5
12
330
9
100
AcDbSymbolTableRecord
100
AcDbRegAppTableRecord
  2
ACAD
 70
     0
  0
ENDTAB
  0
TABLE
  2
DIMSTYLE
  5
A
330
0
100
AcDbSymbolTable
 70
     1
100
AcDbDimStyleTable
 71
     0
  0
DIMSTYLE
105
20
330
A
100
AcDbSymbolTableRecord
100
AcDbDimStyleTableRecord
  2
Standard
 70
     0
340
11
  0
ENDTAB
  0
TABLE
  2
BLOCK_RECORD
  5
1
330
0
100
AcDbSymbolTable
 70
     0
  0
BLOCK_RECORD
  5
1D
330
1
100
AcDbSymbolTableRecord
100
AcDbBlockTableRecord
  2
*Model_Space
340
1E
  0
BLOCK_RECORD
  5
1B
330
1
100
AcDbSymbolTableRecord
100
AcDbBlockTableRecord
  2
*Paper_Space
340
1C
  0
ENDTAB
  0
ENDSEC
  0
SECTION
  2
BLOCKS
  0
BLOCK
  5
4AE
330
1D
100
AcDbEntity
  8
0
100
AcDbBlockBegin
  2
*Model_Space
 70
     0
 10
0.0
 20
0.0
 30
0.0
  3
*Model_Space
  1

  0
ENDBLK
  5
4AF
330
1D
100
AcDbEntity
  8
0
100
AcDbBlockEnd
  0
BLOCK
  5
4B0
330
1B
100
AcDbEntity
 67
     1
  8
0
100
AcDbBlockBegin
  2
*Paper_Space
 70
     0
 10
0.0
 20
0.0
 30
0.0
  3
*Paper_Space
  1

  0
ENDBLK
  5
4B1
330
1B
100
AcDbEntity
 67
     1
  8
0
100
AcDbBlockEnd
  0
ENDSEC
  0
SECTION
  2
ENTITIES
  0
LINE
  5
21
330
1D
100
AcDbEntity
  8
0
100
AcDbLine
 10
0.0
 20
112.5
 30
0.0
 11
0.0
 21
0.0
 31
0.0
  0
LINE
  5
22
330
1D
100
AcDbEntity
  8
0
100
AcDbLine
 10
0.0
 20
0.0
 30
0.0
 11
112.5
 21
0.0
 31
0.0
  0
LINE
  5
23
330
1D
100
AcDbEntity
  8
0
100
AcDbLine
 10
112.5
 20
0.0
 30
0.0
 11
225.0
 21
0.0
 31
0.0
  0
LINE
  5
24
330
1D
100
AcDbEntity
  8
0
100
AcDbLine
 10
225.0
 20
0.0
 30
0.0
 11
225.0
 21
112.5
 31
0.0
  0
LINE
  5
25
330
1D
100
AcDbEntity
  8
0
100
AcDbLine
 10
225.0
 20
112.5
 30
0.0
 11
225.0
 21
225.0
 31
0.0
  0
LINE
  5
26
330
1D
100
AcDbEntity
  8
0
100
AcDbLine
 10
225.0
 20
225.0
 30
0.0
 11
112.5
 21
225.0
 31
0.0
  0
LINE
  5
27
330
1D
100
AcDbEntity
  8
0
100
AcDbLine
 10
112.5
 20
225.0
 30
0.0
 11
0.0
 21
225.0
 31
0.0
  0
LINE
  5
28
330
1D
100
AcDbEntity
  8
0
100
AcDbLine
 10
0.0
 20
225.0
 30
0.0
 11
0.0
 21
112.5
 31
0.0
  0
LINE
  5
29
330
1D
100
AcDbEntity
  8
0
100
AcDbLine
 10
134.5
 20
211.5
 30
0.0
 11
136.827990722656
 21
210.991186523438
 31
0.0
  0
LINE
  5
2A
330
1D
100
AcDbEntity
  8
0
100
AcDbLine
 10
136.827990722656
 20
210.991186523438
 30
0.0
 11
139.035998535156
 21
210.45361328125
 31
0.0
  0
LINE
  5
2B
330
1D
100
AcDbEntity
  8
0
100
AcDbLine
 10
139.035998535156
 20
210.45361328125
 30
0.0
 11
140.980004882813
 21
209.930395507813
 31
0.0
  0
LINE
  5
2C
330
1D
100
AcDbEntity
  8
0
100
AcDbLine
 10
140.980004882813
 20
209.930395507813
 30
0.0
 11
142.516003417969
 21
209.464819335938
 31
0.0
  0
LINE
  5
2D
330
1D
100
AcDbEntity
  8
0
100
AcDbLine
 10
142.516003417969
 20
209.464819335938
 30
0.0
 11
143.5
 21
209.1
 31
0.0
  0
LINE
  5
2E
330
1D
100
AcDbEntity
  8
0
100
AcDbLine
 10
143.5
 20
209.1
 30
0.0
 11
144.459997558594
 21
208.62958984375
 31
0.0
  0
LINE
  5
2F
330
1D
100
AcDbEntity
  8
0
100
AcDbLine
 10
144.459997558594
 20
208.62958984375
 30
0.0
 11
145.924011230469
 21
207.976806640625
 31
0.0
  0
LINE
  5
30
330
1D
100
AcDbEntity
  8
0
100
AcDbLine
 10
145.924011230469
 20
207.976806640625
 30
0.0
 11
147.747998046875
 21
207.199194335938
 31
0.0
  0
LINE
  5
31
330
1D
100
AcDbEntity
  8
0
100
AcDbLine
 10
147.747998046875
 20
207.199194335938
 30
0.0
 11
149.788000488281
 21
206.35439453125
 31
0.0
  0
LINE
  5
32
330
1D
100
AcDbEntity
  8
0
100
AcDbLine
 10
149.788000488281
 20
206.35439453125
 30
0.0
 11
151.9
 21
205.5
 31
0.0
  0
LINE
  5
33
330
1D
100
AcDbEntity
  8
0
100
AcDbLine
 10
151.9
 20
205.5
 30
0.0
 11
158.473596191406
 21
202.555981445313
 31
0.0
  0
LINE
  5
34
330
1D
100
AcDbEntity
  8
0
100
AcDbLine
 10
158.473596191406
 20
202.555981445313
 30
0.0
 11
164.840808105469
 21
198.939990234375
 31
0.0
  0
LINE
  5
35
330
1D
100
AcDbEntity
  8
0
100
AcDbLine
 10
164.840808105469
 20
198.939990234375
 30
0.0
 11
171.131201171875
 21
194.556005859375
 31
0.0
  0
LINE
  5
36
330
1D
100
AcDbEntity
  8
0
100
AcDbLine
 10
171.131201171875
 20
194.556005859375
 30
0.0
 11
177.474401855469
 21
189.3079956054689
 31
0.0
  0
LINE
  5
37
330
1D
100
AcDbEntity
  8
0
100
AcDbLine
 10
177.474401855469
 20
189.3079956054689
 30
0.0
 11
184.0
 21
183.1
 31
0.0
  0
LINE
  5
38
330
1D
100
AcDbEntity
  8
0
100
AcDbLine
 10
184.0
 20
183.1
 30
0.0
 11
188.493591308594
 21
178.44638671875
 31
0.0
  0
LINE
  5
39
330
1D
100
AcDbEntity
  8
0
100
AcDbLine
 10
188.493591308594
 20
178.44638671875
 30
0.0
 11
191.988806152344
 21
174.527197265625
 31
0.0
  0
LINE
  5
3A
330
1D
100
AcDbEntity
  8
0
100
AcDbLine
 10
191.988806152344
 20
174.527197265625
 30
0.0
 11
194.807202148438
 21
170.9248046875
 31
0.0
  0
LINE
  5
3B
330
1D
100
AcDbEntity
  8
0
100
AcDbLine
 10
194.807202148438
 20
170.9248046875
 30
0.0
 11
197.270397949219
 21
167.221606445313
 31
0.0
  0
LINE
  5
3C
330
1D
100
AcDbEntity
  8
0
100
AcDbLine
 10
197.270397949219
 20
167.221606445313
 30
0.0
 11
199.7
 21
163.0
 31
0.0
  0
LINE
  5
3D
330
1D
100
AcDbEntity
  8
0
100
AcDbLine
 10
199.7
 20
163.0
 30
0.0
 11
204.65439453125
 21
152.8671875
 31
0.0
  0
LINE
  5
3E
330
1D
100
AcDbEntity
  8
0
100
AcDbLine
 10
204.65439453125
 20
152.8671875
 30
0.0
 11
208.39921875
 21
142.94560546875
 31
0.0
  0
LINE
  5
3F
330
1D
100
AcDbEntity
  8
0
100
AcDbLine
 10
208.39921875
 20
142.94560546875
 30
0.0
 11
210.996801757813
 21
132.990405273438
 31
0.0
  0
LINE
  5
40
330
1D
100
AcDbEntity
  8
0
100
AcDbLine
 10
210.996801757813
 20
132.990405273438
 30
0.0
 11
212.509594726563
 21
122.756799316406
 31
0.0
  0
LINE
  5
41
330
1D
100
AcDbEntity
  8
0
100
AcDbLine
 10
212.509594726563
 20
122.756799316406
 30
0.0
 11
213.0
 21
112.0
 31
0.0
  0
LINE
  5
42
330
1D
100
AcDbEntity
  8
0
100
AcDbLine
 10
213.0
 20
112.0
 30
0.0
 11
212.569604492188
 21
103.760791015625
 31
0.0
  0
LINE
  5
43
330
1D
100
AcDbEntity
  8
0
100
AcDbLine
 10
212.569604492188
 20
103.760791015625
 30
0.0
 11
211.42880859375
 21
94.71040039062499
 31
0.0
  0
LINE
  5
44
330
1D
100
AcDbEntity
  8
0
100
AcDbLine
 10
211.42880859375
 20
94.71040039062499
 30
0.0
 11
209.803198242188
 21
86.02960205078131
 31
0.0
  0
LINE
  5
45
330
1D
100
AcDbEntity
  8
0
100
AcDbLine
 10
209.803198242188
 20
86.02960205078131
 30
0.0
 11
207.918408203125
 21
78.89920043945309
 31
0.0
  0
LINE
  5
46
330
1D
100
AcDbEntity
  8
0
100
AcDbLine
 10
207.918408203125
 20
78.89920043945309
 30
0.0
 11
206.0
 21
74.5
 31
0.0
  0
LINE
  5
47
330
1D
100
AcDbEntity
  8
0
100
AcDbLine
 10
206.0
 20
74.5
 30
0.0
 11
205.740014648438
 21
74.0783996582031
 31
0.0
  0
LINE
  5
48
330
1D
100
AcDbEntity
  8
0
100
AcDbLine
 10
205.740014648438
 20
74.0783996582031
 30
0.0
 11
205.456005859375
 21
73.4552001953125
 31
0.0
  0
LINE
  5
49
330
1D
100
AcDbEntity
  8
0
100
AcDbLine
 10
205.456005859375
 20
73.4552001953125
 30
0.0
 11
205.171997070313
 21
72.6927978515625
 31
0.0
  0
LINE
  5
4A
330
1D
100
AcDbEntity
  8
0
100
AcDbLine
 10
205.171997070313
 20
72.6927978515625
 30
0.0
 11
204.91201171875
 21
71.8536010742188
 31
0.0
  0
LINE
  5
4B
330
1D
100
AcDbEntity
  8
0
100
AcDbLine
 10
204.91201171875
 20
71.8536010742188
 30
0.0
 11
204.7
 21
71.0
 31
0.0
  0
LINE
  5
4C
330
1D
100
AcDbEntity
  8
0
100
AcDbLine
 10
204.7
 20
71.0
 30
0.0
 11
203.343994140625
 21
67.7935974121094
 31
0.0
  0
LINE
  5
4D
330
1D
100
AcDbEntity
  8
0
100
AcDbLine
 10
203.343994140625
 20
67.7935974121094
 30
0.0
 11
200.692004394531
 21
62.9408020019531
 31
0.0
  0
LINE
  5
4E
330
1D
100
AcDbEntity
  8
0
100
AcDbLine
 10
200.692004394531
 20
62.9408020019531
 30
0.0
 11
197.247998046875
 21
57.29119873046879
 31
0.0
  0
LINE
  5
4F
330
1D
100
AcDbEntity
  8
0
100
AcDbLine
 10
197.247998046875
 20
57.29119873046879
 30
0.0
 11
193.516003417969
 21
51.6943969726563
 31
0.0
  0
LINE
  5
50
330
1D
100
AcDbEntity
  8
0
100
AcDbLine
 10
193.516003417969
 20
51.6943969726563
 30
0.0
 11
190.0
 21
47.0
 31
0.0
  0
LINE
  5
51
330
1D
100
AcDbEntity
  8
0
100
AcDbLine
 10
190.0
 20
47.0
 30
0.0
 11
186.127197265625
 21
42.7279998779297
 31
0.0
  0
LINE
  5
52
330
1D
100
AcDbEntity
  8
0
100
AcDbLine
 10
186.127197265625
 20
42.7279998779297
 30
0.0
 11
181.001599121094
 21
37.7840026855469
 31
0.0
  0
LINE
  5
53
330
1D
100
AcDbEntity
  8
0
100
AcDbLine
 10
181.001599121094
 20
37.7840026855469
 30
0.0
 11
175.36240234375
 21
32.8160003662109
 31
0.0
  0
LINE
  5
54
330
1D
100
AcDbEntity
  8
0
100
AcDbLine
 10
175.36240234375
 20
32.8160003662109
 30
0.0
 11
169.948803710938
 21
28.4720001220703
 31
0.0
  0
LINE
  5
55
330
1D
100
AcDbEntity
  8
0
100
AcDbLine
 10
169.948803710938
 20
28.4720001220703
 30
0.0
 11
165.5
 21
25.4
 31
0.0
  0
LINE
  5
56
330
1D
100
AcDbEntity
  8
0
100
AcDbLine
 10
165.5
 20
25.4
 30
0.0
 11
159.08720703125
 21
21.8023986816406
 31
0.0
  0
LINE
  5
57
330
1D
100
AcDbEntity
  8
0
100
AcDbLine
 10
159.08720703125
 20
21.8023986816406
 30
0.0
 11
152.357592773438
 21
18.5792007446289
 31
0.0
  0
LINE
  5
58
330
1D
100
AcDbEntity
  8
0
100
AcDbLine
 10
152.357592773438
 20
18.5792007446289
 30
0.0
 11
145.35439453125
 21
15.7447998046875
 31
0.0
  0
LINE
  5
59
330
1D
100
AcDbEntity
  8
0
100
AcDbLine
 10
145.35439453125
 20
15.7447998046875
 30
0.0
 11
138.12080078125
 21
13.3136001586914
 31
0.0
  0
LINE
  5
5A
330
1D
100
AcDbEntity
  8
0
100
AcDbLine
 10
138.12080078125
 20
13.3136001586914
 30
0.0
 11
130.7
 21
11.3
 31
0.0
  0
LINE
  5
5B
330
1D
100
AcDbEntity
  8
0
100
AcDbLine
 10
130.7
 20
11.3
 30
0.0
 11
129.305590820313
 21
11.1095993041992
 31
0.0
  0
LINE
  5
5C
330
1D
100
AcDbEntity
  8
0
100
AcDbLine
 10
129.305590820313
 20
11.1095993041992
 30
0.0
 11
126.744812011719
 21
10.9048004150391
 31
0.0
  0
LINE
  5
5D
330
1D
100
AcDbEntity
  8
0
100
AcDbLine
 10
126.744812011719
 20
10.9048004150391
 30
0.0
 11
123.291198730469
 21
10.6952003479004
 31
0.0
  0
LINE
  5
5E
330
1D
100
AcDbEntity
  8
0
100
AcDbLine
 10
123.291198730469
 20
10.6952003479004
 30
0.0
 11
119.218408203125
 21
10.4903999328613
 31
0.0
  0
LINE
  5
5F
330
1D
100
AcDbEntity
  8
0
100
AcDbLine
 10
119.218408203125
 20
10.4903999328613
 30
0.0
 11
114.8
 21
10.3
 31
0.0
  0
LINE
  5
60
330
1D
100
AcDbEntity
  8
0
100
AcDbLine
 10
114.8
 20
10.3
 30
0.0
 11
108.694396972656
 21
10.1407997131348
 31
0.0
  0
LINE
  5
61
330
1D
100
AcDbEntity
  8
0
100
AcDbLine
 10
108.694396972656
 20
10.1407997131348
 30
0.0
 11
103.875207519531
 21
10.1784004211426
 31
0.0
  0
LINE
  5
62
330
1D
100
AcDbEntity
  8
0
100
AcDbLine
 10
103.875207519531
 20
10.1784004211426
 30
0.0
 11
99.70879516601561
 21
10.4656005859375
 31
0.0
  0
LINE
  5
63
330
1D
100
AcDbEntity
  8
0
100
AcDbLine
 10
99.70879516601561
 20
10.4656005859375
 30
0.0
 11
95.56160278320311
 21
11.0552001953125
 31
0.0
  0
LINE
  5
64
330
1D
100
AcDbEntity
  8
0
100
AcDbLine
 10
95.56160278320311
 20
11.0552001953125
 30
0.0
 11
90.8
 21
12.0
 31
0.0
  0
LINE
  5
65
330
1D
100
AcDbEntity
  8
0
100
AcDbLine
 10
90.8
 20
12.0
 30
0.0
 11
84.1527954101563
 21
13.6239990234375
 31
0.0
  0
LINE
  5
66
330
1D
100
AcDbEntity
  8
0
100
AcDbLine
 10
84.1527954101563
 20
13.6239990234375
 30
0.0
 11
77.60640258789059
 21
15.6559997558594
 31
0.0
  0
LINE
  5
67
330
1D
100
AcDbEntity
  8
0
100
AcDbLine
 10
77.60640258789059
 20
15.6559997558594
 30
0.0
 11
71.45360107421879
 21
17.9760009765625
 31
0.0
  0
LINE
  5
68
330
1D
100
AcDbEntity
  8
0
100
AcDbLine
 10
71.45360107421879
 20
17.9760009765625
 30
0.0
 11
65.9872009277344
 21
20.4639999389648
 31
0.0
  0
LINE
  5
69
330
1D
100
AcDbEntity
  8
0
100
AcDbLine
 10
65.9872009277344
 20
20.4639999389648
 30
0.0
 11
61.5
 21
23.0
 31
0.0
  0
LINE
  5
6A
330
1D
100
AcDbEntity
  8
0
100
AcDbLine
 10
61.5
 20
23.0
 30
0.0
 11
60.0903991699219
 21
23.8767990112305
 31
0.0
  0
LINE
  5
6B
330
1D
100
AcDbEntity
  8
0
100
AcDbLine
 10
60.0903991699219
 20
23.8767990112305
 30
0.0
 11
58.5752014160156
 21
24.7824005126953
 31
0.0
  0
LINE
  5
6C
330
1D
100
AcDbEntity
  8
0
100
AcDbLine
 10
58.5752014160156
 20
24.7824005126953
 30
0.0
 11
57.0648010253906
 21
25.6496002197266
 31
0.0
  0
LINE
  5
6D
330
1D
100
AcDbEntity
  8
0
100
AcDbLine
 10
57.0648010253906
 20
25.6496002197266
 30
0.0
 11
55.6696044921875
 21
26.4111999511719
 31
0.0
  0
LINE
  5
6E
330
1D
100
AcDbEntity
  8
0
100
AcDbLine
 10
55.6696044921875
 20
26.4111999511719
 30
0.0
 11
54.5
 21
27.0
 31
0.0
  0
LINE
  5
6F
330
1D
100
AcDbEntity
  8
0
100
AcDbLine
 10
54.5
 20
27.0
 30
0.0
 11
51.2399963378906
 21
29.4655975341797
 31
0.0
  0
LINE
  5
70
330
1D
100
AcDbEntity
  8
0
100
AcDbLine
 10
51.2399963378906
 20
29.4655975341797
 30
0.0
 11
45.8679992675781
 21
34.2927978515625
 31
0.0
  0
LINE
  5
71
330
1D
100
AcDbEntity
  8
0
100
AcDbLine
 10
45.8679992675781
 20
34.2927978515625
 30
0.0
 11
39.7759979248047
 21
40.1472015380859
 31
0.0
  0
LINE
  5
72
330
1D
100
AcDbEntity
  8
0
100
AcDbLine
 10
39.7759979248047
 20
40.1472015380859
 30
0.0
 11
34.3559997558594
 21
45.6944030761719
 31
0.0
  0
LINE
  5
73
330
1D
100
AcDbEntity
  8
0
100
AcDbLine
 10
34.3559997558594
 20
45.6944030761719
 30
0.0
 11
31.0
 21
49.6
 31
0.0
  0
LINE
  5
74
330
1D
100
AcDbEntity
  8
0
100
AcDbLine
 10
31.0
 20
49.6
 30
0.0
 11
28.5327972412109
 21
53.04959716796879
 31
0.0
  0
LINE
  5
75
330
1D
100
AcDbEntity
  8
0
100
AcDbLine
 10
28.5327972412109
 20
53.04959716796879
 30
0.0
 11
26.8144012451172
 21
55.4768005371094
 31
0.0
  0
LINE
  5
76
330
1D
100
AcDbEntity
  8
0
100
AcDbLine
 10
26.8144012451172
 20
55.4768005371094
 30
0.0
 11
25.7295989990234
 21
57.05919799804689
 31
0.0
  0
LINE
  5
77
330
1D
100
AcDbEntity
  8
0
100
AcDbLine
 10
25.7295989990234
 20
57.05919799804689
 30
0.0
 11
25.163200378418
 21
57.9744018554688
 31
0.0
  0
LINE
  5
78
330
1D
100
AcDbEntity
  8
0
100
AcDbLine
 10
25.163200378418
 20
57.9744018554688
 30
0.0
 11
25.0
 21
58.39999999999999
 31
0.0
  0
LINE
  5
79
330
1D
100
AcDbEntity
  8
0
100
AcDbLine
 10
25.0
 20
58.39999999999999
 30
0.0
 11
24.852799987793
 21
58.816796875
 31
0.0
  0
LINE
  5
7A
330
1D
100
AcDbEntity
  8
0
100
AcDbLine
 10
24.852799987793
 20
58.816796875
 30
0.0
 11
24.4464004516602
 21
59.6463989257813
 31
0.0
  0
LINE
  5
7B
330
1D
100
AcDbEntity
  8
0
100
AcDbLine
 10
24.4464004516602
 20
59.6463989257813
 30
0.0
 11
23.8335998535156
 21
60.79760131835939
 31
0.0
  0
LINE
  5
7C
330
1D
100
AcDbEntity
  8
0
100
AcDbLine
 10
23.8335998535156
 20
60.79760131835939
 30
0.0
 11
23.0671997070313
 21
62.1792053222656
 31
0.0
  0
LINE
  5
7D
330
1D
100
AcDbEntity
  8
0
100
AcDbLine
 10
23.0671997070313
 20
62.1792053222656
 30
0.0
 11
22.2
 21
63.7
 31
0.0
  0
LINE
  5
7E
330
1D
100
AcDbEntity
  8
0
100
AcDbLine
 10
22.2
 20
63.7
 30
0.0
 11
20.4303985595703
 21
67.00719604492189
 31
0.0
  0
LINE
  5
7F
330
1D
100
AcDbEntity
  8
0
100
AcDbLine
 10
20.4303985595703
 20
67.00719604492189
 30
0.0
 11
18.5311996459961
 21
71.00560302734379
 31
0.0
  0
LINE
  5
80
330
1D
100
AcDbEntity
  8
0
100
AcDbLine
 10
18.5311996459961
 20
71.00560302734379
 30
0.0
 11
16.7567993164063
 21
75.0903991699219
 31
0.0
  0
LINE
  5
81
330
1D
100
AcDbEntity
  8
0
100
AcDbLine
 10
16.7567993164063
 20
75.0903991699219
 30
0.0
 11
15.3615997314453
 21
78.65679931640631
 31
0.0
  0
LINE
  5
82
330
1D
100
AcDbEntity
  8
0
100
AcDbLine
 10
15.3615997314453
 20
78.65679931640631
 30
0.0
 11
14.6
 21
81.09999999999999
 31
0.0
  0
LINE
  5
83
330
1D
100
AcDbEntity
  8
0
100
AcDbLine
 10
14.6
 20
81.09999999999999
 30
0.0
 11
14.4583984375
 21
81.63199462890629
 31
0.0
  0
LINE
  5
84
330
1D
100
AcDbEntity
  8
0
100
AcDbLine
 10
14.4583984375
 20
81.63199462890629
 30
0.0
 11
14.2832015991211
 21
82.23600463867191
 31
0.0
  0
LINE
  5
85
330
1D
100
AcDbEntity
  8
0
100
AcDbLine
 10
14.2832015991211
 20
82.23600463867191
 30
0.0
 11
14.0888000488281
 21
82.8639953613281
 31
0.0
  0
LINE
  5
86
330
1D
100
AcDbEntity
  8
0
100
AcDbLine
 10
14.0888000488281
 20
82.8639953613281
 30
0.0
 11
13.889599609375
 21
83.46800537109379
 31
0.0
  0
LINE
  5
87
330
1D
100
AcDbEntity
  8
0
100
AcDbLine
 10
13.889599609375
 20
83.46800537109379
 30
0.0
 11
13.7
 21
84.0
 31
0.0
  0
LINE
  5
88
330
1D
100
AcDbEntity
  8
0
100
AcDbLine
 10
13.7
 20
84.0
 30
0.0
 11
12.6064002990723
 21
87.7927917480469
 31
0.0
  0
LINE
  5
89
330
1D
100
AcDbEntity
  8
0
100
AcDbLine
 10
12.6064002990723
 20
87.7927917480469
 30
0.0
 11
11.647200012207
 21
93.0783996582031
 31
0.0
  0
LINE
  5
8A
330
1D
100
AcDbEntity
  8
0
100
AcDbLine
 10
11.647200012207
 20
93.0783996582031
 30
0.0
 11
10.8848007202148
 21
99.35759887695311
 31
0.0
  0
LINE
  5
8B
330
1D
100
AcDbEntity
  8
0
100
AcDbLine
 10
10.8848007202148
 20
99.35759887695311
 30
0.0
 11
10.381600189209
 21
106.131201171875
 31
0.0
  0
LINE
  5
8C
330
1D
100
AcDbEntity
  8
0
100
AcDbLine
 10
10.381600189209
 20
106.131201171875
 30
0.0
 11
10.2
 21
112.9
 31
0.0
  0
LINE
  5
8D
330
1D
100
AcDbEntity
  8
0
100
AcDbLine
 10
10.2
 20
112.9
 30
0.0
 11
10.2888000488281
 21
119.19599609375
 31
0.0
  0
LINE
  5
8E
330
1D
100
AcDbEntity
  8
0
100
AcDbLine
 10
10.2888000488281
 20
119.19599609375
 30
0.0
 11
10.6224006652832
 21
124.5080078125
 31
0.0
  0
LINE
  5
8F
330
1D
100
AcDbEntity
  8
0
100
AcDbLine
 10
10.6224006652832
 20
124.5080078125
 30
0.0
 11
11.3015998840332
 21
129.532006835938
 31
0.0
  0
LINE
  5
90
330
1D
100
AcDbEntity
  8
0
100
AcDbLine
 10
11.3015998840332
 20
129.532006835938
 30
0.0
 11
12.4272003173828
 21
134.964001464844
 31
0.0
  0
LINE
  5
91
330
1D
100
AcDbEntity
  8
0
100
AcDbLine
 10
12.4272003173828
 20
134.964001464844
 30
0.0
 11
14.1
 21
141.5
 31
0.0
  0
LINE
  5
92
330
1D
100
AcDbEntity
  8
0
100
AcDbLine
 10
14.1
 20
141.5
 30
0.0
 11
16.1647979736328
 21
147.456787109375
 31
0.0
  0
LINE
  5
93
330
1D
100
AcDbEntity
  8
0
100
AcDbLine
 10
16.1647979736328
 20
147.456787109375
 30
0.0
 11
19.242399597168
 21
154.426416015625
 31
0.0
  0
LINE
  5
94
330
1D
100
AcDbEntity
  8
0
100
AcDbLine
 10
19.242399597168
 20
154.426416015625
 30
0.0
 11
22.9776000976563
 21
161.717602539063
 31
0.0
  0
LINE
  5
95
330
1D
100
AcDbEntity
  8
0
100
AcDbLine
 10
22.9776000976563
 20
161.717602539063
 30
0.0
 11
27.0152008056641
 21
168.639208984375
 31
0.0
  0
LINE
  5
96
330
1D
100
AcDbEntity
  8
0
100
AcDbLine
 10
27.0152008056641
 20
168.639208984375
 30
0.0
 11
31.0
 21
174.5
 31
0.0
  0
LINE
  5
97
330
1D
100
AcDbEntity
  8
0
100
AcDbLine
 10
31.0
 20
174.5
 30
0.0
 11
36.6911987304688
 21
180.8919921875
 31
0.0
  0
LINE
  5
98
330
1D
100
AcDbEntity
  8
0
100
AcDbLine
 10
36.6911987304688
 20
180.8919921875
 30
0.0
 11
44.1536010742188
 21
187.811999511719
 31
0.0
  0
LINE
  5
99
330
1D
100
AcDbEntity
  8
0
100
AcDbLine
 10
44.1536010742188
 20
187.811999511719
 30
0.0
 11
52.4704040527344
 21
194.516003417969
 31
0.0
  0
LINE
  5
9A
330
1D
100
AcDbEntity
  8
0
100
AcDbLine
 10
52.4704040527344
 20
194.516003417969
 30
0.0
 11
60.7248046875
 21
200.259997558594
 31
0.0
  0
LINE
  5
9B
330
1D
100
AcDbEntity
  8
0
100
AcDbLine
 10
60.7248046875
 20
200.259997558594
 30
0.0
 11
68.0
 21
204.3
 31
0.0
  0
LINE
  5
9C
330
1D
100
AcDbEntity
  8
0
100
AcDbLine
 10
68.0
 20
204.3
 30
0.0
 11
73.0071960449219
 21
206.405590820313
 31
0.0
  0
LINE
  5
9D
330
1D
100
AcDbEntity
  8
0
100
AcDbLine
 10
73.0071960449219
 20
206.405590820313
 30
0.0
 11
77.9856018066406
 21
208.256811523438
 31
0.0
  0
LINE
  5
9E
330
1D
100
AcDbEntity
  8
0
100
AcDbLine
 10
77.9856018066406
 20
208.256811523438
 30
0.0
 11
82.81040039062501
 21
209.815209960938
 31
0.0
  0
LINE
  5
9F
330
1D
100
AcDbEntity
  8
0
100
AcDbLine
 10
82.81040039062501
 20
209.815209960938
 30
0.0
 11
87.3568054199219
 21
211.042407226563
 31
0.0
  0
LINE
  5
A0
330
1D
100
AcDbEntity
  8
0
100
AcDbLine
 10
87.3568054199219
 20
211.042407226563
 30
0.0
 11
91.5
 21
211.9
 31
0.0
  0
LINE
  5
A1
330
1D
100
AcDbEntity
  8
0
100
AcDbLine
 10
91.5
 20
211.9
 30
0.0
 11
93.8512023925781
 21
212.267211914063
 31
0.0
  0
LINE
  5
A2
330
1D
100
AcDbEntity
  8
0
100
AcDbLine
 10
93.8512023925781
 20
212.267211914063
 30
0.0
 11
96.12560424804691
 21
212.62958984375
 31
0.0
  0
LINE
  5
A3
330
1D
100
AcDbEntity
  8
0
100
AcDbLine
 10
96.12560424804691
 20
212.62958984375
 30
0.0
 11
98.1744018554688
 21
212.9583984375
 31
0.0
  0
LINE
  5
A4
330
1D
100
AcDbEntity
  8
0
100
AcDbLine
 10
98.1744018554688
 20
212.9583984375
 30
0.0
 11
99.8487976074219
 21
213.2248046875
 31
0.0
  0
LINE
  5
A5
330
1D
100
AcDbEntity
  8
0
100
AcDbLine
 10
99.8487976074219
 20
213.2248046875
 30
0.0
 11
101.0
 21
213.4
 31
0.0
  0
LINE
  5
A6
330
1D
100
AcDbEntity
  8
0
100
AcDbLine
 10
101.0
 20
213.4
 30
0.0
 11
105.664794921875
 21
213.6919921875
 31
0.0
  0
LINE
  5
A7
330
1D
100
AcDbEntity
  8
0
100
AcDbLine
 10
105.664794921875
 20
213.6919921875
 30
0.0
 11
112.878393554688
 21
213.552001953125
 31
0.0
  0
LINE
  5
A8
330
1D
100
AcDbEntity
  8
0
100
AcDbLine
 10
112.878393554688
 20
213.552001953125
 30
0.0
 11
121.109606933594
 21
213.076000976563
 31
0.0
  0
LINE
  5
A9
330
1D
100
AcDbEntity
  8
0
100
AcDbLine
 10
121.109606933594
 20
213.076000976563
 30
0.0
 11
128.827209472656
 21
212.360009765625
 31
0.0
  0
LINE
  5
AA
330
1D
100
AcDbEntity
  8
0
100
AcDbLine
 10
128.827209472656
 20
212.360009765625
 30
0.0
 11
134.5
 21
211.5
 31
0.0
  0
LINE
  5
AB
330
1D
100
AcDbEntity
  8
0
100
AcDbLine
 10
95.0
 20
207.5
 30
0.0
 11
72.4031982421875
 21
200.62158203125
 31
0.0
  0
LINE
  5
AC
330
1D
100
AcDbEntity
  8
0
100
AcDbLine
 10
72.4031982421875
 20
200.62158203125
 30
0.0
 11
52.7055969238281
 21
188.952807617188
 31
0.0
  0
LINE
  5
AD
330
1D
100
AcDbEntity
  8
0
100
AcDbLine
 10
52.7055969238281
 20
188.952807617188
 30
0.0
 11
36.4063995361328
 21
172.983190917969
 31
0.0
  0
LINE
  5
AE
330
1D
100
AcDbEntity
  8
0
100
AcDbLine
 10
36.4063995361328
 20
172.983190917969
 30
0.0
 11
24.0047988891602
 21
153.202404785156
 31
0.0
  0
LINE
  5
AF
330
1D
100
AcDbEntity
  8
0
100
AcDbLine
 10
24.0047988891602
 20
153.202404785156
 30
0.0
 11
16.0
 21
130.1
 31
0.0
  0
LINE
  5
B0
330
1D
100
AcDbEntity
  8
0
100
AcDbLine
 10
16.0
 20
130.1
 30
0.0
 11
15.1095993041992
 21
123.845593261719
 31
0.0
  0
LINE
  5
B1
330
1D
100
AcDbEntity
  8
0
100
AcDbLine
 10
15.1095993041992
 20
123.845593261719
 30
0.0
 11
14.7088012695313
 21
115.72880859375
 31
0.0
  0
LINE
  5
B2
330
1D
100
AcDbEntity
  8
0
100
AcDbLine
 10
14.7088012695313
 20
115.72880859375
 30
0.0
 11
14.7832000732422
 21
106.959204101563
 31
0.0
  0
LINE
  5
B3
330
1D
100
AcDbEntity
  8
0
100
AcDbLine
 10
14.7832000732422
 20
106.959204101563
 30
0.0
 11
15.3184005737305
 21
98.7464050292969
 31
0.0
  0
LINE
  5
B4
330
1D
100
AcDbEntity
  8
0
100
AcDbLine
 10
15.3184005737305
 20
98.7464050292969
 30
0.0
 11
16.3
 21
92.3
 31
0.0
  0
LINE
  5
B5
330
1D
100
AcDbEntity
  8
0
100
AcDbLine
 10
16.3
 20
92.3
 30
0.0
 11
23.3391998291016
 21
71.2831970214844
 31
0.0
  0
LINE
  5
B6
330
1D
100
AcDbEntity
  8
0
100
AcDbLine
 10
23.3391998291016
 20
71.2831970214844
 30
0.0
 11
33.7576019287109
 21
53.2615966796875
 31
0.0
  0
LINE
  5
B7
330
1D
100
AcDbEntity
  8
0
100
AcDbLine
 10
33.7576019287109
 20
53.2615966796875
 30
0.0
 11
47.52640075683589
 21
38.2783966064453
 31
0.0
  0
LINE
  5
B8
330
1D
100
AcDbEntity
  8
0
100
AcDbLine
 10
47.52640075683589
 20
38.2783966064453
 30
0.0
 11
64.61680297851559
 21
26.3768005371094
 31
0.0
  0
LINE
  5
B9
330
1D
100
AcDbEntity
  8
0
100
AcDbLine
 10
64.61680297851559
 20
26.3768005371094
 30
0.0
 11
85.0
 21
17.6
 31
0.0
  0
LINE
  5
BA
330
1D
100
AcDbEntity
  8
0
100
AcDbLine
 10
85.0
 20
17.6
 30
0.0
 11
92.25440063476559
 21
15.8272003173828
 31
0.0
  0
LINE
  5
BB
330
1D
100
AcDbEntity
  8
0
100
AcDbLine
 10
92.25440063476559
 20
15.8272003173828
 30
0.0
 11
100.963201904297
 21
14.7216003417969
 31
0.0
  0
LINE
  5
BC
330
1D
100
AcDbEntity
  8
0
100
AcDbLine
 10
100.963201904297
 20
14.7216003417969
 30
0.0
 11
110.444799804688
 21
14.3024002075195
 31
0.0
  0
LINE
  5
BD
330
1D
100
AcDbEntity
  8
0
100
AcDbLine
 10
110.444799804688
 20
14.3024002075195
 30
0.0
 11
120.017602539063
 21
14.5888000488281
 31
0.0
  0
LINE
  5
BE
330
1D
100
AcDbEntity
  8
0
100
AcDbLine
 10
120.017602539063
 20
14.5888000488281
 30
0.0
 11
129.0
 21
15.6
 31
0.0
  0
LINE
  5
BF
330
1D
100
AcDbEntity
  8
0
100
AcDbLine
 10
129.0
 20
15.6
 30
0.0
 11
137.152001953125
 21
17.6247985839844
 31
0.0
  0
LINE
  5
C0
330
1D
100
AcDbEntity
  8
0
100
AcDbLine
 10
137.152001953125
 20
17.6247985839844
 30
0.0
 11
146.576000976563
 21
21.0704010009766
 31
0.0
  0
LINE
  5
C1
330
1D
100
AcDbEntity
  8
0
100
AcDbLine
 10
146.576000976563
 20
21.0704010009766
 30
0.0
 11
156.143994140625
 21
25.4136016845703
 31
0.0
  0
LINE
  5
C2
330
1D
100
AcDbEntity
  8
0
100
AcDbLine
 10
156.143994140625
 20
25.4136016845703
 30
0.0
 11
164.728002929688
 21
30.131201171875
 31
0.0
  0
LINE
  5
C3
330
1D
100
AcDbEntity
  8
0
100
AcDbLine
 10
164.728002929688
 20
30.131201171875
 30
0.0
 11
171.2
 21
34.70000000000001
 31
0.0
  0
LINE
  5
C4
330
1D
100
AcDbEntity
  8
0
100
AcDbLine
 10
171.2
 20
34.70000000000001
 30
0.0
 11
177.713586425781
 21
40.5983978271484
 31
0.0
  0
LINE
  5
C5
330
1D
100
AcDbEntity
  8
0
100
AcDbLine
 10
177.713586425781
 20
40.5983978271484
 30
0.0
 11
183.156811523438
 21
46.1511993408203
 31
0.0
  0
LINE
  5
C6
330
1D
100
AcDbEntity
  8
0
100
AcDbLine
 10
183.156811523438
 20
46.1511993408203
 30
0.0
 11
187.803210449219
 21
51.6848022460938
 31
0.0
  0
LINE
  5
C7
330
1D
100
AcDbEntity
  8
0
100
AcDbLine
 10
187.803210449219
 20
51.6848022460938
 30
0.0
 11
191.9264038085939
 21
57.5256042480469
 31
0.0
  0
LINE
  5
C8
330
1D
100
AcDbEntity
  8
0
100
AcDbLine
 10
191.9264038085939
 20
57.5256042480469
 30
0.0
 11
195.8
 21
64.0
 31
0.0
  0
LINE
  5
C9
330
1D
100
AcDbEntity
  8
0
100
AcDbLine
 10
195.8
 20
64.0
 30
0.0
 11
198.229577636719
 21
68.7135925292969
 31
0.0
  0
LINE
  5
CA
330
1D
100
AcDbEntity
  8
0
100
AcDbLine
 10
198.229577636719
 20
68.7135925292969
 30
0.0
 11
200.668798828125
 21
74.13280029296879
 31
0.0
  0
LINE
  5
CB
330
1D
100
AcDbEntity
  8
0
100
AcDbLine
 10
200.668798828125
 20
74.13280029296879
 30
0.0
 11
202.863195800781
 21
79.5952026367188
 31
0.0
  0
LINE
  5
CC
330
1D
100
AcDbEntity
  8
0
100
AcDbLine
 10
202.863195800781
 20
79.5952026367188
 30
0.0
 11
204.558410644531
 21
84.4384033203125
 31
0.0
  0
LINE
  5
CD
330
1D
100
AcDbEntity
  8
0
100
AcDbLine
 10
204.558410644531
 20
84.4384033203125
 30
0.0
 11
205.5
 21
88.0
 31
0.0
  0
LINE
  5
CE
330
1D
100
AcDbEntity
  8
0
100
AcDbLine
 10
205.5
 20
88.0
 30
0.0
 11
205.723193359375
 21
89.3671936035156
 31
0.0
  0
LINE
  5
CF
330
1D
100
AcDbEntity
  8
0
100
AcDbLine
 10
205.723193359375
 20
89.3671936035156
 30
0.0
 11
206.013623046875
 21
91.089599609375
 31
0.0
  0
LINE
  5
D0
330
1D
100
AcDbEntity
  8
0
100
AcDbLine
 10
206.013623046875
 20
91.089599609375
 30
0.0
 11
206.342407226563
 21
93.01840209960941
 31
0.0
  0
LINE
  5
D1
330
1D
100
AcDbEntity
  8
0
100
AcDbLine
 10
206.342407226563
 20
93.01840209960941
 30
0.0
 11
206.680810546875
 21
95.0048034667969
 31
0.0
  0
LINE
  5
D2
330
1D
100
AcDbEntity
  8
0
100
AcDbLine
 10
206.680810546875
 20
95.0048034667969
 30
0.0
 11
207.0
 21
96.90000000000001
 31
0.0
  0
LINE
  5
D3
330
1D
100
AcDbEntity
  8
0
100
AcDbLine
 10
207.0
 20
96.90000000000001
 30
0.0
 11
207.883203125
 21
105.117602539063
 31
0.0
  0
LINE
  5
D4
330
1D
100
AcDbEntity
  8
0
100
AcDbLine
 10
207.883203125
 20
105.117602539063
 30
0.0
 11
207.921606445313
 21
114.448791503906
 31
0.0
  0
LINE
  5
D5
330
1D
100
AcDbEntity
  8
0
100
AcDbLine
 10
207.921606445313
 20
114.448791503906
 30
0.0
 11
207.1583984375
 21
124.231201171875
 31
0.0
  0
LINE
  5
D6
330
1D
100
AcDbEntity
  8
0
100
AcDbLine
 10
207.1583984375
 20
124.231201171875
 30
0.0
 11
205.636791992188
 21
133.802404785156
 31
0.0
  0
LINE
  5
D7
330
1D
100
AcDbEntity
  8
0
100
AcDbLine
 10
205.636791992188
 20
133.802404785156
 30
0.0
 11
203.4
 21
142.5
 31
0.0
  0
LINE
  5
D8
330
1D
100
AcDbEntity
  8
0
100
AcDbLine
 10
203.4
 20
142.5
 30
0.0
 11
201.360803222656
 21
147.844799804688
 31
0.0
  0
LINE
  5
D9
330
1D
100
AcDbEntity
  8
0
100
AcDbLine
 10
201.360803222656
 20
147.844799804688
 30
0.0
 11
198.486413574219
 21
154.058410644531
 31
0.0
  0
LINE
  5
DA
330
1D
100
AcDbEntity
  8
0
100
AcDbLine
 10
198.486413574219
 20
154.058410644531
 30
0.0
 11
195.1416015625
 21
160.449597167969
 31
0.0
  0
LINE
  5
DB
330
1D
100
AcDbEntity
  8
0
100
AcDbLine
 10
195.1416015625
 20
160.449597167969
 30
0.0
 11
191.691198730469
 21
166.327209472656
 31
0.0
  0
LINE
  5
DC
330
1D
100
AcDbEntity
  8
0
100
AcDbLine
 10
191.691198730469
 20
166.327209472656
 30
0.0
 11
188.5
 21
171.0
 31
0.0
  0
LINE
  5
DD
330
1D
100
AcDbEntity
  8
0
100
AcDbLine
 10
188.5
 20
171.0
 30
0.0
 11
173.793591308594
 21
186.181591796875
 31
0.0
  0
LINE
  5
DE
330
1D
100
AcDbEntity
  8
0
100
AcDbLine
 10
173.793591308594
 20
186.181591796875
 30
0.0
 11
156.192810058594
 21
197.772814941406
 31
0.0
  0
LINE
  5
DF
330
1D
100
AcDbEntity
  8
0
100
AcDbLine
 10
156.192810058594
 20
197.772814941406
 30
0.0
 11
136.595202636719
 21
205.423193359375
 31
0.0
  0
LINE
  5
E0
330
1D
100
AcDbEntity
  8
0
100
AcDbLine
 10
136.595202636719
 20
205.423193359375
 30
0.0
 11
115.898400878906
 21
208.782397460938
 31
0.0
  0
LINE
  5
E1
330
1D
100
AcDbEntity
  8
0
100
AcDbLine
 10
115.898400878906
 20
208.782397460938
 30
0.0
 11
95.0
 21
207.5
 31
0.0
  0
LINE
  5
E2
330
1D
100
AcDbEntity
  8
0
100
AcDbLine
 10
108.7
 20
196.4
 30
0.0
 11
113.767993164063
 21
195.180798339844
 31
0.0
  0
LINE
  5
E3
330
1D
100
AcDbEntity
  8
0
100
AcDbLine
 10
113.767993164063
 20
195.180798339844
 30
0.0
 11
119.196008300781
 21
193.510400390625
 31
0.0
  0
LINE
  5
E4
330
1D
100
AcDbEntity
  8
0
100
AcDbLine
 10
119.196008300781
 20
193.510400390625
 30
0.0
 11
124.719995117188
 21
191.489599609375
 31
0.0
  0
LINE
  5
E5
330
1D
100
AcDbEntity
  8
0
100
AcDbLine
 10
124.719995117188
 20
191.489599609375
 30
0.0
 11
130.076000976563
 21
189.219201660156
 31
0.0
  0
LINE
  5
E6
330
1D
100
AcDbEntity
  8
0
100
AcDbLine
 10
130.076000976563
 20
189.219201660156
 30
0.0
 11
135.0
 21
186.8
 31
0.0
  0
LINE
  5
E7
330
1D
100
AcDbEntity
  8
0
100
AcDbLine
 10
135.0
 20
186.8
 30
0.0
 11
140.690393066406
 21
184.080798339844
 31
0.0
  0
LINE
  5
E8
330
1D
100
AcDbEntity
  8
0
100
AcDbLine
 10
140.690393066406
 20
184.080798339844
 30
0.0
 11
148.57919921875
 21
180.718408203125
 31
0.0
  0
LINE
  5
E9
330
1D
100
AcDbEntity
  8
0
100
AcDbLine
 10
148.57919921875
 20
180.718408203125
 30
0.0
 11
157.312805175781
 21
177.24560546875
 31
0.0
  0
LINE
  5
EA
330
1D
100
AcDbEntity
  8
0
100
AcDbLine
 10
157.312805175781
 20
177.24560546875
 30
0.0
 11
165.53759765625
 21
174.195202636719
 31
0.0
  0
LINE
  5
EB
330
1D
100
AcDbEntity
  8
0
100
AcDbLine
 10
165.53759765625
 20
174.195202636719
 30
0.0
 11
171.9
 21
172.1
 31
0.0
  0
LINE
  5
EC
330
1D
100
AcDbEntity
  8
0
100
AcDbLine
 10
171.9
 20
172.1
 30
0.0
 11
174.299987792969
 21
171.413586425781
 31
0.0
  0
LINE
  5
ED
330
1D
100
AcDbEntity
  8
0
100
AcDbLine
 10
174.299987792969
 20
171.413586425781
 30
0.0
 11
176.483996582031
 21
170.712805175781
 31
0.0
  0
LINE
  5
EE
330
1D
100
AcDbEntity
  8
0
100
AcDbLine
 10
176.483996582031
 20
170.712805175781
 30
0.0
 11
178.307995605469
 21
170.055200195313
 31
0.0
  0
LINE
  5
EF
330
1D
100
AcDbEntity
  8
0
100
AcDbLine
 10
178.307995605469
 20
170.055200195313
 30
0.0
 11
179.628002929688
 21
169.498400878906
 31
0.0
  0
LINE
  5
F0
330
1D
100
AcDbEntity
  8
0
100
AcDbLine
 10
179.628002929688
 20
169.498400878906
 30
0.0
 11
180.3
 21
169.1
 31
0.0
  0
LINE
  5
F1
330
1D
100
AcDbEntity
  8
0
100
AcDbLine
 10
180.3
 20
169.1
 30
0.0
 11
180.745593261719
 21
168.316796875
 31
0.0
  0
LINE
  5
F2
330
1D
100
AcDbEntity
  8
0
100
AcDbLine
 10
180.745593261719
 20
168.316796875
 30
0.0
 11
180.696813964844
 21
167.490405273438
 31
0.0
  0
LINE
  5
F3
330
1D
100
AcDbEntity
  8
0
100
AcDbLine
 10
180.696813964844
 20
167.490405273438
 30
0.0
 11
180.235192871094
 21
166.74560546875
 31
0.0
  0
LINE
  5
F4
330
1D
100
AcDbEntity
  8
0
100
AcDbLine
 10
180.235192871094
 20
166.74560546875
 30
0.0
 11
179.442407226563
 21
166.207202148438
 31
0.0
  0
LINE
  5
F5
330
1D
100
AcDbEntity
  8
0
100
AcDbLine
 10
179.442407226563
 20
166.207202148438
 30
0.0
 11
178.4
 21
166.0
 31
0.0
  0
LINE
  5
F6
330
1D
100
AcDbEntity
  8
0
100
AcDbLine
 10
178.4
 20
166.0
 30
0.0
 11
177.970397949219
 21
165.953588867188
 31
0.0
  0
LINE
  5
F7
330
1D
100
AcDbEntity
  8
0
100
AcDbLine
 10
177.970397949219
 20
165.953588867188
 30
0.0
 11
177.651208496094
 21
165.82080078125
 31
0.0
  0
LINE
  5
F8
330
1D
100
AcDbEntity
  8
0
100
AcDbLine
 10
177.651208496094
 20
165.82080078125
 30
0.0
 11
177.456799316406
 21
165.611193847656
 31
0.0
  0
LINE
  5
F9
330
1D
100
AcDbEntity
  8
0
100
AcDbLine
 10
177.456799316406
 20
165.611193847656
 30
0.0
 11
177.401599121094
 21
165.334399414063
 31
0.0
  0
LINE
  5
FA
330
1D
100
AcDbEntity
  8
0
100
AcDbLine
 10
177.401599121094
 20
165.334399414063
 30
0.0
 11
177.5
 21
165.0
 31
0.0
  0
LINE
  5
FB
330
1D
100
AcDbEntity
  8
0
100
AcDbLine
 10
177.5
 20
165.0
 30
0.0
 11
177.847192382813
 21
164.703991699219
 31
0.0
  0
LINE
  5
FC
330
1D
100
AcDbEntity
  8
0
100
AcDbLine
 10
177.847192382813
 20
164.703991699219
 30
0.0
 11
178.477600097656
 21
164.432006835938
 31
0.0
  0
LINE
  5
FD
330
1D
100
AcDbEntity
  8
0
100
AcDbLine
 10
178.477600097656
 20
164.432006835938
 30
0.0
 11
179.314404296875
 21
164.207995605469
 31
0.0
  0
LINE
  5
FE
330
1D
100
AcDbEntity
  8
0
100
AcDbLine
 10
179.314404296875
 20
164.207995605469
 30
0.0
 11
180.280810546875
 21
164.056005859375
 31
0.0
  0
LINE
  5
FF
330
1D
100
AcDbEntity
  8
0
100
AcDbLine
 10
180.280810546875
 20
164.056005859375
 30
0.0
 11
181.3
 21
164.0
 31
0.0
  0
LINE
  5
100
330
1D
100
AcDbEntity
  8
0
100
AcDbLine
 10
181.3
 20
164.0
 30
0.0
 11
182.503991699219
 21
163.963195800781
 31
0.0
  0
LINE
  5
101
330
1D
100
AcDbEntity
  8
0
100
AcDbLine
 10
182.503991699219
 20
163.963195800781
 30
0.0
 11
183.252001953125
 21
163.849597167969
 31
0.0
  0
LINE
  5
102
330
1D
100
AcDbEntity
  8
0
100
AcDbLine
 10
183.252001953125
 20
163.849597167969
 30
0.0
 11
183.568005371094
 21
163.654406738281
 31
0.0
  0
LINE
  5
103
330
1D
100
AcDbEntity
  8
0
100
AcDbLine
 10
183.568005371094
 20
163.654406738281
 30
0.0
 11
183.476000976563
 21
163.372802734375
 31
0.0
  0
LINE
  5
104
330
1D
100
AcDbEntity
  8
0
100
AcDbLine
 10
183.476000976563
 20
163.372802734375
 30
0.0
 11
183.0
 21
163.0
 31
0.0
  0
LINE
  5
105
330
1D
100
AcDbEntity
  8
0
100
AcDbLine
 10
183.0
 20
163.0
 30
0.0
 11
181.546398925781
 21
162.38798828125
 31
0.0
  0
LINE
  5
106
330
1D
100
AcDbEntity
  8
0
100
AcDbLine
 10
181.546398925781
 20
162.38798828125
 30
0.0
 11
179.795190429688
 21
162.111999511719
 31
0.0
  0
LINE
  5
107
330
1D
100
AcDbEntity
  8
0
100
AcDbLine
 10
179.795190429688
 20
162.111999511719
 30
0.0
 11
177.880798339844
 21
162.172009277344
 31
0.0
  0
LINE
  5
108
330
1D
100
AcDbEntity
  8
0
100
AcDbLine
 10
177.880798339844
 20
162.172009277344
 30
0.0
 11
175.937609863281
 21
162.568005371094
 31
0.0
  0
LINE
  5
109
330
1D
100
AcDbEntity
  8
0
100
AcDbLine
 10
175.937609863281
 20
162.568005371094
 30
0.0
 11
174.1
 21
163.3
 31
0.0
  0
LINE
  5
10A
330
1D
100
AcDbEntity
  8
0
100
AcDbLine
 10
174.1
 20
163.3
 30
0.0
 11
172.407202148438
 21
164.315185546875
 31
0.0
  0
LINE
  5
10B
330
1D
100
AcDbEntity
  8
0
100
AcDbLine
 10
172.407202148438
 20
164.315185546875
 30
0.0
 11
171.525598144531
 21
165.301611328125
 31
0.0
  0
LINE
  5
10C
330
1D
100
AcDbEntity
  8
0
100
AcDbLine
 10
171.525598144531
 20
165.301611328125
 30
0.0
 11
171.450402832031
 21
166.230395507813
 31
0.0
  0
LINE
  5
10D
330
1D
100
AcDbEntity
  8
0
100
AcDbLine
 10
171.450402832031
 20
166.230395507813
 30
0.0
 11
172.176806640625
 21
167.072802734375
 31
0.0
  0
LINE
  5
10E
330
1D
100
AcDbEntity
  8
0
100
AcDbLine
 10
172.176806640625
 20
167.072802734375
 30
0.0
 11
173.7
 21
167.8
 31
0.0
  0
LINE
  5
10F
330
1D
100
AcDbEntity
  8
0
100
AcDbLine
 10
173.7
 20
167.8
 30
0.0
 11
174.9751953125
 21
168.262390136719
 31
0.0
  0
LINE
  5
110
330
1D
100
AcDbEntity
  8
0
100
AcDbLine
 10
174.9751953125
 20
168.262390136719
 30
0.0
 11
175.477600097656
 21
168.643212890625
 31
0.0
  0
LINE
  5
111
330
1D
100
AcDbEntity
  8
0
100
AcDbLine
 10
175.477600097656
 20
168.643212890625
 30
0.0
 11
175.082397460938
 21
169.052807617188
 31
0.0
  0
LINE
  5
112
330
1D
100
AcDbEntity
  8
0
100
AcDbLine
 10
175.082397460938
 20
169.052807617188
 30
0.0
 11
173.664794921875
 21
169.601599121094
 31
0.0
  0
LINE
  5
113
330
1D
100
AcDbEntity
  8
0
100
AcDbLine
 10
173.664794921875
 20
169.601599121094
 30
0.0
 11
171.1
 21
170.4
 31
0.0
  0
LINE
  5
114
330
1D
100
AcDbEntity
  8
0
100
AcDbLine
 10
171.1
 20
170.4
 30
0.0
 11
166.959985351563
 21
171.565600585938
 31
0.0
  0
LINE
  5
115
330
1D
100
AcDbEntity
  8
0
100
AcDbLine
 10
166.959985351563
 20
171.565600585938
 30
0.0
 11
164.380017089844
 21
171.972814941406
 31
0.0
  0
LINE
  5
116
330
1D
100
AcDbEntity
  8
0
100
AcDbLine
 10
164.380017089844
 20
171.972814941406
 30
0.0
 11
163.0
 21
171.487194824219
 31
0.0
  0
LINE
  5
117
330
1D
100
AcDbEntity
  8
0
100
AcDbLine
 10
163.0
 20
171.487194824219
 30
0.0
 11
162.460009765625
 21
169.974401855469
 31
0.0
  0
LINE
  5
118
330
1D
100
AcDbEntity
  8
0
100
AcDbLine
 10
162.460009765625
 20
169.974401855469
 30
0.0
 11
162.4
 21
167.3
 31
0.0
  0
LINE
  5
119
330
1D
100
AcDbEntity
  8
0
100
AcDbLine
 10
162.4
 20
167.3
 30
0.0
 11
162.387182617188
 21
165.615185546875
 31
0.0
  0
LINE
  5
11A
330
1D
100
AcDbEntity
  8
0
100
AcDbLine
 10
162.387182617188
 20
165.615185546875
 30
0.0
 11
162.345617675781
 21
163.877587890625
 31
0.0
  0
LINE
  5
11B
330
1D
100
AcDbEntity
  8
0
100
AcDbLine
 10
162.345617675781
 20
163.877587890625
 30
0.0
 11
162.270397949219
 21
162.202392578125
 31
0.0
  0
LINE
  5
11C
330
1D
100
AcDbEntity
  8
0
100
AcDbLine
 10
162.270397949219
 20
162.202392578125
 30
0.0
 11
162.156799316406
 21
160.704809570313
 31
0.0
  0
LINE
  5
11D
330
1D
100
AcDbEntity
  8
0
100
AcDbLine
 10
162.156799316406
 20
160.704809570313
 30
0.0
 11
162.0
 21
159.5
 31
0.0
  0
LINE
  5
11E
330
1D
100
AcDbEntity
  8
0
100
AcDbLine
 10
162.0
 20
159.5
 30
0.0
 11
161.797595214844
 21
158.038391113281
 31
0.0
  0
LINE
  5
11F
330
1D
100
AcDbEntity
  8
0
100
AcDbLine
 10
161.797595214844
 20
158.038391113281
 30
0.0
 11
161.892810058594
 21
157.167211914063
 31
0.0
  0
LINE
  5
120
330
1D
100
AcDbEntity
  8
0
100
AcDbLine
 10
161.892810058594
 20
157.167211914063
 30
0.0
 11
162.439196777344
 21
156.7567993164059
 31
0.0
  0
LINE
  5
121
330
1D
100
AcDbEntity
  8
0
100
AcDbLine
 10
162.439196777344
 20
156.7567993164059
 30
0.0
 11
163.590405273438
 21
156.677600097656
 31
0.0
  0
LINE
  5
122
330
1D
100
AcDbEntity
  8
0
100
AcDbLine
 10
163.590405273438
 20
156.677600097656
 30
0.0
 11
165.5
 21
156.8
 31
0.0
  0
LINE
  5
123
330
1D
100
AcDbEntity
  8
0
100
AcDbLine
 10
165.5
 20
156.8
 30
0.0
 11
167.392797851563
 21
156.900793457031
 31
0.0
  0
LINE
  5
124
330
1D
100
AcDbEntity
  8
0
100
AcDbLine
 10
167.392797851563
 20
156.900793457031
 30
0.0
 11
168.642395019531
 21
156.76640625
 31
0.0
  0
LINE
  5
125
330
1D
100
AcDbEntity
  8
0
100
AcDbLine
 10
168.642395019531
 20
156.76640625
 30
0.0
 11
169.44560546875
 21
156.281604003906
 31
0.0
  0
LINE
  5
126
330
1D
100
AcDbEntity
  8
0
100
AcDbLine
 10
169.44560546875
 20
156.281604003906
 30
0.0
 11
169.999206542969
 21
155.331201171875
 31
0.0
  0
LINE
  5
127
330
1D
100
AcDbEntity
  8
0
100
AcDbLine
 10
169.999206542969
 20
155.331201171875
 30
0.0
 11
170.5
 21
153.8
 31
0.0
  0
LINE
  5
128
330
1D
100
AcDbEntity
  8
0
100
AcDbLine
 10
170.5
 20
153.8
 30
0.0
 11
170.952795410156
 21
152.5919921875
 31
0.0
  0
LINE
  5
129
330
1D
100
AcDbEntity
  8
0
100
AcDbLine
 10
170.952795410156
 20
152.5919921875
 30
0.0
 11
171.578405761719
 21
151.50400390625
 31
0.0
  0
LINE
  5
12A
330
1D
100
AcDbEntity
  8
0
100
AcDbLine
 10
171.578405761719
 20
151.50400390625
 30
0.0
 11
172.357604980469
 21
150.559997558594
 31
0.0
  0
LINE
  5
12B
330
1D
100
AcDbEntity
  8
0
100
AcDbLine
 10
172.357604980469
 20
150.559997558594
 30
0.0
 11
173.271203613281
 21
149.783996582031
 31
0.0
  0
LINE
  5
12C
330
1D
100
AcDbEntity
  8
0
100
AcDbLine
 10
173.271203613281
 20
149.783996582031
 30
0.0
 11
174.3
 21
149.2
 31
0.0
  0
LINE
  5
12D
330
1D
100
AcDbEntity
  8
0
100
AcDbLine
 10
174.3
 20
149.2
 30
0.0
 11
175.183190917969
 21
148.689587402344
 31
0.0
  0
LINE
  5
12E
330
1D
100
AcDbEntity
  8
0
100
AcDbLine
 10
175.183190917969
 20
148.689587402344
 30
0.0
 11
175.893603515625
 21
148.140795898438
 31
0.0
  0
LINE
  5
12F
330
1D
100
AcDbEntity
  8
0
100
AcDbLine
 10
175.893603515625
 20
148.140795898438
 30
0.0
 11
176.402404785156
 21
147.587194824219
 31
0.0
  0
LINE
  5
130
330
1D
100
AcDbEntity
  8
0
100
AcDbLine
 10
176.402404785156
 20
147.587194824219
 30
0.0
 11
176.680810546875
 21
147.06240234375
 31
0.0
  0
LINE
  5
131
330
1D
100
AcDbEntity
  8
0
100
AcDbLine
 10
176.680810546875
 20
147.06240234375
 30
0.0
 11
176.7
 21
146.6
 31
0.0
  0
LINE
  5
132
330
1D
100
AcDbEntity
  8
0
100
AcDbLine
 10
176.7
 20
146.6
 30
0.0
 11
176.579187011719
 21
146.1416015625
 31
0.0
  0
LINE
  5
133
330
1D
100
AcDbEntity
  8
0
100
AcDbLine
 10
176.579187011719
 20
146.1416015625
 30
0.0
 11
176.693603515625
 21
145.836804199219
 31
0.0
  0
LINE
  5
134
330
1D
100
AcDbEntity
  8
0
100
AcDbLine
 10
176.693603515625
 20
145.836804199219
 30
0.0
 11
177.038403320313
 21
145.671203613281
 31
0.0
  0
LINE
  5
135
330
1D
100
AcDbEntity
  8
0
100
AcDbLine
 10
177.038403320313
 20
145.671203613281
 30
0.0
 11
177.608801269531
 21
145.630407714844
 31
0.0
  0
LINE
  5
136
330
1D
100
AcDbEntity
  8
0
100
AcDbLine
 10
177.608801269531
 20
145.630407714844
 30
0.0
 11
178.4
 21
145.7
 31
0.0
  0
LINE
  5
137
330
1D
100
AcDbEntity
  8
0
100
AcDbLine
 10
178.4
 20
145.7
 30
0.0
 11
179.811999511719
 21
145.779992675781
 31
0.0
  0
LINE
  5
138
330
1D
100
AcDbEntity
  8
0
100
AcDbLine
 10
179.811999511719
 20
145.779992675781
 30
0.0
 11
180.792004394531
 21
145.331994628906
 31
0.0
  0
LINE
  5
139
330
1D
100
AcDbEntity
  8
0
100
AcDbLine
 10
180.792004394531
 20
145.331994628906
 30
0.0
 11
181.316003417969
 21
144.40400390625
 31
0.0
  0
LINE
  5
13A
330
1D
100
AcDbEntity
  8
0
100
AcDbLine
 10
181.316003417969
 20
144.40400390625
 30
0.0
 11
181.359997558594
 21
143.044006347656
 31
0.0
  0
LINE
  5
13B
330
1D
100
AcDbEntity
  8
0
100
AcDbLine
 10
181.359997558594
 20
143.044006347656
 30
0.0
 11
180.9
 21
141.3
 31
0.0
  0
LINE
  5
13C
330
1D
100
AcDbEntity
  8
0
100
AcDbLine
 10
180.9
 20
141.3
 30
0.0
 11
179.855200195313
 21
139.785583496094
 31
0.0
  0
LINE
  5
13D
330
1D
100
AcDbEntity
  8
0
100
AcDbLine
 10
179.855200195313
 20
139.785583496094
 30
0.0
 11
178.301599121094
 21
139.072802734375
 31
0.0
  0
LINE
  5
13E
330
1D
100
AcDbEntity
  8
0
100
AcDbLine
 10
178.301599121094
 20
139.072802734375
 30
0.0
 11
176.450390625
 21
139.147204589844
 31
0.0
  0
LINE
  5
13F
330
1D
100
AcDbEntity
  8
0
100
AcDbLine
 10
176.450390625
 20
139.147204589844
 30
0.0
 11
174.512805175781
 21
139.994396972656
 31
0.0
  0
LINE
  5
140
330
1D
100
AcDbEntity
  8
0
100
AcDbLine
 10
174.512805175781
 20
139.994396972656
 30
0.0
 11
172.7
 21
141.6
 31
0.0
  0
LINE
  5
141
330
1D
100
AcDbEntity
  8
0
100
AcDbLine
 10
172.7
 20
141.6
 30
0.0
 11
169.3591796875
 21
145.564807128906
 31
0.0
  0
LINE
  5
142
330
1D
100
AcDbEntity
  8
0
100
AcDbLine
 10
169.3591796875
 20
145.564807128906
 30
0.0
 11
166.997595214844
 21
147.782409667969
 31
0.0
  0
LINE
  5
143
330
1D
100
AcDbEntity
  8
0
100
AcDbLine
 10
166.997595214844
 20
147.782409667969
 30
0.0
 11
164.866394042969
 21
148.497595214844
 31
0.0
  0
LINE
  5
144
330
1D
100
AcDbEntity
  8
0
100
AcDbLine
 10
164.866394042969
 20
148.497595214844
 30
0.0
 11
162.216809082031
 21
147.955200195313
 31
0.0
  0
LINE
  5
145
330
1D
100
AcDbEntity
  8
0
100
AcDbLine
 10
162.216809082031
 20
147.955200195313
 30
0.0
 11
158.3
 21
146.4
 31
0.0
  0
LINE
  5
146
330
1D
100
AcDbEntity
  8
0
100
AcDbLine
 10
158.3
 20
146.4
 30
0.0
 11
156.320788574219
 21
145.390380859375
 31
0.0
  0
LINE
  5
147
330
1D
100
AcDbEntity
  8
0
100
AcDbLine
 10
156.320788574219
 20
145.390380859375
 30
0.0
 11
155.546398925781
 21
144.515209960938
 31
0.0
  0
LINE
  5
148
330
1D
100
AcDbEntity
  8
0
100
AcDbLine
 10
155.546398925781
 20
144.515209960938
 30
0.0
 11
155.981604003906
 21
143.764794921875
 31
0.0
  0
LINE
  5
149
330
1D
100
AcDbEntity
  8
0
100
AcDbLine
 10
155.981604003906
 20
143.764794921875
 30
0.0
 11
157.631201171875
 21
143.129602050781
 31
0.0
  0
LINE
  5
14A
330
1D
100
AcDbEntity
  8
0
100
AcDbLine
 10
157.631201171875
 20
143.129602050781
 30
0.0
 11
160.5
 21
142.6
 31
0.0
  0
LINE
  5
14B
330
1D
100
AcDbEntity
  8
0
100
AcDbLine
 10
160.5
 20
142.6
 30
0.0
 11
162.815991210938
 21
142.091186523438
 31
0.0
  0
LINE
  5
14C
330
1D
100
AcDbEntity
  8
0
100
AcDbLine
 10
162.815991210938
 20
142.091186523438
 30
0.0
 11
164.292004394531
 21
141.33759765625
 31
0.0
  0
LINE
  5
14D
330
1D
100
AcDbEntity
  8
0
100
AcDbLine
 10
164.292004394531
 20
141.33759765625
 30
0.0
 11
165.0
 21
140.238403320313
 31
0.0
  0
LINE
  5
14E
330
1D
100
AcDbEntity
  8
0
100
AcDbLine
 10
165.0
 20
140.238403320313
 30
0.0
 11
165.011999511719
 21
138.692810058594
 31
0.0
  0
LINE
  5
14F
330
1D
100
AcDbEntity
  8
0
100
AcDbLine
 10
165.011999511719
 20
138.692810058594
 30
0.0
 11
164.4
 21
136.6
 31
0.0
  0
LINE
  5
150
330
1D
100
AcDbEntity
  8
0
100
AcDbLine
 10
164.4
 20
136.6
 30
0.0
 11
163.3608032226559
 21
135.417602539063
 31
0.0
  0
LINE
  5
151
330
1D
100
AcDbEntity
  8
0
100
AcDbLine
 10
163.3608032226559
 20
135.417602539063
 30
0.0
 11
161.65439453125
 21
134.964807128906
 31
0.0
  0
LINE
  5
152
330
1D
100
AcDbEntity
  8
0
100
AcDbLine
 10
161.65439453125
 20
134.964807128906
 30
0.0
 11
159.597595214844
 21
135.203198242188
 31
0.0
  0
LINE
  5
153
330
1D
100
AcDbEntity
  8
0
100
AcDbLine
 10
159.597595214844
 20
135.203198242188
 30
0.0
 11
157.507202148438
 21
136.094409179688
 31
0.0
  0
LINE
  5
154
330
1D
100
AcDbEntity
  8
0
100
AcDbLine
 10
157.507202148438
 20
136.094409179688
 30
0.0
 11
155.7
 21
137.6
 31
0.0
  0
LINE
  5
155
330
1D
100
AcDbEntity
  8
0
100
AcDbLine
 10
155.7
 20
137.6
 30
0.0
 11
153.631201171875
 21
139.708801269531
 31
0.0
  0
LINE
  5
156
330
1D
100
AcDbEntity
  8
0
100
AcDbLine
 10
153.631201171875
 20
139.708801269531
 30
0.0
 11
151.533605957031
 21
141.222399902344
 31
0.0
  0
LINE
  5
157
330
1D
100
AcDbEntity
  8
0
100
AcDbLine
 10
151.533605957031
 20
141.222399902344
 30
0.0
 11
149.450402832031
 21
142.121594238281
 31
0.0
  0
LINE
  5
158
330
1D
100
AcDbEntity
  8
0
100
AcDbLine
 10
149.450402832031
 20
142.121594238281
 30
0.0
 11
147.4248046875
 21
142.387194824219
 31
0.0
  0
LINE
  5
159
330
1D
100
AcDbEntity
  8
0
100
AcDbLine
 10
147.4248046875
 20
142.387194824219
 30
0.0
 11
145.5
 21
142.0
 31
0.0
  0
LINE
  5
15A
330
1D
100
AcDbEntity
  8
0
100
AcDbLine
 10
145.5
 20
142.0
 30
0.0
 11
142.506396484375
 21
141.240795898438
 31
0.0
  0
LINE
  5
15B
330
1D
100
AcDbEntity
  8
0
100
AcDbLine
 10
142.506396484375
 20
141.240795898438
 30
0.0
 11
139.023205566406
 21
140.990405273438
 31
0.0
  0
LINE
  5
15C
330
1D
100
AcDbEntity
  8
0
100
AcDbLine
 10
139.023205566406
 20
140.990405273438
 30
0.0
 11
135.376806640625
 21
141.229602050781
 31
0.0
  0
LINE
  5
15D
330
1D
100
AcDbEntity
  8
0
100
AcDbLine
 10
135.376806640625
 20
141.229602050781
 30
0.0
 11
131.893603515625
 21
141.939196777344
 31
0.0
  0
LINE
  5
15E
330
1D
100
AcDbEntity
  8
0
100
AcDbLine
 10
131.893603515625
 20
141.939196777344
 30
0.0
 11
128.9
 21
143.1
 31
0.0
  0
LINE
  5
15F
330
1D
100
AcDbEntity
  8
0
100
AcDbLine
 10
128.9
 20
143.1
 30
0.0
 11
125.817602539063
 21
144.385595703125
 31
0.0
  0
LINE
  5
160
330
1D
100
AcDbEntity
  8
0
100
AcDbLine
 10
125.817602539063
 20
144.385595703125
 30
0.0
 11
123.2248046875
 21
144.888793945313
 31
0.0
  0
LINE
  5
161
330
1D
100
AcDbEntity
  8
0
100
AcDbLine
 10
123.2248046875
 20
144.888793945313
 30
0.0
 11
121.203198242188
 21
144.619201660156
 31
0.0
  0
LINE
  5
162
330
1D
100
AcDbEntity
  8
0
100
AcDbLine
 10
121.203198242188
 20
144.619201660156
 30
0.0
 11
119.834399414063
 21
143.586401367188
 31
0.0
  0
LINE
  5
163
330
1D
100
AcDbEntity
  8
0
100
AcDbLine
 10
119.834399414063
 20
143.586401367188
 30
0.0
 11
119.2
 21
141.8
 31
0.0
  0
LINE
  5
164
330
1D
100
AcDbEntity
  8
0
100
AcDbLine
 10
119.2
 20
141.8
 30
0.0
 11
119.148791503906
 21
140.839990234375
 31
0.0
  0
LINE
  5
165
330
1D
100
AcDbEntity
  8
0
100
AcDbLine
 10
119.148791503906
 20
140.839990234375
 30
0.0
 11
119.222412109375
 21
139.8080078125
 31
0.0
  0
LINE
  5
166
330
1D
100
AcDbEntity
  8
0
100
AcDbLine
 10
119.222412109375
 20
139.8080078125
 30
0.0
 11
119.401599121094
 21
138.776000976563
 31
0.0
  0
LINE
  5
167
330
1D
100
AcDbEntity
  8
0
100
AcDbLine
 10
119.401599121094
 20
138.776000976563
 30
0.0
 11
119.667199707031
 21
137.816003417969
 31
0.0
  0
LINE
  5
168
330
1D
100
AcDbEntity
  8
0
100
AcDbLine
 10
119.667199707031
 20
137.816003417969
 30
0.0
 11
120.0
 21
137.0
 31
0.0
  0
LINE
  5
169
330
1D
100
AcDbEntity
  8
0
100
AcDbLine
 10
120.0
 20
137.0
 30
0.0
 11
120.418408203125
 21
136.153588867188
 31
0.0
  0
LINE
  5
16A
330
1D
100
AcDbEntity
  8
0
100
AcDbLine
 10
120.418408203125
 20
136.153588867188
 30
0.0
 11
120.587194824219
 21
135.508801269531
 31
0.0
  0
LINE
  5
16B
330
1D
100
AcDbEntity
  8
0
100
AcDbLine
 10
120.587194824219
 20
135.508801269531
 30
0.0
 11
120.496801757813
 21
135.027209472656
 31
0.0
  0
LINE
  5
16C
330
1D
100
AcDbEntity
  8
0
100
AcDbLine
 10
120.496801757813
 20
135.027209472656
 30
0.0
 11
120.137609863281
 21
134.670397949219
 31
0.0
  0
LINE
  5
16D
330
1D
100
AcDbEntity
  8
0
100
AcDbLine
 10
120.137609863281
 20
134.670397949219
 30
0.0
 11
119.5
 21
134.4
 31
0.0
  0
LINE
  5
16E
330
1D
100
AcDbEntity
  8
0
100
AcDbLine
 10
119.5
 20
134.4
 30
0.0
 11
118.828796386719
 21
134.077587890625
 31
0.0
  0
LINE
  5
16F
330
1D
100
AcDbEntity
  8
0
100
AcDbLine
 10
118.828796386719
 20
134.077587890625
 30
0.0
 11
118.498400878906
 21
133.788806152344
 31
0.0
  0
LINE
  5
170
330
1D
100
AcDbEntity
  8
0
100
AcDbLine
 10
118.498400878906
 20
133.788806152344
 30
0.0
 11
118.513598632813
 21
133.471203613281
 31
0.0
  0
LINE
  5
171
330
1D
100
AcDbEntity
  8
0
100
AcDbLine
 10
118.513598632813
 20
133.471203613281
 30
0.0
 11
118.87919921875
 21
133.06240234375
 31
0.0
  0
LINE
  5
172
330
1D
100
AcDbEntity
  8
0
100
AcDbLine
 10
118.87919921875
 20
133.06240234375
 30
0.0
 11
119.6
 21
132.5
 31
0.0
  0
LINE
  5
173
330
1D
100
AcDbEntity
  8
0
100
AcDbLine
 10
119.6
 20
132.5
 30
0.0
 11
120.426391601563
 21
131.636791992188
 31
0.0
  0
LINE
  5
174
330
1D
100
AcDbEntity
  8
0
100
AcDbLine
 10
120.426391601563
 20
131.636791992188
 30
0.0
 11
120.667199707031
 21
130.706408691406
 31
0.0
  0
LINE
  5
175
330
1D
100
AcDbEntity
  8
0
100
AcDbLine
 10
120.667199707031
 20
130.706408691406
 30
0.0
 11
120.384802246094
 21
129.857604980469
 31
0.0
  0
LINE
  5
176
330
1D
100
AcDbEntity
  8
0
100
AcDbLine
 10
120.384802246094
 20
129.857604980469
 30
0.0
 11
119.6416015625
 21
129.239196777344
 31
0.0
  0
LINE
  5
177
330
1D
100
AcDbEntity
  8
0
100
AcDbLine
 10
119.6416015625
 20
129.239196777344
 30
0.0
 11
118.5
 21
129.0
 31
0.0
  0
LINE
  5
178
330
1D
100
AcDbEntity
  8
0
100
AcDbLine
 10
118.5
 20
129.0
 30
0.0
 11
117.989599609375
 21
128.887194824219
 31
0.0
  0
LINE
  5
179
330
1D
100
AcDbEntity
  8
0
100
AcDbLine
 10
117.989599609375
 20
128.887194824219
 30
0.0
 11
117.440808105469
 21
128.577612304688
 31
0.0
  0
LINE
  5
17A
330
1D
100
AcDbEntity
  8
0
100
AcDbLine
 10
117.440808105469
 20
128.577612304688
 30
0.0
 11
116.88720703125
 21
128.114404296875
 31
0.0
  0
LINE
  5
17B
330
1D
100
AcDbEntity
  8
0
100
AcDbLine
 10
116.88720703125
 20
128.114404296875
 30
0.0
 11
116.36240234375
 21
127.540808105469
 31
0.0
  0
LINE
  5
17C
330
1D
100
AcDbEntity
  8
0
100
AcDbLine
 10
116.36240234375
 20
127.540808105469
 30
0.0
 11
115.9
 21
126.9
 31
0.0
  0
LINE
  5
17D
330
1D
100
AcDbEntity
  8
0
100
AcDbLine
 10
115.9
 20
126.9
 30
0.0
 11
115.443200683594
 21
125.918395996094
 31
0.0
  0
LINE
  5
17E
330
1D
100
AcDbEntity
  8
0
100
AcDbLine
 10
115.443200683594
 20
125.918395996094
 30
0.0
 11
115.317614746094
 21
125.335205078125
 31
0.0
  0
LINE
  5
17F
330
1D
100
AcDbEntity
  8
0
100
AcDbLine
 10
115.317614746094
 20
125.335205078125
 30
0.0
 11
115.590405273438
 21
125.092797851563
 31
0.0
  0
LINE
  5
180
330
1D
100
AcDbEntity
  8
0
100
AcDbLine
 10
115.590405273438
 20
125.092797851563
 30
0.0
 11
116.328796386719
 21
125.13359375
 31
0.0
  0
LINE
  5
181
330
1D
100
AcDbEntity
  8
0
100
AcDbLine
 10
116.328796386719
 20
125.13359375
 30
0.0
 11
117.6
 21
125.4
 31
0.0
  0
LINE
  5
182
330
1D
100
AcDbEntity
  8
0
100
AcDbLine
 10
117.6
 20
125.4
 30
0.0
 11
118.603991699219
 21
125.72880859375
 31
0.0
  0
LINE
  5
183
330
1D
100
AcDbEntity
  8
0
100
AcDbLine
 10
118.603991699219
 20
125.72880859375
 30
0.0
 11
119.752014160156
 21
126.206408691406
 31
0.0
  0
LINE
  5
184
330
1D
100
AcDbEntity
  8
0
100
AcDbLine
 10
119.752014160156
 20
126.206408691406
 30
0.0
 11
120.947998046875
 21
126.789599609375
 31
0.0
  0
LINE
  5
185
330
1D
100
AcDbEntity
  8
0
100
AcDbLine
 10
120.947998046875
 20
126.789599609375
 30
0.0
 11
122.09599609375
 21
127.435205078125
 31
0.0
  0
LINE
  5
186
330
1D
100
AcDbEntity
  8
0
100
AcDbLine
 10
122.09599609375
 20
127.435205078125
 30
0.0
 11
123.1
 21
128.1
 31
0.0
  0
LINE
  5
187
330
1D
100
AcDbEntity
  8
0
100
AcDbLine
 10
123.1
 20
128.1
 30
0.0
 11
124.705590820313
 21
129.003991699219
 31
0.0
  0
LINE
  5
188
330
1D
100
AcDbEntity
  8
0
100
AcDbLine
 10
124.705590820313
 20
129.003991699219
 30
0.0
 11
125.960803222656
 21
129.164001464844
 31
0.0
  0
LINE
  5
189
330
1D
100
AcDbEntity
  8
0
100
AcDbLine
 10
125.960803222656
 20
129.164001464844
 30
0.0
 11
126.923205566406
 21
128.531994628906
 31
0.0
  0
LINE
  5
18A
330
1D
100
AcDbEntity
  8
0
100
AcDbLine
 10
126.923205566406
 20
128.531994628906
 30
0.0
 11
127.650402832031
 21
127.059997558594
 31
0.0
  0
LINE
  5
18B
330
1D
100
AcDbEntity
  8
0
100
AcDbLine
 10
127.650402832031
 20
127.059997558594
 30
0.0
 11
128.2
 21
124.7
 31
0.0
  0
LINE
  5
18C
330
1D
100
AcDbEntity
  8
0
100
AcDbLine
 10
128.2
 20
124.7
 30
0.0
 11
128.47119140625
 21
123.250402832031
 31
0.0
  0
LINE
  5
18D
330
1D
100
AcDbEntity
  8
0
100
AcDbLine
 10
128.47119140625
 20
123.250402832031
 30
0.0
 11
128.161608886719
 21
122.319201660156
 31
0.0
  0
LINE
  5
18E
330
1D
100
AcDbEntity
  8
0
100
AcDbLine
 10
128.161608886719
 20
122.319201660156
 30
0.0
 11
126.66640625
 21
121.632800292969
 31
0.0
  0
LINE
  5
18F
330
1D
100
AcDbEntity
  8
0
100
AcDbLine
 10
126.66640625
 20
121.632800292969
 30
0.0
 11
123.380810546875
 21
120.917602539063
 31
0.0
  0
LINE
  5
190
330
1D
100
AcDbEntity
  8
0
100
AcDbLine
 10
123.380810546875
 20
120.917602539063
 30
0.0
 11
117.7
 21
119.9
 31
0.0
  0
LINE
  5
191
330
1D
100
AcDbEntity
  8
0
100
AcDbLine
 10
117.7
 20
119.9
 30
0.0
 11
114.655200195313
 21
119.43359375
 31
0.0
  0
LINE
  5
192
330
1D
100
AcDbEntity
  8
0
100
AcDbLine
 10
114.655200195313
 20
119.43359375
 30
0.0
 11
112.5416015625
 21
119.240808105469
 31
0.0
  0
LINE
  5
193
330
1D
100
AcDbEntity
  8
0
100
AcDbLine
 10
112.5416015625
 20
119.240808105469
 30
0.0
 11
111.090405273438
 21
119.331201171875
 31
0.0
  0
LINE
  5
194
330
1D
100
AcDbEntity
  8
0
100
AcDbLine
 10
111.090405273438
 20
119.331201171875
 30
0.0
 11
110.032800292969
 21
119.714404296875
 31
0.0
  0
LINE
  5
195
330
1D
100
AcDbEntity
  8
0
100
AcDbLine
 10
110.032800292969
 20
119.714404296875
 30
0.0
 11
109.1
 21
120.4
 31
0.0
  0
LINE
  5
196
330
1D
100
AcDbEntity
  8
0
100
AcDbLine
 10
109.1
 20
120.4
 30
0.0
 11
108.315991210938
 21
121.193591308594
 31
0.0
  0
LINE
  5
197
330
1D
100
AcDbEntity
  8
0
100
AcDbLine
 10
108.315991210938
 20
121.193591308594
 30
0.0
 11
107.868005371094
 21
121.996801757813
 31
0.0
  0
LINE
  5
198
330
1D
100
AcDbEntity
  8
0
100
AcDbLine
 10
107.868005371094
 20
121.996801757813
 30
0.0
 11
107.731994628906
 21
122.963195800781
 31
0.0
  0
LINE
  5
199
330
1D
100
AcDbEntity
  8
0
100
AcDbLine
 10
107.731994628906
 20
122.963195800781
 30
0.0
 11
107.883996582031
 21
124.246398925781
 31
0.0
  0
LINE
  5
19A
330
1D
100
AcDbEntity
  8
0
100
AcDbLine
 10
107.883996582031
 20
124.246398925781
 30
0.0
 11
108.3
 21
126.0
 31
0.0
  0
LINE
  5
19B
330
1D
100
AcDbEntity
  8
0
100
AcDbLine
 10
108.3
 20
126.0
 30
0.0
 11
108.818395996094
 21
128.862390136719
 31
0.0
  0
LINE
  5
19C
330
1D
100
AcDbEntity
  8
0
100
AcDbLine
 10
108.818395996094
 20
128.862390136719
 30
0.0
 11
108.703210449219
 21
131.427209472656
 31
0.0
  0
LINE
  5
19D
330
1D
100
AcDbEntity
  8
0
100
AcDbLine
 10
108.703210449219
 20
131.427209472656
 30
0.0
 11
107.968798828125
 21
133.660803222656
 31
0.0
  0
LINE
  5
19E
330
1D
100
AcDbEntity
  8
0
100
AcDbLine
 10
107.968798828125
 20
133.660803222656
 30
0.0
 11
106.629602050781
 21
135.529602050781
 31
0.0
  0
LINE
  5
19F
330
1D
100
AcDbEntity
  8
0
100
AcDbLine
 10
106.629602050781
 20
135.529602050781
 30
0.0
 11
104.7
 21
137.0
 31
0.0
  0
LINE
  5
1A0
330
1D
100
AcDbEntity
  8
0
100
AcDbLine
 10
104.7
 20
137.0
 30
0.0
 11
103.447192382813
 21
137.623986816406
 31
0.0
  0
LINE
  5
1A1
330
1D
100
AcDbEntity
  8
0
100
AcDbLine
 10
103.447192382813
 20
137.623986816406
 30
0.0
 11
102.453601074219
 21
137.936010742188
 31
0.0
  0
LINE
  5
1A2
330
1D
100
AcDbEntity
  8
0
100
AcDbLine
 10
102.453601074219
 20
137.936010742188
 30
0.0
 11
101.546405029297
 21
137.935998535156
 31
0.0
  0
LINE
  5
1A3
330
1D
100
AcDbEntity
  8
0
100
AcDbLine
 10
101.546405029297
 20
137.935998535156
 30
0.0
 11
100.552801513672
 21
137.623999023438
 31
0.0
  0
LINE
  5
1A4
330
1D
100
AcDbEntity
  8
0
100
AcDbLine
 10
100.552801513672
 20
137.623999023438
 30
0.0
 11
99.29999999999999
 21
137.0
 31
0.0
  0
LINE
  5
1A5
330
1D
100
AcDbEntity
  8
0
100
AcDbLine
 10
99.29999999999999
 20
137.0
 30
0.0
 11
97.6047912597656
 21
135.476782226563
 31
0.0
  0
LINE
  5
1A6
330
1D
100
AcDbEntity
  8
0
100
AcDbLine
 10
97.6047912597656
 20
135.476782226563
 30
0.0
 11
96.44240112304691
 21
133.406408691406
 31
0.0
  0
LINE
  5
1A7
330
1D
100
AcDbEntity
  8
0
100
AcDbLine
 10
96.44240112304691
 20
133.406408691406
 30
0.0
 11
95.93760375976559
 21
131.297595214844
 31
0.0
  0
LINE
  5
1A8
330
1D
100
AcDbEntity
  8
0
100
AcDbLine
 10
95.93760375976559
 20
131.297595214844
 30
0.0
 11
96.2152038574219
 21
129.659204101563
 31
0.0
  0
LINE
  5
1A9
330
1D
100
AcDbEntity
  8
0
100
AcDbLine
 10
96.2152038574219
 20
129.659204101563
 30
0.0
 11
97.40000000000001
 21
129.0
 31
0.0
  0
LINE
  5
1AA
330
1D
100
AcDbEntity
  8
0
100
AcDbLine
 10
97.40000000000001
 20
129.0
 30
0.0
 11
97.8967956542969
 21
129.055993652344
 31
0.0
  0
LINE
  5
1AB
330
1D
100
AcDbEntity
  8
0
100
AcDbLine
 10
97.8967956542969
 20
129.055993652344
 30
0.0
 11
98.3984008789063
 21
129.207995605469
 31
0.0
  0
LINE
  5
1AC
330
1D
100
AcDbEntity
  8
0
100
AcDbLine
 10
98.3984008789063
 20
129.207995605469
 30
0.0
 11
98.86160278320311
 21
129.431994628906
 31
0.0
  0
LINE
  5
1AD
330
1D
100
AcDbEntity
  8
0
100
AcDbLine
 10
98.86160278320311
 20
129.431994628906
 30
0.0
 11
99.2432006835938
 21
129.70400390625
 31
0.0
  0
LINE
  5
1AE
330
1D
100
AcDbEntity
  8
0
100
AcDbLine
 10
99.2432006835938
 20
129.70400390625
 30
0.0
 11
99.50000000000001
 21
130.0
 31
0.0
  0
LINE
  5
1AF
330
1D
100
AcDbEntity
  8
0
100
AcDbLine
 10
99.50000000000001
 20
130.0
 30
0.0
 11
100.107196044922
 21
130.751208496094
 31
0.0
  0
LINE
  5
1B0
330
1D
100
AcDbEntity
  8
0
100
AcDbLine
 10
100.107196044922
 20
130.751208496094
 30
0.0
 11
100.757604980469
 21
130.94560546875
 31
0.0
  0
LINE
  5
1B1
330
1D
100
AcDbEntity
  8
0
100
AcDbLine
 10
100.757604980469
 20
130.94560546875
 30
0.0
 11
101.494396972656
 21
130.554406738281
 31
0.0
  0
LINE
  5
1B2
330
1D
100
AcDbEntity
  8
0
100
AcDbLine
 10
101.494396972656
 20
130.554406738281
 30
0.0
 11
102.360803222656
 21
129.548803710938
 31
0.0
  0
LINE
  5
1B3
330
1D
100
AcDbEntity
  8
0
100
AcDbLine
 10
102.360803222656
 20
129.548803710938
 30
0.0
 11
103.4
 21
127.9
 31
0.0
  0
LINE
  5
1B4
330
1D
100
AcDbEntity
  8
0
100
AcDbLine
 10
103.4
 20
127.9
 30
0.0
 11
104.482397460938
 21
125.63759765625
 31
0.0
  0
LINE
  5
1B5
330
1D
100
AcDbEntity
  8
0
100
AcDbLine
 10
104.482397460938
 20
125.63759765625
 30
0.0
 11
104.739208984375
 21
123.912805175781
 31
0.0
  0
LINE
  5
1B6
330
1D
100
AcDbEntity
  8
0
100
AcDbLine
 10
104.739208984375
 20
123.912805175781
 30
0.0
 11
104.184802246094
 21
122.759204101563
 31
0.0
  0
LINE
  5
1B7
330
1D
100
AcDbEntity
  8
0
100
AcDbLine
 10
104.184802246094
 20
122.759204101563
 30
0.0
 11
102.833605957031
 21
122.210400390625
 31
0.0
  0
LINE
  5
1B8
330
1D
100
AcDbEntity
  8
0
100
AcDbLine
 10
102.833605957031
 20
122.210400390625
 30
0.0
 11
100.7
 21
122.3
 31
0.0
  0
LINE
  5
1B9
330
1D
100
AcDbEntity
  8
0
100
AcDbLine
 10
100.7
 20
122.3
 30
0.0
 11
96.96239624023441
 21
123.078393554688
 31
0.0
  0
LINE
  5
1BA
330
1D
100
AcDbEntity
  8
0
100
AcDbLine
 10
96.96239624023441
 20
123.078393554688
 30
0.0
 11
93.1432006835938
 21
124.111206054688
 31
0.0
  0
LINE
  5
1BB
330
1D
100
AcDbEntity
  8
0
100
AcDbLine
 10
93.1432006835938
 20
124.111206054688
 30
0.0
 11
89.71279907226559
 21
125.244799804688
 31
0.0
  0
LINE
  5
1BC
330
1D
100
AcDbEntity
  8
0
100
AcDbLine
 10
89.71279907226559
 20
125.244799804688
 30
0.0
 11
87.14160156250001
 21
126.325598144531
 31
0.0
  0
LINE
  5
1BD
330
1D
100
AcDbEntity
  8
0
100
AcDbLine
 10
87.14160156250001
 20
126.325598144531
 30
0.0
 11
85.90000000000001
 21
127.2
 31
0.0
  0
LINE
  5
1BE
330
1D
100
AcDbEntity
  8
0
100
AcDbLine
 10
85.90000000000001
 20
127.2
 30
0.0
 11
85.727197265625
 21
127.753601074219
 31
0.0
  0
LINE
  5
1BF
330
1D
100
AcDbEntity
  8
0
100
AcDbLine
 10
85.727197265625
 20
127.753601074219
 30
0.0
 11
85.78959960937501
 21
128.532800292969
 31
0.0
  0
LINE
  5
1C0
330
1D
100
AcDbEntity
  8
0
100
AcDbLine
 10
85.78959960937501
 20
128.532800292969
 30
0.0
 11
86.0584045410156
 21
129.4751953125
 31
0.0
  0
LINE
  5
1C1
330
1D
100
AcDbEntity
  8
0
100
AcDbLine
 10
86.0584045410156
 20
129.4751953125
 30
0.0
 11
86.50480346679691
 21
130.518395996094
 31
0.0
  0
LINE
  5
1C2
330
1D
100
AcDbEntity
  8
0
100
AcDbLine
 10
86.50480346679691
 20
130.518395996094
 30
0.0
 11
87.09999999999999
 21
131.6
 31
0.0
  0
LINE
  5
1C3
330
1D
100
AcDbEntity
  8
0
100
AcDbLine
 10
87.09999999999999
 20
131.6
 30
0.0
 11
87.85759887695311
 21
133.0
 31
0.0
  0
LINE
  5
1C4
330
1D
100
AcDbEntity
  8
0
100
AcDbLine
 10
87.85759887695311
 20
133.0
 30
0.0
 11
88.33680419921881
 21
134.280004882813
 31
0.0
  0
LINE
  5
1C5
330
1D
100
AcDbEntity
  8
0
100
AcDbLine
 10
88.33680419921881
 20
134.280004882813
 30
0.0
 11
88.54720458984379
 21
135.559997558594
 31
0.0
  0
LINE
  5
1C6
330
1D
100
AcDbEntity
  8
0
100
AcDbLine
 10
88.54720458984379
 20
135.559997558594
 30
0.0
 11
88.4984008789063
 21
136.960009765625
 31
0.0
  0
LINE
  5
1C7
330
1D
100
AcDbEntity
  8
0
100
AcDbLine
 10
88.4984008789063
 20
136.960009765625
 30
0.0
 11
88.2
 21
138.6
 31
0.0
  0
LINE
  5
1C8
330
1D
100
AcDbEntity
  8
0
100
AcDbLine
 10
88.2
 20
138.6
 30
0.0
 11
87.79680175781249
 21
140.311206054688
 31
0.0
  0
LINE
  5
1C9
330
1D
100
AcDbEntity
  8
0
100
AcDbLine
 10
87.79680175781249
 20
140.311206054688
 30
0.0
 11
87.35040283203131
 21
141.4416015625
 31
0.0
  0
LINE
  5
1CA
330
1D
100
AcDbEntity
  8
0
100
AcDbLine
 10
87.35040283203131
 20
141.4416015625
 30
0.0
 11
86.7455993652344
 21
142.106408691406
 31
0.0
  0
LINE
  5
1CB
330
1D
100
AcDbEntity
  8
0
100
AcDbLine
 10
86.7455993652344
 20
142.106408691406
 30
0.0
 11
85.8671997070313
 21
142.42080078125
 31
0.0
  0
LINE
  5
1CC
330
1D
100
AcDbEntity
  8
0
100
AcDbLine
 10
85.8671997070313
 20
142.42080078125
 30
0.0
 11
84.59999999999999
 21
142.5
 31
0.0
  0
LINE
  5
1CD
330
1D
100
AcDbEntity
  8
0
100
AcDbLine
 10
84.59999999999999
 20
142.5
 30
0.0
 11
81.8687927246094
 21
141.915991210938
 31
0.0
  0
LINE
  5
1CE
330
1D
100
AcDbEntity
  8
0
100
AcDbLine
 10
81.8687927246094
 20
141.915991210938
 30
0.0
 11
80.41440429687501
 21
140.420007324219
 31
0.0
  0
LINE
  5
1CF
330
1D
100
AcDbEntity
  8
0
100
AcDbLine
 10
80.41440429687501
 20
140.420007324219
 30
0.0
 11
80.2656005859375
 21
138.39599609375
 31
0.0
  0
LINE
  5
1D0
330
1D
100
AcDbEntity
  8
0
100
AcDbLine
 10
80.2656005859375
 20
138.39599609375
 30
0.0
 11
81.4512023925781
 21
136.228002929688
 31
0.0
  0
LINE
  5
1D1
330
1D
100
AcDbEntity
  8
0
100
AcDbLine
 10
81.4512023925781
 20
136.228002929688
 30
0.0
 11
84.0
 21
134.3
 31
0.0
  0
LINE
  5
1D2
330
1D
100
AcDbEntity
  8
0
100
AcDbLine
 10
84.0
 20
134.3
 30
0.0
 11
86.2
 21
133.2
 31
0.0
  0
LINE
  5
1D3
330
1D
100
AcDbEntity
  8
0
100
AcDbLine
 10
86.2
 20
133.2
 30
0.0
 11
84.0
 21
132.0
 31
0.0
  0
LINE
  5
1D4
330
1D
100
AcDbEntity
  8
0
100
AcDbLine
 10
84.0
 20
132.0
 30
0.0
 11
83.1504028320313
 21
131.629602050781
 31
0.0
  0
LINE
  5
1D5
330
1D
100
AcDbEntity
  8
0
100
AcDbLine
 10
83.1504028320313
 20
131.629602050781
 30
0.0
 11
82.09920043945309
 21
131.364794921875
 31
0.0
  0
LINE
  5
1D6
330
1D
100
AcDbEntity
  8
0
100
AcDbLine
 10
82.09920043945309
 20
131.364794921875
 30
0.0
 11
80.93280029296881
 21
131.215197753906
 31
0.0
  0
LINE
  5
1D7
330
1D
100
AcDbEntity
  8
0
100
AcDbLine
 10
80.93280029296881
 20
131.215197753906
 30
0.0
 11
79.7376037597656
 21
131.190405273438
 31
0.0
  0
LINE
  5
1D8
330
1D
100
AcDbEntity
  8
0
100
AcDbLine
 10
79.7376037597656
 20
131.190405273438
 30
0.0
 11
78.59999999999999
 21
131.3
 31
0.0
  0
LINE
  5
1D9
330
1D
100
AcDbEntity
  8
0
100
AcDbLine
 10
78.59999999999999
 20
131.3
 30
0.0
 11
77.5343933105469
 21
131.383203125
 31
0.0
  0
LINE
  5
1DA
330
1D
100
AcDbEntity
  8
0
100
AcDbLine
 10
77.5343933105469
 20
131.383203125
 30
0.0
 11
76.4351989746094
 21
131.389599609375
 31
0.0
  0
LINE
  5
1DB
330
1D
100
AcDbEntity
  8
0
100
AcDbLine
 10
76.4351989746094
 20
131.389599609375
 30
0.0
 11
75.3888000488281
 21
131.314404296875
 31
0.0
  0
LINE
  5
1DC
330
1D
100
AcDbEntity
  8
0
100
AcDbLine
 10
75.3888000488281
 20
131.314404296875
 30
0.0
 11
74.4815979003906
 21
131.152807617188
 31
0.0
  0
LINE
  5
1DD
330
1D
100
AcDbEntity
  8
0
100
AcDbLine
 10
74.4815979003906
 20
131.152807617188
 30
0.0
 11
73.79999999999999
 21
130.9
 31
0.0
  0
LINE
  5
1DE
330
1D
100
AcDbEntity
  8
0
100
AcDbLine
 10
73.79999999999999
 20
130.9
 30
0.0
 11
72.4992004394531
 21
130.459191894531
 31
0.0
  0
LINE
  5
1DF
330
1D
100
AcDbEntity
  8
0
100
AcDbLine
 10
72.4992004394531
 20
130.459191894531
 30
0.0
 11
71.74560546875
 21
130.685607910156
 31
0.0
  0
LINE
  5
1E0
330
1D
100
AcDbEntity
  8
0
100
AcDbLine
 10
71.74560546875
 20
130.685607910156
 30
0.0
 11
71.5823974609375
 21
131.382397460938
 31
0.0
  0
LINE
  5
1E1
330
1D
100
AcDbEntity
  8
0
100
AcDbLine
 10
71.5823974609375
 20
131.382397460938
 30
0.0
 11
72.0528015136719
 21
132.352807617188
 31
0.0
  0
LINE
  5
1E2
330
1D
100
AcDbEntity
  8
0
100
AcDbLine
 10
72.0528015136719
 20
132.352807617188
 30
0.0
 11
73.2
 21
133.4
 31
0.0
  0
LINE
  5
1E3
330
1D
100
AcDbEntity
  8
0
100
AcDbLine
 10
73.2
 20
133.4
 30
0.0
 11
74.25759277343749
 21
134.142395019531
 31
0.0
  0
LINE
  5
1E4
330
1D
100
AcDbEntity
  8
0
100
AcDbLine
 10
74.25759277343749
 20
134.142395019531
 30
0.0
 11
74.7968017578125
 21
134.611206054688
 31
0.0
  0
LINE
  5
1E5
330
1D
100
AcDbEntity
  8
0
100
AcDbLine
 10
74.7968017578125
 20
134.611206054688
 30
0.0
 11
74.827197265625
 21
134.868798828125
 31
0.0
  0
LINE
  5
1E6
330
1D
100
AcDbEntity
  8
0
100
AcDbLine
 10
74.827197265625
 20
134.868798828125
 30
0.0
 11
74.3584045410156
 21
134.977600097656
 31
0.0
  0
LINE
  5
1E7
330
1D
100
AcDbEntity
  8
0
100
AcDbLine
 10
74.3584045410156
 20
134.977600097656
 30
0.0
 11
73.4
 21
135.0
 31
0.0
  0
LINE
  5
1E8
330
1D
100
AcDbEntity
  8
0
100
AcDbLine
 10
73.4
 20
135.0
 30
0.0
 11
72.5984008789063
 21
134.874389648438
 31
0.0
  0
LINE
  5
1E9
330
1D
100
AcDbEntity
  8
0
100
AcDbLine
 10
72.5984008789063
 20
134.874389648438
 30
0.0
 11
71.5712036132813
 21
134.523205566406
 31
0.0
  0
LINE
  5
1EA
330
1D
100
AcDbEntity
  8
0
100
AcDbLine
 10
71.5712036132813
 20
134.523205566406
 30
0.0
 11
70.4047973632813
 21
133.984802246094
 31
0.0
  0
LINE
  5
1EB
330
1D
100
AcDbEntity
  8
0
100
AcDbLine
 10
70.4047973632813
 20
133.984802246094
 30
0.0
 11
69.1856018066406
 21
133.297607421875
 31
0.0
  0
LINE
  5
1EC
330
1D
100
AcDbEntity
  8
0
100
AcDbLine
 10
69.1856018066406
 20
133.297607421875
 30
0.0
 11
68.0
 21
132.5
 31
0.0
  0
LINE
  5
1ED
330
1D
100
AcDbEntity
  8
0
100
AcDbLine
 10
68.0
 20
132.5
 30
0.0
 11
64.7
 21
130.1
 31
0.0
  0
LINE
  5
1EE
330
1D
100
AcDbEntity
  8
0
100
AcDbLine
 10
64.7
 20
130.1
 30
0.0
 11
60.2
 21
134.8
 31
0.0
  0
LINE
  5
1EF
330
1D
100
AcDbEntity
  8
0
100
AcDbLine
 10
60.2
 20
134.8
 30
0.0
 11
52.3215942382813
 21
143.074389648438
 31
0.0
  0
LINE
  5
1F0
330
1D
100
AcDbEntity
  8
0
100
AcDbLine
 10
52.3215942382813
 20
143.074389648438
 30
0.0
 11
47.7648010253906
 21
148.147216796875
 31
0.0
  0
LINE
  5
1F1
330
1D
100
AcDbEntity
  8
0
100
AcDbLine
 10
47.7648010253906
 20
148.147216796875
 30
0.0
 11
45.6272003173828
 21
151.352807617188
 31
0.0
  0
LINE
  5
1F2
330
1D
100
AcDbEntity
  8
0
100
AcDbLine
 10
45.6272003173828
 20
151.352807617188
 30
0.0
 11
45.0064025878906
 21
154.025610351563
 31
0.0
  0
LINE
  5
1F3
330
1D
100
AcDbEntity
  8
0
100
AcDbLine
 10
45.0064025878906
 20
154.025610351563
 30
0.0
 11
45.0
 21
157.5
 31
0.0
  0
LINE
  5
1F4
330
1D
100
AcDbEntity
  8
0
100
AcDbLine
 10
45.0
 20
157.5
 30
0.0
 11
45.44559631347659
 21
163.222399902344
 31
0.0
  0
LINE
  5
1F5
330
1D
100
AcDbEntity
  8
0
100
AcDbLine
 10
45.44559631347659
 20
163.222399902344
 30
0.0
 11
46.9328002929688
 21
167.615209960938
 31
0.0
  0
LINE
  5
1F6
330
1D
100
AcDbEntity
  8
0
100
AcDbLine
 10
46.9328002929688
 20
167.615209960938
 30
0.0
 11
49.6872009277344
 21
170.956799316406
 31
0.0
  0
LINE
  5
1F7
330
1D
100
AcDbEntity
  8
0
100
AcDbLine
 10
49.6872009277344
 20
170.956799316406
 30
0.0
 11
53.93439941406249
 21
173.525598144531
 31
0.0
  0
LINE
  5
1F8
330
1D
100
AcDbEntity
  8
0
100
AcDbLine
 10
53.93439941406249
 20
173.525598144531
 30
0.0
 11
59.9
 21
175.6
 31
0.0
  0
LINE
  5
1F9
330
1D
100
AcDbEntity
  8
0
100
AcDbLine
 10
59.9
 20
175.6
 30
0.0
 11
62.8511962890625
 21
176.523193359375
 31
0.0
  0
LINE
  5
1FA
330
1D
100
AcDbEntity
  8
0
100
AcDbLine
 10
62.8511962890625
 20
176.523193359375
 30
0.0
 11
65.1496032714844
 21
177.561608886719
 31
0.0
  0
LINE
  5
1FB
330
1D
100
AcDbEntity
  8
0
100
AcDbLine
 10
65.1496032714844
 20
177.561608886719
 30
0.0
 11
67.2224060058594
 21
178.998400878906
 31
0.0
  0
LINE
  5
1FC
330
1D
100
AcDbEntity
  8
0
100
AcDbLine
 10
67.2224060058594
 20
178.998400878906
 30
0.0
 11
69.4968017578125
 21
181.116796875
 31
0.0
  0
LINE
  5
1FD
330
1D
100
AcDbEntity
  8
0
100
AcDbLine
 10
69.4968017578125
 20
181.116796875
 30
0.0
 11
72.40000000000001
 21
184.2
 31
0.0
  0
LINE
  5
1FE
330
1D
100
AcDbEntity
  8
0
100
AcDbLine
 10
72.40000000000001
 20
184.2
 30
0.0
 11
76.4575988769531
 21
188.531994628906
 31
0.0
  0
LINE
  5
1FF
330
1D
100
AcDbEntity
  8
0
100
AcDbLine
 10
76.4575988769531
 20
188.531994628906
 30
0.0
 11
79.92479858398439
 21
191.640014648438
 31
0.0
  0
LINE
  5
200
330
1D
100
AcDbEntity
  8
0
100
AcDbLine
 10
79.92479858398439
 20
191.640014648438
 30
0.0
 11
83.2432006835938
 21
193.811999511719
 31
0.0
  0
LINE
  5
201
330
1D
100
AcDbEntity
  8
0
100
AcDbLine
 10
83.2432006835938
 20
193.811999511719
 30
0.0
 11
86.8544006347656
 21
195.335998535156
 31
0.0
  0
LINE
  5
202
330
1D
100
AcDbEntity
  8
0
100
AcDbLine
 10
86.8544006347656
 20
195.335998535156
 30
0.0
 11
91.2
 21
196.5
 31
0.0
  0
LINE
  5
203
330
1D
100
AcDbEntity
  8
0
100
AcDbLine
 10
91.2
 20
196.5
 30
0.0
 11
95.35279541015631
 21
197.363208007813
 31
0.0
  0
LINE
  5
204
330
1D
100
AcDbEntity
  8
0
100
AcDbLine
 10
95.35279541015631
 20
197.363208007813
 30
0.0
 11
98.3823974609375
 21
197.789599609375
 31
0.0
  0
LINE
  5
205
330
1D
100
AcDbEntity
  8
0
100
AcDbLine
 10
98.3823974609375
 20
197.789599609375
 30
0.0
 11
101.085595703125
 21
197.774401855469
 31
0.0
  0
LINE
  5
206
330
1D
100
AcDbEntity
  8
0
100
AcDbLine
 10
101.085595703125
 20
197.774401855469
 30
0.0
 11
104.259204101563
 21
197.312805175781
 31
0.0
  0
LINE
  5
207
330
1D
100
AcDbEntity
  8
0
100
AcDbLine
 10
104.259204101563
 20
197.312805175781
 30
0.0
 11
108.7
 21
196.4
 31
0.0
  0
LINE
  5
208
330
1D
100
AcDbEntity
  8
0
100
AcDbLine
 10
129.5
 20
196.5
 30
0.0
 11
138.222399902344
 21
194.286389160156
 31
0.0
  0
LINE
  5
209
330
1D
100
AcDbEntity
  8
0
100
AcDbLine
 10
138.222399902344
 20
194.286389160156
 30
0.0
 11
147.655200195313
 21
191.367199707031
 31
0.0
  0
LINE
  5
20A
330
1D
100
AcDbEntity
  8
0
100
AcDbLine
 10
147.655200195313
 20
191.367199707031
 30
0.0
 11
156.276806640625
 21
188.284802246094
 31
0.0
  0
LINE
  5
20B
330
1D
100
AcDbEntity
  8
0
100
AcDbLine
 10
156.276806640625
 20
188.284802246094
 30
0.0
 11
162.565600585938
 21
185.581604003906
 31
0.0
  0
LINE
  5
20C
330
1D
100
AcDbEntity
  8
0
100
AcDbLine
 10
162.565600585938
 20
185.581604003906
 30
0.0
 11
165.0
 21
183.8
 31
0.0
  0
LINE
  5
20D
330
1D
100
AcDbEntity
  8
0
100
AcDbLine
 10
165.0
 20
183.8
 30
0.0
 11
164.909582519531
 21
183.488793945313
 31
0.0
  0
LINE
  5
20E
330
1D
100
AcDbEntity
  8
0
100
AcDbLine
 10
164.909582519531
 20
183.488793945313
 30
0.0
 11
164.660803222656
 21
183.278405761719
 31
0.0
  0
LINE
  5
20F
330
1D
100
AcDbEntity
  8
0
100
AcDbLine
 10
164.660803222656
 20
183.278405761719
 30
0.0
 11
164.28720703125
 21
183.173596191406
 31
0.0
  0
LINE
  5
210
330
1D
100
AcDbEntity
  8
0
100
AcDbLine
 10
164.28720703125
 20
183.173596191406
 30
0.0
 11
163.822399902344
 21
183.179211425781
 31
0.0
  0
LINE
  5
211
330
1D
100
AcDbEntity
  8
0
100
AcDbLine
 10
163.822399902344
 20
183.179211425781
 30
0.0
 11
163.3
 21
183.3
 31
0.0
  0
LINE
  5
212
330
1D
100
AcDbEntity
  8
0
100
AcDbLine
 10
163.3
 20
183.3
 30
0.0
 11
156.696789550781
 21
185.286389160156
 31
0.0
  0
LINE
  5
213
330
1D
100
AcDbEntity
  8
0
100
AcDbLine
 10
156.696789550781
 20
185.286389160156
 30
0.0
 11
145.538403320313
 21
188.823205566406
 31
0.0
  0
LINE
  5
214
330
1D
100
AcDbEntity
  8
0
100
AcDbLine
 10
145.538403320313
 20
188.823205566406
 30
0.0
 11
133.261596679688
 21
192.796801757813
 31
0.0
  0
LINE
  5
215
330
1D
100
AcDbEntity
  8
0
100
AcDbLine
 10
133.261596679688
 20
192.796801757813
 30
0.0
 11
123.303198242188
 21
196.093603515625
 31
0.0
  0
LINE
  5
216
330
1D
100
AcDbEntity
  8
0
100
AcDbLine
 10
123.303198242188
 20
196.093603515625
 30
0.0
 11
119.1
 21
197.6
 31
0.0
  0
LINE
  5
217
330
1D
100
AcDbEntity
  8
0
100
AcDbLine
 10
119.1
 20
197.6
 30
0.0
 11
119.211999511719
 21
197.927185058594
 31
0.0
  0
LINE
  5
218
330
1D
100
AcDbEntity
  8
0
100
AcDbLine
 10
119.211999511719
 20
197.927185058594
 30
0.0
 11
120.428002929688
 21
197.961608886719
 31
0.0
  0
LINE
  5
219
330
1D
100
AcDbEntity
  8
0
100
AcDbLine
 10
120.428002929688
 20
197.961608886719
 30
0.0
 11
122.628002929688
 21
197.722399902344
 31
0.0
  0
LINE
  5
21A
330
1D
100
AcDbEntity
  8
0
100
AcDbLine
 10
122.628002929688
 20
197.722399902344
 30
0.0
 11
125.692004394531
 21
197.2288085937499
 31
0.0
  0
LINE
  5
21B
330
1D
100
AcDbEntity
  8
0
100
AcDbLine
 10
125.692004394531
 20
197.2288085937499
 30
0.0
 11
129.5
 21
196.5
 31
0.0
  0
LINE
  5
21C
330
1D
100
AcDbEntity
  8
0
100
AcDbLine
 10
34.6
 20
149.8
 30
0.0
 11
40.86319885253909
 21
142.405590820313
 31
0.0
  0
LINE
  5
21D
330
1D
100
AcDbEntity
  8
0
100
AcDbLine
 10
40.86319885253909
 20
142.405590820313
 30
0.0
 11
49.3536041259766
 21
133.388806152344
 31
0.0
  0
LINE
  5
21E
330
1D
100
AcDbEntity
  8
0
100
AcDbLine
 10
49.3536041259766
 20
133.388806152344
 30
0.0
 11
59.2024047851563
 21
123.599194335938
 31
0.0
  0
LINE
  5
21F
330
1D
100
AcDbEntity
  8
0
100
AcDbLine
 10
59.2024047851563
 20
123.599194335938
 30
0.0
 11
69.5408020019531
 21
113.886401367188
 31
0.0
  0
LINE
  5
220
330
1D
100
AcDbEntity
  8
0
100
AcDbLine
 10
69.5408020019531
 20
113.886401367188
 30
0.0
 11
79.5
 21
105.1
 31
0.0
  0
LINE
  5
221
330
1D
100
AcDbEntity
  8
0
100
AcDbLine
 10
79.5
 20
105.1
 30
0.0
 11
88.39119873046881
 21
97.63679809570311
 31
0.0
  0
LINE
  5
222
330
1D
100
AcDbEntity
  8
0
100
AcDbLine
 10
88.39119873046881
 20
97.63679809570311
 30
0.0
 11
96.22160034179691
 21
91.16239624023441
 31
0.0
  0
LINE
  5
223
330
1D
100
AcDbEntity
  8
0
100
AcDbLine
 10
96.22160034179691
 20
91.16239624023441
 30
0.0
 11
102.626403808594
 21
85.9695983886719
 31
0.0
  0
LINE
  5
224
330
1D
100
AcDbEntity
  8
0
100
AcDbLine
 10
102.626403808594
 20
85.9695983886719
 30
0.0
 11
107.240795898438
 21
82.3512023925781
 31
0.0
  0
LINE
  5
225
330
1D
100
AcDbEntity
  8
0
100
AcDbLine
 10
107.240795898438
 20
82.3512023925781
 30
0.0
 11
109.7
 21
80.6
 31
0.0
  0
LINE
  5
226
330
1D
100
AcDbEntity
  8
0
100
AcDbLine
 10
109.7
 20
80.6
 30
0.0
 11
115.889587402344
 21
83.58399658203131
 31
0.0
  0
LINE
  5
227
330
1D
100
AcDbEntity
  8
0
100
AcDbLine
 10
115.889587402344
 20
83.58399658203131
 30
0.0
 11
128.760803222656
 21
92.97600708007811
 31
0.0
  0
LINE
  5
228
330
1D
100
AcDbEntity
  8
0
100
AcDbLine
 10
128.760803222656
 20
92.97600708007811
 30
0.0
 11
145.347204589844
 21
106.376000976563
 31
0.0
  0
LINE
  5
229
330
1D
100
AcDbEntity
  8
0
100
AcDbLine
 10
145.347204589844
 20
106.376000976563
 30
0.0
 11
162.682397460938
 21
121.383996582031
 31
0.0
  0
LINE
  5
22A
330
1D
100
AcDbEntity
  8
0
100
AcDbLine
 10
162.682397460938
 20
121.383996582031
 30
0.0
 11
177.8
 21
135.6
 31
0.0
  0
LINE
  5
22B
330
1D
100
AcDbEntity
  8
0
100
AcDbLine
 10
177.8
 20
135.6
 30
0.0
 11
185.463989257813
 21
143.300793457031
 31
0.0
  0
LINE
  5
22C
330
1D
100
AcDbEntity
  8
0
100
AcDbLine
 10
185.463989257813
 20
143.300793457031
 30
0.0
 11
190.464001464844
 21
148.126403808594
 31
0.0
  0
LINE
  5
22D
330
1D
100
AcDbEntity
  8
0
100
AcDbLine
 10
190.464001464844
 20
148.126403808594
 30
0.0
 11
193.352001953125
 21
150.561596679688
 31
0.0
  0
LINE
  5
22E
330
1D
100
AcDbEntity
  8
0
100
AcDbLine
 10
193.352001953125
 20
150.561596679688
 30
0.0
 11
194.680004882813
 21
151.091198730469
 31
0.0
  0
LINE
  5
22F
330
1D
100
AcDbEntity
  8
0
100
AcDbLine
 10
194.680004882813
 20
151.091198730469
 30
0.0
 11
195.0
 21
150.2
 31
0.0
  0
LINE
  5
230
330
1D
100
AcDbEntity
  8
0
100
AcDbLine
 10
195.0
 20
150.2
 30
0.0
 11
194.852001953125
 21
149.066394042969
 31
0.0
  0
LINE
  5
231
330
1D
100
AcDbEntity
  8
0
100
AcDbLine
 10
194.852001953125
 20
149.066394042969
 30
0.0
 11
194.440002441406
 21
147.659204101563
 31
0.0
  0
LINE
  5
232
330
1D
100
AcDbEntity
  8
0
100
AcDbLine
 10
194.440002441406
 20
147.659204101563
 30
0.0
 11
193.811999511719
 21
146.088806152344
 31
0.0
  0
LINE
  5
233
330
1D
100
AcDbEntity
  8
0
100
AcDbLine
 10
193.811999511719
 20
146.088806152344
 30
0.0
 11
193.016003417969
 21
144.465600585938
 31
0.0
  0
LINE
  5
234
330
1D
100
AcDbEntity
  8
0
100
AcDbLine
 10
193.016003417969
 20
144.465600585938
 30
0.0
 11
192.1
 21
142.9
 31
0.0
  0
LINE
  5
235
330
1D
100
AcDbEntity
  8
0
100
AcDbLine
 10
192.1
 20
142.9
 30
0.0
 11
185.000793457031
 21
134.302392578125
 31
0.0
  0
LINE
  5
236
330
1D
100
AcDbEntity
  8
0
100
AcDbLine
 10
185.000793457031
 20
134.302392578125
 30
0.0
 11
173.130407714844
 21
122.407202148438
 31
0.0
  0
LINE
  5
237
330
1D
100
AcDbEntity
  8
0
100
AcDbLine
 10
173.130407714844
 20
122.407202148438
 30
0.0
 11
158.029602050781
 21
108.62080078125
 31
0.0
  0
LINE
  5
238
330
1D
100
AcDbEntity
  8
0
100
AcDbLine
 10
158.029602050781
 20
108.62080078125
 30
0.0
 11
141.239208984375
 21
94.3496032714844
 31
0.0
  0
LINE
  5
239
330
1D
100
AcDbEntity
  8
0
100
AcDbLine
 10
141.239208984375
 20
94.3496032714844
 30
0.0
 11
124.3
 21
81.0
 31
0.0
  0
LINE
  5
23A
330
1D
100
AcDbEntity
  8
0
100
AcDbLine
 10
124.3
 20
81.0
 30
0.0
 11
122.00478515625
 21
79.25280151367189
 31
0.0
  0
LINE
  5
23B
330
1D
100
AcDbEntity
  8
0
100
AcDbLine
 10
122.00478515625
 20
79.25280151367189
 30
0.0
 11
120.002392578125
 21
77.67839965820311
 31
0.0
  0
LINE
  5
23C
330
1D
100
AcDbEntity
  8
0
100
AcDbLine
 10
120.002392578125
 20
77.67839965820311
 30
0.0
 11
118.417602539063
 21
76.3776000976563
 31
0.0
  0
LINE
  5
23D
330
1D
100
AcDbEntity
  8
0
100
AcDbLine
 10
118.417602539063
 20
76.3776000976563
 30
0.0
 11
117.3751953125
 21
75.45120239257809
 31
0.0
  0
LINE
  5
23E
330
1D
100
AcDbEntity
  8
0
100
AcDbLine
 10
117.3751953125
 20
75.45120239257809
 30
0.0
 11
117.0
 21
75.0
 31
0.0
  0
LINE
  5
23F
330
1D
100
AcDbEntity
  8
0
100
AcDbLine
 10
117.0
 20
75.0
 30
0.0
 11
117.261584472656
 21
74.6511962890625
 31
0.0
  0
LINE
  5
240
330
1D
100
AcDbEntity
  8
0
100
AcDbLine
 10
117.261584472656
 20
74.6511962890625
 30
0.0
 11
117.988806152344
 21
74.00960083007809
 31
0.0
  0
LINE
  5
241
330
1D
100
AcDbEntity
  8
0
100
AcDbLine
 10
117.988806152344
 20
74.00960083007809
 30
0.0
 11
119.095202636719
 21
73.14239501953131
 31
0.0
  0
LINE
  5
242
330
1D
100
AcDbEntity
  8
0
100
AcDbLine
 10
119.095202636719
 20
73.14239501953131
 30
0.0
 11
120.494396972656
 21
72.11679687500001
 31
0.0
  0
LINE
  5
243
330
1D
100
AcDbEntity
  8
0
100
AcDbLine
 10
120.494396972656
 20
72.11679687500001
 30
0.0
 11
122.1
 21
71.0
 31
0.0
  0
LINE
  5
244
330
1D
100
AcDbEntity
  8
0
100
AcDbLine
 10
122.1
 20
71.0
 30
0.0
 11
123.807189941406
 21
69.79120483398439
 31
0.0
  0
LINE
  5
245
330
1D
100
AcDbEntity
  8
0
100
AcDbLine
 10
123.807189941406
 20
69.79120483398439
 30
0.0
 11
125.485607910156
 21
68.50560302734379
 31
0.0
  0
LINE
  5
246
330
1D
100
AcDbEntity
  8
0
100
AcDbLine
 10
125.485607910156
 20
68.50560302734379
 30
0.0
 11
127.010400390625
 21
67.23439941406249
 31
0.0
  0
LINE
  5
247
330
1D
100
AcDbEntity
  8
0
100
AcDbLine
 10
127.010400390625
 20
67.23439941406249
 30
0.0
 11
128.256799316406
 21
66.0688049316406
 31
0.0
  0
LINE
  5
248
330
1D
100
AcDbEntity
  8
0
100
AcDbLine
 10
128.256799316406
 20
66.0688049316406
 30
0.0
 11
129.1
 21
65.09999999999999
 31
0.0
  0
LINE
  5
249
330
1D
100
AcDbEntity
  8
0
100
AcDbLine
 10
129.1
 20
65.09999999999999
 30
0.0
 11
130.027197265625
 21
63.9944030761719
 31
0.0
  0
LINE
  5
24A
330
1D
100
AcDbEntity
  8
0
100
AcDbLine
 10
130.027197265625
 20
63.9944030761719
 30
0.0
 11
130.589599609375
 21
63.431201171875
 31
0.0
  0
LINE
  5
24B
330
1D
100
AcDbEntity
  8
0
100
AcDbLine
 10
130.589599609375
 20
63.431201171875
 30
0.0
 11
130.878405761719
 21
63.4007995605469
 31
0.0
  0
LINE
  5
24C
330
1D
100
AcDbEntity
  8
0
100
AcDbLine
 10
130.878405761719
 20
63.4007995605469
 30
0.0
 11
130.984802246094
 21
63.893603515625
 31
0.0
  0
LINE
  5
24D
330
1D
100
AcDbEntity
  8
0
100
AcDbLine
 10
130.984802246094
 20
63.893603515625
 30
0.0
 11
131.0
 21
64.90000000000001
 31
0.0
  0
LINE
  5
24E
330
1D
100
AcDbEntity
  8
0
100
AcDbLine
 10
131.0
 20
64.90000000000001
 30
0.0
 11
130.92080078125
 21
65.61279296875
 31
0.0
  0
LINE
  5
24F
330
1D
100
AcDbEntity
  8
0
100
AcDbLine
 10
130.92080078125
 20
65.61279296875
 30
0.0
 11
130.702404785156
 21
66.2823974609375
 31
0.0
  0
LINE
  5
250
330
1D
100
AcDbEntity
  8
0
100
AcDbLine
 10
130.702404785156
 20
66.2823974609375
 30
0.0
 11
130.373596191406
 21
66.86559448242189
 31
0.0
  0
LINE
  5
251
330
1D
100
AcDbEntity
  8
0
100
AcDbLine
 10
130.373596191406
 20
66.86559448242189
 30
0.0
 11
129.963195800781
 21
67.3192016601563
 31
0.0
  0
LINE
  5
252
330
1D
100
AcDbEntity
  8
0
100
AcDbLine
 10
129.963195800781
 20
67.3192016601563
 30
0.0
 11
129.5
 21
67.59999999999999
 31
0.0
  0
LINE
  5
253
330
1D
100
AcDbEntity
  8
0
100
AcDbLine
 10
129.5
 20
67.59999999999999
 30
0.0
 11
128.486401367188
 21
68.1951965332031
 31
0.0
  0
LINE
  5
254
330
1D
100
AcDbEntity
  8
0
100
AcDbLine
 10
128.486401367188
 20
68.1951965332031
 30
0.0
 11
128.063195800781
 21
68.83359985351559
 31
0.0
  0
LINE
  5
255
330
1D
100
AcDbEntity
  8
0
100
AcDbLine
 10
128.063195800781
 20
68.83359985351559
 30
0.0
 11
128.196801757813
 21
69.4143981933594
 31
0.0
  0
LINE
  5
256
330
1D
100
AcDbEntity
  8
0
100
AcDbLine
 10
128.196801757813
 20
69.4143981933594
 30
0.0
 11
128.853601074219
 21
69.8367980957031
 31
0.0
  0
LINE
  5
257
330
1D
100
AcDbEntity
  8
0
100
AcDbLine
 10
128.853601074219
 20
69.8367980957031
 30
0.0
 11
130.0
 21
70.0
 31
0.0
  0
LINE
  5
258
330
1D
100
AcDbEntity
  8
0
100
AcDbLine
 10
130.0
 20
70.0
 30
0.0
 11
131.835205078125
 21
69.52239379882811
 31
0.0
  0
LINE
  5
259
330
1D
100
AcDbEntity
  8
0
100
AcDbLine
 10
131.835205078125
 20
69.52239379882811
 30
0.0
 11
133.017602539063
 21
68.0992004394531
 31
0.0
  0
LINE
  5
25A
330
1D
100
AcDbEntity
  8
0
100
AcDbLine
 10
133.017602539063
 20
68.0992004394531
 30
0.0
 11
133.542395019531
 21
65.7447998046875
 31
0.0
  0
LINE
  5
25B
330
1D
100
AcDbEntity
  8
0
100
AcDbLine
 10
133.542395019531
 20
65.7447998046875
 30
0.0
 11
133.404797363281
 21
62.47360229492191
 31
0.0
  0
LINE
  5
25C
330
1D
100
AcDbEntity
  8
0
100
AcDbLine
 10
133.404797363281
 20
62.47360229492191
 30
0.0
 11
132.6
 21
58.3
 31
0.0
  0
LINE
  5
25D
330
1D
100
AcDbEntity
  8
0
100
AcDbLine
 10
132.6
 20
58.3
 30
0.0
 11
131.795983886719
 21
54.31119384765629
 31
0.0
  0
LINE
  5
25E
330
1D
100
AcDbEntity
  8
0
100
AcDbLine
 10
131.795983886719
 20
54.31119384765629
 30
0.0
 11
131.423999023438
 21
50.6536010742188
 31
0.0
  0
LINE
  5
25F
330
1D
100
AcDbEntity
  8
0
100
AcDbLine
 10
131.423999023438
 20
50.6536010742188
 30
0.0
 11
131.484008789063
 21
47.37039794921879
 31
0.0
  0
LINE
  5
260
330
1D
100
AcDbEntity
  8
0
100
AcDbLine
 10
131.484008789063
 20
47.37039794921879
 30
0.0
 11
131.976000976563
 21
44.5048004150391
 31
0.0
  0
LINE
  5
261
330
1D
100
AcDbEntity
  8
0
100
AcDbLine
 10
131.976000976563
 20
44.5048004150391
 30
0.0
 11
132.9
 21
42.09999999999999
 31
0.0
  0
LINE
  5
262
330
1D
100
AcDbEntity
  8
0
100
AcDbLine
 10
132.9
 20
42.09999999999999
 30
0.0
 11
134.561584472656
 21
39.9039978027344
 31
0.0
  0
LINE
  5
263
330
1D
100
AcDbEntity
  8
0
100
AcDbLine
 10
134.561584472656
 20
39.9039978027344
 30
0.0
 11
137.072814941406
 21
37.5160003662109
 31
0.0
  0
LINE
  5
264
330
1D
100
AcDbEntity
  8
0
100
AcDbLine
 10
137.072814941406
 20
37.5160003662109
 30
0.0
 11
139.963208007813
 21
35.2959991455078
 31
0.0
  0
LINE
  5
265
330
1D
100
AcDbEntity
  8
0
100
AcDbLine
 10
139.963208007813
 20
35.2959991455078
 30
0.0
 11
142.76240234375
 21
33.6040008544922
 31
0.0
  0
LINE
  5
266
330
1D
100
AcDbEntity
  8
0
100
AcDbLine
 10
142.76240234375
 20
33.6040008544922
 30
0.0
 11
145.0
 21
32.8
 31
0.0
  0
LINE
  5
267
330
1D
100
AcDbEntity
  8
0
100
AcDbLine
 10
145.0
 20
32.8
 30
0.0
 11
147.652795410156
 21
32.7559997558594
 31
0.0
  0
LINE
  5
268
330
1D
100
AcDbEntity
  8
0
100
AcDbLine
 10
147.652795410156
 20
32.7559997558594
 30
0.0
 11
150.478405761719
 21
33.31199951171881
 31
0.0
  0
LINE
  5
269
330
1D
100
AcDbEntity
  8
0
100
AcDbLine
 10
150.478405761719
 20
33.31199951171881
 30
0.0
 11
153.337609863281
 21
34.4200012207031
 31
0.0
  0
LINE
  5
26A
330
1D
100
AcDbEntity
  8
0
100
AcDbLine
 10
153.337609863281
 20
34.4200012207031
 30
0.0
 11
156.091198730469
 21
36.0320007324219
 31
0.0
  0
LINE
  5
26B
330
1D
100
AcDbEntity
  8
0
100
AcDbLine
 10
156.091198730469
 20
36.0320007324219
 30
0.0
 11
158.6
 21
38.1
 31
0.0
  0
LINE
  5
26C
330
1D
100
AcDbEntity
  8
0
100
AcDbLine
 10
158.6
 20
38.1
 30
0.0
 11
160.072790527344
 21
39.5720001220703
 31
0.0
  0
LINE
  5
26D
330
1D
100
AcDbEntity
  8
0
100
AcDbLine
 10
160.072790527344
 20
39.5720001220703
 30
0.0
 11
160.926403808594
 21
40.58800354003909
 31
0.0
  0
LINE
  5
26E
330
1D
100
AcDbEntity
  8
0
100
AcDbLine
 10
160.926403808594
 20
40.58800354003909
 30
0.0
 11
161.213610839844
 21
41.2679992675781
 31
0.0
  0
LINE
  5
26F
330
1D
100
AcDbEntity
  8
0
100
AcDbLine
 10
161.213610839844
 20
41.2679992675781
 30
0.0
 11
160.98720703125
 21
41.7320007324219
 31
0.0
  0
LINE
  5
270
330
1D
100
AcDbEntity
  8
0
100
AcDbLine
 10
160.98720703125
 20
41.7320007324219
 30
0.0
 11
160.3
 21
42.09999999999999
 31
0.0
  0
LINE
  5
271
330
1D
100
AcDbEntity
  8
0
100
AcDbLine
 10
160.3
 20
42.09999999999999
 30
0.0
 11
159.13759765625
 21
42.73599853515629
 31
0.0
  0
LINE
  5
272
330
1D
100
AcDbEntity
  8
0
100
AcDbLine
 10
159.13759765625
 20
42.73599853515629
 30
0.0
 11
157.000793457031
 21
44.0680023193359
 31
0.0
  0
LINE
  5
273
330
1D
100
AcDbEntity
  8
0
100
AcDbLine
 10
157.000793457031
 20
44.0680023193359
 30
0.0
 11
154.115197753906
 21
45.95199890136719
 31
0.0
  0
LINE
  5
274
330
1D
100
AcDbEntity
  8
0
100
AcDbLine
 10
154.115197753906
 20
45.95199890136719
 30
0.0
 11
150.706408691406
 21
48.2440002441406
 31
0.0
  0
LINE
  5
275
330
1D
100
AcDbEntity
  8
0
100
AcDbLine
 10
150.706408691406
 20
48.2440002441406
 30
0.0
 11
147.0
 21
50.8
 31
0.0
  0
LINE
  5
276
330
1D
100
AcDbEntity
  8
0
100
AcDbLine
 10
147.0
 20
50.8
 30
0.0
 11
143.372802734375
 21
53.347998046875
 31
0.0
  0
LINE
  5
277
330
1D
100
AcDbEntity
  8
0
100
AcDbLine
 10
143.372802734375
 20
53.347998046875
 30
0.0
 11
140.182397460938
 21
55.5119995117188
 31
0.0
  0
LINE
  5
278
330
1D
100
AcDbEntity
  8
0
100
AcDbLine
 10
140.182397460938
 20
55.5119995117188
 30
0.0
 11
137.625598144531
 21
57.1719970703125
 31
0.0
  0
LINE
  5
279
330
1D
100
AcDbEntity
  8
0
100
AcDbLine
 10
137.625598144531
 20
57.1719970703125
 30
0.0
 11
135.899206542969
 21
58.2080017089844
 31
0.0
  0
LINE
  5
27A
330
1D
100
AcDbEntity
  8
0
100
AcDbLine
 10
135.899206542969
 20
58.2080017089844
 30
0.0
 11
135.2
 21
58.5
 31
0.0
  0
LINE
  5
27B
330
1D
100
AcDbEntity
  8
0
100
AcDbLine
 10
135.2
 20
58.5
 30
0.0
 11
135.239196777344
 21
57.9056030273438
 31
0.0
  0
LINE
  5
27C
330
1D
100
AcDbEntity
  8
0
100
AcDbLine
 10
135.239196777344
 20
57.9056030273438
 30
0.0
 11
135.897595214844
 21
57.0088012695313
 31
0.0
  0
LINE
  5
27D
330
1D
100
AcDbEntity
  8
0
100
AcDbLine
 10
135.897595214844
 20
57.0088012695313
 30
0.0
 11
136.906408691406
 21
56.0591979980469
 31
0.0
  0
LINE
  5
27E
330
1D
100
AcDbEntity
  8
0
100
AcDbLine
 10
136.906408691406
 20
56.0591979980469
 30
0.0
 11
137.996801757813
 21
55.3064025878906
 31
0.0
  0
LINE
  5
27F
330
1D
100
AcDbEntity
  8
0
100
AcDbLine
 10
137.996801757813
 20
55.3064025878906
 30
0.0
 11
138.9
 21
55.0
 31
0.0
  0
LINE
  5
280
330
1D
100
AcDbEntity
  8
0
100
AcDbLine
 10
138.9
 20
55.0
 30
0.0
 11
139.244799804688
 21
54.9536010742188
 31
0.0
  0
LINE
  5
281
330
1D
100
AcDbEntity
  8
0
100
AcDbLine
 10
139.244799804688
 20
54.9536010742188
 30
0.0
 11
139.546398925781
 21
54.82080078125
 31
0.0
  0
LINE
  5
282
330
1D
100
AcDbEntity
  8
0
100
AcDbLine
 10
139.546398925781
 20
54.82080078125
 30
0.0
 11
139.785595703125
 21
54.6111999511719
 31
0.0
  0
LINE
  5
283
330
1D
100
AcDbEntity
  8
0
100
AcDbLine
 10
139.785595703125
 20
54.6111999511719
 30
0.0
 11
139.943200683594
 21
54.3344055175781
 31
0.0
  0
LINE
  5
284
330
1D
100
AcDbEntity
  8
0
100
AcDbLine
 10
139.943200683594
 20
54.3344055175781
 30
0.0
 11
140.0
 21
54.0
 31
0.0
  0
LINE
  5
285
330
1D
100
AcDbEntity
  8
0
100
AcDbLine
 10
140.0
 20
54.0
 30
0.0
 11
140.079187011719
 21
53.7039978027344
 31
0.0
  0
LINE
  5
286
330
1D
100
AcDbEntity
  8
0
100
AcDbLine
 10
140.079187011719
 20
53.7039978027344
 30
0.0
 11
140.297607421875
 21
53.4320007324219
 31
0.0
  0
LINE
  5
287
330
1D
100
AcDbEntity
  8
0
100
AcDbLine
 10
140.297607421875
 20
53.4320007324219
 30
0.0
 11
140.626403808594
 21
53.2079956054688
 31
0.0
  0
LINE
  5
288
330
1D
100
AcDbEntity
  8
0
100
AcDbLine
 10
140.626403808594
 20
53.2079956054688
 30
0.0
 11
141.036804199219
 21
53.0559997558594
 31
0.0
  0
LINE
  5
289
330
1D
100
AcDbEntity
  8
0
100
AcDbLine
 10
141.036804199219
 20
53.0559997558594
 30
0.0
 11
141.5
 21
53.0
 31
0.0
  0
LINE
  5
28A
330
1D
100
AcDbEntity
  8
0
100
AcDbLine
 10
141.5
 20
53.0
 30
0.0
 11
141.963195800781
 21
52.9648010253906
 31
0.0
  0
LINE
  5
28B
330
1D
100
AcDbEntity
  8
0
100
AcDbLine
 10
141.963195800781
 20
52.9648010253906
 30
0.0
 11
142.373596191406
 21
52.86240234375
 31
0.0
  0
LINE
  5
28C
330
1D
100
AcDbEntity
  8
0
100
AcDbLine
 10
142.373596191406
 20
52.86240234375
 30
0.0
 11
142.702404785156
 21
52.69760131835941
 31
0.0
  0
LINE
  5
28D
330
1D
100
AcDbEntity
  8
0
100
AcDbLine
 10
142.702404785156
 20
52.69760131835941
 30
0.0
 11
142.92080078125
 21
52.4752014160156
 31
0.0
  0
LINE
  5
28E
330
1D
100
AcDbEntity
  8
0
100
AcDbLine
 10
142.92080078125
 20
52.4752014160156
 30
0.0
 11
143.0
 21
52.2
 31
0.0
  0
LINE
  5
28F
330
1D
100
AcDbEntity
  8
0
100
AcDbLine
 10
143.0
 20
52.2
 30
0.0
 11
143.204809570313
 21
51.84799194335941
 31
0.0
  0
LINE
  5
290
330
1D
100
AcDbEntity
  8
0
100
AcDbLine
 10
143.204809570313
 20
51.84799194335941
 30
0.0
 11
143.774401855469
 21
51.30400390625
 31
0.0
  0
LINE
  5
291
330
1D
100
AcDbEntity
  8
0
100
AcDbLine
 10
143.774401855469
 20
51.30400390625
 30
0.0
 11
144.6416015625
 21
50.61599731445309
 31
0.0
  0
LINE
  5
292
330
1D
100
AcDbEntity
  8
0
100
AcDbLine
 10
144.6416015625
 20
50.61599731445309
 30
0.0
 11
145.739208984375
 21
49.83200073242191
 31
0.0
  0
LINE
  5
293
330
1D
100
AcDbEntity
  8
0
100
AcDbLine
 10
145.739208984375
 20
49.83200073242191
 30
0.0
 11
147.0
 21
49.0
 31
0.0
  0
LINE
  5
294
330
1D
100
AcDbEntity
  8
0
100
AcDbLine
 10
147.0
 20
49.0
 30
0.0
 11
148.260791015625
 21
48.16799926757809
 31
0.0
  0
LINE
  5
295
330
1D
100
AcDbEntity
  8
0
100
AcDbLine
 10
148.260791015625
 20
48.16799926757809
 30
0.0
 11
149.358410644531
 21
47.3840026855469
 31
0.0
  0
LINE
  5
296
330
1D
100
AcDbEntity
  8
0
100
AcDbLine
 10
149.358410644531
 20
47.3840026855469
 30
0.0
 11
150.225598144531
 21
46.69599914550779
 31
0.0
  0
LINE
  5
297
330
1D
100
AcDbEntity
  8
0
100
AcDbLine
 10
150.225598144531
 20
46.69599914550779
 30
0.0
 11
150.795202636719
 21
46.152001953125
 31
0.0
  0
LINE
  5
298
330
1D
100
AcDbEntity
  8
0
100
AcDbLine
 10
150.795202636719
 20
46.152001953125
 30
0.0
 11
151.0
 21
45.8
 31
0.0
  0
LINE
  5
299
330
1D
100
AcDbEntity
  8
0
100
AcDbLine
 10
151.0
 20
45.8
 30
0.0
 11
151.056787109375
 21
45.5248016357422
 31
0.0
  0
LINE
  5
29A
330
1D
100
AcDbEntity
  8
0
100
AcDbLine
 10
151.056787109375
 20
45.5248016357422
 30
0.0
 11
151.214404296875
 21
45.30239868164059
 31
0.0
  0
LINE
  5
29B
330
1D
100
AcDbEntity
  8
0
100
AcDbLine
 10
151.214404296875
 20
45.30239868164059
 30
0.0
 11
151.453601074219
 21
45.1376007080078
 31
0.0
  0
LINE
  5
29C
330
1D
100
AcDbEntity
  8
0
100
AcDbLine
 10
151.453601074219
 20
45.1376007080078
 30
0.0
 11
151.755200195313
 21
45.0352020263672
 31
0.0
  0
LINE
  5
29D
330
1D
100
AcDbEntity
  8
0
100
AcDbLine
 10
151.755200195313
 20
45.0352020263672
 30
0.0
 11
152.1
 21
45.0
 31
0.0
  0
LINE
  5
29E
330
1D
100
AcDbEntity
  8
0
100
AcDbLine
 10
152.1
 20
45.0
 30
0.0
 11
152.578393554688
 21
44.8751983642578
 31
0.0
  0
LINE
  5
29F
330
1D
100
AcDbEntity
  8
0
100
AcDbLine
 10
152.578393554688
 20
44.8751983642578
 30
0.0
 11
153.359204101563
 21
44.5296020507813
 31
0.0
  0
LINE
  5
2A0
330
1D
100
AcDbEntity
  8
0
100
AcDbLine
 10
153.359204101563
 20
44.5296020507813
 30
0.0
 11
154.360803222656
 21
44.00640258789059
 31
0.0
  0
LINE
  5
2A1
330
1D
100
AcDbEntity
  8
0
100
AcDbLine
 10
154.360803222656
 20
44.00640258789059
 30
0.0
 11
155.501599121094
 21
43.3488006591797
 31
0.0
  0
LINE
  5
2A2
330
1D
100
AcDbEntity
  8
0
100
AcDbLine
 10
155.501599121094
 20
43.3488006591797
 30
0.0
 11
156.7
 21
42.6
 31
0.0
  0
LINE
  5
2A3
330
1D
100
AcDbEntity
  8
0
100
AcDbLine
 10
156.7
 20
42.6
 30
0.0
 11
160.2
 21
40.2
 31
0.0
  0
LINE
  5
2A4
330
1D
100
AcDbEntity
  8
0
100
AcDbLine
 10
160.2
 20
40.2
 30
0.0
 11
157.9
 21
38.9
 31
0.0
  0
LINE
  5
2A5
330
1D
100
AcDbEntity
  8
0
100
AcDbLine
 10
157.9
 20
38.9
 30
0.0
 11
157.03359375
 21
38.5055999755859
 31
0.0
  0
LINE
  5
2A6
330
1D
100
AcDbEntity
  8
0
100
AcDbLine
 10
157.03359375
 20
38.5055999755859
 30
0.0
 11
156.344812011719
 21
38.2888000488281
 31
0.0
  0
LINE
  5
2A7
330
1D
100
AcDbEntity
  8
0
100
AcDbLine
 10
156.344812011719
 20
38.2888000488281
 30
0.0
 11
155.819201660156
 21
38.2592010498047
 31
0.0
  0
LINE
  5
2A8
330
1D
100
AcDbEntity
  8
0
100
AcDbLine
 10
155.819201660156
 20
38.2592010498047
 30
0.0
 11
155.442407226563
 21
38.4264007568359
 31
0.0
  0
LINE
  5
2A9
330
1D
100
AcDbEntity
  8
0
100
AcDbLine
 10
155.442407226563
 20
38.4264007568359
 30
0.0
 11
155.2
 21
38.8
 31
0.0
  0
LINE
  5
2AA
330
1D
100
AcDbEntity
  8
0
100
AcDbLine
 10
155.2
 20
38.8
 30
0.0
 11
155.01279296875
 21
39.1111999511719
 31
0.0
  0
LINE
  5
2AB
330
1D
100
AcDbEntity
  8
0
100
AcDbLine
 10
155.01279296875
 20
39.1111999511719
 30
0.0
 11
154.710412597656
 21
39.32160339355471
 31
0.0
  0
LINE
  5
2AC
330
1D
100
AcDbEntity
  8
0
100
AcDbLine
 10
154.710412597656
 20
39.32160339355471
 30
0.0
 11
154.321594238281
 21
39.4263977050781
 31
0.0
  0
LINE
  5
2AD
330
1D
100
AcDbEntity
  8
0
100
AcDbLine
 10
154.321594238281
 20
39.4263977050781
 30
0.0
 11
153.875207519531
 21
39.42080078125
 31
0.0
  0
LINE
  5
2AE
330
1D
100
AcDbEntity
  8
0
100
AcDbLine
 10
153.875207519531
 20
39.42080078125
 30
0.0
 11
153.4
 21
39.3
 31
0.0
  0
LINE
  5
2AF
330
1D
100
AcDbEntity
  8
0
100
AcDbLine
 10
153.4
 20
39.3
 30
0.0
 11
152.947204589844
 21
39.2031982421875
 31
0.0
  0
LINE
  5
2B0
330
1D
100
AcDbEntity
  8
0
100
AcDbLine
 10
152.947204589844
 20
39.2031982421875
 30
0.0
 11
152.561608886719
 21
39.2695983886719
 31
0.0
  0
LINE
  5
2B1
330
1D
100
AcDbEntity
  8
0
100
AcDbLine
 10
152.561608886719
 20
39.2695983886719
 30
0.0
 11
152.26240234375
 21
39.4944000244141
 31
0.0
  0
LINE
  5
2B2
330
1D
100
AcDbEntity
  8
0
100
AcDbLine
 10
152.26240234375
 20
39.4944000244141
 30
0.0
 11
152.068798828125
 21
39.8727996826172
 31
0.0
  0
LINE
  5
2B3
330
1D
100
AcDbEntity
  8
0
100
AcDbLine
 10
152.068798828125
 20
39.8727996826172
 30
0.0
 11
152.0
 21
40.4
 31
0.0
  0
LINE
  5
2B4
330
1D
100
AcDbEntity
  8
0
100
AcDbLine
 10
152.0
 20
40.4
 30
0.0
 11
151.930395507813
 21
40.91680297851559
 31
0.0
  0
LINE
  5
2B5
330
1D
100
AcDbEntity
  8
0
100
AcDbLine
 10
151.930395507813
 20
40.91680297851559
 30
0.0
 11
151.731201171875
 21
41.27040100097659
 31
0.0
  0
LINE
  5
2B6
330
1D
100
AcDbEntity
  8
0
100
AcDbLine
 10
151.731201171875
 20
41.27040100097659
 30
0.0
 11
151.416809082031
 21
41.4656005859375
 31
0.0
  0
LINE
  5
2B7
330
1D
100
AcDbEntity
  8
0
100
AcDbLine
 10
151.416809082031
 20
41.4656005859375
 30
0.0
 11
151.001599121094
 21
41.5072021484375
 31
0.0
  0
LINE
  5
2B8
330
1D
100
AcDbEntity
  8
0
100
AcDbLine
 10
151.001599121094
 20
41.5072021484375
 30
0.0
 11
150.5
 21
41.39999999999999
 31
0.0
  0
LINE
  5
2B9
330
1D
100
AcDbEntity
  8
0
100
AcDbLine
 10
150.5
 20
41.39999999999999
 30
0.0
 11
150.036804199219
 21
41.24079895019529
 31
0.0
  0
LINE
  5
2BA
330
1D
100
AcDbEntity
  8
0
100
AcDbLine
 10
150.036804199219
 20
41.24079895019529
 30
0.0
 11
149.626403808594
 21
41.23040161132809
 31
0.0
  0
LINE
  5
2BB
330
1D
100
AcDbEntity
  8
0
100
AcDbLine
 10
149.626403808594
 20
41.23040161132809
 30
0.0
 11
149.297607421875
 21
41.34960021972659
 31
0.0
  0
LINE
  5
2BC
330
1D
100
AcDbEntity
  8
0
100
AcDbLine
 10
149.297607421875
 20
41.34960021972659
 30
0.0
 11
149.07919921875
 21
41.57919921875
 31
0.0
  0
LINE
  5
2BD
330
1D
100
AcDbEntity
  8
0
100
AcDbLine
 10
149.07919921875
 20
41.57919921875
 30
0.0
 11
149.0
 21
41.9
 31
0.0
  0
LINE
  5
2BE
330
1D
100
AcDbEntity
  8
0
100
AcDbLine
 10
149.0
 20
41.9
 30
0.0
 11
148.953588867188
 21
42.2447998046875
 31
0.0
  0
LINE
  5
2BF
330
1D
100
AcDbEntity
  8
0
100
AcDbLine
 10
148.953588867188
 20
42.2447998046875
 30
0.0
 11
148.82080078125
 21
42.54639892578129
 31
0.0
  0
LINE
  5
2C0
330
1D
100
AcDbEntity
  8
0
100
AcDbLine
 10
148.82080078125
 20
42.54639892578129
 30
0.0
 11
148.611206054688
 21
42.78559875488279
 31
0.0
  0
LINE
  5
2C1
330
1D
100
AcDbEntity
  8
0
100
AcDbLine
 10
148.611206054688
 20
42.78559875488279
 30
0.0
 11
148.334399414063
 21
42.9432006835938
 31
0.0
  0
LINE
  5
2C2
330
1D
100
AcDbEntity
  8
0
100
AcDbLine
 10
148.334399414063
 20
42.9432006835938
 30
0.0
 11
148.0
 21
43.0
 31
0.0
  0
LINE
  5
2C3
330
1D
100
AcDbEntity
  8
0
100
AcDbLine
 10
148.0
 20
43.0
 30
0.0
 11
146.908801269531
 21
43.3503997802734
 31
0.0
  0
LINE
  5
2C4
330
1D
100
AcDbEntity
  8
0
100
AcDbLine
 10
146.908801269531
 20
43.3503997802734
 30
0.0
 11
145.630407714844
 21
44.2192016601563
 31
0.0
  0
LINE
  5
2C5
330
1D
100
AcDbEntity
  8
0
100
AcDbLine
 10
145.630407714844
 20
44.2192016601563
 30
0.0
 11
144.457604980469
 21
45.33279724121089
 31
0.0
  0
LINE
  5
2C6
330
1D
100
AcDbEntity
  8
0
100
AcDbLine
 10
144.457604980469
 20
45.33279724121089
 30
0.0
 11
143.683203125
 21
46.41759948730469
 31
0.0
  0
LINE
  5
2C7
330
1D
100
AcDbEntity
  8
0
100
AcDbLine
 10
143.683203125
 20
46.41759948730469
 30
0.0
 11
143.6
 21
47.2
 31
0.0
  0
LINE
  5
2C8
330
1D
100
AcDbEntity
  8
0
100
AcDbLine
 10
143.6
 20
47.2
 30
0.0
 11
143.699194335938
 21
47.4039978027344
 31
0.0
  0
LINE
  5
2C9
330
1D
100
AcDbEntity
  8
0
100
AcDbLine
 10
143.699194335938
 20
47.4039978027344
 30
0.0
 11
143.649597167969
 21
47.53600158691409
 31
0.0
  0
LINE
  5
2CA
330
1D
100
AcDbEntity
  8
0
100
AcDbLine
 10
143.649597167969
 20
47.53600158691409
 30
0.0
 11
143.470397949219
 21
47.59599914550779
 31
0.0
  0
LINE
  5
2CB
330
1D
100
AcDbEntity
  8
0
100
AcDbLine
 10
143.470397949219
 20
47.59599914550779
 30
0.0
 11
143.180798339844
 21
47.58399963378909
 31
0.0
  0
LINE
  5
2CC
330
1D
100
AcDbEntity
  8
0
100
AcDbLine
 10
143.180798339844
 20
47.58399963378909
 30
0.0
 11
142.8
 21
47.5
 31
0.0
  0
LINE
  5
2CD
330
1D
100
AcDbEntity
  8
0
100
AcDbLine
 10
142.8
 20
47.5
 30
0.0
 11
142.23359375
 21
47.4352020263672
 31
0.0
  0
LINE
  5
2CE
330
1D
100
AcDbEntity
  8
0
100
AcDbLine
 10
142.23359375
 20
47.4352020263672
 30
0.0
 11
141.532800292969
 21
47.58160095214839
 31
0.0
  0
LINE
  5
2CF
330
1D
100
AcDbEntity
  8
0
100
AcDbLine
 10
141.532800292969
 20
47.58160095214839
 30
0.0
 11
140.755200195313
 21
47.91039733886719
 31
0.0
  0
LINE
  5
2D0
330
1D
100
AcDbEntity
  8
0
100
AcDbLine
 10
140.755200195313
 20
47.91039733886719
 30
0.0
 11
139.9583984375
 21
48.3928009033203
 31
0.0
  0
LINE
  5
2D1
330
1D
100
AcDbEntity
  8
0
100
AcDbLine
 10
139.9583984375
 20
48.3928009033203
 30
0.0
 11
139.2
 21
49.0
 31
0.0
  0
LINE
  5
2D2
330
1D
100
AcDbEntity
  8
0
100
AcDbLine
 10
139.2
 20
49.0
 30
0.0
 11
138.510400390625
 21
49.6063995361328
 31
0.0
  0
LINE
  5
2D3
330
1D
100
AcDbEntity
  8
0
100
AcDbLine
 10
138.510400390625
 20
49.6063995361328
 30
0.0
 11
137.907214355469
 21
50.083203125
 31
0.0
  0
LINE
  5
2D4
330
1D
100
AcDbEntity
  8
0
100
AcDbLine
 10
137.907214355469
 20
50.083203125
 30
0.0
 11
137.428796386719
 21
50.39680175781249
 31
0.0
  0
LINE
  5
2D5
330
1D
100
AcDbEntity
  8
0
100
AcDbLine
 10
137.428796386719
 20
50.39680175781249
 30
0.0
 11
137.113598632813
 21
50.5136016845703
 31
0.0
  0
LINE
  5
2D6
330
1D
100
AcDbEntity
  8
0
100
AcDbLine
 10
137.113598632813
 20
50.5136016845703
 30
0.0
 11
137.0
 21
50.4
 31
0.0
  0
LINE
  5
2D7
330
1D
100
AcDbEntity
  8
0
100
AcDbLine
 10
137.0
 20
50.4
 30
0.0
 11
136.896789550781
 21
50.2775970458984
 31
0.0
  0
LINE
  5
2D8
330
1D
100
AcDbEntity
  8
0
100
AcDbLine
 10
136.896789550781
 20
50.2775970458984
 30
0.0
 11
136.606408691406
 21
50.3808013916016
 31
0.0
  0
LINE
  5
2D9
330
1D
100
AcDbEntity
  8
0
100
AcDbLine
 10
136.606408691406
 20
50.3808013916016
 30
0.0
 11
136.157604980469
 21
50.69519958496091
 31
0.0
  0
LINE
  5
2DA
330
1D
100
AcDbEntity
  8
0
100
AcDbLine
 10
136.157604980469
 20
50.69519958496091
 30
0.0
 11
135.57919921875
 21
51.2064025878906
 31
0.0
  0
LINE
  5
2DB
330
1D
100
AcDbEntity
  8
0
100
AcDbLine
 10
135.57919921875
 20
51.2064025878906
 30
0.0
 11
134.9
 21
51.9
 31
0.0
  0
LINE
  5
2DC
330
1D
100
AcDbEntity
  8
0
100
AcDbLine
 10
134.9
 20
51.9
 30
0.0
 11
134.092797851563
 21
52.8703979492188
 31
0.0
  0
LINE
  5
2DD
330
1D
100
AcDbEntity
  8
0
100
AcDbLine
 10
134.092797851563
 20
52.8703979492188
 30
0.0
 11
133.578405761719
 21
53.783203125
 31
0.0
  0
LINE
  5
2DE
330
1D
100
AcDbEntity
  8
0
100
AcDbLine
 10
133.578405761719
 20
53.783203125
 30
0.0
 11
133.33759765625
 21
54.70079956054689
 31
0.0
  0
LINE
  5
2DF
330
1D
100
AcDbEntity
  8
0
100
AcDbLine
 10
133.33759765625
 20
54.70079956054689
 30
0.0
 11
133.351196289063
 21
55.6856018066406
 31
0.0
  0
LINE
  5
2E0
330
1D
100
AcDbEntity
  8
0
100
AcDbLine
 10
133.351196289063
 20
55.6856018066406
 30
0.0
 11
133.6
 21
56.79999999999999
 31
0.0
  0
LINE
  5
2E1
330
1D
100
AcDbEntity
  8
0
100
AcDbLine
 10
133.6
 20
56.79999999999999
 30
0.0
 11
133.825598144531
 21
57.6911987304688
 31
0.0
  0
LINE
  5
2E2
330
1D
100
AcDbEntity
  8
0
100
AcDbLine
 10
133.825598144531
 20
57.6911987304688
 30
0.0
 11
134.012805175781
 21
58.52960205078129
 31
0.0
  0
LINE
  5
2E3
330
1D
100
AcDbEntity
  8
0
100
AcDbLine
 10
134.012805175781
 20
58.52960205078129
 30
0.0
 11
134.147204589844
 21
59.2623962402344
 31
0.0
  0
LINE
  5
2E4
330
1D
100
AcDbEntity
  8
0
100
AcDbLine
 10
134.147204589844
 20
59.2623962402344
 30
0.0
 11
134.214404296875
 21
59.8368041992188
 31
0.0
  0
LINE
  5
2E5
330
1D
100
AcDbEntity
  8
0
100
AcDbLine
 10
134.214404296875
 20
59.8368041992188
 30
0.0
 11
134.2
 21
60.2
 31
0.0
  0
LINE
  5
2E6
330
1D
100
AcDbEntity
  8
0
100
AcDbLine
 10
134.2
 20
60.2
 30
0.0
 11
134.329602050781
 21
60.8255981445313
 31
0.0
  0
LINE
  5
2E7
330
1D
100
AcDbEntity
  8
0
100
AcDbLine
 10
134.329602050781
 20
60.8255981445313
 30
0.0
 11
135.428796386719
 21
60.5248046875
 31
0.0
  0
LINE
  5
2E8
330
1D
100
AcDbEntity
  8
0
100
AcDbLine
 10
135.428796386719
 20
60.5248046875
 30
0.0
 11
137.843200683594
 21
59.09119873046879
 31
0.0
  0
LINE
  5
2E9
330
1D
100
AcDbEntity
  8
0
100
AcDbLine
 10
137.843200683594
 20
59.09119873046879
 30
0.0
 11
141.918408203125
 21
56.3184020996094
 31
0.0
  0
LINE
  5
2EA
330
1D
100
AcDbEntity
  8
0
100
AcDbLine
 10
141.918408203125
 20
56.3184020996094
 30
0.0
 11
148.0
 21
52.0
 31
0.0
  0
LINE
  5
2EB
330
1D
100
AcDbEntity
  8
0
100
AcDbLine
 10
148.0
 20
52.0
 30
0.0
 11
152.096789550781
 21
49.1096008300781
 31
0.0
  0
LINE
  5
2EC
330
1D
100
AcDbEntity
  8
0
100
AcDbLine
 10
152.096789550781
 20
49.1096008300781
 30
0.0
 11
155.934399414063
 21
46.5407989501953
 31
0.0
  0
LINE
  5
2ED
330
1D
100
AcDbEntity
  8
0
100
AcDbLine
 10
155.934399414063
 20
46.5407989501953
 30
0.0
 11
159.253601074219
 21
44.4472015380859
 31
0.0
  0
LINE
  5
2EE
330
1D
100
AcDbEntity
  8
0
100
AcDbLine
 10
159.253601074219
 20
44.4472015380859
 30
0.0
 11
161.795202636719
 21
42.98240051269529
 31
0.0
  0
LINE
  5
2EF
330
1D
100
AcDbEntity
  8
0
100
AcDbLine
 10
161.795202636719
 20
42.98240051269529
 30
0.0
 11
163.3
 21
42.29999999999999
 31
0.0
  0
LINE
  5
2F0
330
1D
100
AcDbEntity
  8
0
100
AcDbLine
 10
163.3
 20
42.29999999999999
 30
0.0
 11
164.996801757813
 21
41.76399841308589
 31
0.0
  0
LINE
  5
2F1
330
1D
100
AcDbEntity
  8
0
100
AcDbLine
 10
164.996801757813
 20
41.76399841308589
 30
0.0
 11
166.146411132813
 21
40.9640014648438
 31
0.0
  0
LINE
  5
2F2
330
1D
100
AcDbEntity
  8
0
100
AcDbLine
 10
166.146411132813
 20
40.9640014648438
 30
0.0
 11
166.777600097656
 21
39.85199890136721
 31
0.0
  0
LINE
  5
2F3
330
1D
100
AcDbEntity
  8
0
100
AcDbLine
 10
166.777600097656
 20
39.85199890136721
 30
0.0
 11
166.919201660156
 21
38.3800018310547
 31
0.0
  0
LINE
  5
2F4
330
1D
100
AcDbEntity
  8
0
100
AcDbLine
 10
166.919201660156
 20
38.3800018310547
 30
0.0
 11
166.6
 21
36.5
 31
0.0
  0
LINE
  5
2F5
330
1D
100
AcDbEntity
  8
0
100
AcDbLine
 10
166.6
 20
36.5
 30
0.0
 11
165.972790527344
 21
35.1631988525391
 31
0.0
  0
LINE
  5
2F6
330
1D
100
AcDbEntity
  8
0
100
AcDbLine
 10
165.972790527344
 20
35.1631988525391
 30
0.0
 11
165.014404296875
 21
34.3015991210938
 31
0.0
  0
LINE
  5
2F7
330
1D
100
AcDbEntity
  8
0
100
AcDbLine
 10
165.014404296875
 20
34.3015991210938
 30
0.0
 11
163.849597167969
 21
33.9583984375
 31
0.0
  0
LINE
  5
2F8
330
1D
100
AcDbEntity
  8
0
100
AcDbLine
 10
163.849597167969
 20
33.9583984375
 30
0.0
 11
162.603198242188
 21
34.1768005371094
 31
0.0
  0
LINE
  5
2F9
330
1D
100
AcDbEntity
  8
0
100
AcDbLine
 10
162.603198242188
 20
34.1768005371094
 30
0.0
 11
161.4
 21
35.0
 31
0.0
  0
LINE
  5
2FA
330
1D
100
AcDbEntity
  8
0
100
AcDbLine
 10
161.4
 20
35.0
 30
0.0
 11
160.911193847656
 21
35.2039978027344
 31
0.0
  0
LINE
  5
2FB
330
1D
100
AcDbEntity
  8
0
100
AcDbLine
 10
160.911193847656
 20
35.2039978027344
 30
0.0
 11
160.177600097656
 21
35.0959991455078
 31
0.0
  0
LINE
  5
2FC
330
1D
100
AcDbEntity
  8
0
100
AcDbLine
 10
160.177600097656
 20
35.0959991455078
 30
0.0
 11
159.218408203125
 21
34.6759979248047
 31
0.0
  0
LINE
  5
2FD
330
1D
100
AcDbEntity
  8
0
100
AcDbLine
 10
159.218408203125
 20
34.6759979248047
 30
0.0
 11
158.052807617188
 21
33.9440002441406
 31
0.0
  0
LINE
  5
2FE
330
1D
100
AcDbEntity
  8
0
100
AcDbLine
 10
158.052807617188
 20
33.9440002441406
 30
0.0
 11
156.7
 21
32.9
 31
0.0
  0
LINE
  5
2FF
330
1D
100
AcDbEntity
  8
0
100
AcDbLine
 10
156.7
 20
32.9
 30
0.0
 11
153.747998046875
 21
30.9223999023438
 31
0.0
  0
LINE
  5
300
330
1D
100
AcDbEntity
  8
0
100
AcDbLine
 10
153.747998046875
 20
30.9223999023438
 30
0.0
 11
150.652001953125
 21
29.67919921875
 31
0.0
  0
LINE
  5
301
330
1D
100
AcDbEntity
  8
0
100
AcDbLine
 10
150.652001953125
 20
29.67919921875
 30
0.0
 11
147.411999511719
 21
29.1847991943359
 31
0.0
  0
LINE
  5
302
330
1D
100
AcDbEntity
  8
0
100
AcDbLine
 10
147.411999511719
 20
29.1847991943359
 30
0.0
 11
144.028002929688
 21
29.4536010742188
 31
0.0
  0
LINE
  5
303
330
1D
100
AcDbEntity
  8
0
100
AcDbLine
 10
144.028002929688
 20
29.4536010742188
 30
0.0
 11
140.5
 21
30.5
 31
0.0
  0
LINE
  5
304
330
1D
100
AcDbEntity
  8
0
100
AcDbLine
 10
140.5
 20
30.5
 30
0.0
 11
135.762390136719
 21
33.3351989746094
 31
0.0
  0
LINE
  5
305
330
1D
100
AcDbEntity
  8
0
100
AcDbLine
 10
135.762390136719
 20
33.3351989746094
 30
0.0
 11
131.831201171875
 21
37.6296020507813
 31
0.0
  0
LINE
  5
306
330
1D
100
AcDbEntity
  8
0
100
AcDbLine
 10
131.831201171875
 20
37.6296020507813
 30
0.0
 11
129.008801269531
 21
42.8264007568359
 31
0.0
  0
LINE
  5
307
330
1D
100
AcDbEntity
  8
0
100
AcDbLine
 10
129.008801269531
 20
42.8264007568359
 30
0.0
 11
127.597607421875
 21
48.3688018798828
 31
0.0
  0
LINE
  5
308
330
1D
100
AcDbEntity
  8
0
100
AcDbLine
 10
127.597607421875
 20
48.3688018798828
 30
0.0
 11
127.9
 21
53.7
 31
0.0
  0
LINE
  5
309
330
1D
100
AcDbEntity
  8
0
100
AcDbLine
 10
127.9
 20
53.7
 30
0.0
 11
128.219995117188
 21
55.02719726562499
 31
0.0
  0
LINE
  5
30A
330
1D
100
AcDbEntity
  8
0
100
AcDbLine
 10
128.219995117188
 20
55.02719726562499
 30
0.0
 11
128.564001464844
 21
56.4216064453125
 31
0.0
  0
LINE
  5
30B
330
1D
100
AcDbEntity
  8
0
100
AcDbLine
 10
128.564001464844
 20
56.4216064453125
 30
0.0
 11
128.907995605469
 21
57.78240356445309
 31
0.0
  0
LINE
  5
30C
330
1D
100
AcDbEntity
  8
0
100
AcDbLine
 10
128.907995605469
 20
57.78240356445309
 30
0.0
 11
129.228002929688
 21
59.00880126953129
 31
0.0
  0
LINE
  5
30D
330
1D
100
AcDbEntity
  8
0
100
AcDbLine
 10
129.228002929688
 20
59.00880126953129
 30
0.0
 11
129.5
 21
60.0
 31
0.0
  0
LINE
  5
30E
330
1D
100
AcDbEntity
  8
0
100
AcDbLine
 10
129.5
 20
60.0
 30
0.0
 11
129.782397460938
 21
61.2023986816406
 31
0.0
  0
LINE
  5
30F
330
1D
100
AcDbEntity
  8
0
100
AcDbLine
 10
129.782397460938
 20
61.2023986816406
 30
0.0
 11
129.88720703125
 21
61.8192016601563
 31
0.0
  0
LINE
  5
310
330
1D
100
AcDbEntity
  8
0
100
AcDbLine
 10
129.88720703125
 20
61.8192016601563
 30
0.0
 11
129.780798339844
 21
61.8648010253906
 31
0.0
  0
LINE
  5
311
330
1D
100
AcDbEntity
  8
0
100
AcDbLine
 10
129.780798339844
 20
61.8648010253906
 30
0.0
 11
129.429602050781
 21
61.3536010742188
 31
0.0
  0
LINE
  5
312
330
1D
100
AcDbEntity
  8
0
100
AcDbLine
 10
129.429602050781
 20
61.3536010742188
 30
0.0
 11
128.8
 21
60.3
 31
0.0
  0
LINE
  5
313
330
1D
100
AcDbEntity
  8
0
100
AcDbLine
 10
128.8
 20
60.3
 30
0.0
 11
128.095983886719
 21
59.2223999023438
 31
0.0
  0
LINE
  5
314
330
1D
100
AcDbEntity
  8
0
100
AcDbLine
 10
128.095983886719
 20
59.2223999023438
 30
0.0
 11
127.272009277344
 21
58.8552001953125
 31
0.0
  0
LINE
  5
315
330
1D
100
AcDbEntity
  8
0
100
AcDbLine
 10
127.272009277344
 20
58.8552001953125
 30
0.0
 11
125.920007324219
 21
59.3567993164063
 31
0.0
  0
LINE
  5
316
330
1D
100
AcDbEntity
  8
0
100
AcDbLine
 10
125.920007324219
 20
59.3567993164063
 30
0.0
 11
123.632006835938
 21
60.8856018066406
 31
0.0
  0
LINE
  5
317
330
1D
100
AcDbEntity
  8
0
100
AcDbLine
 10
123.632006835938
 20
60.8856018066406
 30
0.0
 11
120.0
 21
63.6
 31
0.0
  0
LINE
  5
318
330
1D
100
AcDbEntity
  8
0
100
AcDbLine
 10
120.0
 20
63.6
 30
0.0
 11
117.588793945313
 21
65.41839599609381
 31
0.0
  0
LINE
  5
319
330
1D
100
AcDbEntity
  8
0
100
AcDbLine
 10
117.588793945313
 20
65.41839599609381
 30
0.0
 11
115.374401855469
 21
67.08320312499999
 31
0.0
  0
LINE
  5
31A
330
1D
100
AcDbEntity
  8
0
100
AcDbLine
 10
115.374401855469
 20
67.08320312499999
 30
0.0
 11
113.505603027344
 21
68.4888000488281
 31
0.0
  0
LINE
  5
31B
330
1D
100
AcDbEntity
  8
0
100
AcDbLine
 10
113.505603027344
 20
68.4888000488281
 30
0.0
 11
112.131201171875
 21
69.52960205078131
 31
0.0
  0
LINE
  5
31C
330
1D
100
AcDbEntity
  8
0
100
AcDbLine
 10
112.131201171875
 20
69.52960205078131
 30
0.0
 11
111.4
 21
70.09999999999999
 31
0.0
  0
LINE
  5
31D
330
1D
100
AcDbEntity
  8
0
100
AcDbLine
 10
111.4
 20
70.09999999999999
 30
0.0
 11
110.661596679688
 21
70.164794921875
 31
0.0
  0
LINE
  5
31E
330
1D
100
AcDbEntity
  8
0
100
AcDbLine
 10
110.661596679688
 20
70.164794921875
 30
0.0
 11
109.308801269531
 21
69.6583984375
 31
0.0
  0
LINE
  5
31F
330
1D
100
AcDbEntity
  8
0
100
AcDbLine
 10
109.308801269531
 20
69.6583984375
 30
0.0
 11
107.375207519531
 21
68.60960083007809
 31
0.0
  0
LINE
  5
320
330
1D
100
AcDbEntity
  8
0
100
AcDbLine
 10
107.375207519531
 20
68.60960083007809
 30
0.0
 11
104.894396972656
 21
67.0471984863281
 31
0.0
  0
LINE
  5
321
330
1D
100
AcDbEntity
  8
0
100
AcDbLine
 10
104.894396972656
 20
67.0471984863281
 30
0.0
 11
101.9
 21
65.0
 31
0.0
  0
LINE
  5
322
330
1D
100
AcDbEntity
  8
0
100
AcDbLine
 10
101.9
 20
65.0
 30
0.0
 11
99.2359985351563
 21
63.1535949707031
 31
0.0
  0
LINE
  5
323
330
1D
100
AcDbEntity
  8
0
100
AcDbLine
 10
99.2359985351563
 20
63.1535949707031
 30
0.0
 11
96.8600036621094
 21
61.6287963867188
 31
0.0
  0
LINE
  5
324
330
1D
100
AcDbEntity
  8
0
100
AcDbLine
 10
96.8600036621094
 20
61.6287963867188
 30
0.0
 11
94.9159973144531
 21
60.5072021484375
 31
0.0
  0
LINE
  5
325
330
1D
100
AcDbEntity
  8
0
100
AcDbLine
 10
94.9159973144531
 20
60.5072021484375
 30
0.0
 11
93.5480041503906
 21
59.8703979492188
 31
0.0
  0
LINE
  5
326
330
1D
100
AcDbEntity
  8
0
100
AcDbLine
 10
93.5480041503906
 20
59.8703979492188
 30
0.0
 11
92.9
 21
59.8
 31
0.0
  0
LINE
  5
327
330
1D
100
AcDbEntity
  8
0
100
AcDbLine
 10
92.9
 20
59.8
 30
0.0
 11
92.68800048828131
 21
60.1640014648438
 31
0.0
  0
LINE
  5
328
330
1D
100
AcDbEntity
  8
0
100
AcDbLine
 10
92.68800048828131
 20
60.1640014648438
 30
0.0
 11
92.4280029296875
 21
60.7440002441406
 31
0.0
  0
LINE
  5
329
330
1D
100
AcDbEntity
  8
0
100
AcDbLine
 10
92.4280029296875
 20
60.7440002441406
 30
0.0
 11
92.14400024414059
 21
61.4919982910156
 31
0.0
  0
LINE
  5
32A
330
1D
100
AcDbEntity
  8
0
100
AcDbLine
 10
92.14400024414059
 20
61.4919982910156
 30
0.0
 11
91.8600036621094
 21
62.3600036621094
 31
0.0
  0
LINE
  5
32B
330
1D
100
AcDbEntity
  8
0
100
AcDbLine
 10
91.8600036621094
 20
62.3600036621094
 30
0.0
 11
91.6
 21
63.3
 31
0.0
  0
LINE
  5
32C
330
1D
100
AcDbEntity
  8
0
100
AcDbLine
 10
91.6
 20
63.3
 30
0.0
 11
91.3920043945313
 21
64.5671997070313
 31
0.0
  0
LINE
  5
32D
330
1D
100
AcDbEntity
  8
0
100
AcDbLine
 10
91.3920043945313
 20
64.5671997070313
 30
0.0
 11
91.56800537109381
 21
65.6135986328125
 31
0.0
  0
LINE
  5
32E
330
1D
100
AcDbEntity
  8
0
100
AcDbLine
 10
91.56800537109381
 20
65.6135986328125
 30
0.0
 11
92.24800415039061
 21
66.6263977050781
 31
0.0
  0
LINE
  5
32F
330
1D
100
AcDbEntity
  8
0
100
AcDbLine
 10
92.24800415039061
 20
66.6263977050781
 30
0.0
 11
93.552001953125
 21
67.7928039550781
 31
0.0
  0
LINE
  5
330
330
1D
100
AcDbEntity
  8
0
100
AcDbLine
 10
93.552001953125
 20
67.7928039550781
 30
0.0
 11
95.6
 21
69.29999999999999
 31
0.0
  0
LINE
  5
331
330
1D
100
AcDbEntity
  8
0
100
AcDbLine
 10
95.6
 20
69.29999999999999
 30
0.0
 11
100.202392578125
 21
72.4559936523438
 31
0.0
  0
LINE
  5
332
330
1D
100
AcDbEntity
  8
0
100
AcDbLine
 10
100.202392578125
 20
72.4559936523438
 30
0.0
 11
102.563208007813
 21
74.48400268554689
 31
0.0
  0
LINE
  5
333
330
1D
100
AcDbEntity
  8
0
100
AcDbLine
 10
102.563208007813
 20
74.48400268554689
 30
0.0
 11
102.792797851563
 21
76.10399780273439
 31
0.0
  0
LINE
  5
334
330
1D
100
AcDbEntity
  8
0
100
AcDbLine
 10
102.792797851563
 20
76.10399780273439
 30
0.0
 11
101.001599121094
 21
78.0360046386719
 31
0.0
  0
LINE
  5
335
330
1D
100
AcDbEntity
  8
0
100
AcDbLine
 10
101.001599121094
 20
78.0360046386719
 30
0.0
 11
97.3
 21
81.0
 31
0.0
  0
LINE
  5
336
330
1D
100
AcDbEntity
  8
0
100
AcDbLine
 10
97.3
 20
81.0
 30
0.0
 11
89.9192016601563
 21
87.05679321289059
 31
0.0
  0
LINE
  5
337
330
1D
100
AcDbEntity
  8
0
100
AcDbLine
 10
89.9192016601563
 20
87.05679321289059
 30
0.0
 11
81.9815979003906
 21
93.8144104003906
 31
0.0
  0
LINE
  5
338
330
1D
100
AcDbEntity
  8
0
100
AcDbLine
 10
81.9815979003906
 20
93.8144104003906
 30
0.0
 11
73.9143981933594
 21
100.893603515625
 31
0.0
  0
LINE
  5
339
330
1D
100
AcDbEntity
  8
0
100
AcDbLine
 10
73.9143981933594
 20
100.893603515625
 30
0.0
 11
66.14479980468749
 21
107.915197753906
 31
0.0
  0
LINE
  5
33A
330
1D
100
AcDbEntity
  8
0
100
AcDbLine
 10
66.14479980468749
 20
107.915197753906
 30
0.0
 11
59.1
 21
114.5
 31
0.0
  0
LINE
  5
33B
330
1D
100
AcDbEntity
  8
0
100
AcDbLine
 10
59.1
 20
114.5
 30
0.0
 11
51.6760009765625
 21
121.927197265625
 31
0.0
  0
LINE
  5
33C
330
1D
100
AcDbEntity
  8
0
100
AcDbLine
 10
51.6760009765625
 20
121.927197265625
 30
0.0
 11
44.1559997558594
 21
129.973596191406
 31
0.0
  0
LINE
  5
33D
330
1D
100
AcDbEntity
  8
0
100
AcDbLine
 10
44.1559997558594
 20
129.973596191406
 30
0.0
 11
37.4279998779297
 21
137.626391601563
 31
0.0
  0
LINE
  5
33E
330
1D
100
AcDbEntity
  8
0
100
AcDbLine
 10
37.4279998779297
 20
137.626391601563
 30
0.0
 11
32.3800018310547
 21
143.872802734375
 31
0.0
  0
LINE
  5
33F
330
1D
100
AcDbEntity
  8
0
100
AcDbLine
 10
32.3800018310547
 20
143.872802734375
 30
0.0
 11
29.9
 21
147.7
 31
0.0
  0
LINE
  5
340
330
1D
100
AcDbEntity
  8
0
100
AcDbLine
 10
29.9
 20
147.7
 30
0.0
 11
29.4255981445313
 21
149.446398925781
 31
0.0
  0
LINE
  5
341
330
1D
100
AcDbEntity
  8
0
100
AcDbLine
 10
29.4255981445313
 20
149.446398925781
 30
0.0
 11
29.1048004150391
 21
151.615197753906
 31
0.0
  0
LINE
  5
342
330
1D
100
AcDbEntity
  8
0
100
AcDbLine
 10
29.1048004150391
 20
151.615197753906
 30
0.0
 11
28.9712005615234
 21
153.740808105469
 31
0.0
  0
LINE
  5
343
330
1D
100
AcDbEntity
  8
0
100
AcDbLine
 10
28.9712005615234
 20
153.740808105469
 30
0.0
 11
29.0584014892578
 21
155.357604980469
 31
0.0
  0
LINE
  5
344
330
1D
100
AcDbEntity
  8
0
100
AcDbLine
 10
29.0584014892578
 20
155.357604980469
 30
0.0
 11
29.4
 21
156.0
 31
0.0
  0
LINE
  5
345
330
1D
100
AcDbEntity
  8
0
100
AcDbLine
 10
29.4
 20
156.0
 30
0.0
 11
29.7199981689453
 21
155.681604003906
 31
0.0
  0
LINE
  5
346
330
1D
100
AcDbEntity
  8
0
100
AcDbLine
 10
29.7199981689453
 20
155.681604003906
 30
0.0
 11
30.4960021972656
 21
154.796801757813
 31
0.0
  0
LINE
  5
347
330
1D
100
AcDbEntity
  8
0
100
AcDbLine
 10
30.4960021972656
 20
154.796801757813
 30
0.0
 11
31.6320007324219
 21
153.451196289063
 31
0.0
  0
LINE
  5
348
330
1D
100
AcDbEntity
  8
0
100
AcDbLine
 10
31.6320007324219
 20
153.451196289063
 30
0.0
 11
33.0320007324219
 21
151.750402832031
 31
0.0
  0
LINE
  5
349
330
1D
100
AcDbEntity
  8
0
100
AcDbLine
 10
33.0320007324219
 20
151.750402832031
 30
0.0
 11
34.6
 21
149.8
 31
0.0
  0
LINE
  5
34A
330
1D
100
AcDbEntity
  8
0
100
AcDbLine
 10
158.0
 20
124.0
 30
0.0
 11
156.988793945313
 21
122.745581054688
 31
0.0
  0
LINE
  5
34B
330
1D
100
AcDbEntity
  8
0
100
AcDbLine
 10
156.988793945313
 20
122.745581054688
 30
0.0
 11
154.086413574219
 21
120.852807617188
 31
0.0
  0
LINE
  5
34C
330
1D
100
AcDbEntity
  8
0
100
AcDbLine
 10
154.086413574219
 20
120.852807617188
 30
0.0
 11
149.489599609375
 21
118.427197265625
 31
0.0
  0
LINE
  5
34D
330
1D
100
AcDbEntity
  8
0
100
AcDbLine
 10
149.489599609375
 20
118.427197265625
 30
0.0
 11
143.395202636719
 21
115.574401855469
 31
0.0
  0
LINE
  5
34E
330
1D
100
AcDbEntity
  8
0
100
AcDbLine
 10
143.395202636719
 20
115.574401855469
 30
0.0
 11
136.0
 21
112.4
 31
0.0
  0
LINE
  5
34F
330
1D
100
AcDbEntity
  8
0
100
AcDbLine
 10
136.0
 20
112.4
 30
0.0
 11
125.747998046875
 21
108.473596191406
 31
0.0
  0
LINE
  5
350
330
1D
100
AcDbEntity
  8
0
100
AcDbLine
 10
125.747998046875
 20
108.473596191406
 30
0.0
 11
117.488000488281
 21
105.852795410156
 31
0.0
  0
LINE
  5
351
330
1D
100
AcDbEntity
  8
0
100
AcDbLine
 10
117.488000488281
 20
105.852795410156
 30
0.0
 11
111.483996582031
 21
104.595202636719
 31
0.0
  0
LINE
  5
352
330
1D
100
AcDbEntity
  8
0
100
AcDbLine
 10
111.483996582031
 20
104.595202636719
 30
0.0
 11
108.0
 21
104.7583984375
 31
0.0
  0
LINE
  5
353
330
1D
100
AcDbEntity
  8
0
100
AcDbLine
 10
108.0
 20
104.7583984375
 30
0.0
 11
107.3
 21
106.4
 31
0.0
  0
LINE
  5
354
330
1D
100
AcDbEntity
  8
0
100
AcDbLine
 10
107.3
 20
106.4
 30
0.0
 11
108.48798828125
 21
107.119995117188
 31
0.0
  0
LINE
  5
355
330
1D
100
AcDbEntity
  8
0
100
AcDbLine
 10
108.48798828125
 20
107.119995117188
 30
0.0
 11
111.571997070313
 21
108.464001464844
 31
0.0
  0
LINE
  5
356
330
1D
100
AcDbEntity
  8
0
100
AcDbLine
 10
111.571997070313
 20
108.464001464844
 30
0.0
 11
116.192004394531
 21
110.288000488281
 31
0.0
  0
LINE
  5
357
330
1D
100
AcDbEntity
  8
0
100
AcDbLine
 10
116.192004394531
 20
110.288000488281
 30
0.0
 11
121.988000488281
 21
112.447998046875
 31
0.0
  0
LINE
  5
358
330
1D
100
AcDbEntity
  8
0
100
AcDbLine
 10
121.988000488281
 20
112.447998046875
 30
0.0
 11
128.6
 21
114.8
 31
0.0
  0
LINE
  5
359
330
1D
100
AcDbEntity
  8
0
100
AcDbLine
 10
128.6
 20
114.8
 30
0.0
 11
135.37119140625
 21
117.16318359375
 31
0.0
  0
LINE
  5
35A
330
1D
100
AcDbEntity
  8
0
100
AcDbLine
 10
135.37119140625
 20
117.16318359375
 30
0.0
 11
141.609606933594
 21
119.353601074219
 31
0.0
  0
LINE
  5
35B
330
1D
100
AcDbEntity
  8
0
100
AcDbLine
 10
141.609606933594
 20
119.353601074219
 30
0.0
 11
146.902392578125
 21
121.222399902344
 31
0.0
  0
LINE
  5
35C
330
1D
100
AcDbEntity
  8
0
100
AcDbLine
 10
146.902392578125
 20
121.222399902344
 30
0.0
 11
150.836804199219
 21
122.62080078125
 31
0.0
  0
LINE
  5
35D
330
1D
100
AcDbEntity
  8
0
100
AcDbLine
 10
150.836804199219
 20
122.62080078125
 30
0.0
 11
153.0
 21
123.4
 31
0.0
  0
LINE
  5
35E
330
1D
100
AcDbEntity
  8
0
100
AcDbLine
 10
153.0
 20
123.4
 30
0.0
 11
155.247998046875
 21
124.230407714844
 31
0.0
  0
LINE
  5
35F
330
1D
100
AcDbEntity
  8
0
100
AcDbLine
 10
155.247998046875
 20
124.230407714844
 30
0.0
 11
156.70400390625
 21
124.691198730469
 31
0.0
  0
LINE
  5
360
330
1D
100
AcDbEntity
  8
0
100
AcDbLine
 10
156.70400390625
 20
124.691198730469
 30
0.0
 11
157.535998535156
 21
124.796801757813
 31
0.0
  0
LINE
  5
361
330
1D
100
AcDbEntity
  8
0
100
AcDbLine
 10
157.535998535156
 20
124.796801757813
 30
0.0
 11
157.911999511719
 21
124.561596679688
 31
0.0
  0
LINE
  5
362
330
1D
100
AcDbEntity
  8
0
100
AcDbLine
 10
157.911999511719
 20
124.561596679688
 30
0.0
 11
158.0
 21
124.0
 31
0.0
  0
LINE
  5
363
330
1D
100
AcDbEntity
  8
0
100
AcDbLine
 10
92.4
 20
70.09999999999999
 30
0.0
 11
92.4983947753906
 21
69.7567993164063
 31
0.0
  0
LINE
  5
364
330
1D
100
AcDbEntity
  8
0
100
AcDbLine
 10
92.4983947753906
 20
69.7567993164063
 30
0.0
 11
92.4432006835938
 21
69.3464050292969
 31
0.0
  0
LINE
  5
365
330
1D
100
AcDbEntity
  8
0
100
AcDbLine
 10
92.4432006835938
 20
69.3464050292969
 30
0.0
 11
92.2487976074219
 21
68.89760131835941
 31
0.0
  0
LINE
  5
366
330
1D
100
AcDbEntity
  8
0
100
AcDbLine
 10
92.2487976074219
 20
68.89760131835941
 30
0.0
 11
91.92960205078129
 21
68.43920288085939
 31
0.0
  0
LINE
  5
367
330
1D
100
AcDbEntity
  8
0
100
AcDbLine
 10
91.92960205078129
 20
68.43920288085939
 30
0.0
 11
91.5
 21
68.0
 31
0.0
  0
LINE
  5
368
330
1D
100
AcDbEntity
  8
0
100
AcDbLine
 10
91.5
 20
68.0
 30
0.0
 11
90.97359619140631
 21
67.4407958984375
 31
0.0
  0
LINE
  5
369
330
1D
100
AcDbEntity
  8
0
100
AcDbLine
 10
90.97359619140631
 20
67.4407958984375
 30
0.0
 11
90.60079956054691
 21
66.74240112304691
 31
0.0
  0
LINE
  5
36A
330
1D
100
AcDbEntity
  8
0
100
AcDbLine
 10
90.60079956054691
 20
66.74240112304691
 30
0.0
 11
90.39120483398439
 21
65.9335998535156
 31
0.0
  0
LINE
  5
36B
330
1D
100
AcDbEntity
  8
0
100
AcDbLine
 10
90.39120483398439
 20
65.9335998535156
 30
0.0
 11
90.3544006347656
 21
65.0432006835938
 31
0.0
  0
LINE
  5
36C
330
1D
100
AcDbEntity
  8
0
100
AcDbLine
 10
90.3544006347656
 20
65.0432006835938
 30
0.0
 11
90.5
 21
64.1
 31
0.0
  0
LINE
  5
36D
330
1D
100
AcDbEntity
  8
0
100
AcDbLine
 10
90.5
 20
64.1
 30
0.0
 11
91.3951904296875
 21
59.4943969726563
 31
0.0
  0
LINE
  5
36E
330
1D
100
AcDbEntity
  8
0
100
AcDbLine
 10
91.3951904296875
 20
59.4943969726563
 30
0.0
 11
91.94960327148441
 21
56.07919921875
 31
0.0
  0
LINE
  5
36F
330
1D
100
AcDbEntity
  8
0
100
AcDbLine
 10
91.94960327148441
 20
56.07919921875
 30
0.0
 11
92.20640258789059
 21
53.4367980957031
 31
0.0
  0
LINE
  5
370
330
1D
100
AcDbEntity
  8
0
100
AcDbLine
 10
92.20640258789059
 20
53.4367980957031
 30
0.0
 11
92.20880126953131
 21
51.1496002197266
 31
0.0
  0
LINE
  5
371
330
1D
100
AcDbEntity
  8
0
100
AcDbLine
 10
92.20880126953131
 20
51.1496002197266
 30
0.0
 11
92.0
 21
48.79999999999999
 31
0.0
  0
LINE
  5
372
330
1D
100
AcDbEntity
  8
0
100
AcDbLine
 10
92.0
 20
48.79999999999999
 30
0.0
 11
90.61520385742189
 21
43.9887969970703
 31
0.0
  0
LINE
  5
373
330
1D
100
AcDbEntity
  8
0
100
AcDbLine
 10
90.61520385742189
 20
43.9887969970703
 30
0.0
 11
87.95360107421879
 21
39.4704010009766
 31
0.0
  0
LINE
  5
374
330
1D
100
AcDbEntity
  8
0
100
AcDbLine
 10
87.95360107421879
 20
39.4704010009766
 30
0.0
 11
84.27439575195309
 21
35.5376007080078
 31
0.0
  0
LINE
  5
375
330
1D
100
AcDbEntity
  8
0
100
AcDbLine
 10
84.27439575195309
 20
35.5376007080078
 30
0.0
 11
79.8368041992188
 21
32.4832000732422
 31
0.0
  0
LINE
  5
376
330
1D
100
AcDbEntity
  8
0
100
AcDbLine
 10
79.8368041992188
 20
32.4832000732422
 30
0.0
 11
74.90000000000001
 21
30.6
 31
0.0
  0
LINE
  5
377
330
1D
100
AcDbEntity
  8
0
100
AcDbLine
 10
74.90000000000001
 20
30.6
 30
0.0
 11
72.5815979003906
 21
30.4039978027344
 31
0.0
  0
LINE
  5
378
330
1D
100
AcDbEntity
  8
0
100
AcDbLine
 10
72.5815979003906
 20
30.4039978027344
 30
0.0
 11
70.10480346679689
 21
30.7600006103516
 31
0.0
  0
LINE
  5
379
330
1D
100
AcDbEntity
  8
0
100
AcDbLine
 10
70.10480346679689
 20
30.7600006103516
 30
0.0
 11
67.527197265625
 21
31.6440002441406
 31
0.0
  0
LINE
  5
37A
330
1D
100
AcDbEntity
  8
0
100
AcDbLine
 10
67.527197265625
 20
31.6440002441406
 30
0.0
 11
64.9064025878906
 21
33.0320007324219
 31
0.0
  0
LINE
  5
37B
330
1D
100
AcDbEntity
  8
0
100
AcDbLine
 10
64.9064025878906
 20
33.0320007324219
 30
0.0
 11
62.3
 21
34.9
 31
0.0
  0
LINE
  5
37C
330
1D
100
AcDbEntity
  8
0
100
AcDbLine
 10
62.3
 20
34.9
 30
0.0
 11
60.9087951660156
 21
35.9440002441406
 31
0.0
  0
LINE
  5
37D
330
1D
100
AcDbEntity
  8
0
100
AcDbLine
 10
60.9087951660156
 20
35.9440002441406
 30
0.0
 11
59.7384033203125
 21
36.6759979248047
 31
0.0
  0
LINE
  5
37E
330
1D
100
AcDbEntity
  8
0
100
AcDbLine
 10
59.7384033203125
 20
36.6759979248047
 30
0.0
 11
58.7935974121094
 21
37.0959991455078
 31
0.0
  0
LINE
  5
37F
330
1D
100
AcDbEntity
  8
0
100
AcDbLine
 10
58.7935974121094
 20
37.0959991455078
 30
0.0
 11
58.07919921875
 21
37.2040008544922
 31
0.0
  0
LINE
  5
380
330
1D
100
AcDbEntity
  8
0
100
AcDbLine
 10
58.07919921875
 20
37.2040008544922
 30
0.0
 11
57.6
 21
37.0
 31
0.0
  0
LINE
  5
381
330
1D
100
AcDbEntity
  8
0
100
AcDbLine
 10
57.6
 20
37.0
 30
0.0
 11
56.6615966796875
 21
36.3151977539063
 31
0.0
  0
LINE
  5
382
330
1D
100
AcDbEntity
  8
0
100
AcDbLine
 10
56.6615966796875
 20
36.3151977539063
 30
0.0
 11
55.6848022460938
 21
36.0575988769531
 31
0.0
  0
LINE
  5
383
330
1D
100
AcDbEntity
  8
0
100
AcDbLine
 10
55.6848022460938
 20
36.0575988769531
 30
0.0
 11
54.727197265625
 21
36.2223999023438
 31
0.0
  0
LINE
  5
384
330
1D
100
AcDbEntity
  8
0
100
AcDbLine
 10
54.727197265625
 20
36.2223999023438
 30
0.0
 11
53.8464050292969
 21
36.8048004150391
 31
0.0
  0
LINE
  5
385
330
1D
100
AcDbEntity
  8
0
100
AcDbLine
 10
53.8464050292969
 20
36.8048004150391
 30
0.0
 11
53.1
 21
37.8
 31
0.0
  0
LINE
  5
386
330
1D
100
AcDbEntity
  8
0
100
AcDbLine
 10
53.1
 20
37.8
 30
0.0
 11
52.5239990234375
 21
39.5583953857422
 31
0.0
  0
LINE
  5
387
330
1D
100
AcDbEntity
  8
0
100
AcDbLine
 10
52.5239990234375
 20
39.5583953857422
 30
0.0
 11
52.5480041503906
 21
41.2351989746094
 31
0.0
  0
LINE
  5
388
330
1D
100
AcDbEntity
  8
0
100
AcDbLine
 10
52.5480041503906
 20
41.2351989746094
 30
0.0
 11
53.1
 21
42.6528015136719
 31
0.0
  0
LINE
  5
389
330
1D
100
AcDbEntity
  8
0
100
AcDbLine
 10
53.1
 20
42.6528015136719
 30
0.0
 11
54.1080017089844
 21
43.6335998535156
 31
0.0
  0
LINE
  5
38A
330
1D
100
AcDbEntity
  8
0
100
AcDbLine
 10
54.1080017089844
 20
43.6335998535156
 30
0.0
 11
55.5
 21
44.0
 31
0.0
  0
LINE
  5
38B
330
1D
100
AcDbEntity
  8
0
100
AcDbLine
 10
55.5
 20
44.0
 30
0.0
 11
56.8951965332031
 21
44.4655975341797
 31
0.0
  0
LINE
  5
38C
330
1D
100
AcDbEntity
  8
0
100
AcDbLine
 10
56.8951965332031
 20
44.4655975341797
 30
0.0
 11
59.46160278320309
 21
45.7568023681641
 31
0.0
  0
LINE
  5
38D
330
1D
100
AcDbEntity
  8
0
100
AcDbLine
 10
59.46160278320309
 20
45.7568023681641
 30
0.0
 11
62.9304016113281
 21
47.7152008056641
 31
0.0
  0
LINE
  5
38E
330
1D
100
AcDbEntity
  8
0
100
AcDbLine
 10
62.9304016113281
 20
47.7152008056641
 30
0.0
 11
67.0328002929688
 21
50.1824005126953
 31
0.0
  0
LINE
  5
38F
330
1D
100
AcDbEntity
  8
0
100
AcDbLine
 10
67.0328002929688
 20
50.1824005126953
 30
0.0
 11
71.5
 21
53.0
 31
0.0
  0
LINE
  5
390
330
1D
100
AcDbEntity
  8
0
100
AcDbLine
 10
71.5
 20
53.0
 30
0.0
 11
75.82720336914061
 21
55.843994140625
 31
0.0
  0
LINE
  5
391
330
1D
100
AcDbEntity
  8
0
100
AcDbLine
 10
75.82720336914061
 20
55.843994140625
 30
0.0
 11
79.6455993652344
 21
58.2799987792969
 31
0.0
  0
LINE
  5
392
330
1D
100
AcDbEntity
  8
0
100
AcDbLine
 10
79.6455993652344
 20
58.2799987792969
 30
0.0
 11
82.710400390625
 21
60.1640014648438
 31
0.0
  0
LINE
  5
393
330
1D
100
AcDbEntity
  8
0
100
AcDbLine
 10
82.710400390625
 20
60.1640014648438
 30
0.0
 11
84.77680053710939
 21
61.35200195312499
 31
0.0
  0
LINE
  5
394
330
1D
100
AcDbEntity
  8
0
100
AcDbLine
 10
84.77680053710939
 20
61.35200195312499
 30
0.0
 11
85.6
 21
61.7
 31
0.0
  0
LINE
  5
395
330
1D
100
AcDbEntity
  8
0
100
AcDbLine
 10
85.6
 20
61.7
 30
0.0
 11
85.69920043945309
 21
61.5247924804688
 31
0.0
  0
LINE
  5
396
330
1D
100
AcDbEntity
  8
0
100
AcDbLine
 10
85.69920043945309
 20
61.5247924804688
 30
0.0
 11
85.64959716796881
 21
61.2584045410156
 31
0.0
  0
LINE
  5
397
330
1D
100
AcDbEntity
  8
0
100
AcDbLine
 10
85.64959716796881
 20
61.2584045410156
 30
0.0
 11
85.47039794921881
 21
60.9296020507813
 31
0.0
  0
LINE
  5
398
330
1D
100
AcDbEntity
  8
0
100
AcDbLine
 10
85.47039794921881
 20
60.9296020507813
 30
0.0
 11
85.1807983398438
 21
60.5671997070313
 31
0.0
  0
LINE
  5
399
330
1D
100
AcDbEntity
  8
0
100
AcDbLine
 10
85.1807983398438
 20
60.5671997070313
 30
0.0
 11
84.8
 21
60.2
 31
0.0
  0
LINE
  5
39A
330
1D
100
AcDbEntity
  8
0
100
AcDbLine
 10
84.8
 20
60.2
 30
0.0
 11
81.42159423828131
 21
57.8311950683594
 31
0.0
  0
LINE
  5
39B
330
1D
100
AcDbEntity
  8
0
100
AcDbLine
 10
81.42159423828131
 20
57.8311950683594
 30
0.0
 11
75.3168029785156
 21
53.7296020507813
 31
0.0
  0
LINE
  5
39C
330
1D
100
AcDbEntity
  8
0
100
AcDbLine
 10
75.3168029785156
 20
53.7296020507813
 30
0.0
 11
68.3911987304688
 21
49.1623992919922
 31
0.0
  0
LINE
  5
39D
330
1D
100
AcDbEntity
  8
0
100
AcDbLine
 10
68.3911987304688
 20
49.1623992919922
 30
0.0
 11
62.5504028320313
 21
45.39680175781249
 31
0.0
  0
LINE
  5
39E
330
1D
100
AcDbEntity
  8
0
100
AcDbLine
 10
62.5504028320313
 20
45.39680175781249
 30
0.0
 11
59.7
 21
43.7
 31
0.0
  0
LINE
  5
39F
330
1D
100
AcDbEntity
  8
0
100
AcDbLine
 10
59.7
 20
43.7
 30
0.0
 11
59.2671936035156
 21
42.87919921875
 31
0.0
  0
LINE
  5
3A0
330
1D
100
AcDbEntity
  8
0
100
AcDbLine
 10
59.2671936035156
 20
42.87919921875
 30
0.0
 11
60.05360107421879
 21
41.3576049804688
 31
0.0
  0
LINE
  5
3A1
330
1D
100
AcDbEntity
  8
0
100
AcDbLine
 10
60.05360107421879
 20
41.3576049804688
 30
0.0
 11
61.7664001464844
 21
39.46640014648441
 31
0.0
  0
LINE
  5
3A2
330
1D
100
AcDbEntity
  8
0
100
AcDbLine
 10
61.7664001464844
 20
39.46640014648441
 30
0.0
 11
64.1127990722656
 21
37.5368011474609
 31
0.0
  0
LINE
  5
3A3
330
1D
100
AcDbEntity
  8
0
100
AcDbLine
 10
64.1127990722656
 20
37.5368011474609
 30
0.0
 11
66.79999999999999
 21
35.9
 31
0.0
  0
LINE
  5
3A4
330
1D
100
AcDbEntity
  8
0
100
AcDbLine
 10
66.79999999999999
 20
35.9
 30
0.0
 11
69.7279968261719
 21
34.7519989013672
 31
0.0
  0
LINE
  5
3A5
330
1D
100
AcDbEntity
  8
0
100
AcDbLine
 10
69.7279968261719
 20
34.7519989013672
 30
0.0
 11
72.4880004882813
 21
34.3239990234375
 31
0.0
  0
LINE
  5
3A6
330
1D
100
AcDbEntity
  8
0
100
AcDbLine
 10
72.4880004882813
 20
34.3239990234375
 30
0.0
 11
75.2240051269531
 21
34.6399993896484
 31
0.0
  0
LINE
  5
3A7
330
1D
100
AcDbEntity
  8
0
100
AcDbLine
 10
75.2240051269531
 20
34.6399993896484
 30
0.0
 11
78.0800048828125
 21
35.7240020751953
 31
0.0
  0
LINE
  5
3A8
330
1D
100
AcDbEntity
  8
0
100
AcDbLine
 10
78.0800048828125
 20
35.7240020751953
 30
0.0
 11
81.2
 21
37.6
 31
0.0
  0
LINE
  5
3A9
330
1D
100
AcDbEntity
  8
0
100
AcDbLine
 10
81.2
 20
37.6
 30
0.0
 11
84.81279907226561
 21
40.9704010009766
 31
0.0
  0
LINE
  5
3AA
330
1D
100
AcDbEntity
  8
0
100
AcDbLine
 10
84.81279907226561
 20
40.9704010009766
 30
0.0
 11
87.32640380859379
 21
45.17120056152339
 31
0.0
  0
LINE
  5
3AB
330
1D
100
AcDbEntity
  8
0
100
AcDbLine
 10
87.32640380859379
 20
45.17120056152339
 30
0.0
 11
88.6736022949219
 21
49.9768035888672
 31
0.0
  0
LINE
  5
3AC
330
1D
100
AcDbEntity
  8
0
100
AcDbLine
 10
88.6736022949219
 20
49.9768035888672
 30
0.0
 11
88.78720092773439
 21
55.1616027832031
 31
0.0
  0
LINE
  5
3AD
330
1D
100
AcDbEntity
  8
0
100
AcDbLine
 10
88.78720092773439
 20
55.1616027832031
 30
0.0
 11
87.59999999999999
 21
60.5
 31
0.0
  0
LINE
  5
3AE
330
1D
100
AcDbEntity
  8
0
100
AcDbLine
 10
87.59999999999999
 20
60.5
 30
0.0
 11
87.1071960449219
 21
62.03919677734379
 31
0.0
  0
LINE
  5
3AF
330
1D
100
AcDbEntity
  8
0
100
AcDbLine
 10
87.1071960449219
 20
62.03919677734379
 30
0.0
 11
86.8255981445313
 21
63.4296020507813
 31
0.0
  0
LINE
  5
3B0
330
1D
100
AcDbEntity
  8
0
100
AcDbLine
 10
86.8255981445313
 20
63.4296020507813
 30
0.0
 11
86.75039672851559
 21
64.69039916992191
 31
0.0
  0
LINE
  5
3B1
330
1D
100
AcDbEntity
  8
0
100
AcDbLine
 10
86.75039672851559
 20
64.69039916992191
 30
0.0
 11
86.87680053710939
 21
65.84080200195309
 31
0.0
  0
LINE
  5
3B2
330
1D
100
AcDbEntity
  8
0
100
AcDbLine
 10
86.87680053710939
 20
65.84080200195309
 30
0.0
 11
87.2
 21
66.90000000000001
 31
0.0
  0
LINE
  5
3B3
330
1D
100
AcDbEntity
  8
0
100
AcDbLine
 10
87.2
 20
66.90000000000001
 30
0.0
 11
88.1247985839844
 21
68.768798828125
 31
0.0
  0
LINE
  5
3B4
330
1D
100
AcDbEntity
  8
0
100
AcDbLine
 10
88.1247985839844
 20
68.768798828125
 30
0.0
 11
89.24639892578131
 21
70.114404296875
 31
0.0
  0
LINE
  5
3B5
330
1D
100
AcDbEntity
  8
0
100
AcDbLine
 10
89.24639892578131
 20
70.114404296875
 30
0.0
 11
90.42560424804689
 21
70.8455993652344
 31
0.0
  0
LINE
  5
3B6
330
1D
100
AcDbEntity
  8
0
100
AcDbLine
 10
90.42560424804689
 20
70.8455993652344
 30
0.0
 11
91.52319946289059
 21
70.87119750976559
 31
0.0
  0
LINE
  5
3B7
330
1D
100
AcDbEntity
  8
0
100
AcDbLine
 10
91.52319946289059
 20
70.87119750976559
 30
0.0
 11
92.4
 21
70.09999999999999
 31
0.0
  0
LINE
  5
3B8
330
1D
100
AcDbEntity
  8
0
100
AcDbLine
 10
87.0
 20
56.9
 30
0.0
 11
86.9535949707031
 21
55.9591918945313
 31
0.0
  0
LINE
  5
3B9
330
1D
100
AcDbEntity
  8
0
100
AcDbLine
 10
86.9535949707031
 20
55.9591918945313
 30
0.0
 11
86.82080078125
 21
55.2056030273438
 31
0.0
  0
LINE
  5
3BA
330
1D
100
AcDbEntity
  8
0
100
AcDbLine
 10
86.82080078125
 20
55.2056030273438
 30
0.0
 11
86.61119995117189
 21
54.6824035644531
 31
0.0
  0
LINE
  5
3BB
330
1D
100
AcDbEntity
  8
0
100
AcDbLine
 10
86.61119995117189
 20
54.6824035644531
 30
0.0
 11
86.33439941406249
 21
54.4328002929688
 31
0.0
  0
LINE
  5
3BC
330
1D
100
AcDbEntity
  8
0
100
AcDbLine
 10
86.33439941406249
 20
54.4328002929688
 30
0.0
 11
86.0
 21
54.5
 31
0.0
  0
LINE
  5
3BD
330
1D
100
AcDbEntity
  8
0
100
AcDbLine
 10
86.0
 20
54.5
 30
0.0
 11
85.70399169921881
 21
54.5976013183594
 31
0.0
  0
LINE
  5
3BE
330
1D
100
AcDbEntity
  8
0
100
AcDbLine
 10
85.70399169921881
 20
54.5976013183594
 30
0.0
 11
85.43200073242189
 21
54.5367980957031
 31
0.0
  0
LINE
  5
3BF
330
1D
100
AcDbEntity
  8
0
100
AcDbLine
 10
85.43200073242189
 20
54.5367980957031
 30
0.0
 11
85.20800170898439
 21
54.327197265625
 31
0.0
  0
LINE
  5
3C0
330
1D
100
AcDbEntity
  8
0
100
AcDbLine
 10
85.20800170898439
 20
54.327197265625
 30
0.0
 11
85.05599975585941
 21
53.9783996582031
 31
0.0
  0
LINE
  5
3C1
330
1D
100
AcDbEntity
  8
0
100
AcDbLine
 10
85.05599975585941
 20
53.9783996582031
 30
0.0
 11
85.0
 21
53.5
 31
0.0
  0
LINE
  5
3C2
330
1D
100
AcDbEntity
  8
0
100
AcDbLine
 10
85.0
 20
53.5
 30
0.0
 11
84.9399963378906
 21
52.9247985839844
 31
0.0
  0
LINE
  5
3C3
330
1D
100
AcDbEntity
  8
0
100
AcDbLine
 10
84.9399963378906
 20
52.9247985839844
 30
0.0
 11
84.7599975585938
 21
52.5223999023438
 31
0.0
  0
LINE
  5
3C4
330
1D
100
AcDbEntity
  8
0
100
AcDbLine
 10
84.7599975585938
 20
52.5223999023438
 30
0.0
 11
84.4600036621094
 21
52.2976013183594
 31
0.0
  0
LINE
  5
3C5
330
1D
100
AcDbEntity
  8
0
100
AcDbLine
 10
84.4600036621094
 20
52.2976013183594
 30
0.0
 11
84.04000244140631
 21
52.25520019531249
 31
0.0
  0
LINE
  5
3C6
330
1D
100
AcDbEntity
  8
0
100
AcDbLine
 10
84.04000244140631
 20
52.25520019531249
 30
0.0
 11
83.49999999999999
 21
52.4
 31
0.0
  0
LINE
  5
3C7
330
1D
100
AcDbEntity
  8
0
100
AcDbLine
 10
83.49999999999999
 20
52.4
 30
0.0
 11
82.99839477539059
 21
52.5072021484375
 31
0.0
  0
LINE
  5
3C8
330
1D
100
AcDbEntity
  8
0
100
AcDbLine
 10
82.99839477539059
 20
52.5072021484375
 30
0.0
 11
82.583203125
 21
52.4656005859375
 31
0.0
  0
LINE
  5
3C9
330
1D
100
AcDbEntity
  8
0
100
AcDbLine
 10
82.583203125
 20
52.4656005859375
 30
0.0
 11
82.268798828125
 21
52.27039794921879
 31
0.0
  0
LINE
  5
3CA
330
1D
100
AcDbEntity
  8
0
100
AcDbLine
 10
82.268798828125
 20
52.27039794921879
 30
0.0
 11
82.0695983886719
 21
51.9168029785156
 31
0.0
  0
LINE
  5
3CB
330
1D
100
AcDbEntity
  8
0
100
AcDbLine
 10
82.0695983886719
 20
51.9168029785156
 30
0.0
 11
82.0
 21
51.4
 31
0.0
  0
LINE
  5
3CC
330
1D
100
AcDbEntity
  8
0
100
AcDbLine
 10
82.0
 20
51.4
 30
0.0
 11
81.9303955078125
 21
50.8735992431641
 31
0.0
  0
LINE
  5
3CD
330
1D
100
AcDbEntity
  8
0
100
AcDbLine
 10
81.9303955078125
 20
50.8735992431641
 30
0.0
 11
81.73120117187499
 21
50.5008026123047
 31
0.0
  0
LINE
  5
3CE
330
1D
100
AcDbEntity
  8
0
100
AcDbLine
 10
81.73120117187499
 20
50.5008026123047
 30
0.0
 11
81.41679687499999
 21
50.2912017822266
 31
0.0
  0
LINE
  5
3CF
330
1D
100
AcDbEntity
  8
0
100
AcDbLine
 10
81.41679687499999
 20
50.2912017822266
 30
0.0
 11
81.00159912109381
 21
50.2544006347656
 31
0.0
  0
LINE
  5
3D0
330
1D
100
AcDbEntity
  8
0
100
AcDbLine
 10
81.00159912109381
 20
50.2544006347656
 30
0.0
 11
80.5
 21
50.4
 31
0.0
  0
LINE
  5
3D1
330
1D
100
AcDbEntity
  8
0
100
AcDbLine
 10
80.5
 20
50.4
 30
0.0
 11
79.99840087890629
 21
50.5071960449219
 31
0.0
  0
LINE
  5
3D2
330
1D
100
AcDbEntity
  8
0
100
AcDbLine
 10
79.99840087890629
 20
50.5071960449219
 30
0.0
 11
79.58320312499999
 21
50.4656005859375
 31
0.0
  0
LINE
  5
3D3
330
1D
100
AcDbEntity
  8
0
100
AcDbLine
 10
79.58320312499999
 20
50.4656005859375
 30
0.0
 11
79.268798828125
 21
50.2704010009766
 31
0.0
  0
LINE
  5
3D4
330
1D
100
AcDbEntity
  8
0
100
AcDbLine
 10
79.268798828125
 20
50.2704010009766
 30
0.0
 11
79.06960449218749
 21
49.9167999267578
 31
0.0
  0
LINE
  5
3D5
330
1D
100
AcDbEntity
  8
0
100
AcDbLine
 10
79.06960449218749
 20
49.9167999267578
 30
0.0
 11
79.0
 21
49.4
 31
0.0
  0
LINE
  5
3D6
330
1D
100
AcDbEntity
  8
0
100
AcDbLine
 10
79.0
 20
49.4
 30
0.0
 11
78.95439453125
 21
48.9599975585938
 31
0.0
  0
LINE
  5
3D7
330
1D
100
AcDbEntity
  8
0
100
AcDbLine
 10
78.95439453125
 20
48.9599975585938
 30
0.0
 11
78.82720336914061
 21
48.61600341796879
 31
0.0
  0
LINE
  5
3D8
330
1D
100
AcDbEntity
  8
0
100
AcDbLine
 10
78.82720336914061
 20
48.61600341796879
 30
0.0
 11
78.6328063964844
 21
48.39199829101559
 31
0.0
  0
LINE
  5
3D9
330
1D
100
AcDbEntity
  8
0
100
AcDbLine
 10
78.6328063964844
 20
48.39199829101559
 30
0.0
 11
78.38560180664059
 21
48.3119995117188
 31
0.0
  0
LINE
  5
3DA
330
1D
100
AcDbEntity
  8
0
100
AcDbLine
 10
78.38560180664059
 20
48.3119995117188
 30
0.0
 11
78.09999999999999
 21
48.39999999999999
 31
0.0
  0
LINE
  5
3DB
330
1D
100
AcDbEntity
  8
0
100
AcDbLine
 10
78.09999999999999
 20
48.39999999999999
 30
0.0
 11
77.7807922363281
 21
48.4975982666016
 31
0.0
  0
LINE
  5
3DC
330
1D
100
AcDbEntity
  8
0
100
AcDbLine
 10
77.7807922363281
 20
48.4975982666016
 30
0.0
 11
77.44240112304691
 21
48.43680114746089
 31
0.0
  0
LINE
  5
3DD
330
1D
100
AcDbEntity
  8
0
100
AcDbLine
 10
77.44240112304691
 20
48.43680114746089
 30
0.0
 11
77.11359863281249
 21
48.2272003173828
 31
0.0
  0
LINE
  5
3DE
330
1D
100
AcDbEntity
  8
0
100
AcDbLine
 10
77.11359863281249
 20
48.2272003173828
 30
0.0
 11
76.8232055664063
 21
47.87839965820309
 31
0.0
  0
LINE
  5
3DF
330
1D
100
AcDbEntity
  8
0
100
AcDbLine
 10
76.8232055664063
 20
47.87839965820309
 30
0.0
 11
76.6
 21
47.4
 31
0.0
  0
LINE
  5
3E0
330
1D
100
AcDbEntity
  8
0
100
AcDbLine
 10
76.6
 20
47.4
 30
0.0
 11
76.3759948730469
 21
46.9703979492188
 31
0.0
  0
LINE
  5
3E1
330
1D
100
AcDbEntity
  8
0
100
AcDbLine
 10
76.3759948730469
 20
46.9703979492188
 30
0.0
 11
76.0799987792969
 21
46.65120239257809
 31
0.0
  0
LINE
  5
3E2
330
1D
100
AcDbEntity
  8
0
100
AcDbLine
 10
76.0799987792969
 20
46.65120239257809
 30
0.0
 11
75.7359985351563
 21
46.45679931640629
 31
0.0
  0
LINE
  5
3E3
330
1D
100
AcDbEntity
  8
0
100
AcDbLine
 10
75.7359985351563
 20
46.45679931640629
 30
0.0
 11
75.3679992675781
 21
46.40160217285159
 31
0.0
  0
LINE
  5
3E4
330
1D
100
AcDbEntity
  8
0
100
AcDbLine
 10
75.3679992675781
 20
46.40160217285159
 30
0.0
 11
75.0
 21
46.5
 31
0.0
  0
LINE
  5
3E5
330
1D
100
AcDbEntity
  8
0
100
AcDbLine
 10
75.0
 20
46.5
 30
0.0
 11
74.6320007324219
 21
46.59840087890629
 31
0.0
  0
LINE
  5
3E6
330
1D
100
AcDbEntity
  8
0
100
AcDbLine
 10
74.6320007324219
 20
46.59840087890629
 30
0.0
 11
74.2640075683594
 21
46.5432006835938
 31
0.0
  0
LINE
  5
3E7
330
1D
100
AcDbEntity
  8
0
100
AcDbLine
 10
74.2640075683594
 20
46.5432006835938
 30
0.0
 11
73.9200012207031
 21
46.3488006591797
 31
0.0
  0
LINE
  5
3E8
330
1D
100
AcDbEntity
  8
0
100
AcDbLine
 10
73.9200012207031
 20
46.3488006591797
 30
0.0
 11
73.62400512695309
 21
46.0295989990234
 31
0.0
  0
LINE
  5
3E9
330
1D
100
AcDbEntity
  8
0
100
AcDbLine
 10
73.62400512695309
 20
46.0295989990234
 30
0.0
 11
73.4
 21
45.6
 31
0.0
  0
LINE
  5
3EA
330
1D
100
AcDbEntity
  8
0
100
AcDbLine
 10
73.4
 20
45.6
 30
0.0
 11
73.17760009765629
 21
45.1111999511719
 31
0.0
  0
LINE
  5
3EB
330
1D
100
AcDbEntity
  8
0
100
AcDbLine
 10
73.17760009765629
 20
45.1111999511719
 30
0.0
 11
72.89280395507809
 21
44.73760375976559
 31
0.0
  0
LINE
  5
3EC
330
1D
100
AcDbEntity
  8
0
100
AcDbLine
 10
72.89280395507809
 20
44.73760375976559
 30
0.0
 11
72.57919921875
 21
44.4983978271484
 31
0.0
  0
LINE
  5
3ED
330
1D
100
AcDbEntity
  8
0
100
AcDbLine
 10
72.57919921875
 20
44.4983978271484
 30
0.0
 11
72.27040405273441
 21
44.4127990722656
 31
0.0
  0
LINE
  5
3EE
330
1D
100
AcDbEntity
  8
0
100
AcDbLine
 10
72.27040405273441
 20
44.4127990722656
 30
0.0
 11
72.0
 21
44.5
 31
0.0
  0
LINE
  5
3EF
330
1D
100
AcDbEntity
  8
0
100
AcDbLine
 10
72.0
 20
44.5
 30
0.0
 11
71.7296020507813
 21
44.57679748535159
 31
0.0
  0
LINE
  5
3F0
330
1D
100
AcDbEntity
  8
0
100
AcDbLine
 10
71.7296020507813
 20
44.57679748535159
 30
0.0
 11
71.42080078124999
 21
44.46640319824219
 31
0.0
  0
LINE
  5
3F1
330
1D
100
AcDbEntity
  8
0
100
AcDbLine
 10
71.42080078124999
 20
44.46640319824219
 30
0.0
 11
71.10720214843749
 21
44.1976013183594
 31
0.0
  0
LINE
  5
3F2
330
1D
100
AcDbEntity
  8
0
100
AcDbLine
 10
71.10720214843749
 20
44.1976013183594
 30
0.0
 11
70.82239990234381
 21
43.7992004394531
 31
0.0
  0
LINE
  5
3F3
330
1D
100
AcDbEntity
  8
0
100
AcDbLine
 10
70.82239990234381
 20
43.7992004394531
 30
0.0
 11
70.59999999999999
 21
43.3
 31
0.0
  0
LINE
  5
3F4
330
1D
100
AcDbEntity
  8
0
100
AcDbLine
 10
70.59999999999999
 20
43.3
 30
0.0
 11
70.27999877929691
 21
42.57759704589839
 31
0.0
  0
LINE
  5
3F5
330
1D
100
AcDbEntity
  8
0
100
AcDbLine
 10
70.27999877929691
 20
42.57759704589839
 30
0.0
 11
70.0079956054688
 21
42.20079956054689
 31
0.0
  0
LINE
  5
3F6
330
1D
100
AcDbEntity
  8
0
100
AcDbLine
 10
70.0079956054688
 20
42.20079956054689
 30
0.0
 11
69.7360046386719
 21
42.1552001953125
 31
0.0
  0
LINE
  5
3F7
330
1D
100
AcDbEntity
  8
0
100
AcDbLine
 10
69.7360046386719
 20
42.1552001953125
 30
0.0
 11
69.41600341796879
 21
42.4264007568359
 31
0.0
  0
LINE
  5
3F8
330
1D
100
AcDbEntity
  8
0
100
AcDbLine
 10
69.41600341796879
 20
42.4264007568359
 30
0.0
 11
69.0
 21
43.0
 31
0.0
  0
LINE
  5
3F9
330
1D
100
AcDbEntity
  8
0
100
AcDbLine
 10
69.0
 20
43.0
 30
0.0
 11
68.5888000488281
 21
43.6128021240234
 31
0.0
  0
LINE
  5
3FA
330
1D
100
AcDbEntity
  8
0
100
AcDbLine
 10
68.5888000488281
 20
43.6128021240234
 30
0.0
 11
68.3024047851563
 21
43.89440307617189
 31
0.0
  0
LINE
  5
3FB
330
1D
100
AcDbEntity
  8
0
100
AcDbLine
 10
68.3024047851563
 20
43.89440307617189
 30
0.0
 11
68.1216003417969
 21
43.84960021972659
 31
0.0
  0
LINE
  5
3FC
330
1D
100
AcDbEntity
  8
0
100
AcDbLine
 10
68.1216003417969
 20
43.84960021972659
 30
0.0
 11
68.0272033691406
 21
43.4832000732422
 31
0.0
  0
LINE
  5
3FD
330
1D
100
AcDbEntity
  8
0
100
AcDbLine
 10
68.0272033691406
 20
43.4832000732422
 30
0.0
 11
68.0
 21
42.8
 31
0.0
  0
LINE
  5
3FE
330
1D
100
AcDbEntity
  8
0
100
AcDbLine
 10
68.0
 20
42.8
 30
0.0
 11
67.8279968261719
 21
41.7591979980469
 31
0.0
  0
LINE
  5
3FF
330
1D
100
AcDbEntity
  8
0
100
AcDbLine
 10
67.8279968261719
 20
41.7591979980469
 30
0.0
 11
67.3919982910156
 21
41.1696014404297
 31
0.0
  0
LINE
  5
400
330
1D
100
AcDbEntity
  8
0
100
AcDbLine
 10
67.3919982910156
 20
41.1696014404297
 30
0.0
 11
66.8119995117188
 21
41.0503997802734
 31
0.0
  0
LINE
  5
401
330
1D
100
AcDbEntity
  8
0
100
AcDbLine
 10
66.8119995117188
 20
41.0503997802734
 30
0.0
 11
66.2080017089844
 21
41.42080078125
 31
0.0
  0
LINE
  5
402
330
1D
100
AcDbEntity
  8
0
100
AcDbLine
 10
66.2080017089844
 20
41.42080078125
 30
0.0
 11
65.7
 21
42.29999999999999
 31
0.0
  0
LINE
  5
403
330
1D
100
AcDbEntity
  8
0
100
AcDbLine
 10
65.7
 20
42.29999999999999
 30
0.0
 11
65.5223937988281
 21
42.6127990722656
 31
0.0
  0
LINE
  5
404
330
1D
100
AcDbEntity
  8
0
100
AcDbLine
 10
65.5223937988281
 20
42.6127990722656
 30
0.0
 11
65.3592041015625
 21
42.7144012451172
 31
0.0
  0
LINE
  5
405
330
1D
100
AcDbEntity
  8
0
100
AcDbLine
 10
65.3592041015625
 20
42.7144012451172
 30
0.0
 11
65.2247985839844
 21
42.6095977783203
 31
0.0
  0
LINE
  5
406
330
1D
100
AcDbEntity
  8
0
100
AcDbLine
 10
65.2247985839844
 20
42.6095977783203
 30
0.0
 11
65.1335998535156
 21
42.3032012939453
 31
0.0
  0
LINE
  5
407
330
1D
100
AcDbEntity
  8
0
100
AcDbLine
 10
65.1335998535156
 20
42.3032012939453
 30
0.0
 11
65.09999999999999
 21
41.79999999999999
 31
0.0
  0
LINE
  5
408
330
1D
100
AcDbEntity
  8
0
100
AcDbLine
 10
65.09999999999999
 20
41.79999999999999
 30
0.0
 11
64.79840087890631
 21
40.7320007324219
 31
0.0
  0
LINE
  5
409
330
1D
100
AcDbEntity
  8
0
100
AcDbLine
 10
64.79840087890631
 20
40.7320007324219
 30
0.0
 11
64.1031982421875
 21
40.16799926757809
 31
0.0
  0
LINE
  5
40A
330
1D
100
AcDbEntity
  8
0
100
AcDbLine
 10
64.1031982421875
 20
40.16799926757809
 30
0.0
 11
63.1488037109375
 21
40.1080017089844
 31
0.0
  0
LINE
  5
40B
330
1D
100
AcDbEntity
  8
0
100
AcDbLine
 10
63.1488037109375
 20
40.1080017089844
 30
0.0
 11
62.0696044921875
 21
40.55199890136719
 31
0.0
  0
LINE
  5
40C
330
1D
100
AcDbEntity
  8
0
100
AcDbLine
 10
62.0696044921875
 20
40.55199890136719
 30
0.0
 11
61.0
 21
41.5
 31
0.0
  0
LINE
  5
40D
330
1D
100
AcDbEntity
  8
0
100
AcDbLine
 10
61.0
 20
41.5
 30
0.0
 11
60.5671997070313
 21
42.07839965820309
 31
0.0
  0
LINE
  5
40E
330
1D
100
AcDbEntity
  8
0
100
AcDbLine
 10
60.5671997070313
 20
42.07839965820309
 30
0.0
 11
60.34559936523439
 21
42.5031982421875
 31
0.0
  0
LINE
  5
40F
330
1D
100
AcDbEntity
  8
0
100
AcDbLine
 10
60.34559936523439
 20
42.5031982421875
 30
0.0
 11
60.33040161132809
 21
42.7888000488281
 31
0.0
  0
LINE
  5
410
330
1D
100
AcDbEntity
  8
0
100
AcDbLine
 10
60.33040161132809
 20
42.7888000488281
 30
0.0
 11
60.5168029785156
 21
42.94960021972659
 31
0.0
  0
LINE
  5
411
330
1D
100
AcDbEntity
  8
0
100
AcDbLine
 10
60.5168029785156
 20
42.94960021972659
 30
0.0
 11
60.89999999999999
 21
43.0
 31
0.0
  0
LINE
  5
412
330
1D
100
AcDbEntity
  8
0
100
AcDbLine
 10
60.89999999999999
 20
43.0
 30
0.0
 11
61.3967956542969
 21
43.1024017333984
 31
0.0
  0
LINE
  5
413
330
1D
100
AcDbEntity
  8
0
100
AcDbLine
 10
61.3967956542969
 20
43.1024017333984
 30
0.0
 11
62.0184020996094
 21
43.38720092773439
 31
0.0
  0
LINE
  5
414
330
1D
100
AcDbEntity
  8
0
100
AcDbLine
 10
62.0184020996094
 20
43.38720092773439
 30
0.0
 11
62.7216003417969
 21
43.82080078125
 31
0.0
  0
LINE
  5
415
330
1D
100
AcDbEntity
  8
0
100
AcDbLine
 10
62.7216003417969
 20
43.82080078125
 30
0.0
 11
63.4632019042969
 21
44.36960144042969
 31
0.0
  0
LINE
  5
416
330
1D
100
AcDbEntity
  8
0
100
AcDbLine
 10
63.4632019042969
 20
44.36960144042969
 30
0.0
 11
64.2
 21
45.0
 31
0.0
  0
LINE
  5
417
330
1D
100
AcDbEntity
  8
0
100
AcDbLine
 10
64.2
 20
45.0
 30
0.0
 11
64.9575988769531
 21
45.6303985595703
 31
0.0
  0
LINE
  5
418
330
1D
100
AcDbEntity
  8
0
100
AcDbLine
 10
64.9575988769531
 20
45.6303985595703
 30
0.0
 11
65.74880371093749
 21
46.17919921875
 31
0.0
  0
LINE
  5
419
330
1D
100
AcDbEntity
  8
0
100
AcDbLine
 10
65.74880371093749
 20
46.17919921875
 30
0.0
 11
66.5111999511719
 21
46.6128021240234
 31
0.0
  0
LINE
  5
41A
330
1D
100
AcDbEntity
  8
0
100
AcDbLine
 10
66.5111999511719
 20
46.6128021240234
 30
0.0
 11
67.1824035644531
 21
46.8976013183594
 31
0.0
  0
LINE
  5
41B
330
1D
100
AcDbEntity
  8
0
100
AcDbLine
 10
67.1824035644531
 20
46.8976013183594
 30
0.0
 11
67.7
 21
47.0
 31
0.0
  0
LINE
  5
41C
330
1D
100
AcDbEntity
  8
0
100
AcDbLine
 10
67.7
 20
47.0
 30
0.0
 11
68.10399780273439
 21
47.0559997558594
 31
0.0
  0
LINE
  5
41D
330
1D
100
AcDbEntity
  8
0
100
AcDbLine
 10
68.10399780273439
 20
47.0559997558594
 30
0.0
 11
68.4599975585938
 21
47.20800170898439
 31
0.0
  0
LINE
  5
41E
330
1D
100
AcDbEntity
  8
0
100
AcDbLine
 10
68.4599975585938
 20
47.20800170898439
 30
0.0
 11
68.74400024414059
 21
47.43200073242189
 31
0.0
  0
LINE
  5
41F
330
1D
100
AcDbEntity
  8
0
100
AcDbLine
 10
68.74400024414059
 20
47.43200073242189
 30
0.0
 11
68.9320007324219
 21
47.7040008544922
 31
0.0
  0
LINE
  5
420
330
1D
100
AcDbEntity
  8
0
100
AcDbLine
 10
68.9320007324219
 20
47.7040008544922
 30
0.0
 11
69.0
 21
48.0
 31
0.0
  0
LINE
  5
421
330
1D
100
AcDbEntity
  8
0
100
AcDbLine
 10
69.0
 20
48.0
 30
0.0
 11
69.07919921875
 21
48.3343994140625
 31
0.0
  0
LINE
  5
422
330
1D
100
AcDbEntity
  8
0
100
AcDbLine
 10
69.07919921875
 20
48.3343994140625
 30
0.0
 11
69.2976013183594
 21
48.61119995117189
 31
0.0
  0
LINE
  5
423
330
1D
100
AcDbEntity
  8
0
100
AcDbLine
 10
69.2976013183594
 20
48.61119995117189
 30
0.0
 11
69.6264038085938
 21
48.8207977294922
 31
0.0
  0
LINE
  5
424
330
1D
100
AcDbEntity
  8
0
100
AcDbLine
 10
69.6264038085938
 20
48.8207977294922
 30
0.0
 11
70.03679809570311
 21
48.9536010742188
 31
0.0
  0
LINE
  5
425
330
1D
100
AcDbEntity
  8
0
100
AcDbLine
 10
70.03679809570311
 20
48.9536010742188
 30
0.0
 11
70.5
 21
49.0
 31
0.0
  0
LINE
  5
426
330
1D
100
AcDbEntity
  8
0
100
AcDbLine
 10
70.5
 20
49.0
 30
0.0
 11
70.9631958007813
 21
49.0447998046875
 31
0.0
  0
LINE
  5
427
330
1D
100
AcDbEntity
  8
0
100
AcDbLine
 10
70.9631958007813
 20
49.0447998046875
 30
0.0
 11
71.37360229492189
 21
49.16640014648439
 31
0.0
  0
LINE
  5
428
330
1D
100
AcDbEntity
  8
0
100
AcDbLine
 10
71.37360229492189
 20
49.16640014648439
 30
0.0
 11
71.7023986816406
 21
49.3456024169922
 31
0.0
  0
LINE
  5
429
330
1D
100
AcDbEntity
  8
0
100
AcDbLine
 10
71.7023986816406
 20
49.3456024169922
 30
0.0
 11
71.92080078124999
 21
49.5631988525391
 31
0.0
  0
LINE
  5
42A
330
1D
100
AcDbEntity
  8
0
100
AcDbLine
 10
71.92080078124999
 20
49.5631988525391
 30
0.0
 11
72.0
 21
49.8
 31
0.0
  0
LINE
  5
42B
330
1D
100
AcDbEntity
  8
0
100
AcDbLine
 10
72.0
 20
49.8
 30
0.0
 11
72.668798828125
 21
50.6399993896484
 31
0.0
  0
LINE
  5
42C
330
1D
100
AcDbEntity
  8
0
100
AcDbLine
 10
72.668798828125
 20
50.6399993896484
 30
0.0
 11
74.2783996582031
 21
51.8400024414063
 31
0.0
  0
LINE
  5
42D
330
1D
100
AcDbEntity
  8
0
100
AcDbLine
 10
74.2783996582031
 20
51.8400024414063
 30
0.0
 11
76.2335998535156
 21
53.0399963378906
 31
0.0
  0
LINE
  5
42E
330
1D
100
AcDbEntity
  8
0
100
AcDbLine
 10
76.2335998535156
 20
53.0399963378906
 30
0.0
 11
77.93920288085939
 21
53.8800048828125
 31
0.0
  0
LINE
  5
42F
330
1D
100
AcDbEntity
  8
0
100
AcDbLine
 10
77.93920288085939
 20
53.8800048828125
 30
0.0
 11
78.79999999999999
 21
54.0
 31
0.0
  0
LINE
  5
430
330
1D
100
AcDbEntity
  8
0
100
AcDbLine
 10
78.79999999999999
 20
54.0
 30
0.0
 11
78.9640014648438
 21
53.9239990234375
 31
0.0
  0
LINE
  5
431
330
1D
100
AcDbEntity
  8
0
100
AcDbLine
 10
78.9640014648438
 20
53.9239990234375
 30
0.0
 11
79.2
 21
54.0400024414063
 31
0.0
  0
LINE
  5
432
330
1D
100
AcDbEntity
  8
0
100
AcDbLine
 10
79.2
 20
54.0400024414063
 30
0.0
 11
79.48399658203129
 21
54.3239990234375
 31
0.0
  0
LINE
  5
433
330
1D
100
AcDbEntity
  8
0
100
AcDbLine
 10
79.48399658203129
 20
54.3239990234375
 30
0.0
 11
79.7920043945313
 21
54.752001953125
 31
0.0
  0
LINE
  5
434
330
1D
100
AcDbEntity
  8
0
100
AcDbLine
 10
79.7920043945313
 20
54.752001953125
 30
0.0
 11
80.09999999999999
 21
55.3
 31
0.0
  0
LINE
  5
435
330
1D
100
AcDbEntity
  8
0
100
AcDbLine
 10
80.09999999999999
 20
55.3
 30
0.0
 11
80.4799987792969
 21
55.7992004394531
 31
0.0
  0
LINE
  5
436
330
1D
100
AcDbEntity
  8
0
100
AcDbLine
 10
80.4799987792969
 20
55.7992004394531
 30
0.0
 11
80.88400268554691
 21
56.1975952148438
 31
0.0
  0
LINE
  5
437
330
1D
100
AcDbEntity
  8
0
100
AcDbLine
 10
80.88400268554691
 20
56.1975952148438
 30
0.0
 11
81.2880004882813
 21
56.4664001464844
 31
0.0
  0
LINE
  5
438
330
1D
100
AcDbEntity
  8
0
100
AcDbLine
 10
81.2880004882813
 20
56.4664001464844
 30
0.0
 11
81.66799926757809
 21
56.5768005371094
 31
0.0
  0
LINE
  5
439
330
1D
100
AcDbEntity
  8
0
100
AcDbLine
 10
81.66799926757809
 20
56.5768005371094
 30
0.0
 11
82.0
 21
56.5
 31
0.0
  0
LINE
  5
43A
330
1D
100
AcDbEntity
  8
0
100
AcDbLine
 10
82.0
 20
56.5
 30
0.0
 11
82.2703979492188
 21
56.41279296875
 31
0.0
  0
LINE
  5
43B
330
1D
100
AcDbEntity
  8
0
100
AcDbLine
 10
82.2703979492188
 20
56.41279296875
 30
0.0
 11
82.57919921875
 21
56.4984008789063
 31
0.0
  0
LINE
  5
43C
330
1D
100
AcDbEntity
  8
0
100
AcDbLine
 10
82.57919921875
 20
56.4984008789063
 30
0.0
 11
82.89280395507809
 21
56.73759765625
 31
0.0
  0
LINE
  5
43D
330
1D
100
AcDbEntity
  8
0
100
AcDbLine
 10
82.89280395507809
 20
56.73759765625
 30
0.0
 11
83.17760009765629
 21
57.1111999511719
 31
0.0
  0
LINE
  5
43E
330
1D
100
AcDbEntity
  8
0
100
AcDbLine
 10
83.17760009765629
 20
57.1111999511719
 30
0.0
 11
83.40000000000001
 21
57.6
 31
0.0
  0
LINE
  5
43F
330
1D
100
AcDbEntity
  8
0
100
AcDbLine
 10
83.40000000000001
 20
57.6
 30
0.0
 11
83.6239929199219
 21
58.02959594726559
 31
0.0
  0
LINE
  5
440
330
1D
100
AcDbEntity
  8
0
100
AcDbLine
 10
83.6239929199219
 20
58.02959594726559
 30
0.0
 11
83.9200073242188
 21
58.3488037109375
 31
0.0
  0
LINE
  5
441
330
1D
100
AcDbEntity
  8
0
100
AcDbLine
 10
83.9200073242188
 20
58.3488037109375
 30
0.0
 11
84.26400146484381
 21
58.5432006835938
 31
0.0
  0
LINE
  5
442
330
1D
100
AcDbEntity
  8
0
100
AcDbLine
 10
84.26400146484381
 20
58.5432006835938
 30
0.0
 11
84.63200073242189
 21
58.5984008789063
 31
0.0
  0
LINE
  5
443
330
1D
100
AcDbEntity
  8
0
100
AcDbLine
 10
84.63200073242189
 20
58.5984008789063
 30
0.0
 11
85.0
 21
58.5
 31
0.0
  0
LINE
  5
444
330
1D
100
AcDbEntity
  8
0
100
AcDbLine
 10
85.0
 20
58.5
 30
0.0
 11
85.29599609375001
 21
58.3783996582031
 31
0.0
  0
LINE
  5
445
330
1D
100
AcDbEntity
  8
0
100
AcDbLine
 10
85.29599609375001
 20
58.3783996582031
 30
0.0
 11
85.56799926757809
 21
58.36719970703129
 31
0.0
  0
LINE
  5
446
330
1D
100
AcDbEntity
  8
0
100
AcDbLine
 10
85.56799926757809
 20
58.36719970703129
 30
0.0
 11
85.79199829101559
 21
58.4567993164063
 31
0.0
  0
LINE
  5
447
330
1D
100
AcDbEntity
  8
0
100
AcDbLine
 10
85.79199829101559
 20
58.4567993164063
 30
0.0
 11
85.9440002441406
 21
58.63759765625
 31
0.0
  0
LINE
  5
448
330
1D
100
AcDbEntity
  8
0
100
AcDbLine
 10
85.9440002441406
 20
58.63759765625
 30
0.0
 11
86.0
 21
58.9
 31
0.0
  0
LINE
  5
449
330
1D
100
AcDbEntity
  8
0
100
AcDbLine
 10
86.0
 20
58.9
 30
0.0
 11
86.0231994628906
 21
59.2447937011719
 31
0.0
  0
LINE
  5
44A
330
1D
100
AcDbEntity
  8
0
100
AcDbLine
 10
86.0231994628906
 20
59.2447937011719
 30
0.0
 11
86.0896057128906
 21
59.5464050292969
 31
0.0
  0
LINE
  5
44B
330
1D
100
AcDbEntity
  8
0
100
AcDbLine
 10
86.0896057128906
 20
59.5464050292969
 30
0.0
 11
86.19440307617189
 21
59.7856018066406
 31
0.0
  0
LINE
  5
44C
330
1D
100
AcDbEntity
  8
0
100
AcDbLine
 10
86.19440307617189
 20
59.7856018066406
 30
0.0
 11
86.3328002929688
 21
59.9432006835938
 31
0.0
  0
LINE
  5
44D
330
1D
100
AcDbEntity
  8
0
100
AcDbLine
 10
86.3328002929688
 20
59.9432006835938
 30
0.0
 11
86.5
 21
60.0
 31
0.0
  0
LINE
  5
44E
330
1D
100
AcDbEntity
  8
0
100
AcDbLine
 10
86.5
 20
60.0
 30
0.0
 11
86.6671997070313
 21
59.8407958984375
 31
0.0
  0
LINE
  5
44F
330
1D
100
AcDbEntity
  8
0
100
AcDbLine
 10
86.6671997070313
 20
59.8407958984375
 30
0.0
 11
86.80559692382811
 21
59.3984008789063
 31
0.0
  0
LINE
  5
450
330
1D
100
AcDbEntity
  8
0
100
AcDbLine
 10
86.80559692382811
 20
59.3984008789063
 30
0.0
 11
86.910400390625
 21
58.72559814453129
 31
0.0
  0
LINE
  5
451
330
1D
100
AcDbEntity
  8
0
100
AcDbLine
 10
86.910400390625
 20
58.72559814453129
 30
0.0
 11
86.97680053710939
 21
57.8752014160156
 31
0.0
  0
LINE
  5
452
330
1D
100
AcDbEntity
  8
0
100
AcDbLine
 10
86.97680053710939
 20
57.8752014160156
 30
0.0
 11
87.0
 21
56.9
 31
0.0
  0
LINE
  5
453
330
1D
100
AcDbEntity
  8
0
100
AcDbLine
 10
50.8
 20
168.4
 30
0.0
 11
49.8943969726563
 21
167.890393066406
 31
0.0
  0
LINE
  5
454
330
1D
100
AcDbEntity
  8
0
100
AcDbLine
 10
49.8943969726563
 20
167.890393066406
 30
0.0
 11
49.1232025146484
 21
167.347204589844
 31
0.0
  0
LINE
  5
455
330
1D
100
AcDbEntity
  8
0
100
AcDbLine
 10
49.1232025146484
 20
167.347204589844
 30
0.0
 11
48.5248016357422
 21
166.8087890625
 31
0.0
  0
LINE
  5
456
330
1D
100
AcDbEntity
  8
0
100
AcDbLine
 10
48.5248016357422
 20
166.8087890625
 30
0.0
 11
48.1376007080078
 21
166.313598632813
 31
0.0
  0
LINE
  5
457
330
1D
100
AcDbEntity
  8
0
100
AcDbLine
 10
48.1376007080078
 20
166.313598632813
 30
0.0
 11
48.0
 21
165.9
 31
0.0
  0
LINE
  5
458
330
1D
100
AcDbEntity
  8
0
100
AcDbLine
 10
48.0
 20
165.9
 30
0.0
 11
48.0824005126953
 21
165.61279296875
 31
0.0
  0
LINE
  5
459
330
1D
100
AcDbEntity
  8
0
100
AcDbLine
 10
48.0824005126953
 20
165.61279296875
 30
0.0
 11
48.3232025146484
 21
165.4744140625
 31
0.0
  0
LINE
  5
45A
330
1D
100
AcDbEntity
  8
0
100
AcDbLine
 10
48.3232025146484
 20
165.4744140625
 30
0.0
 11
48.7127990722656
 21
165.489599609375
 31
0.0
  0
LINE
  5
45B
330
1D
100
AcDbEntity
  8
0
100
AcDbLine
 10
48.7127990722656
 20
165.489599609375
 30
0.0
 11
49.2416015625
 21
165.663195800781
 31
0.0
  0
LINE
  5
45C
330
1D
100
AcDbEntity
  8
0
100
AcDbLine
 10
49.2416015625
 20
165.663195800781
 30
0.0
 11
49.9
 21
166.0
 31
0.0
  0
LINE
  5
45D
330
1D
100
AcDbEntity
  8
0
100
AcDbLine
 10
49.9
 20
166.0
 30
0.0
 11
52.8567993164063
 21
167.003186035156
 31
0.0
  0
LINE
  5
45E
330
1D
100
AcDbEntity
  8
0
100
AcDbLine
 10
52.8567993164063
 20
167.003186035156
 30
0.0
 11
55.3864013671875
 21
166.897607421875
 31
0.0
  0
LINE
  5
45F
330
1D
100
AcDbEntity
  8
0
100
AcDbLine
 10
55.3864013671875
 20
166.897607421875
 30
0.0
 11
57.1575988769531
 21
165.870397949219
 31
0.0
  0
LINE
  5
460
330
1D
100
AcDbEntity
  8
0
100
AcDbLine
 10
57.1575988769531
 20
165.870397949219
 30
0.0
 11
57.83920288085941
 21
164.108801269531
 31
0.0
  0
LINE
  5
461
330
1D
100
AcDbEntity
  8
0
100
AcDbLine
 10
57.83920288085941
 20
164.108801269531
 30
0.0
 11
57.1
 21
161.8
 31
0.0
  0
LINE
  5
462
330
1D
100
AcDbEntity
  8
0
100
AcDbLine
 10
57.1
 20
161.8
 30
0.0
 11
56.4463989257813
 21
159.769604492188
 31
0.0
  0
LINE
  5
463
330
1D
100
AcDbEntity
  8
0
100
AcDbLine
 10
56.4463989257813
 20
159.769604492188
 30
0.0
 11
57.1031982421875
 21
158.444799804688
 31
0.0
  0
LINE
  5
464
330
1D
100
AcDbEntity
  8
0
100
AcDbLine
 10
57.1031982421875
 20
158.444799804688
 30
0.0
 11
58.6768005371094
 21
157.955200195313
 31
0.0
  0
LINE
  5
465
330
1D
100
AcDbEntity
  8
0
100
AcDbLine
 10
58.6768005371094
 20
157.955200195313
 30
0.0
 11
60.7736022949219
 21
158.430407714844
 31
0.0
  0
LINE
  5
466
330
1D
100
AcDbEntity
  8
0
100
AcDbLine
 10
60.7736022949219
 20
158.430407714844
 30
0.0
 11
63.0
 21
160.0
 31
0.0
  0
LINE
  5
467
330
1D
100
AcDbEntity
  8
0
100
AcDbLine
 10
63.0
 20
160.0
 30
0.0
 11
64.23439941406249
 21
161.5
 31
0.0
  0
LINE
  5
468
330
1D
100
AcDbEntity
  8
0
100
AcDbLine
 10
64.23439941406249
 20
161.5
 30
0.0
 11
64.8111999511719
 21
162.927990722656
 31
0.0
  0
LINE
  5
469
330
1D
100
AcDbEntity
  8
0
100
AcDbLine
 10
64.8111999511719
 20
162.927990722656
 30
0.0
 11
64.72080078125
 21
164.356005859375
 31
0.0
  0
LINE
  5
46A
330
1D
100
AcDbEntity
  8
0
100
AcDbLine
 10
64.72080078125
 20
164.356005859375
 30
0.0
 11
63.9536010742188
 21
165.856005859375
 31
0.0
  0
LINE
  5
46B
330
1D
100
AcDbEntity
  8
0
100
AcDbLine
 10
63.9536010742188
 20
165.856005859375
 30
0.0
 11
62.5
 21
167.5
 31
0.0
  0
LINE
  5
46C
330
1D
100
AcDbEntity
  8
0
100
AcDbLine
 10
62.5
 20
167.5
 30
0.0
 11
60.6111999511719
 21
168.927990722656
 31
0.0
  0
LINE
  5
46D
330
1D
100
AcDbEntity
  8
0
100
AcDbLine
 10
60.6111999511719
 20
168.927990722656
 30
0.0
 11
58.3816040039063
 21
169.732006835938
 31
0.0
  0
LINE
  5
46E
330
1D
100
AcDbEntity
  8
0
100
AcDbLine
 10
58.3816040039063
 20
169.732006835938
 30
0.0
 11
55.92640380859379
 21
169.911999511719
 31
0.0
  0
LINE
  5
46F
330
1D
100
AcDbEntity
  8
0
100
AcDbLine
 10
55.92640380859379
 20
169.911999511719
 30
0.0
 11
53.3608032226563
 21
169.468005371094
 31
0.0
  0
LINE
  5
470
330
1D
100
AcDbEntity
  8
0
100
AcDbLine
 10
53.3608032226563
 20
169.468005371094
 30
0.0
 11
50.8
 21
168.4
 31
0.0
  0
LINE
  5
471
330
1D
100
AcDbEntity
  8
0
100
AcDbLine
 10
63.2
 20
155.1
 30
0.0
 11
63.7095947265625
 21
154.353601074219
 31
0.0
  0
LINE
  5
472
330
1D
100
AcDbEntity
  8
0
100
AcDbLine
 10
63.7095947265625
 20
154.353601074219
 30
0.0
 11
64.1807983398438
 21
153.904797363281
 31
0.0
  0
LINE
  5
473
330
1D
100
AcDbEntity
  8
0
100
AcDbLine
 10
64.1807983398438
 20
153.904797363281
 30
0.0
 11
64.64719848632809
 21
153.739196777344
 31
0.0
  0
LINE
  5
474
330
1D
100
AcDbEntity
  8
0
100
AcDbLine
 10
64.64719848632809
 20
153.739196777344
 30
0.0
 11
65.1424011230469
 21
153.842407226563
 31
0.0
  0
LINE
  5
475
330
1D
100
AcDbEntity
  8
0
100
AcDbLine
 10
65.1424011230469
 20
153.842407226563
 30
0.0
 11
65.7
 21
154.1999999999999
 31
0.0
  0
LINE
  5
476
330
1D
100
AcDbEntity
  8
0
100
AcDbLine
 10
65.7
 20
154.1999999999999
 30
0.0
 11
66.60239868164059
 21
155.105603027344
 31
0.0
  0
LINE
  5
477
330
1D
100
AcDbEntity
  8
0
100
AcDbLine
 10
66.60239868164059
 20
155.105603027344
 30
0.0
 11
66.9192077636719
 21
155.876794433594
 31
0.0
  0
LINE
  5
478
330
1D
100
AcDbEntity
  8
0
100
AcDbLine
 10
66.9192077636719
 20
155.876794433594
 30
0.0
 11
66.6648010253906
 21
156.4751953125
 31
0.0
  0
LINE
  5
479
330
1D
100
AcDbEntity
  8
0
100
AcDbLine
 10
66.6648010253906
 20
156.4751953125
 30
0.0
 11
65.8536010742188
 21
156.86240234375
 31
0.0
  0
LINE
  5
47A
330
1D
100
AcDbEntity
  8
0
100
AcDbLine
 10
65.8536010742188
 20
156.86240234375
 30
0.0
 11
64.5
 21
157.0
 31
0.0
  0
LINE
  5
47B
330
1D
100
AcDbEntity
  8
0
100
AcDbLine
 10
64.5
 20
157.0
 30
0.0
 11
63.414404296875
 21
156.965588378906
 31
0.0
  0
LINE
  5
47C
330
1D
100
AcDbEntity
  8
0
100
AcDbLine
 10
63.414404296875
 20
156.965588378906
 30
0.0
 11
62.77520141601559
 21
156.82080078125
 31
0.0
  0
LINE
  5
47D
330
1D
100
AcDbEntity
  8
0
100
AcDbLine
 10
62.77520141601559
 20
156.82080078125
 30
0.0
 11
62.5487976074219
 21
156.503198242188
 31
0.0
  0
LINE
  5
47E
330
1D
100
AcDbEntity
  8
0
100
AcDbLine
 10
62.5487976074219
 20
156.503198242188
 30
0.0
 11
62.7016052246094
 21
155.950402832031
 31
0.0
  0
LINE
  5
47F
330
1D
100
AcDbEntity
  8
0
100
AcDbLine
 10
62.7016052246094
 20
155.950402832031
 30
0.0
 11
63.2
 21
155.1
 31
0.0
  0
LINE
  5
480
330
1D
100
AcDbEntity
  8
0
100
AcDbLine
 10
60.6
 20
149.4
 30
0.0
 11
60.1911987304688
 21
147.984790039063
 31
0.0
  0
LINE
  5
481
330
1D
100
AcDbEntity
  8
0
100
AcDbLine
 10
60.1911987304688
 20
147.984790039063
 30
0.0
 11
60.0416015625
 21
146.790405273438
 31
0.0
  0
LINE
  5
482
330
1D
100
AcDbEntity
  8
0
100
AcDbLine
 10
60.0416015625
 20
146.790405273438
 30
0.0
 11
60.1463989257813
 21
145.893603515625
 31
0.0
  0
LINE
  5
483
330
1D
100
AcDbEntity
  8
0
100
AcDbLine
 10
60.1463989257813
 20
145.893603515625
 30
0.0
 11
60.5007995605469
 21
145.371203613281
 31
0.0
  0
LINE
  5
484
330
1D
100
AcDbEntity
  8
0
100
AcDbLine
 10
60.5007995605469
 20
145.371203613281
 30
0.0
 11
61.1
 21
145.3
 31
0.0
  0
LINE
  5
485
330
1D
100
AcDbEntity
  8
0
100
AcDbLine
 10
61.1
 20
145.3
 30
0.0
 11
61.47759399414059
 21
145.290393066406
 31
0.0
  0
LINE
  5
486
330
1D
100
AcDbEntity
  8
0
100
AcDbLine
 10
61.47759399414059
 20
145.290393066406
 30
0.0
 11
61.8648010253906
 21
145.151208496094
 31
0.0
  0
LINE
  5
487
330
1D
100
AcDbEntity
  8
0
100
AcDbLine
 10
61.8648010253906
 20
145.151208496094
 30
0.0
 11
62.2231994628906
 21
144.896789550781
 31
0.0
  0
LINE
  5
488
330
1D
100
AcDbEntity
  8
0
100
AcDbLine
 10
62.2231994628906
 20
144.896789550781
 30
0.0
 11
62.51439819335939
 21
144.5416015625
 31
0.0
  0
LINE
  5
489
330
1D
100
AcDbEntity
  8
0
100
AcDbLine
 10
62.51439819335939
 20
144.5416015625
 30
0.0
 11
62.7
 21
144.1
 31
0.0
  0
LINE
  5
48A
330
1D
100
AcDbEntity
  8
0
100
AcDbLine
 10
62.7
 20
144.1
 30
0.0
 11
62.8408020019531
 21
143.643994140625
 31
0.0
  0
LINE
  5
48B
330
1D
100
AcDbEntity
  8
0
100
AcDbLine
 10
62.8408020019531
 20
143.643994140625
 30
0.0
 11
62.77039794921879
 21
143.355993652344
 31
0.0
  0
LINE
  5
48C
330
1D
100
AcDbEntity
  8
0
100
AcDbLine
 10
62.77039794921879
 20
143.355993652344
 30
0.0
 11
62.4695983886719
 21
143.236010742188
 31
0.0
  0
LINE
  5
48D
330
1D
100
AcDbEntity
  8
0
100
AcDbLine
 10
62.4695983886719
 20
143.236010742188
 30
0.0
 11
61.9192016601563
 21
143.284008789063
 31
0.0
  0
LINE
  5
48E
330
1D
100
AcDbEntity
  8
0
100
AcDbLine
 10
61.9192016601563
 20
143.284008789063
 30
0.0
 11
61.1
 21
143.5
 31
0.0
  0
LINE
  5
48F
330
1D
100
AcDbEntity
  8
0
100
AcDbLine
 10
61.1
 20
143.5
 30
0.0
 11
60.30559692382809
 21
143.703991699219
 31
0.0
  0
LINE
  5
490
330
1D
100
AcDbEntity
  8
0
100
AcDbLine
 10
60.30559692382809
 20
143.703991699219
 30
0.0
 11
59.71279907226559
 21
143.716003417969
 31
0.0
  0
LINE
  5
491
330
1D
100
AcDbEntity
  8
0
100
AcDbLine
 10
59.71279907226559
 20
143.716003417969
 30
0.0
 11
59.30720214843749
 21
143.535998535156
 31
0.0
  0
LINE
  5
492
330
1D
100
AcDbEntity
  8
0
100
AcDbLine
 10
59.30720214843749
 20
143.535998535156
 30
0.0
 11
59.0744018554688
 21
143.164001464844
 31
0.0
  0
LINE
  5
493
330
1D
100
AcDbEntity
  8
0
100
AcDbLine
 10
59.0744018554688
 20
143.164001464844
 30
0.0
 11
59.0
 21
142.6
 31
0.0
  0
LINE
  5
494
330
1D
100
AcDbEntity
  8
0
100
AcDbLine
 10
59.0
 20
142.6
 30
0.0
 11
59.072802734375
 21
141.673583984375
 31
0.0
  0
LINE
  5
495
330
1D
100
AcDbEntity
  8
0
100
AcDbLine
 10
59.072802734375
 20
141.673583984375
 30
0.0
 11
59.34240112304689
 21
141.164807128906
 31
0.0
  0
LINE
  5
496
330
1D
100
AcDbEntity
  8
0
100
AcDbLine
 10
59.34240112304689
 20
141.164807128906
 30
0.0
 11
59.8856018066406
 21
141.059191894531
 31
0.0
  0
LINE
  5
497
330
1D
100
AcDbEntity
  8
0
100
AcDbLine
 10
59.8856018066406
 20
141.059191894531
 30
0.0
 11
60.77919921875
 21
141.342395019531
 31
0.0
  0
LINE
  5
498
330
1D
100
AcDbEntity
  8
0
100
AcDbLine
 10
60.77919921875
 20
141.342395019531
 30
0.0
 11
62.1
 21
142.0
 31
0.0
  0
LINE
  5
499
330
1D
100
AcDbEntity
  8
0
100
AcDbLine
 10
62.1
 20
142.0
 30
0.0
 11
63.25359497070309
 21
142.813598632813
 31
0.0
  0
LINE
  5
49A
330
1D
100
AcDbEntity
  8
0
100
AcDbLine
 10
63.25359497070309
 20
142.813598632813
 30
0.0
 11
63.8408020019531
 21
143.684802246094
 31
0.0
  0
LINE
  5
49B
330
1D
100
AcDbEntity
  8
0
100
AcDbLine
 10
63.8408020019531
 20
143.684802246094
 30
0.0
 11
63.8711975097656
 21
144.599206542969
 31
0.0
  0
LINE
  5
49C
330
1D
100
AcDbEntity
  8
0
100
AcDbLine
 10
63.8711975097656
 20
144.599206542969
 30
0.0
 11
63.3544006347656
 21
145.542407226563
 31
0.0
  0
LINE
  5
49D
330
1D
100
AcDbEntity
  8
0
100
AcDbLine
 10
63.3544006347656
 20
145.542407226563
 30
0.0
 11
62.3
 21
146.5
 31
0.0
  0
LINE
  5
49E
330
1D
100
AcDbEntity
  8
0
100
AcDbLine
 10
62.3
 20
146.5
 30
0.0
 11
61.5768005371094
 21
147.089599609375
 31
0.0
  0
LINE
  5
49F
330
1D
100
AcDbEntity
  8
0
100
AcDbLine
 10
61.5768005371094
 20
147.089599609375
 30
0.0
 11
61.1944030761719
 21
147.592797851563
 31
0.0
  0
LINE
  5
4A0
330
1D
100
AcDbEntity
  8
0
100
AcDbLine
 10
61.1944030761719
 20
147.592797851563
 30
0.0
 11
61.1335998535156
 21
148.091198730469
 31
0.0
  0
LINE
  5
4A1
330
1D
100
AcDbEntity
  8
0
100
AcDbLine
 10
61.1335998535156
 20
148.091198730469
 30
0.0
 11
61.3752014160156
 21
148.666394042969
 31
0.0
  0
LINE
  5
4A2
330
1D
100
AcDbEntity
  8
0
100
AcDbLine
 10
61.3752014160156
 20
148.666394042969
 30
0.0
 11
61.9
 21
149.4
 31
0.0
  0
LINE
  5
4A3
330
1D
100
AcDbEntity
  8
0
100
AcDbLine
 10
61.9
 20
149.4
 30
0.0
 11
62.2575988769531
 21
149.911987304688
 31
0.0
  0
LINE
  5
4A4
330
1D
100
AcDbEntity
  8
0
100
AcDbLine
 10
62.2575988769531
 20
149.911987304688
 30
0.0
 11
62.4807983398438
 21
150.352001953125
 31
0.0
  0
LINE
  5
4A5
330
1D
100
AcDbEntity
  8
0
100
AcDbLine
 10
62.4807983398438
 20
150.352001953125
 30
0.0
 11
62.5552001953125
 21
150.6960083007809
 31
0.0
  0
LINE
  5
4A6
330
1D
100
AcDbEntity
  8
0
100
AcDbLine
 10
62.5552001953125
 20
150.6960083007809
 30
0.0
 11
62.4664001464844
 21
150.920007324219
 31
0.0
  0
LINE
  5
4A7
330
1D
100
AcDbEntity
  8
0
100
AcDbLine
 10
62.4664001464844
 20
150.920007324219
 30
0.0
 11
62.2
 21
151.0
 31
0.0
  0
LINE
  5
4A8
330
1D
100
AcDbEntity
  8
0
100
AcDbLine
 10
62.2
 20
151.0
 30
0.0
 11
61.87039794921879
 21
150.919995117188
 31
0.0
  0
LINE
  5
4A9
330
1D
100
AcDbEntity
  8
0
100
AcDbLine
 10
61.87039794921879
 20
150.919995117188
 30
0.0
 11
61.5072021484375
 21
150.69599609375
 31
0.0
  0
LINE
  5
4AA
330
1D
100
AcDbEntity
  8
0
100
AcDbLine
 10
61.5072021484375
 20
150.69599609375
 30
0.0
 11
61.1487976074219
 21
150.351989746094
 31
0.0
  0
LINE
  5
4AB
330
1D
100
AcDbEntity
  8
0
100
AcDbLine
 10
61.1487976074219
 20
150.351989746094
 30
0.0
 11
60.8335998535156
 21
149.911999511719
 31
0.0
  0
LINE
  5
4AC
330
1D
100
AcDbEntity
  8
0
100
AcDbLine
 10
60.8335998535156
 20
149.911999511719
 30
0.0
 11
60.6
 21
149.4
 31
0.0
  0
ENDSEC
  0
SECTION
  2
OBJECTS
  0
DICTIONARY
  5
C
330
0
100
AcDbDictionary
281
     1
  3
ACAD_COLOR
350
4B4
  3
ACAD_GROUP
350
D
  3
ACAD_LAYOUT
350
1A
  3
ACAD_MATERIAL
350
4B3
  3
ACAD_MLINESTYLE
350
17
  3
ACAD_PLOTSETTINGS
350
19
  3
ACAD_PLOTSTYLENAME
350
E
  3
ACAD_TABLESTYLE
350
4B5
  3
ACDBHEADERROUNDTRIPXREC
350
4CB
  3
AcDbVariableDictionary
350
4C5
  0
DICTIONARY
  5
4B4
102
{ACAD_REACTORS
330
C
102
}
330
C
100
AcDbDictionary
281
     1
  0
DICTIONARY
  5
D
102
{ACAD_REACTORS
330
C
102
}
330
C
100
AcDbDictionary
281
     1
  0
DICTIONARY
  5
1A
102
{ACAD_REACTORS
330
C
102
}
330
C
100
AcDbDictionary
281
     1
  3
Layout1
350
1C
  3
Model
350
1E
  0
DICTIONARY
  5
4B3
102
{ACAD_REACTORS
330
C
102
}
330
C
100
AcDbDictionary
281
     1
  0
DICTIONARY
  5
17
102
{ACAD_REACTORS
330
C
102
}
330
C
100
AcDbDictionary
281
     1
  3
Standard
350
18
  0
DICTIONARY
  5
19
102
{ACAD_REACTORS
330
C
102
}
330
C
100
AcDbDictionary
281
     1
  0
ACDBDICTIONARYWDFLT
  5
E
102
{ACAD_REACTORS
330
C
102
}
330
C
100
AcDbDictionary
281
     1
  3
Normal
350
F
100
AcDbDictionaryWithDefault
340
F
  0
DICTIONARY
  5
4B5
102
{ACAD_REACTORS
330
C
102
}
330
C
100
AcDbDictionary
281
     1
  3
Standard
350
4B6
  0
DICTIONARY
  5
4CB
102
{ACAD_REACTORS
330
C
102
}
330
C
100
AcDbDictionary
281
     1
  0
DICTIONARY
  5
4C5
102
{ACAD_REACTORS
330
C
102
}
330
C
100
AcDbDictionary
281
     1
  3
CTABLESTYLE
350
4C6
  3
DIMASSOC
350
4C8
  3
HIDETEXT
350
4C7
  3
PROJECTNAME
350
4C9
  0
LAYOUT
  5
1C
102
{ACAD_XDICTIONARY
360
4CC
102
}
102
{ACAD_REACTORS
330
1A
102
}
330
1A
100
AcDbPlotSettings
  1

  2

  4

  6

 40
0.0
 41
0.0
 42
0.0
 43
0.0
 44
0.0
 45
0.0
 46
0.0
 47
0.0
 48
0.0
 49
0.0
140
0.0
141
0.0
142
1.0
143
1.0
 70
   688
 72
     0
 73
     0
 74
     5
  7

 75
    16
147
1.0
148
0.0
149
0.0
100
AcDbLayout
  1
Layout1
 70
     1
 71
     1
 10
0.0
 20
0.0
 11
12.0
 21
9.0
 12
0.0
 22
0.0
 32
0.0
 14
1.000000000000000E 20
 24
1.000000000000000E 20
 34
1.000000000000000E 20
 15
-1.000000000000000E 20
 25
-1.000000000000000E 20
 35
-1.000000000000000E 20
146
0.0
 13
0.0
 23
0.0
 33
0.0
 16
1.0
 26
0.0
 36
0.0
 17
0.0
 27
1.0
 37
0.0
 76
     0
330
1B
  0
LAYOUT
  5
1E
102
{ACAD_XDICTIONARY
360
4CE
102
}
102
{ACAD_REACTORS
330
1A
102
}
330
1A
100
AcDbPlotSettings
  1

  2

  4

  6

 40
0.0
 41
0.0
 42
0.0
 43
0.0
 44
0.0
 45
0.0
 46
0.0
 47
0.0
 48
0.0
 49
0.0
140
0.0
141
0.0
142
1.0
143
1.0
 70
  1712
 72
     0
 73
     0
 74
     0
  7

 75
     0
147
1.0
148
0.0
149
0.0
100
AcDbLayout
  1
Model
 70
     1
 71
     0
 10
0.0
 20
0.0
 11
0.0
 21
0.0
 12
0.0
 22
0.0
 32
0.0
 14
0.0
 24
0.0
 34
0.0
 15
0.0
 25
0.0
 35
0.0
146
0.0
 13
0.0
 23
0.0
 33
0.0
 16
1.0
 26
0.0
 36
0.0
 17
0.0
 27
1.0
 37
0.0
 76
     0
330
1D
  0
MLINESTYLE
  5
18
102
{ACAD_REACTORS
330
17
102
}
330
17
100
AcDbMlineStyle
  2
STANDARD
 70
     0
  3

 62
   256
 51
90.0
 52
90.0
 71
     2
 49
0.5
 62
   256
  6
BYLAYER
 49
-0.5
 62
   256
  6
BYLAYER
  0
ACDBPLACEHOLDER
  5
F
102
{ACAD_REACTORS
330
E
102
}
330
E
  0
TABLESTYLE
  5
4B6
102
{ACAD_REACTORS
330
4B5
102
}
330
4B5
100
AcDbTableStyle
  3
Standard
 70
     0
 71
     0
 40
0.06
 41
0.06
280
     0
281
     0
  7
Standard
140
0.18
170
     2
 62
     0
 63
     7
283
     0
274
    -2
284
     1
 64
     0
275
    -2
285
     1
 65
     0
276
    -2
286
     1
 66
     0
277
    -2
287
     1
 67
     0
278
    -2
288
     1
 68
     0
279
    -2
289
     1
 69
     0
  7
Standard
140
0.25
170
     5
 62
     0
 63
     7
283
     0
274
    -2
284
     1
 64
     0
275
    -2
285
     1
 65
     0
276
    -2
286
     1
 66
     0
277
    -2
287
     1
 67
     0
278
    -2
288
     1
 68
     0
279
    -2
289
     1
 69
     0
  7
Standard
140
0.18
170
     5
 62
     0
 63
     7
283
     0
274
    -2
284
     1
 64
     0
275
    -2
285
     1
 65
     0
276
    -2
286
     1
 66
     0
277
    -2
287
     1
 67
     0
278
    -2
288
     1
 68
     0
279
    -2
289
     1
 69
     0
  0
DICTIONARYVAR
  5
4C6
102
{ACAD_REACTORS
330
4C5
102
}
330
4C5
100
DictionaryVariables
280
     0
  1
STANDARD
  0
DICTIONARYVAR
  5
4C8
102
{ACAD_REACTORS
330
4C5
102
}
330
4C5
100
DictionaryVariables
280
     0
  1
2
  0
DICTIONARYVAR
  5
4C7
102
{ACAD_REACTORS
330
4C5
102
}
330
4C5
100
DictionaryVariables
280
     0
  1
1
  0
DICTIONARYVAR
  5
4C9
102
{ACAD_REACTORS
330
4C5
102
}
330
4C5
100
DictionaryVariables
280
     0
  1

  0
DICTIONARY
  5
4CC
330
1C
100
AcDbDictionary
280
     1
281
     1
  3
ACAD_XREC_ROUNDTRIP
360
4CD
  0
DICTIONARY
  5
4CE
330
1E
100
AcDbDictionary
280
     1
281
     1
  3
ACAD_XREC_ROUNDTRIP
360
4CF
  0
XRECORD
  5
4CD
102
{ACAD_REACTORS
330
4CC
102
}
330
4CC
100
AcDbXrecord
280
     1
102
SHADEPLOT
 70
     0
102
SHADEPLOTRESLEVEL
 70
     2
102
SHADEPLOTCUSTOMDPI
 70
   300
  0
XRECORD
  5
4CF
102
{ACAD_REACTORS
330
4CE
102
}
330
4CE
100
AcDbXrecord
280
     1
102
SHADEPLOT
 70
     0
102
SHADEPLOTRESLEVEL
 70
     2
102
SHADEPLOTCUSTOMDPI
 70
   300
  0
ENDSEC
  0
EOF
