0
SECTION
2
HEADER
9
$ACADVER
1
AC1003
9
$INSBASE
10
0.0
20
0.0
30
0.0
9
$EXTMIN
10
0.000
20
0.000
30
0.0
9
$EXTMAX
10
774.000
20
412.000
30
0.0
9
$LIMMIN
10
0.000
20
0.000
9
$LIMMAX
10
774.000
20
412.000
9
$LTSCALE
40
1.0
9
$LUNITS
70
2
9
$LUPREC
70
3
9
$LIMCHECK
70
0
9
$UCSNAME
2

9
$UCSORG
10
0.0
20
0.0
30
0.0
9
$UCSXDIR
10
1.0
20
0.0
30
0.0
9
$UCSYDIR
10
0.0
20
1.0
30
0.0
9
$WORLDVIEW
70
1
9
$UNITMODE
70
0
0
ENDSEC
0
SECTION
2
TABLES
0
TABLE
2
VPORT
70
1
0
VPORT
2
*ACTIVE
70
0
10
0.0
20
0.0
11
1.0
21
1.0
12
387.000
22
206.000
13
0.0
23
0.0
14
1.0
24
1.0
15
0.0
25
0.0
16
0.0
26
0.0
36
1.0
17
0.0
27
0.0
37
0.0
40
500.0
41
0.532
42
50.0
43
0.0
44
0.0
50
0.0
51
0.0
71
0
72
100
73
1
74
1
75
0
76
0
77
0
78
0
0
ENDTAB
0
TABLE
2
LTYPE
70
1
0
LTYPE
2
CONTINUOUS
70
64
3
Solid line
72
65
73
0
40
0.000
0
ENDTAB
0
TABLE
2
LAYER
70
1
0
LAYER
2
0
70
64
62
7
6
CONTINUOUS
0
ENDTAB
0
ENDSEC
0
SECTION
2
BLOCKS
0
ENDSEC
0
SECTION
2
ENTITIES
0
POLYLINE
8
0
6
CONTINUOUS
66
1
62
7
10
0.0
20
0.0
30
0.000000
0
VERTEX
8
0
10
128.000000
20
296.000000
0
VERTEX
8
0
10
127.750000
20
299.750000
0
VERTEX
8
0
10
127.000000
20
300.000000
0
VERTEX
8
0
10
125.000000
20
299.000000
0
VERTEX
8
0
10
125.000000
20
297.000000
0
VERTEX
8
0
10
127.000000
20
296.000000
0
VERTEX
8
0
10
128.000000
20
296.000000
0
SEQEND
0
POLYLINE
8
0
6
CONTINUOUS
66
1
62
7
10
0.0
20
0.0
30
0.000000
0
VERTEX
8
0
10
643.000000
20
293.000000
0
VERTEX
8
0
10
646.000000
20
295.000000
0
VERTEX
8
0
10
646.000000
20
296.000000
0
VERTEX
8
0
10
644.100000
20
297.200000
0
VERTEX
8
0
10
643.000000
20
298.000000
0
VERTEX
8
0
10
642.000000
20
297.000000
0
VERTEX
8
0
10
642.000000
20
294.000000
0
VERTEX
8
0
10
643.000000
20
293.000000
0
SEQEND
0
POLYLINE
8
0
6
CONTINUOUS
66
1
62
7
10
0.0
20
0.0
30
0.000000
0
VERTEX
8
0
10
132.000000
20
289.000000
0
VERTEX
8
0
10
135.000000
20
290.000000
0
VERTEX
8
0
10
139.000000
20
294.000000
0
VERTEX
8
0
10
139.000000
20
302.000000
0
VERTEX
8
0
10
136.000000
20
305.000000
0
VERTEX
8
0
10
134.000000
20
305.000000
0
VERTEX
8
0
10
133.000000
20
304.000000
0
VERTEX
8
0
10
135.000000
20
301.000000
0
VERTEX
8
0
10
135.000000
20
299.000000
0
VERTEX
8
0
10
132.000000
20
296.000000
0
VERTEX
8
0
10
131.000000
20
297.000000
0
VERTEX
8
0
10
131.000000
20
305.000000
0
VERTEX
8
0
10
130.000000
20
306.000000
0
VERTEX
8
0
10
127.000000
20
306.000000
0
VERTEX
8
0
10
122.000000
20
302.000000
0
VERTEX
8
0
10
121.000000
20
299.000000
0
VERTEX
8
0
10
122.000000
20
294.000000
0
VERTEX
8
0
10
125.000000
20
291.000000
0
VERTEX
8
0
10
129.088235
20
289.352941
0
VERTEX
8
0
10
132.000000
20
289.000000
0
SEQEND
0
POLYLINE
8
0
6
CONTINUOUS
66
1
62
7
10
0.0
20
0.0
30
0.000000
0
VERTEX
8
0
10
529.000000
20
285.000000
0
VERTEX
8
0
10
525.000000
20
285.000000
0
SEQEND
0
POLYLINE
8
0
6
CONTINUOUS
66
1
62
7
10
0.0
20
0.0
30
0.000000
0
VERTEX
8
0
10
529.000000
20
285.000000
0
VERTEX
8
0
10
529.000000
20
286.000000
0
VERTEX
8
0
10
530.000000
20
287.000000
0
VERTEX
8
0
10
532.000000
20
287.000000
0
VERTEX
8
0
10
533.000000
20
286.000000
0
SEQEND
0
POLYLINE
8
0
6
CONTINUOUS
66
1
62
7
10
0.0
20
0.0
30
0.000000
0
VERTEX
8
0
10
529.000000
20
285.000000
0
VERTEX
8
0
10
533.000000
20
286.000000
0
SEQEND
0
POLYLINE
8
0
6
CONTINUOUS
66
1
62
7
10
0.0
20
0.0
30
0.000000
0
VERTEX
8
0
10
558.000000
20
285.000000
0
VERTEX
8
0
10
533.000000
20
286.000000
0
SEQEND
0
POLYLINE
8
0
6
CONTINUOUS
66
1
62
7
10
0.0
20
0.0
30
0.000000
0
VERTEX
8
0
10
290.000000
20
284.000000
0
VERTEX
8
0
10
289.000000
20
285.000000
0
VERTEX
8
0
10
266.000000
20
285.000000
0
VERTEX
8
0
10
265.000000
20
284.000000
0
SEQEND
0
POLYLINE
8
0
6
CONTINUOUS
66
1
62
7
10
0.0
20
0.0
30
0.000000
0
VERTEX
8
0
10
291.000000
20
284.000000
0
VERTEX
8
0
10
290.000000
20
284.000000
0
SEQEND
0
POLYLINE
8
0
6
CONTINUOUS
66
1
62
7
10
0.0
20
0.0
30
0.000000
0
VERTEX
8
0
10
520.000000
20
284.000000
0
VERTEX
8
0
10
517.000000
20
284.000000
0
SEQEND
0
POLYLINE
8
0
6
CONTINUOUS
66
1
62
7
10
0.0
20
0.0
30
0.000000
0
VERTEX
8
0
10
520.000000
20
284.000000
0
VERTEX
8
0
10
520.000000
20
285.000000
0
VERTEX
8
0
10
521.000000
20
286.000000
0
VERTEX
8
0
10
524.000000
20
286.000000
0
VERTEX
8
0
10
525.000000
20
285.000000
0
SEQEND
0
POLYLINE
8
0
6
CONTINUOUS
66
1
62
7
10
0.0
20
0.0
30
0.000000
0
VERTEX
8
0
10
520.000000
20
284.000000
0
VERTEX
8
0
10
525.000000
20
285.000000
0
SEQEND
0
POLYLINE
8
0
6
CONTINUOUS
66
1
62
7
10
0.0
20
0.0
30
0.000000
0
VERTEX
8
0
10
560.000000
20
284.000000
0
VERTEX
8
0
10
558.000000
20
285.000000
0
SEQEND
0
POLYLINE
8
0
6
CONTINUOUS
66
1
62
7
10
0.0
20
0.0
30
0.000000
0
VERTEX
8
0
10
560.000000
20
284.000000
0
VERTEX
8
0
10
560.000000
20
285.000000
0
VERTEX
8
0
10
559.000000
20
286.000000
0
VERTEX
8
0
10
558.000000
20
285.000000
0
SEQEND
0
POLYLINE
8
0
6
CONTINUOUS
66
1
62
7
10
0.0
20
0.0
30
0.000000
0
VERTEX
8
0
10
562.000000
20
284.000000
0
VERTEX
8
0
10
560.000000
20
284.000000
0
SEQEND
0
POLYLINE
8
0
6
CONTINUOUS
66
1
62
7
10
0.0
20
0.0
30
0.000000
0
VERTEX
8
0
10
258.000000
20
283.000000
0
VERTEX
8
0
10
259.000000
20
284.000000
0
VERTEX
8
0
10
265.000000
20
284.000000
0
SEQEND
0
POLYLINE
8
0
6
CONTINUOUS
66
1
62
7
10
0.0
20
0.0
30
0.000000
0
VERTEX
8
0
10
266.000000
20
283.000000
0
VERTEX
8
0
10
265.000000
20
284.000000
0
SEQEND
0
POLYLINE
8
0
6
CONTINUOUS
66
1
62
7
10
0.0
20
0.0
30
0.000000
0
VERTEX
8
0
10
317.000000
20
283.000000
0
VERTEX
8
0
10
307.044554
20
284.445545
0
VERTEX
8
0
10
292.000000
20
285.000000
0
VERTEX
8
0
10
291.000000
20
284.000000
0
SEQEND
0
POLYLINE
8
0
6
CONTINUOUS
66
1
62
7
10
0.0
20
0.0
30
0.000000
0
VERTEX
8
0
10
514.000000
20
283.000000
0
VERTEX
8
0
10
514.000000
20
284.000000
0
VERTEX
8
0
10
516.000000
20
285.000000
0
VERTEX
8
0
10
517.000000
20
284.000000
0
SEQEND
0
POLYLINE
8
0
6
CONTINUOUS
66
1
62
7
10
0.0
20
0.0
30
0.000000
0
VERTEX
8
0
10
514.000000
20
283.000000
0
VERTEX
8
0
10
517.000000
20
284.000000
0
SEQEND
0
POLYLINE
8
0
6
CONTINUOUS
66
1
62
7
10
0.0
20
0.0
30
0.000000
0
VERTEX
8
0
10
564.000000
20
283.000000
0
VERTEX
8
0
10
562.000000
20
284.000000
0
SEQEND
0
POLYLINE
8
0
6
CONTINUOUS
66
1
62
7
10
0.0
20
0.0
30
0.000000
0
VERTEX
8
0
10
564.000000
20
283.000000
0
VERTEX
8
0
10
564.000000
20
284.000000
0
VERTEX
8
0
10
563.000000
20
285.000000
0
VERTEX
8
0
10
562.000000
20
284.000000
0
SEQEND
0
POLYLINE
8
0
6
CONTINUOUS
66
1
62
7
10
0.0
20
0.0
30
0.000000
0
VERTEX
8
0
10
566.000000
20
283.000000
0
VERTEX
8
0
10
564.000000
20
283.000000
0
SEQEND
0
POLYLINE
8
0
6
CONTINUOUS
66
1
62
7
10
0.0
20
0.0
30
0.000000
0
VERTEX
8
0
10
568.000000
20
283.000000
0
VERTEX
8
0
10
567.000000
20
284.000000
0
VERTEX
8
0
10
566.000000
20
283.000000
0
SEQEND
0
POLYLINE
8
0
6
CONTINUOUS
66
1
62
7
10
0.0
20
0.0
30
0.000000
0
VERTEX
8
0
10
259.000000
20
282.000000
0
VERTEX
8
0
10
258.000000
20
283.000000
0
SEQEND
0
POLYLINE
8
0
6
CONTINUOUS
66
1
62
7
10
0.0
20
0.0
30
0.000000
0
VERTEX
8
0
10
316.000000
20
282.000000
0
VERTEX
8
0
10
317.000000
20
283.000000
0
SEQEND
0
POLYLINE
8
0
6
CONTINUOUS
66
1
62
7
10
0.0
20
0.0
30
0.000000
0
VERTEX
8
0
10
568.000000
20
282.000000
0
VERTEX
8
0
10
566.000000
20
283.000000
0
SEQEND
0
POLYLINE
8
0
6
CONTINUOUS
66
1
62
7
10
0.0
20
0.0
30
0.000000
0
VERTEX
8
0
10
568.000000
20
282.000000
0
VERTEX
8
0
10
568.000000
20
283.000000
0
SEQEND
0
POLYLINE
8
0
6
CONTINUOUS
66
1
62
7
10
0.0
20
0.0
30
0.000000
0
VERTEX
8
0
10
243.000000
20
281.000000
0
VERTEX
8
0
10
242.000000
20
282.000000
0
VERTEX
8
0
10
241.000000
20
281.000000
0
SEQEND
0
POLYLINE
8
0
6
CONTINUOUS
66
1
62
7
10
0.0
20
0.0
30
0.000000
0
VERTEX
8
0
10
247.000000
20
281.000000
0
VERTEX
8
0
10
243.000000
20
281.000000
0
SEQEND
0
POLYLINE
8
0
6
CONTINUOUS
66
1
62
7
10
0.0
20
0.0
30
0.000000
0
VERTEX
8
0
10
247.000000
20
281.000000
0
VERTEX
8
0
10
247.000000
20
282.000000
0
VERTEX
8
0
10
248.000000
20
283.000000
0
VERTEX
8
0
10
249.000000
20
282.000000
0
SEQEND
0
POLYLINE
8
0
6
CONTINUOUS
66
1
62
7
10
0.0
20
0.0
30
0.000000
0
VERTEX
8
0
10
248.000000
20
281.000000
0
VERTEX
8
0
10
247.000000
20
281.000000
0
SEQEND
0
POLYLINE
8
0
6
CONTINUOUS
66
1
62
7
10
0.0
20
0.0
30
0.000000
0
VERTEX
8
0
10
248.000000
20
281.000000
0
VERTEX
8
0
10
249.000000
20
282.000000
0
SEQEND
0
POLYLINE
8
0
6
CONTINUOUS
66
1
62
7
10
0.0
20
0.0
30
0.000000
0
VERTEX
8
0
10
250.000000
20
281.000000
0
VERTEX
8
0
10
249.000000
20
282.000000
0
SEQEND
0
POLYLINE
8
0
6
CONTINUOUS
66
1
62
7
10
0.0
20
0.0
30
0.000000
0
VERTEX
8
0
10
251.000000
20
281.000000
0
VERTEX
8
0
10
250.000000
20
281.000000
0
SEQEND
0
POLYLINE
8
0
6
CONTINUOUS
66
1
62
7
10
0.0
20
0.0
30
0.000000
0
VERTEX
8
0
10
251.000000
20
281.000000
0
VERTEX
8
0
10
253.000000
20
283.000000
0
VERTEX
8
0
10
258.000000
20
283.000000
0
SEQEND
0
POLYLINE
8
0
6
CONTINUOUS
66
1
62
7
10
0.0
20
0.0
30
0.000000
0
VERTEX
8
0
10
242.000000
20
280.000000
0
VERTEX
8
0
10
241.000000
20
281.000000
0
SEQEND
0
POLYLINE
8
0
6
CONTINUOUS
66
1
62
7
10
0.0
20
0.0
30
0.000000
0
VERTEX
8
0
10
242.000000
20
280.000000
0
VERTEX
8
0
10
243.000000
20
281.000000
0
SEQEND
0
POLYLINE
8
0
6
CONTINUOUS
66
1
62
7
10
0.0
20
0.0
30
0.000000
0
VERTEX
8
0
10
249.000000
20
280.000000
0
VERTEX
8
0
10
248.000000
20
281.000000
0
SEQEND
0
POLYLINE
8
0
6
CONTINUOUS
66
1
62
7
10
0.0
20
0.0
30
0.000000
0
VERTEX
8
0
10
249.000000
20
280.000000
0
VERTEX
8
0
10
250.000000
20
281.000000
0
SEQEND
0
POLYLINE
8
0
6
CONTINUOUS
66
1
62
7
10
0.0
20
0.0
30
0.000000
0
VERTEX
8
0
10
635.000000
20
280.000000
0
VERTEX
8
0
10
635.000000
20
281.000000
0
VERTEX
8
0
10
637.000000
20
283.000000
0
VERTEX
8
0
10
645.088235
20
286.647059
0
VERTEX
8
0
10
649.100000
20
287.800000
0
VERTEX
8
0
10
656.000000
20
293.000000
0
VERTEX
8
0
10
656.000000
20
296.000000
0
VERTEX
8
0
10
654.000000
20
298.000000
0
VERTEX
8
0
10
641.900000
20
301.800000
0
VERTEX
8
0
10
641.100000
20
302.200000
0
VERTEX
8
0
10
635.000000
20
305.000000
0
VERTEX
8
0
10
634.000000
20
307.000000
0
VERTEX
8
0
10
632.250000
20
306.750000
0
VERTEX
8
0
10
632.000000
20
306.000000
0
VERTEX
8
0
10
631.000000
20
300.000000
0
VERTEX
8
0
10
633.000000
20
298.000000
0
VERTEX
8
0
10
634.000000
20
298.000000
0
VERTEX
8
0
10
636.000000
20
300.000000
0
VERTEX
8
0
10
637.000000
20
299.000000
0
VERTEX
8
0
10
637.000000
20
292.000000
0
VERTEX
8
0
10
636.000000
20
291.000000
0
VERTEX
8
0
10
633.000000
20
293.000000
0
VERTEX
8
0
10
632.000000
20
292.000000
0
VERTEX
8
0
10
631.000000
20
290.000000
0
VERTEX
8
0
10
631.000000
20
283.000000
0
VERTEX
8
0
10
632.000000
20
281.000000
0
VERTEX
8
0
10
633.000000
20
280.000000
0
VERTEX
8
0
10
635.000000
20
280.000000
0
SEQEND
0
POLYLINE
8
0
6
CONTINUOUS
66
1
62
7
10
0.0
20
0.0
30
0.000000
0
VERTEX
8
0
10
242.000000
20
279.000000
0
VERTEX
8
0
10
242.000000
20
280.000000
0
SEQEND
0
POLYLINE
8
0
6
CONTINUOUS
66
1
62
7
10
0.0
20
0.0
30
0.000000
0
VERTEX
8
0
10
283.000000
20
279.000000
0
VERTEX
8
0
10
285.000000
20
282.000000
0
VERTEX
8
0
10
284.000000
20
283.000000
0
VERTEX
8
0
10
282.000000
20
283.000000
0
VERTEX
8
0
10
281.000000
20
282.000000
0
VERTEX
8
0
10
281.000000
20
280.000000
0
VERTEX
8
0
10
282.000000
20
279.000000
0
VERTEX
8
0
10
283.000000
20
279.000000
0
SEQEND
0
POLYLINE
8
0
6
CONTINUOUS
66
1
62
7
10
0.0
20
0.0
30
0.000000
0
VERTEX
8
0
10
290.000000
20
284.000000
0
VERTEX
8
0
10
289.000000
20
280.000000
0
VERTEX
8
0
10
290.000000
20
279.000000
0
VERTEX
8
0
10
292.000000
20
279.000000
0
VERTEX
8
0
10
293.000000
20
280.000000
0
VERTEX
8
0
10
291.000000
20
284.000000
0
SEQEND
0
POLYLINE
8
0
6
CONTINUOUS
66
1
62
7
10
0.0
20
0.0
30
0.000000
0
VERTEX
8
0
10
301.000000
20
279.000000
0
VERTEX
8
0
10
301.000000
20
282.000000
0
VERTEX
8
0
10
300.000000
20
283.000000
0
VERTEX
8
0
10
298.000000
20
283.000000
0
VERTEX
8
0
10
297.000000
20
282.000000
0
VERTEX
8
0
10
297.250000
20
279.250000
0
VERTEX
8
0
10
300.000000
20
279.000000
0
VERTEX
8
0
10
301.000000
20
279.000000
0
SEQEND
0
POLYLINE
8
0
6
CONTINUOUS
66
1
62
7
10
0.0
20
0.0
30
0.000000
0
VERTEX
8
0
10
341.000000
20
279.000000
0
VERTEX
8
0
10
339.911765
20
279.647059
0
VERTEX
8
0
10
325.955446
20
282.554455
0
VERTEX
8
0
10
317.000000
20
283.000000
0
SEQEND
0
POLYLINE
8
0
6
CONTINUOUS
66
1
62
7
10
0.0
20
0.0
30
0.000000
0
VERTEX
8
0
10
494.000000
20
279.000000
0
VERTEX
8
0
10
494.900000
20
279.200000
0
VERTEX
8
0
10
509.076923
20
282.615385
0
VERTEX
8
0
10
514.000000
20
283.000000
0
SEQEND
0
POLYLINE
8
0
6
CONTINUOUS
66
1
62
7
10
0.0
20
0.0
30
0.000000
0
VERTEX
8
0
10
636.000000
20
279.000000
0
VERTEX
8
0
10
635.000000
20
280.000000
0
SEQEND
0
POLYLINE
8
0
6
CONTINUOUS
66
1
62
7
10
0.0
20
0.0
30
0.000000
0
VERTEX
8
0
10
232.000000
20
278.000000
0
VERTEX
8
0
10
241.000000
20
281.000000
0
SEQEND
0
POLYLINE
8
0
6
CONTINUOUS
66
1
62
7
10
0.0
20
0.0
30
0.000000
0
VERTEX
8
0
10
266.000000
20
283.000000
0
VERTEX
8
0
10
265.352941
20
281.911765
0
VERTEX
8
0
10
265.250000
20
278.250000
0
VERTEX
8
0
10
268.750000
20
278.250000
0
VERTEX
8
0
10
269.000000
20
279.000000
0
VERTEX
8
0
10
269.000000
20
282.000000
0
VERTEX
8
0
10
268.000000
20
283.000000
0
VERTEX
8
0
10
266.000000
20
283.000000
0
SEQEND
0
POLYLINE
8
0
6
CONTINUOUS
66
1
62
7
10
0.0
20
0.0
30
0.000000
0
VERTEX
8
0
10
274.000000
20
278.000000
0
VERTEX
8
0
10
276.760000
20
281.180000
0
VERTEX
8
0
10
276.750000
20
282.750000
0
VERTEX
8
0
10
273.250000
20
282.750000
0
VERTEX
8
0
10
273.000000
20
282.000000
0
VERTEX
8
0
10
274.000000
20
278.000000
0
SEQEND
0
POLYLINE
8
0
6
CONTINUOUS
66
1
62
7
10
0.0
20
0.0
30
0.000000
0
VERTEX
8
0
10
309.000000
20
278.000000
0
VERTEX
8
0
10
309.000000
20
281.000000
0
VERTEX
8
0
10
308.000000
20
282.000000
0
VERTEX
8
0
10
306.000000
20
282.000000
0
VERTEX
8
0
10
305.000000
20
281.000000
0
VERTEX
8
0
10
305.000000
20
279.000000
0
VERTEX
8
0
10
306.000000
20
278.000000
0
VERTEX
8
0
10
309.000000
20
278.000000
0
SEQEND
0
POLYLINE
8
0
6
CONTINUOUS
66
1
62
7
10
0.0
20
0.0
30
0.000000
0
VERTEX
8
0
10
340.000000
20
278.000000
0
VERTEX
8
0
10
341.000000
20
279.000000
0
SEQEND
0
POLYLINE
8
0
6
CONTINUOUS
66
1
62
7
10
0.0
20
0.0
30
0.000000
0
VERTEX
8
0
10
532.000000
20
278.000000
0
VERTEX
8
0
10
534.000000
20
280.000000
0
VERTEX
8
0
10
534.000000
20
281.000000
0
VERTEX
8
0
10
532.000000
20
283.000000
0
VERTEX
8
0
10
531.000000
20
282.000000
0
VERTEX
8
0
10
531.000000
20
279.000000
0
VERTEX
8
0
10
532.000000
20
278.000000
0
SEQEND
0
POLYLINE
8
0
6
CONTINUOUS
66
1
62
7
10
0.0
20
0.0
30
0.000000
0
VERTEX
8
0
10
541.000000
20
278.000000
0
VERTEX
8
0
10
543.000000
20
280.000000
0
VERTEX
8
0
10
543.000000
20
281.000000
0
VERTEX
8
0
10
541.000000
20
283.000000
0
VERTEX
8
0
10
540.000000
20
283.000000
0
VERTEX
8
0
10
539.000000
20
282.000000
0
VERTEX
8
0
10
539.000000
20
279.000000
0
VERTEX
8
0
10
540.000000
20
278.000000
0
VERTEX
8
0
10
541.000000
20
278.000000
0
SEQEND
0
POLYLINE
8
0
6
CONTINUOUS
66
1
62
7
10
0.0
20
0.0
30
0.000000
0
VERTEX
8
0
10
549.000000
20
278.000000
0
VERTEX
8
0
10
550.400000
20
280.200000
0
VERTEX
8
0
10
549.000000
20
283.000000
0
VERTEX
8
0
10
548.000000
20
283.000000
0
VERTEX
8
0
10
546.800000
20
281.100000
0
VERTEX
8
0
10
546.000000
20
280.000000
0
VERTEX
8
0
10
547.000000
20
278.000000
0
VERTEX
8
0
10
549.000000
20
278.000000
0
SEQEND
0
POLYLINE
8
0
6
CONTINUOUS
66
1
62
7
10
0.0
20
0.0
30
0.000000
0
VERTEX
8
0
10
569.000000
20
278.000000
0
VERTEX
8
0
10
568.000000
20
282.000000
0
SEQEND
0
POLYLINE
8
0
6
CONTINUOUS
66
1
62
7
10
0.0
20
0.0
30
0.000000
0
VERTEX
8
0
10
138.000000
20
277.000000
0
VERTEX
8
0
10
138.000000
20
278.000000
0
SEQEND
0
POLYLINE
8
0
6
CONTINUOUS
66
1
62
7
10
0.0
20
0.0
30
0.000000
0
VERTEX
8
0
10
226.000000
20
277.000000
0
VERTEX
8
0
10
232.000000
20
278.000000
0
SEQEND
0
POLYLINE
8
0
6
CONTINUOUS
66
1
62
7
10
0.0
20
0.0
30
0.000000
0
VERTEX
8
0
10
233.000000
20
277.000000
0
VERTEX
8
0
10
232.000000
20
278.000000
0
SEQEND
0
POLYLINE
8
0
6
CONTINUOUS
66
1
62
7
10
0.0
20
0.0
30
0.000000
0
VERTEX
8
0
10
259.000000
20
282.000000
0
VERTEX
8
0
10
257.400000
20
279.800000
0
VERTEX
8
0
10
257.250000
20
277.250000
0
VERTEX
8
0
10
260.750000
20
277.250000
0
VERTEX
8
0
10
261.000000
20
278.000000
0
VERTEX
8
0
10
261.000000
20
281.000000
0
VERTEX
8
0
10
259.000000
20
282.000000
0
SEQEND
0
POLYLINE
8
0
6
CONTINUOUS
66
1
62
7
10
0.0
20
0.0
30
0.000000
0
VERTEX
8
0
10
316.000000
20
282.000000
0
VERTEX
8
0
10
314.000000
20
282.000000
0
VERTEX
8
0
10
313.000000
20
281.000000
0
VERTEX
8
0
10
313.000000
20
278.000000
0
VERTEX
8
0
10
314.000000
20
277.000000
0
VERTEX
8
0
10
316.750000
20
277.250000
0
VERTEX
8
0
10
316.647059
20
280.911765
0
VERTEX
8
0
10
316.000000
20
282.000000
0
SEQEND
0
POLYLINE
8
0
6
CONTINUOUS
66
1
62
7
10
0.0
20
0.0
30
0.000000
0
VERTEX
8
0
10
487.000000
20
277.000000
0
VERTEX
8
0
10
492.000000
20
278.000000
0
SEQEND
0
POLYLINE
8
0
6
CONTINUOUS
66
1
62
7
10
0.0
20
0.0
30
0.000000
0
VERTEX
8
0
10
526.000000
20
277.000000
0
VERTEX
8
0
10
526.000000
20
278.000000
0
VERTEX
8
0
10
526.000000
20
281.000000
0
VERTEX
8
0
10
525.000000
20
282.000000
0
VERTEX
8
0
10
523.000000
20
282.000000
0
VERTEX
8
0
10
522.000000
20
281.000000
0
VERTEX
8
0
10
522.000000
20
279.000000
0
VERTEX
8
0
10
524.000000
20
277.000000
0
VERTEX
8
0
10
526.000000
20
277.000000
0
SEQEND
0
POLYLINE
8
0
6
CONTINUOUS
66
1
62
7
10
0.0
20
0.0
30
0.000000
0
VERTEX
8
0
10
558.000000
20
277.000000
0
VERTEX
8
0
10
559.000000
20
279.000000
0
VERTEX
8
0
10
559.000000
20
280.000000
0
VERTEX
8
0
10
557.000000
20
282.000000
0
VERTEX
8
0
10
556.000000
20
282.000000
0
VERTEX
8
0
10
555.000000
20
281.000000
0
VERTEX
8
0
10
555.250000
20
277.250000
0
VERTEX
8
0
10
557.000000
20
277.000000
0
VERTEX
8
0
10
558.000000
20
277.000000
0
SEQEND
0
POLYLINE
8
0
6
CONTINUOUS
66
1
62
7
10
0.0
20
0.0
30
0.000000
0
VERTEX
8
0
10
138.000000
20
278.000000
0
VERTEX
8
0
10
136.100000
20
279.200000
0
VERTEX
8
0
10
135.000000
20
280.000000
0
VERTEX
8
0
10
128.000000
20
279.000000
0
VERTEX
8
0
10
127.000000
20
278.000000
0
VERTEX
8
0
10
127.250000
20
276.250000
0
VERTEX
8
0
10
135.951220
20
276.439024
0
VERTEX
8
0
10
138.000000
20
277.000000
0
SEQEND
0
POLYLINE
8
0
6
CONTINUOUS
66
1
62
7
10
0.0
20
0.0
30
0.000000
0
VERTEX
8
0
10
224.000000
20
276.000000
0
VERTEX
8
0
10
223.000000
20
276.000000
0
SEQEND
0
POLYLINE
8
0
6
CONTINUOUS
66
1
62
7
10
0.0
20
0.0
30
0.000000
0
VERTEX
8
0
10
325.000000
20
276.000000
0
VERTEX
8
0
10
325.000000
20
279.000000
0
VERTEX
8
0
10
324.000000
20
280.000000
0
VERTEX
8
0
10
321.250000
20
279.750000
0
VERTEX
8
0
10
321.000000
20
277.000000
0
VERTEX
8
0
10
321.250000
20
276.250000
0
VERTEX
8
0
10
324.000000
20
276.000000
0
VERTEX
8
0
10
325.000000
20
276.000000
0
SEQEND
0
POLYLINE
8
0
6
CONTINUOUS
66
1
62
7
10
0.0
20
0.0
30
0.000000
0
VERTEX
8
0
10
355.000000
20
276.000000
0
VERTEX
8
0
10
341.000000
20
279.000000
0
SEQEND
0
POLYLINE
8
0
6
CONTINUOUS
66
1
62
7
10
0.0
20
0.0
30
0.000000
0
VERTEX
8
0
10
518.000000
20
276.000000
0
VERTEX
8
0
10
517.750000
20
280.750000
0
VERTEX
8
0
10
517.000000
20
281.000000
0
VERTEX
8
0
10
516.000000
20
281.000000
0
VERTEX
8
0
10
514.000000
20
279.000000
0
VERTEX
8
0
10
514.000000
20
277.000000
0
VERTEX
8
0
10
515.000000
20
276.000000
0
VERTEX
8
0
10
518.000000
20
276.000000
0
SEQEND
0
POLYLINE
8
0
6
CONTINUOUS
66
1
62
7
10
0.0
20
0.0
30
0.000000
0
VERTEX
8
0
10
249.000000
20
280.000000
0
VERTEX
8
0
10
249.000000
20
276.000000
0
VERTEX
8
0
10
250.000000
20
275.000000
0
VERTEX
8
0
10
252.000000
20
275.000000
0
VERTEX
8
0
10
253.000000
20
277.000000
0
VERTEX
8
0
10
251.000000
20
281.000000
0
SEQEND
0
POLYLINE
8
0
6
CONTINUOUS
66
1
62
7
10
0.0
20
0.0
30
0.000000
0
VERTEX
8
0
10
332.000000
20
275.000000
0
VERTEX
8
0
10
332.700000
20
276.100000
0
VERTEX
8
0
10
332.750000
20
278.750000
0
VERTEX
8
0
10
332.000000
20
279.000000
0
VERTEX
8
0
10
330.000000
20
279.000000
0
VERTEX
8
0
10
329.000000
20
278.000000
0
VERTEX
8
0
10
329.000000
20
276.000000
0
VERTEX
8
0
10
330.000000
20
275.000000
0
VERTEX
8
0
10
332.000000
20
275.000000
0
SEQEND
0
POLYLINE
8
0
6
CONTINUOUS
66
1
62
7
10
0.0
20
0.0
30
0.000000
0
VERTEX
8
0
10
557.000000
20
275.000000
0
VERTEX
8
0
10
558.000000
20
277.000000
0
SEQEND
0
POLYLINE
8
0
6
CONTINUOUS
66
1
62
7
10
0.0
20
0.0
30
0.000000
0
VERTEX
8
0
10
242.000000
20
279.000000
0
VERTEX
8
0
10
241.352941
20
277.911765
0
VERTEX
8
0
10
241.250000
20
274.250000
0
VERTEX
8
0
10
242.000000
20
274.000000
0
VERTEX
8
0
10
244.000000
20
275.000000
0
VERTEX
8
0
10
244.200000
20
275.900000
0
VERTEX
8
0
10
245.000000
20
277.000000
0
VERTEX
8
0
10
243.000000
20
279.000000
0
VERTEX
8
0
10
242.000000
20
279.000000
0
SEQEND
0
POLYLINE
8
0
6
CONTINUOUS
66
1
62
7
10
0.0
20
0.0
30
0.000000
0
VERTEX
8
0
10
481.000000
20
274.000000
0
VERTEX
8
0
10
485.000000
20
276.000000
0
SEQEND
0
POLYLINE
8
0
6
CONTINUOUS
66
1
62
7
10
0.0
20
0.0
30
0.000000
0
VERTEX
8
0
10
509.000000
20
274.000000
0
VERTEX
8
0
10
511.000000
20
276.000000
0
VERTEX
8
0
10
510.000000
20
279.000000
0
VERTEX
8
0
10
509.000000
20
280.000000
0
VERTEX
8
0
10
507.000000
20
279.000000
0
VERTEX
8
0
10
507.000000
20
275.000000
0
VERTEX
8
0
10
508.000000
20
274.000000
0
VERTEX
8
0
10
509.000000
20
274.000000
0
SEQEND
0
POLYLINE
8
0
6
CONTINUOUS
66
1
62
7
10
0.0
20
0.0
30
0.000000
0
VERTEX
8
0
10
340.000000
20
278.000000
0
VERTEX
8
0
10
338.000000
20
278.000000
0
VERTEX
8
0
10
337.000000
20
277.000000
0
VERTEX
8
0
10
337.000000
20
275.000000
0
VERTEX
8
0
10
339.000000
20
273.000000
0
VERTEX
8
0
10
340.750000
20
273.250000
0
VERTEX
8
0
10
340.000000
20
278.000000
0
SEQEND
0
POLYLINE
8
0
6
CONTINUOUS
66
1
62
7
10
0.0
20
0.0
30
0.000000
0
VERTEX
8
0
10
362.000000
20
273.000000
0
VERTEX
8
0
10
360.900000
20
273.700000
0
VERTEX
8
0
10
357.000000
20
275.000000
0
VERTEX
8
0
10
356.000000
20
274.000000
0
SEQEND
0
POLYLINE
8
0
6
CONTINUOUS
66
1
62
7
10
0.0
20
0.0
30
0.000000
0
VERTEX
8
0
10
482.000000
20
273.000000
0
VERTEX
8
0
10
481.000000
20
274.000000
0
SEQEND
0
POLYLINE
8
0
6
CONTINUOUS
66
1
62
7
10
0.0
20
0.0
30
0.000000
0
VERTEX
8
0
10
233.000000
20
277.000000
0
VERTEX
8
0
10
233.250000
20
272.250000
0
VERTEX
8
0
10
234.000000
20
272.000000
0
VERTEX
8
0
10
235.000000
20
272.000000
0
VERTEX
8
0
10
237.000000
20
274.000000
0
VERTEX
8
0
10
237.000000
20
276.000000
0
VERTEX
8
0
10
236.000000
20
277.000000
0
VERTEX
8
0
10
233.000000
20
277.000000
0
SEQEND
0
POLYLINE
8
0
6
CONTINUOUS
66
1
62
7
10
0.0
20
0.0
30
0.000000
0
VERTEX
8
0
10
362.000000
20
272.000000
0
VERTEX
8
0
10
362.000000
20
273.000000
0
SEQEND
0
POLYLINE
8
0
6
CONTINUOUS
66
1
62
7
10
0.0
20
0.0
30
0.000000
0
VERTEX
8
0
10
365.000000
20
272.000000
0
VERTEX
8
0
10
362.000000
20
273.000000
0
SEQEND
0
POLYLINE
8
0
6
CONTINUOUS
66
1
62
7
10
0.0
20
0.0
30
0.000000
0
VERTEX
8
0
10
501.000000
20
272.000000
0
VERTEX
8
0
10
501.615385
20
273.076923
0
VERTEX
8
0
10
501.750000
20
277.750000
0
VERTEX
8
0
10
501.000000
20
278.000000
0
VERTEX
8
0
10
500.000000
20
278.000000
0
VERTEX
8
0
10
498.000000
20
276.000000
0
VERTEX
8
0
10
498.000000
20
273.000000
0
VERTEX
8
0
10
499.000000
20
272.000000
0
VERTEX
8
0
10
501.000000
20
272.000000
0
SEQEND
0
POLYLINE
8
0
6
CONTINUOUS
66
1
62
7
10
0.0
20
0.0
30
0.000000
0
VERTEX
8
0
10
364.000000
20
271.000000
0
VERTEX
8
0
10
362.000000
20
272.000000
0
SEQEND
0
POLYLINE
8
0
6
CONTINUOUS
66
1
62
7
10
0.0
20
0.0
30
0.000000
0
VERTEX
8
0
10
364.000000
20
271.000000
0
VERTEX
8
0
10
365.000000
20
272.000000
0
SEQEND
0
POLYLINE
8
0
6
CONTINUOUS
66
1
62
7
10
0.0
20
0.0
30
0.000000
0
VERTEX
8
0
10
369.000000
20
271.000000
0
VERTEX
8
0
10
365.000000
20
272.000000
0
SEQEND
0
POLYLINE
8
0
6
CONTINUOUS
66
1
62
7
10
0.0
20
0.0
30
0.000000
0
VERTEX
8
0
10
371.000000
20
271.000000
0
VERTEX
8
0
10
370.000000
20
272.000000
0
VERTEX
8
0
10
369.000000
20
271.000000
0
SEQEND
0
POLYLINE
8
0
6
CONTINUOUS
66
1
62
7
10
0.0
20
0.0
30
0.000000
0
VERTEX
8
0
10
347.000000
20
270.000000
0
VERTEX
8
0
10
346.000000
20
270.000000
0
SEQEND
0
POLYLINE
8
0
6
CONTINUOUS
66
1
62
7
10
0.0
20
0.0
30
0.000000
0
VERTEX
8
0
10
347.000000
20
270.000000
0
VERTEX
8
0
10
349.000000
20
272.000000
0
VERTEX
8
0
10
348.000000
20
275.000000
0
VERTEX
8
0
10
347.000000
20
276.000000
0
VERTEX
8
0
10
345.000000
20
275.000000
0
VERTEX
8
0
10
346.000000
20
270.000000
0
SEQEND
0
POLYLINE
8
0
6
CONTINUOUS
66
1
62
7
10
0.0
20
0.0
30
0.000000
0
VERTEX
8
0
10
370.000000
20
270.000000
0
VERTEX
8
0
10
369.000000
20
271.000000
0
SEQEND
0
POLYLINE
8
0
6
CONTINUOUS
66
1
62
7
10
0.0
20
0.0
30
0.000000
0
VERTEX
8
0
10
371.000000
20
270.000000
0
VERTEX
8
0
10
370.000000
20
270.000000
0
SEQEND
0
POLYLINE
8
0
6
CONTINUOUS
66
1
62
7
10
0.0
20
0.0
30
0.000000
0
VERTEX
8
0
10
371.000000
20
270.000000
0
VERTEX
8
0
10
371.000000
20
271.000000
0
SEQEND
0
POLYLINE
8
0
6
CONTINUOUS
66
1
62
7
10
0.0
20
0.0
30
0.000000
0
VERTEX
8
0
10
376.000000
20
270.000000
0
VERTEX
8
0
10
375.000000
20
271.000000
0
VERTEX
8
0
10
373.000000
20
270.000000
0
SEQEND
0
POLYLINE
8
0
6
CONTINUOUS
66
1
62
7
10
0.0
20
0.0
30
0.000000
0
VERTEX
8
0
10
464.000000
20
270.000000
0
VERTEX
8
0
10
481.000000
20
274.000000
0
SEQEND
0
POLYLINE
8
0
6
CONTINUOUS
66
1
62
7
10
0.0
20
0.0
30
0.000000
0
VERTEX
8
0
10
492.000000
20
270.000000
0
VERTEX
8
0
10
493.482759
20
272.206897
0
VERTEX
8
0
10
493.750000
20
275.750000
0
VERTEX
8
0
10
493.000000
20
276.000000
0
VERTEX
8
0
10
492.000000
20
276.000000
0
VERTEX
8
0
10
490.000000
20
274.000000
0
VERTEX
8
0
10
490.000000
20
271.000000
0
VERTEX
8
0
10
492.000000
20
270.000000
0
SEQEND
0
POLYLINE
8
0
6
CONTINUOUS
66
1
62
7
10
0.0
20
0.0
30
0.000000
0
VERTEX
8
0
10
226.000000
20
269.000000
0
VERTEX
8
0
10
229.000000
20
272.000000
0
VERTEX
8
0
10
229.000000
20
273.000000
0
VERTEX
8
0
10
227.000000
20
275.000000
0
VERTEX
8
0
10
224.000000
20
272.000000
0
VERTEX
8
0
10
224.000000
20
270.000000
0
VERTEX
8
0
10
226.000000
20
269.000000
0
SEQEND
0
POLYLINE
8
0
6
CONTINUOUS
66
1
62
7
10
0.0
20
0.0
30
0.000000
0
VERTEX
8
0
10
356.000000
20
274.000000
0
VERTEX
8
0
10
354.250000
20
273.750000
0
VERTEX
8
0
10
354.000000
20
270.000000
0
VERTEX
8
0
10
354.250000
20
269.250000
0
VERTEX
8
0
10
356.000000
20
269.000000
0
VERTEX
8
0
10
356.750000
20
269.250000
0
VERTEX
8
0
10
356.647059
20
272.911765
0
VERTEX
8
0
10
356.000000
20
274.000000
0
SEQEND
0
POLYLINE
8
0
6
CONTINUOUS
66
1
62
7
10
0.0
20
0.0
30
0.000000
0
VERTEX
8
0
10
372.000000
20
269.000000
0
VERTEX
8
0
10
371.000000
20
270.000000
0
SEQEND
0
POLYLINE
8
0
6
CONTINUOUS
66
1
62
7
10
0.0
20
0.0
30
0.000000
0
VERTEX
8
0
10
372.000000
20
269.000000
0
VERTEX
8
0
10
373.000000
20
270.000000
0
SEQEND
0
POLYLINE
8
0
6
CONTINUOUS
66
1
62
7
10
0.0
20
0.0
30
0.000000
0
VERTEX
8
0
10
374.000000
20
269.000000
0
VERTEX
8
0
10
373.000000
20
270.000000
0
SEQEND
0
POLYLINE
8
0
6
CONTINUOUS
66
1
62
7
10
0.0
20
0.0
30
0.000000
0
VERTEX
8
0
10
376.000000
20
269.000000
0
VERTEX
8
0
10
374.000000
20
269.000000
0
SEQEND
0
POLYLINE
8
0
6
CONTINUOUS
66
1
62
7
10
0.0
20
0.0
30
0.000000
0
VERTEX
8
0
10
376.000000
20
269.000000
0
VERTEX
8
0
10
376.000000
20
270.000000
0
SEQEND
0
POLYLINE
8
0
6
CONTINUOUS
66
1
62
7
10
0.0
20
0.0
30
0.000000
0
VERTEX
8
0
10
373.000000
20
268.000000
0
VERTEX
8
0
10
372.000000
20
269.000000
0
SEQEND
0
POLYLINE
8
0
6
CONTINUOUS
66
1
62
7
10
0.0
20
0.0
30
0.000000
0
VERTEX
8
0
10
373.000000
20
268.000000
0
VERTEX
8
0
10
374.000000
20
269.000000
0
SEQEND
0
POLYLINE
8
0
6
CONTINUOUS
66
1
62
7
10
0.0
20
0.0
30
0.000000
0
VERTEX
8
0
10
378.000000
20
268.000000
0
VERTEX
8
0
10
376.000000
20
269.000000
0
SEQEND
0
POLYLINE
8
0
6
CONTINUOUS
66
1
62
7
10
0.0
20
0.0
30
0.000000
0
VERTEX
8
0
10
378.000000
20
268.000000
0
VERTEX
8
0
10
378.000000
20
269.000000
0
VERTEX
8
0
10
376.000000
20
270.000000
0
SEQEND
0
POLYLINE
8
0
6
CONTINUOUS
66
1
62
7
10
0.0
20
0.0
30
0.000000
0
VERTEX
8
0
10
482.000000
20
273.000000
0
VERTEX
8
0
10
482.000000
20
269.000000
0
VERTEX
8
0
10
483.000000
20
268.000000
0
VERTEX
8
0
10
485.000000
20
268.000000
0
VERTEX
8
0
10
486.000000
20
269.000000
0
VERTEX
8
0
10
486.000000
20
273.000000
0
VERTEX
8
0
10
485.000000
20
274.000000
0
VERTEX
8
0
10
483.000000
20
273.000000
0
VERTEX
8
0
10
482.000000
20
273.000000
0
SEQEND
0
POLYLINE
8
0
6
CONTINUOUS
66
1
62
7
10
0.0
20
0.0
30
0.000000
0
VERTEX
8
0
10
645.000000
20
268.000000
0
VERTEX
8
0
10
645.000000
20
270.000000
0
VERTEX
8
0
10
644.000000
20
271.000000
0
VERTEX
8
0
10
642.000000
20
272.000000
0
VERTEX
8
0
10
638.000000
20
272.000000
0
VERTEX
8
0
10
636.000000
20
270.000000
0
VERTEX
8
0
10
636.000000
20
269.000000
0
VERTEX
8
0
10
637.000000
20
268.000000
0
VERTEX
8
0
10
645.000000
20
268.000000
0
SEQEND
0
POLYLINE
8
0
6
CONTINUOUS
66
1
62
7
10
0.0
20
0.0
30
0.000000
0
VERTEX
8
0
10
127.000000
20
267.000000
0
VERTEX
8
0
10
126.000000
20
267.000000
0
VERTEX
8
0
10
125.000000
20
267.000000
0
VERTEX
8
0
10
123.000000
20
269.000000
0
VERTEX
8
0
10
122.000000
20
275.000000
0
VERTEX
8
0
10
123.000000
20
277.000000
0
VERTEX
8
0
10
122.000000
20
279.000000
0
VERTEX
8
0
10
122.000000
20
283.000000
0
VERTEX
8
0
10
124.000000
20
286.000000
0
VERTEX
8
0
10
134.955446
20
287.445545
0
VERTEX
8
0
10
138.750000
20
287.750000
0
VERTEX
8
0
10
138.000000
20
278.000000
0
SEQEND
0
POLYLINE
8
0
6
CONTINUOUS
66
1
62
7
10
0.0
20
0.0
30
0.000000
0
VERTEX
8
0
10
127.000000
20
267.000000
0
VERTEX
8
0
10
129.000000
20
269.000000
0
VERTEX
8
0
10
135.911765
20
267.647059
0
VERTEX
8
0
10
138.000000
20
267.000000
0
VERTEX
8
0
10
139.000000
20
268.000000
0
VERTEX
8
0
10
140.000000
20
270.000000
0
VERTEX
8
0
10
139.300000
20
274.100000
0
VERTEX
8
0
10
138.000000
20
277.000000
0
SEQEND
0
POLYLINE
8
0
6
CONTINUOUS
66
1
62
7
10
0.0
20
0.0
30
0.000000
0
VERTEX
8
0
10
218.000000
20
267.000000
0
VERTEX
8
0
10
220.000000
20
269.000000
0
VERTEX
8
0
10
220.000000
20
271.000000
0
VERTEX
8
0
10
219.000000
20
272.000000
0
VERTEX
8
0
10
217.000000
20
270.000000
0
VERTEX
8
0
10
217.000000
20
268.000000
0
VERTEX
8
0
10
218.000000
20
267.000000
0
SEQEND
0
POLYLINE
8
0
6
CONTINUOUS
66
1
62
7
10
0.0
20
0.0
30
0.000000
0
VERTEX
8
0
10
362.000000
20
267.000000
0
VERTEX
8
0
10
361.000000
20
271.000000
0
VERTEX
8
0
10
362.000000
20
272.000000
0
SEQEND
0
POLYLINE
8
0
6
CONTINUOUS
66
1
62
7
10
0.0
20
0.0
30
0.000000
0
VERTEX
8
0
10
362.000000
20
267.000000
0
VERTEX
8
0
10
364.000000
20
267.000000
0
VERTEX
8
0
10
365.000000
20
268.000000
0
VERTEX
8
0
10
365.000000
20
270.000000
0
VERTEX
8
0
10
364.000000
20
271.000000
0
SEQEND
0
POLYLINE
8
0
6
CONTINUOUS
66
1
62
7
10
0.0
20
0.0
30
0.000000
0
VERTEX
8
0
10
378.000000
20
267.000000
0
VERTEX
8
0
10
378.000000
20
268.000000
0
SEQEND
0
POLYLINE
8
0
6
CONTINUOUS
66
1
62
7
10
0.0
20
0.0
30
0.000000
0
VERTEX
8
0
10
381.000000
20
267.000000
0
VERTEX
8
0
10
378.000000
20
268.000000
0
SEQEND
0
POLYLINE
8
0
6
CONTINUOUS
66
1
62
7
10
0.0
20
0.0
30
0.000000
0
VERTEX
8
0
10
382.000000
20
267.000000
0
VERTEX
8
0
10
381.000000
20
267.000000
0
SEQEND
0
POLYLINE
8
0
6
CONTINUOUS
66
1
62
7
10
0.0
20
0.0
30
0.000000
0
VERTEX
8
0
10
127.000000
20
266.000000
0
VERTEX
8
0
10
127.000000
20
267.000000
0
SEQEND
0
POLYLINE
8
0
6
CONTINUOUS
66
1
62
7
10
0.0
20
0.0
30
0.000000
0
VERTEX
8
0
10
361.000000
20
266.000000
0
VERTEX
8
0
10
362.000000
20
267.000000
0
SEQEND
0
POLYLINE
8
0
6
CONTINUOUS
66
1
62
7
10
0.0
20
0.0
30
0.000000
0
VERTEX
8
0
10
380.000000
20
266.000000
0
VERTEX
8
0
10
378.000000
20
267.000000
0
SEQEND
0
POLYLINE
8
0
6
CONTINUOUS
66
1
62
7
10
0.0
20
0.0
30
0.000000
0
VERTEX
8
0
10
380.000000
20
266.000000
0
VERTEX
8
0
10
381.000000
20
267.000000
0
SEQEND
0
POLYLINE
8
0
6
CONTINUOUS
66
1
62
7
10
0.0
20
0.0
30
0.000000
0
VERTEX
8
0
10
447.000000
20
265.000000
0
VERTEX
8
0
10
462.000000
20
269.000000
0
SEQEND
0
POLYLINE
8
0
6
CONTINUOUS
66
1
62
7
10
0.0
20
0.0
30
0.000000
0
VERTEX
8
0
10
475.000000
20
265.000000
0
VERTEX
8
0
10
478.000000
20
268.000000
0
VERTEX
8
0
10
478.000000
20
269.000000
0
VERTEX
8
0
10
476.000000
20
271.000000
0
VERTEX
8
0
10
474.000000
20
269.000000
0
VERTEX
8
0
10
474.000000
20
266.000000
0
VERTEX
8
0
10
475.000000
20
265.000000
0
SEQEND
0
POLYLINE
8
0
6
CONTINUOUS
66
1
62
7
10
0.0
20
0.0
30
0.000000
0
VERTEX
8
0
10
211.000000
20
264.000000
0
VERTEX
8
0
10
212.000000
20
265.000000
0
VERTEX
8
0
10
212.000000
20
267.000000
0
VERTEX
8
0
10
210.000000
20
268.000000
0
VERTEX
8
0
10
209.000000
20
267.000000
0
VERTEX
8
0
10
209.000000
20
265.000000
0
VERTEX
8
0
10
210.000000
20
264.000000
0
VERTEX
8
0
10
211.000000
20
264.000000
0
SEQEND
0
POLYLINE
8
0
6
CONTINUOUS
66
1
62
7
10
0.0
20
0.0
30
0.000000
0
VERTEX
8
0
10
372.000000
20
264.000000
0
VERTEX
8
0
10
370.000000
20
265.000000
0
VERTEX
8
0
10
369.000000
20
266.000000
0
VERTEX
8
0
10
370.000000
20
270.000000
0
SEQEND
0
POLYLINE
8
0
6
CONTINUOUS
66
1
62
7
10
0.0
20
0.0
30
0.000000
0
VERTEX
8
0
10
372.000000
20
264.000000
0
VERTEX
8
0
10
373.000000
20
265.000000
0
VERTEX
8
0
10
373.000000
20
268.000000
0
SEQEND
0
POLYLINE
8
0
6
CONTINUOUS
66
1
62
7
10
0.0
20
0.0
30
0.000000
0
VERTEX
8
0
10
445.000000
20
264.000000
0
VERTEX
8
0
10
445.000000
20
265.000000
0
VERTEX
8
0
10
446.000000
20
266.000000
0
VERTEX
8
0
10
447.000000
20
265.000000
0
SEQEND
0
POLYLINE
8
0
6
CONTINUOUS
66
1
62
7
10
0.0
20
0.0
30
0.000000
0
VERTEX
8
0
10
445.000000
20
264.000000
0
VERTEX
8
0
10
447.000000
20
265.000000
0
SEQEND
0
POLYLINE
8
0
6
CONTINUOUS
66
1
62
7
10
0.0
20
0.0
30
0.000000
0
VERTEX
8
0
10
372.000000
20
263.000000
0
VERTEX
8
0
10
371.000000
20
263.000000
0
VERTEX
8
0
10
362.088235
20
265.352941
0
VERTEX
8
0
10
361.000000
20
266.000000
0
SEQEND
0
POLYLINE
8
0
6
CONTINUOUS
66
1
62
7
10
0.0
20
0.0
30
0.000000
0
VERTEX
8
0
10
372.000000
20
263.000000
0
VERTEX
8
0
10
372.000000
20
264.000000
0
SEQEND
0
POLYLINE
8
0
6
CONTINUOUS
66
1
62
7
10
0.0
20
0.0
30
0.000000
0
VERTEX
8
0
10
386.000000
20
263.000000
0
VERTEX
8
0
10
387.000000
20
265.000000
0
VERTEX
8
0
10
390.000000
20
265.000000
0
VERTEX
8
0
10
392.000000
20
264.000000
0
SEQEND
0
POLYLINE
8
0
6
CONTINUOUS
66
1
62
7
10
0.0
20
0.0
30
0.000000
0
VERTEX
8
0
10
396.000000
20
263.000000
0
VERTEX
8
0
10
392.000000
20
264.000000
0
SEQEND
0
POLYLINE
8
0
6
CONTINUOUS
66
1
62
7
10
0.0
20
0.0
30
0.000000
0
VERTEX
8
0
10
396.000000
20
263.000000
0
VERTEX
8
0
10
396.000000
20
264.000000
0
VERTEX
8
0
10
395.000000
20
265.000000
0
VERTEX
8
0
10
393.000000
20
265.000000
0
VERTEX
8
0
10
392.000000
20
264.000000
0
SEQEND
0
POLYLINE
8
0
6
CONTINUOUS
66
1
62
7
10
0.0
20
0.0
30
0.000000
0
VERTEX
8
0
10
443.000000
20
263.000000
0
VERTEX
8
0
10
445.000000
20
264.000000
0
SEQEND
0
POLYLINE
8
0
6
CONTINUOUS
66
1
62
7
10
0.0
20
0.0
30
0.000000
0
VERTEX
8
0
10
468.000000
20
263.000000
0
VERTEX
8
0
10
470.000000
20
265.000000
0
VERTEX
8
0
10
470.000000
20
267.000000
0
VERTEX
8
0
10
469.000000
20
268.000000
0
VERTEX
8
0
10
467.000000
20
268.000000
0
VERTEX
8
0
10
466.000000
20
267.000000
0
VERTEX
8
0
10
466.000000
20
264.000000
0
VERTEX
8
0
10
468.000000
20
263.000000
0
SEQEND
0
POLYLINE
8
0
6
CONTINUOUS
66
1
62
7
10
0.0
20
0.0
30
0.000000
0
VERTEX
8
0
10
378.000000
20
262.000000
0
VERTEX
8
0
10
377.000000
20
266.000000
0
VERTEX
8
0
10
378.000000
20
267.000000
0
SEQEND
0
POLYLINE
8
0
6
CONTINUOUS
66
1
62
7
10
0.0
20
0.0
30
0.000000
0
VERTEX
8
0
10
378.000000
20
262.000000
0
VERTEX
8
0
10
380.750000
20
262.250000
0
VERTEX
8
0
10
380.800000
20
263.900000
0
VERTEX
8
0
10
380.000000
20
266.000000
0
SEQEND
0
POLYLINE
8
0
6
CONTINUOUS
66
1
62
7
10
0.0
20
0.0
30
0.000000
0
VERTEX
8
0
10
443.000000
20
262.000000
0
VERTEX
8
0
10
443.000000
20
263.000000
0
SEQEND
0
POLYLINE
8
0
6
CONTINUOUS
66
1
62
7
10
0.0
20
0.0
30
0.000000
0
VERTEX
8
0
10
377.000000
20
261.000000
0
VERTEX
8
0
10
373.100000
20
262.200000
0
VERTEX
8
0
10
372.000000
20
263.000000
0
SEQEND
0
POLYLINE
8
0
6
CONTINUOUS
66
1
62
7
10
0.0
20
0.0
30
0.000000
0
VERTEX
8
0
10
377.000000
20
261.000000
0
VERTEX
8
0
10
378.000000
20
262.000000
0
SEQEND
0
POLYLINE
8
0
6
CONTINUOUS
66
1
62
7
10
0.0
20
0.0
30
0.000000
0
VERTEX
8
0
10
404.000000
20
261.000000
0
VERTEX
8
0
10
396.000000
20
263.000000
0
SEQEND
0
POLYLINE
8
0
6
CONTINUOUS
66
1
62
7
10
0.0
20
0.0
30
0.000000
0
VERTEX
8
0
10
460.000000
20
261.000000
0
VERTEX
8
0
10
461.600000
20
263.200000
0
VERTEX
8
0
10
461.750000
20
265.750000
0
VERTEX
8
0
10
461.000000
20
266.000000
0
VERTEX
8
0
10
459.000000
20
266.000000
0
VERTEX
8
0
10
458.000000
20
265.000000
0
VERTEX
8
0
10
458.000000
20
262.000000
0
VERTEX
8
0
10
459.000000
20
261.000000
0
VERTEX
8
0
10
460.000000
20
261.000000
0
SEQEND
0
POLYLINE
8
0
6
CONTINUOUS
66
1
62
7
10
0.0
20
0.0
30
0.000000
0
VERTEX
8
0
10
203.000000
20
260.000000
0
VERTEX
8
0
10
205.000000
20
263.000000
0
VERTEX
8
0
10
203.000000
20
265.000000
0
VERTEX
8
0
10
200.000000
20
262.000000
0
VERTEX
8
0
10
201.000000
20
260.000000
0
VERTEX
8
0
10
203.000000
20
260.000000
0
SEQEND
0
POLYLINE
8
0
6
CONTINUOUS
66
1
62
7
10
0.0
20
0.0
30
0.000000
0
VERTEX
8
0
10
403.000000
20
260.000000
0
VERTEX
8
0
10
404.000000
20
261.000000
0
SEQEND
0
POLYLINE
8
0
6
CONTINUOUS
66
1
62
7
10
0.0
20
0.0
30
0.000000
0
VERTEX
8
0
10
427.000000
20
260.000000
0
VERTEX
8
0
10
404.000000
20
261.000000
0
SEQEND
0
POLYLINE
8
0
6
CONTINUOUS
66
1
62
7
10
0.0
20
0.0
30
0.000000
0
VERTEX
8
0
10
427.000000
20
260.000000
0
VERTEX
8
0
10
428.088235
20
260.647059
0
VERTEX
8
0
10
443.000000
20
263.000000
0
SEQEND
0
POLYLINE
8
0
6
CONTINUOUS
66
1
62
7
10
0.0
20
0.0
30
0.000000
0
VERTEX
8
0
10
389.000000
20
259.000000
0
VERTEX
8
0
10
387.000000
20
259.000000
0
VERTEX
8
0
10
386.000000
20
260.000000
0
VERTEX
8
0
10
386.000000
20
263.000000
0
SEQEND
0
POLYLINE
8
0
6
CONTINUOUS
66
1
62
7
10
0.0
20
0.0
30
0.000000
0
VERTEX
8
0
10
389.000000
20
259.000000
0
VERTEX
8
0
10
389.000000
20
262.000000
0
VERTEX
8
0
10
388.000000
20
263.000000
0
VERTEX
8
0
10
386.000000
20
263.000000
0
SEQEND
0
POLYLINE
8
0
6
CONTINUOUS
66
1
62
7
10
0.0
20
0.0
30
0.000000
0
VERTEX
8
0
10
427.000000
20
259.000000
0
VERTEX
8
0
10
427.000000
20
260.000000
0
SEQEND
0
POLYLINE
8
0
6
CONTINUOUS
66
1
62
7
10
0.0
20
0.0
30
0.000000
0
VERTEX
8
0
10
451.000000
20
258.000000
0
VERTEX
8
0
10
454.000000
20
261.000000
0
VERTEX
8
0
10
454.000000
20
262.000000
0
VERTEX
8
0
10
452.000000
20
264.000000
0
VERTEX
8
0
10
450.000000
20
262.000000
0
VERTEX
8
0
10
450.000000
20
259.000000
0
VERTEX
8
0
10
451.000000
20
258.000000
0
SEQEND
0
POLYLINE
8
0
6
CONTINUOUS
66
1
62
7
10
0.0
20
0.0
30
0.000000
0
VERTEX
8
0
10
633.000000
20
258.000000
0
VERTEX
8
0
10
631.000000
20
264.000000
0
VERTEX
8
0
10
632.000000
20
268.000000
0
VERTEX
8
0
10
631.000000
20
270.000000
0
VERTEX
8
0
10
631.000000
20
274.000000
0
VERTEX
8
0
10
636.000000
20
279.000000
0
SEQEND
0
POLYLINE
8
0
6
CONTINUOUS
66
1
62
7
10
0.0
20
0.0
30
0.000000
0
VERTEX
8
0
10
634.000000
20
258.000000
0
VERTEX
8
0
10
633.000000
20
258.000000
0
SEQEND
0
POLYLINE
8
0
6
CONTINUOUS
66
1
62
7
10
0.0
20
0.0
30
0.000000
0
VERTEX
8
0
10
634.000000
20
258.000000
0
VERTEX
8
0
10
637.180000
20
259.740000
0
VERTEX
8
0
10
655.000000
20
261.000000
0
VERTEX
8
0
10
656.000000
20
262.000000
0
VERTEX
8
0
10
654.647059
20
265.911765
0
VERTEX
8
0
10
654.200000
20
267.100000
0
VERTEX
8
0
10
652.000000
20
270.000000
0
VERTEX
8
0
10
650.000000
20
268.000000
0
VERTEX
8
0
10
649.000000
20
269.000000
0
VERTEX
8
0
10
649.000000
20
274.000000
0
VERTEX
8
0
10
642.000000
20
280.000000
0
VERTEX
8
0
10
636.000000
20
279.000000
0
SEQEND
0
POLYLINE
8
0
6
CONTINUOUS
66
1
62
7
10
0.0
20
0.0
30
0.000000
0
VERTEX
8
0
10
389.000000
20
257.000000
0
VERTEX
8
0
10
389.000000
20
259.000000
0
SEQEND
0
POLYLINE
8
0
6
CONTINUOUS
66
1
62
7
10
0.0
20
0.0
30
0.000000
0
VERTEX
8
0
10
443.000000
20
262.000000
0
VERTEX
8
0
10
442.000000
20
261.000000
0
VERTEX
8
0
10
442.000000
20
258.000000
0
VERTEX
8
0
10
444.000000
20
257.000000
0
VERTEX
8
0
10
446.000000
20
259.000000
0
VERTEX
8
0
10
445.750000
20
261.750000
0
VERTEX
8
0
10
444.000000
20
262.000000
0
VERTEX
8
0
10
443.000000
20
262.000000
0
SEQEND
0
POLYLINE
8
0
6
CONTINUOUS
66
1
62
7
10
0.0
20
0.0
30
0.000000
0
VERTEX
8
0
10
451.000000
20
257.000000
0
VERTEX
8
0
10
451.000000
20
258.000000
0
SEQEND
0
POLYLINE
8
0
6
CONTINUOUS
66
1
62
7
10
0.0
20
0.0
30
0.000000
0
VERTEX
8
0
10
396.000000
20
256.000000
0
VERTEX
8
0
10
395.000000
20
256.000000
0
SEQEND
0
POLYLINE
8
0
6
CONTINUOUS
66
1
62
7
10
0.0
20
0.0
30
0.000000
0
VERTEX
8
0
10
396.000000
20
256.000000
0
VERTEX
8
0
10
397.000000
20
257.000000
0
VERTEX
8
0
10
397.000000
20
260.000000
0
VERTEX
8
0
10
396.000000
20
261.000000
0
VERTEX
8
0
10
394.000000
20
261.000000
0
VERTEX
8
0
10
393.000000
20
260.000000
0
VERTEX
8
0
10
393.000000
20
258.000000
0
VERTEX
8
0
10
395.000000
20
256.000000
0
SEQEND
0
POLYLINE
8
0
6
CONTINUOUS
66
1
62
7
10
0.0
20
0.0
30
0.000000
0
VERTEX
8
0
10
389.000000
20
257.000000
0
VERTEX
8
0
10
390.100000
20
256.300000
0
VERTEX
8
0
10
394.000000
20
255.000000
0
VERTEX
8
0
10
395.000000
20
256.000000
0
SEQEND
0
POLYLINE
8
0
6
CONTINUOUS
66
1
62
7
10
0.0
20
0.0
30
0.000000
0
VERTEX
8
0
10
403.000000
20
255.000000
0
VERTEX
8
0
10
401.600000
20
257.200000
0
VERTEX
8
0
10
402.200000
20
258.900000
0
VERTEX
8
0
10
403.000000
20
260.000000
0
SEQEND
0
POLYLINE
8
0
6
CONTINUOUS
66
1
62
7
10
0.0
20
0.0
30
0.000000
0
VERTEX
8
0
10
403.000000
20
255.000000
0
VERTEX
8
0
10
404.750000
20
255.250000
0
VERTEX
8
0
10
404.200000
20
258.100000
0
VERTEX
8
0
10
403.000000
20
260.000000
0
SEQEND
0
POLYLINE
8
0
6
CONTINUOUS
66
1
62
7
10
0.0
20
0.0
30
0.000000
0
VERTEX
8
0
10
435.000000
20
255.000000
0
VERTEX
8
0
10
437.000000
20
256.000000
0
VERTEX
8
0
10
438.000000
20
257.000000
0
VERTEX
8
0
10
438.000000
20
259.000000
0
VERTEX
8
0
10
437.000000
20
260.000000
0
VERTEX
8
0
10
435.000000
20
260.000000
0
VERTEX
8
0
10
434.000000
20
259.000000
0
VERTEX
8
0
10
434.000000
20
256.000000
0
VERTEX
8
0
10
435.000000
20
255.000000
0
SEQEND
0
POLYLINE
8
0
6
CONTINUOUS
66
1
62
7
10
0.0
20
0.0
30
0.000000
0
VERTEX
8
0
10
402.000000
20
254.000000
0
VERTEX
8
0
10
396.000000
20
256.000000
0
SEQEND
0
POLYLINE
8
0
6
CONTINUOUS
66
1
62
7
10
0.0
20
0.0
30
0.000000
0
VERTEX
8
0
10
402.000000
20
254.000000
0
VERTEX
8
0
10
403.000000
20
255.000000
0
SEQEND
0
POLYLINE
8
0
6
CONTINUOUS
66
1
62
7
10
0.0
20
0.0
30
0.000000
0
VERTEX
8
0
10
413.000000
20
254.000000
0
VERTEX
8
0
10
412.750000
20
257.750000
0
VERTEX
8
0
10
412.000000
20
258.000000
0
VERTEX
8
0
10
410.000000
20
258.000000
0
VERTEX
8
0
10
409.000000
20
257.000000
0
VERTEX
8
0
10
409.000000
20
255.000000
0
VERTEX
8
0
10
410.000000
20
254.000000
0
VERTEX
8
0
10
413.000000
20
254.000000
0
SEQEND
0
POLYLINE
8
0
6
CONTINUOUS
66
1
62
7
10
0.0
20
0.0
30
0.000000
0
VERTEX
8
0
10
421.000000
20
254.000000
0
VERTEX
8
0
10
420.750000
20
257.750000
0
VERTEX
8
0
10
420.000000
20
258.000000
0
VERTEX
8
0
10
419.000000
20
258.000000
0
VERTEX
8
0
10
417.000000
20
256.000000
0
VERTEX
8
0
10
417.000000
20
255.000000
0
VERTEX
8
0
10
418.000000
20
254.000000
0
VERTEX
8
0
10
421.000000
20
254.000000
0
SEQEND
0
POLYLINE
8
0
6
CONTINUOUS
66
1
62
7
10
0.0
20
0.0
30
0.000000
0
VERTEX
8
0
10
427.000000
20
259.000000
0
VERTEX
8
0
10
426.352941
20
257.911765
0
VERTEX
8
0
10
426.250000
20
254.250000
0
VERTEX
8
0
10
427.000000
20
254.000000
0
VERTEX
8
0
10
429.000000
20
255.000000
0
VERTEX
8
0
10
429.200000
20
255.900000
0
VERTEX
8
0
10
430.000000
20
257.000000
0
VERTEX
8
0
10
428.000000
20
259.000000
0
VERTEX
8
0
10
427.000000
20
259.000000
0
SEQEND
0
POLYLINE
8
0
6
CONTINUOUS
66
1
62
7
10
0.0
20
0.0
30
0.000000
0
VERTEX
8
0
10
202.000000
20
253.000000
0
VERTEX
8
0
10
202.000000
20
254.000000
0
VERTEX
8
0
10
202.000000
20
256.000000
0
VERTEX
8
0
10
201.000000
20
257.000000
0
VERTEX
8
0
10
200.000000
20
256.000000
0
VERTEX
8
0
10
200.000000
20
254.000000
0
VERTEX
8
0
10
202.000000
20
253.000000
0
SEQEND
0
POLYLINE
8
0
6
CONTINUOUS
66
1
62
7
10
0.0
20
0.0
30
0.000000
0
VERTEX
8
0
10
126.000000
20
249.000000
0
VERTEX
8
0
10
131.100000
20
250.800000
0
VERTEX
8
0
10
135.000000
20
254.000000
0
VERTEX
8
0
10
135.000000
20
255.000000
0
VERTEX
8
0
10
133.000000
20
257.000000
0
VERTEX
8
0
10
126.000000
20
257.000000
0
VERTEX
8
0
10
124.900000
20
256.300000
0
VERTEX
8
0
10
123.000000
20
256.000000
0
VERTEX
8
0
10
120.000000
20
253.000000
0
VERTEX
8
0
10
120.000000
20
251.000000
0
VERTEX
8
0
10
123.088235
20
249.352941
0
VERTEX
8
0
10
126.000000
20
249.000000
0
SEQEND
0
POLYLINE
8
0
6
CONTINUOUS
66
1
62
7
10
0.0
20
0.0
30
0.000000
0
VERTEX
8
0
10
202.000000
20
249.000000
0
VERTEX
8
0
10
202.000000
20
253.000000
0
SEQEND
0
POLYLINE
8
0
6
CONTINUOUS
66
1
62
7
10
0.0
20
0.0
30
0.000000
0
VERTEX
8
0
10
633.000000
20
248.000000
0
VERTEX
8
0
10
631.800000
20
249.900000
0
VERTEX
8
0
10
631.000000
20
251.000000
0
VERTEX
8
0
10
631.000000
20
256.000000
0
VERTEX
8
0
10
633.000000
20
258.000000
0
SEQEND
0
POLYLINE
8
0
6
CONTINUOUS
66
1
62
7
10
0.0
20
0.0
30
0.000000
0
VERTEX
8
0
10
634.000000
20
248.000000
0
VERTEX
8
0
10
633.000000
20
248.000000
0
SEQEND
0
POLYLINE
8
0
6
CONTINUOUS
66
1
62
7
10
0.0
20
0.0
30
0.000000
0
VERTEX
8
0
10
321.000000
20
246.000000
0
VERTEX
8
0
10
322.000000
20
247.000000
0
VERTEX
8
0
10
322.000000
20
273.000000
0
VERTEX
8
0
10
319.100000
20
274.300000
0
VERTEX
8
0
10
309.000000
20
276.000000
0
VERTEX
8
0
10
297.000000
20
276.000000
0
VERTEX
8
0
10
296.000000
20
275.000000
0
VERTEX
8
0
10
296.000000
20
248.000000
0
VERTEX
8
0
10
298.000000
20
246.000000
0
VERTEX
8
0
10
321.000000
20
246.000000
0
SEQEND
0
POLYLINE
8
0
6
CONTINUOUS
66
1
62
7
10
0.0
20
0.0
30
0.000000
0
VERTEX
8
0
10
634.000000
20
248.000000
0
VERTEX
8
0
10
634.000000
20
247.000000
0
VERTEX
8
0
10
635.000000
20
246.000000
0
VERTEX
8
0
10
643.000000
20
246.000000
0
VERTEX
8
0
10
644.000000
20
247.000000
0
VERTEX
8
0
10
642.000000
20
249.000000
0
VERTEX
8
0
10
635.000000
20
249.000000
0
VERTEX
8
0
10
634.000000
20
248.000000
0
SEQEND
0
POLYLINE
8
0
6
CONTINUOUS
66
1
62
7
10
0.0
20
0.0
30
0.000000
0
VERTEX
8
0
10
273.000000
20
245.000000
0
VERTEX
8
0
10
289.000000
20
246.000000
0
VERTEX
8
0
10
292.000000
20
249.000000
0
VERTEX
8
0
10
291.750000
20
275.750000
0
VERTEX
8
0
10
269.000000
20
276.000000
0
VERTEX
8
0
10
266.000000
20
273.000000
0
VERTEX
8
0
10
266.000000
20
246.000000
0
VERTEX
8
0
10
267.000000
20
245.000000
0
VERTEX
8
0
10
273.000000
20
245.000000
0
SEQEND
0
POLYLINE
8
0
6
CONTINUOUS
66
1
62
7
10
0.0
20
0.0
30
0.000000
0
VERTEX
8
0
10
541.000000
20
242.000000
0
VERTEX
8
0
10
537.000000
20
242.000000
0
VERTEX
8
0
10
535.000000
20
244.000000
0
VERTEX
8
0
10
535.250000
20
274.750000
0
VERTEX
8
0
10
557.000000
20
275.000000
0
SEQEND
0
POLYLINE
8
0
6
CONTINUOUS
66
1
62
7
10
0.0
20
0.0
30
0.000000
0
VERTEX
8
0
10
541.000000
20
242.000000
0
VERTEX
8
0
10
560.750000
20
243.250000
0
VERTEX
8
0
10
560.000000
20
273.000000
0
VERTEX
8
0
10
557.000000
20
275.000000
0
SEQEND
0
POLYLINE
8
0
6
CONTINUOUS
66
1
62
7
10
0.0
20
0.0
30
0.000000
0
VERTEX
8
0
10
127.000000
20
266.000000
0
VERTEX
8
0
10
121.900000
20
264.200000
0
VERTEX
8
0
10
116.000000
20
259.000000
0
VERTEX
8
0
10
115.000000
20
251.000000
0
VERTEX
8
0
10
116.300000
20
248.100000
0
VERTEX
8
0
10
116.800000
20
246.900000
0
VERTEX
8
0
10
120.000000
20
243.000000
0
VERTEX
8
0
10
122.100000
20
242.300000
0
VERTEX
8
0
10
123.900000
20
241.700000
0
VERTEX
8
0
10
125.000000
20
241.000000
0
VERTEX
8
0
10
130.000000
20
241.000000
0
VERTEX
8
0
10
132.900000
20
242.300000
0
VERTEX
8
0
10
134.100000
20
242.800000
0
VERTEX
8
0
10
138.000000
20
246.000000
0
VERTEX
8
0
10
138.700000
20
248.100000
0
VERTEX
8
0
10
139.300000
20
249.900000
0
VERTEX
8
0
10
140.000000
20
251.000000
0
VERTEX
8
0
10
140.000000
20
257.000000
0
VERTEX
8
0
10
138.000000
20
260.000000
0
VERTEX
8
0
10
134.000000
20
264.000000
0
VERTEX
8
0
10
127.000000
20
266.000000
0
SEQEND
0
POLYLINE
8
0
6
CONTINUOUS
66
1
62
7
10
0.0
20
0.0
30
0.000000
0
VERTEX
8
0
10
542.000000
20
241.000000
0
VERTEX
8
0
10
541.000000
20
242.000000
0
SEQEND
0
POLYLINE
8
0
6
CONTINUOUS
66
1
62
7
10
0.0
20
0.0
30
0.000000
0
VERTEX
8
0
10
569.000000
20
278.000000
0
VERTEX
8
0
10
569.000000
20
274.000000
0
VERTEX
8
0
10
568.000000
20
273.000000
0
VERTEX
8
0
10
566.000000
20
273.000000
0
VERTEX
8
0
10
565.000000
20
272.000000
0
VERTEX
8
0
10
564.000000
20
258.000000
0
VERTEX
8
0
10
564.000000
20
248.000000
0
VERTEX
8
0
10
565.000000
20
242.000000
0
VERTEX
8
0
10
567.000000
20
241.000000
0
VERTEX
8
0
10
568.000000
20
242.000000
0
VERTEX
8
0
10
568.000000
20
265.000000
0
VERTEX
8
0
10
570.000000
20
266.000000
0
VERTEX
8
0
10
572.000000
20
268.000000
0
VERTEX
8
0
10
572.000000
20
273.000000
0
VERTEX
8
0
10
570.000000
20
278.000000
0
VERTEX
8
0
10
569.000000
20
278.000000
0
SEQEND
0
POLYLINE
8
0
6
CONTINUOUS
66
1
62
7
10
0.0
20
0.0
30
0.000000
0
VERTEX
8
0
10
243.000000
20
240.000000
0
VERTEX
8
0
10
248.067568
20
241.594595
0
VERTEX
8
0
10
260.000000
20
244.000000
0
VERTEX
8
0
10
262.000000
20
246.000000
0
VERTEX
8
0
10
261.750000
20
273.750000
0
VERTEX
8
0
10
246.040984
20
272.549180
0
VERTEX
8
0
10
238.000000
20
271.000000
0
VERTEX
8
0
10
236.481529
20
267.982803
0
VERTEX
8
0
10
236.000000
20
241.000000
0
VERTEX
8
0
10
237.000000
20
240.000000
0
VERTEX
8
0
10
243.000000
20
240.000000
0
SEQEND
0
POLYLINE
8
0
6
CONTINUOUS
66
1
62
7
10
0.0
20
0.0
30
0.000000
0
VERTEX
8
0
10
293.000000
20
240.000000
0
VERTEX
8
0
10
293.000000
20
242.000000
0
VERTEX
8
0
10
291.000000
20
244.000000
0
VERTEX
8
0
10
289.250000
20
243.750000
0
VERTEX
8
0
10
289.000000
20
241.000000
0
VERTEX
8
0
10
289.250000
20
240.250000
0
VERTEX
8
0
10
292.000000
20
240.000000
0
VERTEX
8
0
10
293.000000
20
240.000000
0
SEQEND
0
POLYLINE
8
0
6
CONTINUOUS
66
1
62
7
10
0.0
20
0.0
30
0.000000
0
VERTEX
8
0
10
299.000000
20
240.000000
0
VERTEX
8
0
10
301.000000
20
243.000000
0
VERTEX
8
0
10
300.000000
20
244.000000
0
VERTEX
8
0
10
298.000000
20
244.000000
0
VERTEX
8
0
10
297.000000
20
243.000000
0
VERTEX
8
0
10
297.000000
20
241.000000
0
VERTEX
8
0
10
298.000000
20
240.000000
0
VERTEX
8
0
10
299.000000
20
240.000000
0
SEQEND
0
POLYLINE
8
0
6
CONTINUOUS
66
1
62
7
10
0.0
20
0.0
30
0.000000
0
VERTEX
8
0
10
346.000000
20
240.000000
0
VERTEX
8
0
10
345.000000
20
242.000000
0
VERTEX
8
0
10
327.900000
20
244.800000
0
VERTEX
8
0
10
326.250000
20
245.250000
0
VERTEX
8
0
10
326.000000
20
272.000000
0
VERTEX
8
0
10
327.000000
20
273.000000
0
VERTEX
8
0
10
346.000000
20
270.000000
0
SEQEND
0
POLYLINE
8
0
6
CONTINUOUS
66
1
62
7
10
0.0
20
0.0
30
0.000000
0
VERTEX
8
0
10
348.000000
20
240.000000
0
VERTEX
8
0
10
346.000000
20
240.000000
0
SEQEND
0
POLYLINE
8
0
6
CONTINUOUS
66
1
62
7
10
0.0
20
0.0
30
0.000000
0
VERTEX
8
0
10
348.000000
20
240.000000
0
VERTEX
8
0
10
351.000000
20
242.000000
0
VERTEX
8
0
10
352.000000
20
266.000000
0
VERTEX
8
0
10
351.000000
20
268.000000
0
VERTEX
8
0
10
348.100000
20
269.300000
0
VERTEX
8
0
10
347.000000
20
270.000000
0
SEQEND
0
POLYLINE
8
0
6
CONTINUOUS
66
1
62
7
10
0.0
20
0.0
30
0.000000
0
VERTEX
8
0
10
542.000000
20
240.000000
0
VERTEX
8
0
10
542.000000
20
241.000000
0
SEQEND
0
POLYLINE
8
0
6
CONTINUOUS
66
1
62
7
10
0.0
20
0.0
30
0.000000
0
VERTEX
8
0
10
283.000000
20
239.000000
0
VERTEX
8
0
10
284.600000
20
241.200000
0
VERTEX
8
0
10
284.750000
20
243.750000
0
VERTEX
8
0
10
281.250000
20
243.750000
0
VERTEX
8
0
10
281.000000
20
243.000000
0
VERTEX
8
0
10
283.000000
20
239.000000
0
SEQEND
0
POLYLINE
8
0
6
CONTINUOUS
66
1
62
7
10
0.0
20
0.0
30
0.000000
0
VERTEX
8
0
10
307.000000
20
239.000000
0
VERTEX
8
0
10
309.000000
20
241.000000
0
VERTEX
8
0
10
309.000000
20
242.000000
0
VERTEX
8
0
10
307.000000
20
244.000000
0
VERTEX
8
0
10
305.250000
20
243.750000
0
VERTEX
8
0
10
305.000000
20
243.000000
0
VERTEX
8
0
10
307.000000
20
239.000000
0
SEQEND
0
POLYLINE
8
0
6
CONTINUOUS
66
1
62
7
10
0.0
20
0.0
30
0.000000
0
VERTEX
8
0
10
315.000000
20
239.000000
0
VERTEX
8
0
10
317.000000
20
243.000000
0
VERTEX
8
0
10
316.000000
20
244.000000
0
VERTEX
8
0
10
314.000000
20
244.000000
0
VERTEX
8
0
10
313.000000
20
243.000000
0
VERTEX
8
0
10
313.000000
20
240.000000
0
VERTEX
8
0
10
314.000000
20
239.000000
0
VERTEX
8
0
10
315.000000
20
239.000000
0
SEQEND
0
POLYLINE
8
0
6
CONTINUOUS
66
1
62
7
10
0.0
20
0.0
30
0.000000
0
VERTEX
8
0
10
325.000000
20
239.000000
0
VERTEX
8
0
10
325.000000
20
242.000000
0
VERTEX
8
0
10
324.000000
20
243.000000
0
VERTEX
8
0
10
322.000000
20
243.000000
0
VERTEX
8
0
10
321.000000
20
242.000000
0
VERTEX
8
0
10
321.250000
20
239.250000
0
VERTEX
8
0
10
324.000000
20
239.000000
0
VERTEX
8
0
10
325.000000
20
239.000000
0
SEQEND
0
POLYLINE
8
0
6
CONTINUOUS
66
1
62
7
10
0.0
20
0.0
30
0.000000
0
VERTEX
8
0
10
357.000000
20
239.000000
0
VERTEX
8
0
10
355.000000
20
242.000000
0
VERTEX
8
0
10
355.000000
20
259.000000
0
VERTEX
8
0
10
356.000000
20
265.000000
0
VERTEX
8
0
10
356.250000
20
265.750000
0
VERTEX
8
0
10
361.000000
20
266.000000
0
SEQEND
0
POLYLINE
8
0
6
CONTINUOUS
66
1
62
7
10
0.0
20
0.0
30
0.000000
0
VERTEX
8
0
10
202.000000
20
238.000000
0
VERTEX
8
0
10
202.000000
20
239.000000
0
SEQEND
0
POLYLINE
8
0
6
CONTINUOUS
66
1
62
7
10
0.0
20
0.0
30
0.000000
0
VERTEX
8
0
10
276.000000
20
238.000000
0
VERTEX
8
0
10
277.000000
20
240.000000
0
VERTEX
8
0
10
277.000000
20
241.000000
0
VERTEX
8
0
10
275.000000
20
243.000000
0
VERTEX
8
0
10
274.000000
20
243.000000
0
VERTEX
8
0
10
273.000000
20
242.000000
0
VERTEX
8
0
10
273.250000
20
238.250000
0
VERTEX
8
0
10
275.000000
20
238.000000
0
VERTEX
8
0
10
276.000000
20
238.000000
0
SEQEND
0
POLYLINE
8
0
6
CONTINUOUS
66
1
62
7
10
0.0
20
0.0
30
0.000000
0
VERTEX
8
0
10
307.000000
20
238.000000
0
VERTEX
8
0
10
307.000000
20
239.000000
0
SEQEND
0
POLYLINE
8
0
6
CONTINUOUS
66
1
62
7
10
0.0
20
0.0
30
0.000000
0
VERTEX
8
0
10
332.000000
20
238.000000
0
VERTEX
8
0
10
334.000000
20
240.000000
0
VERTEX
8
0
10
332.000000
20
242.000000
0
VERTEX
8
0
10
330.000000
20
242.000000
0
VERTEX
8
0
10
329.000000
20
241.000000
0
VERTEX
8
0
10
329.000000
20
239.000000
0
VERTEX
8
0
10
330.000000
20
238.000000
0
VERTEX
8
0
10
332.000000
20
238.000000
0
SEQEND
0
POLYLINE
8
0
6
CONTINUOUS
66
1
62
7
10
0.0
20
0.0
30
0.000000
0
VERTEX
8
0
10
356.000000
20
238.000000
0
VERTEX
8
0
10
357.000000
20
239.000000
0
SEQEND
0
POLYLINE
8
0
6
CONTINUOUS
66
1
62
7
10
0.0
20
0.0
30
0.000000
0
VERTEX
8
0
10
633.000000
20
238.000000
0
VERTEX
8
0
10
632.000000
20
238.000000
0
VERTEX
8
0
10
631.000000
20
239.000000
0
VERTEX
8
0
10
631.000000
20
246.000000
0
VERTEX
8
0
10
633.000000
20
248.000000
0
SEQEND
0
POLYLINE
8
0
6
CONTINUOUS
66
1
62
7
10
0.0
20
0.0
30
0.000000
0
VERTEX
8
0
10
267.000000
20
237.000000
0
VERTEX
8
0
10
268.600000
20
239.200000
0
VERTEX
8
0
10
268.750000
20
241.750000
0
VERTEX
8
0
10
268.000000
20
242.000000
0
VERTEX
8
0
10
265.000000
20
242.000000
0
VERTEX
8
0
10
264.000000
20
241.000000
0
VERTEX
8
0
10
264.000000
20
239.000000
0
VERTEX
8
0
10
266.000000
20
237.000000
0
VERTEX
8
0
10
267.000000
20
237.000000
0
SEQEND
0
POLYLINE
8
0
6
CONTINUOUS
66
1
62
7
10
0.0
20
0.0
30
0.000000
0
VERTEX
8
0
10
277.000000
20
237.000000
0
VERTEX
8
0
10
276.000000
20
238.000000
0
SEQEND
0
POLYLINE
8
0
6
CONTINUOUS
66
1
62
7
10
0.0
20
0.0
30
0.000000
0
VERTEX
8
0
10
277.000000
20
237.000000
0
VERTEX
8
0
10
307.000000
20
238.000000
0
SEQEND
0
POLYLINE
8
0
6
CONTINUOUS
66
1
62
7
10
0.0
20
0.0
30
0.000000
0
VERTEX
8
0
10
341.000000
20
237.000000
0
VERTEX
8
0
10
341.000000
20
239.000000
0
VERTEX
8
0
10
339.000000
20
241.000000
0
VERTEX
8
0
10
337.250000
20
240.750000
0
VERTEX
8
0
10
337.000000
20
238.000000
0
VERTEX
8
0
10
337.250000
20
237.250000
0
VERTEX
8
0
10
340.000000
20
237.000000
0
VERTEX
8
0
10
341.000000
20
237.000000
0
SEQEND
0
POLYLINE
8
0
6
CONTINUOUS
66
1
62
7
10
0.0
20
0.0
30
0.000000
0
VERTEX
8
0
10
364.000000
20
237.000000
0
VERTEX
8
0
10
359.911765
20
238.647059
0
VERTEX
8
0
10
357.000000
20
239.000000
0
SEQEND
0
POLYLINE
8
0
6
CONTINUOUS
66
1
62
7
10
0.0
20
0.0
30
0.000000
0
VERTEX
8
0
10
508.000000
20
237.000000
0
VERTEX
8
0
10
509.088235
20
237.647059
0
VERTEX
8
0
10
528.000000
20
241.000000
0
VERTEX
8
0
10
531.000000
20
244.000000
0
VERTEX
8
0
10
531.000000
20
274.000000
0
VERTEX
8
0
10
530.000000
20
275.000000
0
VERTEX
8
0
10
517.911765
20
273.352941
0
VERTEX
8
0
10
507.000000
20
272.000000
0
VERTEX
8
0
10
505.000000
20
270.000000
0
VERTEX
8
0
10
505.000000
20
238.000000
0
VERTEX
8
0
10
506.000000
20
237.000000
0
VERTEX
8
0
10
508.000000
20
237.000000
0
SEQEND
0
POLYLINE
8
0
6
CONTINUOUS
66
1
62
7
10
0.0
20
0.0
30
0.000000
0
VERTEX
8
0
10
259.000000
20
236.000000
0
VERTEX
8
0
10
261.000000
20
240.000000
0
VERTEX
8
0
10
260.000000
20
241.000000
0
VERTEX
8
0
10
258.000000
20
241.000000
0
VERTEX
8
0
10
257.000000
20
240.000000
0
VERTEX
8
0
10
257.000000
20
237.000000
0
VERTEX
8
0
10
258.000000
20
236.000000
0
VERTEX
8
0
10
259.000000
20
236.000000
0
SEQEND
0
POLYLINE
8
0
6
CONTINUOUS
66
1
62
7
10
0.0
20
0.0
30
0.000000
0
VERTEX
8
0
10
365.000000
20
236.000000
0
VERTEX
8
0
10
364.000000
20
237.000000
0
SEQEND
0
POLYLINE
8
0
6
CONTINUOUS
66
1
62
7
10
0.0
20
0.0
30
0.000000
0
VERTEX
8
0
10
633.000000
20
236.000000
0
VERTEX
8
0
10
633.000000
20
238.000000
0
SEQEND
0
POLYLINE
8
0
6
CONTINUOUS
66
1
62
7
10
0.0
20
0.0
30
0.000000
0
VERTEX
8
0
10
250.000000
20
235.000000
0
VERTEX
8
0
10
252.000000
20
235.000000
0
VERTEX
8
0
10
253.000000
20
236.000000
0
VERTEX
8
0
10
253.000000
20
239.000000
0
VERTEX
8
0
10
252.000000
20
240.000000
0
VERTEX
8
0
10
250.000000
20
240.000000
0
VERTEX
8
0
10
249.000000
20
239.000000
0
VERTEX
8
0
10
249.000000
20
236.000000
0
VERTEX
8
0
10
250.000000
20
235.000000
0
SEQEND
0
POLYLINE
8
0
6
CONTINUOUS
66
1
62
7
10
0.0
20
0.0
30
0.000000
0
VERTEX
8
0
10
346.000000
20
240.000000
0
VERTEX
8
0
10
345.000000
20
239.000000
0
VERTEX
8
0
10
345.000000
20
237.000000
0
VERTEX
8
0
10
347.000000
20
235.000000
0
VERTEX
8
0
10
348.750000
20
235.250000
0
VERTEX
8
0
10
349.000000
20
236.000000
0
VERTEX
8
0
10
348.000000
20
240.000000
0
SEQEND
0
POLYLINE
8
0
6
CONTINUOUS
66
1
62
7
10
0.0
20
0.0
30
0.000000
0
VERTEX
8
0
10
372.000000
20
235.000000
0
VERTEX
8
0
10
370.911765
20
235.647059
0
VERTEX
8
0
10
366.000000
20
237.000000
0
VERTEX
8
0
10
365.000000
20
236.000000
0
SEQEND
0
POLYLINE
8
0
6
CONTINUOUS
66
1
62
7
10
0.0
20
0.0
30
0.000000
0
VERTEX
8
0
10
542.000000
20
240.000000
0
VERTEX
8
0
10
541.000000
20
240.000000
0
VERTEX
8
0
10
540.000000
20
240.000000
0
VERTEX
8
0
10
538.000000
20
238.000000
0
VERTEX
8
0
10
538.000000
20
236.000000
0
VERTEX
8
0
10
539.000000
20
235.000000
0
VERTEX
8
0
10
541.000000
20
235.000000
0
VERTEX
8
0
10
543.000000
20
237.000000
0
VERTEX
8
0
10
543.000000
20
239.000000
0
VERTEX
8
0
10
542.000000
20
240.000000
0
SEQEND
0
POLYLINE
8
0
6
CONTINUOUS
66
1
62
7
10
0.0
20
0.0
30
0.000000
0
VERTEX
8
0
10
549.000000
20
235.000000
0
VERTEX
8
0
10
550.500000
20
238.000000
0
VERTEX
8
0
10
549.000000
20
241.000000
0
VERTEX
8
0
10
548.000000
20
241.000000
0
VERTEX
8
0
10
547.000000
20
240.000000
0
VERTEX
8
0
10
547.000000
20
237.000000
0
VERTEX
8
0
10
549.000000
20
235.000000
0
SEQEND
0
POLYLINE
8
0
6
CONTINUOUS
66
1
62
7
10
0.0
20
0.0
30
0.000000
0
VERTEX
8
0
10
558.000000
20
235.000000
0
VERTEX
8
0
10
558.000000
20
239.000000
0
VERTEX
8
0
10
557.000000
20
240.000000
0
VERTEX
8
0
10
556.000000
20
240.000000
0
VERTEX
8
0
10
555.000000
20
239.000000
0
VERTEX
8
0
10
555.250000
20
235.250000
0
VERTEX
8
0
10
557.000000
20
235.000000
0
VERTEX
8
0
10
558.000000
20
235.000000
0
SEQEND
0
POLYLINE
8
0
6
CONTINUOUS
66
1
62
7
10
0.0
20
0.0
30
0.000000
0
VERTEX
8
0
10
569.000000
20
235.000000
0
VERTEX
8
0
10
569.000000
20
239.000000
0
SEQEND
0
POLYLINE
8
0
6
CONTINUOUS
66
1
62
7
10
0.0
20
0.0
30
0.000000
0
VERTEX
8
0
10
633.000000
20
236.000000
0
VERTEX
8
0
10
642.000000
20
235.000000
0
VERTEX
8
0
10
644.000000
20
237.000000
0
VERTEX
8
0
10
642.000000
20
239.000000
0
VERTEX
8
0
10
633.000000
20
238.000000
0
SEQEND
0
POLYLINE
8
0
6
CONTINUOUS
66
1
62
7
10
0.0
20
0.0
30
0.000000
0
VERTEX
8
0
10
250.000000
20
234.000000
0
VERTEX
8
0
10
250.000000
20
235.000000
0
SEQEND
0
POLYLINE
8
0
6
CONTINUOUS
66
1
62
7
10
0.0
20
0.0
30
0.000000
0
VERTEX
8
0
10
356.000000
20
238.000000
0
VERTEX
8
0
10
355.000000
20
238.000000
0
VERTEX
8
0
10
353.000000
20
237.000000
0
VERTEX
8
0
10
353.000000
20
236.000000
0
VERTEX
8
0
10
355.000000
20
234.000000
0
VERTEX
8
0
10
357.000000
20
235.000000
0
VERTEX
8
0
10
356.200000
20
237.100000
0
VERTEX
8
0
10
356.000000
20
238.000000
0
SEQEND
0
POLYLINE
8
0
6
CONTINUOUS
66
1
62
7
10
0.0
20
0.0
30
0.000000
0
VERTEX
8
0
10
372.000000
20
234.000000
0
VERTEX
8
0
10
372.000000
20
235.000000
0
SEQEND
0
POLYLINE
8
0
6
CONTINUOUS
66
1
62
7
10
0.0
20
0.0
30
0.000000
0
VERTEX
8
0
10
534.000000
20
234.000000
0
VERTEX
8
0
10
534.000000
20
235.000000
0
VERTEX
8
0
10
534.000000
20
239.000000
0
VERTEX
8
0
10
532.000000
20
240.000000
0
VERTEX
8
0
10
531.000000
20
239.000000
0
VERTEX
8
0
10
531.250000
20
234.250000
0
VERTEX
8
0
10
533.000000
20
234.000000
0
VERTEX
8
0
10
534.000000
20
234.000000
0
SEQEND
0
POLYLINE
8
0
6
CONTINUOUS
66
1
62
7
10
0.0
20
0.0
30
0.000000
0
VERTEX
8
0
10
242.000000
20
233.000000
0
VERTEX
8
0
10
244.000000
20
234.000000
0
VERTEX
8
0
10
245.000000
20
235.000000
0
VERTEX
8
0
10
245.000000
20
236.000000
0
VERTEX
8
0
10
243.000000
20
238.000000
0
VERTEX
8
0
10
241.000000
20
238.000000
0
VERTEX
8
0
10
240.000000
20
237.000000
0
VERTEX
8
0
10
240.000000
20
234.000000
0
VERTEX
8
0
10
242.000000
20
233.000000
0
SEQEND
0
POLYLINE
8
0
6
CONTINUOUS
66
1
62
7
10
0.0
20
0.0
30
0.000000
0
VERTEX
8
0
10
251.000000
20
233.000000
0
VERTEX
8
0
10
250.000000
20
234.000000
0
SEQEND
0
POLYLINE
8
0
6
CONTINUOUS
66
1
62
7
10
0.0
20
0.0
30
0.000000
0
VERTEX
8
0
10
251.000000
20
233.000000
0
VERTEX
8
0
10
275.940000
20
236.420000
0
VERTEX
8
0
10
277.000000
20
237.000000
0
SEQEND
0
POLYLINE
8
0
6
CONTINUOUS
66
1
62
7
10
0.0
20
0.0
30
0.000000
0
VERTEX
8
0
10
372.000000
20
235.000000
0
VERTEX
8
0
10
378.923077
20
233.615385
0
VERTEX
8
0
10
380.000000
20
233.000000
0
VERTEX
8
0
10
381.000000
20
234.000000
0
VERTEX
8
0
10
381.000000
20
258.000000
0
VERTEX
8
0
10
378.100000
20
260.200000
0
VERTEX
8
0
10
377.000000
20
261.000000
0
SEQEND
0
POLYLINE
8
0
6
CONTINUOUS
66
1
62
7
10
0.0
20
0.0
30
0.000000
0
VERTEX
8
0
10
526.000000
20
233.000000
0
VERTEX
8
0
10
526.000000
20
234.000000
0
VERTEX
8
0
10
526.000000
20
238.000000
0
VERTEX
8
0
10
525.000000
20
239.000000
0
VERTEX
8
0
10
522.000000
20
236.000000
0
VERTEX
8
0
10
522.000000
20
234.000000
0
VERTEX
8
0
10
523.000000
20
233.000000
0
VERTEX
8
0
10
526.000000
20
233.000000
0
SEQEND
0
POLYLINE
8
0
6
CONTINUOUS
66
1
62
7
10
0.0
20
0.0
30
0.000000
0
VERTEX
8
0
10
218.000000
20
232.000000
0
VERTEX
8
0
10
217.000000
20
233.000000
0
SEQEND
0
POLYLINE
8
0
6
CONTINUOUS
66
1
62
7
10
0.0
20
0.0
30
0.000000
0
VERTEX
8
0
10
236.000000
20
232.000000
0
VERTEX
8
0
10
236.000000
20
235.000000
0
VERTEX
8
0
10
235.000000
20
236.000000
0
VERTEX
8
0
10
233.000000
20
236.000000
0
VERTEX
8
0
10
232.000000
20
235.000000
0
VERTEX
8
0
10
232.250000
20
232.250000
0
VERTEX
8
0
10
235.000000
20
232.000000
0
VERTEX
8
0
10
236.000000
20
232.000000
0
SEQEND
0
POLYLINE
8
0
6
CONTINUOUS
66
1
62
7
10
0.0
20
0.0
30
0.000000
0
VERTEX
8
0
10
364.000000
20
237.000000
0
VERTEX
8
0
10
362.000000
20
236.000000
0
VERTEX
8
0
10
361.000000
20
235.000000
0
VERTEX
8
0
10
361.000000
20
233.000000
0
VERTEX
8
0
10
362.000000
20
232.000000
0
VERTEX
8
0
10
365.000000
20
232.000000
0
VERTEX
8
0
10
366.000000
20
233.000000
0
VERTEX
8
0
10
365.200000
20
235.100000
0
VERTEX
8
0
10
365.000000
20
236.000000
0
SEQEND
0
POLYLINE
8
0
6
CONTINUOUS
66
1
62
7
10
0.0
20
0.0
30
0.000000
0
VERTEX
8
0
10
481.000000
20
231.000000
0
VERTEX
8
0
10
487.900000
20
233.300000
0
VERTEX
8
0
10
500.000000
20
236.000000
0
VERTEX
8
0
10
500.200000
20
236.900000
0
VERTEX
8
0
10
501.000000
20
238.000000
0
VERTEX
8
0
10
501.000000
20
268.000000
0
VERTEX
8
0
10
499.000000
20
270.000000
0
VERTEX
8
0
10
488.088235
20
266.647059
0
VERTEX
8
0
10
481.088235
20
264.647059
0
VERTEX
8
0
10
476.000000
20
263.000000
0
VERTEX
8
0
10
475.000000
20
261.000000
0
VERTEX
8
0
10
475.000000
20
232.000000
0
VERTEX
8
0
10
476.000000
20
231.000000
0
VERTEX
8
0
10
481.000000
20
231.000000
0
SEQEND
0
POLYLINE
8
0
6
CONTINUOUS
66
1
62
7
10
0.0
20
0.0
30
0.000000
0
VERTEX
8
0
10
517.000000
20
231.000000
0
VERTEX
8
0
10
518.000000
20
236.000000
0
VERTEX
8
0
10
517.000000
20
237.000000
0
VERTEX
8
0
10
516.000000
20
237.000000
0
VERTEX
8
0
10
515.000000
20
236.000000
0
VERTEX
8
0
10
515.000000
20
232.000000
0
VERTEX
8
0
10
516.000000
20
231.000000
0
VERTEX
8
0
10
517.000000
20
231.000000
0
SEQEND
0
POLYLINE
8
0
6
CONTINUOUS
66
1
62
7
10
0.0
20
0.0
30
0.000000
0
VERTEX
8
0
10
217.000000
20
233.000000
0
VERTEX
8
0
10
224.100000
20
235.700000
0
VERTEX
8
0
10
231.000000
20
238.000000
0
VERTEX
8
0
10
232.000000
20
239.000000
0
VERTEX
8
0
10
232.000000
20
267.000000
0
VERTEX
8
0
10
231.000000
20
268.000000
0
VERTEX
8
0
10
229.100000
20
267.700000
0
VERTEX
8
0
10
212.100000
20
261.700000
0
VERTEX
8
0
10
209.000000
20
261.000000
0
VERTEX
8
0
10
207.000000
20
259.000000
0
VERTEX
8
0
10
206.000000
20
232.000000
0
VERTEX
8
0
10
208.000000
20
230.000000
0
VERTEX
8
0
10
217.000000
20
233.000000
0
SEQEND
0
POLYLINE
8
0
6
CONTINUOUS
66
1
62
7
10
0.0
20
0.0
30
0.000000
0
VERTEX
8
0
10
387.000000
20
230.000000
0
VERTEX
8
0
10
385.000000
20
233.000000
0
VERTEX
8
0
10
385.000000
20
255.000000
0
VERTEX
8
0
10
387.000000
20
257.000000
0
VERTEX
8
0
10
389.000000
20
257.000000
0
SEQEND
0
POLYLINE
8
0
6
CONTINUOUS
66
1
62
7
10
0.0
20
0.0
30
0.000000
0
VERTEX
8
0
10
509.000000
20
230.000000
0
VERTEX
8
0
10
511.000000
20
233.000000
0
VERTEX
8
0
10
509.000000
20
235.000000
0
VERTEX
8
0
10
507.000000
20
235.000000
0
VERTEX
8
0
10
506.000000
20
234.000000
0
VERTEX
8
0
10
506.000000
20
231.000000
0
VERTEX
8
0
10
507.000000
20
230.000000
0
VERTEX
8
0
10
509.000000
20
230.000000
0
SEQEND
0
POLYLINE
8
0
6
CONTINUOUS
66
1
62
7
10
0.0
20
0.0
30
0.000000
0
VERTEX
8
0
10
226.000000
20
229.000000
0
VERTEX
8
0
10
228.000000
20
231.000000
0
VERTEX
8
0
10
228.000000
20
232.000000
0
VERTEX
8
0
10
226.000000
20
234.000000
0
VERTEX
8
0
10
224.000000
20
233.000000
0
VERTEX
8
0
10
224.000000
20
231.000000
0
VERTEX
8
0
10
226.000000
20
229.000000
0
SEQEND
0
POLYLINE
8
0
6
CONTINUOUS
66
1
62
7
10
0.0
20
0.0
30
0.000000
0
VERTEX
8
0
10
372.000000
20
234.000000
0
VERTEX
8
0
10
371.000000
20
234.000000
0
VERTEX
8
0
10
369.000000
20
233.000000
0
VERTEX
8
0
10
369.000000
20
231.000000
0
VERTEX
8
0
10
370.900000
20
229.800000
0
VERTEX
8
0
10
372.000000
20
229.000000
0
VERTEX
8
0
10
373.000000
20
230.000000
0
VERTEX
8
0
10
373.000000
20
233.000000
0
VERTEX
8
0
10
372.000000
20
234.000000
0
SEQEND
0
POLYLINE
8
0
6
CONTINUOUS
66
1
62
7
10
0.0
20
0.0
30
0.000000
0
VERTEX
8
0
10
386.000000
20
229.000000
0
VERTEX
8
0
10
387.000000
20
230.000000
0
SEQEND
0
POLYLINE
8
0
6
CONTINUOUS
66
1
62
7
10
0.0
20
0.0
30
0.000000
0
VERTEX
8
0
10
501.000000
20
228.000000
0
VERTEX
8
0
10
501.000000
20
229.000000
0
VERTEX
8
0
10
502.000000
20
233.000000
0
VERTEX
8
0
10
501.000000
20
234.000000
0
VERTEX
8
0
10
498.000000
20
231.000000
0
VERTEX
8
0
10
498.250000
20
228.250000
0
VERTEX
8
0
10
500.000000
20
228.000000
0
VERTEX
8
0
10
501.000000
20
228.000000
0
SEQEND
0
POLYLINE
8
0
6
CONTINUOUS
66
1
62
7
10
0.0
20
0.0
30
0.000000
0
VERTEX
8
0
10
218.000000
20
232.000000
0
VERTEX
8
0
10
217.000000
20
228.000000
0
VERTEX
8
0
10
218.000000
20
227.000000
0
VERTEX
8
0
10
219.000000
20
227.000000
0
VERTEX
8
0
10
220.000000
20
228.000000
0
VERTEX
8
0
10
220.000000
20
231.000000
0
VERTEX
8
0
10
219.000000
20
232.000000
0
VERTEX
8
0
10
218.000000
20
232.000000
0
SEQEND
0
POLYLINE
8
0
6
CONTINUOUS
66
1
62
7
10
0.0
20
0.0
30
0.000000
0
VERTEX
8
0
10
380.000000
20
227.000000
0
VERTEX
8
0
10
380.000000
20
230.000000
0
VERTEX
8
0
10
378.000000
20
232.000000
0
VERTEX
8
0
10
377.000000
20
230.000000
0
VERTEX
8
0
10
379.000000
20
227.000000
0
VERTEX
8
0
10
380.000000
20
227.000000
0
SEQEND
0
POLYLINE
8
0
6
CONTINUOUS
66
1
62
7
10
0.0
20
0.0
30
0.000000
0
VERTEX
8
0
10
451.000000
20
257.000000
0
VERTEX
8
0
10
445.000000
20
254.000000
0
VERTEX
8
0
10
445.000000
20
227.000000
0
VERTEX
8
0
10
446.000000
20
226.000000
0
VERTEX
8
0
10
454.955446
20
226.445545
0
VERTEX
8
0
10
462.923077
20
228.384615
0
VERTEX
8
0
10
464.067568
20
228.594595
0
VERTEX
8
0
10
469.000000
20
229.000000
0
VERTEX
8
0
10
471.000000
20
231.000000
0
VERTEX
8
0
10
470.750000
20
260.750000
0
VERTEX
8
0
10
470.000000
20
261.000000
0
VERTEX
8
0
10
456.900000
20
258.200000
0
VERTEX
8
0
10
451.000000
20
257.000000
0
SEQEND
0
POLYLINE
8
0
6
CONTINUOUS
66
1
62
7
10
0.0
20
0.0
30
0.000000
0
VERTEX
8
0
10
492.000000
20
226.000000
0
VERTEX
8
0
10
494.000000
20
228.000000
0
VERTEX
8
0
10
494.000000
20
231.000000
0
VERTEX
8
0
10
492.000000
20
232.000000
0
VERTEX
8
0
10
490.000000
20
230.000000
0
VERTEX
8
0
10
490.000000
20
227.000000
0
VERTEX
8
0
10
491.000000
20
226.000000
0
VERTEX
8
0
10
492.000000
20
226.000000
0
SEQEND
0
POLYLINE
8
0
6
CONTINUOUS
66
1
62
7
10
0.0
20
0.0
30
0.000000
0
VERTEX
8
0
10
632.000000
20
226.000000
0
VERTEX
8
0
10
631.800000
20
226.900000
0
VERTEX
8
0
10
631.000000
20
228.000000
0
VERTEX
8
0
10
631.000000
20
234.000000
0
VERTEX
8
0
10
633.000000
20
236.000000
0
SEQEND
0
POLYLINE
8
0
6
CONTINUOUS
66
1
62
7
10
0.0
20
0.0
30
0.000000
0
VERTEX
8
0
10
634.000000
20
226.000000
0
VERTEX
8
0
10
632.000000
20
226.000000
0
SEQEND
0
POLYLINE
8
0
6
CONTINUOUS
66
1
62
7
10
0.0
20
0.0
30
0.000000
0
VERTEX
8
0
10
634.000000
20
226.000000
0
VERTEX
8
0
10
635.000000
20
228.000000
0
VERTEX
8
0
10
646.000000
20
228.000000
0
VERTEX
8
0
10
649.000000
20
231.000000
0
VERTEX
8
0
10
649.000000
20
234.000000
0
VERTEX
8
0
10
647.769231
20
235.846154
0
VERTEX
8
0
10
647.000000
20
238.000000
0
VERTEX
8
0
10
649.000000
20
244.000000
0
VERTEX
8
0
10
646.000000
20
248.000000
0
VERTEX
8
0
10
648.000000
20
249.000000
0
VERTEX
8
0
10
649.000000
20
250.000000
0
VERTEX
8
0
10
648.300000
20
253.100000
0
VERTEX
8
0
10
648.000000
20
255.000000
0
VERTEX
8
0
10
645.000000
20
258.000000
0
VERTEX
8
0
10
643.000000
20
256.000000
0
VERTEX
8
0
10
637.000000
20
256.000000
0
VERTEX
8
0
10
634.000000
20
258.000000
0
SEQEND
0
POLYLINE
8
0
6
CONTINUOUS
66
1
62
7
10
0.0
20
0.0
30
0.000000
0
VERTEX
8
0
10
406.000000
20
225.000000
0
VERTEX
8
0
10
404.923077
20
225.615385
0
VERTEX
8
0
10
387.000000
20
230.000000
0
SEQEND
0
POLYLINE
8
0
6
CONTINUOUS
66
1
62
7
10
0.0
20
0.0
30
0.000000
0
VERTEX
8
0
10
406.000000
20
225.000000
0
VERTEX
8
0
10
409.000000
20
225.000000
0
VERTEX
8
0
10
411.000000
20
227.000000
0
VERTEX
8
0
10
411.000000
20
251.000000
0
VERTEX
8
0
10
410.000000
20
252.000000
0
VERTEX
8
0
10
403.088235
20
253.352941
0
VERTEX
8
0
10
402.000000
20
254.000000
0
SEQEND
0
POLYLINE
8
0
6
CONTINUOUS
66
1
62
7
10
0.0
20
0.0
30
0.000000
0
VERTEX
8
0
10
210.000000
20
224.000000
0
VERTEX
8
0
10
212.000000
20
226.000000
0
VERTEX
8
0
10
212.000000
20
228.000000
0
VERTEX
8
0
10
211.000000
20
229.000000
0
VERTEX
8
0
10
208.000000
20
226.000000
0
VERTEX
8
0
10
208.000000
20
225.000000
0
VERTEX
8
0
10
210.000000
20
224.000000
0
SEQEND
0
POLYLINE
8
0
6
CONTINUOUS
66
1
62
7
10
0.0
20
0.0
30
0.000000
0
VERTEX
8
0
10
386.000000
20
229.000000
0
VERTEX
8
0
10
385.000000
20
228.000000
0
VERTEX
8
0
10
385.000000
20
226.000000
0
VERTEX
8
0
10
387.000000
20
224.000000
0
VERTEX
8
0
10
388.750000
20
224.250000
0
VERTEX
8
0
10
389.000000
20
227.000000
0
VERTEX
8
0
10
386.000000
20
229.000000
0
SEQEND
0
POLYLINE
8
0
6
CONTINUOUS
66
1
62
7
10
0.0
20
0.0
30
0.000000
0
VERTEX
8
0
10
405.000000
20
224.000000
0
VERTEX
8
0
10
406.000000
20
225.000000
0
SEQEND
0
POLYLINE
8
0
6
CONTINUOUS
66
1
62
7
10
0.0
20
0.0
30
0.000000
0
VERTEX
8
0
10
433.000000
20
224.000000
0
VERTEX
8
0
10
440.000000
20
225.000000
0
VERTEX
8
0
10
441.000000
20
226.000000
0
VERTEX
8
0
10
440.750000
20
252.750000
0
VERTEX
8
0
10
416.000000
20
252.000000
0
VERTEX
8
0
10
415.000000
20
251.000000
0
VERTEX
8
0
10
415.000000
20
226.000000
0
VERTEX
8
0
10
416.900000
20
224.800000
0
VERTEX
8
0
10
433.000000
20
224.000000
0
SEQEND
0
POLYLINE
8
0
6
CONTINUOUS
66
1
62
7
10
0.0
20
0.0
30
0.000000
0
VERTEX
8
0
10
483.000000
20
224.000000
0
VERTEX
8
0
10
486.000000
20
226.000000
0
VERTEX
8
0
10
486.000000
20
228.000000
0
VERTEX
8
0
10
484.000000
20
230.000000
0
VERTEX
8
0
10
482.000000
20
228.000000
0
VERTEX
8
0
10
482.000000
20
225.000000
0
VERTEX
8
0
10
483.000000
20
224.000000
0
SEQEND
0
POLYLINE
8
0
6
CONTINUOUS
66
1
62
7
10
0.0
20
0.0
30
0.000000
0
VERTEX
8
0
10
478.000000
20
223.000000
0
VERTEX
8
0
10
478.000000
20
227.000000
0
VERTEX
8
0
10
477.000000
20
228.000000
0
VERTEX
8
0
10
475.000000
20
227.000000
0
VERTEX
8
0
10
474.000000
20
226.000000
0
VERTEX
8
0
10
474.250000
20
223.250000
0
VERTEX
8
0
10
477.000000
20
223.000000
0
VERTEX
8
0
10
478.000000
20
223.000000
0
SEQEND
0
POLYLINE
8
0
6
CONTINUOUS
66
1
62
7
10
0.0
20
0.0
30
0.000000
0
VERTEX
8
0
10
202.000000
20
222.000000
0
VERTEX
8
0
10
204.000000
20
224.000000
0
VERTEX
8
0
10
204.000000
20
225.000000
0
VERTEX
8
0
10
203.000000
20
226.000000
0
VERTEX
8
0
10
201.000000
20
224.000000
0
VERTEX
8
0
10
202.000000
20
222.000000
0
SEQEND
0
POLYLINE
8
0
6
CONTINUOUS
66
1
62
7
10
0.0
20
0.0
30
0.000000
0
VERTEX
8
0
10
396.000000
20
222.000000
0
VERTEX
8
0
10
397.000000
20
223.000000
0
VERTEX
8
0
10
397.000000
20
224.000000
0
VERTEX
8
0
10
395.000000
20
226.000000
0
VERTEX
8
0
10
393.000000
20
225.000000
0
VERTEX
8
0
10
393.000000
20
223.000000
0
VERTEX
8
0
10
394.000000
20
222.000000
0
VERTEX
8
0
10
396.000000
20
222.000000
0
SEQEND
0
POLYLINE
8
0
6
CONTINUOUS
66
1
62
7
10
0.0
20
0.0
30
0.000000
0
VERTEX
8
0
10
198.000000
20
221.000000
0
VERTEX
8
0
10
198.000000
20
223.000000
0
SEQEND
0
POLYLINE
8
0
6
CONTINUOUS
66
1
62
7
10
0.0
20
0.0
30
0.000000
0
VERTEX
8
0
10
240.000000
20
221.000000
0
VERTEX
8
0
10
238.000000
20
221.000000
0
SEQEND
0
POLYLINE
8
0
6
CONTINUOUS
66
1
62
7
10
0.0
20
0.0
30
0.000000
0
VERTEX
8
0
10
468.000000
20
221.000000
0
VERTEX
8
0
10
470.000000
20
223.000000
0
VERTEX
8
0
10
470.000000
20
225.000000
0
VERTEX
8
0
10
468.000000
20
227.000000
0
VERTEX
8
0
10
466.000000
20
225.000000
0
VERTEX
8
0
10
466.000000
20
222.000000
0
VERTEX
8
0
10
467.000000
20
221.000000
0
VERTEX
8
0
10
468.000000
20
221.000000
0
SEQEND
0
POLYLINE
8
0
6
CONTINUOUS
66
1
62
7
10
0.0
20
0.0
30
0.000000
0
VERTEX
8
0
10
525.000000
20
221.000000
0
VERTEX
8
0
10
523.000000
20
221.000000
0
SEQEND
0
POLYLINE
8
0
6
CONTINUOUS
66
1
62
7
10
0.0
20
0.0
30
0.000000
0
VERTEX
8
0
10
525.000000
20
221.000000
0
VERTEX
8
0
10
525.000000
20
222.000000
0
VERTEX
8
0
10
526.000000
20
223.000000
0
VERTEX
8
0
10
529.923077
20
223.384615
0
VERTEX
8
0
10
570.750000
20
225.250000
0
VERTEX
8
0
10
571.000000
20
226.000000
0
VERTEX
8
0
10
571.000000
20
234.000000
0
VERTEX
8
0
10
569.000000
20
235.000000
0
SEQEND
0
POLYLINE
8
0
6
CONTINUOUS
66
1
62
7
10
0.0
20
0.0
30
0.000000
0
VERTEX
8
0
10
405.000000
20
224.000000
0
VERTEX
8
0
10
401.250000
20
223.750000
0
VERTEX
8
0
10
401.000000
20
223.000000
0
VERTEX
8
0
10
401.000000
20
221.000000
0
VERTEX
8
0
10
402.000000
20
220.000000
0
VERTEX
8
0
10
404.000000
20
220.000000
0
VERTEX
8
0
10
406.000000
20
222.000000
0
VERTEX
8
0
10
405.000000
20
224.000000
0
SEQEND
0
POLYLINE
8
0
6
CONTINUOUS
66
1
62
7
10
0.0
20
0.0
30
0.000000
0
VERTEX
8
0
10
460.000000
20
220.000000
0
VERTEX
8
0
10
462.000000
20
222.000000
0
VERTEX
8
0
10
462.000000
20
223.000000
0
VERTEX
8
0
10
460.000000
20
225.000000
0
VERTEX
8
0
10
458.000000
20
224.000000
0
VERTEX
8
0
10
458.000000
20
221.000000
0
VERTEX
8
0
10
460.000000
20
220.000000
0
SEQEND
0
POLYLINE
8
0
6
CONTINUOUS
66
1
62
7
10
0.0
20
0.0
30
0.000000
0
VERTEX
8
0
10
452.000000
20
219.000000
0
VERTEX
8
0
10
454.000000
20
221.000000
0
VERTEX
8
0
10
454.000000
20
223.000000
0
VERTEX
8
0
10
452.000000
20
224.000000
0
VERTEX
8
0
10
450.000000
20
222.000000
0
VERTEX
8
0
10
450.000000
20
220.000000
0
VERTEX
8
0
10
451.000000
20
219.000000
0
VERTEX
8
0
10
452.000000
20
219.000000
0
SEQEND
0
POLYLINE
8
0
6
CONTINUOUS
66
1
62
7
10
0.0
20
0.0
30
0.000000
0
VERTEX
8
0
10
649.000000
20
219.000000
0
VERTEX
8
0
10
647.000000
20
225.000000
0
VERTEX
8
0
10
645.000000
20
226.000000
0
VERTEX
8
0
10
643.000000
20
224.000000
0
VERTEX
8
0
10
636.000000
20
224.000000
0
VERTEX
8
0
10
634.000000
20
226.000000
0
SEQEND
0
POLYLINE
8
0
6
CONTINUOUS
66
1
62
7
10
0.0
20
0.0
30
0.000000
0
VERTEX
8
0
10
649.000000
20
219.000000
0
VERTEX
8
0
10
650.000000
20
220.000000
0
SEQEND
0
POLYLINE
8
0
6
CONTINUOUS
66
1
62
7
10
0.0
20
0.0
30
0.000000
0
VERTEX
8
0
10
198.000000
20
221.000000
0
VERTEX
8
0
10
198.000000
20
220.000000
0
VERTEX
8
0
10
200.000000
20
218.000000
0
VERTEX
8
0
10
209.900000
20
221.300000
0
VERTEX
8
0
10
211.900000
20
222.200000
0
VERTEX
8
0
10
231.923077
20
228.384615
0
VERTEX
8
0
10
251.000000
20
233.000000
0
SEQEND
0
POLYLINE
8
0
6
CONTINUOUS
66
1
62
7
10
0.0
20
0.0
30
0.000000
0
VERTEX
8
0
10
411.000000
20
218.000000
0
VERTEX
8
0
10
412.750000
20
218.250000
0
VERTEX
8
0
10
413.000000
20
222.000000
0
VERTEX
8
0
10
412.000000
20
223.000000
0
VERTEX
8
0
10
409.250000
20
222.750000
0
VERTEX
8
0
10
409.000000
20
222.000000
0
VERTEX
8
0
10
411.000000
20
218.000000
0
SEQEND
0
POLYLINE
8
0
6
CONTINUOUS
66
1
62
7
10
0.0
20
0.0
30
0.000000
0
VERTEX
8
0
10
421.000000
20
218.000000
0
VERTEX
8
0
10
421.000000
20
221.000000
0
VERTEX
8
0
10
420.000000
20
222.000000
0
VERTEX
8
0
10
418.000000
20
222.000000
0
VERTEX
8
0
10
417.000000
20
221.000000
0
VERTEX
8
0
10
417.250000
20
218.250000
0
VERTEX
8
0
10
420.000000
20
218.000000
0
VERTEX
8
0
10
421.000000
20
218.000000
0
SEQEND
0
POLYLINE
8
0
6
CONTINUOUS
66
1
62
7
10
0.0
20
0.0
30
0.000000
0
VERTEX
8
0
10
444.000000
20
218.000000
0
VERTEX
8
0
10
446.000000
20
220.000000
0
VERTEX
8
0
10
446.000000
20
222.000000
0
VERTEX
8
0
10
445.000000
20
223.000000
0
VERTEX
8
0
10
443.000000
20
223.000000
0
VERTEX
8
0
10
442.000000
20
222.000000
0
VERTEX
8
0
10
442.000000
20
219.000000
0
VERTEX
8
0
10
444.000000
20
218.000000
0
SEQEND
0
POLYLINE
8
0
6
CONTINUOUS
66
1
62
7
10
0.0
20
0.0
30
0.000000
0
VERTEX
8
0
10
410.000000
20
217.000000
0
VERTEX
8
0
10
405.067568
20
217.405405
0
VERTEX
8
0
10
392.088235
20
220.352941
0
VERTEX
8
0
10
335.940000
20
234.580000
0
VERTEX
8
0
10
307.000000
20
238.000000
0
SEQEND
0
POLYLINE
8
0
6
CONTINUOUS
66
1
62
7
10
0.0
20
0.0
30
0.000000
0
VERTEX
8
0
10
410.000000
20
217.000000
0
VERTEX
8
0
10
411.000000
20
218.000000
0
SEQEND
0
POLYLINE
8
0
6
CONTINUOUS
66
1
62
7
10
0.0
20
0.0
30
0.000000
0
VERTEX
8
0
10
428.000000
20
217.000000
0
VERTEX
8
0
10
430.000000
20
219.000000
0
VERTEX
8
0
10
430.000000
20
220.000000
0
VERTEX
8
0
10
428.000000
20
222.000000
0
VERTEX
8
0
10
427.000000
20
222.000000
0
VERTEX
8
0
10
425.000000
20
220.000000
0
VERTEX
8
0
10
425.000000
20
218.000000
0
VERTEX
8
0
10
426.000000
20
217.000000
0
VERTEX
8
0
10
428.000000
20
217.000000
0
SEQEND
0
POLYLINE
8
0
6
CONTINUOUS
66
1
62
7
10
0.0
20
0.0
30
0.000000
0
VERTEX
8
0
10
436.000000
20
217.000000
0
VERTEX
8
0
10
438.000000
20
219.000000
0
VERTEX
8
0
10
438.000000
20
220.000000
0
VERTEX
8
0
10
436.000000
20
222.000000
0
VERTEX
8
0
10
435.000000
20
222.000000
0
VERTEX
8
0
10
434.000000
20
221.000000
0
VERTEX
8
0
10
434.000000
20
218.000000
0
VERTEX
8
0
10
435.000000
20
217.000000
0
VERTEX
8
0
10
436.000000
20
217.000000
0
SEQEND
0
POLYLINE
8
0
6
CONTINUOUS
66
1
62
7
10
0.0
20
0.0
30
0.000000
0
VERTEX
8
0
10
650.000000
20
220.000000
0
VERTEX
8
0
10
652.000000
20
217.000000
0
VERTEX
8
0
10
654.000000
20
217.000000
0
VERTEX
8
0
10
655.000000
20
218.000000
0
VERTEX
8
0
10
655.000000
20
223.000000
0
VERTEX
8
0
10
652.000000
20
226.000000
0
VERTEX
8
0
10
650.000000
20
224.000000
0
VERTEX
8
0
10
650.000000
20
220.000000
0
SEQEND
0
POLYLINE
8
0
6
CONTINUOUS
66
1
62
7
10
0.0
20
0.0
30
0.000000
0
VERTEX
8
0
10
126.000000
20
216.000000
0
VERTEX
8
0
10
126.250000
20
218.750000
0
VERTEX
8
0
10
134.951220
20
219.439024
0
VERTEX
8
0
10
136.100000
20
219.700000
0
VERTEX
8
0
10
138.000000
20
220.000000
0
VERTEX
8
0
10
140.000000
20
222.000000
0
VERTEX
8
0
10
140.000000
20
228.000000
0
VERTEX
8
0
10
137.000000
20
232.000000
0
VERTEX
8
0
10
136.000000
20
232.000000
0
VERTEX
8
0
10
135.000000
20
231.000000
0
VERTEX
8
0
10
135.000000
20
228.000000
0
VERTEX
8
0
10
134.000000
20
227.000000
0
VERTEX
8
0
10
126.250000
20
227.250000
0
VERTEX
8
0
10
126.000000
20
231.000000
0
VERTEX
8
0
10
125.750000
20
231.750000
0
VERTEX
8
0
10
123.000000
20
232.000000
0
VERTEX
8
0
10
122.000000
20
231.000000
0
VERTEX
8
0
10
122.000000
20
228.000000
0
VERTEX
8
0
10
121.000000
20
227.000000
0
VERTEX
8
0
10
119.000000
20
227.000000
0
VERTEX
8
0
10
118.000000
20
226.000000
0
VERTEX
8
0
10
118.300000
20
224.100000
0
VERTEX
8
0
10
124.000000
20
216.000000
0
VERTEX
8
0
10
126.000000
20
216.000000
0
SEQEND
0
POLYLINE
8
0
6
CONTINUOUS
66
1
62
7
10
0.0
20
0.0
30
0.000000
0
VERTEX
8
0
10
632.000000
20
226.000000
0
VERTEX
8
0
10
631.800000
20
225.100000
0
VERTEX
8
0
10
631.000000
20
224.000000
0
VERTEX
8
0
10
631.000000
20
217.000000
0
VERTEX
8
0
10
633.000000
20
215.000000
0
VERTEX
8
0
10
636.120000
20
216.160000
0
VERTEX
8
0
10
648.000000
20
217.000000
0
VERTEX
8
0
10
649.000000
20
218.000000
0
VERTEX
8
0
10
649.000000
20
219.000000
0
SEQEND
0
POLYLINE
8
0
6
CONTINUOUS
66
1
62
7
10
0.0
20
0.0
30
0.000000
0
VERTEX
8
0
10
410.000000
20
217.000000
0
VERTEX
8
0
10
416.060000
20
215.420000
0
VERTEX
8
0
10
421.940000
20
214.580000
0
VERTEX
8
0
10
423.000000
20
214.000000
0
VERTEX
8
0
10
450.000000
20
214.000000
0
VERTEX
8
0
10
462.923077
20
216.384615
0
VERTEX
8
0
10
523.060000
20
229.580000
0
VERTEX
8
0
10
541.000000
20
232.000000
0
VERTEX
8
0
10
562.000000
20
232.000000
0
VERTEX
8
0
10
563.000000
20
231.000000
0
VERTEX
8
0
10
567.000000
20
231.000000
0
VERTEX
8
0
10
569.000000
20
233.000000
0
VERTEX
8
0
10
569.000000
20
235.000000
0
SEQEND
0
POLYLINE
8
0
6
CONTINUOUS
66
1
62
7
10
0.0
20
0.0
30
0.000000
0
VERTEX
8
0
10
123.000000
20
209.000000
0
VERTEX
8
0
10
122.000000
20
209.000000
0
SEQEND
0
POLYLINE
8
0
6
CONTINUOUS
66
1
62
7
10
0.0
20
0.0
30
0.000000
0
VERTEX
8
0
10
122.000000
20
209.000000
0
VERTEX
8
0
10
121.000000
20
212.000000
0
VERTEX
8
0
10
119.000000
20
214.000000
0
VERTEX
8
0
10
118.000000
20
214.000000
0
VERTEX
8
0
10
116.000000
20
212.000000
0
VERTEX
8
0
10
117.000000
20
207.000000
0
VERTEX
8
0
10
119.000000
20
205.000000
0
VERTEX
8
0
10
120.000000
20
205.000000
0
VERTEX
8
0
10
122.000000
20
207.000000
0
VERTEX
8
0
10
122.000000
20
209.000000
0
SEQEND
0
POLYLINE
8
0
6
CONTINUOUS
66
1
62
7
10
0.0
20
0.0
30
0.000000
0
VERTEX
8
0
10
138.000000
20
205.000000
0
VERTEX
8
0
10
136.000000
20
207.000000
0
VERTEX
8
0
10
129.000000
20
207.000000
0
VERTEX
8
0
10
127.000000
20
205.000000
0
VERTEX
8
0
10
126.000000
20
205.000000
0
VERTEX
8
0
10
123.000000
20
209.000000
0
SEQEND
0
POLYLINE
8
0
6
CONTINUOUS
66
1
62
7
10
0.0
20
0.0
30
0.000000
0
VERTEX
8
0
10
139.000000
20
205.000000
0
VERTEX
8
0
10
138.000000
20
205.000000
0
SEQEND
0
POLYLINE
8
0
6
CONTINUOUS
66
1
62
7
10
0.0
20
0.0
30
0.000000
0
VERTEX
8
0
10
139.000000
20
205.000000
0
VERTEX
8
0
10
140.000000
20
206.000000
0
VERTEX
8
0
10
140.000000
20
215.000000
0
VERTEX
8
0
10
139.000000
20
216.000000
0
VERTEX
8
0
10
123.250000
20
213.750000
0
VERTEX
8
0
10
123.000000
20
209.000000
0
SEQEND
0
POLYLINE
8
0
6
CONTINUOUS
66
1
62
7
10
0.0
20
0.0
30
0.000000
0
VERTEX
8
0
10
507.000000
20
204.000000
0
VERTEX
8
0
10
505.000000
20
204.000000
0
SEQEND
0
POLYLINE
8
0
6
CONTINUOUS
66
1
62
7
10
0.0
20
0.0
30
0.000000
0
VERTEX
8
0
10
648.000000
20
199.000000
0
VERTEX
8
0
10
649.250000
20
203.750000
0
VERTEX
8
0
10
652.000000
20
204.000000
0
VERTEX
8
0
10
652.750000
20
204.250000
0
VERTEX
8
0
10
652.700000
20
206.900000
0
VERTEX
8
0
10
649.000000
20
213.000000
0
VERTEX
8
0
10
647.000000
20
215.000000
0
VERTEX
8
0
10
645.250000
20
214.750000
0
VERTEX
8
0
10
645.000000
20
213.000000
0
VERTEX
8
0
10
644.000000
20
212.000000
0
VERTEX
8
0
10
633.000000
20
211.000000
0
VERTEX
8
0
10
631.000000
20
208.000000
0
VERTEX
8
0
10
632.000000
20
201.000000
0
VERTEX
8
0
10
634.000000
20
199.000000
0
VERTEX
8
0
10
636.000000
20
199.000000
0
VERTEX
8
0
10
637.000000
20
200.000000
0
VERTEX
8
0
10
636.000000
20
203.000000
0
VERTEX
8
0
10
636.250000
20
203.750000
0
VERTEX
8
0
10
644.000000
20
204.000000
0
VERTEX
8
0
10
645.000000
20
203.000000
0
VERTEX
8
0
10
645.000000
20
200.000000
0
VERTEX
8
0
10
646.000000
20
199.000000
0
VERTEX
8
0
10
648.000000
20
199.000000
0
SEQEND
0
POLYLINE
8
0
6
CONTINUOUS
66
1
62
7
10
0.0
20
0.0
30
0.000000
0
VERTEX
8
0
10
139.000000
20
195.000000
0
VERTEX
8
0
10
138.000000
20
195.000000
0
SEQEND
0
POLYLINE
8
0
6
CONTINUOUS
66
1
62
7
10
0.0
20
0.0
30
0.000000
0
VERTEX
8
0
10
139.000000
20
195.000000
0
VERTEX
8
0
10
141.000000
20
199.000000
0
VERTEX
8
0
10
140.200000
20
202.100000
0
VERTEX
8
0
10
139.000000
20
205.000000
0
SEQEND
0
POLYLINE
8
0
6
CONTINUOUS
66
1
62
7
10
0.0
20
0.0
30
0.000000
0
VERTEX
8
0
10
262.000000
20
195.000000
0
VERTEX
8
0
10
263.000000
20
196.000000
0
VERTEX
8
0
10
263.000000
20
204.000000
0
VERTEX
8
0
10
262.000000
20
205.000000
0
VERTEX
8
0
10
261.000000
20
204.000000
0
VERTEX
8
0
10
261.000000
20
196.000000
0
VERTEX
8
0
10
262.000000
20
195.000000
0
SEQEND
0
POLYLINE
8
0
6
CONTINUOUS
66
1
62
7
10
0.0
20
0.0
30
0.000000
0
VERTEX
8
0
10
327.000000
20
195.000000
0
VERTEX
8
0
10
330.000000
20
204.000000
0
VERTEX
8
0
10
329.000000
20
205.000000
0
VERTEX
8
0
10
326.000000
20
205.000000
0
VERTEX
8
0
10
325.000000
20
204.000000
0
VERTEX
8
0
10
325.000000
20
198.000000
0
VERTEX
8
0
10
327.000000
20
195.000000
0
SEQEND
0
POLYLINE
8
0
6
CONTINUOUS
66
1
62
7
10
0.0
20
0.0
30
0.000000
0
VERTEX
8
0
10
138.000000
20
194.000000
0
VERTEX
8
0
10
138.000000
20
195.000000
0
SEQEND
0
POLYLINE
8
0
6
CONTINUOUS
66
1
62
7
10
0.0
20
0.0
30
0.000000
0
VERTEX
8
0
10
139.000000
20
194.000000
0
VERTEX
8
0
10
138.000000
20
194.000000
0
SEQEND
0
POLYLINE
8
0
6
CONTINUOUS
66
1
62
7
10
0.0
20
0.0
30
0.000000
0
VERTEX
8
0
10
139.000000
20
194.000000
0
VERTEX
8
0
10
139.000000
20
195.000000
0
SEQEND
0
POLYLINE
8
0
6
CONTINUOUS
66
1
62
7
10
0.0
20
0.0
30
0.000000
0
VERTEX
8
0
10
138.000000
20
195.000000
0
VERTEX
8
0
10
137.000000
20
196.000000
0
VERTEX
8
0
10
129.000000
20
196.000000
0
VERTEX
8
0
10
128.000000
20
195.000000
0
VERTEX
8
0
10
128.250000
20
193.250000
0
VERTEX
8
0
10
138.000000
20
194.000000
0
SEQEND
0
POLYLINE
8
0
6
CONTINUOUS
66
1
62
7
10
0.0
20
0.0
30
0.000000
0
VERTEX
8
0
10
262.000000
20
193.000000
0
VERTEX
8
0
10
262.000000
20
195.000000
0
SEQEND
0
POLYLINE
8
0
6
CONTINUOUS
66
1
62
7
10
0.0
20
0.0
30
0.000000
0
VERTEX
8
0
10
326.000000
20
193.000000
0
VERTEX
8
0
10
327.000000
20
195.000000
0
SEQEND
0
POLYLINE
8
0
6
CONTINUOUS
66
1
62
7
10
0.0
20
0.0
30
0.000000
0
VERTEX
8
0
10
380.000000
20
193.000000
0
VERTEX
8
0
10
380.000000
20
194.000000
0
SEQEND
0
POLYLINE
8
0
6
CONTINUOUS
66
1
62
7
10
0.0
20
0.0
30
0.000000
0
VERTEX
8
0
10
502.000000
20
192.000000
0
VERTEX
8
0
10
501.000000
20
193.000000
0
VERTEX
8
0
10
501.000000
20
202.000000
0
VERTEX
8
0
10
503.000000
20
205.000000
0
VERTEX
8
0
10
505.000000
20
204.000000
0
SEQEND
0
POLYLINE
8
0
6
CONTINUOUS
66
1
62
7
10
0.0
20
0.0
30
0.000000
0
VERTEX
8
0
10
502.000000
20
192.000000
0
VERTEX
8
0
10
503.200000
20
193.900000
0
VERTEX
8
0
10
504.594595
20
198.067568
0
VERTEX
8
0
10
505.000000
20
204.000000
0
SEQEND
0
POLYLINE
8
0
6
CONTINUOUS
66
1
62
7
10
0.0
20
0.0
30
0.000000
0
VERTEX
8
0
10
565.000000
20
192.000000
0
VERTEX
8
0
10
567.000000
20
196.000000
0
VERTEX
8
0
10
567.000000
20
204.000000
0
VERTEX
8
0
10
565.000000
20
205.000000
0
VERTEX
8
0
10
564.000000
20
204.000000
0
VERTEX
8
0
10
564.000000
20
193.000000
0
VERTEX
8
0
10
565.000000
20
192.000000
0
SEQEND
0
POLYLINE
8
0
6
CONTINUOUS
66
1
62
7
10
0.0
20
0.0
30
0.000000
0
VERTEX
8
0
10
502.000000
20
191.000000
0
VERTEX
8
0
10
502.000000
20
192.000000
0
SEQEND
0
POLYLINE
8
0
6
CONTINUOUS
66
1
62
7
10
0.0
20
0.0
30
0.000000
0
VERTEX
8
0
10
186.000000
20
190.000000
0
VERTEX
8
0
10
186.000000
20
196.000000
0
SEQEND
0
POLYLINE
8
0
6
CONTINUOUS
66
1
62
7
10
0.0
20
0.0
30
0.000000
0
VERTEX
8
0
10
467.000000
20
188.000000
0
VERTEX
8
0
10
467.000000
20
189.000000
0
VERTEX
8
0
10
467.000000
20
209.000000
0
VERTEX
8
0
10
466.000000
20
210.000000
0
VERTEX
8
0
10
462.923077
20
209.384615
0
VERTEX
8
0
10
459.000000
20
209.000000
0
VERTEX
8
0
10
457.000000
20
207.000000
0
VERTEX
8
0
10
461.700000
20
194.900000
0
VERTEX
8
0
10
462.700000
20
191.900000
0
VERTEX
8
0
10
463.000000
20
190.000000
0
VERTEX
8
0
10
465.000000
20
188.000000
0
VERTEX
8
0
10
467.000000
20
188.000000
0
SEQEND
0
POLYLINE
8
0
6
CONTINUOUS
66
1
62
7
10
0.0
20
0.0
30
0.000000
0
VERTEX
8
0
10
417.000000
20
187.000000
0
VERTEX
8
0
10
425.000000
20
207.000000
0
VERTEX
8
0
10
424.000000
20
208.000000
0
VERTEX
8
0
10
416.250000
20
208.750000
0
VERTEX
8
0
10
415.472376
20
205.975138
0
VERTEX
8
0
10
415.000000
20
188.000000
0
VERTEX
8
0
10
416.000000
20
187.000000
0
VERTEX
8
0
10
417.000000
20
187.000000
0
SEQEND
0
POLYLINE
8
0
6
CONTINUOUS
66
1
62
7
10
0.0
20
0.0
30
0.000000
0
VERTEX
8
0
10
566.000000
20
186.000000
0
VERTEX
8
0
10
571.000000
20
189.000000
0
VERTEX
8
0
10
573.000000
20
195.000000
0
VERTEX
8
0
10
573.000000
20
203.000000
0
VERTEX
8
0
10
571.700000
20
205.900000
0
VERTEX
8
0
10
571.300000
20
207.100000
0
VERTEX
8
0
10
571.000000
20
209.000000
0
VERTEX
8
0
10
569.000000
20
211.000000
0
VERTEX
8
0
10
565.000000
20
212.000000
0
VERTEX
8
0
10
562.000000
20
212.000000
0
VERTEX
8
0
10
559.000000
20
210.000000
0
VERTEX
8
0
10
559.000000
20
187.000000
0
VERTEX
8
0
10
560.000000
20
186.000000
0
VERTEX
8
0
10
566.000000
20
186.000000
0
SEQEND
0
POLYLINE
8
0
6
CONTINUOUS
66
1
62
7
10
0.0
20
0.0
30
0.000000
0
VERTEX
8
0
10
140.000000
20
183.000000
0
VERTEX
8
0
10
138.000000
20
183.000000
0
SEQEND
0
POLYLINE
8
0
6
CONTINUOUS
66
1
62
7
10
0.0
20
0.0
30
0.000000
0
VERTEX
8
0
10
140.000000
20
183.000000
0
VERTEX
8
0
10
141.000000
20
186.000000
0
VERTEX
8
0
10
141.000000
20
191.000000
0
VERTEX
8
0
10
139.000000
20
194.000000
0
SEQEND
0
POLYLINE
8
0
6
CONTINUOUS
66
1
62
7
10
0.0
20
0.0
30
0.000000
0
VERTEX
8
0
10
580.000000
20
183.000000
0
VERTEX
8
0
10
577.000000
20
184.000000
0
SEQEND
0
POLYLINE
8
0
6
CONTINUOUS
66
1
62
7
10
0.0
20
0.0
30
0.000000
0
VERTEX
8
0
10
138.000000
20
183.000000
0
VERTEX
8
0
10
138.000000
20
184.000000
0
VERTEX
8
0
10
137.000000
20
185.000000
0
VERTEX
8
0
10
129.000000
20
185.000000
0
VERTEX
8
0
10
128.000000
20
183.000000
0
VERTEX
8
0
10
129.000000
20
182.000000
0
VERTEX
8
0
10
137.000000
20
182.000000
0
VERTEX
8
0
10
138.000000
20
183.000000
0
SEQEND
0
POLYLINE
8
0
6
CONTINUOUS
66
1
62
7
10
0.0
20
0.0
30
0.000000
0
VERTEX
8
0
10
198.000000
20
221.000000
0
VERTEX
8
0
10
172.000000
20
221.000000
0
VERTEX
8
0
10
170.000000
20
219.000000
0
VERTEX
8
0
10
170.250000
20
182.250000
0
VERTEX
8
0
10
182.750000
20
183.250000
0
VERTEX
8
0
10
185.000000
20
190.000000
0
VERTEX
8
0
10
186.000000
20
190.000000
0
SEQEND
0
POLYLINE
8
0
6
CONTINUOUS
66
1
62
7
10
0.0
20
0.0
30
0.000000
0
VERTEX
8
0
10
343.000000
20
175.000000
0
VERTEX
8
0
10
342.000000
20
184.000000
0
VERTEX
8
0
10
343.000000
20
185.000000
0
VERTEX
8
0
10
354.000000
20
185.000000
0
VERTEX
8
0
10
355.000000
20
186.000000
0
VERTEX
8
0
10
354.750000
20
220.750000
0
VERTEX
8
0
10
241.000000
20
221.000000
0
VERTEX
8
0
10
240.000000
20
221.000000
0
SEQEND
0
POLYLINE
8
0
6
CONTINUOUS
66
1
62
7
10
0.0
20
0.0
30
0.000000
0
VERTEX
8
0
10
343.000000
20
174.000000
0
VERTEX
8
0
10
343.000000
20
175.000000
0
SEQEND
0
POLYLINE
8
0
6
CONTINUOUS
66
1
62
7
10
0.0
20
0.0
30
0.000000
0
VERTEX
8
0
10
644.000000
20
174.000000
0
VERTEX
8
0
10
645.900000
20
175.200000
0
VERTEX
8
0
10
650.000000
20
177.000000
0
VERTEX
8
0
10
650.200000
20
177.900000
0
VERTEX
8
0
10
651.000000
20
179.000000
0
VERTEX
8
0
10
648.000000
20
182.000000
0
VERTEX
8
0
10
643.000000
20
182.000000
0
VERTEX
8
0
10
639.900000
20
180.200000
0
VERTEX
8
0
10
636.000000
20
177.000000
0
VERTEX
8
0
10
636.000000
20
175.000000
0
VERTEX
8
0
10
637.000000
20
174.000000
0
VERTEX
8
0
10
644.000000
20
174.000000
0
SEQEND
0
POLYLINE
8
0
6
CONTINUOUS
66
1
62
7
10
0.0
20
0.0
30
0.000000
0
VERTEX
8
0
10
138.000000
20
172.000000
0
VERTEX
8
0
10
138.000000
20
173.000000
0
VERTEX
8
0
10
136.000000
20
175.000000
0
VERTEX
8
0
10
129.000000
20
175.000000
0
VERTEX
8
0
10
127.000000
20
173.000000
0
VERTEX
8
0
10
125.000000
20
174.000000
0
VERTEX
8
0
10
123.647059
20
178.911765
0
VERTEX
8
0
10
123.800000
20
184.900000
0
VERTEX
8
0
10
123.000000
20
186.000000
0
VERTEX
8
0
10
123.000000
20
190.000000
0
VERTEX
8
0
10
124.500000
20
193.000000
0
VERTEX
8
0
10
123.000000
20
196.000000
0
VERTEX
8
0
10
123.000000
20
200.000000
0
VERTEX
8
0
10
124.000000
20
202.000000
0
VERTEX
8
0
10
125.000000
20
203.000000
0
VERTEX
8
0
10
135.872832
20
203.826590
0
VERTEX
8
0
10
138.000000
20
205.000000
0
SEQEND
0
POLYLINE
8
0
6
CONTINUOUS
66
1
62
7
10
0.0
20
0.0
30
0.000000
0
VERTEX
8
0
10
139.000000
20
172.000000
0
VERTEX
8
0
10
138.000000
20
172.000000
0
SEQEND
0
POLYLINE
8
0
6
CONTINUOUS
66
1
62
7
10
0.0
20
0.0
30
0.000000
0
VERTEX
8
0
10
139.000000
20
172.000000
0
VERTEX
8
0
10
140.200000
20
173.900000
0
VERTEX
8
0
10
141.000000
20
175.000000
0
VERTEX
8
0
10
141.000000
20
181.000000
0
VERTEX
8
0
10
140.000000
20
183.000000
0
SEQEND
0
POLYLINE
8
0
6
CONTINUOUS
66
1
62
7
10
0.0
20
0.0
30
0.000000
0
VERTEX
8
0
10
380.000000
20
193.000000
0
VERTEX
8
0
10
378.800000
20
191.100000
0
VERTEX
8
0
10
373.000000
20
170.000000
0
VERTEX
8
0
10
374.000000
20
169.000000
0
VERTEX
8
0
10
380.067568
20
169.594595
0
VERTEX
8
0
10
385.000000
20
170.000000
0
VERTEX
8
0
10
386.000000
20
171.000000
0
VERTEX
8
0
10
385.615385
20
174.923077
0
VERTEX
8
0
10
381.700000
20
188.900000
0
VERTEX
8
0
10
380.000000
20
193.000000
0
SEQEND
0
POLYLINE
8
0
6
CONTINUOUS
66
1
62
7
10
0.0
20
0.0
30
0.000000
0
VERTEX
8
0
10
645.000000
20
166.000000
0
VERTEX
8
0
10
646.000000
20
166.000000
0
VERTEX
8
0
10
651.000000
20
168.000000
0
VERTEX
8
0
10
654.000000
20
171.000000
0
VERTEX
8
0
10
656.000000
20
177.000000
0
VERTEX
8
0
10
653.000000
20
186.000000
0
VERTEX
8
0
10
646.000000
20
190.000000
0
VERTEX
8
0
10
640.000000
20
190.000000
0
VERTEX
8
0
10
638.900000
20
189.200000
0
VERTEX
8
0
10
636.000000
20
188.000000
0
VERTEX
8
0
10
631.000000
20
182.000000
0
VERTEX
8
0
10
631.000000
20
174.000000
0
VERTEX
8
0
10
634.000000
20
169.000000
0
VERTEX
8
0
10
635.846154
20
167.769231
0
VERTEX
8
0
10
645.000000
20
166.000000
0
SEQEND
0
POLYLINE
8
0
6
CONTINUOUS
66
1
62
7
10
0.0
20
0.0
30
0.000000
0
VERTEX
8
0
10
645.000000
20
164.000000
0
VERTEX
8
0
10
645.000000
20
166.000000
0
SEQEND
0
POLYLINE
8
0
6
CONTINUOUS
66
1
62
7
10
0.0
20
0.0
30
0.000000
0
VERTEX
8
0
10
134.000000
20
159.000000
0
VERTEX
8
0
10
136.000000
20
160.000000
0
VERTEX
8
0
10
137.000000
20
162.000000
0
VERTEX
8
0
10
136.000000
20
163.000000
0
VERTEX
8
0
10
129.000000
20
164.000000
0
VERTEX
8
0
10
127.000000
20
162.000000
0
VERTEX
8
0
10
127.000000
20
161.000000
0
VERTEX
8
0
10
129.900000
20
159.700000
0
VERTEX
8
0
10
134.000000
20
159.000000
0
SEQEND
0
POLYLINE
8
0
6
CONTINUOUS
66
1
62
7
10
0.0
20
0.0
30
0.000000
0
VERTEX
8
0
10
511.000000
20
159.000000
0
VERTEX
8
0
10
510.000000
20
159.000000
0
SEQEND
0
POLYLINE
8
0
6
CONTINUOUS
66
1
62
7
10
0.0
20
0.0
30
0.000000
0
VERTEX
8
0
10
377.000000
20
157.000000
0
VERTEX
8
0
10
375.000000
20
157.000000
0
SEQEND
0
POLYLINE
8
0
6
CONTINUOUS
66
1
62
7
10
0.0
20
0.0
30
0.000000
0
VERTEX
8
0
10
262.000000
20
156.000000
0
VERTEX
8
0
10
262.750000
20
174.750000
0
VERTEX
8
0
10
262.000000
20
175.000000
0
VERTEX
8
0
10
260.000000
20
170.000000
0
VERTEX
8
0
10
260.000000
20
157.000000
0
VERTEX
8
0
10
262.000000
20
156.000000
0
SEQEND
0
POLYLINE
8
0
6
CONTINUOUS
66
1
62
7
10
0.0
20
0.0
30
0.000000
0
VERTEX
8
0
10
296.000000
20
156.000000
0
VERTEX
8
0
10
297.000000
20
182.000000
0
VERTEX
8
0
10
297.000000
20
205.000000
0
VERTEX
8
0
10
294.000000
20
207.000000
0
VERTEX
8
0
10
292.700000
20
204.100000
0
VERTEX
8
0
10
292.000000
20
157.000000
0
VERTEX
8
0
10
293.000000
20
156.000000
0
VERTEX
8
0
10
296.000000
20
156.000000
0
SEQEND
0
POLYLINE
8
0
6
CONTINUOUS
66
1
62
7
10
0.0
20
0.0
30
0.000000
0
VERTEX
8
0
10
329.000000
20
156.000000
0
VERTEX
8
0
10
335.000000
20
158.000000
0
VERTEX
8
0
10
335.000000
20
159.000000
0
VERTEX
8
0
10
334.000000
20
160.000000
0
VERTEX
8
0
10
330.000000
20
161.000000
0
VERTEX
8
0
10
329.000000
20
162.000000
0
VERTEX
8
0
10
327.000000
20
172.000000
0
VERTEX
8
0
10
326.000000
20
173.000000
0
VERTEX
8
0
10
325.000000
20
172.000000
0
VERTEX
8
0
10
325.000000
20
157.000000
0
VERTEX
8
0
10
326.000000
20
156.000000
0
VERTEX
8
0
10
329.000000
20
156.000000
0
SEQEND
0
POLYLINE
8
0
6
CONTINUOUS
66
1
62
7
10
0.0
20
0.0
30
0.000000
0
VERTEX
8
0
10
343.000000
20
175.000000
0
VERTEX
8
0
10
345.135135
20
176.189189
0
VERTEX
8
0
10
355.000000
20
177.000000
0
VERTEX
8
0
10
356.000000
20
176.000000
0
VERTEX
8
0
10
355.000000
20
161.000000
0
VERTEX
8
0
10
355.000000
20
158.000000
0
VERTEX
8
0
10
357.000000
20
156.000000
0
VERTEX
8
0
10
360.700000
20
163.100000
0
VERTEX
8
0
10
361.300000
20
164.900000
0
VERTEX
8
0
10
367.615385
20
185.076923
0
VERTEX
8
0
10
375.384615
20
213.923077
0
VERTEX
8
0
10
375.750000
20
217.750000
0
VERTEX
8
0
10
347.923077
20
225.615385
0
VERTEX
8
0
10
311.000000
20
230.000000
0
VERTEX
8
0
10
287.000000
20
230.000000
0
VERTEX
8
0
10
265.044554
20
227.554455
0
VERTEX
8
0
10
243.088235
20
223.647059
0
VERTEX
8
0
10
240.000000
20
222.000000
0
VERTEX
8
0
10
240.000000
20
221.000000
0
SEQEND
0
POLYLINE
8
0
6
CONTINUOUS
66
1
62
7
10
0.0
20
0.0
30
0.000000
0
VERTEX
8
0
10
381.000000
20
156.000000
0
VERTEX
8
0
10
377.000000
20
157.000000
0
SEQEND
0
POLYLINE
8
0
6
CONTINUOUS
66
1
62
7
10
0.0
20
0.0
30
0.000000
0
VERTEX
8
0
10
381.000000
20
156.000000
0
VERTEX
8
0
10
381.000000
20
157.000000
0
VERTEX
8
0
10
380.000000
20
158.000000
0
VERTEX
8
0
10
378.000000
20
158.000000
0
VERTEX
8
0
10
377.000000
20
157.000000
0
SEQEND
0
POLYLINE
8
0
6
CONTINUOUS
66
1
62
7
10
0.0
20
0.0
30
0.000000
0
VERTEX
8
0
10
383.000000
20
156.000000
0
VERTEX
8
0
10
381.000000
20
156.000000
0
SEQEND
0
POLYLINE
8
0
6
CONTINUOUS
66
1
62
7
10
0.0
20
0.0
30
0.000000
0
VERTEX
8
0
10
510.000000
20
159.000000
0
VERTEX
8
0
10
506.000000
20
161.000000
0
VERTEX
8
0
10
505.000000
20
162.000000
0
VERTEX
8
0
10
503.647059
20
169.911765
0
VERTEX
8
0
10
502.000000
20
173.000000
0
VERTEX
8
0
10
501.000000
20
172.000000
0
VERTEX
8
0
10
501.250000
20
156.250000
0
VERTEX
8
0
10
506.100000
20
156.800000
0
VERTEX
8
0
10
510.000000
20
159.000000
0
SEQEND
0
POLYLINE
8
0
6
CONTINUOUS
66
1
62
7
10
0.0
20
0.0
30
0.000000
0
VERTEX
8
0
10
533.000000
20
156.000000
0
VERTEX
8
0
10
534.300000
20
158.900000
0
VERTEX
8
0
10
535.000000
20
205.000000
0
VERTEX
8
0
10
534.750000
20
205.750000
0
VERTEX
8
0
10
532.000000
20
206.000000
0
VERTEX
8
0
10
531.250000
20
205.750000
0
VERTEX
8
0
10
531.000000
20
186.000000
0
VERTEX
8
0
10
530.750000
20
185.250000
0
VERTEX
8
0
10
520.000000
20
184.000000
0
VERTEX
8
0
10
518.000000
20
182.000000
0
VERTEX
8
0
10
518.250000
20
176.250000
0
VERTEX
8
0
10
531.750000
20
176.750000
0
VERTEX
8
0
10
533.000000
20
156.000000
0
SEQEND
0
POLYLINE
8
0
6
CONTINUOUS
66
1
62
7
10
0.0
20
0.0
30
0.000000
0
VERTEX
8
0
10
565.000000
20
156.000000
0
VERTEX
8
0
10
565.000000
20
172.000000
0
VERTEX
8
0
10
564.000000
20
173.000000
0
SEQEND
0
POLYLINE
8
0
6
CONTINUOUS
66
1
62
7
10
0.0
20
0.0
30
0.000000
0
VERTEX
8
0
10
417.000000
20
155.000000
0
VERTEX
8
0
10
424.000000
20
156.000000
0
VERTEX
8
0
10
426.000000
20
158.000000
0
VERTEX
8
0
10
427.000000
20
194.000000
0
VERTEX
8
0
10
426.000000
20
195.000000
0
VERTEX
8
0
10
423.000000
20
183.000000
0
VERTEX
8
0
10
422.000000
20
182.000000
0
VERTEX
8
0
10
411.000000
20
182.000000
0
VERTEX
8
0
10
410.000000
20
183.000000
0
VERTEX
8
0
10
410.000000
20
208.000000
0
VERTEX
8
0
10
406.911765
20
209.647059
0
VERTEX
8
0
10
404.088235
20
210.352941
0
VERTEX
8
0
10
400.250000
20
210.750000
0
VERTEX
8
0
10
400.000000
20
210.000000
0
VERTEX
8
0
10
401.300000
20
201.100000
0
VERTEX
8
0
10
401.800000
20
199.900000
0
VERTEX
8
0
10
415.000000
20
156.000000
0
VERTEX
8
0
10
417.000000
20
155.000000
0
SEQEND
0
POLYLINE
8
0
6
CONTINUOUS
66
1
62
7
10
0.0
20
0.0
30
0.000000
0
VERTEX
8
0
10
632.000000
20
154.000000
0
VERTEX
8
0
10
631.250000
20
163.750000
0
VERTEX
8
0
10
643.000000
20
163.000000
0
VERTEX
8
0
10
645.000000
20
164.000000
0
SEQEND
0
POLYLINE
8
0
6
CONTINUOUS
66
1
62
7
10
0.0
20
0.0
30
0.000000
0
VERTEX
8
0
10
633.000000
20
154.000000
0
VERTEX
8
0
10
632.000000
20
154.000000
0
SEQEND
0
POLYLINE
8
0
6
CONTINUOUS
66
1
62
7
10
0.0
20
0.0
30
0.000000
0
VERTEX
8
0
10
138.000000
20
153.000000
0
VERTEX
8
0
10
141.000000
20
157.000000
0
VERTEX
8
0
10
140.200000
20
170.100000
0
VERTEX
8
0
10
139.000000
20
172.000000
0
SEQEND
0
POLYLINE
8
0
6
CONTINUOUS
66
1
62
7
10
0.0
20
0.0
30
0.000000
0
VERTEX
8
0
10
632.000000
20
153.000000
0
VERTEX
8
0
10
632.000000
20
154.000000
0
SEQEND
0
POLYLINE
8
0
6
CONTINUOUS
66
1
62
7
10
0.0
20
0.0
30
0.000000
0
VERTEX
8
0
10
633.000000
20
153.000000
0
VERTEX
8
0
10
632.000000
20
153.000000
0
SEQEND
0
POLYLINE
8
0
6
CONTINUOUS
66
1
62
7
10
0.0
20
0.0
30
0.000000
0
VERTEX
8
0
10
633.000000
20
153.000000
0
VERTEX
8
0
10
633.000000
20
154.000000
0
SEQEND
0
POLYLINE
8
0
6
CONTINUOUS
66
1
62
7
10
0.0
20
0.0
30
0.000000
0
VERTEX
8
0
10
138.000000
20
172.000000
0
VERTEX
8
0
10
136.975138
20
171.472376
0
VERTEX
8
0
10
119.000000
20
171.000000
0
VERTEX
8
0
10
117.000000
20
169.000000
0
VERTEX
8
0
10
118.000000
20
163.000000
0
VERTEX
8
0
10
120.000000
20
161.000000
0
VERTEX
8
0
10
123.000000
20
164.000000
0
VERTEX
8
0
10
124.000000
20
163.000000
0
VERTEX
8
0
10
123.000000
20
161.000000
0
VERTEX
8
0
10
124.000000
20
156.000000
0
VERTEX
8
0
10
129.000000
20
152.000000
0
VERTEX
8
0
10
138.000000
20
153.000000
0
SEQEND
0
POLYLINE
8
0
6
CONTINUOUS
66
1
62
7
10
0.0
20
0.0
30
0.000000
0
VERTEX
8
0
10
139.000000
20
152.000000
0
VERTEX
8
0
10
138.000000
20
153.000000
0
SEQEND
0
POLYLINE
8
0
6
CONTINUOUS
66
1
62
7
10
0.0
20
0.0
30
0.000000
0
VERTEX
8
0
10
633.000000
20
153.000000
0
VERTEX
8
0
10
634.088235
20
152.352941
0
VERTEX
8
0
10
640.000000
20
151.000000
0
VERTEX
8
0
10
642.000000
20
152.000000
0
VERTEX
8
0
10
643.000000
20
153.000000
0
VERTEX
8
0
10
642.750000
20
154.750000
0
VERTEX
8
0
10
634.048780
20
154.560976
0
VERTEX
8
0
10
633.000000
20
154.000000
0
SEQEND
0
POLYLINE
8
0
6
CONTINUOUS
66
1
62
7
10
0.0
20
0.0
30
0.000000
0
VERTEX
8
0
10
215.000000
20
146.000000
0
VERTEX
8
0
10
214.200000
20
149.100000
0
VERTEX
8
0
10
210.000000
20
153.000000
0
VERTEX
8
0
10
210.000000
20
210.000000
0
VERTEX
8
0
10
212.000000
20
212.000000
0
VERTEX
8
0
10
213.000000
20
212.000000
0
VERTEX
8
0
10
215.000000
20
210.000000
0
VERTEX
8
0
10
218.700000
20
201.900000
0
VERTEX
8
0
10
222.000000
20
190.000000
0
VERTEX
8
0
10
225.000000
20
187.000000
0
VERTEX
8
0
10
226.750000
20
187.250000
0
VERTEX
8
0
10
226.541176
20
199.964706
0
VERTEX
8
0
10
225.750000
20
214.750000
0
VERTEX
8
0
10
223.000000
20
216.000000
0
VERTEX
8
0
10
214.000000
20
216.000000
0
VERTEX
8
0
10
204.100000
20
212.800000
0
VERTEX
8
0
10
203.000000
20
212.000000
0
VERTEX
8
0
10
201.000000
20
213.000000
0
VERTEX
8
0
10
200.750000
20
215.750000
0
VERTEX
8
0
10
177.000000
20
216.000000
0
VERTEX
8
0
10
176.000000
20
215.000000
0
VERTEX
8
0
10
175.000000
20
189.000000
0
VERTEX
8
0
10
177.000000
20
187.000000
0
VERTEX
8
0
10
179.300000
20
191.900000
0
VERTEX
8
0
10
179.700000
20
193.100000
0
VERTEX
8
0
10
186.000000
20
209.000000
0
VERTEX
8
0
10
188.900000
20
211.200000
0
VERTEX
8
0
10
190.000000
20
212.000000
0
VERTEX
8
0
10
192.000000
20
210.000000
0
VERTEX
8
0
10
192.000000
20
153.000000
0
VERTEX
8
0
10
186.000000
20
149.000000
0
VERTEX
8
0
10
186.250000
20
146.250000
0
VERTEX
8
0
10
214.000000
20
146.000000
0
VERTEX
8
0
10
215.000000
20
146.000000
0
SEQEND
0
POLYLINE
8
0
6
CONTINUOUS
66
1
62
7
10
0.0
20
0.0
30
0.000000
0
VERTEX
8
0
10
292.000000
20
146.000000
0
VERTEX
8
0
10
292.000000
20
149.000000
0
VERTEX
8
0
10
290.000000
20
151.000000
0
VERTEX
8
0
10
289.000000
20
151.000000
0
VERTEX
8
0
10
287.000000
20
153.000000
0
VERTEX
8
0
10
287.000000
20
210.000000
0
VERTEX
8
0
10
293.000000
20
214.000000
0
VERTEX
8
0
10
292.000000
20
215.000000
0
VERTEX
8
0
10
282.000000
20
216.000000
0
VERTEX
8
0
10
265.000000
20
216.000000
0
VERTEX
8
0
10
264.000000
20
215.000000
0
VERTEX
8
0
10
264.250000
20
212.250000
0
VERTEX
8
0
10
269.000000
20
210.000000
0
VERTEX
8
0
10
268.750000
20
188.250000
0
VERTEX
8
0
10
255.250000
20
188.250000
0
VERTEX
8
0
10
255.000000
20
189.000000
0
VERTEX
8
0
10
255.000000
20
209.000000
0
VERTEX
8
0
10
258.000000
20
212.000000
0
VERTEX
8
0
10
260.750000
20
212.250000
0
VERTEX
8
0
10
260.750000
20
215.750000
0
VERTEX
8
0
10
233.000000
20
216.000000
0
VERTEX
8
0
10
232.000000
20
215.000000
0
VERTEX
8
0
10
232.000000
20
213.000000
0
VERTEX
8
0
10
233.000000
20
212.000000
0
VERTEX
8
0
10
235.000000
20
212.000000
0
VERTEX
8
0
10
237.000000
20
210.000000
0
VERTEX
8
0
10
237.000000
20
153.000000
0
VERTEX
8
0
10
234.000000
20
150.000000
0
VERTEX
8
0
10
232.000000
20
150.000000
0
VERTEX
8
0
10
231.000000
20
149.000000
0
VERTEX
8
0
10
231.250000
20
146.250000
0
VERTEX
8
0
10
260.000000
20
146.000000
0
VERTEX
8
0
10
260.750000
20
146.250000
0
VERTEX
8
0
10
261.000000
20
149.000000
0
VERTEX
8
0
10
260.000000
20
150.000000
0
VERTEX
8
0
10
256.000000
20
151.000000
0
VERTEX
8
0
10
255.000000
20
152.000000
0
VERTEX
8
0
10
255.250000
20
179.750000
0
VERTEX
8
0
10
268.000000
20
181.000000
0
VERTEX
8
0
10
269.000000
20
180.000000
0
VERTEX
8
0
10
268.000000
20
153.000000
0
VERTEX
8
0
10
263.000000
20
149.000000
0
VERTEX
8
0
10
263.250000
20
146.250000
0
VERTEX
8
0
10
292.000000
20
146.000000
0
SEQEND
0
POLYLINE
8
0
6
CONTINUOUS
66
1
62
7
10
0.0
20
0.0
30
0.000000
0
VERTEX
8
0
10
350.000000
20
146.000000
0
VERTEX
8
0
10
351.000000
20
171.000000
0
VERTEX
8
0
10
350.000000
20
172.000000
0
VERTEX
8
0
10
349.000000
20
172.000000
0
VERTEX
8
0
10
347.800000
20
170.100000
0
VERTEX
8
0
10
347.300000
20
168.900000
0
VERTEX
8
0
10
343.000000
20
159.000000
0
VERTEX
8
0
10
336.000000
20
152.000000
0
VERTEX
8
0
10
332.923077
20
151.384615
0
VERTEX
8
0
10
325.000000
20
150.000000
0
VERTEX
8
0
10
321.000000
20
152.000000
0
VERTEX
8
0
10
320.000000
20
153.000000
0
VERTEX
8
0
10
320.000000
20
179.000000
0
VERTEX
8
0
10
321.000000
20
180.000000
0
VERTEX
8
0
10
322.900000
20
179.700000
0
VERTEX
8
0
10
331.000000
20
176.000000
0
VERTEX
8
0
10
332.800000
20
171.900000
0
VERTEX
8
0
10
334.000000
20
168.000000
0
VERTEX
8
0
10
336.000000
20
166.000000
0
VERTEX
8
0
10
337.000000
20
167.000000
0
VERTEX
8
0
10
337.000000
20
198.000000
0
VERTEX
8
0
10
335.000000
20
199.000000
0
VERTEX
8
0
10
333.352941
20
194.911765
0
VERTEX
8
0
10
330.000000
20
187.000000
0
VERTEX
8
0
10
328.100000
20
185.800000
0
VERTEX
8
0
10
326.911765
20
185.352941
0
VERTEX
8
0
10
320.250000
20
184.250000
0
VERTEX
8
0
10
320.000000
20
209.000000
0
VERTEX
8
0
10
325.000000
20
212.000000
0
VERTEX
8
0
10
328.000000
20
212.000000
0
VERTEX
8
0
10
336.846154
20
207.769231
0
VERTEX
8
0
10
340.000000
20
206.000000
0
VERTEX
8
0
10
343.482759
20
199.793103
0
VERTEX
8
0
10
345.200000
20
195.100000
0
VERTEX
8
0
10
348.000000
20
190.000000
0
VERTEX
8
0
10
349.750000
20
190.250000
0
VERTEX
8
0
10
349.544828
20
201.962069
0
VERTEX
8
0
10
349.000000
20
214.000000
0
VERTEX
8
0
10
348.000000
20
215.000000
0
VERTEX
8
0
10
324.019169
20
215.479233
0
VERTEX
8
0
10
297.250000
20
215.750000
0
VERTEX
8
0
10
297.000000
20
215.000000
0
VERTEX
8
0
10
297.000000
20
214.000000
0
VERTEX
8
0
10
299.000000
20
212.000000
0
VERTEX
8
0
10
300.000000
20
212.000000
0
VERTEX
8
0
10
301.200000
20
210.100000
0
VERTEX
8
0
10
302.000000
20
209.000000
0
VERTEX
8
0
10
302.000000
20
152.000000
0
VERTEX
8
0
10
300.000000
20
150.000000
0
VERTEX
8
0
10
297.000000
20
150.000000
0
VERTEX
8
0
10
296.000000
20
149.000000
0
VERTEX
8
0
10
296.000000
20
148.000000
0
VERTEX
8
0
10
298.000000
20
146.000000
0
VERTEX
8
0
10
350.000000
20
146.000000
0
SEQEND
0
POLYLINE
8
0
6
CONTINUOUS
66
1
62
7
10
0.0
20
0.0
30
0.000000
0
VERTEX
8
0
10
416.000000
20
146.000000
0
VERTEX
8
0
10
416.000000
20
149.000000
0
VERTEX
8
0
10
412.900000
20
150.800000
0
VERTEX
8
0
10
410.000000
20
153.000000
0
VERTEX
8
0
10
395.352941
20
204.088235
0
VERTEX
8
0
10
394.300000
20
208.100000
0
VERTEX
8
0
10
393.000000
20
213.000000
0
VERTEX
8
0
10
391.000000
20
215.000000
0
VERTEX
8
0
10
382.000000
20
215.000000
0
VERTEX
8
0
10
366.700000
20
164.100000
0
VERTEX
8
0
10
365.352941
20
159.911765
0
VERTEX
8
0
10
364.000000
20
154.000000
0
VERTEX
8
0
10
358.000000
20
149.000000
0
VERTEX
8
0
10
358.000000
20
147.000000
0
VERTEX
8
0
10
359.000000
20
146.000000
0
VERTEX
8
0
10
374.000000
20
146.000000
0
VERTEX
8
0
10
375.000000
20
147.000000
0
VERTEX
8
0
10
375.000000
20
149.000000
0
VERTEX
8
0
10
373.000000
20
151.000000
0
VERTEX
8
0
10
372.000000
20
151.000000
0
VERTEX
8
0
10
370.800000
20
152.900000
0
VERTEX
8
0
10
370.000000
20
154.000000
0
VERTEX
8
0
10
371.250000
20
163.750000
0
VERTEX
8
0
10
379.951220
20
163.560976
0
VERTEX
8
0
10
388.750000
20
162.750000
0
VERTEX
8
0
10
389.647059
20
158.911765
0
VERTEX
8
0
10
391.000000
20
152.000000
0
VERTEX
8
0
10
387.900000
20
150.300000
0
VERTEX
8
0
10
386.000000
20
150.000000
0
VERTEX
8
0
10
385.000000
20
148.000000
0
VERTEX
8
0
10
387.000000
20
146.000000
0
VERTEX
8
0
10
416.000000
20
146.000000
0
SEQEND
0
POLYLINE
8
0
6
CONTINUOUS
66
1
62
7
10
0.0
20
0.0
30
0.000000
0
VERTEX
8
0
10
453.000000
20
146.000000
0
VERTEX
8
0
10
455.000000
20
149.000000
0
VERTEX
8
0
10
454.000000
20
150.000000
0
VERTEX
8
0
10
453.100000
20
150.200000
0
VERTEX
8
0
10
450.000000
20
152.000000
0
VERTEX
8
0
10
449.750000
20
207.750000
0
VERTEX
8
0
10
433.000000
20
208.000000
0
VERTEX
8
0
10
432.250000
20
207.750000
0
VERTEX
8
0
10
431.509609
20
155.009253
0
VERTEX
8
0
10
430.750000
20
151.250000
0
VERTEX
8
0
10
426.000000
20
149.000000
0
VERTEX
8
0
10
426.000000
20
147.000000
0
VERTEX
8
0
10
427.000000
20
146.000000
0
VERTEX
8
0
10
453.000000
20
146.000000
0
SEQEND
0
POLYLINE
8
0
6
CONTINUOUS
66
1
62
7
10
0.0
20
0.0
30
0.000000
0
VERTEX
8
0
10
526.000000
20
146.000000
0
VERTEX
8
0
10
527.000000
20
171.000000
0
VERTEX
8
0
10
526.000000
20
172.000000
0
VERTEX
8
0
10
525.000000
20
172.000000
0
VERTEX
8
0
10
523.800000
20
170.100000
0
VERTEX
8
0
10
523.300000
20
168.900000
0
VERTEX
8
0
10
519.000000
20
159.000000
0
VERTEX
8
0
10
510.820000
20
152.240000
0
VERTEX
8
0
10
505.000000
20
150.000000
0
VERTEX
8
0
10
498.000000
20
151.000000
0
VERTEX
8
0
10
496.000000
20
153.000000
0
VERTEX
8
0
10
496.000000
20
180.000000
0
VERTEX
8
0
10
497.000000
20
181.000000
0
VERTEX
8
0
10
498.088235
20
180.352941
0
VERTEX
8
0
10
505.000000
20
178.000000
0
VERTEX
8
0
10
508.000000
20
175.000000
0
VERTEX
8
0
10
508.700000
20
171.900000
0
VERTEX
8
0
10
509.300000
20
170.100000
0
VERTEX
8
0
10
511.000000
20
166.000000
0
VERTEX
8
0
10
512.000000
20
167.000000
0
VERTEX
8
0
10
512.750000
20
198.750000
0
VERTEX
8
0
10
512.000000
20
199.000000
0
VERTEX
8
0
10
510.000000
20
198.000000
0
VERTEX
8
0
10
508.000000
20
189.000000
0
VERTEX
8
0
10
507.000000
20
188.000000
0
VERTEX
8
0
10
501.800000
20
185.400000
0
VERTEX
8
0
10
497.000000
20
184.000000
0
VERTEX
8
0
10
496.000000
20
185.000000
0
VERTEX
8
0
10
496.000000
20
209.000000
0
VERTEX
8
0
10
498.000000
20
211.000000
0
VERTEX
8
0
10
506.000000
20
211.000000
0
VERTEX
8
0
10
512.000000
20
209.000000
0
VERTEX
8
0
10
517.000000
20
204.000000
0
VERTEX
8
0
10
522.000000
20
193.000000
0
VERTEX
8
0
10
524.000000
20
191.000000
0
VERTEX
8
0
10
525.000000
20
192.000000
0
VERTEX
8
0
10
525.450820
20
201.959016
0
VERTEX
8
0
10
525.750000
20
214.750000
0
VERTEX
8
0
10
488.012803
20
214.513495
0
VERTEX
8
0
10
485.100000
20
213.700000
0
VERTEX
8
0
10
483.923077
20
213.384615
0
VERTEX
8
0
10
478.000000
20
212.000000
0
VERTEX
8
0
10
477.000000
20
211.000000
0
VERTEX
8
0
10
478.000000
20
210.000000
0
VERTEX
8
0
10
478.000000
20
152.000000
0
VERTEX
8
0
10
474.900000
20
150.300000
0
VERTEX
8
0
10
472.250000
20
149.750000
0
VERTEX
8
0
10
472.000000
20
148.000000
0
VERTEX
8
0
10
473.000000
20
147.000000
0
VERTEX
8
0
10
526.000000
20
146.000000
0
SEQEND
0
POLYLINE
8
0
6
CONTINUOUS
66
1
62
7
10
0.0
20
0.0
30
0.000000
0
VERTEX
8
0
10
580.000000
20
183.000000
0
VERTEX
8
0
10
580.000000
20
184.000000
0
VERTEX
8
0
10
581.900000
20
185.200000
0
VERTEX
8
0
10
589.000000
20
190.000000
0
VERTEX
8
0
10
591.000000
20
194.000000
0
VERTEX
8
0
10
591.000000
20
205.000000
0
VERTEX
8
0
10
588.800000
20
208.900000
0
VERTEX
8
0
10
587.000000
20
212.000000
0
VERTEX
8
0
10
582.100000
20
214.200000
0
VERTEX
8
0
10
536.000000
20
216.000000
0
VERTEX
8
0
10
535.250000
20
215.750000
0
VERTEX
8
0
10
535.000000
20
213.000000
0
VERTEX
8
0
10
541.000000
20
210.000000
0
VERTEX
8
0
10
540.000000
20
152.000000
0
VERTEX
8
0
10
538.000000
20
150.000000
0
VERTEX
8
0
10
535.250000
20
149.750000
0
VERTEX
8
0
10
535.000000
20
148.000000
0
VERTEX
8
0
10
535.250000
20
147.250000
0
VERTEX
8
0
10
540.932432
20
146.594595
0
VERTEX
8
0
10
563.000000
20
146.000000
0
VERTEX
8
0
10
564.000000
20
147.000000
0
VERTEX
8
0
10
564.000000
20
148.000000
0
VERTEX
8
0
10
561.000000
20
151.000000
0
VERTEX
8
0
10
560.000000
20
151.000000
0
VERTEX
8
0
10
559.000000
20
152.000000
0
VERTEX
8
0
10
559.250000
20
181.750000
0
VERTEX
8
0
10
565.911765
20
180.647059
0
VERTEX
8
0
10
569.000000
20
179.000000
0
VERTEX
8
0
10
570.700000
20
157.900000
0
VERTEX
8
0
10
572.700000
20
152.900000
0
VERTEX
8
0
10
573.000000
20
151.000000
0
VERTEX
8
0
10
577.900000
20
146.800000
0
VERTEX
8
0
10
579.000000
20
146.000000
0
VERTEX
8
0
10
587.000000
20
146.000000
0
VERTEX
8
0
10
588.076923
20
146.615385
0
VERTEX
8
0
10
594.000000
20
148.000000
0
VERTEX
8
0
10
596.000000
20
150.000000
0
VERTEX
8
0
10
598.000000
20
157.000000
0
VERTEX
8
0
10
598.000000
20
160.000000
0
VERTEX
8
0
10
597.000000
20
161.000000
0
VERTEX
8
0
10
595.000000
20
159.000000
0
VERTEX
8
0
10
594.300000
20
155.900000
0
VERTEX
8
0
10
594.000000
20
154.000000
0
VERTEX
8
0
10
592.000000
20
152.000000
0
VERTEX
8
0
10
591.000000
20
152.000000
0
VERTEX
8
0
10
589.000000
20
154.000000
0
VERTEX
8
0
10
588.531034
20
169.972414
0
VERTEX
8
0
10
587.700000
20
172.900000
0
VERTEX
8
0
10
587.352941
20
174.088235
0
VERTEX
8
0
10
586.000000
20
179.000000
0
VERTEX
8
0
10
580.000000
20
183.000000
0
SEQEND
0
POLYLINE
8
0
6
CONTINUOUS
66
1
62
7
10
0.0
20
0.0
30
0.000000
0
VERTEX
8
0
10
632.000000
20
153.000000
0
VERTEX
8
0
10
631.000000
20
152.000000
0
VERTEX
8
0
10
631.000000
20
144.000000
0
VERTEX
8
0
10
632.000000
20
143.000000
0
VERTEX
8
0
10
635.088235
20
143.647059
0
VERTEX
8
0
10
646.000000
20
145.000000
0
VERTEX
8
0
10
648.000000
20
147.000000
0
VERTEX
8
0
10
648.000000
20
152.000000
0
VERTEX
8
0
10
647.000000
20
153.000000
0
VERTEX
8
0
10
648.000000
20
160.000000
0
VERTEX
8
0
10
645.000000
20
164.000000
0
SEQEND
0
POLYLINE
8
0
6
CONTINUOUS
66
1
62
7
10
0.0
20
0.0
30
0.000000
0
VERTEX
8
0
10
186.000000
20
190.000000
0
VERTEX
8
0
10
185.750000
20
156.250000
0
VERTEX
8
0
10
183.000000
20
156.000000
0
VERTEX
8
0
10
180.000000
20
153.000000
0
VERTEX
8
0
10
180.000000
20
142.000000
0
VERTEX
8
0
10
181.000000
20
141.000000
0
VERTEX
8
0
10
219.000000
20
141.000000
0
VERTEX
8
0
10
220.000000
20
142.000000
0
VERTEX
8
0
10
220.750000
20
154.750000
0
VERTEX
8
0
10
219.100000
20
155.200000
0
VERTEX
8
0
10
215.250000
20
156.250000
0
VERTEX
8
0
10
215.000000
20
157.000000
0
VERTEX
8
0
10
215.000000
20
192.000000
0
VERTEX
8
0
10
216.000000
20
193.000000
0
VERTEX
8
0
10
217.000000
20
192.000000
0
VERTEX
8
0
10
218.000000
20
185.000000
0
VERTEX
8
0
10
220.000000
20
183.000000
0
VERTEX
8
0
10
230.000000
20
182.000000
0
VERTEX
8
0
10
231.000000
20
181.000000
0
VERTEX
8
0
10
232.000000
20
158.000000
0
VERTEX
8
0
10
231.000000
20
157.000000
0
VERTEX
8
0
10
228.000000
20
156.000000
0
VERTEX
8
0
10
227.000000
20
155.000000
0
VERTEX
8
0
10
226.250000
20
141.250000
0
VERTEX
8
0
10
460.000000
20
141.000000
0
VERTEX
8
0
10
461.000000
20
142.000000
0
VERTEX
8
0
10
461.000000
20
155.000000
0
VERTEX
8
0
10
455.000000
20
157.000000
0
VERTEX
8
0
10
455.000000
20
194.000000
0
VERTEX
8
0
10
456.000000
20
195.000000
0
VERTEX
8
0
10
460.000000
20
182.000000
0
VERTEX
8
0
10
471.000000
20
182.000000
0
VERTEX
8
0
10
472.000000
20
181.000000
0
VERTEX
8
0
10
473.000000
20
160.000000
0
VERTEX
8
0
10
472.000000
20
157.000000
0
VERTEX
8
0
10
471.000000
20
156.000000
0
VERTEX
8
0
10
469.000000
20
156.000000
0
VERTEX
8
0
10
466.800000
20
153.100000
0
VERTEX
8
0
10
466.000000
20
152.000000
0
VERTEX
8
0
10
466.000000
20
143.000000
0
VERTEX
8
0
10
468.000000
20
141.000000
0
VERTEX
8
0
10
567.000000
20
141.000000
0
VERTEX
8
0
10
570.000000
20
146.000000
0
VERTEX
8
0
10
573.180000
20
143.240000
0
VERTEX
8
0
10
581.000000
20
140.000000
0
VERTEX
8
0
10
591.000000
20
140.000000
0
VERTEX
8
0
10
594.900000
20
142.200000
0
VERTEX
8
0
10
596.100000
20
142.800000
0
VERTEX
8
0
10
600.000000
20
146.000000
0
VERTEX
8
0
10
600.200000
20
146.900000
0
VERTEX
8
0
10
602.549180
20
152.040984
0
VERTEX
8
0
10
604.000000
20
163.000000
0
VERTEX
8
0
10
604.000000
20
165.000000
0
VERTEX
8
0
10
603.000000
20
166.000000
0
VERTEX
8
0
10
595.000000
20
166.000000
0
VERTEX
8
0
10
591.200000
20
180.100000
0
VERTEX
8
0
10
590.000000
20
184.000000
0
VERTEX
8
0
10
595.615385
20
192.076923
0
VERTEX
8
0
10
596.384615
20
195.923077
0
VERTEX
8
0
10
597.000000
20
197.000000
0
VERTEX
8
0
10
597.000000
20
205.000000
0
VERTEX
8
0
10
592.000000
20
215.000000
0
VERTEX
8
0
10
587.100000
20
218.200000
0
VERTEX
8
0
10
583.932432
20
219.594595
0
VERTEX
8
0
10
579.067568
20
220.405405
0
VERTEX
8
0
10
526.000000
20
221.000000
0
VERTEX
8
0
10
525.000000
20
221.000000
0
SEQEND
0
POLYLINE
8
0
6
CONTINUOUS
66
1
62
7
10
0.0
20
0.0
30
0.000000
0
VERTEX
8
0
10
131.000000
20
134.000000
0
VERTEX
8
0
10
131.000000
20
137.000000
0
VERTEX
8
0
10
130.000000
20
138.000000
0
VERTEX
8
0
10
129.100000
20
137.800000
0
VERTEX
8
0
10
126.000000
20
136.000000
0
VERTEX
8
0
10
127.000000
20
135.000000
0
VERTEX
8
0
10
131.000000
20
134.000000
0
SEQEND
0
POLYLINE
8
0
6
CONTINUOUS
66
1
62
7
10
0.0
20
0.0
30
0.000000
0
VERTEX
8
0
10
644.000000
20
131.000000
0
VERTEX
8
0
10
644.700000
20
132.100000
0
VERTEX
8
0
10
644.750000
20
134.750000
0
VERTEX
8
0
10
642.250000
20
134.750000
0
VERTEX
8
0
10
642.000000
20
134.000000
0
VERTEX
8
0
10
642.000000
20
132.000000
0
VERTEX
8
0
10
644.000000
20
131.000000
0
SEQEND
0
POLYLINE
8
0
6
CONTINUOUS
66
1
62
7
10
0.0
20
0.0
30
0.000000
0
VERTEX
8
0
10
643.000000
20
125.000000
0
VERTEX
8
0
10
645.000000
20
126.000000
0
VERTEX
8
0
10
647.200000
20
128.900000
0
VERTEX
8
0
10
648.300000
20
131.900000
0
VERTEX
8
0
10
648.000000
20
137.000000
0
VERTEX
8
0
10
644.000000
20
141.000000
0
VERTEX
8
0
10
637.000000
20
142.000000
0
VERTEX
8
0
10
635.000000
20
141.000000
0
VERTEX
8
0
10
631.000000
20
137.000000
0
VERTEX
8
0
10
631.000000
20
130.000000
0
VERTEX
8
0
10
634.000000
20
126.000000
0
VERTEX
8
0
10
636.000000
20
126.000000
0
VERTEX
8
0
10
637.000000
20
127.000000
0
VERTEX
8
0
10
635.000000
20
130.000000
0
VERTEX
8
0
10
635.000000
20
132.000000
0
VERTEX
8
0
10
638.000000
20
135.000000
0
VERTEX
8
0
10
639.000000
20
134.000000
0
VERTEX
8
0
10
639.000000
20
126.000000
0
VERTEX
8
0
10
640.000000
20
125.000000
0
VERTEX
8
0
10
643.000000
20
125.000000
0
SEQEND
0
POLYLINE
8
0
6
CONTINUOUS
66
1
62
7
10
0.0
20
0.0
30
0.000000
0
VERTEX
8
0
10
139.000000
20
152.000000
0
VERTEX
8
0
10
138.000000
20
150.000000
0
VERTEX
8
0
10
133.100000
20
147.800000
0
VERTEX
8
0
10
131.900000
20
147.200000
0
VERTEX
8
0
10
119.000000
20
141.000000
0
VERTEX
8
0
10
117.800000
20
139.100000
0
VERTEX
8
0
10
116.500000
20
136.000000
0
VERTEX
8
0
10
117.000000
20
134.000000
0
VERTEX
8
0
10
128.900000
20
130.800000
0
VERTEX
8
0
10
130.900000
20
129.800000
0
VERTEX
8
0
10
140.750000
20
124.250000
0
VERTEX
8
0
10
141.000000
20
132.000000
0
VERTEX
8
0
10
140.000000
20
133.000000
0
VERTEX
8
0
10
138.000000
20
132.000000
0
VERTEX
8
0
10
136.000000
20
132.000000
0
VERTEX
8
0
10
135.000000
20
133.000000
0
VERTEX
8
0
10
135.000000
20
138.000000
0
VERTEX
8
0
10
137.000000
20
140.000000
0
VERTEX
8
0
10
139.000000
20
138.000000
0
VERTEX
8
0
10
140.000000
20
138.000000
0
VERTEX
8
0
10
141.000000
20
139.000000
0
VERTEX
8
0
10
141.000000
20
150.000000
0
VERTEX
8
0
10
139.000000
20
152.000000
0
SEQEND
0
POLYLINE
8
0
6
CONTINUOUS
66
1
62
7
10
0.0
20
0.0
30
0.000000
0
VERTEX
8
0
10
658.000000
20
112.000000
0
VERTEX
8
0
10
663.100000
20
113.800000
0
VERTEX
8
0
10
666.000000
20
115.000000
0
VERTEX
8
0
10
671.000000
20
120.000000
0
VERTEX
8
0
10
672.000000
20
124.000000
0
VERTEX
8
0
10
672.000000
20
303.000000
0
VERTEX
8
0
10
669.000000
20
309.000000
0
VERTEX
8
0
10
665.100000
20
312.200000
0
VERTEX
8
0
10
659.000000
20
315.000000
0
VERTEX
8
0
10
114.000000
20
315.000000
0
VERTEX
8
0
10
112.900000
20
314.300000
0
VERTEX
8
0
10
107.000000
20
312.000000
0
VERTEX
8
0
10
101.000000
20
302.000000
0
VERTEX
8
0
10
101.000000
20
125.000000
0
VERTEX
8
0
10
103.200000
20
120.100000
0
VERTEX
8
0
10
103.800000
20
118.900000
0
VERTEX
8
0
10
107.000000
20
115.000000
0
VERTEX
8
0
10
111.088235
20
113.352941
0
VERTEX
8
0
10
113.911765
20
112.647059
0
VERTEX
8
0
10
658.000000
20
112.000000
0
SEQEND
0
POLYLINE
8
0
6
CONTINUOUS
66
1
62
7
10
0.0
20
0.0
30
0.000000
0
VERTEX
8
0
10
676.000000
20
92.000000
0
VERTEX
8
0
10
684.000000
20
98.000000
0
VERTEX
8
0
10
684.200000
20
98.900000
0
VERTEX
8
0
10
687.000000
20
105.000000
0
VERTEX
8
0
10
687.000000
20
322.000000
0
VERTEX
8
0
10
684.000000
20
328.000000
0
VERTEX
8
0
10
677.000000
20
335.000000
0
VERTEX
8
0
10
96.000000
20
335.000000
0
VERTEX
8
0
10
88.000000
20
327.000000
0
VERTEX
8
0
10
86.000000
20
322.000000
0
VERTEX
8
0
10
86.000000
20
104.000000
0
VERTEX
8
0
10
89.000000
20
98.000000
0
VERTEX
8
0
10
91.000000
20
96.000000
0
VERTEX
8
0
10
97.000861
20
92.499136
0
VERTEX
8
0
10
676.000000
20
92.000000
0
SEQEND
0
POLYLINE
8
0
6
CONTINUOUS
66
1
62
7
10
0.0
20
0.0
30
0.000000
0
VERTEX
8
0
10
707.000000
20
63.000000
0
VERTEX
8
0
10
707.000000
20
64.000000
0
VERTEX
8
0
10
709.800000
20
73.100000
0
VERTEX
8
0
10
710.000000
20
74.000000
0
VERTEX
8
0
10
713.846154
20
77.230769
0
VERTEX
8
0
10
716.200000
20
78.600000
0
VERTEX
8
0
10
722.000000
20
81.000000
0
VERTEX
8
0
10
722.000000
20
345.000000
0
VERTEX
8
0
10
720.000000
20
347.000000
0
VERTEX
8
0
10
716.900000
20
347.800000
0
VERTEX
8
0
10
710.000000
20
352.000000
0
VERTEX
8
0
10
707.300000
20
361.100000
0
VERTEX
8
0
10
706.750000
20
363.750000
0
VERTEX
8
0
10
67.000000
20
364.000000
0
VERTEX
8
0
10
66.250000
20
363.750000
0
VERTEX
8
0
10
65.700000
20
361.100000
0
VERTEX
8
0
10
62.000000
20
351.000000
0
VERTEX
8
0
10
60.100000
20
349.800000
0
VERTEX
8
0
10
58.900000
20
349.200000
0
VERTEX
8
0
10
53.000000
20
347.000000
0
VERTEX
8
0
10
51.000000
20
345.000000
0
VERTEX
8
0
10
51.000000
20
81.000000
0
VERTEX
8
0
10
52.000000
20
80.000000
0
VERTEX
8
0
10
60.000000
20
77.000000
0
VERTEX
8
0
10
63.000000
20
74.000000
0
VERTEX
8
0
10
65.700000
20
65.900000
0
VERTEX
8
0
10
66.250000
20
63.250000
0
VERTEX
8
0
10
706.000000
20
63.000000
0
VERTEX
8
0
10
707.000000
20
63.000000
0
SEQEND
0
POLYLINE
8
0
6
CONTINUOUS
66
1
62
7
10
0.0
20
0.0
30
0.000000
0
VERTEX
8
0
10
727.000000
20
39.000000
0
VERTEX
8
0
10
727.000000
20
40.000000
0
VERTEX
8
0
10
729.200000
20
49.900000
0
VERTEX
8
0
10
730.200000
20
51.900000
0
VERTEX
8
0
10
732.000000
20
55.000000
0
VERTEX
8
0
10
732.846154
20
55.230769
0
VERTEX
8
0
10
743.000000
20
61.000000
0
VERTEX
8
0
10
743.000000
20
366.000000
0
VERTEX
8
0
10
741.000000
20
368.000000
0
VERTEX
8
0
10
739.100000
20
368.300000
0
VERTEX
8
0
10
732.000000
20
372.000000
0
VERTEX
8
0
10
728.800000
20
377.900000
0
VERTEX
8
0
10
727.615385
20
382.923077
0
VERTEX
8
0
10
726.750000
20
386.750000
0
VERTEX
8
0
10
47.000000
20
387.000000
0
VERTEX
8
0
10
46.000000
20
386.000000
0
VERTEX
8
0
10
45.700000
20
384.100000
0
VERTEX
8
0
10
42.000000
20
373.000000
0
VERTEX
8
0
10
40.153846
20
371.769231
0
VERTEX
8
0
10
35.900000
20
369.200000
0
VERTEX
8
0
10
32.000000
20
368.000000
0
VERTEX
8
0
10
30.000000
20
366.000000
0
VERTEX
8
0
10
30.000000
20
61.000000
0
VERTEX
8
0
10
32.000000
20
59.000000
0
VERTEX
8
0
10
35.100000
20
58.200000
0
VERTEX
8
0
10
35.900000
20
57.800000
0
VERTEX
8
0
10
42.000000
20
54.000000
0
VERTEX
8
0
10
42.200000
20
53.100000
0
VERTEX
8
0
10
44.594595
20
47.932432
0
VERTEX
8
0
10
46.000000
20
40.000000
0
VERTEX
8
0
10
47.000000
20
39.000000
0
VERTEX
8
0
10
727.000000
20
39.000000
0
SEQEND
0
POLYLINE
8
0
6
CONTINUOUS
66
1
62
7
10
0.0
20
0.0
30
0.000000
0
VERTEX
8
0
10
748.000000
20
25.000000
0
VERTEX
8
0
10
748.000000
20
26.000000
0
VERTEX
8
0
10
750.200000
20
35.900000
0
VERTEX
8
0
10
751.200000
20
37.900000
0
VERTEX
8
0
10
754.000000
20
42.000000
0
VERTEX
8
0
10
765.000000
20
48.000000
0
VERTEX
8
0
10
764.750000
20
379.750000
0
VERTEX
8
0
10
764.000000
20
380.000000
0
VERTEX
8
0
10
755.000000
20
384.000000
0
VERTEX
8
0
10
752.000000
20
387.000000
0
VERTEX
8
0
10
749.384615
20
393.076923
0
VERTEX
8
0
10
748.615385
20
396.923077
0
VERTEX
8
0
10
747.750000
20
401.750000
0
VERTEX
8
0
10
26.000000
20
402.000000
0
VERTEX
8
0
10
25.000000
20
401.000000
0
VERTEX
8
0
10
24.647059
20
398.088235
0
VERTEX
8
0
10
21.000000
20
387.000000
0
VERTEX
8
0
10
17.180000
20
383.760000
0
VERTEX
8
0
10
11.088235
20
380.647059
0
VERTEX
8
0
10
8.250000
20
379.750000
0
VERTEX
8
0
10
8.000000
20
379.000000
0
VERTEX
8
0
10
8.000000
20
48.000000
0
VERTEX
8
0
10
10.000000
20
46.000000
0
VERTEX
8
0
10
13.100000
20
45.200000
0
VERTEX
8
0
10
21.000000
20
40.000000
0
VERTEX
8
0
10
24.647059
20
28.911765
0
VERTEX
8
0
10
25.250000
20
25.250000
0
VERTEX
8
0
10
747.000000
20
25.000000
0
VERTEX
8
0
10
748.000000
20
25.000000
0
SEQEND
0
ENDSEC
0
EOF
