  0
SECTION
  2
HEADER
  9
$ACADVER
  1
AC1018
  9
$ACADMAINTVER
 70
     0
  9
$DWGCODEPAGE
  3
ANSI_1256
  9
$INSBASE
 10
0.0
 20
0.0
 30
0.0
  9
$EXTMIN
 10
0.0
 20
0.0
 30
0.0
  9
$EXTMAX
 10
33.5016
 20
33.84
 30
0.0
  9
$LIMMIN
 10
0.0
 20
0.0
  9
$LIMMAX
 10
12.0
 20
9.0
  9
$ORTHOMODE
 70
     0
  9
$REGENMODE
 70
     1
  9
$FILLMODE
 70
     1
  9
$QTEXTMODE
 70
     0
  9
$MIRRTEXT
 70
     1
  9
$LTSCALE
 40
1.0
  9
$ATTMODE
 70
     1
  9
$TEXTSIZE
 40
0.2
  9
$TRACEWID
 40
0.05
  9
$TEXTSTYLE
  7
Standard
  9
$CLAYER
  8
0
  9
$CELTYPE
  6
ByBlock
  9
$CECOLOR
 62
   256
  9
$CELTSCALE
 40
1.0
  9
$DISPSILH
 70
     0
  9
$DIMSCALE
 40
1.0
  9
$DIMASZ
 40
0.18
  9
$DIMEXO
 40
0.0625
  9
$DIMDLI
 40
0.38
  9
$DIMRND
 40
0.0
  9
$DIMDLE
 40
0.0
  9
$DIMEXE
 40
0.18
  9
$DIMTP
 40
0.0
  9
$DIMTM
 40
0.0
  9
$DIMTXT
 40
0.18
  9
$DIMCEN
 40
0.09
  9
$DIMTSZ
 40
0.0
  9
$DIMTOL
 70
     0
  9
$DIMLIM
 70
     0
  9
$DIMTIH
 70
     1
  9
$DIMTOH
 70
     1
  9
$DIMSE1
 70
     0
  9
$DIMSE2
 70
     0
  9
$DIMTAD
 70
     0
  9
$DIMZIN
 70
     0
  9
$DIMBLK
  1

  9
$DIMASO
 70
     1
  9
$DIMSHO
 70
     1
  9
$DIMPOST
  1

  9
$DIMAPOST
  1

  9
$DIMALT
 70
     0
  9
$DIMALTD
 70
     2
  9
$DIMALTF
 40
25.4
  9
$DIMLFAC
 40
1.0
  9
$DIMTOFL
 70
     0
  9
$DIMTVP
 40
0.0
  9
$DIMTIX
 70
     0
  9
$DIMSOXD
 70
     0
  9
$DIMSAH
 70
     0
  9
$DIMBLK1
  1

  9
$DIMBLK2
  1

  9
$DIMSTYLE
  2
Standard
  9
$DIMCLRD
 70
     0
  9
$DIMCLRE
 70
     0
  9
$DIMCLRT
 70
     0
  9
$DIMTFAC
 40
1.0
  9
$DIMGAP
 40
0.09
  9
$DIMJUST
 70
     0
  9
$DIMSD1
 70
     0
  9
$DIMSD2
 70
     0
  9
$DIMTOLJ
 70
     1
  9
$DIMTZIN
 70
     0
  9
$DIMALTZ
 70
     0
  9
$DIMALTTZ
 70
     0
  9
$DIMUPT
 70
     0
  9
$DIMDEC
 70
     4
  9
$DIMTDEC
 70
     4
  9
$DIMALTU
 70
     2
  9
$DIMALTTD
 70
     2
  9
$DIMTXSTY
  7
Standard
  9
$DIMAUNIT
 70
     0
  9
$DIMADEC
 70
     0
  9
$DIMALTRND
 40
0.0
  9
$DIMAZIN
 70
     0
  9
$DIMDSEP
 70
    46
  9
$DIMATFIT
 70
     3
  9
$DIMFRAC
 70
     0
  9
$DIMLDRBLK
  1

  9
$DIMLUNIT
 70
     2
  9
$DIMLWD
 70
    -2
  9
$DIMLWE
 70
    -2
  9
$DIMTMOVE
 70
     2
  9
$LUNITS
 70
     2
  9
$LUPREC
 70
     4
  9
$SKETCHINC
 40
0.1
  9
$FILLETRAD
 40
0.5
  9
$AUNITS
 70
     0
  9
$AUPREC
 70
     0
  9
$MENU
  1
.
  9
$ELEVATION
 40
0.0
  9
$PELEVATION
 40
0.0
  9
$THICKNESS
 40
0.0
  9
$LIMCHECK
 70
     0
  9
$CHAMFERA
 40
0.0
  9
$CHAMFERB
 40
0.0
  9
$CHAMFERC
 40
0.0
  9
$CHAMFERD
 40
0.0
  9
$SKPOLY
 70
     0
  9
$TDCREATE
 40
2457958.699034618
  9
$TDUCREATE
 40
2457958.574034618
  9
$TDUPDATE
 40
2457958.699035
  9
$TDUUPDATE
 40
2457958.574035
  9
$TDINDWG
 40
0.0000000116
  9
$TDUSRTIMER
 40
0.0000000116
  9
$USRTIMER
 70
     1
  9
$ANGBASE
 50
0.0
  9
$ANGDIR
 70
     0
  9
$PDMODE
 70
     0
  9
$PDSIZE
 40
0.0
  9
$PLINEWID
 40
0.0
  9
$SPLFRAME
 70
     0
  9
$SPLINETYPE
 70
     6
  9
$SPLINESEGS
 70
     8
  9
$HANDSEED
  5
A1C
  9
$SURFTAB1
 70
     6
  9
$SURFTAB2
 70
     6
  9
$SURFTYPE
 70
     6
  9
$SURFU
 70
     6
  9
$SURFV
 70
     6
  9
$UCSBASE
  2

  9
$UCSNAME
  2

  9
$UCSORG
 10
0.0
 20
0.0
 30
0.0
  9
$UCSXDIR
 10
1.0
 20
0.0
 30
0.0
  9
$UCSYDIR
 10
0.0
 20
1.0
 30
0.0
  9
$UCSORTHOREF
  2

  9
$UCSORTHOVIEW
 70
     0
  9
$UCSORGTOP
 10
0.0
 20
0.0
 30
0.0
  9
$UCSORGBOTTOM
 10
0.0
 20
0.0
 30
0.0
  9
$UCSORGLEFT
 10
0.0
 20
0.0
 30
0.0
  9
$UCSORGRIGHT
 10
0.0
 20
0.0
 30
0.0
  9
$UCSORGFRONT
 10
0.0
 20
0.0
 30
0.0
  9
$UCSORGBACK
 10
0.0
 20
0.0
 30
0.0
  9
$PUCSBASE
  2

  9
$PUCSNAME
  2

  9
$PUCSORG
 10
0.0
 20
0.0
 30
0.0
  9
$PUCSXDIR
 10
1.0
 20
0.0
 30
0.0
  9
$PUCSYDIR
 10
0.0
 20
1.0
 30
0.0
  9
$PUCSORTHOREF
  2

  9
$PUCSORTHOVIEW
 70
     0
  9
$PUCSORGTOP
 10
0.0
 20
0.0
 30
0.0
  9
$PUCSORGBOTTOM
 10
0.0
 20
0.0
 30
0.0
  9
$PUCSORGLEFT
 10
0.0
 20
0.0
 30
0.0
  9
$PUCSORGRIGHT
 10
0.0
 20
0.0
 30
0.0
  9
$PUCSORGFRONT
 10
0.0
 20
0.0
 30
0.0
  9
$PUCSORGBACK
 10
0.0
 20
0.0
 30
0.0
  9
$USERI1
 70
     0
  9
$USERI2
 70
     0
  9
$USERI3
 70
     0
  9
$USERI4
 70
     0
  9
$USERI5
 70
     0
  9
$USERR1
 40
0.0
  9
$USERR2
 40
0.0
  9
$USERR3
 40
0.0
  9
$USERR4
 40
0.0
  9
$USERR5
 40
0.0
  9
$WORLDVIEW
 70
     1
  9
$SHADEDGE
 70
     3
  9
$SHADEDIF
 70
    70
  9
$TILEMODE
 70
     1
  9
$MAXACTVP
 70
    64
  9
$PINSBASE
 10
0.0
 20
0.0
 30
0.0
  9
$PLIMCHECK
 70
     0
  9
$PEXTMIN
 10
1.000000000000000E+20
 20
1.000000000000000E+20
 30
1.000000000000000E+20
  9
$PEXTMAX
 10
-1.000000000000000E+20
 20
-1.000000000000000E+20
 30
-1.000000000000000E+20
  9
$PLIMMIN
 10
0.0
 20
0.0
  9
$PLIMMAX
 10
12.0
 20
9.0
  9
$UNITMODE
 70
     0
  9
$VISRETAIN
 70
     1
  9
$PLINEGEN
 70
     0
  9
$PSLTSCALE
 70
     1
  9
$TREEDEPTH
 70
  3020
  9
$CMLSTYLE
  2
Standard
  9
$CMLJUST
 70
     0
  9
$CMLSCALE
 40
1.0
  9
$PROXYGRAPHICS
 70
     1
  9
$MEASUREMENT
 70
     0
  9
$CELWEIGHT
370
    -1
  9
$ENDCAPS
280
     0
  9
$JOINSTYLE
280
     0
  9
$LWDISPLAY
290
     0
  9
$INSUNITS
 70
     0
  9
$HYPERLINKBASE
  1

  9
$STYLESHEET
  1

  9
$XEDIT
290
     1
  9
$CEPSNTYPE
380
     0
  9
$PSTYLEMODE
290
     1
  9
$FINGERPRINTGUID
  2
{3E326B4A-99C1-44C1-A19A-EC01F4022616}
  9
$VERSIONGUID
  2
{FAEB1C32-E019-11D5-929B-00C0DF256EC4}
  9
$EXTNAMES
290
     1
  9
$PSVPSCALE
 40
0.0
  9
$OLESTARTUP
290
     0
  9
$SORTENTS
280
   127
  9
$INDEXCTL
280
     0
  9
$HIDETEXT
280
     1
  9
$XCLIPFRAME
290
     0
  9
$HALOGAP
280
     0
  9
$OBSCOLOR
 70
   257
  9
$OBSLTYPE
280
     0
  9
$INTERSECTIONDISPLAY
280
     0
  9
$INTERSECTIONCOLOR
 70
   257
  9
$DIMASSOC
280
     2
  9
$PROJECTNAME
  1

  0
ENDSEC
  0
SECTION
  2
CLASSES
  0
CLASS
  1
ACDBDICTIONARYWDFLT
  2
AcDbDictionaryWithDefault
  3
ObjectDBX Classes
 90
        0
 91
        4
280
     0
281
     0
  0
CLASS
  1
SCALE
  2
AcDbScale
  3
ObjectDBX Classes
 90
     1153
 91
        4
280
     0
281
     0
  0
CLASS
  1
VISUALSTYLE
  2
AcDbVisualStyle
  3
ObjectDBX Classes
 90
     4095
 91
        4
280
     0
281
     0
  0
CLASS
  1
MATERIAL
  2
AcDbMaterial
  3
ObjectDBX Classes
 90
     1153
 91
        4
280
     0
281
     0
  0
CLASS
  1
TABLESTYLE
  2
AcDbTableStyle
  3
ObjectDBX Classes
 90
     4095
 91
        4
280
     0
281
     0
  0
CLASS
  1
MLEADERSTYLE
  2
AcDbMLeaderStyle
  3
ACDB_MLEADERSTYLE_CLASS
 90
     4095
 91
        4
280
     0
281
     0
  0
CLASS
  1
DICTIONARYVAR
  2
AcDbDictionaryVar
  3
ObjectDBX Classes
 90
        0
 91
        4
280
     0
281
     0
  0
CLASS
  1
CELLSTYLEMAP
  2
AcDbCellStyleMap
  3
ObjectDBX Classes
 90
     1152
 91
        4
280
     0
281
     0
  0
ENDSEC
  0
SECTION
  2
TABLES
  0
TABLE
  2
VPORT
  5
8
102
{ACAD_XDICTIONARY
360
9D5
102
}
330
0
100
AcDbSymbolTable
 70
     1
  0
VPORT
  5
21
330
8
100
AcDbSymbolTableRecord
100
AcDbViewportTableRecord
  2
*Active
 70
     0
 10
0.0
 20
0.0
 11
1.0
 21
1.0
 12
10.42990654205607
 22
4.5
 13
0.0
 23
0.0
 14
0.5
 24
0.5
 15
0.5
 25
0.5
 16
0.0
 26
0.0
 36
1.0
 17
0.0
 27
0.0
 37
0.0
 40
9.0
 41
1.972972972850329
 42
50.0
 43
0.0
 44
0.0
 50
0.0
 51
0.0
 71
     0
 72
   100
 73
     1
 74
     3
 75
     0
 76
     0
 77
     0
 78
     0
281
     0
 65
     1
110
0.0
120
0.0
130
0.0
111
1.0
121
0.0
131
0.0
112
0.0
122
1.0
132
0.0
 79
     0
146
0.0
  0
ENDTAB
  0
TABLE
  2
LTYPE
  5
5
330
0
100
AcDbSymbolTable
 70
     1
  0
LTYPE
  5
14
330
5
100
AcDbSymbolTableRecord
100
AcDbLinetypeTableRecord
  2
ByBlock
 70
     0
  3

 72
    65
 73
     0
 40
0.0
  0
LTYPE
  5
15
330
5
100
AcDbSymbolTableRecord
100
AcDbLinetypeTableRecord
  2
ByLayer
 70
     0
  3

 72
    65
 73
     0
 40
0.0
  0
LTYPE
  5
16
330
5
100
AcDbSymbolTableRecord
100
AcDbLinetypeTableRecord
  2
Continuous
 70
     0
  3
Solid line
 72
    65
 73
     0
 40
0.0
  0
ENDTAB
  0
TABLE
  2
LAYER
  5
2
330
0
100
AcDbSymbolTable
 70
     1
  0
LAYER
  5
10
330
2
100
AcDbSymbolTableRecord
100
AcDbLayerTableRecord
  2
0
 70
     0
 62
     7
  6
Continuous
370
    -3
390
F
  0
ENDTAB
  0
TABLE
  2
STYLE
  5
3
330
0
100
AcDbSymbolTable
 70
     1
  0
STYLE
  5
11
330
3
100
AcDbSymbolTableRecord
100
AcDbTextStyleTableRecord
  2
Standard
 70
     0
 40
0.0
 41
1.0
 50
0.0
 71
     0
 42
0.2
  3
txt
  4

  0
ENDTAB
  0
TABLE
  2
VIEW
  5
6
330
0
100
AcDbSymbolTable
 70
     0
  0
ENDTAB
  0
TABLE
  2
UCS
  5
7
330
0
100
AcDbSymbolTable
 70
     0
  0
ENDTAB
  0
TABLE
  2
APPID
  5
9
330
0
100
AcDbSymbolTable
 70
     2
  0
APPID
  5
12
330
9
100
AcDbSymbolTableRecord
100
AcDbRegAppTableRecord
  2
ACAD
 70
     0
  0
APPID
  5
A13
330
9
100
AcDbSymbolTableRecord
100
AcDbRegAppTableRecord
  2
ACAD_MLEADERVER
 70
     0
  0
ENDTAB
  0
TABLE
  2
DIMSTYLE
  5
A
330
0
100
AcDbSymbolTable
 70
     1
100
AcDbDimStyleTable
  0
DIMSTYLE
105
20
330
A
100
AcDbSymbolTableRecord
100
AcDbDimStyleTableRecord
  2
Standard
 70
     0
178
     0
340
11
  0
ENDTAB
  0
TABLE
  2
BLOCK_RECORD
  5
1
330
0
100
AcDbSymbolTable
 70
     0
  0
BLOCK_RECORD
  5
1D
330
1
100
AcDbSymbolTableRecord
100
AcDbBlockTableRecord
  2
*Model_Space
340
1E
  0
BLOCK_RECORD
  5
1B
330
1
100
AcDbSymbolTableRecord
100
AcDbBlockTableRecord
  2
*Paper_Space
340
1C
  0
ENDTAB
  0
ENDSEC
  0
SECTION
  2
BLOCKS
  0
BLOCK
  5
9B0
330
1D
100
AcDbEntity
  8
0
100
AcDbBlockBegin
  2
*Model_Space
 70
     0
 10
0.0
 20
0.0
 30
0.0
  3
*Model_Space
  1

  0
ENDBLK
  5
9B1
330
1D
100
AcDbEntity
  8
0
100
AcDbBlockEnd
  0
BLOCK
  5
9B2
330
1B
100
AcDbEntity
 67
     1
  8
0
100
AcDbBlockBegin
  2
*Paper_Space
 70
     0
 10
0.0
 20
0.0
 30
0.0
  3
*Paper_Space
  1

  0
ENDBLK
  5
9B3
330
1B
100
AcDbEntity
 67
     1
  8
0
100
AcDbBlockEnd
  0
ENDSEC
  0
SECTION
  2
ENTITIES
  0
LWPOLYLINE
  5
22
330
1D
100
AcDbEntity
  8
0
100
AcDbPolyline
 90
        8
 70
     1
 43
0.0
 10
16.7508
 20
33.84
 10
0.0
 20
33.84
 10
0.0
 20
16.92
 10
0.0
 20
0.0
 10
16.7508
 20
0.0
 10
33.5016
 20
0.0
 10
33.5016
 20
16.92
 10
33.5016
 20
33.84
  0
LWPOLYLINE
  5
2C
330
1D
100
AcDbEntity
  8
0
100
AcDbPolyline
 90
        8
 70
     1
 43
0.0
 10
16.7508
 20
33.7554
 10
33.417
 20
33.7554
 10
33.417
 20
16.92
 10
33.417
 20
0.0846
 10
16.7508
 20
0.0846
 10
0.0846
 20
0.0846
 10
0.0846
 20
16.92
 10
0.0846
 20
33.7554
  0
LWPOLYLINE
  5
36
330
1D
100
AcDbEntity
  8
0
100
AcDbPolyline
 90
       68
 70
     1
 43
0.0
 10
26.83935
 20
32.729502
 42
0.001552
 10
24.76599
 20
32.718189
 42
0.003216
 10
23.14738
 20
32.693923
 42
0.003752
 10
21.917922
 20
32.658349
 42
0.015643
 10
21.178626
 20
32.608213
 42
0.005568
 10
20.679531
 20
32.553025
 42
0.00351
 10
20.098036
 20
32.478015
 42
0.003524
 10
19.527234
 20
32.396205
 42
0.006464
 10
19.063626
 20
32.32028
 42
0.003645
 10
18.659277
 20
32.245637
 42
0.004128
 10
18.272533
 20
32.168007
 42
0.003769
 10
17.944999
 20
32.096863
 42
0.022667
 10
17.776943
 20
32.050939
 10
17.491787
 20
31.958941
 10
18.585736
 20
31.432147
 10
19.679686
 20
30.905353
 10
20.309093
 20
31.016037
 42
-0.013887
 10
20.637843
 20
31.06448
 42
-0.004211
 10
21.138806
 20
31.119864
 42
-0.004214
 10
21.7016
 20
31.172501
 42
-0.00458
 10
22.2498
 20
31.214061
 42
-0.007875
 10
22.912729
 20
31.247738
 42
-0.002765
 10
23.865528
 20
31.275832
 42
-0.002744
 10
24.913795
 20
31.295184
 42
-0.003211
 10
25.90875
 20
31.3017
 42
-0.002563
 10
26.808952
 20
31.297201
 42
-0.004273
 10
27.566778
 20
31.283052
 42
-0.000734
 10
28.230978
 20
31.263995
 42
-0.40541
 10
28.2564
 20
31.237795
 42
-0.194978
 10
28.238639
 20
31.19398
 42
-0.000445
 10
27.740737
 20
30.681672
 42
-0.002804
 10
27.173961
 20
30.106031
 42
-0.001728
 10
26.50095
 20
29.434774
 42
-0.001119
 10
25.783985
 20
28.727774
 42
-0.001205
 10
25.08135
 20
28.041315
 42
-0.001137
 10
24.475512
 20
27.454945
 42
-0.005766
 10
24.13337
 20
27.132826
 42
-0.010056
 10
23.875983
 20
26.905427
 42
-0.009959
 10
23.608837
 20
26.687804
 42
-0.009861
 10
23.367696
 20
26.506779
 42
-0.037571
 10
23.207311
 20
26.408639
 10
22.893381
 20
26.247583
 10
22.869928
 20
25.422964
 10
22.846476
 20
24.598345
 10
23.119188
 20
24.651638
 42
0.063456
 10
23.265785
 20
24.700175
 42
0.012822
 10
23.510601
 20
24.825184
 42
0.013341
 10
23.789585
 20
24.986568
 42
0.012131
 10
24.0687
 20
25.167597
 42
0.015034
 10
24.380265
 20
25.394623
 42
0.007472
 10
24.761879
 20
25.699897
 42
0.00741
 10
25.148241
 20
26.028293
 42
0.010795
 10
25.478058
 20
26.329981
 42
0.008572
 10
25.885046
 20
26.732291
 42
0.00169
 10
26.600329
 20
27.468983
 42
0.001791
 10
27.427753
 20
28.333127
 42
0.001662
 10
28.269858
 20
29.224849
 42
0.000253
 10
29.097041
 20
30.107519
 42
0.000298
 10
29.879518
 20
30.944329
 42
0.000261
 10
30.539752
 20
31.65199
 42
0.001859
 10
30.85785
 20
31.99585
 42
0.006795
 10
31.060457
 20
32.222616
 42
0.010061
 10
31.23128
 20
32.427294
 42
0.005654
 10
31.368591
 20
32.602745
 42
0.16465
 10
31.3866
 20
32.655951
 42
0.408748
 10
31.346856
 20
32.696445
 42
0.000631
 10
30.226587
 20
32.715979
 42
0.003382
 10
28.820617
 20
32.72921
 42
0.00125
  0
LWPOLYLINE
  5
7C
330
1D
100
AcDbEntity
  8
0
100
AcDbPolyline
 90
       86
 70
     1
 43
0.0
 10
7.376248
 20
32.6556
 42
0.001246
 10
5.270109
 20
32.65035
 42
0.002273
 10
3.550723
 20
32.633964
 42
0.00026
 10
2.050357
 20
32.612065
 42
0.255903
 10
1.993559
 20
32.579833
 42
0.32618
 10
1.997833
 20
32.524451
 42
0.001768
 10
2.367785
 20
32.095044
 42
0.006537
 10
2.805041
 20
31.604243
 42
0.003992
 10
3.333275
 20
31.035883
 42
0.001648
 10
3.920338
 20
30.418344
 42
0.001445
 10
4.537716
 20
29.776907
 42
0.001452
 10
5.098566
 20
29.200919
 42
0.00435
 10
5.486443
 20
28.811712
 10
6.25307
 20
28.055724
 10
6.743185
 20
28.509252
 42
-0.000452
 10
6.936873
 20
28.688156
 42
-0.0006
 10
7.113365
 20
28.85049
 42
-0.000424
 10
7.26165
 20
28.98632
 42
-0.006053
 10
7.315126
 20
29.034045
 42
0.402242
 10
7.320561
 20
29.094692
 42
0.007808
 10
7.102052
 20
29.358851
 42
0.013148
 10
6.805221
 20
29.688532
 42
0.006197
 10
6.405676
 20
30.099176
 42
-0.002926
 10
6.025683
 20
30.484647
 42
-0.004654
 10
5.705587
 20
30.819359
 42
-0.001225
 10
5.430764
 20
31.11358
 42
-0.189437
 10
5.4144
 20
31.155221
 42
-0.407629
 10
5.439273
 20
31.18066
 42
-0.000427
 10
6.291351
 20
31.199135
 42
-0.003255
 10
7.255029
 20
31.212932
 42
-0.001952
 10
8.399765
 20
31.2174
 42
-0.002434
 10
9.813499
 20
31.210519
 42
-0.005214
 10
10.904208
 20
31.188523
 42
-0.006592
 10
11.746211
 20
31.151639
 42
-0.016805
 10
12.354815
 20
31.096367
 42
-0.004565
 10
12.772987
 20
31.040291
 42
-0.003523
 10
13.227914
 20
30.971778
 42
-0.003562
 10
13.651992
 20
30.901752
 42
-0.008515
 10
13.965382
 20
30.842195
 42
-0.010705
 10
14.261954
 20
30.77393
 42
-0.005639
 10
14.627366
 20
30.677142
 42
-0.005608
 10
14.999466
 20
30.56957
 42
-0.008605
 10
15.318982
 20
30.467275
 42
-0.005557
 10
15.646011
 20
30.352267
 42
-0.003072
 10
16.043001
 20
30.204907
 42
-0.003062
 10
16.44354
 20
30.050614
 42
-0.004922
 10
16.78289
 20
29.913629
 42
-0.003634
 10
17.100105
 20
29.779222
 42
-0.003116
 10
17.432074
 20
29.633246
 42
-0.003139
 10
17.731959
 20
29.496876
 42
-0.008989
 10
17.938015
 20
29.397073
 42
0.012578
 10
18.146759
 20
29.297812
 42
0.055023
 10
18.276764
 20
29.256343
 42
0.108301
 10
18.364865
 20
29.257834
 42
0.162763
 10
18.429615
 20
29.298013
 42
-0.069711
 10
18.49309
 20
29.355841
 42
-0.006755
 10
18.666913
 20
29.471263
 42
-0.008472
 10
18.879281
 20
29.603143
 42
-0.006601
 10
19.114336
 20
29.739471
 42
0.006342
 10
19.343204
 20
29.872052
 42
0.009959
 10
19.536067
 20
29.992339
 42
0.004448
 10
19.695312
 20
30.09815
 42
0.247798
 10
19.711597
 20
30.128709
 42
0.196488
 10
19.699207
 20
30.159353
 42
0.010786
 10
19.623774
 20
30.233524
 42
0.015407
 10
19.527063
 20
30.319134
 42
0.010543
 10
19.412342
 20
30.410526
 42
0.021437
 10
19.251386
 20
30.522718
 42
0.006412
 10
18.996813
 20
30.679866
 42
0.006416
 10
18.706181
 20
30.849134
 42
0.006906
 10
18.418292
 20
31.006687
 42
0.015445
 10
18.080825
 20
31.172224
 42
0.007063
 10
17.631003
 20
31.368282
 42
0.006986
 10
17.151087
 20
31.5616
 42
0.009566
 10
16.713543
 20
31.721231
 42
0.004476
 10
16.279938
 20
31.865764
 42
0.003625
 10
15.812254
 20
32.01328
 42
0.003664
 10
15.378919
 20
32.143047
 42
0.009463
 10
15.063843
 20
32.228456
 42
0.008815
 10
14.758164
 20
32.299434
 42
0.004141
 10
14.360688
 20
32.380935
 42
0.004102
 10
13.942692
 20
32.459486
 42
0.005756
 10
13.568205
 20
32.522244
 42
0.025435
 10
12.893278
 20
32.592467
 42
0.00782
 10
11.869878
 20
32.630528
 42
0.004511
 10
10.269662
 20
32.650551
 42
0.000873
  0
LWPOLYLINE
  5
D4
330
1D
100
AcDbEntity
  8
0
100
AcDbPolyline
 90
       60
 70
     1
 43
0.0
 10
32.243428
 20
30.647462
 10
32.1903
 20
31.811825
 10
29.96955
 20
29.589375
 42
0.001291
 10
29.118114
 20
28.732875
 42
0.002109
 10
28.401145
 20
28.001764
 42
0.000254
 10
27.765922
 20
27.347857
 42
0.195017
 10
27.7488
 20
27.305629
 42
0.181961
 10
27.763664
 20
27.266139
 42
0.003396
 10
27.91329
 20
27.097849
 42
0.007849
 10
28.094155
 20
26.903412
 42
0.005112
 10
28.308767
 20
26.684367
 10
28.868734
 20
26.1244
 10
29.914752
 20
27.21155
 10
30.960771
 20
28.2987
 10
30.935396
 20
23.3496
 42
-0.000595
 10
30.915238
 20
20.158263
 42
-0.007719
 10
30.887978
 20
18.970295
 42
-0.021347
 10
30.832058
 20
18.282018
 42
-0.037727
 10
30.719361
 20
17.7237
 42
-0.012772
 10
30.62585
 20
17.42155
 42
-0.007931
 10
30.501507
 20
17.071751
 42
-0.007955
 10
30.367742
 20
16.730232
 42
-0.014225
 10
30.245467
 20
16.4547
 42
-0.023141
 10
30.100106
 20
16.183737
 42
-0.011649
 10
29.8933
 20
15.855307
 42
-0.011542
 10
29.663333
 20
15.525105
 42
-0.016784
 10
29.444333
 20
15.245811
 10
28.926433
 20
14.629123
 10
29.102127
 20
14.382383
 42
-0.020309
 10
29.181527
 20
14.260707
 42
-0.009124
 10
29.276253
 20
14.094995
 42
-0.009016
 10
29.370114
 20
13.916029
 42
-0.012131
 10
29.448177
 20
13.750528
 42
0.013031
 10
29.546614
 20
13.5428
 42
0.086279
 10
29.614988
 20
13.451105
 42
0.1953
 10
29.683968
 20
13.424176
 42
0.120034
 10
29.769617
 20
13.446271
 42
0.059827
 10
29.854846
 20
13.505955
 42
0.007253
 10
30.023284
 20
13.661283
 42
0.008529
 10
30.218373
 20
13.852927
 42
0.006932
 10
30.421001
 20
14.064679
 42
0.021461
 10
30.664071
 20
14.349423
 42
0.018536
 10
30.894627
 20
14.667891
 42
0.017642
 10
31.111941
 20
15.01896
 42
0.015271
 10
31.315259
 20
15.401564
 42
0.009349
 10
31.4794
 20
15.750928
 42
0.007079
 10
31.646846
 20
16.140054
 42
0.007163
 10
31.793685
 20
16.509968
 42
0.016492
 10
31.890846
 20
16.7931
 42
0.014189
 10
31.969164
 20
17.076948
 42
0.006689
 10
32.054918
 20
17.447428
 42
0.006622
 10
32.134438
 20
17.838024
 42
0.009278
 10
32.194338
 20
18.189
 42
0.026612
 10
32.256464
 20
18.82567
 42
0.006385
 10
32.289685
 20
19.88707
 42
0.004142
 10
32.306272
 20
21.507499
 42
0.000956
 10
32.306379
 20
24.2379
 42
0.00089
 10
32.29873
 20
26.33159
 42
0.001097
 10
32.283835
 20
28.284354
 42
0.000904
 10
32.264752
 20
29.925213
 42
0.00804
  0
LWPOLYLINE
  5
112
330
1D
100
AcDbEntity
  8
0
100
AcDbPolyline
 90
       64
 70
     1
 43
0.0
 10
1.466083
 20
31.0482
 42
0.407782
 10
1.398999
 20
30.982576
 42
0.001399
 10
1.375097
 20
29.738568
 42
0.003546
 10
1.357697
 20
27.871789
 42
0.000557
 10
1.3536
 20
24.1956
 42
0.000868
 10
1.358159
 20
21.567973
 42
0.001447
 10
1.372238
 20
19.355978
 42
0.000084
 10
1.390974
 20
17.368882
 42
0.411831
 10
1.41705
 20
17.343092
 42
0.265841
 10
1.451219
 20
17.362707
 42
0.006521
 10
1.544104
 20
17.526081
 42
0.012427
 10
1.648578
 20
17.72721
 42
0.007925
 10
1.760475
 20
17.965901
 42
-0.011598
 10
1.891721
 20
18.240596
 42
-0.007537
 10
2.055434
 20
18.552023
 42
-0.007579
 10
2.224514
 20
18.851329
 42
-0.014272
 10
2.371434
 20
19.086759
 10
2.702417
 20
19.5849
 10
2.704808
 20
23.66685
 42
-0.001094
 10
2.710474
 20
25.709177
 42
-0.005157
 10
2.728383
 20
26.88145
 42
-0.002267
 10
2.752876
 20
27.694313
 42
-0.404099
 10
2.809284
 20
27.7488
 42
-0.183471
 10
2.874224
 20
27.724141
 42
-0.004009
 10
3.129332
 20
27.494075
 42
-0.008613
 10
3.424577
 20
27.21398
 42
-0.005645
 10
3.755457
 20
26.88165
 42
-0.003017
 10
4.139378
 20
26.482448
 42
-0.001723
 10
4.598537
 20
25.995862
 42
-0.00172
 10
5.05718
 20
25.503069
 42
-0.002854
 10
5.440204
 20
25.0839
 42
-0.005845
 10
5.792873
 20
24.684203
 42
-0.004913
 10
6.157395
 20
24.252705
 42
-0.004959
 10
6.482508
 20
23.852072
 42
-0.013631
 10
6.701207
 20
23.5611
 42
-0.007465
 10
6.87675
 20
23.305795
 42
-0.006142
 10
7.056624
 20
23.028313
 42
-0.006209
 10
7.215542
 20
22.769362
 42
-0.016375
 10
7.320867
 20
22.578956
 10
7.520184
 20
22.189012
 10
7.968942
 20
22.263186
 42
-0.012108
 10
8.160576
 20
22.290112
 42
-0.010089
 10
8.365311
 20
22.309662
 42
-0.01022
 10
8.553481
 20
22.319943
 42
-0.027108
 10
8.688112
 20
22.317242
 42
0.020885
 10
8.795843
 20
22.31374
 42
0.025928
 10
8.895921
 20
22.319864
 42
0.025743
 10
8.977365
 20
22.333378
 42
0.143342
 10
9.015818
 20
22.354418
 42
0.256264
 10
9.029223
 20
22.4004
 42
0.011898
 10
8.98894
 20
22.563698
 42
0.017225
 10
8.927571
 20
22.762016
 42
0.011253
 10
8.843864
 20
22.986405
 42
0.019821
 10
8.723103
 20
23.257411
 42
0.008921
 10
8.544376
 20
23.603519
 42
0.008816
 10
8.342362
 20
23.962861
 42
0.011883
 10
8.14625
 20
24.2802
 42
0.032621
 10
7.768374
 20
24.785062
 42
0.011653
 10
7.167304
 20
25.455298
 42
0.007135
 10
6.229717
 20
26.424885
 42
0.001664
 10
4.628224
 20
28.02375
 42
0.001726
 10
3.450936
 20
29.183272
 42
0.002799
 10
2.441361
 20
30.159768
 42
0.000448
 10
1.543096
 20
31.017379
 42
0.192671
  0
LWPOLYLINE
  5
154
330
1D
100
AcDbEntity
  8
0
100
AcDbPolyline
 90
       60
 70
     1
 43
0.0
 10
14.49455
 20
30.373952
 42
0.050544
 10
14.344299
 20
30.392565
 42
0.064837
 10
14.205916
 20
30.377667
 42
0.052223
 10
14.054516
 20
30.323927
 42
0.020936
 10
13.86005
 20
30.220874
 42
0.016516
 10
13.689258
 20
30.113274
 42
0.007753
 10
13.475363
 20
29.963546
 42
0.007673
 10
13.255845
 20
29.799566
 42
0.010691
 10
13.064926
 20
29.645711
 42
0.017023
 10
12.875548
 20
29.474957
 42
0.009952
 10
12.659979
 20
29.258403
 42
0.009945
 10
12.452626
 20
29.032825
 42
0.016612
 10
12.288493
 20
28.834044
 42
0.015832
 10
12.137371
 20
28.624732
 42
0.009413
 10
11.970145
 20
28.366599
 42
0.009416
 10
11.812969
 20
28.102711
 42
0.016024
 10
11.692957
 20
27.8757
 42
0.013314
 10
11.590735
 20
27.651414
 42
0.009673
 10
11.488566
 20
27.396851
 42
0.009784
 10
11.400956
 20
27.151334
 42
0.021045
 10
11.345239
 20
26.958374
 42
0.018292
 10
11.310682
 20
26.790008
 42
0.019435
 10
11.289349
 20
26.622931
 42
0.019446
 10
11.282226
 20
26.478389
 42
0.079589
 10
11.295179
 20
26.391801
 42
0.135668
 10
11.342997
 20
26.318338
 42
0.036813
 10
11.454394
 20
26.233567
 42
0.032829
 10
11.605594
 20
26.14874
 42
0.023298
 10
11.78483
 20
26.073161
 42
0.004924
 10
11.96917
 20
26.007411
 42
0.004578
 10
12.159301
 20
25.943641
 42
0.004567
 10
12.329395
 20
25.890032
 42
0.015389
 10
12.441935
 20
25.859441
 42
0.063303
 10
12.569192
 20
25.845619
 42
0.213471
 10
12.643186
 20
25.880351
 42
0.105073
 10
12.697257
 20
25.978877
 42
0.010414
 10
12.770062
 20
26.240192
 42
-0.024185
 10
12.835433
 20
26.452082
 42
-0.009157
 10
12.946295
 20
26.7414
 42
-0.009044
 10
13.078532
 20
27.052155
 42
-0.010912
 10
13.214283
 20
27.338841
 42
-0.019565
 10
13.394572
 20
27.666375
 42
-0.021015
 10
13.595954
 20
27.970863
 42
-0.020988
 10
13.82244
 20
28.257723
 42
-0.019408
 10
14.077921
 20
28.532456
 42
-0.016673
 10
14.324731
 20
28.762169
 42
-0.010223
 10
14.629824
 20
29.016935
 42
-0.010246
 10
14.94248
 20
29.256999
 42
-0.017948
 10
15.21205
 20
29.4408
 42
0.005623
 10
15.443649
 20
29.590486
 42
0.008797
 10
15.639134
 20
29.724978
 42
0.003682
 10
15.801711
 20
29.842913
 42
0.227387
 10
15.818035
 20
29.873614
 42
0.295114
 10
15.802151
 20
29.900575
 42
0.00699
 10
15.664244
 20
29.96727
 42
0.013141
 10
15.493977
 20
30.041313
 42
0.008262
 10
15.29145
 20
30.119259
 42
0.005411
 10
15.069348
 20
30.197837
 42
0.004971
 10
14.839251
 20
30.273906
 42
0.004971
 10
14.632685
 20
30.337669
 42
0.016303
  0
LWPOLYLINE
  5
192
330
1D
100
AcDbEntity
  8
0
100
AcDbPolyline
 90
       78
 70
     1
 43
0.0
 10
22.256083
 20
30.076828
 42
0.015247
 10
22.011275
 20
30.08321
 42
0.010638
 10
21.735076
 20
30.07611
 42
0.010742
 10
21.470276
 20
30.057954
 42
0.021816
 10
21.263464
 20
30.030165
 42
0.016689
 10
21.063783
 20
29.987486
 42
0.009184
 10
20.822496
 20
29.922701
 42
0.009147
 10
20.579881
 20
29.847925
 42
0.014467
 10
20.375164
 20
29.774078
 42
0.014947
 10
20.167754
 20
29.685155
 42
0.007877
 10
19.915451
 20
29.563071
 42
0.00783
 10
19.660833
 20
29.429841
 42
0.011961
 10
19.444715
 20
29.305624
 42
0.025016
 10
19.228765
 20
29.159275
 42
0.0129
 10
18.973119
 20
28.956146
 42
0.012791
 10
18.720335
 20
28.733182
 42
0.018881
 10
18.511339
 20
28.523876
 42
0.020714
 10
18.315014
 20
28.293366
 42
0.012434
 10
18.100518
 20
28.004787
 42
0.012443
 10
17.901105
 20
27.706595
 42
0.021145
 10
17.751441
 20
27.446574
 42
0.018885
 10
17.624995
 20
27.179527
 42
0.012028
 10
17.497332
 20
26.860273
 42
0.012083
 10
17.387069
 20
26.540635
 42
0.021899
 10
17.314837
 20
26.273654
 42
0.008753
 10
17.267546
 20
26.043816
 42
0.012636
 10
17.234458
 20
25.838982
 42
0.008354
 10
17.214228
 20
25.668591
 42
0.16524
 10
17.225863
 20
25.618004
 42
0.229345
 10
17.268993
 20
25.590581
 42
0.007453
 10
17.478869
 20
25.569411
 42
0.012937
 10
17.733468
 20
25.55418
 42
0.00847
 10
18.027448
 20
25.5492
 42
0.00793
 10
18.380166
 20
25.554795
 42
0.025341
 10
18.614663
 20
25.574159
 42
0.034242
 10
18.767081
 20
25.605298
 42
0.259588
 10
18.81748
 20
25.65495
 42
-0.010686
 10
18.838466
 20
25.721319
 42
-0.001053
 10
18.892686
 20
25.879751
 42
-0.00133
 10
18.958219
 20
26.068302
 42
-0.001054
 10
19.030012
 20
26.27173
 42
-0.023279
 10
19.122367
 20
26.497738
 42
-0.01427
 10
19.250944
 20
26.755299
 42
-0.014297
 10
19.393107
 20
27.003507
 42
-0.024622
 10
19.52716
 20
27.200308
 42
-0.021081
 10
19.677211
 20
27.382352
 42
-0.012872
 10
19.868537
 20
27.584762
 42
-0.012895
 10
20.068797
 20
27.775866
 42
-0.022258
 10
20.246137
 20
27.922742
 42
-0.026757
 10
20.439805
 20
28.053454
 42
-0.014349
 10
20.691382
 20
28.194675
 42
-0.01425
 10
20.956984
 20
28.324391
 42
-0.021614
 10
21.195399
 20
28.420335
 42
-0.013989
 10
21.520238
 20
28.52489
 42
-0.047524
 10
21.738547
 20
28.566523
 42
-0.049867
 10
21.955293
 20
28.565182
 42
-0.01654
 10
22.270484
 20
28.521113
 42
-0.029823
 10
22.523054
 20
28.461544
 42
-0.012822
 10
22.852184
 20
28.353607
 42
-0.012634
 10
23.197816
 20
28.220421
 42
-0.016305
 10
23.507586
 20
28.079971
 10
24.215472
 20
27.730757
 10
24.795642
 20
28.306481
 42
0.004998
 10
25.14287
 20
28.658007
 42
0.053427
 10
25.26613
 20
28.816007
 42
0.16841
 10
25.290582
 20
28.92431
 42
0.157261
 10
25.243789
 20
29.028088
 42
0.063311
 10
25.157742
 20
29.101866
 42
0.010485
 10
24.972497
 20
29.218355
 42
0.011367
 10
24.747375
 20
29.346551
 42
0.009836
 10
24.505633
 20
29.470949
 42
0.013927
 10
24.233942
 20
29.594805
 42
0.009414
 10
23.917864
 20
29.721434
 42
0.009489
 10
23.607475
 20
29.832363
 42
0.018612
 10
23.355883
 20
29.906632
 42
0.015104
 10
23.107471
 20
29.962082
 42
0.00897
 10
22.808575
 20
30.013843
 42
0.008973
 10
22.508389
 20
30.054796
 42
0.015272
  0
LWPOLYLINE
  5
1E2
330
1D
100
AcDbEntity
  8
0
100
AcDbPolyline
 90
       58
 70
     1
 43
0.0
 10
10.761894
 20
29.768884
 42
0.013463
 10
10.640705
 20
29.760155
 42
0.003723
 10
10.450918
 20
29.739909
 42
0.003757
 10
10.236247
 20
29.713756
 42
0.003925
 10
10.0251
 20
29.684734
 42
0.014246
 10
9.791186
 20
29.643874
 42
0.007653
 10
9.505074
 20
29.580875
 42
0.007615
 10
9.215058
 20
29.507666
 42
0.011835
 10
8.9676
 20
29.434854
 42
0.016387
 10
8.717961
 20
29.345816
 42
0.009168
 10
8.420186
 20
29.222121
 42
0.009139
 10
8.12348
 20
29.085929
 42
0.014675
 10
7.876263
 20
28.957869
 42
0.026773
 10
7.622091
 20
28.798221
 42
0.011383
 10
7.298789
 20
28.558949
 42
0.011225
 10
6.964612
 20
28.287415
 42
0.014451
 10
6.670713
 20
28.022439
 42
0.003977
 10
6.416155
 20
27.775334
 42
0.006237
 10
6.201683
 20
27.558458
 42
0.002129
 10
6.02066
 20
27.369173
 42
0.192018
 10
6.0066
 20
27.333913
 42
0.171135
 10
6.01915
 20
27.298321
 42
0.002891
 10
6.152444
 20
27.134749
 42
0.007044
 10
6.312804
 20
26.945757
 42
0.004582
 10
6.503089
 20
26.731788
 10
6.999578
 20
26.1837
 10
7.643349
 20
26.79506
 42
-0.015525
 10
7.949346
 20
27.068095
 42
-0.01556
 10
8.271478
 20
27.321406
 42
-0.016375
 10
8.587108
 20
27.538502
 42
-0.025816
 10
8.872662
 20
27.701294
 42
-0.020583
 10
9.136029
 20
27.820603
 42
-0.014055
 10
9.444017
 20
27.935157
 42
-0.014185
 10
9.747714
 20
28.028972
 42
-0.027602
 10
9.995452
 20
28.083345
 42
-0.010609
 10
10.233416
 20
28.116794
 42
-0.007258
 10
10.504847
 20
28.145101
 42
-0.007318
 10
10.767329
 20
28.164762
 42
-0.014671
 10
10.975131
 20
28.171161
 42
0.015133
 10
11.250066
 20
28.179882
 42
0.105858
 10
11.378608
 20
28.215859
 42
0.127996
 10
11.469723
 20
28.298794
 42
0.026097
 10
11.580067
 20
28.48905
 42
-0.017809
 10
11.661035
 20
28.634141
 42
-0.009224
 10
11.771862
 20
28.809717
 42
-0.009158
 10
11.892528
 20
28.986161
 42
-0.013737
 10
12.004786
 20
29.135183
 42
0.008632
 10
12.105236
 20
29.265734
 42
0.012123
 10
12.189975
 20
29.38587
 42
0.008462
 10
12.255973
 20
29.488127
 42
0.139958
 10
12.267
 20
29.526749
 42
0.335669
 10
12.245679
 20
29.55493
 42
0.008313
 10
12.0796
 20
29.598891
 42
0.014614
 10
11.873616
 20
29.643423
 42
0.00901
 10
11.629044
 20
29.684316
 42
0.006121
 10
11.367995
 20
29.719882
 42
0.006487
 10
11.111162
 20
29.748297
 42
0.006217
 10
10.889475
 20
29.767138
 42
0.029341
  0
LWPOLYLINE
  5
21E
330
1D
100
AcDbEntity
  8
0
100
AcDbPolyline
 90
       86
 70
     1
 43
0.0
 10
14.469414
 20
28.341
 42
0.176165
 10
14.426951
 20
28.32556
 42
0.012837
 10
14.33213
 20
28.241861
 42
0.016691
 10
14.22237
 20
28.132794
 42
0.011811
 10
14.106302
 20
28.003506
 42
0.013112
 10
13.984314
 20
27.853185
 42
0.009593
 10
13.856592
 20
27.680316
 42
0.009705
 10
13.741855
 20
27.511782
 42
0.021082
 10
13.661891
 20
27.377213
 10
13.506363
 20
27.088415
 10
13.859634
 20
26.382257
 42
-0.016776
 10
14.01036
 20
26.05388
 42
-0.009531
 10
14.171615
 20
25.647447
 42
-0.009508
 10
14.318614
 20
25.231396
 42
-0.015471
 10
14.425616
 20
24.8724
 42
-0.010986
 10
14.510313
 20
24.521377
 42
-0.008191
 10
14.588835
 20
24.130828
 42
-0.008288
 10
14.650743
 20
23.76008
 42
-0.018586
 10
14.682554
 20
23.4765
 42
-0.003063
 10
14.701127
 20
23.205456
 42
-0.001753
 10
14.720394
 20
22.878087
 42
-0.001751
 10
14.737464
 20
22.548702
 42
-0.002909
 10
14.749264
 20
22.27095
 42
-0.010403
 10
14.752989
 20
22.035778
 42
-0.017306
 10
14.745148
 20
21.837772
 42
-0.011443
 10
14.729865
 20
21.680819
 42
-0.379501
 10
14.70368
 20
21.6576
 42
-0.170236
 10
14.662807
 20
21.671932
 42
-0.008969
 10
14.554609
 20
21.761672
 42
-0.013295
 10
14.428463
 20
21.87615
 42
-0.009213
 10
14.291789
 20
22.011887
 42
-0.020406
 10
14.140336
 20
22.181258
 42
-0.011235
 10
13.968519
 20
22.399772
 42
-0.011185
 10
13.803922
 20
22.629603
 42
-0.017579
 10
13.674113
 20
22.834838
 42
0.017572
 10
13.522878
 20
23.073956
 42
0.050642
 10
13.396614
 20
23.223774
 42
0.068175
 10
13.266557
 20
23.319233
 42
0.058234
 10
13.10858
 20
23.382458
 42
-0.001487
 10
12.953817
 20
23.424846
 42
-0.000407
 10
12.709984
 20
23.492622
 42
-0.000411
 10
12.433661
 20
23.569917
 42
-0.000429
 10
12.16125
 20
23.646612
 42
0.006789
 10
11.832812
 20
23.734587
 42
0.03378
 10
11.645032
 20
23.768874
 42
0.077973
 10
11.541139
 20
23.76445
 42
0.357286
 10
11.5056
 20
23.721064
 42
0.099568
 10
11.520095
 20
23.648994
 42
0.005406
 10
11.612473
 20
23.435153
 42
0.008247
 10
11.73005
 20
23.182182
 42
0.005914
 10
11.869422
 20
22.903267
 42
0.011988
 10
12.038659
 20
22.592894
 42
0.007907
 10
12.247297
 20
22.244037
 42
0.007958
 10
12.461088
 20
21.911023
 42
0.015233
 10
12.644906
 20
21.651958
 42
0.021308
 10
12.893829
 20
21.350465
 42
0.003859
 10
13.383798
 20
20.814404
 42
0.004152
 10
13.967929
 20
20.19553
 42
0.003751
 10
14.582205
 20
19.564986
 42
0.003397
 10
15.27363
 20
18.875257
 42
0.010674
 10
15.750698
 20
18.42542
 42
0.006992
 10
16.102911
 20
18.116073
 42
0.456092
 10
16.174225
 20
18.126786
 42
0.13412
 10
16.201121
 20
18.213971
 42
0.001256
 10
16.221489
 20
18.891201
 42
0.004115
 10
16.236612
 20
19.673611
 42
0.002637
 10
16.241905
 20
20.582284
 42
0.003447
 10
16.235814
 20
21.542603
 42
0.003657
 10
16.216467
 20
22.483987
 42
0.003487
 10
16.188231
 20
23.294217
 42
0.016742
 10
16.153489
 20
23.754784
 42
0.008743
 10
16.107577
 20
24.11649
 42
0.006009
 10
16.043443
 20
24.524911
 42
0.006059
 10
15.972197
 20
24.916668
 42
0.012256
 10
15.904841
 20
25.222873
 42
0.010506
 10
15.825914
 20
25.517141
 42
0.005992
 10
15.718855
 20
25.869411
 42
0.005982
 10
15.602565
 20
26.221518
 42
0.009857
 10
15.494886
 20
26.515897
 42
0.012911
 10
15.373479
 20
26.806122
 42
0.00768
 10
15.214759
 20
27.145568
 42
0.007684
 10
15.046031
 20
27.479295
 42
0.013147
 10
14.893756
 20
27.751674
 42
0.0087
 10
14.754206
 20
27.977527
 42
0.013299
 10
14.624684
 20
28.167885
 42
0.007778
 10
14.511224
 20
28.320399
 42
0.232991
  0
LWPOLYLINE
  5
276
330
1D
100
AcDbEntity
  8
0
100
AcDbPolyline
 90
       86
 70
     1
 43
0.0
 10
21.570711
 20
27.981622
 42
0.109083
 10
21.503825
 20
27.979168
 42
0.02526
 10
21.395725
 20
27.945196
 42
0.024908
 10
21.272502
 20
27.8924
 42
0.022111
 10
21.15
 20
27.825664
 42
0.01559
 10
21.019707
 20
27.741374
 42
0.009787
 10
20.872538
 20
27.635203
 42
0.009823
 10
20.731649
 20
27.524911
 42
0.017672
 10
20.62125
 20
27.428247
 42
0.026172
 10
20.532202
 20
27.335296
 42
0.02935
 10
20.456941
 20
27.236898
 42
0.030559
 10
20.403677
 20
27.146647
 42
0.118567
 10
20.3886
 20
27.08396
 42
0.070914
 10
20.399505
 20
27.00746
 42
0.007678
 10
20.452109
 20
26.836519
 42
0.009298
 10
20.522009
 20
26.634089
 42
0.00737
 10
20.6048
 20
26.417961
 42
-0.019963
 10
20.708135
 20
26.126429
 42
-0.028928
 10
20.773814
 20
25.86135
 42
-0.028291
 10
20.809378
 20
25.586047
 42
-0.017978
 10
20.821
 20
25.262923
 42
-0.016742
 10
20.81227
 20
25.002272
 42
-0.014101
 10
20.786027
 20
24.727337
 42
-0.014334
 10
20.747773
 20
24.477658
 42
-0.037792
 10
20.701944
 20
24.302737
 42
-0.017722
 10
20.640743
 20
24.143644
 42
-0.009156
 10
20.553623
 20
23.94907
 42
-0.00909
 10
20.456634
 20
23.752062
 42
-0.01361
 10
20.364206
 20
23.584023
 42
-0.033436
 10
20.231459
 20
23.388706
 42
-0.007777
 10
19.982095
 20
23.079923
 42
-0.00799
 10
19.683239
 20
22.732839
 42
-0.007753
 10
19.370486
 20
22.391936
 42
-0.003334
 10
19.06941
 20
22.078027
 42
-0.005286
 10
18.806908
 20
21.813615
 42
-0.001528
 10
18.576619
 20
21.587889
 42
-0.196368
 10
18.540273
 20
21.57318
 42
-0.378678
 10
18.517491
 20
21.593456
 42
-0.004781
 10
18.494495
 20
21.801657
 42
-0.011009
 10
18.47477
 20
22.052648
 42
-0.006647
 10
18.461911
 20
22.350719
 42
0.004443
 10
18.450266
 20
22.651417
 42
0.006867
 10
18.434331
 20
22.910932
 42
0.002699
 10
18.416505
 20
23.132012
 42
0.176691
 10
18.400586
 20
23.166214
 42
0.208809
 10
18.367261
 20
23.179281
 42
0.004745
 10
18.192857
 20
23.170991
 42
0.009836
 10
17.985619
 20
23.155073
 42
0.006402
 10
17.746975
 20
23.128925
 10
17.1315
 20
23.0535
 10
17.10906
 20
20.57147
 42
0.002419
 10
17.104693
 20
19.532112
 42
0.005753
 10
17.114077
 20
18.75931
 42
0.001751
 10
17.130818
 20
18.142839
 42
0.508587
 10
17.167088
 20
18.11807
 42
0.111381
 10
17.222715
 20
18.153231
 42
0.000363
 10
17.803303
 20
18.734808
 42
0.001999
 10
18.458009
 20
19.396857
 42
0.001248
 10
19.219928
 20
20.177398
 42
0.001527
 10
19.99541
 20
20.980706
 42
0.002044
 10
20.693568
 20
21.714328
 42
0.001415
 10
21.274782
 20
22.333591
 42
0.021351
 10
21.46686
 20
22.55788
 42
0.019412
 10
21.589443
 20
22.727186
 42
0.009635
 10
21.732192
 20
22.950591
 42
0.009548
 10
21.871462
 20
23.188169
 42
0.013818
 10
21.984564
 20
23.403582
 42
0.015477
 10
22.085467
 20
23.626591
 42
0.010352
 10
22.187614
 20
23.887435
 42
0.01043
 10
22.276179
 20
24.144592
 42
0.02013
 10
22.334359
 20
24.354347
 42
0.024956
 10
22.374942
 20
24.576849
 42
0.010675
 10
22.407888
 20
24.877463
 42
0.010531
 10
22.429451
 20
25.20002
 42
0.013642
 10
22.434908
 20
25.496447
 42
0.016565
 10
22.421073
 20
25.82565
 42
0.017332
 10
22.385512
 20
26.148251
 42
0.018024
 10
22.329671
 20
26.454266
 42
0.022425
 10
22.254949
 20
26.7336
 42
0.012064
 10
22.174274
 20
26.968865
 42
0.009339
 10
22.075502
 20
27.221161
 42
0.009461
 10
21.974404
 20
27.453291
 42
0.02233
 10
21.888206
 20
27.621182
 42
0.022955
 10
21.805218
 20
27.752127
 42
0.027847
 10
21.715377
 20
27.866355
 42
0.028327
 10
21.630917
 20
27.951942
 42
0.139583
  0
LWPOLYLINE
  5
2CE
330
1D
100
AcDbEntity
  8
0
100
AcDbPolyline
 90
       54
 70
     1
 43
0.0
 10
8.908392
 20
27.2412
 42
0.121015
 10
8.858122
 20
27.228852
 42
0.011479
 10
8.746402
 20
27.167139
 42
0.014141
 10
8.615216
 20
27.085638
 42
0.010681
 10
8.475744
 20
26.989079
 42
0.018271
 10
8.332251
 20
26.876918
 42
0.015473
 10
8.188907
 20
26.748397
 42
0.015751
 10
8.06553
 20
26.623036
 42
0.041495
 10
7.988021
 20
26.523779
 42
0.025206
 10
7.913581
 20
26.396627
 42
0.112845
 10
7.89199
 20
26.313627
 42
0.121644
 10
7.909422
 20
26.232769
 42
0.031411
 10
7.975879
 20
26.115951
 42
0.063526
 10
8.062311
 20
26.014765
 42
0.010966
 10
8.253005
 20
25.849172
 42
0.011778
 10
8.487049
 20
25.66391
 42
0.010291
 10
8.740188
 20
25.481103
 42
0.013614
 10
9.04069
 20
25.285237
 42
0.007282
 10
9.421784
 20
25.058943
 42
0.007244
 10
9.817746
 20
24.83912
 42
0.011226
 10
10.166329
 20
24.662114
 42
0.014125
 10
10.526268
 20
24.501737
 42
0.00874
 10
10.957435
 20
24.332798
 42
0.008764
 10
11.389475
 20
24.180735
 42
0.015577
 10
11.750977
 20
24.072958
 42
0.010726
 10
12.115548
 20
23.984844
 42
0.006229
 10
12.556738
 20
23.893924
 42
0.006224
 10
13.001442
 20
23.813768
 42
0.010431
 10
13.377219
 20
23.758888
 42
0.004946
 10
13.698595
 20
23.722005
 42
0.007746
 10
13.975748
 20
23.697307
 42
0.002991
 10
14.212148
 20
23.681348
 42
0.214926
 10
14.247877
 20
23.694877
 42
0.230316
 10
14.259986
 20
23.729924
 42
0.004122
 10
14.233865
 20
23.932369
 42
0.009378
 10
14.19643
 20
24.171448
 42
0.006008
 10
14.144435
 20
24.447621
 10
14.0013
 20
25.160672
 10
13.2822
 20
25.304074
 42
-0.011183
 10
12.960769
 20
25.375683
 42
-0.007007
 10
12.587951
 20
25.473099
 42
-0.007032
 10
12.223339
 20
25.579391
 42
-0.012729
 10
11.9286
 20
25.678106
 42
-0.007955
 10
11.648675
 20
25.784925
 42
-0.005306
 10
11.331377
 20
25.915747
 42
-0.005342
 10
11.026273
 20
26.049212
 42
-0.010427
 10
10.7865
 20
26.163236
 42
-0.010292
 10
10.546518
 20
26.289805
 42
-0.00474
 10
10.239141
 20
26.463923
 42
-0.004692
 10
9.9192
 20
26.653218
 42
-0.006484
 10
9.635949
 20
26.829468
 42
0.005563
 10
9.38346
 20
26.987224
 42
0.008088
 10
9.157012
 20
27.120254
 42
0.004565
 10
8.964227
 20
27.227041
 42
0.124821
  0
LWPOLYLINE
  5
306
330
1D
100
AcDbEntity
  8
0
100
AcDbPolyline
 90
       56
 70
     1
 43
0.0
 10
27.237049
 20
27.068596
 42
0.164319
 10
27.167555
 20
27.042956
 42
0.013784
 10
27.019889
 20
26.916865
 42
0.017183
 10
26.849223
 20
26.751815
 42
0.012414
 10
26.67015
 20
26.556848
 42
0.006694
 10
26.499963
 20
26.356718
 42
0.009873
 10
26.356469
 20
26.176186
 42
0.005587
 10
26.241242
 20
26.021638
 42
0.158684
 10
26.226
 20
25.97482
 42
0.173781
 10
26.242502
 20
25.928775
 42
0.005784
 10
26.369537
 20
25.777898
 42
0.010371
 10
26.527394
 20
25.602257
 42
0.006966
 10
26.714636
 20
25.407918
 42
-0.014042
 10
26.925987
 20
25.18225
 42
-0.00917
 10
27.157488
 20
24.91085
 42
-0.009225
 10
27.373607
 20
24.637745
 42
-0.017386
 10
27.53605
 20
24.408375
 42
-0.017759
 10
27.678092
 20
24.174571
 42
-0.010782
 10
27.83006
 20
23.888876
 42
-0.010799
 10
27.968761
 20
23.59856
 42
-0.018685
 10
28.069629
 20
23.350875
 42
-0.022618
 10
28.149899
 20
23.095142
 42
-0.014264
 10
28.22137
 20
22.790428
 42
-0.014268
 10
28.275304
 20
22.482388
 42
-0.022776
 10
28.301781
 20
22.216498
 10
28.333132
 20
21.633297
 10
28.696616
 20
21.419112
 42
-0.0124
 10
28.861312
 20
21.316478
 42
-0.006885
 10
29.057223
 20
21.183639
 42
-0.006862
 10
29.251992
 20
21.043607
 42
-0.011006
 10
29.413789
 20
20.918275
 10
29.767479
 20
20.631622
 10
29.875588
 20
20.827361
 42
0.082678
 10
29.921558
 20
20.95747
 42
0.017464
 10
29.955216
 20
21.196774
 42
0.016141
 10
29.97749
 20
21.503356
 42
0.009627
 10
29.98517
 20
21.8691
 42
0.011408
 10
29.976585
 20
22.276428
 42
0.01691
 10
29.94887
 20
22.632381
 42
0.019184
 10
29.901583
 20
22.945504
 42
0.02616
 10
29.833586
 20
23.2227
 42
0.01673
 10
29.75231
 20
23.462866
 42
0.007646
 10
29.631033
 20
23.770909
 42
0.007562
 10
29.493297
 20
24.091771
 42
0.010337
 10
29.358975
 20
24.376145
 42
0.009759
 10
29.209316
 20
24.662585
 42
0.0062
 10
29.024465
 20
24.990446
 42
0.006226
 10
28.834969
 20
25.307839
 42
0.011466
 10
28.671759
 20
25.560451
 42
0.014205
 10
28.497634
 20
25.801814
 42
0.008115
 10
28.274523
 20
26.083662
 42
0.0081
 10
28.040675
 20
26.360155
 42
0.013304
 10
27.832948
 20
26.585456
 42
0.012373
 10
27.642766
 20
26.771578
 42
0.017149
 10
27.462729
 20
26.928078
 42
0.013721
 10
27.307875
 20
27.046738
 42
0.165005
  0
LWPOLYLINE
  5
340
330
1D
100
AcDbEntity
  8
0
100
AcDbPolyline
 90
       72
 70
     1
 43
0.0
 10
5.008322
 20
24.948095
 10
4.520426
 20
25.489089
 10
4.243134
 20
24.968836
 42
0.013639
 10
4.121853
 20
24.725525
 42
0.007471
 10
3.985946
 20
24.421355
 42
0.007441
 10
3.857063
 20
24.108149
 42
0.011773
 10
3.756988
 20
23.835641
 42
0.018348
 10
3.669855
 20
23.545467
 42
0.009326
 10
3.580614
 20
23.174972
 42
0.009252
 10
3.502663
 20
22.78887
 42
0.01366
 10
3.449851
 20
22.447282
 42
0.011629
 10
3.401918
 20
21.982741
 42
0.032021
 10
3.396803
 20
21.653661
 42
0.029245
 10
3.433653
 20
21.310424
 42
0.008411
 10
3.530503
 20
20.784892
 42
0.012447
 10
3.616117
 20
20.409028
 42
0.010292
 10
3.725455
 20
20.013088
 42
0.010429
 10
3.840832
 20
19.653985
 42
0.027266
 10
3.942898
 20
19.40301
 42
0.030334
 10
4.067696
 20
19.175337
 42
0.017262
 10
4.244161
 20
18.915502
 42
0.016946
 10
4.445501
 20
18.65874
 42
0.02216
 10
4.647328
 20
18.439118
 42
0.023627
 10
4.898761
 20
18.211358
 42
0.021071
 10
5.180074
 20
17.998984
 42
0.020046
 10
5.49253
 20
17.801154
 42
0.016974
 10
5.8374
 20
17.617026
 42
0.016391
 10
6.164953
 20
17.469303
 42
0.010303
 10
6.5565
 20
17.317304
 42
0.010341
 10
6.94837
 20
17.183514
 42
0.018597
 10
7.2756
 20
17.092551
 42
0.006862
 10
7.568864
 20
17.026904
 42
0.007491
 10
7.855392
 20
16.97135
 42
0.007079
 10
8.101761
 20
16.930991
 42
0.036465
 10
8.239561
 20
16.920593
 10
8.484422
 20
16.92
 10
8.435584
 20
17.565747
 42
0.010453
 10
8.41111
 20
17.818862
 42
0.014365
 10
8.377844
 20
18.045054
 42
0.011006
 10
8.341024
 20
18.229762
 42
0.142612
 10
8.307603
 20
18.290637
 42
0.108494
 10
8.2471
 20
18.329354
 42
0.007593
 10
8.055841
 20
18.396564
 42
0.010477
 10
7.822849
 20
18.469093
 42
0.007687
 10
7.561679
 20
18.540099
 42
-0.015783
 10
7.270489
 20
18.624352
 42
-0.010893
 10
6.946316
 20
18.737202
 42
-0.010994
 10
6.639062
 20
18.859484
 42
-0.022002
 10
6.403155
 20
18.971918
 42
-0.027159
 10
6.188017
 20
19.101772
 42
-0.016392
 10
5.947336
 20
19.277307
 42
-0.016399
 10
5.719004
 20
19.467962
 42
-0.027501
 10
5.541968
 20
19.644327
 42
-0.026563
 10
5.387383
 20
19.835802
 42
-0.019207
 10
5.23528
 20
20.064119
 42
-0.019476
 10
5.10552
 20
20.295924
 42
-0.034787
 10
5.02013
 20
20.496868
 42
-0.031081
 10
4.950524
 20
20.748238
 42
-0.022942
 10
4.903912
 20
21.033227
 42
-0.019106
 10
4.877513
 20
21.370835
 42
-0.01056
 10
4.869773
 20
21.7845
 42
-0.010889
 10
4.882048
 20
22.291897
 42
-0.035459
 10
4.921227
 20
22.625648
 42
-0.034735
 10
5.007605
 20
22.95407
 42
-0.010131
 10
5.185406
 20
23.445906
 42
0.00293
 10
5.305474
 20
23.763653
 42
0.004363
 10
5.406473
 20
24.043199
 42
0.001958
 10
5.48948
 20
24.282367
 42
0.08753
 10
5.497609
 20
24.334206
 42
0.15998
 10
5.481333
 20
24.380756
 42
0.004825
 10
5.353307
 20
24.544605
 42
0.009111
 10
5.195382
 20
24.735504
 42
0.006117
  0
LWPOLYLINE
  5
38A
330
1D
100
AcDbEntity
  8
0
100
AcDbPolyline
 90
       46
 70
     1
 43
0.0
 10
20.24055
 20
25.37134
 42
0.019157
 10
20.1304
 20
25.363006
 42
0.009084
 10
19.989262
 20
25.344269
 42
0.008989
 10
19.842162
 20
25.3193
 42
0.012578
 10
19.7118
 20
25.291342
 42
-0.022788
 10
19.540146
 20
25.258178
 42
-0.004079
 10
19.21689
 20
25.213571
 42
-0.004398
 10
18.836989
 20
25.167696
 42
-0.003959
 10
18.4428
 20
25.126767
 42
-0.009016
 10
17.986836
 20
25.091354
 42
-0.012516
 10
17.577314
 20
25.077241
 42
-0.014131
 10
17.219029
 20
25.083993
 42
-0.023854
 10
16.92
 20
25.112426
 42
0.004381
 10
16.707389
 20
25.14103
 42
0.006882
 10
16.524186
 20
25.161489
 42
0.002444
 10
16.367056
 20
25.176074
 42
0.207166
 10
16.34475
 20
25.16866
 42
0.239919
 10
16.336506
 20
25.147433
 42
0.002838
 10
16.352815
 20
24.994428
 42
0.007786
 10
16.375746
 20
24.815463
 42
0.004916
 10
16.407805
 20
24.60735
 42
-0.002103
 10
16.443736
 20
24.38251
 42
-0.001968
 10
16.478594
 20
24.152375
 42
-0.001959
 10
16.50793
 20
23.947864
 42
-0.006744
 10
16.524646
 20
23.8149
 10
16.553083
 20
23.5611
 10
17.265291
 20
23.534763
 42
0.013572
 10
17.587072
 20
23.531604
 42
0.008264
 10
17.967099
 20
23.544474
 42
0.00828
 10
18.343719
 20
23.569722
 42
0.014488
 10
18.6543
 20
23.604802
 42
0.003516
 10
18.943454
 20
23.648054
 42
0.002858
 10
19.252697
 20
23.698349
 42
0.002888
 10
19.537098
 20
23.747965
 42
0.007515
 10
19.740998
 20
23.787925
 42
0.022712
 10
19.976896
 20
23.849158
 42
0.089236
 10
20.109842
 20
23.917931
 42
0.094953
 10
20.206196
 20
24.026454
 42
0.027631
 10
20.31019
 20
24.225486
 42
0.033935
 10
20.3714
 20
24.388902
 42
0.019908
 10
20.423237
 20
24.591292
 42
0.019855
 10
20.459113
 20
24.798768
 42
0.031734
 10
20.471342
 20
24.97815
 42
0.010512
 10
20.467226
 20
25.229115
 42
0.12397
 10
20.440091
 20
25.322042
 42
0.227572
 10
20.377858
 20
25.363935
 42
0.045574
  0
LWPOLYLINE
  5
3BA
330
1D
100
AcDbEntity
  8
0
100
AcDbPolyline
 90
       44
 70
     1
 43
0.0
 10
26.363618
 20
25.116131
 10
26.163661
 20
25.303981
 10
25.951423
 20
25.05175
 42
0.014905
 10
25.844555
 20
24.916776
 42
0.00442
 10
25.689181
 20
24.704145
 42
0.00443
 10
25.518717
 20
24.461981
 42
0.004765
 10
25.35672
 20
24.22261
 42
0.010302
 10
25.185038
 20
23.951686
 42
0.005519
 10
24.983713
 20
23.610575
 42
0.005492
 10
24.785879
 20
23.257859
 42
0.008552
 10
24.623988
 20
22.949216
 42
0.006796
 10
24.474296
 20
22.641202
 42
0.004782
 10
24.313976
 20
22.290915
 42
0.004826
 10
24.166993
 20
21.952741
 42
0.01009
 10
24.060491
 20
21.686232
 42
0.012643
 10
23.964203
 20
21.409383
 42
0.005448
 10
23.849261
 20
21.035861
 42
0.005387
 10
23.735461
 20
20.63538
 42
0.007099
 10
23.64084
 20
20.267716
 42
0.006676
 10
23.561807
 20
19.921358
 42
0.007435
 10
23.495023
 20
19.585213
 42
0.006934
 10
23.446385
 20
19.297355
 42
0.038298
 10
23.43431
 20
19.14075
 10
23.4342
 20
18.8658
 10
24.144808
 20
18.8658
 10
24.855416
 20
18.8658
 10
25.000789
 20
19.52145
 42
-0.009279
 10
25.071731
 20
19.815479
 42
-0.005736
 10
25.165466
 20
20.158462
 42
-0.005751
 10
25.265889
 20
20.495287
 42
-0.010289
 10
25.357251
 20
20.7693
 42
-0.014314
 10
25.46957
 20
21.057996
 42
-0.005661
 10
25.639743
 20
21.448479
 42
-0.005597
 10
25.833148
 20
21.866325
 42
-0.006982
 10
26.0225
 20
22.2498
 42
-0.008804
 10
26.221796
 20
22.623236
 42
-0.007465
 10
26.445097
 20
23.010752
 42
-0.007542
 10
26.659159
 20
23.357731
 42
-0.020883
 10
26.823373
 20
23.592876
 10
27.170087
 20
24.047652
 10
26.866831
 20
24.487967
 42
0.009507
 10
26.736059
 20
24.67032
 42
0.008564
 10
26.593919
 20
24.85412
 42
0.008616
 10
26.460831
 20
25.014511
 42
0.026692
  0
LWPOLYLINE
  5
3E8
330
1D
100
AcDbEntity
  8
0
100
AcDbPolyline
 90
       76
 70
     1
 43
0.0
 10
23.779363
 20
22.28792
 42
0.226116
 10
23.729294
 20
22.29339
 42
0.00745
 10
23.5355
 20
22.222468
 42
0.012889
 10
23.30491
 20
22.127277
 42
0.008456
 10
23.044202
 20
22.006385
 42
0.017521
 10
22.737085
 20
21.844091
 42
0.008868
 10
22.361543
 20
21.619533
 42
0.008797
 10
21.98157
 20
21.3737
 42
0.012961
 10
21.6576
 20
21.143509
 42
0.02139
 10
21.272884
 20
20.828277
 42
0.004691
 10
20.640479
 20
20.252448
 42
0.004875
 10
19.921329
 20
19.572019
 42
0.004665
 10
19.204861
 20
18.867742
 10
17.471222
 20
17.1315
 10
20.346961
 20
17.072251
 42
0.003083
 10
21.531933
 20
17.055147
 42
0.003104
 10
22.714364
 20
17.052714
 42
0.003028
 10
23.744869
 20
17.063234
 42
0.012488
 10
24.367934
 20
17.088943
 42
0.006852
 10
24.855771
 20
17.128012
 42
0.005656
 10
25.374644
 20
17.182659
 42
0.005716
 10
25.849654
 20
17.243639
 42
0.015186
 10
26.186834
 20
17.301337
 42
0.022272
 10
26.508737
 20
17.381611
 42
0.012591
 10
26.891255
 20
17.505875
 42
0.012297
 10
27.284921
 20
17.655796
 42
0.015248
 10
27.64305
 20
17.815282
 42
0.010542
 10
27.963027
 20
17.978037
 42
0.020231
 10
28.211116
 20
18.124091
 42
0.018132
 10
28.390351
 20
18.24904
 42
0.235658
 10
28.4256
 20
18.319677
 42
0.134757
 10
28.40623
 20
18.39024
 42
0.017621
 10
28.321271
 20
18.522486
 42
0.019455
 10
28.20644
 20
18.675058
 42
0.015157
 10
28.070438
 20
18.831886
 42
0.015741
 10
27.916505
 20
18.988679
 42
0.014187
 10
27.747715
 20
19.141183
 42
0.014378
 10
27.588616
 20
19.269217
 42
0.042932
 10
27.470546
 20
19.343746
 42
0.019875
 10
27.329527
 20
19.409705
 42
0.09734
 10
27.24376
 20
19.427421
 42
0.132756
 10
27.171351
 20
19.408597
 42
0.050208
 10
27.085458
 20
19.347452
 42
-0.027091
 10
27.013709
 20
19.291213
 42
-0.011041
 10
26.910544
 20
19.222354
 42
-0.010886
 10
26.796167
 20
19.15306
 42
-0.013655
 10
26.687107
 20
19.094098
 42
-0.019191
 10
26.549312
 20
19.030913
 42
-0.005566
 10
26.332172
 20
18.944075
 42
-0.005587
 10
26.085149
 20
18.851623
 42
-0.00594
 10
25.841107
 20
18.766646
 42
-0.028224
 10
25.434386
 20
18.6555
 42
-0.034375
 10
25.043641
 20
18.599795
 42
-0.017011
 10
24.476582
 20
18.577745
 42
-0.002119
 10
23.243605
 20
18.576995
 42
-0.002978
 10
22.468733
 20
18.584424
 42
-0.004736
 10
21.805833
 20
18.60101
 42
-0.001261
 10
21.23009
 20
18.622328
 42
-0.190713
 10
21.170905
 20
18.648506
 42
-0.357451
 10
21.166917
 20
18.692273
 42
-0.022126
 10
21.250523
 20
18.804572
 42
-0.024759
 10
21.373078
 20
18.940495
 42
-0.014936
 10
21.5307
 20
19.089617
 42
-0.018797
 10
21.738534
 20
19.261231
 42
-0.008801
 10
22.019454
 20
19.46823
 42
-0.008706
 10
22.321959
 20
19.675197
 42
-0.012078
 10
22.600543
 20
19.849257
 10
23.247385
 20
20.232002
 10
23.429018
 20
20.956196
 42
-0.005462
 10
23.507229
 20
21.254199
 42
-0.005444
 10
23.592014
 20
21.550747
 42
-0.005342
 10
23.671658
 20
21.808174
 42
-0.021266
 10
23.728837
 20
21.963247
 42
0.024109
 10
23.769197
 20
22.074653
 42
0.03626
 10
23.79243
 20
22.175299
 42
0.04022
 10
23.798282
 20
22.254242
 42
0.258223
  0
LWPOLYLINE
  5
436
330
1D
100
AcDbEntity
  8
0
100
AcDbPolyline
 90
       56
 70
     1
 43
0.0
 10
26.445472
 20
22.1652
 42
0.235751
 10
26.389376
 20
22.137194
 42
0.017478
 10
26.288318
 20
21.992525
 42
0.021326
 10
26.176487
 20
21.802598
 42
0.014401
 10
26.064699
 20
21.577369
 42
0.011089
 10
25.959763
 20
21.335753
 42
0.011987
 10
25.868488
 20
21.095864
 42
0.011556
 10
25.800067
 20
20.886949
 42
0.055143
 10
25.777225
 20
20.763668
 42
0.119632
 10
25.800119
 20
20.626263
 42
0.139253
 10
25.883132
 20
20.5236
 42
0.052209
 10
26.073067
 20
20.417412
 42
0.005304
 10
26.550577
 20
20.218415
 42
-0.01212
 10
26.886723
 20
20.07292
 42
-0.00954
 10
27.243691
 20
19.899691
 42
-0.009667
 10
27.569363
 20
19.725891
 42
-0.023397
 10
27.800928
 20
19.581891
 42
-0.019673
 10
28.008106
 20
19.426844
 42
-0.01054
 10
28.251943
 20
19.220259
 42
-0.010479
 10
28.492219
 20
18.998689
 42
-0.016115
 10
28.689676
 20
18.79615
 42
-0.019388
 10
28.88129
 20
18.56944
 42
-0.009877
 10
29.105045
 20
18.270893
 42
-0.009797
 10
29.32395
 20
17.953532
 42
-0.014468
 10
29.502293
 20
17.666075
 42
0.011349
 10
29.657365
 20
17.412612
 42
0.016911
 10
29.805322
 20
17.198908
 42
0.012014
 10
29.93552
 20
17.032329
 42
0.224499
 10
29.994166
 20
17.0046
 42
0.225164
 10
30.04428
 20
17.028373
 42
0.032856
 10
30.11147
 20
17.122643
 42
0.031833
 10
30.18073
 20
17.252527
 42
0.022308
 10
30.242502
 20
17.40645
 42
0.028056
 10
30.299948
 20
17.605529
 42
0.011668
 10
30.355961
 20
17.879738
 42
0.011502
 10
30.402448
 20
18.176943
 42
0.014584
 10
30.431016
 20
18.453343
 42
0.009693
 10
30.45292
 20
18.855307
 42
0.060054
 10
30.43542
 20
19.060915
 42
0.077595
 10
30.370607
 20
19.233236
 42
0.022005
 10
30.218347
 20
19.476831
 42
0.022767
 10
30.085554
 20
19.652179
 42
0.010295
 10
29.896682
 20
19.870025
 42
0.010168
 10
29.687585
 20
20.092146
 42
0.013699
 10
29.488953
 20
20.283931
 42
0.013345
 10
29.266203
 20
20.476859
 42
0.007108
 10
28.981028
 20
20.704127
 42
0.00707
 10
28.682907
 20
20.928192
 42
0.010919
 10
28.418467
 20
21.112442
 42
0.008482
 10
28.142513
 20
21.28922
 42
0.005051
 10
27.808368
 20
21.490734
 42
0.005055
 10
27.471204
 20
21.684887
 42
0.008707
 10
27.186148
 20
21.838748
 42
0.006585
 10
26.9365
 20
21.963795
 42
0.009014
 10
26.708347
 20
22.069305
 42
0.006307
 10
26.515678
 20
22.151337
 42
0.097786
  0
LWPOLYLINE
  5
470
330
1D
100
AcDbEntity
  8
0
100
AcDbPolyline
 90
       78
 70
     1
 43
0.0
 10
8.6292
 20
21.77999
 42
0.009356
 10
8.286921
 20
21.788886
 42
0.007795
 10
7.923031
 20
21.78586
 42
0.007884
 10
7.589988
 20
21.77264
 42
0.021128
 10
7.35382
 20
21.749494
 42
0.014875
 10
7.131484
 20
21.7114
 42
0.007141
 10
6.848612
 20
21.650008
 42
0.007073
 10
6.555049
 20
21.5775
 42
0.010038
 10
6.29632
 20
21.504118
 42
0.0112
 10
6.057405
 20
21.42525
 42
0.01144
 10
5.823955
 20
21.336279
 42
0.011262
 10
5.624966
 20
21.249905
 42
0.045915
 10
5.51091
 20
21.184022
 42
0.046243
 10
5.40974
 20
21.097416
 42
0.109783
 10
5.358093
 20
21.013496
 42
0.09482
 10
5.342764
 20
20.907726
 42
0.02894
 10
5.359465
 20
20.746172
 42
0.04037
 10
5.393214
 20
20.609195
 42
0.019689
 10
5.456946
 20
20.440714
 42
0.019388
 10
5.537429
 20
20.269661
 42
0.026519
 10
5.623706
 20
20.122941
 42
0.029131
 10
5.71722
 20
19.998087
 42
0.034986
 10
5.81946
 20
19.892867
 42
0.037572
 10
5.915828
 20
19.81889
 42
0.149154
 10
5.98665
 20
19.798258
 42
0.059675
 10
6.064782
 20
19.80862
 42
0.01459
 10
6.189768
 20
19.844594
 42
0.014742
 10
6.331571
 20
19.894581
 42
0.014226
 10
6.4719
 20
19.953389
 42
-0.010033
 10
6.618771
 20
20.016392
 42
-0.007879
 10
6.780335
 20
20.078946
 42
-0.007978
 10
6.932454
 20
20.132361
 42
-0.019368
 10
7.046693
 20
20.165582
 42
-0.017441
 10
7.177588
 20
20.193398
 42
-0.003984
 10
7.400867
 20
20.230932
 42
-0.004117
 10
7.65909
 20
20.270049
 42
-0.003999
 10
7.920436
 20
20.305311
 42
-0.016301
 10
8.233518
 20
20.334674
 42
-0.016155
 10
8.548792
 20
20.343696
 42
-0.016366
 10
8.859752
 20
20.332362
 42
-0.017934
 10
9.159898
 20
20.300724
 42
-0.023154
 10
9.449203
 20
20.245929
 42
-0.017565
 10
9.760593
 20
20.160215
 42
-0.017297
 10
10.071328
 20
20.050881
 42
-0.019983
 10
10.358854
 20
19.924927
 42
-0.020423
 10
10.635658
 20
19.775973
 42
-0.009765
 10
10.979187
 20
19.563434
 42
-0.009663
 10
11.329797
 20
19.327203
 42
-0.013582
 10
11.6325
 20
19.102112
 10
12.3093
 20
18.5697
 10
11.445024
 20
18.545622
 10
10.580748
 20
18.521544
 10
10.631018
 20
17.826522
 42
0.006521
 10
10.654095
 20
17.556454
 42
0.009657
 10
10.681974
 20
17.320482
 42
0.005341
 10
10.71122
 20
17.123771
 42
0.160356
 10
10.733894
 20
17.07982
 42
0.196023
 10
10.783856
 20
17.05932
 42
0.000559
 10
11.514705
 20
17.058503
 42
0.003153
 10
12.343756
 20
17.063731
 42
0.00195
 10
13.318102
 20
17.07982
 10
15.849704
 20
17.1315
 10
14.312906
 20
18.604399
 42
0.003895
 10
13.682606
 20
19.19914
 42
0.004219
 10
13.059575
 20
19.768198
 42
0.003978
 10
12.517629
 20
20.247135
 42
0.020391
 10
12.204304
 20
20.497941
 42
0.01399
 10
11.942385
 20
20.679551
 42
0.008763
 10
11.626509
 20
20.877927
 42
0.008793
 10
11.308318
 20
21.062508
 42
0.015833
 10
11.0403
 20
21.200819
 42
0.012655
 10
10.77653
 20
21.318433
 42
0.008779
 10
10.472951
 20
21.438481
 42
0.008859
 10
10.17717
 20
21.543541
 42
0.017988
 10
9.9405
 20
21.613549
 42
0.022233
 10
9.689907
 20
21.666221
 42
0.009115
 10
9.345921
 20
21.71627
 42
0.008998
 10
8.974087
 20
21.756682
 42
0.011392
  0
LWPOLYLINE
  5
4C0
330
1D
100
AcDbEntity
  8
0
100
AcDbPolyline
 90
       44
 70
     1
 43
0.0
 10
8.909143
 20
20.049045
 42
0.013499
 10
8.738063
 20
20.044876
 42
0.019553
 10
8.587546
 20
20.031222
 42
0.015623
 10
8.466976
 20
20.011665
 42
0.210051
 10
8.431033
 20
19.98675
 42
0.175576
 10
8.421194
 20
19.938941
 42
0.006609
 10
8.450385
 20
19.755554
 42
0.011225
 10
8.493307
 20
19.536529
 42
0.007588
 10
8.55161
 20
19.2888
 42
-0.010115
 10
8.618732
 20
18.996994
 42
-0.005765
 10
8.688625
 20
18.641874
 42
-0.005755
 10
8.750767
 20
18.282647
 42
-0.009481
 10
8.794024
 20
17.9775
 42
-0.005166
 10
8.824434
 20
17.705967
 42
-0.006194
 10
8.847244
 20
17.449807
 42
-0.005373
 10
8.861449
 20
17.233832
 42
-0.040404
 10
8.858805
 20
17.1315
 42
0.171423
 10
8.880746
 20
17.03902
 42
0.177116
 10
8.955632
 20
16.982362
 42
0.054207
 10
9.12673
 20
16.949669
 42
0.005224
 10
9.549589
 20
16.92
 42
0.007256
 10
9.905519
 20
16.903941
 42
0.031188
 10
10.117436
 20
16.910677
 42
0.05585
 10
10.245564
 20
16.937414
 42
0.225821
 10
10.301795
 20
16.991018
 42
0.086884
 10
10.316466
 20
17.066575
 42
0.007222
 10
10.317269
 20
17.267101
 42
0.009468
 10
10.310195
 20
17.50786
 42
0.007163
 10
10.293644
 20
17.771745
 42
0.011747
 10
10.264014
 20
18.065709
 42
0.008045
 10
10.217195
 20
18.397856
 42
0.008113
 10
10.161713
 20
18.716574
 42
0.016245
 10
10.105664
 20
18.965975
 42
0.009134
 10
10.044836
 20
19.18422
 42
0.008626
 10
9.974975
 20
19.404327
 42
0.008617
 10
9.906403
 20
19.597059
 42
0.029557
 10
9.852463
 20
19.718446
 42
0.050849
 10
9.793526
 20
19.808627
 42
0.040219
 10
9.713142
 20
19.893055
 42
0.041509
 10
9.624728
 20
19.95979
 42
0.07561
 10
9.542038
 20
19.995992
 42
0.034656
 10
9.438761
 20
20.016116
 42
0.009884
 10
9.276208
 20
20.032984
 42
0.009902
 10
9.091486
 20
20.04479
 42
0.010349
  0
LWPOLYLINE
  5
4EE
330
1D
100
AcDbEntity
  8
0
100
AcDbPolyline
 90
       70
 70
     1
 43
0.0
 10
3.476249
 20
19.3734
 42
0.180613
 10
3.430233
 20
19.356217
 42
0.010874
 10
3.318991
 20
19.255357
 42
0.015164
 10
3.189961
 20
19.125506
 42
0.010546
 10
3.051958
 20
18.97155
 42
0.026177
 10
2.896363
 20
18.769979
 42
0.011581
 10
2.711476
 20
18.488933
 42
0.011426
 10
2.528882
 20
18.181444
 42
0.015099
 10
2.377628
 20
17.8929
 42
0.007723
 10
2.235651
 20
17.589101
 42
0.005046
 10
2.080876
 20
17.234586
 42
0.005075
 10
1.936964
 20
16.885871
 42
0.009672
 10
1.829584
 20
16.602232
 42
0.011893
 10
1.732664
 20
16.308568
 42
0.005664
 10
1.621292
 20
15.92654
 42
0.005611
 10
1.513853
 20
15.524476
 42
0.007936
 10
1.427925
 20
15.164032
 42
0.031085
 10
1.320484
 20
14.480912
 42
0.015473
 10
1.265387
 20
13.606216
 42
0.005918
 10
1.235117
 20
12.102399
 42
0.00051
 10
1.207181
 20
8.260063
 42
0.000867
 10
1.194772
 20
5.513122
 42
0.002729
 10
1.199702
 20
3.670112
 42
0.000488
 10
1.212714
 20
2.241745
 42
0.514138
 10
1.256384
 20
2.211163
 42
0.106126
 10
1.317021
 20
2.248367
 42
0.000407
 10
1.909662
 20
2.81458
 42
0.002072
 10
2.579402
 20
3.460835
 42
0.001299
 10
3.357846
 20
4.222185
 42
0.001093
 10
4.137653
 20
4.9922
 42
0.001655
 10
4.812367
 20
5.665805
 42
0.000612
 10
5.390585
 20
6.248333
 42
0.040887
 10
5.480879
 20
6.355811
 42
0.128755
 10
5.519832
 20
6.459014
 42
0.131712
 10
5.50271
 20
6.567095
 42
0.056961
 10
5.414285
 20
6.717038
 42
0.008176
 10
5.194787
 20
6.998126
 42
0.000375
 10
5.041007
 20
7.188262
 42
0.000555
 10
4.905907
 20
7.354669
 42
0.000242
 10
4.790206
 20
7.496717
 42
0.011191
 10
4.765864
 20
7.525244
 42
0.418409
 10
4.737767
 20
7.526635
 42
0.001151
 10
4.430216
 20
7.242763
 42
0.00535
 10
4.080249
 20
6.911211
 42
0.003201
 10
3.671049
 20
6.510044
 10
2.610286
 20
5.4567
 10
2.647398
 20
9.3483
 42
-0.001473
 10
2.672177
 20
11.333568
 42
-0.00526
 10
2.705125
 20
12.603166
 42
-0.007938
 10
2.751048
 20
13.479773
 42
-0.022717
 10
2.820226
 20
14.0859
 42
-0.006886
 10
2.885912
 20
14.462154
 42
-0.00449
 10
2.971594
 20
14.894623
 42
-0.004516
 10
3.06277
 20
15.314961
 42
-0.008595
 10
3.144941
 20
15.651
 42
-0.020689
 10
3.24892
 20
15.989071
 42
-0.009676
 10
3.409921
 20
16.417966
 42
-0.009568
 10
3.596354
 20
16.861899
 42
-0.01323
 10
3.781598
 20
17.252149
 42
0.004489
 10
4.035747
 20
17.764255
 42
0.035786
 10
4.133623
 20
18.009197
 42
0.091413
 10
4.152639
 20
18.158977
 42
0.171537
 10
4.106155
 20
18.270224
 42
-0.049226
 10
4.045467
 20
18.352215
 42
-0.01018
 10
3.956393
 20
18.508343
 42
-0.010608
 10
3.860102
 20
18.694717
 42
-0.00982
 10
3.769193
 20
18.889825
 42
0.01279
 10
3.68151
 20
19.075129
 42
0.019282
 10
3.594924
 20
19.23135
 42
0.014606
 10
3.516909
 20
19.352033
 42
0.246761
  0
LWPOLYLINE
  5
536
330
1D
100
AcDbEntity
  8
0
100
AcDbPolyline
 90
       42
 70
     1
 43
0.0
 10
24.718307
 20
16.64939
 42
-0.052792
 10
24.676246
 20
16.641764
 42
-0.001523
 10
24.494722
 20
16.628884
 42
-0.003062
 10
24.280702
 20
16.615669
 42
-0.002102
 10
24.037782
 20
16.603187
 10
23.414664
 20
16.573793
 10
23.470938
 20
15.752847
 42
0.004056
 10
23.498828
 20
15.389231
 42
0.002727
 10
23.536318
 20
14.974355
 42
0.002747
 10
23.577
 20
14.573191
 42
0.005438
 10
23.614483
 20
14.255482
 42
0.011177
 10
23.655133
 20
13.987716
 42
0.01418
 10
23.705162
 20
13.742647
 42
0.012199
 10
23.757371
 20
13.541649
 42
0.1035
 10
23.800627
 20
13.459525
 42
0.063638
 10
23.860487
 20
13.403465
 42
0.01666
 10
23.969861
 20
13.329882
 42
0.01665
 10
24.101098
 20
13.253762
 42
0.016348
 10
24.2379
 20
13.186051
 42
0.03541
 10
24.396969
 20
13.12688
 42
0.019931
 10
24.596913
 20
13.076789
 42
0.019812
 10
24.803777
 20
13.04213
 42
0.030468
 10
24.984872
 20
13.030258
 42
0.008264
 10
25.249631
 20
13.03343
 42
0.136263
 10
25.33329
 20
13.059251
 42
0.27051
 10
25.363571
 20
13.11854
 42
0.037541
 10
25.344763
 20
13.26105
 42
-0.010226
 10
25.320881
 20
13.388091
 42
-0.002469
 10
25.286701
 20
13.599318
 42
-0.002533
 10
25.249902
 20
13.842113
 42
-0.002514
 10
25.215466
 20
14.0859
 42
-0.007054
 10
25.180374
 20
14.374044
 42
-0.003002
 10
25.141151
 20
14.760776
 42
-0.00297
 10
25.104229
 20
15.173921
 42
-0.003893
 10
25.075684
 20
15.551749
 42
0.008626
 10
25.042615
 20
15.940449
 42
0.019151
 10
25.001017
 20
16.234736
 42
0.021806
 10
24.95278
 20
16.448118
 42
0.130603
 10
24.896116
 20
16.545799
 42
0.02861
 10
24.845809
 20
16.590656
 42
0.03588
 10
24.794219
 20
16.625894
 42
0.038812
 10
24.748289
 20
16.648078
 42
0.165797
  0
LWPOLYLINE
  5
562
330
1D
100
AcDbEntity
  8
0
100
AcDbPolyline
 90
       90
 70
     1
 43
0.0
 10
12.886553
 20
16.396403
 42
0.000837
 10
11.883248
 20
16.388362
 42
0.001059
 10
10.955539
 20
16.377408
 42
0.000835
 10
10.177398
 20
16.365272
 42
0.00858
 10
9.8559
 20
16.3542
 42
0.007301
 10
9.612781
 20
16.338086
 42
0.003313
 10
9.295065
 20
16.310243
 42
0.003279
 10
8.960305
 20
16.276454
 42
0.00449
 10
8.659474
 20
16.24136
 42
0.01445
 10
8.353394
 20
16.193844
 42
0.009345
 10
8.002088
 20
16.122048
 42
0.009395
 10
7.66113
 20
16.038944
 42
0.017498
 10
7.388852
 20
15.956845
 42
0.008291
 10
7.138359
 20
15.866986
 42
0.006289
 10
6.866604
 20
15.760459
 42
0.006362
 10
6.614058
 20
15.654015
 42
0.014719
 10
6.427978
 20
15.566174
 42
0.012328
 10
6.249754
 20
15.469932
 42
0.005763
 10
6.023572
 20
15.337007
 42
0.005706
 10
5.789435
 20
15.192081
 42
0.007959
 10
5.5836
 20
15.056757
 42
0.007495
 10
5.388398
 20
14.9196
 42
0.006392
 10
5.186641
 20
14.769299
 42
0.006451
 10
5.006611
 20
14.627852
 42
0.018127
 10
4.88565
 20
14.522804
 42
0.014514
 10
4.796601
 20
14.434644
 42
0.019508
 10
4.721558
 20
14.349493
 42
0.016933
 10
4.665491
 20
14.275664
 42
0.157946
 10
4.65374
 20
14.23799
 42
0.219577
 10
4.671917
 20
14.199704
 42
0.008503
 10
4.79694
 20
14.098966
 42
0.013786
 10
4.954007
 20
13.983563
 42
0.009139
 10
5.14019
 20
13.859491
 42
0.005712
 10
5.343062
 20
13.732832
 42
0.00553
 10
5.550965
 20
13.609439
 42
0.005472
 10
5.736282
 20
13.504896
 42
0.020217
 10
5.856514
 20
13.444989
 42
0.056103
 10
6.000182
 20
13.399009
 42
0.143972
 10
6.107817
 20
13.40854
 42
0.082097
 10
6.228563
 20
13.480612
 42
0.010689
 10
6.454052
 20
13.679716
 42
-0.015342
 10
6.621846
 20
13.82512
 42
-0.010057
 10
6.823454
 20
13.982638
 42
-0.01012
 10
7.026204
 20
14.128268
 42
-0.019094
 10
7.196338
 20
14.235994
 42
-0.025254
 10
7.376394
 20
14.32877
 42
-0.01293
 10
7.610545
 20
14.427609
 42
-0.012816
 10
7.857558
 20
14.517199
 42
-0.018807
 10
8.0793
 20
14.582092
 42
-0.015148
 10
8.330905
 20
14.637509
 42
-0.006024
 10
8.679113
 20
14.698879
 42
-0.005955
 10
9.056704
 20
14.756137
 42
-0.007447
 10
9.408416
 20
14.799865
 42
-0.00976
 10
9.79323
 20
14.834313
 42
-0.005005
 10
10.276794
 20
14.86324
 42
-0.004971
 10
10.775513
 20
14.883099
 42
-0.007464
 10
11.21098
 20
14.8896
 10
12.192029
 20
14.8896
 10
11.658464
 20
14.441004
 42
-0.002496
 10
11.432473
 20
14.252918
 42
-0.002192
 10
11.194655
 20
14.058735
 42
-0.002203
 10
10.978469
 20
13.88536
 42
-0.006618
 10
10.8288
 20
13.769607
 42
0.056448
 10
10.6583
 20
13.608253
 42
0.055208
 10
10.526741
 20
13.411712
 42
0.032195
 10
10.394584
 20
13.111918
 42
0.006631
 10
10.203194
 20
12.566659
 42
0.005632
 10
10.080429
 20
12.187391
 42
0.008961
 10
9.984915
 20
11.859996
 42
0.00353
 10
9.910968
 20
11.580762
 42
0.265276
 10
9.922826
 20
11.537374
 42
0.266166
 10
9.961678
 20
11.526825
 42
0.013209
 10
10.0937
 20
11.565011
 42
0.018387
 10
10.254311
 20
11.622683
 42
0.011956
 10
10.435521
 20
11.700459
 42
0.018386
 10
10.648417
 20
11.807561
 42
0.009387
 10
10.907906
 20
11.956702
 42
0.009314
 10
11.169923
 20
12.120625
 42
0.013801
 10
11.392689
 20
12.274759
 42
0.028852
 10
11.677902
 20
12.510425
 42
0.003777
 10
12.250752
 20
13.050334
 42
0.004382
 10
12.920398
 20
13.702432
 42
0.003655
 10
13.6206
 20
14.406567
 42
0.00238
 10
14.287341
 20
15.093439
 42
0.003729
 10
14.853484
 20
15.691117
 42
0.001064
 10
15.340136
 20
16.214841
 42
0.130459
 10
15.382253
 20
16.294349
 42
0.454319
 10
15.334021
 20
16.361174
 42
0.012965
 10
14.938455
 20
16.387637
 42
0.010349
 10
14.268824
 20
16.401147
 42
0.001454
  0
LWPOLYLINE
  5
5BE
330
1D
100
AcDbEntity
  8
0
100
AcDbPolyline
 90
       70
 70
     1
 43
0.0
 10
20.4732
 20
16.4124
 42
0.002603
 10
19.500009
 20
16.407333
 42
0.00434
 10
18.680737
 20
16.391687
 42
0.000758
 10
17.9631
 20
16.37066
 42
0.405219
 10
17.9352
 20
16.341887
 42
0.195098
 10
17.954699
 20
16.293817
 42
0.000465
 10
18.489884
 20
15.743698
 42
0.002866
 10
19.099551
 20
15.125317
 42
0.001768
 10
19.823486
 20
14.404518
 42
0.00349
 10
20.774437
 20
13.477396
 42
0.009353
 10
21.468311
 20
12.834831
 42
0.012957
 10
22.016217
 20
12.371079
 42
0.023871
 10
22.48839
 20
12.027708
 42
0.010505
 10
22.821394
 20
11.818924
 42
0.009044
 10
23.17977
 20
11.613293
 42
0.00914
 10
23.511768
 20
11.438524
 42
0.025848
 10
23.751454
 20
11.333038
 42
0.027649
 10
24.003691
 20
11.252899
 42
0.017082
 10
24.307558
 20
11.185529
 42
0.016018
 10
24.64154
 20
11.134375
 42
0.014955
 10
24.985847
 20
11.103287
 42
0.014346
 10
25.321372
 20
11.092732
 42
0.011627
 10
25.681399
 20
11.100111
 42
0.011918
 10
26.022404
 20
11.123192
 42
0.022116
 10
26.297147
 20
11.160688
 42
0.016628
 10
26.540684
 20
11.213391
 42
0.012221
 10
26.806846
 20
11.287285
 42
0.012377
 10
27.055485
 20
11.369683
 42
0.026737
 10
27.2412
 20
11.447812
 42
0.021986
 10
27.429493
 20
11.549614
 42
0.062771
 10
27.546467
 20
11.641336
 42
0.087333
 10
27.614652
 20
11.739686
 42
0.079392
 10
27.648049
 20
11.858721
 42
0.065779
 10
27.646253
 20
11.968945
 42
0.026304
 10
27.616163
 20
12.117191
 42
0.025478
 10
27.566472
 20
12.275697
 42
0.02926
 10
27.502782
 20
12.420945
 42
0.013193
 10
27.427657
 20
12.559075
 42
0.012327
 10
27.343704
 20
12.696263
 42
0.012406
 10
27.263159
 20
12.814343
 42
0.040512
 10
27.20195
 20
12.886364
 42
0.091622
 10
27.111304
 20
12.948734
 42
0.125636
 10
27.014141
 20
12.965409
 42
0.059795
 10
26.87149
 20
12.936575
 42
0.008295
 10
26.585817
 20
12.83697
 42
-0.025073
 10
26.316883
 20
12.753208
 42
-0.02686
 10
26.046995
 20
12.699034
 42
-0.023777
 10
25.745839
 20
12.669777
 42
-0.013537
 10
25.38
 20
12.661645
 42
-0.013545
 10
25.014406
 20
12.673324
 42
-0.024137
 10
24.715197
 20
12.705549
 42
-0.027431
 10
24.448634
 20
12.762477
 42
-0.025815
 10
24.184322
 20
12.84915
 42
-0.025642
 10
23.960658
 20
12.948969
 42
-0.011494
 10
23.677093
 20
13.101688
 42
-0.011344
 10
23.384095
 20
13.277198
 42
-0.01513
 10
23.126822
 20
13.450442
 42
-0.010034
 10
22.864655
 20
13.646848
 42
-0.005699
 10
22.555013
 20
13.894404
 42
-0.005688
 10
22.248643
 20
14.150994
 42
-0.009341
 10
21.996
 20
14.375844
 10
21.4461
 20
14.883974
 10
22.282449
 20
14.886787
 10
23.118798
 20
14.8896
 10
23.064999
 20
15.282108
 42
-0.01013
 10
23.044375
 20
15.459171
 42
-0.00629
 10
23.027004
 20
15.667678
 42
-0.006309
 10
23.015041
 20
15.873961
 42
-0.011327
 10
23.0112
 20
16.043508
 10
23.0112
 20
16.4124
  0
LWPOLYLINE
  5
606
330
1D
100
AcDbEntity
  8
0
100
AcDbPolyline
 90
       90
 70
     1
 43
0.0
 10
17.232003
 20
15.978609
 42
0.541966
 10
17.150327
 20
15.952388
 42
0.049778
 10
17.107435
 20
15.698509
 42
0.013838
 10
17.084334
 20
15.124485
 42
0.001045
 10
17.06805
 20
13.567509
 42
0.00074
 10
17.06068
 20
12.497602
 42
0.000637
 10
17.056031
 20
11.372622
 42
0.000641
 10
17.054421
 20
10.35165
 42
0.001853
 10
17.056833
 20
9.6444
 42
0.005842
 10
17.069415
 20
8.975234
 42
0.011244
 10
17.097805
 20
8.439755
 42
0.013929
 10
17.142756
 20
8.006202
 42
0.025396
 10
17.207133
 20
7.6563
 42
0.01019
 10
17.276399
 20
7.388505
 42
0.006013
 10
17.369447
 20
7.071515
 42
0.006014
 10
17.470028
 20
6.757056
 42
0.010248
 10
17.562582
 20
6.497142
 42
0.016389
 10
17.668356
 20
6.243695
 42
0.009808
 10
17.809695
 20
5.949419
 42
0.009815
 10
17.962055
 20
5.6617
 42
0.016791
 10
18.101787
 20
5.428705
 42
0.008327
 10
18.233734
 20
5.231828
 42
0.010627
 10
18.362143
 20
5.0551
 42
0.008732
 10
18.474746
 20
4.912113
 42
0.083365
 10
18.532957
 20
4.861066
 42
0.183287
 10
18.59181
 20
4.849685
 42
0.089192
 10
18.664805
 20
4.876284
 42
0.060567
 10
18.749297
 20
4.940294
 42
0.028484
 10
18.842276
 20
5.041203
 42
0.020948
 10
18.934164
 20
5.163167
 42
0.009457
 10
19.044733
 20
5.330151
 42
0.009344
 10
19.154984
 20
5.511082
 42
0.012605
 10
19.24745
 20
5.678992
 10
19.450353
 20
6.070485
 10
19.159708
 20
6.653132
 42
-0.017223
 10
19.035626
 20
6.924923
 42
-0.009647
 10
18.902702
 20
7.263072
 42
-0.009617
 10
18.781416
 20
7.610343
 42
-0.015437
 10
18.692934
 20
7.91134
 42
-0.024376
 10
18.600692
 20
8.352115
 42
-0.0184
 10
18.541087
 20
8.843302
 42
-0.011736
 10
18.500404
 20
9.515013
 42
-0.003057
 10
18.466978
 20
10.59615
 42
-0.002972
 10
18.450987
 20
11.444263
 42
-0.007119
 10
18.451823
 20
12.073311
 42
-0.002543
 10
18.462086
 20
12.570147
 42
-0.406695
 10
18.498258
 20
12.6054
 42
-0.206472
 10
18.545104
 20
12.585193
 42
-0.008952
 10
18.668092
 20
12.45008
 42
-0.013983
 10
18.809819
 20
12.27926
 42
-0.009387
 10
18.962519
 20
12.07665
 42
-0.00882
 10
19.1386
 20
11.82441
 42
-0.004357
 10
19.353762
 20
11.498198
 42
-0.004322
 10
19.571197
 20
11.155753
 42
-0.006301
 10
19.756369
 20
10.84995
 42
0.007916
 10
19.985442
 20
10.474391
 42
0.041769
 10
20.130779
 20
10.282026
 42
0.08312
 10
20.252727
 20
10.184532
 42
0.125267
 10
20.383584
 20
10.149816
 42
-0.048311
 10
20.502388
 20
10.137099
 42
-0.01042
 10
20.704244
 20
10.091108
 42
-0.010783
 10
20.936645
 20
10.027683
 42
-0.010114
 10
21.17115
 20
9.953025
 42
0.003666
 10
21.541929
 20
9.829694
 42
0.065582
 10
21.665198
 20
9.806906
 42
0.289175
 10
21.720531
 20
9.837942
 42
0.124801
 10
21.7422
 20
9.923402
 42
0.085477
 10
21.725236
 20
10.021908
 42
0.009856
 10
21.645677
 20
10.23277
 42
0.01164
 10
21.539437
 20
10.481427
 42
0.009251
 10
21.413611
 20
10.744889
 42
0.009215
 10
21.261426
 20
11.03544
 42
0.005935
 10
21.074894
 20
11.366743
 42
0.005965
 10
20.884649
 20
11.68659
 42
0.011162
 10
20.721956
 20
11.939945
 42
0.006525
 10
20.545502
 20
12.19446
 42
0.00304
 10
20.310401
 20
12.520082
 42
0.003011
 10
20.059493
 20
12.858883
 42
0.004203
 10
19.830753
 20
13.158611
 42
0.008499
 10
19.573214
 20
13.478869
 42
0.003939
 10
19.228389
 20
13.886479
 42
0.003901
 10
18.859348
 20
14.309095
 42
0.00542
 10
18.521793
 20
14.681411
 42
0.001541
 10
18.209402
 20
15.016477
 42
0.001911
 10
17.916556
 20
15.326263
 42
0.00156
 10
17.668846
 20
15.584686
 42
0.014358
 10
17.557888
 20
15.6933
 42
0.003897
 10
17.477357
 20
15.766569
 42
0.00283
 10
17.386637
 20
15.846904
 42
0.002858
 10
17.29966
 20
15.922178
 42
0.006254
  0
LWPOLYLINE
  5
662
330
1D
100
AcDbEntity
  8
0
100
AcDbPolyline
 90
       72
 70
     1
 43
0.0
 10
25.78185
 20
16.01537
 10
25.4646
 20
16.063362
 10
25.4646
 20
15.365751
 42
0.011643
 10
25.471548
 20
15.067435
 42
0.019956
 10
25.493039
 20
14.819528
 42
0.021434
 10
25.525649
 20
14.628689
 42
0.113878
 10
25.57035
 20
14.533463
 42
0.097908
 10
25.640799
 20
14.472917
 42
0.020563
 10
25.786108
 20
14.398442
 42
0.020818
 10
25.964736
 20
14.324832
 42
0.018393
 10
26.156344
 20
14.262934
 42
-0.030194
 10
26.407503
 20
14.175205
 42
-0.034955
 10
26.633773
 20
14.061318
 42
-0.031889
 10
26.858098
 20
13.907868
 42
-0.019194
 10
27.104346
 20
13.699578
 42
-0.023043
 10
27.310696
 20
13.492754
 42
-0.019762
 10
27.508506
 20
13.257263
 42
-0.020267
 10
27.680512
 20
13.015618
 42
-0.030416
 10
27.808484
 20
12.790687
 42
-0.022878
 10
27.938021
 20
12.493224
 42
-0.047214
 10
28.005772
 20
12.248995
 42
-0.035685
 10
28.036606
 20
11.956156
 42
-0.008386
 10
28.044883
 20
11.4633
 42
-0.010441
 10
28.034889
 20
10.984326
 42
-0.029448
 10
28.00127
 20
10.651329
 42
-0.032705
 10
27.931073
 20
10.344464
 42
-0.015571
 10
27.803046
 20
9.959946
 10
27.561191
 20
9.302593
 10
27.921102
 20
8.902446
 42
0.004456
 10
28.068485
 20
8.741496
 42
0.004948
 10
28.213701
 20
8.588779
 42
0.004595
 10
28.339996
 20
8.460938
 42
0.02557
 10
28.411776
 20
8.39655
 42
0.019767
 10
28.46609
 20
8.356069
 42
0.022554
 10
28.521151
 20
8.321864
 42
0.02246
 10
28.569967
 20
8.297321
 42
0.105627
 10
28.60049
 20
8.2908
 42
0.25283
 10
28.632897
 20
8.308306
 42
0.005579
 10
28.732172
 20
8.463504
 42
0.011299
 10
28.844785
 20
8.653381
 42
0.007224
 10
28.96739
 20
8.878729
 42
0.018522
 10
29.097841
 20
9.151014
 42
0.010861
 10
29.234591
 20
9.485568
 42
0.010854
 10
29.356984
 20
9.826571
 42
0.018128
 10
29.443169
 20
10.118962
 42
0.018549
 10
29.512237
 20
10.437849
 42
0.014026
 10
29.565121
 20
10.792192
 42
0.013834
 10
29.598793
 20
11.155434
 42
0.016194
 10
29.61
 20
11.501358
 42
0.014633
 10
29.600779
 20
11.816357
 42
0.011251
 10
29.57293
 20
12.159307
 42
0.011407
 10
29.53232
 20
12.479023
 42
0.026419
 10
29.483805
 20
12.715947
 42
0.015539
 10
29.420715
 20
12.930589
 42
0.009962
 10
29.334853
 20
13.175748
 42
0.010011
 10
29.241083
 20
13.412703
 42
0.018421
 10
29.153945
 20
13.600871
 42
0.015142
 10
29.056928
 20
13.778123
 42
0.009392
 10
28.932937
 20
13.980418
 42
0.009419
 10
28.80291
 20
14.175678
 42
0.016749
 10
28.687576
 20
14.330641
 42
0.025952
 10
28.550266
 20
14.485562
 42
0.010313
 10
28.346827
 20
14.684045
 42
0.010174
 10
28.118039
 20
14.889657
 42
0.012592
 10
27.896486
 20
15.071238
 42
0.022982
 10
27.645829
 20
15.248459
 42
0.014341
 10
27.337409
 20
15.433667
 42
0.014325
 10
27.018022
 20
15.601352
 42
0.022462
 10
26.7336
 20
15.724936
 42
0.008873
 10
26.467408
 20
15.82127
 42
0.008327
 10
26.192292
 20
15.910259
 42
0.008324
 10
25.94569
 20
15.981046
 42
0.028195
  0
LWPOLYLINE
  5
6AC
330
1D
100
AcDbEntity
  8
0
100
AcDbPolyline
 90
       60
 70
     1
 43
0.0
 10
32.203087
 20
15.708713
 42
0.444285
 10
32.180675
 20
15.707574
 42
0.01156
 10
32.111838
 20
15.619009
 42
0.017016
 10
32.030712
 20
15.501329
 42
0.009861
 10
31.940943
 20
15.354849
 42
-0.015753
 10
31.825866
 20
15.171948
 42
-0.007074
 10
31.663861
 20
14.938789
 42
-0.006995
 10
31.485593
 20
14.697034
 42
-0.009455
 10
31.317314
 20
14.483877
 10
30.9213
 20
14.0013
 10
30.879
 20
9.6867
 10
30.8367
 20
5.3721
 10
29.620583
 20
6.5565
 42
-0.005318
 10
29.105597
 20
7.068839
 42
-0.004307
 10
28.563745
 20
7.629069
 42
-0.004353
 10
28.072936
 20
8.154436
 42
-0.011232
 10
27.730575
 20
8.5446
 42
-0.005227
 10
27.4387
 20
8.900181
 42
-0.003709
 10
27.118495
 20
9.30481
 42
-0.003744
 10
26.818505
 20
9.695732
 42
-0.00793
 10
26.593215
 20
10.00395
 10
26.129746
 20
10.6596
 10
25.291387
 20
10.6596
 10
24.453027
 20
10.6596
 10
24.555165
 20
10.42695
 42
0.01477
 10
24.61218
 20
10.30685
 42
0.004339
 10
24.706684
 20
10.125959
 42
0.004353
 10
24.816592
 20
9.924207
 42
0.004663
 10
24.927545
 20
9.729
 42
0.006964
 10
25.051715
 20
9.521902
 42
0.004389
 10
25.202176
 20
9.283403
 42
0.004405
 10
25.354292
 20
9.051425
 42
0.008067
 10
25.482973
 20
8.865472
 42
0.018927
 10
25.655815
 20
8.642458
 42
0.003329
 10
25.999032
 20
8.23813
 42
0.003604
 10
26.408298
 20
7.76933
 42
0.003233
 10
26.839297
 20
7.289053
 42
0.006207
 10
27.324964
 20
6.767989
 42
0.003976
 10
27.901174
 20
6.17449
 42
0.003995
 10
28.47492
 20
5.602075
 42
0.007456
 10
28.950047
 20
5.14928
 42
-0.002406
 10
29.430481
 20
4.700599
 42
-0.00128
 10
30.021018
 20
4.140885
 42
-0.001274
 10
30.621514
 20
3.56588
 42
-0.001981
 10
31.136022
 20
3.06675
 42
0.002756
 10
31.580343
 20
2.637043
 42
0.004391
 10
31.965484
 20
2.275079
 42
0.001103
 10
32.304413
 20
1.963488
 42
0.187448
 10
32.349936
 20
1.9458
 42
0.413456
 10
32.377437
 20
1.973229
 42
0.000119
 10
32.381619
 20
3.753728
 42
0.001716
 10
32.378998
 20
5.740444
 42
0.001028
 10
32.362933
 20
8.10045
 42
0.000439
 10
32.33946
 20
10.50993
 42
0.000621
 10
32.31401
 20
12.655599
 42
0.000352
 10
32.288994
 20
14.467489
 42
0.008828
 10
32.272997
 20
14.964641
 42
0.004309
 10
32.256941
 20
15.239085
 42
0.006656
 10
32.237867
 20
15.475898
 42
0.002593
 10
32.217846
 20
15.677744
 42
0.172003
  0
LWPOLYLINE
  5
6EA
330
1D
100
AcDbEntity
  8
0
100
AcDbPolyline
 90
       76
 70
     1
 43
0.0
 10
16.17272
 20
15.651
 42
0.194023
 10
16.125154
 20
15.63182
 42
0.000768
 10
15.701235
 20
15.222316
 42
0.003693
 10
15.222073
 20
14.75111
 42
0.002297
 10
14.666636
 20
14.19165
 42
0.005564
 10
14.031117
 20
13.531074
 42
0.008346
 10
13.49267
 20
12.939298
 42
0.009429
 10
13.066474
 20
12.436063
 42
0.026264
 10
12.793285
 20
12.062416
 42
0.012758
 10
12.606523
 20
11.760039
 42
0.008455
 10
12.407037
 20
11.404134
 42
0.008512
 10
12.224885
 20
11.05162
 42
0.016359
 10
12.093107
 20
10.762145
 42
0.013396
 10
11.983246
 20
10.476943
 42
0.008528
 10
11.870059
 20
10.139736
 42
0.008566
 10
11.770269
 20
9.80491
 42
0.015715
 10
11.702314
 20
9.528529
 42
0.021398
 10
11.645641
 20
9.192079
 42
0.017674
 10
11.613407
 20
8.829807
 42
0.015064
 10
11.603714
 20
8.413379
 42
0.00859
 10
11.615811
 20
7.9101
 42
0.008686
 10
11.644537
 20
7.420283
 42
0.016193
 10
11.687513
 20
7.025142
 42
0.019828
 10
11.746707
 20
6.70053
 42
0.031562
 10
11.82553
 20
6.4296
 42
0.00412
 10
11.897998
 20
6.233791
 42
0.003602
 10
11.976936
 20
6.030216
 42
0.003623
 10
12.050925
 20
5.847291
 42
0.010764
 10
12.105236
 20
5.723395
 42
0.034982
 10
12.17807
 20
5.591517
 42
0.137765
 10
12.247025
 20
5.530738
 42
0.125887
 10
12.341152
 20
5.511834
 42
0.027161
 10
12.5077
 20
5.52965
 42
0.041715
 10
12.642848
 20
5.563334
 42
0.019538
 10
12.811262
 20
5.628019
 42
0.019203
 10
12.983592
 20
5.71003
 42
0.025511
 10
13.133003
 20
5.798295
 42
0.017669
 10
13.306651
 20
5.922248
 42
0.079974
 10
13.391746
 20
6.012514
 42
0.135159
 10
13.421365
 20
6.099662
 42
0.09345
 10
13.408056
 20
6.20354
 42
-0.006053
 10
13.375658
 20
6.307652
 42
-0.0012
 10
13.32037
 20
6.494854
 42
-0.00127
 10
13.257056
 20
6.713195
 42
-0.001182
 10
13.193289
 20
6.9372
 42
-0.023535
 10
13.128447
 20
7.216764
 42
-0.015075
 10
13.078403
 20
7.546327
 42
-0.014325
 10
13.045699
 20
7.901186
 42
-0.014233
 10
13.033277
 20
8.258103
 42
-0.009738
 10
13.037598
 20
8.586689
 42
-0.008048
 10
13.054654
 20
8.936485
 42
-0.008143
 10
13.080698
 20
9.256911
 42
-0.021492
 10
13.112898
 20
9.484803
 42
-0.028001
 10
13.165696
 20
9.701183
 42
-0.012376
 10
13.258312
 20
9.980598
 42
-0.012205
 10
13.371318
 20
10.27262
 42
-0.016073
 10
13.489269
 20
10.5327
 42
-0.020824
 10
13.636152
 20
10.801845
 42
-0.010958
 10
13.839572
 20
11.124065
 42
-0.010883
 10
14.062703
 20
11.445501
 42
-0.016456
 10
14.271922
 20
11.714256
 10
14.7627
 20
12.303613
 10
14.805
 20
11.333743
 10
14.8473
 20
10.363873
 10
15.4818
 20
10.393201
 42
0.005265
 10
15.729505
 20
10.407265
 42
0.007559
 10
15.948554
 20
10.425348
 42
0.004419
 10
16.131882
 20
10.444914
 42
0.109219
 10
16.17975
 20
10.461457
 42
0.253625
 10
16.205635
 20
10.506279
 42
0.000667
 10
16.224562
 20
11.245447
 42
0.00376
 10
16.238632
 20
12.085533
 42
0.002307
 10
16.2432
 20
13.075693
 42
0.002565
 10
16.238135
 20
14.06319
 42
0.004276
 10
16.222497
 20
14.894504
 42
0.000735
 10
16.201485
 20
15.623095
 42
0.405366
  0
LWPOLYLINE
  5
738
330
1D
100
AcDbEntity
  8
0
100
AcDbPolyline
 90
       54
 70
     1
 43
0.0
 10
3.857757
 20
14.438222
 42
0.006531
 10
3.630894
 20
14.668868
 42
0.079842
 10
3.530589
 20
14.740667
 42
0.272764
 10
3.462604
 20
14.735855
 42
0.119607
 10
3.400174
 20
14.666022
 42
0.036518
 10
3.363797
 20
14.584209
 42
0.014162
 10
3.325117
 20
14.466333
 42
0.013932
 10
3.290257
 20
14.335759
 42
0.016768
 10
3.265082
 20
14.211243
 42
0.006142
 10
3.243633
 20
14.072767
 42
0.003097
 10
3.219814
 20
13.89766
 42
0.003075
 10
3.197433
 20
13.716397
 42
0.004565
 10
3.180256
 20
13.557339
 42
0.033157
 10
3.173119
 20
13.335429
 42
0.113555
 10
3.21002
 20
13.196871
 42
0.0801
 10
3.31089
 20
13.063153
 42
0.01149
 10
3.564399
 20
12.830894
 42
0.018715
 10
3.773536
 20
12.661331
 42
0.008145
 10
4.06311
 20
12.451277
 42
0.008047
 10
4.378418
 20
12.237786
 42
0.010618
 10
4.672867
 20
12.054061
 42
0.011334
 10
4.982175
 20
11.879438
 42
0.007602
 10
5.343115
 20
11.693322
 42
0.007658
 10
5.698356
 20
11.523661
 42
0.014968
 10
5.987261
 20
11.401407
 42
0.014456
 10
6.297121
 20
11.291285
 42
0.025666
 10
6.558822
 20
11.221319
 42
0.030483
 10
6.790434
 20
11.186557
 42
0.038148
 10
7.00766
 20
11.184001
 10
7.4025
 20
11.2095
 10
7.687708
 20
11.777405
 42
0.015018
 10
7.793294
 20
12.004398
 42
0.020046
 10
7.874477
 20
12.216689
 42
0.017674
 10
7.927537
 20
12.394608
 42
0.156481
 10
7.923013
 20
12.475355
 42
0.14059
 10
7.880797
 20
12.53138
 42
0.076431
 10
7.804277
 20
12.572503
 42
0.056138
 10
7.694856
 20
12.597939
 42
0.028284
 10
7.553205
 20
12.606404
 42
-0.02644
 10
7.399259
 20
12.615035
 42
-0.01154
 10
7.196347
 20
12.641966
 42
-0.011382
 10
6.981657
 20
12.680544
 42
-0.014904
 10
6.787599
 20
12.726056
 42
-0.01698
 10
6.578322
 20
12.789449
 42
-0.008096
 10
6.313543
 20
12.884387
 42
-0.008015
 10
6.039817
 20
12.992606
 42
-0.01129
 10
5.799671
 20
13.098442
 42
-0.01286
 10
5.554899
 20
13.220754
 42
-0.007367
 10
5.265756
 20
13.380165
 42
-0.007355
 10
4.979576
 20
13.549114
 42
-0.012136
 10
4.743514
 20
13.701184
 42
-0.014699
 10
4.519637
 20
13.86303
 42
-0.009667
 10
4.271327
 20
14.061652
 42
-0.009729
 10
4.036969
 20
14.264507
 42
-0.018452
  0
LWPOLYLINE
  5
770
330
1D
100
AcDbEntity
  8
0
100
AcDbPolyline
 90
       50
 70
     1
 43
0.0
 10
9.6444
 20
14.437257
 42
0.01161
 10
9.448252
 20
14.438163
 42
0.01021
 10
9.243665
 20
14.430176
 42
0.010314
 10
9.059366
 20
14.415388
 42
0.030182
 10
8.933594
 20
14.394957
 42
0.101771
 10
8.786288
 20
14.328425
 42
0.125144
 10
8.690008
 20
14.212888
 42
0.046955
 10
8.606109
 20
13.984388
 42
0.004267
 10
8.45604
 20
13.395479
 42
-0.005289
 10
8.354217
 20
12.999286
 42
-0.00471
 10
8.240163
 20
12.589661
 42
-0.00473
 10
8.130642
 20
12.223233
 42
-0.014533
 10
8.046996
 20
11.978196
 42
-0.009227
 10
7.961353
 20
11.761563
 42
-0.005062
 10
7.848927
 20
11.499353
 42
-0.005044
 10
7.729383
 20
11.235405
 42
-0.008031
 10
7.621265
 20
11.012391
 42
-0.013151
 10
7.493194
 20
10.774453
 42
-0.005372
 10
7.307271
 20
10.457733
 42
-0.00531
 10
7.100147
 20
10.12156
 42
-0.00676
 10
6.901638
 20
9.816131
 10
6.430748
 20
9.112615
 10
6.593793
 20
8.849757
 42
0.023581
 10
6.676663
 20
8.729236
 42
0.011329
 10
6.793517
 20
8.582393
 42
0.011205
 10
6.92259
 20
8.434405
 42
0.015729
 10
7.044749
 20
8.308701
 10
7.33266
 20
8.030501
 10
7.667981
 20
8.394282
 42
0.01373
 10
7.820989
 20
8.569704
 42
0.006811
 10
8.005783
 20
8.800021
 42
0.006754
 10
8.191011
 20
9.044159
 42
0.009838
 10
8.347069
 20
9.264681
 42
0.010893
 10
8.50021
 20
9.501304
 42
0.006026
 10
8.677349
 20
9.796439
 42
0.006006
 10
8.849718
 20
10.099947
 42
0.009618
 10
8.98869
 20
10.3635
 42
0.01148
 10
9.12178
 20
10.643974
 42
0.005832
 10
9.276891
 20
11.002389
 42
0.00579
 10
9.4284
 20
11.376078
 42
0.008614
 10
9.551537
 20
11.706843
 42
0.007136
 10
9.662197
 20
12.035386
 42
0.005271
 10
9.775597
 20
12.401884
 42
0.005328
 10
9.875426
 20
12.750532
 42
0.011893
 10
9.942174
 20
13.018143
 42
0.010499
 10
9.991826
 20
13.263528
 42
0.007662
 10
10.03706
 20
13.53801
 42
0.007747
 10
10.07193
 20
13.799616
 42
0.016889
 10
10.088758
 20
14.0013
 10
10.1097
 20
14.4243
  0
LWPOLYLINE
  5
7A4
330
1D
100
AcDbEntity
  8
0
100
AcDbPolyline
 90
       48
 70
     1
 43
0.0
 10
3.807178
 20
12.0978
 42
0.327706
 10
3.774115
 20
12.073523
 42
0.029225
 10
3.747491
 20
11.967331
 42
0.029211
 10
3.728913
 20
11.823903
 42
0.017964
 10
3.723039
 20
11.65365
 42
0.014466
 10
3.729397
 20
11.444344
 42
0.0071
 10
3.748976
 20
11.178436
 42
0.007037
 10
3.777151
 20
10.902549
 42
0.01016
 10
3.810438
 20
10.6596
 42
0.012366
 10
3.856297
 20
10.40931
 42
0.007085
 10
3.923332
 20
10.1097
 42
0.007074
 10
3.999308
 20
9.810203
 42
0.011682
 10
4.072928
 20
9.5598
 42
0.013999
 10
4.158631
 20
9.315427
 42
0.008809
 10
4.271688
 20
9.034751
 42
0.008842
 10
4.39275
 20
8.762358
 42
0.015999
 10
4.502788
 20
8.5446
 42
0.012687
 10
4.62504
 20
8.333666
 42
0.007052
 10
4.784134
 20
8.082562
 42
0.007029
 10
4.952435
 20
7.832772
 42
0.011281
 10
5.103698
 20
7.625104
 42
0.018845
 10
5.269325
 20
7.424333
 42
0.010942
 10
5.482272
 20
7.195448
 42
0.010928
 10
5.70608
 20
6.975054
 42
0.018072
 10
5.905494
 20
6.800254
 42
0.005822
 10
6.08406
 20
6.658222
 42
0.008661
 10
6.243894
 20
6.53848
 42
0.004531
 10
6.380844
 20
6.441415
 42
0.153059
 10
6.418535
 20
6.4296
 42
0.195181
 10
6.454721
 20
6.444285
 42
0.004334
 10
6.591305
 20
6.579321
 42
0.00917
 10
6.749064
 20
6.74395
 42
0.005991
 10
6.925205
 20
6.939287
 10
7.37385
 20
7.448974
 10
6.733834
 20
8.129316
 42
-0.01413
 10
6.422676
 20
8.479393
 42
-0.019356
 10
6.164348
 20
8.812491
 42
-0.02057
 10
5.945125
 20
9.147243
 42
-0.019998
 10
5.751942
 20
9.501979
 42
-0.013977
 10
5.588622
 20
9.857403
 42
-0.024223
 10
5.475884
 20
10.162136
 42
-0.027391
 10
5.402561
 20
10.447937
 42
-0.02623
 10
5.359626
 20
10.7442
 10
5.309185
 20
11.2941
 10
4.600571
 20
11.69595
 42
0.00478
 10
4.322905
 20
11.849923
 42
0.00698
 10
4.075208
 20
11.979757
 42
0.003746
 10
3.864271
 20
12.084617
 42
0.113951
  0
LWPOLYLINE
  5
7D6
330
1D
100
AcDbEntity
  8
0
100
AcDbPolyline
 90
       38
 70
     1
 43
0.0
 10
15.96825
 20
10.054724
 42
0.003687
 10
15.682427
 20
10.047424
 42
0.003848
 10
15.400769
 20
10.035982
 42
0.0037
 10
15.157528
 20
10.022419
 42
0.01687
 10
15.0165
 20
10.008719
 42
0.021746
 10
14.879879
 20
9.984696
 42
0.005318
 10
14.657266
 20
9.933001
 42
0.005438
 10
14.403172
 20
9.868204
 42
0.005402
 10
14.149975
 20
9.797757
 42
0.008933
 10
13.774974
 20
9.68174
 42
0.072004
 10
13.61392
 20
9.601611
 42
0.1256
 10
13.522497
 20
9.49642
 42
0.048699
 10
13.452497
 20
9.315012
 42
0.026613
 10
13.419902
 20
9.167682
 42
0.012278
 10
13.392501
 20
8.973199
 42
0.012122
 10
13.373633
 20
8.766818
 42
0.016459
 10
13.367272
 20
8.57985
 42
0.009401
 10
13.370245
 20
8.411937
 42
0.013475
 10
13.379684
 20
8.263381
 42
0.009282
 10
13.393035
 20
8.141344
 42
0.165966
 10
13.41019
 20
8.10641
 42
0.249149
 10
13.447787
 20
8.094902
 42
0.0052
 10
13.645536
 20
8.13534
 42
0.010842
 10
13.880203
 20
8.191226
 42
0.006931
 10
14.15044
 20
8.265824
 42
-0.018817
 10
14.495246
 20
8.352243
 42
-0.011612
 10
14.906285
 20
8.429046
 42
-0.011262
 10
15.34077
 20
8.48982
 42
-0.012907
 10
15.758255
 20
8.527764
 42
0.006512
 10
16.107427
 20
8.555002
 42
0.010778
 10
16.401174
 20
8.588167
 42
0.004588
 10
16.64506
 20
8.623322
 42
0.377022
 10
16.667705
 20
8.65035
 42
-0.005272
 10
16.667102
 20
8.696104
 42
-0.000147
 10
16.666642
 20
8.893972
 42
-0.000301
 10
16.666309
 20
9.126673
 42
-0.000207
 10
16.6662
 20
9.3906
 10
16.6662
 20
10.0674
  0
LWPOLYLINE
  5
7FE
330
1D
100
AcDbEntity
  8
0
100
AcDbPolyline
 90
       46
 70
     1
 43
0.0
 10
19.52145
 20
9.956711
 10
18.8658
 20
10.007878
 10
18.8658
 20
9.328898
 42
0.010738
 10
18.872227
 20
9.029679
 42
0.023723
 10
18.892843
 20
8.802215
 42
0.027636
 10
18.924865
 20
8.638435
 42
0.165102
 10
18.97155
 20
8.566489
 42
0.094363
 10
19.039825
 20
8.530964
 42
0.01512
 10
19.185714
 20
8.49194
 42
0.016263
 10
19.362576
 20
8.456344
 42
0.013627
 10
19.552119
 20
8.429858
 42
-0.018705
 10
19.786152
 20
8.39473
 42
-0.007192
 10
20.108325
 20
8.329161
 42
-0.007109
 10
20.456159
 20
8.247945
 42
-0.008695
 10
20.778819
 20
8.16177
 42
-0.016499
 10
21.127313
 20
8.04961
 42
-0.008372
 10
21.558348
 20
7.886822
 42
-0.008307
 10
21.997992
 20
7.703805
 42
-0.012279
 10
22.3767
 20
7.527532
 42
-0.011666
 10
22.742397
 20
7.335506
 42
-0.008372
 10
23.142126
 20
7.104723
 42
-0.008461
 10
23.515464
 20
6.872081
 42
-0.017985
 10
23.794406
 20
6.677061
 10
24.366112
 20
6.245942
 10
24.730122
 20
6.422156
 42
0.02542
 10
24.887635
 20
6.508547
 42
0.016635
 10
25.060255
 20
6.62307
 42
0.016744
 10
25.221414
 20
6.746225
 42
0.030562
 10
25.342816
 20
6.858668
 10
25.5915
 20
7.118966
 10
25.2108
 20
7.45269
 42
0.014348
 10
25.016342
 20
7.613525
 42
0.005362
 10
24.734708
 20
7.828348
 42
0.005307
 10
24.422649
 20
8.056012
 42
0.006406
 10
24.12466
 20
8.262892
 42
0.014261
 10
23.800039
 20
8.468921
 42
0.008667
 10
23.405439
 20
8.694684
 42
0.008682
 10
23.005952
 20
8.905196
 42
0.015144
 10
22.666867
 20
9.063726
 42
0.010004
 10
22.31631
 20
9.206612
 42
0.005437
 10
21.880335
 20
9.368805
 42
0.005414
 10
21.433111
 20
9.524221
 42
0.008541
 10
21.045807
 20
9.646813
 42
0.012776
 10
20.665263
 20
9.749644
 42
0.009451
 10
20.239686
 20
9.844572
 42
0.009564
 10
19.834041
 20
9.918989
 42
0.021109
  0
LWPOLYLINE
  5
82E
330
1D
100
AcDbEntity
  8
0
100
AcDbPolyline
 90
       70
 70
     1
 43
0.0
 10
11.026627
 20
8.9676
 42
0.100843
 10
10.958682
 20
8.953756
 42
0.005801
 10
10.762777
 20
8.867766
 42
0.008648
 10
10.530983
 20
8.757929
 42
0.006235
 10
10.276126
 20
8.627739
 42
0.007699
 10
9.991843
 20
8.47238
 42
0.005112
 10
9.670374
 20
8.285849
 42
0.005146
 10
9.361896
 20
8.098294
 42
0.009995
 10
9.120176
 20
7.941111
 42
0.013632
 10
8.866011
 20
7.758193
 42
0.004673
 10
8.507702
 20
7.479865
 42
0.00464
 10
8.117893
 20
7.165256
 42
0.00535
 10
7.75222
 20
6.857861
 42
0.008228
 10
7.327269
 20
6.480477
 42
0.002952
 10
6.734056
 20
5.929455
 42
0.002928
 10
6.090739
 20
5.317643
 42
0.003465
 10
5.490025
 20
4.731539
 42
0.002039
 10
4.886225
 20
4.129309
 42
0.001579
 10
4.233318
 20
3.468607
 42
0.001596
 10
3.627848
 20
2.848077
 42
0.003843
 10
3.184675
 20
2.383885
 42
0.003825
 10
2.839526
 20
2.011085
 42
0.005974
 10
2.548715
 20
1.684359
 42
0.00206
 10
2.30347
 20
1.399749
 42
0.178645
 10
2.2842
 20
1.347535
 42
0.410091
 10
2.319075
 20
1.312165
 42
0.000242
 10
3.905743
 20
1.290564
 42
0.00226
 10
5.783933
 20
1.274393
 42
0.001043
 10
8.22735
 20
1.269499
 42
0.000791
 10
11.397913
 20
1.274782
 42
0.003899
 10
13.185567
 20
1.294531
 42
0.006355
 10
14.328936
 20
1.330623
 42
0.026324
 10
15.0165
 20
1.39746
 42
0.002646
 10
15.351401
 20
1.449731
 42
0.003431
 10
15.657838
 20
1.501383
 42
0.002588
 10
15.913961
 20
1.547731
 42
0.030718
 10
16.011778
 20
1.572252
 42
0.048343
 10
16.06587
 20
1.595354
 42
0.080716
 10
16.104842
 20
1.625684
 42
0.118009
 10
16.123073
 20
1.658015
 42
0.211075
 10
16.118967
 20
1.687686
 42
0.148856
 10
16.083059
 20
1.719286
 42
0.014543
 10
15.975285
 20
1.764478
 42
0.017404
 10
15.840594
 20
1.81109
 42
0.012922
 10
15.688944
 20
1.853472
 42
-0.023879
 10
15.484182
 20
1.915563
 42
-0.006237
 10
15.161944
 20
2.034889
 42
-0.006324
 10
14.797883
 20
2.180201
 42
-0.006431
 10
14.439656
 20
2.33389
 10
13.5783
 20
2.716626
 10
9.653985
 20
2.708226
 10
5.72967
 20
2.699825
 10
6.155344
 20
3.189963
 42
-0.010912
 10
6.382456
 20
3.440221
 42
-0.003294
 10
6.738165
 20
3.810479
 42
-0.003299
 10
7.142655
 20
4.22055
 42
-0.003581
 10
7.541659
 20
4.61408
 42
-0.004729
 10
7.953906
 20
5.007369
 42
-0.003966
 10
8.398277
 20
5.416783
 42
-0.004003
 10
8.810294
 20
5.784422
 42
-0.010981
 10
9.108819
 20
6.03514
 42
-0.011127
 10
9.391864
 20
6.252265
 42
-0.006275
 10
9.744203
 20
6.503567
 42
-0.00626
 10
10.106236
 20
6.748328
 42
-0.010201
 10
10.420119
 20
6.945801
 10
11.1249
 20
7.369382
 10
11.128358
 20
8.168491
 42
0.006744
 10
11.124862
 20
8.550131
 42
0.026
 10
11.107189
 20
8.78647
 42
0.040422
 10
11.076982
 20
8.930008
 42
0.332104
  0
LWPOLYLINE
  5
876
330
1D
100
AcDbEntity
  8
0
100
AcDbPolyline
 90
       74
 70
     1
 43
0.0
 10
16.01055
 20
8.198042
 42
0.022122
 10
15.890336
 20
8.188491
 42
0.006802
 10
15.710055
 20
8.163613
 42
0.006791
 10
15.508848
 20
8.130252
 42
0.007396
 10
15.314287
 20
8.092292
 10
14.850675
 20
7.9947
 10
14.702763
 20
7.427888
 42
-0.020451
 10
14.627054
 20
7.179767
 42
-0.013672
 10
14.521225
 20
6.902313
 42
-0.013779
 10
14.403674
 20
6.638585
 42
-0.026192
 10
14.292465
 20
6.434643
 42
-0.022455
 10
14.167045
 20
6.249935
 42
-0.014461
 10
14.006238
 20
6.047095
 42
-0.014538
 10
13.837069
 20
5.857419
 42
-0.026371
 10
13.686535
 20
5.71415
 42
-0.029503
 10
13.523704
 20
5.590633
 42
-0.017603
 10
13.316936
 20
5.462502
 42
-0.017591
 10
13.101217
 20
5.348992
 42
-0.028971
 10
12.910746
 20
5.270412
 42
-0.029745
 10
12.686425
 20
5.20739
 42
-0.020337
 10
12.425673
 20
5.161625
 42
-0.019006
 10
12.14094
 20
5.134474
 42
-0.016976
 10
11.844
 20
5.12761
 42
-0.017649
 10
11.515823
 20
5.14276
 42
-0.025651
 10
11.228583
 20
5.181106
 42
-0.026363
 10
10.952786
 20
5.247641
 42
-0.020251
 10
10.6596
 20
5.348042
 42
-0.000008
 10
10.419581
 20
5.44126
 42
-0.000006
 10
10.152749
 20
5.544899
 42
-0.000006
 10
9.899715
 20
5.643186
 42
-0.000013
 10
9.70635
 20
5.718304
 10
9.303
 20
5.875008
 10
8.785104
 20
5.357112
 10
8.267208
 20
4.839216
 10
8.596254
 20
4.632437
 42
0.023143
 10
8.768263
 20
4.53514
 42
0.007794
 10
9.027453
 20
4.409005
 42
0.007735
 10
9.318853
 20
4.278225
 42
0.008787
 10
9.6021
 20
4.162188
 42
0.005014
 10
9.889133
 20
4.053752
 42
0.004361
 10
10.191921
 20
3.945807
 42
0.00439
 10
10.46763
 20
3.85292
 42
0.012883
 10
10.6596
 20
3.795548
 42
0.034611
 10
10.859364
 20
3.755998
 42
0.010692
 10
11.164556
 20
3.723873
 42
0.010638
 10
11.508376
 20
3.702454
 42
0.011497
 10
11.844
 20
3.696429
 42
0.012667
 10
12.276923
 20
3.709583
 42
0.023904
 10
12.624394
 20
3.745678
 42
0.025033
 10
12.956073
 20
3.813384
 42
0.0155
 10
13.338106
 20
3.924238
 42
0.018992
 10
13.663916
 20
4.043683
 42
0.018551
 10
13.982337
 20
4.188358
 42
0.019064
 10
14.279709
 20
4.351465
 42
0.023698
 10
14.542247
 20
4.526186
 42
0.017609
 10
14.758416
 20
4.697375
 42
0.013401
 10
14.983181
 20
4.899257
 42
0.013599
 10
15.183894
 20
5.100135
 42
0.030666
 10
15.321883
 20
5.265138
 42
0.018123
 10
15.440866
 20
5.439457
 42
0.008923
 10
15.579992
 20
5.669034
 42
0.008842
 10
15.716128
 20
5.912812
 42
0.012741
 10
15.82716
 20
6.1335
 42
0.022004
 10
15.92525
 20
6.367683
 42
0.013177
 10
16.02198
 20
6.653526
 42
0.013182
 10
16.1034
 20
6.943662
 42
0.022276
 10
16.154229
 20
7.191
 42
0.005748
 10
16.187846
 20
7.418594
 42
0.005687
 10
16.21635
 20
7.647708
 42
0.005594
 10
16.236768
 20
7.848754
 42
0.021823
 10
16.242561
 20
7.97355
 42
0.035457
 10
16.233961
 20
8.099567
 42
0.167245
 10
16.201582
 20
8.16324
 42
0.167139
 10
16.136863
 20
8.193528
 42
0.035402
  0
LWPOLYLINE
  5
8C2
330
1D
100
AcDbEntity
  8
0
100
AcDbPolyline
 90
       60
 70
     1
 43
0.0
 10
20.802241
 20
7.775884
 42
0.016217
 10
20.641644
 20
7.806534
 42
0.053666
 10
20.534264
 20
7.811792
 42
0.09801
 10
20.466863
 20
7.794316
 42
0.211215
 10
20.432805
 20
7.75432
 42
0.010842
 10
20.416265
 20
7.693948
 42
0.001325
 10
20.383258
 20
7.560837
 42
0.001569
 10
20.344953
 20
7.402445
 42
0.001294
 10
20.305071
 20
7.2333
 42
-0.017478
 10
20.249913
 20
7.029177
 42
-0.007319
 10
20.16207
 20
6.758224
 42
-0.007231
 10
20.059558
 20
6.470811
 42
-0.009318
 10
19.956692
 20
6.21002
 42
-0.016516
 10
19.832376
 20
5.937063
 42
-0.009015
 10
19.662948
 20
5.610367
 42
-0.008975
 10
19.478629
 20
5.284228
 42
-0.014097
 10
19.307496
 20
5.011597
 42
-0.01129
 10
19.125294
 20
4.751636
 42
-0.007733
 10
18.907379
 20
4.464603
 42
-0.007798
 10
18.68874
 20
4.194467
 42
-0.015635
 10
18.50625
 20
3.989433
 42
0.009576
 10
18.352303
 20
3.820632
 42
0.013577
 10
18.222443
 20
3.664281
 42
0.009608
 10
18.121457
 20
3.530535
 42
0.158179
 10
18.1044
 20
3.477966
 42
0.237143
 10
18.123911
 20
3.439141
 42
0.038385
 10
18.197592
 20
3.39267
 42
0.035337
 10
18.300127
 20
3.347455
 42
0.024322
 10
18.42165
 20
3.31039
 42
0.010277
 10
18.571849
 20
3.27572
 42
0.005074
 10
18.763948
 20
3.237549
 42
0.005033
 10
18.964163
 20
3.201956
 42
0.007327
 10
19.141419
 20
3.174945
 42
0.021114
 10
19.361804
 20
3.154092
 42
0.06011
 10
19.515364
 20
3.164543
 42
0.070302
 10
19.648081
 20
3.209766
 42
0.037517
 10
19.796737
 20
3.29964
 42
0.04339
 10
19.919123
 20
3.403881
 42
0.013031
 10
20.086525
 20
3.582674
 42
0.012956
 10
20.26471
 20
3.793992
 42
0.013711
 10
20.428259
 20
4.010382
 42
0.014615
 10
20.594922
 20
4.258999
 42
0.008184
 10
20.783623
 20
4.570286
 42
0.00816
 10
20.96418
 20
4.89136
 42
0.013149
 10
21.106184
 20
5.171149
 42
0.011685
 10
21.233037
 20
5.45521
 42
0.00758
 10
21.366964
 20
5.789096
 42
0.007622
 10
21.487894
 20
6.119289
 42
0.014322
 10
21.573793
 20
6.390071
 42
0.008779
 10
21.638261
 20
6.63146
 42
0.00937
 10
21.69273
 20
6.869792
 42
0.009011
 10
21.731979
 20
7.076186
 42
0.0425
 10
21.7422
 20
7.196212
 42
0.072788
 10
21.725787
 20
7.308356
 42
0.101222
 10
21.67794
 20
7.397545
 42
0.078659
 10
21.588655
 20
7.475799
 42
0.02943
 10
21.442363
 20
7.556445
 42
0.018266
 10
21.302994
 20
7.616761
 42
0.010415
 10
21.130644
 20
7.679885
 42
0.010392
 10
20.954301
 20
7.73627
 42
0.01692
  0
LWPOLYLINE
  5
900
330
1D
100
AcDbEntity
  8
0
100
AcDbPolyline
 90
       58
 70
     1
 43
0.0
 10
26.22334
 20
7.265231
 42
0.123361
 10
26.196805
 20
7.250688
 42
0.001262
 10
26.039554
 20
7.104386
 42
0.003984
 10
25.85949
 20
6.9333
 42
0.002564
 10
25.653349
 20
6.732235
 42
-0.013895
 10
25.417001
 20
6.511933
 42
-0.010391
 10
25.145042
 20
6.282072
 42
-0.010523
 10
24.879645
 20
6.076148
 42
-0.023496
 10
24.667691
 20
5.933664
 42
-0.018034
 10
24.451785
 20
5.813235
 42
-0.009517
 10
24.175919
 20
5.678713
 42
-0.009457
 10
23.887968
 20
5.551585
 42
-0.014401
 10
23.632942
 20
5.453244
 42
-0.019734
 10
23.311986
 20
5.354039
 42
-0.026665
 10
23.014758
 20
5.29162
 42
-0.024355
 10
22.69251
 20
5.257666
 42
-0.013013
 10
22.2921
 20
5.245548
 10
21.5307
 20
5.242328
 10
21.1923
 20
4.630414
 42
0.003265
 10
21.060798
 20
4.388915
 42
0.004464
 10
20.945735
 20
4.169599
 42
0.00295
 10
20.851998
 20
3.984307
 42
0.051075
 10
20.828129
 20
3.920967
 42
0.294907
 10
20.842125
 20
3.878047
 42
0.060159
 10
20.913067
 20
3.833389
 42
0.044175
 10
21.024062
 20
3.792449
 42
0.023805
 10
21.166529
 20
3.760967
 42
0.022205
 10
21.355074
 20
3.737185
 42
0.007074
 10
21.637423
 20
3.71826
 42
0.007045
 10
21.952954
 20
3.706047
 42
0.007799
 10
22.258184
 20
3.7033
 42
0.015913
 10
22.579302
 20
3.715644
 42
0.010823
 10
22.943466
 20
3.749201
 42
0.010914
 10
23.293869
 20
3.796924
 42
0.021453
 10
23.569484
 20
3.85282
 42
0.013893
 10
23.831941
 20
3.925675
 42
0.008333
 10
24.139518
 20
4.025975
 42
0.008341
 10
24.442433
 20
4.136057
 42
0.014368
 10
24.6902
 20
4.23906
 42
0.016704
 10
24.933885
 20
4.35862
 42
0.009141
 10
25.224654
 20
4.520431
 42
0.009101
 10
25.514291
 20
4.695743
 42
0.014323
 10
25.755676
 20
4.857763
 42
0.016482
 10
25.989698
 20
5.036685
 42
0.009781
 10
26.257108
 20
5.26434
 42
0.009783
 10
26.51521
 20
5.502097
 42
0.016595
 10
26.720426
 20
5.712191
 42
0.009874
 10
26.887514
 20
5.902424
 42
0.013851
 10
27.028474
 20
6.079155
 42
0.010091
 10
27.137538
 20
6.230198
 42
0.152467
 10
27.1566
 20
6.291258
 42
0.162254
 10
27.136647
 20
6.351126
 42
0.011261
 10
27.025349
 20
6.49279
 42
0.015075
 10
26.880953
 20
6.657892
 42
0.010726
 10
26.70979
 20
6.83434
 42
0.005249
 10
26.535656
 20
7.002737
 42
0.008312
 10
26.382586
 20
7.142934
 42
0.003167
 10
26.249762
 20
7.259095
 42
0.246863
  0
LWPOLYLINE
  5
93C
330
1D
100
AcDbEntity
  8
0
100
AcDbPolyline
 90
       80
 70
     1
 43
0.0
 10
27.076422
 20
5.564075
 42
0.233376
 10
27.043691
 20
5.561609
 42
0.02537
 10
26.978739
 20
5.518637
 42
0.026886
 10
26.902674
 20
5.45599
 42
0.018472
 10
26.823189
 20
5.377411
 42
-0.021082
 10
26.724755
 20
5.281109
 42
-0.00951
 10
26.588138
 20
5.162903
 42
-0.009396
 10
26.438956
 20
5.043381
 42
-0.012665
 10
26.299315
 20
4.94128
 42
0.015841
 10
26.17402
 20
4.848441
 42
0.021945
 10
26.06829
 20
4.756963
 42
0.019338
 10
25.989192
 20
4.676201
 42
0.186188
 10
25.9722
 20
4.632152
 42
0.171798
 10
25.990943
 20
4.579212
 42
0.004208
 10
26.157663
 20
4.376782
 42
0.008651
 10
26.361609
 20
4.14174
 42
0.005721
 10
26.603564
 20
3.878571
 42
-0.004165
 10
26.858642
 20
3.602856
 42
-0.004475
 10
27.102992
 20
3.329405
 42
-0.004242
 10
27.308663
 20
3.091001
 42
-0.021143
 10
27.417146
 20
2.951526
 10
27.599363
 20
2.695625
 10
23.465232
 20
2.729579
 42
-0.000902
 10
20.936838
 20
2.754906
 42
-0.008045
 10
19.825269
 20
2.785938
 42
-0.018381
 10
19.126828
 20
2.842466
 42
-0.02583
 10
18.510565
 20
2.947723
 42
-0.008737
 10
18.142351
 20
3.037163
 42
-0.00539
 10
17.712346
 20
3.154572
 42
-0.005404
 10
17.28971
 20
3.279831
 42
-0.009653
 10
16.945465
 20
3.39324
 42
-0.010457
 10
16.612809
 20
3.517868
 42
-0.006475
 10
16.227173
 20
3.677434
 42
-0.006494
 10
15.850279
 20
3.844958
 42
-0.01162
 10
15.545773
 20
3.993738
 10
14.890647
 20
4.33291
 10
14.488273
 20
4.075944
 42
-0.014182
 10
14.317095
 20
3.97334
 42
-0.013028
 10
14.135521
 20
3.877524
 42
-0.013154
 10
13.969143
 20
3.800574
 42
-0.041209
 10
13.852451
 20
3.761317
 42
0.023555
 10
13.759667
 20
3.733705
 42
0.026788
 10
13.673895
 20
3.698457
 42
0.027424
 10
13.605251
 20
3.661106
 42
0.116542
 10
13.572425
 20
3.628295
 42
0.263143
 10
13.5707
 20
3.584037
 42
0.03438
 10
13.621399
 20
3.500296
 42
0.032725
 10
13.701151
 20
3.401383
 42
0.021669
 10
13.80455
 20
3.29838
 42
0.032403
 10
13.954388
 20
3.178356
 42
0.010805
 10
14.188155
 20
3.022185
 42
0.010704
 10
14.455207
 20
2.859937
 42
0.012002
 10
14.719075
 20
2.715599
 42
0.009552
 10
15.00591
 20
2.5744
 42
0.006149
 10
15.34343
 20
2.421222
 42
0.00618
 10
15.677446
 20
2.279459
 42
0.011554
 10
15.951677
 20
2.174382
 42
0.014816
 10
16.242477
 20
2.080212
 42
0.006498
 10
16.632744
 20
1.971971
 42
0.006424
 10
17.050166
 20
1.867737
 42
0.008552
 10
17.432177
 20
1.784414
 42
0.004966
 10
17.840599
 20
1.706831
 42
0.002726
 10
18.342096
 20
1.619538
 42
0.002717
 10
18.852112
 20
1.536472
 42
0.00434
 10
19.2888
 20
1.471661
 42
0.021287
 10
20.027824
 20
1.400429
 42
0.006599
 10
21.143852
 20
1.355402
 42
0.004102
 10
22.831713
 20
1.323463
 42
0.000947
 10
25.6761
 20
1.298365
 42
0.001061
 10
28.053413
 20
1.286932
 42
0.002825
 10
29.750139
 20
1.29196
 42
0.00078
 10
31.08705
 20
1.305562
 42
0.146495
 10
31.216842
 20
1.346089
 42
0.445177
 10
31.231002
 20
1.446905
 42
0.012026
 10
30.900447
 20
1.822142
 42
0.010931
 10
30.336568
 20
2.405887
 42
0.001876
 10
29.23804
 20
3.486319
 42
0.000737
 10
28.426899
 20
4.275802
 42
0.001194
 10
27.734693
 20
4.94434
 42
0.000151
 10
27.116628
 20
5.538067
 42
0.09571
  0
ENDSEC
  0
SECTION
  2
OBJECTS
  0
DICTIONARY
  5
C
330
0
100
AcDbDictionary
281
     1
  3
ACAD_DETAILVIEWSTYLE
350
A1A
  3
ACAD_GROUP
350
D
  3
ACAD_LAYOUT
350
1A
  3
ACAD_MATERIAL
350
9CD
  3
ACAD_MLEADERSTYLE
350
9D3
  3
ACAD_MLINESTYLE
350
17
  3
ACAD_PLOTSETTINGS
350
19
  3
ACAD_PLOTSTYLENAME
350
E
  3
ACAD_SCALELIST
350
98E
  3
ACAD_SECTIONVIEWSTYLE
350
A1B
  3
ACAD_TABLESTYLE
350
9D1
  3
ACAD_VISUALSTYLE
350
9B4
  3
ACDB_RECOMPOSE_DATA
350
A16
  3
AcDbVariableDictionary
350
9D7
  0
DICTIONARY
  5
9D5
330
8
100
AcDbDictionary
280
     1
281
     1
  3
ACAD_XREC_ROUNDTRIP
360
9D6
  0
DICTIONARY
  5
A1A
102
{ACAD_REACTORS
330
C
102
}
330
C
100
AcDbDictionary
281
     1
  0
DICTIONARY
  5
D
102
{ACAD_REACTORS
330
C
102
}
330
C
100
AcDbDictionary
281
     1
  0
DICTIONARY
  5
1A
102
{ACAD_REACTORS
330
C
102
}
330
C
100
AcDbDictionary
281
     1
  3
Layout1
350
1C
  3
Model
350
1E
  0
DICTIONARY
  5
9CD
102
{ACAD_REACTORS
330
C
102
}
330
C
100
AcDbDictionary
281
     1
  3
ByBlock
350
9CF
  3
ByLayer
350
9CE
  3
Global
350
9D0
  0
DICTIONARY
  5
9D3
102
{ACAD_REACTORS
330
C
102
}
330
C
100
AcDbDictionary
281
     1
  3
Standard
350
9D4
  0
DICTIONARY
  5
17
102
{ACAD_REACTORS
330
C
102
}
330
C
100
AcDbDictionary
281
     1
  3
Standard
350
18
  0
DICTIONARY
  5
19
102
{ACAD_REACTORS
330
C
102
}
330
C
100
AcDbDictionary
281
     1
  0
ACDBDICTIONARYWDFLT
  5
E
102
{ACAD_REACTORS
330
C
102
}
330
C
100
AcDbDictionary
281
     1
  3
Normal
350
F
100
AcDbDictionaryWithDefault
340
F
  0
DICTIONARY
  5
98E
102
{ACAD_REACTORS
330
C
102
}
330
C
100
AcDbDictionary
281
     1
  3
A0
350
98F
  3
A1
350
990
  3
A2
350
991
  3
A3
350
992
  3
A4
350
993
  3
A5
350
994
  3
A6
350
995
  3
A7
350
996
  3
A8
350
997
  3
A9
350
998
  3
B0
350
999
  3
B1
350
99A
  3
B2
350
99B
  3
B3
350
99C
  3
B4
350
99D
  3
B5
350
99E
  3
B6
350
99F
  3
B7
350
9A0
  3
B8
350
9A1
  3
B9
350
9A2
  3
C0
350
9A3
  3
C1
350
9A4
  3
C2
350
9A5
  3
C3
350
9A6
  3
C4
350
9A7
  3
C5
350
9A8
  3
C6
350
9A9
  3
C7
350
9AA
  3
C8
350
9AB
  3
C9
350
9AC
  3
D0
350
9AD
  3
D1
350
9AE
  3
D2
350
9AF
  0
DICTIONARY
  5
A1B
102
{ACAD_REACTORS
330
C
102
}
330
C
100
AcDbDictionary
281
     1
  0
DICTIONARY
  5
9D1
102
{ACAD_REACTORS
330
C
102
}
330
C
100
AcDbDictionary
281
     1
  3
Standard
350
9D2
  0
DICTIONARY
  5
9B4
102
{ACAD_REACTORS
330
C
102
}
330
C
100
AcDbDictionary
281
     1
  3
2dWireframe
350
9B9
  3
Basic
350
9BC
  3
Brighten
350
9C0
  3
ColorChange
350
9C4
  3
Conceptual
350
9BE
  3
Dim
350
9BF
  3
EdgeColorOff
350
9C7
  3
Facepattern
350
9C3
  3
Flat
350
9B5
  3
FlatWithEdges
350
9B6
  3
Gouraud
350
9B7
  3
GouraudWithEdges
350
9B8
  3
Hidden
350
9BB
  3
JitterOff
350
9C5
  3
Linepattern
350
9C2
  3
OverhangOff
350
9C6
  3
Realistic
350
9BD
  3
Shaded
350
9CC
  3
Shaded with edges
350
9CB
  3
Shades of Gray
350
9C8
  3
Sketchy
350
9C9
  3
Thicken
350
9C1
  3
Wireframe
350
9BA
  3
X-Ray
350
9CA
  0
XRECORD
  5
A16
102
{ACAD_REACTORS
330
C
102
}
330
C
100
AcDbXrecord
280
     1
 90
        1
330
9D2
  0
DICTIONARY
  5
9D7
102
{ACAD_REACTORS
330
C
102
}
330
C
100
AcDbDictionary
281
     1
  3
CANNOSCALE
350
9D8
  3
CMLEADERSTYLE
350
A18
  3
CTABLESTYLE
350
A17
  3
MSLTSCALE
350
A19
  3
XCLIPFRAME
350
9D9
  0
XRECORD
  5
9D6
102
{ACAD_REACTORS
330
9D5
102
}
330
9D5
100
AcDbXrecord
280
     1
102
VTR_0.000_0.000_1.000_1.000_VISUALSTYLE
340
9B9
102
VTR_0.000_0.000_1.000_1.000_GRIDDISPLAY
 70
     3
102
VTR_0.000_0.000_1.000_1.000_GRIDMAJOR
 70
     5
102
VTR_0.000_0.000_1.000_1.000_DEFAULTLIGHTING
280
     1
102
VTR_0.000_0.000_1.000_1.000_DEFAULTLIGHTINGTYPE
 70
     1
102
VTR_0.000_0.000_1.000_1.000_BRIGHTNESS
141
0.0
102
VTR_0.000_0.000_1.000_1.000_CONTRAST
142
0.0
  0
LAYOUT
  5
1C
102
{ACAD_REACTORS
330
1A
102
}
330
1A
100
AcDbPlotSettings
  1

  2
none_device
  4

  6

 40
0.0
 41
0.0
 42
0.0
 43
0.0
 44
0.0
 45
0.0
 46
0.0
 47
0.0
 48
0.0
 49
0.0
140
0.0
141
0.0
142
1.0
143
1.0
 70
   688
 72
     0
 73
     0
 74
     5
  7

 75
    16
 76
     0
 77
     2
 78
   300
147
1.0
148
0.0
149
0.0
100
AcDbLayout
  1
Layout1
 70
     1
 71
     1
 10
0.0
 20
0.0
 11
12.0
 21
9.0
 12
0.0
 22
0.0
 32
0.0
 14
1.000000000000000E+20
 24
1.000000000000000E+20
 34
1.000000000000000E+20
 15
-1.000000000000000E+20
 25
-1.000000000000000E+20
 35
-1.000000000000000E+20
146
0.0
 13
0.0
 23
0.0
 33
0.0
 16
1.0
 26
0.0
 36
0.0
 17
0.0
 27
1.0
 37
0.0
 76
     0
330
1B
  0
LAYOUT
  5
1E
102
{ACAD_REACTORS
330
1A
102
}
330
1A
100
AcDbPlotSettings
  1

  2
none_device
  4
Letter_(8.50_x_11.00_Inches)
  6

 40
6.35
 41
6.35
 42
6.35000508
 43
6.35000508
 44
215.9
 45
279.4
 46
0.0
 47
0.0
 48
0.0
 49
0.0
140
0.0
141
0.0
142
1.0
143
1.0
 70
  1712
 72
     0
 73
     0
 74
     0
  7

 75
     0
 76
     0
 77
     2
 78
   300
147
1.0
148
0.0
149
0.0
100
AcDbLayout
  1
Model
 70
     1
 71
     0
 10
0.0
 20
0.0
 11
12.0
 21
9.0
 12
0.0
 22
0.0
 32
0.0
 14
0.0
 24
0.0
 34
0.0
 15
33.5016
 25
33.84
 35
0.0
146
0.0
 13
0.0
 23
0.0
 33
0.0
 16
1.0
 26
0.0
 36
0.0
 17
0.0
 27
1.0
 37
0.0
 76
     0
330
1D
331
21
  0
MATERIAL
  5
9CF
102
{ACAD_REACTORS
330
9CD
102
}
102
{ACAD_XDICTIONARY
360
A0C
102
}
330
9CD
100
AcDbMaterial
  1
ByBlock
  0
MATERIAL
  5
9CE
102
{ACAD_REACTORS
330
9CD
102
}
102
{ACAD_XDICTIONARY
360
A0A
102
}
330
9CD
100
AcDbMaterial
  1
ByLayer
  0
MATERIAL
  5
9D0
102
{ACAD_REACTORS
330
9CD
102
}
102
{ACAD_XDICTIONARY
360
A0E
102
}
330
9CD
100
AcDbMaterial
  1
Global
  0
MLEADERSTYLE
  5
9D4
102
{ACAD_REACTORS
330
9D3
102
}
102
{ACAD_XDICTIONARY
360
A14
102
}
330
9D3
100
AcDbMLeaderStyle
170
     2
171
     1
172
     0
 90
        2
 40
0.0
 41
0.0
173
     1
 91
-1056964608
340
14
 92
       -2
290
     1
 42
0.09
291
     1
 43
0.36
  3
Standard
341
0
 44
0.18
300

342
11
174
     1
178
     6
175
     1
176
     0
 93
-1056964608
 45
0.18
292
     0
297
     0
 46
0.18
343
0
 94
-1056964608
 47
1.0
 49
1.0
140
1.0
293
     1
141
0.0
294
     1
177
     0
142
1.0
295
     0
296
     0
143
0.125
1001
ACAD_MLEADERVER
1070
     2
  0
MLINESTYLE
  5
18
102
{ACAD_REACTORS
330
17
102
}
330
17
100
AcDbMlineStyle
  2
Standard
 70
     0
  3

 62
   256
 51
90.0
 52
90.0
 71
     2
 49
0.5
 62
   256
  6
BYLAYER
 49
-0.5
 62
   256
  6
BYLAYER
  0
ACDBPLACEHOLDER
  5
F
102
{ACAD_REACTORS
330
E
102
}
330
E
  0
SCALE
  5
98F
102
{ACAD_REACTORS
330
98E
102
}
330
98E
100
AcDbScale
 70
     0
300
1:1
140
1.0
141
1.0
290
     1
  0
SCALE
  5
990
102
{ACAD_REACTORS
330
98E
102
}
330
98E
100
AcDbScale
 70
     0
300
1:2
140
1.0
141
2.0
290
     0
  0
SCALE
  5
991
102
{ACAD_REACTORS
330
98E
102
}
330
98E
100
AcDbScale
 70
     0
300
1:4
140
1.0
141
4.0
290
     0
  0
SCALE
  5
992
102
{ACAD_REACTORS
330
98E
102
}
330
98E
100
AcDbScale
 70
     0
300
1:5
140
1.0
141
5.0
290
     0
  0
SCALE
  5
993
102
{ACAD_REACTORS
330
98E
102
}
330
98E
100
AcDbScale
 70
     0
300
1:8
140
1.0
141
8.0
290
     0
  0
SCALE
  5
994
102
{ACAD_REACTORS
330
98E
102
}
330
98E
100
AcDbScale
 70
     0
300
1:10
140
1.0
141
10.0
290
     0
  0
SCALE
  5
995
102
{ACAD_REACTORS
330
98E
102
}
330
98E
100
AcDbScale
 70
     0
300
1:16
140
1.0
141
16.0
290
     0
  0
SCALE
  5
996
102
{ACAD_REACTORS
330
98E
102
}
330
98E
100
AcDbScale
 70
     0
300
1:20
140
1.0
141
20.0
290
     0
  0
SCALE
  5
997
102
{ACAD_REACTORS
330
98E
102
}
330
98E
100
AcDbScale
 70
     0
300
1:30
140
1.0
141
30.0
290
     0
  0
SCALE
  5
998
102
{ACAD_REACTORS
330
98E
102
}
330
98E
100
AcDbScale
 70
     0
300
1:40
140
1.0
141
40.0
290
     0
  0
SCALE
  5
999
102
{ACAD_REACTORS
330
98E
102
}
330
98E
100
AcDbScale
 70
     0
300
1:50
140
1.0
141
50.0
290
     0
  0
SCALE
  5
99A
102
{ACAD_REACTORS
330
98E
102
}
330
98E
100
AcDbScale
 70
     0
300
1:100
140
1.0
141
100.0
290
     0
  0
SCALE
  5
99B
102
{ACAD_REACTORS
330
98E
102
}
330
98E
100
AcDbScale
 70
     0
300
2:1
140
2.0
141
1.0
290
     0
  0
SCALE
  5
99C
102
{ACAD_REACTORS
330
98E
102
}
330
98E
100
AcDbScale
 70
     0
300
4:1
140
4.0
141
1.0
290
     0
  0
SCALE
  5
99D
102
{ACAD_REACTORS
330
98E
102
}
330
98E
100
AcDbScale
 70
     0
300
8:1
140
8.0
141
1.0
290
     0
  0
SCALE
  5
99E
102
{ACAD_REACTORS
330
98E
102
}
330
98E
100
AcDbScale
 70
     0
300
10:1
140
10.0
141
1.0
290
     0
  0
SCALE
  5
99F
102
{ACAD_REACTORS
330
98E
102
}
330
98E
100
AcDbScale
 70
     0
300
100:1
140
100.0
141
1.0
290
     0
  0
SCALE
  5
9A0
102
{ACAD_REACTORS
330
98E
102
}
330
98E
100
AcDbScale
 70
     0
300
1/128\\\" = 1\\\'-0\\\"
140
0.0078125
141
12.0
290
     0
  0
SCALE
  5
9A1
102
{ACAD_REACTORS
330
98E
102
}
330
98E
100
AcDbScale
 70
     0
300
1/64\\\" = 1\\\'-0\\\"
140
0.015625
141
12.0
290
     0
  0
SCALE
  5
9A2
102
{ACAD_REACTORS
330
98E
102
}
330
98E
100
AcDbScale
 70
     0
300
1/32\\\" = 1\\\'-0\\\"
140
0.03125
141
12.0
290
     0
  0
SCALE
  5
9A3
102
{ACAD_REACTORS
330
98E
102
}
330
98E
100
AcDbScale
 70
     0
300
1/16\\\" = 1\\\'-0\\\"
140
0.0625
141
12.0
290
     0
  0
SCALE
  5
9A4
102
{ACAD_REACTORS
330
98E
102
}
330
98E
100
AcDbScale
 70
     0
300
3/32\\\" = 1\\\'-0\\\"
140
0.09375
141
12.0
290
     0
  0
SCALE
  5
9A5
102
{ACAD_REACTORS
330
98E
102
}
330
98E
100
AcDbScale
 70
     0
300
1/8\\\" = 1\\\'-0\\\"
140
0.125
141
12.0
290
     0
  0
SCALE
  5
9A6
102
{ACAD_REACTORS
330
98E
102
}
330
98E
100
AcDbScale
 70
     0
300
3/16\\\" = 1\\\'-0\\\"
140
0.1875
141
12.0
290
     0
  0
SCALE
  5
9A7
102
{ACAD_REACTORS
330
98E
102
}
330
98E
100
AcDbScale
 70
     0
300
1/4\\\" = 1\\\'-0\\\"
140
0.25
141
12.0
290
     0
  0
SCALE
  5
9A8
102
{ACAD_REACTORS
330
98E
102
}
330
98E
100
AcDbScale
 70
     0
300
3/8\\\" = 1\\\'-0\\\"
140
0.375
141
12.0
290
     0
  0
SCALE
  5
9A9
102
{ACAD_REACTORS
330
98E
102
}
330
98E
100
AcDbScale
 70
     0
300
1/2\\\" = 1\\\'-0\\\"
140
0.5
141
12.0
290
     0
  0
SCALE
  5
9AA
102
{ACAD_REACTORS
330
98E
102
}
330
98E
100
AcDbScale
 70
     0
300
3/4\\\" = 1\\\'-0\\\"
140
0.75
141
12.0
290
     0
  0
SCALE
  5
9AB
102
{ACAD_REACTORS
330
98E
102
}
330
98E
100
AcDbScale
 70
     0
300
1\\\" = 1\\\'-0\\\"
140
1.0
141
12.0
290
     0
  0
SCALE
  5
9AC
102
{ACAD_REACTORS
330
98E
102
}
330
98E
100
AcDbScale
 70
     0
300
1-1/2\\\" = 1\\\'-0\\\"
140
1.5
141
12.0
290
     0
  0
SCALE
  5
9AD
102
{ACAD_REACTORS
330
98E
102
}
330
98E
100
AcDbScale
 70
     0
300
3\\\" = 1\\\'-0\\\"
140
3.0
141
12.0
290
     0
  0
SCALE
  5
9AE
102
{ACAD_REACTORS
330
98E
102
}
330
98E
100
AcDbScale
 70
     0
300
6\\\" = 1\\\'-0\\\"
140
6.0
141
12.0
290
     0
  0
SCALE
  5
9AF
102
{ACAD_REACTORS
330
98E
102
}
330
98E
100
AcDbScale
 70
     0
300
1\\\'-0\\\" = 1\\\'-0\\\"
140
12.0
141
12.0
290
     0
  0
TABLESTYLE
  5
9D2
102
{ACAD_REACTORS
330
9D1
102
}
102
{ACAD_XDICTIONARY
360
A10
102
}
330
9D1
100
AcDbTableStyle
  3
Standard
 70
     0
 71
     0
 40
0.06
 41
0.06
280
     0
281
     0
  7
Standard
140
0.18
170
     2
 62
     0
 63
   257
283
     0
274
    -2
284
     1
 64
     0
275
    -2
285
     1
 65
     0
276
    -2
286
     1
 66
     0
277
    -2
287
     1
 67
     0
278
    -2
288
     1
 68
     0
279
    -2
289
     1
 69
     0
  7
Standard
140
0.25
170
     5
 62
     0
 63
   257
283
     0
274
    -2
284
     1
 64
     0
275
    -2
285
     1
 65
     0
276
    -2
286
     1
 66
     0
277
    -2
287
     1
 67
     0
278
    -2
288
     1
 68
     0
279
    -2
289
     1
 69
     0
  7
Standard
140
0.18
170
     5
 62
     0
 63
   257
283
     0
274
    -2
284
     1
 64
     0
275
    -2
285
     1
 65
     0
276
    -2
286
     1
 66
     0
277
    -2
287
     1
 67
     0
278
    -2
288
     1
 68
     0
279
    -2
289
     1
 69
     0
  0
VISUALSTYLE
  5
9B9
102
{ACAD_REACTORS
330
9B4
102
}
102
{ACAD_XDICTIONARY
360
9E2
102
}
330
9B4
100
AcDbVisualStyle
  2
2dWireframe
 70
     4
 71
     0
 72
     2
 73
     0
 90
        0
 40
0.6
 41
30.0
 62
     5
 63
     7
421
 16777215
 74
     1
 91
        4
 64
     7
 65
   257
 75
     1
175
     1
 42
1.0
 92
        0
 66
   257
 43
1.0
 76
     1
 77
     6
 78
     2
 67
     7
 79
     5
170
     0
171
     0
290
     0
174
     0
 93
        1
 44
0.0
173
     0
291
     0
 45
0.0
1001
ACAD
1000
AcDbSavedByObjectVersion
1070
     0
  0
VISUALSTYLE
  5
9BC
102
{ACAD_REACTORS
330
9B4
102
}
102
{ACAD_XDICTIONARY
360
9E8
102
}
330
9B4
100
AcDbVisualStyle
  2
Basic
 70
     7
 71
     1
 72
     0
 73
     1
 90
        0
 40
0.6
 41
30.0
 62
     5
 63
     7
421
 16777215
 74
     0
 91
        4
 64
     7
 65
   257
 75
     1
175
     1
 42
1.0
 92
        8
 66
     7
 43
1.0
 76
     1
 77
     6
 78
     2
 67
     7
 79
     5
170
     0
171
     0
290
     0
174
     0
 93
        1
 44
0.0
173
     0
291
     1
 45
0.0
1001
ACAD
1000
AcDbSavedByObjectVersion
1070
     0
  0
VISUALSTYLE
  5
9C0
102
{ACAD_REACTORS
330
9B4
102
}
102
{ACAD_XDICTIONARY
360
9F0
102
}
330
9B4
100
AcDbVisualStyle
  2
Brighten
 70
    12
 71
     2
 72
     2
 73
     0
 90
        0
 40
0.6
 41
30.0
 62
     5
 63
     7
421
 16777215
 74
     1
 91
        4
 64
     7
 65
   257
 75
     1
175
     1
 42
1.0
 92
        8
 66
     7
 43
1.0
 76
     1
 77
     6
 78
     2
 67
     7
 79
     5
170
     0
171
     0
290
     0
174
     0
 93
        1
 44
50.0
173
     0
291
     1
 45
0.0
1001
ACAD
1000
AcDbSavedByObjectVersion
1070
     0
  0
VISUALSTYLE
  5
9C4
102
{ACAD_REACTORS
330
9B4
102
}
102
{ACAD_XDICTIONARY
360
9F8
102
}
330
9B4
100
AcDbVisualStyle
  2
ColorChange
 70
    16
 71
     2
 72
     2
 73
     3
 90
        0
 40
0.6
 41
30.0
 62
     5
 63
     8
421
  8421504
 74
     1
 91
        4
 64
     7
 65
   257
 75
     1
175
     1
 42
1.0
 92
        8
 66
     8
424
  8421504
 43
1.0
 76
     1
 77
     6
 78
     2
 67
     7
 79
     5
170
     0
171
     0
290
     0
174
     0
 93
        1
 44
0.0
173
     0
291
     1
 45
0.0
1001
ACAD
1000
AcDbSavedByObjectVersion
1070
     0
  0
VISUALSTYLE
  5
9BE
102
{ACAD_REACTORS
330
9B4
102
}
102
{ACAD_XDICTIONARY
360
9EC
102
}
330
9B4
100
AcDbVisualStyle
  2
Conceptual
 70
     9
 71
     3
 72
     2
 73
     0
 90
        0
 40
0.6
 41
30.0
 62
     5
 63
     7
421
 16777215
 74
     2
 91
        2
 64
     7
 65
   257
 75
     1
175
     1
 42
179.0
 92
        8
 66
     7
 43
1.0
 76
     1
 77
     6
 78
     2
 67
     7
 79
     3
170
     0
171
     0
290
     0
174
     0
 93
        1
 44
0.0
173
     0
291
     0
 45
0.0
1001
ACAD
1000
AcDbSavedByObjectVersion
1070
     0
  0
VISUALSTYLE
  5
9BF
102
{ACAD_REACTORS
330
9B4
102
}
102
{ACAD_XDICTIONARY
360
9EE
102
}
330
9B4
100
AcDbVisualStyle
  2
Dim
 70
    11
 71
     2
 72
     2
 73
     0
 90
        0
 40
0.6
 41
30.0
 62
     5
 63
     7
421
 16777215
 74
     1
 91
        4
 64
     7
 65
   257
 75
     1
175
     1
 42
1.0
 92
        8
 66
     7
 43
1.0
 76
     1
 77
     6
 78
     2
 67
     7
 79
     5
170
     0
171
     0
290
     0
174
     0
 93
        1
 44
-50.0
173
     0
291
     1
 45
0.0
1001
ACAD
1000
AcDbSavedByObjectVersion
1070
     0
  0
VISUALSTYLE
  5
9C7
102
{ACAD_REACTORS
330
9B4
102
}
102
{ACAD_XDICTIONARY
360
9FE
102
}
330
9B4
100
AcDbVisualStyle
  2
EdgeColorOff
 70
    22
 71
     2
 72
     2
 73
     0
 90
        0
 40
0.6
 41
30.0
 62
     5
 63
     7
421
 16777215
 74
     1
 91
        4
 64
     7
 65
   257
 75
     1
175
     1
 42
1.0
 92
        8
 66
     7
 43
1.0
 76
     1
 77
     6
 78
     2
 67
     7
 79
     5
170
     0
171
     0
290
     0
174
     0
 93
        1
 44
0.0
173
     0
291
     1
 45
0.0
1001
ACAD
1000
AcDbSavedByObjectVersion
1070
     0
  0
VISUALSTYLE
  5
9C3
102
{ACAD_REACTORS
330
9B4
102
}
102
{ACAD_XDICTIONARY
360
9F6
102
}
330
9B4
100
AcDbVisualStyle
  2
Facepattern
 70
    15
 71
     2
 72
     2
 73
     0
 90
        0
 40
0.6
 41
30.0
 62
     5
 63
     7
421
 16777215
 74
     1
 91
        4
 64
     7
 65
   257
 75
     1
175
     1
 42
1.0
 92
        8
 66
     7
 43
1.0
 76
     1
 77
     6
 78
     2
 67
     7
 79
     5
170
     0
171
     0
290
     0
174
     0
 93
        1
 44
0.0
173
     0
291
     1
 45
0.0
1001
ACAD
1000
AcDbSavedByObjectVersion
1070
     0
  0
VISUALSTYLE
  5
9B5
102
{ACAD_REACTORS
330
9B4
102
}
102
{ACAD_XDICTIONARY
360
9DA
102
}
330
9B4
100
AcDbVisualStyle
  2
Flat
 70
     0
 71
     2
 72
     1
 73
     1
 90
        2
 40
0.6
 41
30.0
 62
     5
 63
     7
421
 16777215
 74
     0
 91
        0
 64
     7
 65
   257
 75
     1
175
     1
 42
1.0
 92
        8
 66
     7
 43
1.0
 76
     1
 77
     6
 78
     2
 67
     7
 79
     5
170
     0
171
     0
290
     0
174
     0
 93
       13
 44
0.0
173
     0
291
     1
 45
0.0
1001
ACAD
1000
AcDbSavedByObjectVersion
1070
     0
  0
VISUALSTYLE
  5
9B6
102
{ACAD_REACTORS
330
9B4
102
}
102
{ACAD_XDICTIONARY
360
9DC
102
}
330
9B4
100
AcDbVisualStyle
  2
FlatWithEdges
 70
     1
 71
     2
 72
     1
 73
     1
 90
        2
 40
0.6
 41
30.0
 62
     5
 63
     7
421
 16777215
 74
     1
 91
        0
 64
     7
 65
   257
 75
     1
175
     1
 42
1.0
 92
        0
 66
   257
 43
1.0
 76
     1
 77
     6
 78
     2
 67
     7
 79
     5
170
     0
171
     0
290
     0
174
     0
 93
       13
 44
0.0
173
     0
291
     1
 45
0.0
1001
ACAD
1000
AcDbSavedByObjectVersion
1070
     0
  0
VISUALSTYLE
  5
9B7
102
{ACAD_REACTORS
330
9B4
102
}
102
{ACAD_XDICTIONARY
360
9DE
102
}
330
9B4
100
AcDbVisualStyle
  2
Gouraud
 70
     2
 71
     2
 72
     2
 73
     1
 90
        2
 40
0.6
 41
30.0
 62
     5
 63
     7
421
 16777215
 74
     0
 91
        0
 64
     7
 65
   257
 75
     1
175
     1
 42
1.0
 92
        0
 66
     7
 43
1.0
 76
     1
 77
     6
 78
     2
 67
     7
 79
     5
170
     0
171
     0
290
     0
174
     0
 93
       13
 44
0.0
173
     0
291
     1
 45
0.0
1001
ACAD
1000
AcDbSavedByObjectVersion
1070
     0
  0
VISUALSTYLE
  5
9B8
102
{ACAD_REACTORS
330
9B4
102
}
102
{ACAD_XDICTIONARY
360
9E0
102
}
330
9B4
100
AcDbVisualStyle
  2
GouraudWithEdges
 70
     3
 71
     2
 72
     2
 73
     1
 90
        2
 40
0.6
 41
30.0
 62
     5
 63
     7
421
 16777215
 74
     1
 91
        0
 64
     7
 65
   257
 75
     1
175
     1
 42
1.0
 92
        0
 66
   257
 43
1.0
 76
     1
 77
     6
 78
     2
 67
     7
 79
     5
170
     0
171
     0
290
     0
174
     0
 93
       13
 44
0.0
173
     0
291
     1
 45
0.0
1001
ACAD
1000
AcDbSavedByObjectVersion
1070
     0
  0
VISUALSTYLE
  5
9BB
102
{ACAD_REACTORS
330
9B4
102
}
102
{ACAD_XDICTIONARY
360
9E6
102
}
330
9B4
100
AcDbVisualStyle
  2
Hidden
 70
     6
 71
     1
 72
     2
 73
     2
 90
        0
 40
0.6
 41
30.0
 62
     5
 63
     7
421
 16777215
 74
     2
 91
        2
 64
     7
 65
   257
 75
     2
175
     1
 42
40.0
 92
        0
 66
   257
 43
1.0
 76
     1
 77
     6
 78
     2
 67
     7
 79
     3
170
     0
171
     0
290
     0
174
     0
 93
        1
 44
0.0
173
     0
291
     0
 45
0.0
1001
ACAD
1000
AcDbSavedByObjectVersion
1070
     0
  0
VISUALSTYLE
  5
9C5
102
{ACAD_REACTORS
330
9B4
102
}
102
{ACAD_XDICTIONARY
360
9FA
102
}
330
9B4
100
AcDbVisualStyle
  2
JitterOff
 70
    20
 71
     2
 72
     2
 73
     0
 90
        0
 40
0.6
 41
30.0
 62
     5
 63
     7
421
 16777215
 74
     1
 91
        4
 64
     7
 65
   257
 75
     1
175
     1
 42
1.0
 92
       10
 66
     7
 43
1.0
 76
     1
 77
     6
 78
     2
 67
     7
 79
     5
170
     0
171
     0
290
     0
174
     0
 93
        1
 44
0.0
173
     0
291
     1
 45
0.0
1001
ACAD
1000
AcDbSavedByObjectVersion
1070
     0
  0
VISUALSTYLE
  5
9C2
102
{ACAD_REACTORS
330
9B4
102
}
102
{ACAD_XDICTIONARY
360
9F4
102
}
330
9B4
100
AcDbVisualStyle
  2
Linepattern
 70
    14
 71
     2
 72
     2
 73
     0
 90
        0
 40
0.6
 41
30.0
 62
     5
 63
     7
421
 16777215
 74
     1
 91
        4
 64
     7
 65
   257
 75
     7
175
     7
 42
1.0
 92
        8
 66
     7
 43
1.0
 76
     1
 77
     6
 78
     2
 67
     7
 79
     5
170
     0
171
     0
290
     0
174
     0
 93
        1
 44
0.0
173
     0
291
     1
 45
0.0
1001
ACAD
1000
AcDbSavedByObjectVersion
1070
     0
  0
VISUALSTYLE
  5
9C6
102
{ACAD_REACTORS
330
9B4
102
}
102
{ACAD_XDICTIONARY
360
9FC
102
}
330
9B4
100
AcDbVisualStyle
  2
OverhangOff
 70
    21
 71
     2
 72
     2
 73
     0
 90
        0
 40
0.6
 41
30.0
 62
     5
 63
     7
421
 16777215
 74
     1
 91
        4
 64
     7
 65
   257
 75
     1
175
     1
 42
1.0
 92
        9
 66
     7
 43
1.0
 76
     1
 77
     6
 78
     2
 67
     7
 79
     5
170
     0
171
     0
290
     0
174
     0
 93
        1
 44
0.0
173
     0
291
     1
 45
0.0
1001
ACAD
1000
AcDbSavedByObjectVersion
1070
     0
  0
VISUALSTYLE
  5
9BD
102
{ACAD_REACTORS
330
9B4
102
}
102
{ACAD_XDICTIONARY
360
9EA
102
}
330
9B4
100
AcDbVisualStyle
  2
Realistic
 70
     8
 71
     2
 72
     3
 73
     0
 90
        2
 40
0.6
 41
30.0
 62
     5
 63
     7
421
 16777215
 74
     0
 91
        0
 64
     7
 65
   257
 75
     1
175
     1
 42
1.0
 92
        8
 66
   257
 43
1.0
 76
     1
 77
     6
 78
     2
 67
     7
 79
     3
170
     0
171
     0
290
     0
174
     0
 93
       13
 44
0.0
173
     0
291
     0
 45
0.0
1001
ACAD
1000
AcDbSavedByObjectVersion
1070
     0
  0
VISUALSTYLE
  5
9CC
102
{ACAD_REACTORS
330
9B4
102
}
102
{ACAD_XDICTIONARY
360
A08
102
}
330
9B4
100
AcDbVisualStyle
  2
Shaded
 70
    27
 71
     2
 72
     2
 73
     1
 90
        2
 40
0.6
 41
30.0
 62
     5
 63
     7
421
 16777215
 74
     0
 91
        4
 64
     7
 65
   257
 75
     1
175
     1
 42
1.0
 92
        8
 66
   257
 43
1.0
 76
     1
 77
     6
 78
     2
 67
     8
425
  7895160
 79
     3
170
     0
171
     0
290
     0
174
     0
 93
        5
 44
0.0
173
     0
291
     0
 45
0.0
1001
ACAD
1000
AcDbSavedByObjectVersion
1070
     0
  0
VISUALSTYLE
  5
9CB
102
{ACAD_REACTORS
330
9B4
102
}
102
{ACAD_XDICTIONARY
360
A06
102
}
330
9B4
100
AcDbVisualStyle
  2
Shaded with edges
 70
    26
 71
     2
 72
     2
 73
     1
 90
        2
 40
0.6
 41
30.0
 62
     5
 63
     7
421
 16777215
 74
     1
 91
       10
 64
     7
 65
   257
 75
     2
175
     1
 42
1.0
 92
        8
 66
   257
 43
1.0
 76
     1
 77
     6
 78
     2
 67
     7
 79
     3
170
     0
171
     0
290
     0
174
     0
 93
        5
 44
0.0
173
     0
291
     0
 45
0.0
1001
ACAD
1000
AcDbSavedByObjectVersion
1070
     0
  0
VISUALSTYLE
  5
9C8
102
{ACAD_REACTORS
330
9B4
102
}
102
{ACAD_XDICTIONARY
360
A00
102
}
330
9B4
100
AcDbVisualStyle
  2
Shades of Gray
 70
    23
 71
     2
 72
     2
 73
     3
 90
        0
 40
0.6
 41
30.0
 62
     5
 63
     7
421
 16777215
 74
     2
 91
        2
 64
     7
 65
     7
 75
     1
175
     1
 42
40.0
 92
        8
 66
     7
 43
1.0
 76
     1
 77
     6
 78
     2
 67
     7
 79
     3
170
     0
171
     0
290
     0
174
     0
 93
        1
 44
0.0
173
     0
291
     0
 45
0.0
1001
ACAD
1000
AcDbSavedByObjectVersion
1070
     0
  0
VISUALSTYLE
  5
9C9
102
{ACAD_REACTORS
330
9B4
102
}
102
{ACAD_XDICTIONARY
360
A02
102
}
330
9B4
100
AcDbVisualStyle
  2
Sketchy
 70
    24
 71
     1
 72
     2
 73
     2
 90
        0
 40
0.6
 41
30.0
 62
     5
 63
     7
421
 16777215
 74
     2
 91
        2
 64
     7
 65
     7
 75
     1
175
     1
 42
40.0
 92
       11
 66
     7
 43
1.0
 76
     1
 77
     6
 78
     2
 67
     7
 79
     6
170
     0
171
     0
290
     0
174
     0
 93
        1
 44
0.0
173
     0
291
     0
 45
0.0
1001
ACAD
1000
AcDbSavedByObjectVersion
1070
     0
  0
VISUALSTYLE
  5
9C1
102
{ACAD_REACTORS
330
9B4
102
}
102
{ACAD_XDICTIONARY
360
9F2
102
}
330
9B4
100
AcDbVisualStyle
  2
Thicken
 70
    13
 71
     2
 72
     2
 73
     0
 90
        0
 40
0.6
 41
30.0
 62
     5
 63
     7
421
 16777215
 74
     1
 91
        4
 64
     7
 65
   257
 75
     1
175
     1
 42
1.0
 92
       12
 66
     7
 43
1.0
 76
     1
 77
     6
 78
     2
 67
     7
 79
     5
170
     0
171
     0
290
     0
174
     0
 93
        1
 44
0.0
173
     0
291
     1
 45
0.0
1001
ACAD
1000
AcDbSavedByObjectVersion
1070
     0
  0
VISUALSTYLE
  5
9BA
102
{ACAD_REACTORS
330
9B4
102
}
102
{ACAD_XDICTIONARY
360
9E4
102
}
330
9B4
100
AcDbVisualStyle
  2
Wireframe
 70
     5
 71
     0
 72
     2
 73
     0
 90
        0
 40
0.6
 41
30.0
 62
     5
 63
     7
421
 16777215
 74
     1
 91
        4
 64
     7
 65
   257
 75
     1
175
     1
 42
1.0
 92
        0
 66
   257
 43
1.0
 76
     1
 77
     6
 78
     2
 67
     7
 79
     3
170
     0
171
     0
290
     0
174
     0
 93
        1
 44
0.0
173
     0
291
     0
 45
0.0
1001
ACAD
1000
AcDbSavedByObjectVersion
1070
     0
  0
VISUALSTYLE
  5
9CA
102
{ACAD_REACTORS
330
9B4
102
}
102
{ACAD_XDICTIONARY
360
A04
102
}
330
9B4
100
AcDbVisualStyle
  2
X-Ray
 70
    25
 71
     2
 72
     2
 73
     1
 90
        1
 40
0.5
 41
30.0
 62
     5
 63
     7
421
 16777215
 74
     1
 91
        0
 64
     7
 65
   257
 75
     1
175
     1
 42
1.0
 92
        8
 66
     7
 43
1.0
 76
     1
 77
     6
 78
     2
 67
     7
 79
     3
170
     0
171
     0
290
     0
174
     0
 93
       13
 44
0.0
173
     0
291
     0
 45
0.0
1001
ACAD
1000
AcDbSavedByObjectVersion
1070
     0
  0
DICTIONARYVAR
  5
9D8
102
{ACAD_REACTORS
330
9D7
102
}
330
9D7
100
DictionaryVariables
280
     0
  1
1:1
  0
DICTIONARYVAR
  5
A18
102
{ACAD_REACTORS
330
9D7
102
}
330
9D7
100
DictionaryVariables
280
     0
  1
Standard
  0
DICTIONARYVAR
  5
A17
102
{ACAD_REACTORS
330
9D7
102
}
330
9D7
100
DictionaryVariables
280
     0
  1
Standard
  0
DICTIONARYVAR
  5
A19
102
{ACAD_REACTORS
330
9D7
102
}
330
9D7
100
DictionaryVariables
280
     0
  1
0
  0
DICTIONARYVAR
  5
9D9
102
{ACAD_REACTORS
330
9D7
102
}
330
9D7
100
DictionaryVariables
280
     0
  1
2
  0
DICTIONARY
  5
A0C
330
9CF
100
AcDbDictionary
280
     1
281
     1
  3
ACAD_XREC_ROUNDTRIP
360
A0D
  0
DICTIONARY
  5
A0A
330
9CE
100
AcDbDictionary
280
     1
281
     1
  3
ACAD_XREC_ROUNDTRIP
360
A0B
  0
DICTIONARY
  5
A0E
330
9D0
100
AcDbDictionary
280
     1
281
     1
  3
ACAD_XREC_ROUNDTRIP
360
A0F
  0
DICTIONARY
  5
A14
330
9D4
100
AcDbDictionary
280
     1
281
     1
  3
ACAD_XREC_ROUNDTRIP
360
A15
  0
DICTIONARY
  5
A10
330
9D2
100
AcDbDictionary
280
     1
281
     1
  3
ACAD_ROUNDTRIP_2008_TABLESTYLE_CELLSTYLEMAP
360
A12
  3
ACAD_XREC_ROUNDTRIP
360
A11
  0
DICTIONARY
  5
9E2
330
9B9
100
AcDbDictionary
280
     1
281
     1
  3
ACAD_XREC_ROUNDTRIP
360
9E3
  0
DICTIONARY
  5
9E8
330
9BC
100
AcDbDictionary
280
     1
281
     1
  3
ACAD_XREC_ROUNDTRIP
360
9E9
  0
DICTIONARY
  5
9F0
330
9C0
100
AcDbDictionary
280
     1
281
     1
  3
ACAD_XREC_ROUNDTRIP
360
9F1
  0
DICTIONARY
  5
9F8
330
9C4
100
AcDbDictionary
280
     1
281
     1
  3
ACAD_XREC_ROUNDTRIP
360
9F9
  0
DICTIONARY
  5
9EC
330
9BE
100
AcDbDictionary
280
     1
281
     1
  3
ACAD_XREC_ROUNDTRIP
360
9ED
  0
DICTIONARY
  5
9EE
330
9BF
100
AcDbDictionary
280
     1
281
     1
  3
ACAD_XREC_ROUNDTRIP
360
9EF
  0
DICTIONARY
  5
9FE
330
9C7
100
AcDbDictionary
280
     1
281
     1
  3
ACAD_XREC_ROUNDTRIP
360
9FF
  0
DICTIONARY
  5
9F6
330
9C3
100
AcDbDictionary
280
     1
281
     1
  3
ACAD_XREC_ROUNDTRIP
360
9F7
  0
DICTIONARY
  5
9DA
330
9B5
100
AcDbDictionary
280
     1
281
     1
  3
ACAD_XREC_ROUNDTRIP
360
9DB
  0
DICTIONARY
  5
9DC
330
9B6
100
AcDbDictionary
280
     1
281
     1
  3
ACAD_XREC_ROUNDTRIP
360
9DD
  0
DICTIONARY
  5
9DE
330
9B7
100
AcDbDictionary
280
     1
281
     1
  3
ACAD_XREC_ROUNDTRIP
360
9DF
  0
DICTIONARY
  5
9E0
330
9B8
100
AcDbDictionary
280
     1
281
     1
  3
ACAD_XREC_ROUNDTRIP
360
9E1
  0
DICTIONARY
  5
9E6
330
9BB
100
AcDbDictionary
280
     1
281
     1
  3
ACAD_XREC_ROUNDTRIP
360
9E7
  0
DICTIONARY
  5
9FA
330
9C5
100
AcDbDictionary
280
     1
281
     1
  3
ACAD_XREC_ROUNDTRIP
360
9FB
  0
DICTIONARY
  5
9F4
330
9C2
100
AcDbDictionary
280
     1
281
     1
  3
ACAD_XREC_ROUNDTRIP
360
9F5
  0
DICTIONARY
  5
9FC
330
9C6
100
AcDbDictionary
280
     1
281
     1
  3
ACAD_XREC_ROUNDTRIP
360
9FD
  0
DICTIONARY
  5
9EA
330
9BD
100
AcDbDictionary
280
     1
281
     1
  3
ACAD_XREC_ROUNDTRIP
360
9EB
  0
DICTIONARY
  5
A08
330
9CC
100
AcDbDictionary
280
     1
281
     1
  3
ACAD_XREC_ROUNDTRIP
360
A09
  0
DICTIONARY
  5
A06
330
9CB
100
AcDbDictionary
280
     1
281
     1
  3
ACAD_XREC_ROUNDTRIP
360
A07
  0
DICTIONARY
  5
A00
330
9C8
100
AcDbDictionary
280
     1
281
     1
  3
ACAD_XREC_ROUNDTRIP
360
A01
  0
DICTIONARY
  5
A02
330
9C9
100
AcDbDictionary
280
     1
281
     1
  3
ACAD_XREC_ROUNDTRIP
360
A03
  0
DICTIONARY
  5
9F2
330
9C1
100
AcDbDictionary
280
     1
281
     1
  3
ACAD_XREC_ROUNDTRIP
360
9F3
  0
DICTIONARY
  5
9E4
330
9BA
100
AcDbDictionary
280
     1
281
     1
  3
ACAD_XREC_ROUNDTRIP
360
9E5
  0
DICTIONARY
  5
A04
330
9CA
100
AcDbDictionary
280
     1
281
     1
  3
ACAD_XREC_ROUNDTRIP
360
A05
  0
XRECORD
  5
A0D
102
{ACAD_REACTORS
330
A0C
102
}
330
A0C
100
AcDbXrecord
280
     1
102
MATERIAL
148
0.0
149
0.0
149
0.0
 93
        0
 94
      127
282
     0
 72
     1
 77
     1
171
     1
175
     1
179
     1
273
     0
  0
XRECORD
  5
A0B
102
{ACAD_REACTORS
330
A0A
102
}
330
A0A
100
AcDbXrecord
280
     1
102
MATERIAL
148
0.0
149
0.0
149
0.0
 93
        0
 94
      127
282
     0
 72
     1
 77
     1
171
     1
175
     1
179
     1
273
     0
  0
XRECORD
  5
A0F
102
{ACAD_REACTORS
330
A0E
102
}
330
A0E
100
AcDbXrecord
280
     1
102
MATERIAL
148
0.0
149
0.0
149
0.0
 93
        0
 94
      127
282
     0
 72
     1
 77
     1
171
     1
175
     1
179
     1
273
     0
  0
XRECORD
  5
A15
102
{ACAD_REACTORS
330
A14
102
}
330
A14
100
AcDbXrecord
280
     1
102
ACAD_ROUNDTRIP_2010_MLEADER_STYLE
  0
CELLSTYLEMAP
  5
A12
102
{ACAD_REACTORS
330
A10
102
}
330
A10
100
AcDbCellStyleMap
 90
        3
300
CELLSTYLE
  1
TABLEFORMAT_BEGIN
 90
        5
170
     1
 91
        0
 92
    32768
 62
   257
 93
        1
300
CONTENTFORMAT
  1
CONTENTFORMAT_BEGIN
 90
        0
 91
        0
 92
        4
 93
        0
300

 40
0.0
140
1.0
 94
        5
 62
     0
340
11
144
0.25
309
CONTENTFORMAT_END
171
     1
301
MARGIN
  1
CELLMARGIN_BEGIN
 40
0.06
 40
0.06
 40
0.06
 40
0.06
 40
0.06
 40
0.06
309
CELLMARGIN_END
 94
        6
 95
        1
302
GRIDFORMAT
  1
GRIDFORMAT_BEGIN
 90
        0
 91
        1
 62
     0
 92
       -2
340
14
 93
        0
 40
0.045
309
GRIDFORMAT_END
 95
        2
302
GRIDFORMAT
  1
GRIDFORMAT_BEGIN
 90
        0
 91
        1
 62
     0
 92
       -2
340
14
 93
        0
 40
0.045
309
GRIDFORMAT_END
 95
        4
302
GRIDFORMAT
  1
GRIDFORMAT_BEGIN
 90
        0
 91
        1
 62
     0
 92
       -2
340
14
 93
        0
 40
0.045
309
GRIDFORMAT_END
 95
        8
302
GRIDFORMAT
  1
GRIDFORMAT_BEGIN
 90
        0
 91
        1
 62
     0
 92
       -2
340
14
 93
        0
 40
0.045
309
GRIDFORMAT_END
 95
       16
302
GRIDFORMAT
  1
GRIDFORMAT_BEGIN
 90
        0
 91
        1
 62
     0
 92
       -2
340
14
 93
        0
 40
0.045
309
GRIDFORMAT_END
 95
       32
302
GRIDFORMAT
  1
GRIDFORMAT_BEGIN
 90
        0
 91
        1
 62
     0
 92
       -2
340
14
 93
        0
 40
0.045
309
GRIDFORMAT_END
309
TABLEFORMAT_END
  1
CELLSTYLE_BEGIN
 90
        1
 91
        1
300
_TITLE
309
CELLSTYLE_END
300
CELLSTYLE
  1
TABLEFORMAT_BEGIN
 90
        5
170
     1
 91
        0
 92
        0
 62
   257
 93
        1
300
CONTENTFORMAT
  1
CONTENTFORMAT_BEGIN
 90
        0
 91
        0
 92
        4
 93
        0
300

 40
0.0
140
1.0
 94
        5
 62
     0
340
11
144
0.18
309
CONTENTFORMAT_END
171
     1
301
MARGIN
  1
CELLMARGIN_BEGIN
 40
0.06
 40
0.06
 40
0.06
 40
0.06
 40
0.06
 40
0.06
309
CELLMARGIN_END
 94
        6
 95
        1
302
GRIDFORMAT
  1
GRIDFORMAT_BEGIN
 90
        0
 91
        1
 62
     0
 92
       -2
340
14
 93
        0
 40
0.045
309
GRIDFORMAT_END
 95
        2
302
GRIDFORMAT
  1
GRIDFORMAT_BEGIN
 90
        0
 91
        1
 62
     0
 92
       -2
340
14
 93
        0
 40
0.045
309
GRIDFORMAT_END
 95
        4
302
GRIDFORMAT
  1
GRIDFORMAT_BEGIN
 90
        0
 91
        1
 62
     0
 92
       -2
340
14
 93
        0
 40
0.045
309
GRIDFORMAT_END
 95
        8
302
GRIDFORMAT
  1
GRIDFORMAT_BEGIN
 90
        0
 91
        1
 62
     0
 92
       -2
340
14
 93
        0
 40
0.045
309
GRIDFORMAT_END
 95
       16
302
GRIDFORMAT
  1
GRIDFORMAT_BEGIN
 90
        0
 91
        1
 62
     0
 92
       -2
340
14
 93
        0
 40
0.045
309
GRIDFORMAT_END
 95
       32
302
GRIDFORMAT
  1
GRIDFORMAT_BEGIN
 90
        0
 91
        1
 62
     0
 92
       -2
340
14
 93
        0
 40
0.045
309
GRIDFORMAT_END
309
TABLEFORMAT_END
  1
CELLSTYLE_BEGIN
 90
        2
 91
        1
300
_HEADER
309
CELLSTYLE_END
300
CELLSTYLE
  1
TABLEFORMAT_BEGIN
 90
        5
170
     1
 91
        0
 92
        0
 62
   257
 93
        1
300
CONTENTFORMAT
  1
CONTENTFORMAT_BEGIN
 90
        0
 91
        0
 92
        4
 93
        0
300

 40
0.0
140
1.0
 94
        2
 62
     0
340
11
144
0.18
309
CONTENTFORMAT_END
171
     1
301
MARGIN
  1
CELLMARGIN_BEGIN
 40
0.06
 40
0.06
 40
0.06
 40
0.06
 40
0.06
 40
0.06
309
CELLMARGIN_END
 94
        6
 95
        1
302
GRIDFORMAT
  1
GRIDFORMAT_BEGIN
 90
        0
 91
        1
 62
     0
 92
       -2
340
14
 93
        0
 40
0.045
309
GRIDFORMAT_END
 95
        2
302
GRIDFORMAT
  1
GRIDFORMAT_BEGIN
 90
        0
 91
        1
 62
     0
 92
       -2
340
14
 93
        0
 40
0.045
309
GRIDFORMAT_END
 95
        4
302
GRIDFORMAT
  1
GRIDFORMAT_BEGIN
 90
        0
 91
        1
 62
     0
 92
       -2
340
14
 93
        0
 40
0.045
309
GRIDFORMAT_END
 95
        8
302
GRIDFORMAT
  1
GRIDFORMAT_BEGIN
 90
        0
 91
        1
 62
     0
 92
       -2
340
14
 93
        0
 40
0.045
309
GRIDFORMAT_END
 95
       16
302
GRIDFORMAT
  1
GRIDFORMAT_BEGIN
 90
        0
 91
        1
 62
     0
 92
       -2
340
14
 93
        0
 40
0.045
309
GRIDFORMAT_END
 95
       32
302
GRIDFORMAT
  1
GRIDFORMAT_BEGIN
 90
        0
 91
        1
 62
     0
 92
       -2
340
14
 93
        0
 40
0.045
309
GRIDFORMAT_END
309
TABLEFORMAT_END
  1
CELLSTYLE_BEGIN
 90
        3
 91
        2
300
_DATA
309
CELLSTYLE_END
  0
XRECORD
  5
A11
102
{ACAD_REACTORS
330
A10
102
}
330
A10
100
AcDbXrecord
280
     1
102
ACAD_ROUNDTRIP_PRE2007_TABLESTYLE
 90
        4
 91
        0
  1

 92
        4
 93
        0
  2

 94
        4
 95
        0
  3

  0
XRECORD
  5
9E3
102
{ACAD_REACTORS
330
9E2
102
}
330
9E2
100
AcDbXrecord
280
     1
102
RTVSPropertyOp0
 70
     1
102
RTVSPropertyOp1
 70
     1
102
RTVSPropertyOp2
 70
     1
102
RTVSPropertyOp3
 70
     1
102
RTVSPropertyOp4
 70
     1
102
RTVSPropertyOp5
 70
     1
102
RTVSPropertyOp6
 70
     1
102
RTVSPropertyOp7
 70
     1
102
RTVSPropertyOp8
 70
     1
102
RTVSPropertyOp9
 70
     1
102
RTVSPropertyOp10
 70
     1
102
RTVSPropertyOp11
 70
     1
102
RTVSPropertyOp12
 70
     1
102
RTVSPropertyOp13
 70
     1
102
RTVSPropertyOp14
 70
     1
102
RTVSPropertyOp15
 70
     1
102
RTVSPropertyOp16
 70
     1
102
RTVSPropertyOp17
 70
     1
102
RTVSPropertyOp18
 70
     1
102
RTVSPropertyOp19
 70
     1
102
RTVSPropertyOp20
 70
     1
102
RTVSPropertyOp21
 70
     1
102
RTVSPropertyOp22
 70
     1
102
RTVSPropertyOp23
 70
     1
102
RTVSPropertyOp24
 70
     1
102
RTVSPropertyOp25
 70
     1
102
RTVSPropertyOp26
 70
     1
102
RTVSPropertyOp27
 70
     1
102
RTVSPropertyOp28
 70
     1
102
RTVSPropertyOp29
 70
     1
102
RTVSPropertyOp30
 70
     1
102
RTVSPropertyOp31
 70
     1
102
RTVSPropertyOp32
 70
     1
102
RTVSPropertyOp33
 70
     1
102
RTVSPropertyOp34
 70
     1
102
RTVSPropertyOp35
 70
     1
102
RTVSPropertyOp36
 70
     1
102
RTVSPropertyOp37
 70
     1
102
RTVSPropertyOp38
 70
     1
102
RTVSPropertyOp39
 70
     1
102
RTVSPropertyOp40
 70
     1
102
RTVSPropertyOp41
 70
     1
102
RTVSPropertyOp42
 70
     1
102
RTVSPropertyOp43
 70
     1
102
RTVSPropertyOp44
 70
     1
102
RTVSPropertyOp45
 70
     1
102
RTVSPropertyOp46
 70
     1
102
RTVSPropertyOp47
 70
     1
102
RTVSPropertyOp48
 70
     1
102
RTVSPropertyOp49
 70
     1
102
RTVSPropertyOp50
 70
     1
102
RTVSPropertyOp51
 70
     0
102
RTVSPropertyOp52
 70
     0
102
RTVSPropertyOp53
 70
     1
102
RTVSPropertyOp54
 70
     1
102
RTVSPropertyOp55
 70
     1
102
RTVSPropertyOp56
 70
     1
102
RTVSPropertyOp57
 70
     1
102
RTVSPost2010Prop28
280
     1
102
RTVSPost2010PropOp28
 70
     1
102
RTVSPost2010Prop29
280
     1
102
RTVSPost2010PropOp29
 70
     1
102
RTVSPost2010Prop30
280
     0
102
RTVSPost2010PropOp30
 70
     1
102
RTVSPost2010Prop31
280
     0
102
RTVSPost2010PropOp31
 70
     1
102
RTVSPost2010Prop32
280
     0
102
RTVSPost2010PropOp32
 70
     1
102
RTVSPost2010Prop33
280
     0
102
RTVSPost2010PropOp33
 70
     1
102
RTVSPost2010Prop34
280
     0
102
RTVSPost2010PropOp34
 70
     1
102
RTVSPost2010Prop35
280
     0
102
RTVSPost2010PropOp35
 70
     1
102
RTVSPost2010Prop36
280
     0
102
RTVSPost2010PropOp36
 70
     1
102
RTVSPost2010Prop37
 90
       50
102
RTVSPost2010PropOp37
 70
     1
102
RTVSPost2010Prop38
140
0.0
102
RTVSPost2010PropOp38
 70
     1
102
RTVSPost2010Prop39
140
1.0
102
RTVSPost2010PropOp39
 70
     1
102
RTVSPost2010Prop40
 90
        0
102
RTVSPost2010PropOp40
 70
     1
102
RTVSPost2010Prop41ColorIndex
 90
       18
102
RTVSPost2010Prop41ColorRGB
 90
        0
102
RTVSPost2010PropOp41
 70
     1
102
RTVSPost2010Prop42
 90
       50
102
RTVSPost2010PropOp42
 70
     1
102
RTVSPost2010Prop43
 90
        3
102
RTVSPost2010PropOp43
 70
     1
102
RTVSPost2010Prop44ColorIndex
 90
        5
102
RTVSPost2010Prop44ColorRGB
 90
      255
102
RTVSPost2010PropOp44
 70
     1
102
RTVSPost2010Prop45
280
     0
102
RTVSPost2010PropOp45
 70
     1
102
RTVSPost2010Prop46
 90
       50
102
RTVSPost2010PropOp46
 70
     1
102
RTVSPost2010Prop47
 90
       50
102
RTVSPost2010PropOp47
 70
     1
102
RTVSPost2010Prop48
 90
       50
102
RTVSPost2010PropOp48
 70
     1
102
RTVSPost2010Prop49
280
     0
102
RTVSPost2010PropOp49
 70
     1
102
RTVSPost2010Prop50
 90
       50
102
RTVSPost2010PropOp50
 70
     1
102
RTVSPost2010Prop51ColorIndex
 90
      256
102
RTVSPost2010Prop51ColorRGB
 90
-16777216
102
RTVSPost2010PropOp51
 70
     0
102
RTVSPost2010Prop52
140
1.0
102
RTVSPost2010PropOp52
 70
     0
102
RTVSPost2010Prop53
 90
        2
102
RTVSPost2010PropOp53
 70
     1
102
RTVSPost2010Prop54
  1
strokes_ogs.tif
102
RTVSPost2010PropOp54
 70
     1
102
RTVSPost2010Prop55
280
     0
102
RTVSPost2010PropOp55
 70
     1
102
RTVSPost2010Prop56
140
1.0
102
RTVSPost2010PropOp56
 70
     1
102
RTVSPost2010Prop57
140
1.0
102
RTVSPost2010PropOp57
 70
     1
  0
XRECORD
  5
9E9
102
{ACAD_REACTORS
330
9E8
102
}
330
9E8
100
AcDbXrecord
280
     1
102
RTVSPropertyOp0
 70
     1
102
RTVSPropertyOp1
 70
     1
102
RTVSPropertyOp2
 70
     1
102
RTVSPropertyOp3
 70
     1
102
RTVSPropertyOp4
 70
     1
102
RTVSPropertyOp5
 70
     1
102
RTVSPropertyOp6
 70
     1
102
RTVSPropertyOp7
 70
     1
102
RTVSPropertyOp8
 70
     1
102
RTVSPropertyOp9
 70
     1
102
RTVSPropertyOp10
 70
     1
102
RTVSPropertyOp11
 70
     1
102
RTVSPropertyOp12
 70
     1
102
RTVSPropertyOp13
 70
     1
102
RTVSPropertyOp14
 70
     1
102
RTVSPropertyOp15
 70
     1
102
RTVSPropertyOp16
 70
     1
102
RTVSPropertyOp17
 70
     1
102
RTVSPropertyOp18
 70
     1
102
RTVSPropertyOp19
 70
     1
102
RTVSPropertyOp20
 70
     1
102
RTVSPropertyOp21
 70
     1
102
RTVSPropertyOp22
 70
     1
102
RTVSPropertyOp23
 70
     1
102
RTVSPropertyOp24
 70
     1
102
RTVSPropertyOp25
 70
     1
102
RTVSPropertyOp26
 70
     1
102
RTVSPropertyOp27
 70
     1
102
RTVSPropertyOp28
 70
     1
102
RTVSPropertyOp29
 70
     1
102
RTVSPropertyOp30
 70
     1
102
RTVSPropertyOp31
 70
     1
102
RTVSPropertyOp32
 70
     1
102
RTVSPropertyOp33
 70
     1
102
RTVSPropertyOp34
 70
     1
102
RTVSPropertyOp35
 70
     1
102
RTVSPropertyOp36
 70
     1
102
RTVSPropertyOp37
 70
     1
102
RTVSPropertyOp38
 70
     1
102
RTVSPropertyOp39
 70
     1
102
RTVSPropertyOp40
 70
     1
102
RTVSPropertyOp41
 70
     1
102
RTVSPropertyOp42
 70
     1
102
RTVSPropertyOp43
 70
     1
102
RTVSPropertyOp44
 70
     1
102
RTVSPropertyOp45
 70
     1
102
RTVSPropertyOp46
 70
     1
102
RTVSPropertyOp47
 70
     1
102
RTVSPropertyOp48
 70
     1
102
RTVSPropertyOp49
 70
     1
102
RTVSPropertyOp50
 70
     1
102
RTVSPropertyOp51
 70
     0
102
RTVSPropertyOp52
 70
     0
102
RTVSPropertyOp53
 70
     1
102
RTVSPropertyOp54
 70
     1
102
RTVSPropertyOp55
 70
     1
102
RTVSPropertyOp56
 70
     1
102
RTVSPropertyOp57
 70
     1
102
RTVSPost2010Prop28
280
     0
102
RTVSPost2010PropOp28
 70
     1
102
RTVSPost2010Prop29
280
     1
102
RTVSPost2010PropOp29
 70
     1
102
RTVSPost2010Prop30
280
     1
102
RTVSPost2010PropOp30
 70
     1
102
RTVSPost2010Prop31
280
     0
102
RTVSPost2010PropOp31
 70
     1
102
RTVSPost2010Prop32
280
     0
102
RTVSPost2010PropOp32
 70
     1
102
RTVSPost2010Prop33
280
     0
102
RTVSPost2010PropOp33
 70
     1
102
RTVSPost2010Prop34
280
     0
102
RTVSPost2010PropOp34
 70
     1
102
RTVSPost2010Prop35
280
     0
102
RTVSPost2010PropOp35
 70
     1
102
RTVSPost2010Prop36
280
     0
102
RTVSPost2010PropOp36
 70
     1
102
RTVSPost2010Prop37
 90
       50
102
RTVSPost2010PropOp37
 70
     1
102
RTVSPost2010Prop38
140
0.0
102
RTVSPost2010PropOp38
 70
     1
102
RTVSPost2010Prop39
140
1.0
102
RTVSPost2010PropOp39
 70
     1
102
RTVSPost2010Prop40
 90
        0
102
RTVSPost2010PropOp40
 70
     1
102
RTVSPost2010Prop41ColorIndex
 90
       18
102
RTVSPost2010Prop41ColorRGB
 90
        0
102
RTVSPost2010PropOp41
 70
     1
102
RTVSPost2010Prop42
 90
       50
102
RTVSPost2010PropOp42
 70
     1
102
RTVSPost2010Prop43
 90
        3
102
RTVSPost2010PropOp43
 70
     1
102
RTVSPost2010Prop44ColorIndex
 90
        5
102
RTVSPost2010Prop44ColorRGB
 90
      255
102
RTVSPost2010PropOp44
 70
     1
102
RTVSPost2010Prop45
280
     0
102
RTVSPost2010PropOp45
 70
     1
102
RTVSPost2010Prop46
 90
       50
102
RTVSPost2010PropOp46
 70
     1
102
RTVSPost2010Prop47
 90
       50
102
RTVSPost2010PropOp47
 70
     1
102
RTVSPost2010Prop48
 90
       50
102
RTVSPost2010PropOp48
 70
     1
102
RTVSPost2010Prop49
280
     0
102
RTVSPost2010PropOp49
 70
     1
102
RTVSPost2010Prop50
 90
       50
102
RTVSPost2010PropOp50
 70
     1
102
RTVSPost2010Prop51ColorIndex
 90
      256
102
RTVSPost2010Prop51ColorRGB
 90
-16777216
102
RTVSPost2010PropOp51
 70
     0
102
RTVSPost2010Prop52
140
1.0
102
RTVSPost2010PropOp52
 70
     0
102
RTVSPost2010Prop53
 90
        2
102
RTVSPost2010PropOp53
 70
     1
102
RTVSPost2010Prop54
  1
strokes_ogs.tif
102
RTVSPost2010PropOp54
 70
     1
102
RTVSPost2010Prop55
280
     0
102
RTVSPost2010PropOp55
 70
     1
102
RTVSPost2010Prop56
140
1.0
102
RTVSPost2010PropOp56
 70
     1
102
RTVSPost2010Prop57
140
1.0
102
RTVSPost2010PropOp57
 70
     1
  0
XRECORD
  5
9F1
102
{ACAD_REACTORS
330
9F0
102
}
330
9F0
100
AcDbXrecord
280
     1
102
RTVSPropertyOp0
 70
     1
102
RTVSPropertyOp1
 70
     1
102
RTVSPropertyOp2
 70
     1
102
RTVSPropertyOp3
 70
     1
102
RTVSPropertyOp4
 70
     1
102
RTVSPropertyOp5
 70
     1
102
RTVSPropertyOp6
 70
     1
102
RTVSPropertyOp7
 70
     1
102
RTVSPropertyOp8
 70
     1
102
RTVSPropertyOp9
 70
     1
102
RTVSPropertyOp10
 70
     1
102
RTVSPropertyOp11
 70
     1
102
RTVSPropertyOp12
 70
     1
102
RTVSPropertyOp13
 70
     1
102
RTVSPropertyOp14
 70
     1
102
RTVSPropertyOp15
 70
     1
102
RTVSPropertyOp16
 70
     1
102
RTVSPropertyOp17
 70
     1
102
RTVSPropertyOp18
 70
     1
102
RTVSPropertyOp19
 70
     1
102
RTVSPropertyOp20
 70
     1
102
RTVSPropertyOp21
 70
     1
102
RTVSPropertyOp22
 70
     1
102
RTVSPropertyOp23
 70
     1
102
RTVSPropertyOp24
 70
     1
102
RTVSPropertyOp25
 70
     1
102
RTVSPropertyOp26
 70
     1
102
RTVSPropertyOp27
 70
     1
102
RTVSPropertyOp28
 70
     1
102
RTVSPropertyOp29
 70
     1
102
RTVSPropertyOp30
 70
     1
102
RTVSPropertyOp31
 70
     1
102
RTVSPropertyOp32
 70
     1
102
RTVSPropertyOp33
 70
     1
102
RTVSPropertyOp34
 70
     1
102
RTVSPropertyOp35
 70
     1
102
RTVSPropertyOp36
 70
     1
102
RTVSPropertyOp37
 70
     1
102
RTVSPropertyOp38
 70
     1
102
RTVSPropertyOp39
 70
     1
102
RTVSPropertyOp40
 70
     1
102
RTVSPropertyOp41
 70
     1
102
RTVSPropertyOp42
 70
     1
102
RTVSPropertyOp43
 70
     1
102
RTVSPropertyOp44
 70
     1
102
RTVSPropertyOp45
 70
     1
102
RTVSPropertyOp46
 70
     1
102
RTVSPropertyOp47
 70
     1
102
RTVSPropertyOp48
 70
     1
102
RTVSPropertyOp49
 70
     1
102
RTVSPropertyOp50
 70
     1
102
RTVSPropertyOp51
 70
     0
102
RTVSPropertyOp52
 70
     0
102
RTVSPropertyOp53
 70
     1
102
RTVSPropertyOp54
 70
     1
102
RTVSPropertyOp55
 70
     1
102
RTVSPropertyOp56
 70
     1
102
RTVSPropertyOp57
 70
     1
102
RTVSPost2010Prop28
280
     0
102
RTVSPost2010PropOp28
 70
     1
102
RTVSPost2010Prop29
280
     1
102
RTVSPost2010PropOp29
 70
     1
102
RTVSPost2010Prop30
280
     1
102
RTVSPost2010PropOp30
 70
     1
102
RTVSPost2010Prop31
280
     0
102
RTVSPost2010PropOp31
 70
     1
102
RTVSPost2010Prop32
280
     0
102
RTVSPost2010PropOp32
 70
     1
102
RTVSPost2010Prop33
280
     0
102
RTVSPost2010PropOp33
 70
     1
102
RTVSPost2010Prop34
280
     0
102
RTVSPost2010PropOp34
 70
     1
102
RTVSPost2010Prop35
280
     0
102
RTVSPost2010PropOp35
 70
     1
102
RTVSPost2010Prop36
280
     0
102
RTVSPost2010PropOp36
 70
     1
102
RTVSPost2010Prop37
 90
       50
102
RTVSPost2010PropOp37
 70
     1
102
RTVSPost2010Prop38
140
0.0
102
RTVSPost2010PropOp38
 70
     1
102
RTVSPost2010Prop39
140
1.0
102
RTVSPost2010PropOp39
 70
     1
102
RTVSPost2010Prop40
 90
        0
102
RTVSPost2010PropOp40
 70
     1
102
RTVSPost2010Prop41ColorIndex
 90
       18
102
RTVSPost2010Prop41ColorRGB
 90
        0
102
RTVSPost2010PropOp41
 70
     1
102
RTVSPost2010Prop42
 90
       50
102
RTVSPost2010PropOp42
 70
     1
102
RTVSPost2010Prop43
 90
        3
102
RTVSPost2010PropOp43
 70
     1
102
RTVSPost2010Prop44ColorIndex
 90
        5
102
RTVSPost2010Prop44ColorRGB
 90
      255
102
RTVSPost2010PropOp44
 70
     1
102
RTVSPost2010Prop45
280
     0
102
RTVSPost2010PropOp45
 70
     1
102
RTVSPost2010Prop46
 90
       50
102
RTVSPost2010PropOp46
 70
     1
102
RTVSPost2010Prop47
 90
       50
102
RTVSPost2010PropOp47
 70
     1
102
RTVSPost2010Prop48
 90
       50
102
RTVSPost2010PropOp48
 70
     1
102
RTVSPost2010Prop49
280
     0
102
RTVSPost2010PropOp49
 70
     1
102
RTVSPost2010Prop50
 90
       50
102
RTVSPost2010PropOp50
 70
     1
102
RTVSPost2010Prop51ColorIndex
 90
      256
102
RTVSPost2010Prop51ColorRGB
 90
-16777216
102
RTVSPost2010PropOp51
 70
     0
102
RTVSPost2010Prop52
140
1.0
102
RTVSPost2010PropOp52
 70
     0
102
RTVSPost2010Prop53
 90
        2
102
RTVSPost2010PropOp53
 70
     1
102
RTVSPost2010Prop54
  1
strokes_ogs.tif
102
RTVSPost2010PropOp54
 70
     1
102
RTVSPost2010Prop55
280
     0
102
RTVSPost2010PropOp55
 70
     1
102
RTVSPost2010Prop56
140
1.0
102
RTVSPost2010PropOp56
 70
     1
102
RTVSPost2010Prop57
140
1.0
102
RTVSPost2010PropOp57
 70
     1
  0
XRECORD
  5
9F9
102
{ACAD_REACTORS
330
9F8
102
}
330
9F8
100
AcDbXrecord
280
     1
102
RTVSPropertyOp0
 70
     1
102
RTVSPropertyOp1
 70
     1
102
RTVSPropertyOp2
 70
     1
102
RTVSPropertyOp3
 70
     1
102
RTVSPropertyOp4
 70
     1
102
RTVSPropertyOp5
 70
     1
102
RTVSPropertyOp6
 70
     1
102
RTVSPropertyOp7
 70
     1
102
RTVSPropertyOp8
 70
     1
102
RTVSPropertyOp9
 70
     1
102
RTVSPropertyOp10
 70
     1
102
RTVSPropertyOp11
 70
     1
102
RTVSPropertyOp12
 70
     1
102
RTVSPropertyOp13
 70
     1
102
RTVSPropertyOp14
 70
     1
102
RTVSPropertyOp15
 70
     1
102
RTVSPropertyOp16
 70
     1
102
RTVSPropertyOp17
 70
     1
102
RTVSPropertyOp18
 70
     1
102
RTVSPropertyOp19
 70
     1
102
RTVSPropertyOp20
 70
     1
102
RTVSPropertyOp21
 70
     1
102
RTVSPropertyOp22
 70
     1
102
RTVSPropertyOp23
 70
     1
102
RTVSPropertyOp24
 70
     1
102
RTVSPropertyOp25
 70
     1
102
RTVSPropertyOp26
 70
     1
102
RTVSPropertyOp27
 70
     1
102
RTVSPropertyOp28
 70
     1
102
RTVSPropertyOp29
 70
     1
102
RTVSPropertyOp30
 70
     1
102
RTVSPropertyOp31
 70
     1
102
RTVSPropertyOp32
 70
     1
102
RTVSPropertyOp33
 70
     1
102
RTVSPropertyOp34
 70
     1
102
RTVSPropertyOp35
 70
     1
102
RTVSPropertyOp36
 70
     1
102
RTVSPropertyOp37
 70
     1
102
RTVSPropertyOp38
 70
     1
102
RTVSPropertyOp39
 70
     1
102
RTVSPropertyOp40
 70
     1
102
RTVSPropertyOp41
 70
     1
102
RTVSPropertyOp42
 70
     1
102
RTVSPropertyOp43
 70
     1
102
RTVSPropertyOp44
 70
     1
102
RTVSPropertyOp45
 70
     1
102
RTVSPropertyOp46
 70
     1
102
RTVSPropertyOp47
 70
     1
102
RTVSPropertyOp48
 70
     1
102
RTVSPropertyOp49
 70
     1
102
RTVSPropertyOp50
 70
     1
102
RTVSPropertyOp51
 70
     0
102
RTVSPropertyOp52
 70
     0
102
RTVSPropertyOp53
 70
     1
102
RTVSPropertyOp54
 70
     1
102
RTVSPropertyOp55
 70
     1
102
RTVSPropertyOp56
 70
     1
102
RTVSPropertyOp57
 70
     1
102
RTVSPost2010Prop28
280
     0
102
RTVSPost2010PropOp28
 70
     1
102
RTVSPost2010Prop29
280
     1
102
RTVSPost2010PropOp29
 70
     1
102
RTVSPost2010Prop30
280
     1
102
RTVSPost2010PropOp30
 70
     1
102
RTVSPost2010Prop31
280
     0
102
RTVSPost2010PropOp31
 70
     1
102
RTVSPost2010Prop32
280
     0
102
RTVSPost2010PropOp32
 70
     1
102
RTVSPost2010Prop33
280
     0
102
RTVSPost2010PropOp33
 70
     1
102
RTVSPost2010Prop34
280
     0
102
RTVSPost2010PropOp34
 70
     1
102
RTVSPost2010Prop35
280
     0
102
RTVSPost2010PropOp35
 70
     1
102
RTVSPost2010Prop36
280
     0
102
RTVSPost2010PropOp36
 70
     1
102
RTVSPost2010Prop37
 90
       50
102
RTVSPost2010PropOp37
 70
     1
102
RTVSPost2010Prop38
140
0.0
102
RTVSPost2010PropOp38
 70
     1
102
RTVSPost2010Prop39
140
1.0
102
RTVSPost2010PropOp39
 70
     1
102
RTVSPost2010Prop40
 90
        0
102
RTVSPost2010PropOp40
 70
     1
102
RTVSPost2010Prop41ColorIndex
 90
       18
102
RTVSPost2010Prop41ColorRGB
 90
        0
102
RTVSPost2010PropOp41
 70
     1
102
RTVSPost2010Prop42
 90
       50
102
RTVSPost2010PropOp42
 70
     1
102
RTVSPost2010Prop43
 90
        3
102
RTVSPost2010PropOp43
 70
     1
102
RTVSPost2010Prop44ColorIndex
 90
        5
102
RTVSPost2010Prop44ColorRGB
 90
      255
102
RTVSPost2010PropOp44
 70
     1
102
RTVSPost2010Prop45
280
     0
102
RTVSPost2010PropOp45
 70
     1
102
RTVSPost2010Prop46
 90
       50
102
RTVSPost2010PropOp46
 70
     1
102
RTVSPost2010Prop47
 90
       50
102
RTVSPost2010PropOp47
 70
     1
102
RTVSPost2010Prop48
 90
       50
102
RTVSPost2010PropOp48
 70
     1
102
RTVSPost2010Prop49
280
     0
102
RTVSPost2010PropOp49
 70
     1
102
RTVSPost2010Prop50
 90
       50
102
RTVSPost2010PropOp50
 70
     1
102
RTVSPost2010Prop51ColorIndex
 90
      256
102
RTVSPost2010Prop51ColorRGB
 90
-16777216
102
RTVSPost2010PropOp51
 70
     0
102
RTVSPost2010Prop52
140
1.0
102
RTVSPost2010PropOp52
 70
     0
102
RTVSPost2010Prop53
 90
        2
102
RTVSPost2010PropOp53
 70
     1
102
RTVSPost2010Prop54
  1
strokes_ogs.tif
102
RTVSPost2010PropOp54
 70
     1
102
RTVSPost2010Prop55
280
     0
102
RTVSPost2010PropOp55
 70
     1
102
RTVSPost2010Prop56
140
1.0
102
RTVSPost2010PropOp56
 70
     1
102
RTVSPost2010Prop57
140
1.0
102
RTVSPost2010PropOp57
 70
     1
  0
XRECORD
  5
9ED
102
{ACAD_REACTORS
330
9EC
102
}
330
9EC
100
AcDbXrecord
280
     1
102
RTVSPropertyOp0
 70
     1
102
RTVSPropertyOp1
 70
     1
102
RTVSPropertyOp2
 70
     1
102
RTVSPropertyOp3
 70
     1
102
RTVSPropertyOp4
 70
     1
102
RTVSPropertyOp5
 70
     1
102
RTVSPropertyOp6
 70
     1
102
RTVSPropertyOp7
 70
     1
102
RTVSPropertyOp8
 70
     1
102
RTVSPropertyOp9
 70
     1
102
RTVSPropertyOp10
 70
     1
102
RTVSPropertyOp11
 70
     1
102
RTVSPropertyOp12
 70
     1
102
RTVSPropertyOp13
 70
     1
102
RTVSPropertyOp14
 70
     1
102
RTVSPropertyOp15
 70
     1
102
RTVSPropertyOp16
 70
     1
102
RTVSPropertyOp17
 70
     1
102
RTVSPropertyOp18
 70
     1
102
RTVSPropertyOp19
 70
     1
102
RTVSPropertyOp20
 70
     1
102
RTVSPropertyOp21
 70
     1
102
RTVSPropertyOp22
 70
     1
102
RTVSPropertyOp23
 70
     1
102
RTVSPropertyOp24
 70
     1
102
RTVSPropertyOp25
 70
     1
102
RTVSPropertyOp26
 70
     1
102
RTVSPropertyOp27
 70
     1
102
RTVSPropertyOp28
 70
     1
102
RTVSPropertyOp29
 70
     1
102
RTVSPropertyOp30
 70
     1
102
RTVSPropertyOp31
 70
     1
102
RTVSPropertyOp32
 70
     1
102
RTVSPropertyOp33
 70
     1
102
RTVSPropertyOp34
 70
     1
102
RTVSPropertyOp35
 70
     1
102
RTVSPropertyOp36
 70
     1
102
RTVSPropertyOp37
 70
     1
102
RTVSPropertyOp38
 70
     1
102
RTVSPropertyOp39
 70
     1
102
RTVSPropertyOp40
 70
     1
102
RTVSPropertyOp41
 70
     1
102
RTVSPropertyOp42
 70
     1
102
RTVSPropertyOp43
 70
     1
102
RTVSPropertyOp44
 70
     1
102
RTVSPropertyOp45
 70
     1
102
RTVSPropertyOp46
 70
     1
102
RTVSPropertyOp47
 70
     1
102
RTVSPropertyOp48
 70
     1
102
RTVSPropertyOp49
 70
     1
102
RTVSPropertyOp50
 70
     1
102
RTVSPropertyOp51
 70
     0
102
RTVSPropertyOp52
 70
     0
102
RTVSPropertyOp53
 70
     1
102
RTVSPropertyOp54
 70
     1
102
RTVSPropertyOp55
 70
     1
102
RTVSPropertyOp56
 70
     1
102
RTVSPropertyOp57
 70
     1
102
RTVSPost2010Prop28
280
     0
102
RTVSPost2010PropOp28
 70
     1
102
RTVSPost2010Prop29
280
     1
102
RTVSPost2010PropOp29
 70
     1
102
RTVSPost2010Prop30
280
     1
102
RTVSPost2010PropOp30
 70
     1
102
RTVSPost2010Prop31
280
     0
102
RTVSPost2010PropOp31
 70
     1
102
RTVSPost2010Prop32
280
     0
102
RTVSPost2010PropOp32
 70
     1
102
RTVSPost2010Prop33
280
     0
102
RTVSPost2010PropOp33
 70
     1
102
RTVSPost2010Prop34
280
     0
102
RTVSPost2010PropOp34
 70
     1
102
RTVSPost2010Prop35
280
     0
102
RTVSPost2010PropOp35
 70
     1
102
RTVSPost2010Prop36
280
     0
102
RTVSPost2010PropOp36
 70
     1
102
RTVSPost2010Prop37
 90
       50
102
RTVSPost2010PropOp37
 70
     1
102
RTVSPost2010Prop38
140
0.0
102
RTVSPost2010PropOp38
 70
     1
102
RTVSPost2010Prop39
140
1.0
102
RTVSPost2010PropOp39
 70
     1
102
RTVSPost2010Prop40
 90
        0
102
RTVSPost2010PropOp40
 70
     1
102
RTVSPost2010Prop41ColorIndex
 90
       18
102
RTVSPost2010Prop41ColorRGB
 90
        0
102
RTVSPost2010PropOp41
 70
     1
102
RTVSPost2010Prop42
 90
       50
102
RTVSPost2010PropOp42
 70
     1
102
RTVSPost2010Prop43
 90
        3
102
RTVSPost2010PropOp43
 70
     1
102
RTVSPost2010Prop44ColorIndex
 90
        5
102
RTVSPost2010Prop44ColorRGB
 90
      255
102
RTVSPost2010PropOp44
 70
     1
102
RTVSPost2010Prop45
280
     0
102
RTVSPost2010PropOp45
 70
     1
102
RTVSPost2010Prop46
 90
       50
102
RTVSPost2010PropOp46
 70
     1
102
RTVSPost2010Prop47
 90
       50
102
RTVSPost2010PropOp47
 70
     1
102
RTVSPost2010Prop48
 90
       50
102
RTVSPost2010PropOp48
 70
     1
102
RTVSPost2010Prop49
280
     0
102
RTVSPost2010PropOp49
 70
     1
102
RTVSPost2010Prop50
 90
       50
102
RTVSPost2010PropOp50
 70
     1
102
RTVSPost2010Prop51ColorIndex
 90
      256
102
RTVSPost2010Prop51ColorRGB
 90
-16777216
102
RTVSPost2010PropOp51
 70
     0
102
RTVSPost2010Prop52
140
1.0
102
RTVSPost2010PropOp52
 70
     0
102
RTVSPost2010Prop53
 90
        2
102
RTVSPost2010PropOp53
 70
     1
102
RTVSPost2010Prop54
  1
strokes_ogs.tif
102
RTVSPost2010PropOp54
 70
     1
102
RTVSPost2010Prop55
280
     0
102
RTVSPost2010PropOp55
 70
     1
102
RTVSPost2010Prop56
140
1.0
102
RTVSPost2010PropOp56
 70
     1
102
RTVSPost2010Prop57
140
1.0
102
RTVSPost2010PropOp57
 70
     1
  0
XRECORD
  5
9EF
102
{ACAD_REACTORS
330
9EE
102
}
330
9EE
100
AcDbXrecord
280
     1
102
RTVSPropertyOp0
 70
     1
102
RTVSPropertyOp1
 70
     1
102
RTVSPropertyOp2
 70
     1
102
RTVSPropertyOp3
 70
     1
102
RTVSPropertyOp4
 70
     1
102
RTVSPropertyOp5
 70
     1
102
RTVSPropertyOp6
 70
     1
102
RTVSPropertyOp7
 70
     1
102
RTVSPropertyOp8
 70
     1
102
RTVSPropertyOp9
 70
     1
102
RTVSPropertyOp10
 70
     1
102
RTVSPropertyOp11
 70
     1
102
RTVSPropertyOp12
 70
     1
102
RTVSPropertyOp13
 70
     1
102
RTVSPropertyOp14
 70
     1
102
RTVSPropertyOp15
 70
     1
102
RTVSPropertyOp16
 70
     1
102
RTVSPropertyOp17
 70
     1
102
RTVSPropertyOp18
 70
     1
102
RTVSPropertyOp19
 70
     1
102
RTVSPropertyOp20
 70
     1
102
RTVSPropertyOp21
 70
     1
102
RTVSPropertyOp22
 70
     1
102
RTVSPropertyOp23
 70
     1
102
RTVSPropertyOp24
 70
     1
102
RTVSPropertyOp25
 70
     1
102
RTVSPropertyOp26
 70
     1
102
RTVSPropertyOp27
 70
     1
102
RTVSPropertyOp28
 70
     1
102
RTVSPropertyOp29
 70
     1
102
RTVSPropertyOp30
 70
     1
102
RTVSPropertyOp31
 70
     1
102
RTVSPropertyOp32
 70
     1
102
RTVSPropertyOp33
 70
     1
102
RTVSPropertyOp34
 70
     1
102
RTVSPropertyOp35
 70
     1
102
RTVSPropertyOp36
 70
     1
102
RTVSPropertyOp37
 70
     1
102
RTVSPropertyOp38
 70
     1
102
RTVSPropertyOp39
 70
     1
102
RTVSPropertyOp40
 70
     1
102
RTVSPropertyOp41
 70
     1
102
RTVSPropertyOp42
 70
     1
102
RTVSPropertyOp43
 70
     1
102
RTVSPropertyOp44
 70
     1
102
RTVSPropertyOp45
 70
     1
102
RTVSPropertyOp46
 70
     1
102
RTVSPropertyOp47
 70
     1
102
RTVSPropertyOp48
 70
     1
102
RTVSPropertyOp49
 70
     1
102
RTVSPropertyOp50
 70
     1
102
RTVSPropertyOp51
 70
     0
102
RTVSPropertyOp52
 70
     0
102
RTVSPropertyOp53
 70
     1
102
RTVSPropertyOp54
 70
     1
102
RTVSPropertyOp55
 70
     1
102
RTVSPropertyOp56
 70
     1
102
RTVSPropertyOp57
 70
     1
102
RTVSPost2010Prop28
280
     0
102
RTVSPost2010PropOp28
 70
     1
102
RTVSPost2010Prop29
280
     1
102
RTVSPost2010PropOp29
 70
     1
102
RTVSPost2010Prop30
280
     1
102
RTVSPost2010PropOp30
 70
     1
102
RTVSPost2010Prop31
280
     0
102
RTVSPost2010PropOp31
 70
     1
102
RTVSPost2010Prop32
280
     0
102
RTVSPost2010PropOp32
 70
     1
102
RTVSPost2010Prop33
280
     0
102
RTVSPost2010PropOp33
 70
     1
102
RTVSPost2010Prop34
280
     0
102
RTVSPost2010PropOp34
 70
     1
102
RTVSPost2010Prop35
280
     0
102
RTVSPost2010PropOp35
 70
     1
102
RTVSPost2010Prop36
280
     0
102
RTVSPost2010PropOp36
 70
     1
102
RTVSPost2010Prop37
 90
       50
102
RTVSPost2010PropOp37
 70
     1
102
RTVSPost2010Prop38
140
0.0
102
RTVSPost2010PropOp38
 70
     1
102
RTVSPost2010Prop39
140
1.0
102
RTVSPost2010PropOp39
 70
     1
102
RTVSPost2010Prop40
 90
        0
102
RTVSPost2010PropOp40
 70
     1
102
RTVSPost2010Prop41ColorIndex
 90
       18
102
RTVSPost2010Prop41ColorRGB
 90
        0
102
RTVSPost2010PropOp41
 70
     1
102
RTVSPost2010Prop42
 90
       50
102
RTVSPost2010PropOp42
 70
     1
102
RTVSPost2010Prop43
 90
        3
102
RTVSPost2010PropOp43
 70
     1
102
RTVSPost2010Prop44ColorIndex
 90
        5
102
RTVSPost2010Prop44ColorRGB
 90
      255
102
RTVSPost2010PropOp44
 70
     1
102
RTVSPost2010Prop45
280
     0
102
RTVSPost2010PropOp45
 70
     1
102
RTVSPost2010Prop46
 90
       50
102
RTVSPost2010PropOp46
 70
     1
102
RTVSPost2010Prop47
 90
       50
102
RTVSPost2010PropOp47
 70
     1
102
RTVSPost2010Prop48
 90
       50
102
RTVSPost2010PropOp48
 70
     1
102
RTVSPost2010Prop49
280
     0
102
RTVSPost2010PropOp49
 70
     1
102
RTVSPost2010Prop50
 90
       50
102
RTVSPost2010PropOp50
 70
     1
102
RTVSPost2010Prop51ColorIndex
 90
      256
102
RTVSPost2010Prop51ColorRGB
 90
-16777216
102
RTVSPost2010PropOp51
 70
     0
102
RTVSPost2010Prop52
140
1.0
102
RTVSPost2010PropOp52
 70
     0
102
RTVSPost2010Prop53
 90
        2
102
RTVSPost2010PropOp53
 70
     1
102
RTVSPost2010Prop54
  1
strokes_ogs.tif
102
RTVSPost2010PropOp54
 70
     1
102
RTVSPost2010Prop55
280
     0
102
RTVSPost2010PropOp55
 70
     1
102
RTVSPost2010Prop56
140
1.0
102
RTVSPost2010PropOp56
 70
     1
102
RTVSPost2010Prop57
140
1.0
102
RTVSPost2010PropOp57
 70
     1
  0
XRECORD
  5
9FF
102
{ACAD_REACTORS
330
9FE
102
}
330
9FE
100
AcDbXrecord
280
     1
102
RTVSPropertyOp0
 70
     0
102
RTVSPropertyOp1
 70
     0
102
RTVSPropertyOp2
 70
     0
102
RTVSPropertyOp3
 70
     0
102
RTVSPropertyOp4
 70
     0
102
RTVSPropertyOp5
 70
     0
102
RTVSPropertyOp6
 70
     0
102
RTVSPropertyOp7
 70
     0
102
RTVSPropertyOp8
 70
     0
102
RTVSPropertyOp9
 70
     0
102
RTVSPropertyOp10
 70
     0
102
RTVSPropertyOp11
 70
     0
102
RTVSPropertyOp12
 70
     0
102
RTVSPropertyOp13
 70
     0
102
RTVSPropertyOp14
 70
     2
102
RTVSPropertyOp15
 70
     0
102
RTVSPropertyOp16
 70
     0
102
RTVSPropertyOp17
 70
     0
102
RTVSPropertyOp18
 70
     0
102
RTVSPropertyOp19
 70
     0
102
RTVSPropertyOp20
 70
     0
102
RTVSPropertyOp21
 70
     0
102
RTVSPropertyOp22
 70
     0
102
RTVSPropertyOp23
 70
     0
102
RTVSPropertyOp24
 70
     0
102
RTVSPropertyOp25
 70
     0
102
RTVSPropertyOp26
 70
     0
102
RTVSPropertyOp27
 70
     0
102
RTVSPropertyOp28
 70
     0
102
RTVSPropertyOp29
 70
     0
102
RTVSPropertyOp30
 70
     0
102
RTVSPropertyOp31
 70
     0
102
RTVSPropertyOp32
 70
     0
102
RTVSPropertyOp33
 70
     0
102
RTVSPropertyOp34
 70
     0
102
RTVSPropertyOp35
 70
     0
102
RTVSPropertyOp36
 70
     0
102
RTVSPropertyOp37
 70
     0
102
RTVSPropertyOp38
 70
     0
102
RTVSPropertyOp39
 70
     0
102
RTVSPropertyOp40
 70
     0
102
RTVSPropertyOp41
 70
     0
102
RTVSPropertyOp42
 70
     0
102
RTVSPropertyOp43
 70
     0
102
RTVSPropertyOp44
 70
     0
102
RTVSPropertyOp45
 70
     0
102
RTVSPropertyOp46
 70
     0
102
RTVSPropertyOp47
 70
     0
102
RTVSPropertyOp48
 70
     0
102
RTVSPropertyOp49
 70
     0
102
RTVSPropertyOp50
 70
     0
102
RTVSPropertyOp51
 70
     0
102
RTVSPropertyOp52
 70
     0
102
RTVSPropertyOp53
 70
     0
102
RTVSPropertyOp54
 70
     0
102
RTVSPropertyOp55
 70
     0
102
RTVSPropertyOp56
 70
     0
102
RTVSPropertyOp57
 70
     0
102
RTVSPost2010Prop28
280
     0
102
RTVSPost2010PropOp28
 70
     0
102
RTVSPost2010Prop29
280
     1
102
RTVSPost2010PropOp29
 70
     0
102
RTVSPost2010Prop30
280
     1
102
RTVSPost2010PropOp30
 70
     0
102
RTVSPost2010Prop31
280
     0
102
RTVSPost2010PropOp31
 70
     0
102
RTVSPost2010Prop32
280
     0
102
RTVSPost2010PropOp32
 70
     0
102
RTVSPost2010Prop33
280
     0
102
RTVSPost2010PropOp33
 70
     0
102
RTVSPost2010Prop34
280
     0
102
RTVSPost2010PropOp34
 70
     0
102
RTVSPost2010Prop35
280
     0
102
RTVSPost2010PropOp35
 70
     0
102
RTVSPost2010Prop36
280
     0
102
RTVSPost2010PropOp36
 70
     0
102
RTVSPost2010Prop37
 90
       50
102
RTVSPost2010PropOp37
 70
     0
102
RTVSPost2010Prop38
140
0.0
102
RTVSPost2010PropOp38
 70
     0
102
RTVSPost2010Prop39
140
1.0
102
RTVSPost2010PropOp39
 70
     0
102
RTVSPost2010Prop40
 90
        0
102
RTVSPost2010PropOp40
 70
     0
102
RTVSPost2010Prop41ColorIndex
 90
       18
102
RTVSPost2010Prop41ColorRGB
 90
        0
102
RTVSPost2010PropOp41
 70
     0
102
RTVSPost2010Prop42
 90
       50
102
RTVSPost2010PropOp42
 70
     0
102
RTVSPost2010Prop43
 90
        3
102
RTVSPost2010PropOp43
 70
     0
102
RTVSPost2010Prop44ColorIndex
 90
        5
102
RTVSPost2010Prop44ColorRGB
 90
      255
102
RTVSPost2010PropOp44
 70
     0
102
RTVSPost2010Prop45
280
     0
102
RTVSPost2010PropOp45
 70
     0
102
RTVSPost2010Prop46
 90
       50
102
RTVSPost2010PropOp46
 70
     0
102
RTVSPost2010Prop47
 90
       50
102
RTVSPost2010PropOp47
 70
     0
102
RTVSPost2010Prop48
 90
       50
102
RTVSPost2010PropOp48
 70
     0
102
RTVSPost2010Prop49
280
     0
102
RTVSPost2010PropOp49
 70
     0
102
RTVSPost2010Prop50
 90
       50
102
RTVSPost2010PropOp50
 70
     0
102
RTVSPost2010Prop51ColorIndex
 90
      256
102
RTVSPost2010Prop51ColorRGB
 90
-16777216
102
RTVSPost2010PropOp51
 70
     0
102
RTVSPost2010Prop52
140
1.0
102
RTVSPost2010PropOp52
 70
     0
102
RTVSPost2010Prop53
 90
        2
102
RTVSPost2010PropOp53
 70
     0
102
RTVSPost2010Prop54
  1
strokes_ogs.tif
102
RTVSPost2010PropOp54
 70
     0
102
RTVSPost2010Prop55
280
     0
102
RTVSPost2010PropOp55
 70
     0
102
RTVSPost2010Prop56
140
1.0
102
RTVSPost2010PropOp56
 70
     0
102
RTVSPost2010Prop57
140
1.0
102
RTVSPost2010PropOp57
 70
     0
  0
XRECORD
  5
9F7
102
{ACAD_REACTORS
330
9F6
102
}
330
9F6
100
AcDbXrecord
280
     1
102
RTVSPropertyOp0
 70
     1
102
RTVSPropertyOp1
 70
     1
102
RTVSPropertyOp2
 70
     1
102
RTVSPropertyOp3
 70
     1
102
RTVSPropertyOp4
 70
     1
102
RTVSPropertyOp5
 70
     1
102
RTVSPropertyOp6
 70
     1
102
RTVSPropertyOp7
 70
     1
102
RTVSPropertyOp8
 70
     1
102
RTVSPropertyOp9
 70
     1
102
RTVSPropertyOp10
 70
     1
102
RTVSPropertyOp11
 70
     1
102
RTVSPropertyOp12
 70
     1
102
RTVSPropertyOp13
 70
     1
102
RTVSPropertyOp14
 70
     1
102
RTVSPropertyOp15
 70
     1
102
RTVSPropertyOp16
 70
     1
102
RTVSPropertyOp17
 70
     1
102
RTVSPropertyOp18
 70
     1
102
RTVSPropertyOp19
 70
     1
102
RTVSPropertyOp20
 70
     1
102
RTVSPropertyOp21
 70
     1
102
RTVSPropertyOp22
 70
     1
102
RTVSPropertyOp23
 70
     1
102
RTVSPropertyOp24
 70
     1
102
RTVSPropertyOp25
 70
     1
102
RTVSPropertyOp26
 70
     1
102
RTVSPropertyOp27
 70
     1
102
RTVSPropertyOp28
 70
     1
102
RTVSPropertyOp29
 70
     1
102
RTVSPropertyOp30
 70
     1
102
RTVSPropertyOp31
 70
     1
102
RTVSPropertyOp32
 70
     1
102
RTVSPropertyOp33
 70
     1
102
RTVSPropertyOp34
 70
     1
102
RTVSPropertyOp35
 70
     1
102
RTVSPropertyOp36
 70
     1
102
RTVSPropertyOp37
 70
     1
102
RTVSPropertyOp38
 70
     1
102
RTVSPropertyOp39
 70
     1
102
RTVSPropertyOp40
 70
     1
102
RTVSPropertyOp41
 70
     1
102
RTVSPropertyOp42
 70
     1
102
RTVSPropertyOp43
 70
     1
102
RTVSPropertyOp44
 70
     1
102
RTVSPropertyOp45
 70
     1
102
RTVSPropertyOp46
 70
     1
102
RTVSPropertyOp47
 70
     1
102
RTVSPropertyOp48
 70
     1
102
RTVSPropertyOp49
 70
     1
102
RTVSPropertyOp50
 70
     1
102
RTVSPropertyOp51
 70
     0
102
RTVSPropertyOp52
 70
     0
102
RTVSPropertyOp53
 70
     1
102
RTVSPropertyOp54
 70
     1
102
RTVSPropertyOp55
 70
     1
102
RTVSPropertyOp56
 70
     1
102
RTVSPropertyOp57
 70
     1
102
RTVSPost2010Prop28
280
     0
102
RTVSPost2010PropOp28
 70
     1
102
RTVSPost2010Prop29
280
     1
102
RTVSPost2010PropOp29
 70
     1
102
RTVSPost2010Prop30
280
     1
102
RTVSPost2010PropOp30
 70
     1
102
RTVSPost2010Prop31
280
     0
102
RTVSPost2010PropOp31
 70
     1
102
RTVSPost2010Prop32
280
     0
102
RTVSPost2010PropOp32
 70
     1
102
RTVSPost2010Prop33
280
     0
102
RTVSPost2010PropOp33
 70
     1
102
RTVSPost2010Prop34
280
     0
102
RTVSPost2010PropOp34
 70
     1
102
RTVSPost2010Prop35
280
     0
102
RTVSPost2010PropOp35
 70
     1
102
RTVSPost2010Prop36
280
     0
102
RTVSPost2010PropOp36
 70
     1
102
RTVSPost2010Prop37
 90
       50
102
RTVSPost2010PropOp37
 70
     1
102
RTVSPost2010Prop38
140
0.0
102
RTVSPost2010PropOp38
 70
     1
102
RTVSPost2010Prop39
140
1.0
102
RTVSPost2010PropOp39
 70
     1
102
RTVSPost2010Prop40
 90
        0
102
RTVSPost2010PropOp40
 70
     1
102
RTVSPost2010Prop41ColorIndex
 90
       18
102
RTVSPost2010Prop41ColorRGB
 90
        0
102
RTVSPost2010PropOp41
 70
     1
102
RTVSPost2010Prop42
 90
       50
102
RTVSPost2010PropOp42
 70
     1
102
RTVSPost2010Prop43
 90
        3
102
RTVSPost2010PropOp43
 70
     1
102
RTVSPost2010Prop44ColorIndex
 90
        5
102
RTVSPost2010Prop44ColorRGB
 90
      255
102
RTVSPost2010PropOp44
 70
     1
102
RTVSPost2010Prop45
280
     0
102
RTVSPost2010PropOp45
 70
     1
102
RTVSPost2010Prop46
 90
       50
102
RTVSPost2010PropOp46
 70
     1
102
RTVSPost2010Prop47
 90
       50
102
RTVSPost2010PropOp47
 70
     1
102
RTVSPost2010Prop48
 90
       50
102
RTVSPost2010PropOp48
 70
     1
102
RTVSPost2010Prop49
280
     0
102
RTVSPost2010PropOp49
 70
     1
102
RTVSPost2010Prop50
 90
       50
102
RTVSPost2010PropOp50
 70
     1
102
RTVSPost2010Prop51ColorIndex
 90
      256
102
RTVSPost2010Prop51ColorRGB
 90
-16777216
102
RTVSPost2010PropOp51
 70
     0
102
RTVSPost2010Prop52
140
1.0
102
RTVSPost2010PropOp52
 70
     0
102
RTVSPost2010Prop53
 90
        2
102
RTVSPost2010PropOp53
 70
     1
102
RTVSPost2010Prop54
  1
strokes_ogs.tif
102
RTVSPost2010PropOp54
 70
     1
102
RTVSPost2010Prop55
280
     0
102
RTVSPost2010PropOp55
 70
     1
102
RTVSPost2010Prop56
140
1.0
102
RTVSPost2010PropOp56
 70
     1
102
RTVSPost2010Prop57
140
1.0
102
RTVSPost2010PropOp57
 70
     1
  0
XRECORD
  5
9DB
102
{ACAD_REACTORS
330
9DA
102
}
330
9DA
100
AcDbXrecord
280
     1
102
RTVSPropertyOp0
 70
     1
102
RTVSPropertyOp1
 70
     1
102
RTVSPropertyOp2
 70
     1
102
RTVSPropertyOp3
 70
     1
102
RTVSPropertyOp4
 70
     1
102
RTVSPropertyOp5
 70
     1
102
RTVSPropertyOp6
 70
     1
102
RTVSPropertyOp7
 70
     1
102
RTVSPropertyOp8
 70
     1
102
RTVSPropertyOp9
 70
     1
102
RTVSPropertyOp10
 70
     1
102
RTVSPropertyOp11
 70
     1
102
RTVSPropertyOp12
 70
     1
102
RTVSPropertyOp13
 70
     1
102
RTVSPropertyOp14
 70
     1
102
RTVSPropertyOp15
 70
     1
102
RTVSPropertyOp16
 70
     1
102
RTVSPropertyOp17
 70
     1
102
RTVSPropertyOp18
 70
     1
102
RTVSPropertyOp19
 70
     1
102
RTVSPropertyOp20
 70
     1
102
RTVSPropertyOp21
 70
     1
102
RTVSPropertyOp22
 70
     1
102
RTVSPropertyOp23
 70
     1
102
RTVSPropertyOp24
 70
     1
102
RTVSPropertyOp25
 70
     1
102
RTVSPropertyOp26
 70
     1
102
RTVSPropertyOp27
 70
     1
102
RTVSPropertyOp28
 70
     1
102
RTVSPropertyOp29
 70
     1
102
RTVSPropertyOp30
 70
     1
102
RTVSPropertyOp31
 70
     1
102
RTVSPropertyOp32
 70
     1
102
RTVSPropertyOp33
 70
     1
102
RTVSPropertyOp34
 70
     1
102
RTVSPropertyOp35
 70
     1
102
RTVSPropertyOp36
 70
     1
102
RTVSPropertyOp37
 70
     1
102
RTVSPropertyOp38
 70
     1
102
RTVSPropertyOp39
 70
     1
102
RTVSPropertyOp40
 70
     1
102
RTVSPropertyOp41
 70
     1
102
RTVSPropertyOp42
 70
     1
102
RTVSPropertyOp43
 70
     1
102
RTVSPropertyOp44
 70
     1
102
RTVSPropertyOp45
 70
     1
102
RTVSPropertyOp46
 70
     1
102
RTVSPropertyOp47
 70
     1
102
RTVSPropertyOp48
 70
     1
102
RTVSPropertyOp49
 70
     1
102
RTVSPropertyOp50
 70
     1
102
RTVSPropertyOp51
 70
     0
102
RTVSPropertyOp52
 70
     0
102
RTVSPropertyOp53
 70
     1
102
RTVSPropertyOp54
 70
     1
102
RTVSPropertyOp55
 70
     1
102
RTVSPropertyOp56
 70
     1
102
RTVSPropertyOp57
 70
     1
102
RTVSPost2010Prop28
280
     0
102
RTVSPost2010PropOp28
 70
     1
102
RTVSPost2010Prop29
280
     1
102
RTVSPost2010PropOp29
 70
     1
102
RTVSPost2010Prop30
280
     1
102
RTVSPost2010PropOp30
 70
     1
102
RTVSPost2010Prop31
280
     0
102
RTVSPost2010PropOp31
 70
     1
102
RTVSPost2010Prop32
280
     0
102
RTVSPost2010PropOp32
 70
     1
102
RTVSPost2010Prop33
280
     0
102
RTVSPost2010PropOp33
 70
     1
102
RTVSPost2010Prop34
280
     0
102
RTVSPost2010PropOp34
 70
     1
102
RTVSPost2010Prop35
280
     0
102
RTVSPost2010PropOp35
 70
     1
102
RTVSPost2010Prop36
280
     0
102
RTVSPost2010PropOp36
 70
     1
102
RTVSPost2010Prop37
 90
       50
102
RTVSPost2010PropOp37
 70
     1
102
RTVSPost2010Prop38
140
0.0
102
RTVSPost2010PropOp38
 70
     1
102
RTVSPost2010Prop39
140
1.0
102
RTVSPost2010PropOp39
 70
     1
102
RTVSPost2010Prop40
 90
        0
102
RTVSPost2010PropOp40
 70
     1
102
RTVSPost2010Prop41ColorIndex
 90
       18
102
RTVSPost2010Prop41ColorRGB
 90
        0
102
RTVSPost2010PropOp41
 70
     1
102
RTVSPost2010Prop42
 90
       50
102
RTVSPost2010PropOp42
 70
     1
102
RTVSPost2010Prop43
 90
        3
102
RTVSPost2010PropOp43
 70
     1
102
RTVSPost2010Prop44ColorIndex
 90
        5
102
RTVSPost2010Prop44ColorRGB
 90
      255
102
RTVSPost2010PropOp44
 70
     1
102
RTVSPost2010Prop45
280
     0
102
RTVSPost2010PropOp45
 70
     1
102
RTVSPost2010Prop46
 90
       50
102
RTVSPost2010PropOp46
 70
     1
102
RTVSPost2010Prop47
 90
       50
102
RTVSPost2010PropOp47
 70
     1
102
RTVSPost2010Prop48
 90
       50
102
RTVSPost2010PropOp48
 70
     1
102
RTVSPost2010Prop49
280
     0
102
RTVSPost2010PropOp49
 70
     1
102
RTVSPost2010Prop50
 90
       50
102
RTVSPost2010PropOp50
 70
     1
102
RTVSPost2010Prop51ColorIndex
 90
      256
102
RTVSPost2010Prop51ColorRGB
 90
-16777216
102
RTVSPost2010PropOp51
 70
     0
102
RTVSPost2010Prop52
140
1.0
102
RTVSPost2010PropOp52
 70
     0
102
RTVSPost2010Prop53
 90
        2
102
RTVSPost2010PropOp53
 70
     1
102
RTVSPost2010Prop54
  1
strokes_ogs.tif
102
RTVSPost2010PropOp54
 70
     1
102
RTVSPost2010Prop55
280
     0
102
RTVSPost2010PropOp55
 70
     1
102
RTVSPost2010Prop56
140
1.0
102
RTVSPost2010PropOp56
 70
     1
102
RTVSPost2010Prop57
140
1.0
102
RTVSPost2010PropOp57
 70
     1
  0
XRECORD
  5
9DD
102
{ACAD_REACTORS
330
9DC
102
}
330
9DC
100
AcDbXrecord
280
     1
102
RTVSPropertyOp0
 70
     1
102
RTVSPropertyOp1
 70
     1
102
RTVSPropertyOp2
 70
     1
102
RTVSPropertyOp3
 70
     1
102
RTVSPropertyOp4
 70
     1
102
RTVSPropertyOp5
 70
     1
102
RTVSPropertyOp6
 70
     1
102
RTVSPropertyOp7
 70
     1
102
RTVSPropertyOp8
 70
     1
102
RTVSPropertyOp9
 70
     1
102
RTVSPropertyOp10
 70
     1
102
RTVSPropertyOp11
 70
     1
102
RTVSPropertyOp12
 70
     1
102
RTVSPropertyOp13
 70
     1
102
RTVSPropertyOp14
 70
     1
102
RTVSPropertyOp15
 70
     1
102
RTVSPropertyOp16
 70
     1
102
RTVSPropertyOp17
 70
     1
102
RTVSPropertyOp18
 70
     1
102
RTVSPropertyOp19
 70
     1
102
RTVSPropertyOp20
 70
     1
102
RTVSPropertyOp21
 70
     1
102
RTVSPropertyOp22
 70
     1
102
RTVSPropertyOp23
 70
     1
102
RTVSPropertyOp24
 70
     1
102
RTVSPropertyOp25
 70
     1
102
RTVSPropertyOp26
 70
     1
102
RTVSPropertyOp27
 70
     1
102
RTVSPropertyOp28
 70
     1
102
RTVSPropertyOp29
 70
     1
102
RTVSPropertyOp30
 70
     1
102
RTVSPropertyOp31
 70
     1
102
RTVSPropertyOp32
 70
     1
102
RTVSPropertyOp33
 70
     1
102
RTVSPropertyOp34
 70
     1
102
RTVSPropertyOp35
 70
     1
102
RTVSPropertyOp36
 70
     1
102
RTVSPropertyOp37
 70
     1
102
RTVSPropertyOp38
 70
     1
102
RTVSPropertyOp39
 70
     1
102
RTVSPropertyOp40
 70
     1
102
RTVSPropertyOp41
 70
     1
102
RTVSPropertyOp42
 70
     1
102
RTVSPropertyOp43
 70
     1
102
RTVSPropertyOp44
 70
     1
102
RTVSPropertyOp45
 70
     1
102
RTVSPropertyOp46
 70
     1
102
RTVSPropertyOp47
 70
     1
102
RTVSPropertyOp48
 70
     1
102
RTVSPropertyOp49
 70
     1
102
RTVSPropertyOp50
 70
     1
102
RTVSPropertyOp51
 70
     0
102
RTVSPropertyOp52
 70
     0
102
RTVSPropertyOp53
 70
     1
102
RTVSPropertyOp54
 70
     1
102
RTVSPropertyOp55
 70
     1
102
RTVSPropertyOp56
 70
     1
102
RTVSPropertyOp57
 70
     1
102
RTVSPost2010Prop28
280
     0
102
RTVSPost2010PropOp28
 70
     1
102
RTVSPost2010Prop29
280
     1
102
RTVSPost2010PropOp29
 70
     1
102
RTVSPost2010Prop30
280
     1
102
RTVSPost2010PropOp30
 70
     1
102
RTVSPost2010Prop31
280
     0
102
RTVSPost2010PropOp31
 70
     1
102
RTVSPost2010Prop32
280
     0
102
RTVSPost2010PropOp32
 70
     1
102
RTVSPost2010Prop33
280
     0
102
RTVSPost2010PropOp33
 70
     1
102
RTVSPost2010Prop34
280
     0
102
RTVSPost2010PropOp34
 70
     1
102
RTVSPost2010Prop35
280
     0
102
RTVSPost2010PropOp35
 70
     1
102
RTVSPost2010Prop36
280
     0
102
RTVSPost2010PropOp36
 70
     1
102
RTVSPost2010Prop37
 90
       50
102
RTVSPost2010PropOp37
 70
     1
102
RTVSPost2010Prop38
140
0.0
102
RTVSPost2010PropOp38
 70
     1
102
RTVSPost2010Prop39
140
1.0
102
RTVSPost2010PropOp39
 70
     1
102
RTVSPost2010Prop40
 90
        0
102
RTVSPost2010PropOp40
 70
     1
102
RTVSPost2010Prop41ColorIndex
 90
       18
102
RTVSPost2010Prop41ColorRGB
 90
        0
102
RTVSPost2010PropOp41
 70
     1
102
RTVSPost2010Prop42
 90
       50
102
RTVSPost2010PropOp42
 70
     1
102
RTVSPost2010Prop43
 90
        3
102
RTVSPost2010PropOp43
 70
     1
102
RTVSPost2010Prop44ColorIndex
 90
        5
102
RTVSPost2010Prop44ColorRGB
 90
      255
102
RTVSPost2010PropOp44
 70
     1
102
RTVSPost2010Prop45
280
     0
102
RTVSPost2010PropOp45
 70
     1
102
RTVSPost2010Prop46
 90
       50
102
RTVSPost2010PropOp46
 70
     1
102
RTVSPost2010Prop47
 90
       50
102
RTVSPost2010PropOp47
 70
     1
102
RTVSPost2010Prop48
 90
       50
102
RTVSPost2010PropOp48
 70
     1
102
RTVSPost2010Prop49
280
     0
102
RTVSPost2010PropOp49
 70
     1
102
RTVSPost2010Prop50
 90
       50
102
RTVSPost2010PropOp50
 70
     1
102
RTVSPost2010Prop51ColorIndex
 90
      256
102
RTVSPost2010Prop51ColorRGB
 90
-16777216
102
RTVSPost2010PropOp51
 70
     0
102
RTVSPost2010Prop52
140
1.0
102
RTVSPost2010PropOp52
 70
     0
102
RTVSPost2010Prop53
 90
        2
102
RTVSPost2010PropOp53
 70
     1
102
RTVSPost2010Prop54
  1
strokes_ogs.tif
102
RTVSPost2010PropOp54
 70
     1
102
RTVSPost2010Prop55
280
     0
102
RTVSPost2010PropOp55
 70
     1
102
RTVSPost2010Prop56
140
1.0
102
RTVSPost2010PropOp56
 70
     1
102
RTVSPost2010Prop57
140
1.0
102
RTVSPost2010PropOp57
 70
     1
  0
XRECORD
  5
9DF
102
{ACAD_REACTORS
330
9DE
102
}
330
9DE
100
AcDbXrecord
280
     1
102
RTVSPropertyOp0
 70
     1
102
RTVSPropertyOp1
 70
     1
102
RTVSPropertyOp2
 70
     1
102
RTVSPropertyOp3
 70
     1
102
RTVSPropertyOp4
 70
     1
102
RTVSPropertyOp5
 70
     1
102
RTVSPropertyOp6
 70
     1
102
RTVSPropertyOp7
 70
     1
102
RTVSPropertyOp8
 70
     1
102
RTVSPropertyOp9
 70
     1
102
RTVSPropertyOp10
 70
     1
102
RTVSPropertyOp11
 70
     1
102
RTVSPropertyOp12
 70
     1
102
RTVSPropertyOp13
 70
     1
102
RTVSPropertyOp14
 70
     1
102
RTVSPropertyOp15
 70
     1
102
RTVSPropertyOp16
 70
     1
102
RTVSPropertyOp17
 70
     1
102
RTVSPropertyOp18
 70
     1
102
RTVSPropertyOp19
 70
     1
102
RTVSPropertyOp20
 70
     1
102
RTVSPropertyOp21
 70
     1
102
RTVSPropertyOp22
 70
     1
102
RTVSPropertyOp23
 70
     1
102
RTVSPropertyOp24
 70
     1
102
RTVSPropertyOp25
 70
     1
102
RTVSPropertyOp26
 70
     1
102
RTVSPropertyOp27
 70
     1
102
RTVSPropertyOp28
 70
     1
102
RTVSPropertyOp29
 70
     1
102
RTVSPropertyOp30
 70
     1
102
RTVSPropertyOp31
 70
     1
102
RTVSPropertyOp32
 70
     1
102
RTVSPropertyOp33
 70
     1
102
RTVSPropertyOp34
 70
     1
102
RTVSPropertyOp35
 70
     1
102
RTVSPropertyOp36
 70
     1
102
RTVSPropertyOp37
 70
     1
102
RTVSPropertyOp38
 70
     1
102
RTVSPropertyOp39
 70
     1
102
RTVSPropertyOp40
 70
     1
102
RTVSPropertyOp41
 70
     1
102
RTVSPropertyOp42
 70
     1
102
RTVSPropertyOp43
 70
     1
102
RTVSPropertyOp44
 70
     1
102
RTVSPropertyOp45
 70
     1
102
RTVSPropertyOp46
 70
     1
102
RTVSPropertyOp47
 70
     1
102
RTVSPropertyOp48
 70
     1
102
RTVSPropertyOp49
 70
     1
102
RTVSPropertyOp50
 70
     1
102
RTVSPropertyOp51
 70
     0
102
RTVSPropertyOp52
 70
     0
102
RTVSPropertyOp53
 70
     1
102
RTVSPropertyOp54
 70
     1
102
RTVSPropertyOp55
 70
     1
102
RTVSPropertyOp56
 70
     1
102
RTVSPropertyOp57
 70
     1
102
RTVSPost2010Prop28
280
     0
102
RTVSPost2010PropOp28
 70
     1
102
RTVSPost2010Prop29
280
     1
102
RTVSPost2010PropOp29
 70
     1
102
RTVSPost2010Prop30
280
     1
102
RTVSPost2010PropOp30
 70
     1
102
RTVSPost2010Prop31
280
     0
102
RTVSPost2010PropOp31
 70
     1
102
RTVSPost2010Prop32
280
     0
102
RTVSPost2010PropOp32
 70
     1
102
RTVSPost2010Prop33
280
     0
102
RTVSPost2010PropOp33
 70
     1
102
RTVSPost2010Prop34
280
     0
102
RTVSPost2010PropOp34
 70
     1
102
RTVSPost2010Prop35
280
     0
102
RTVSPost2010PropOp35
 70
     1
102
RTVSPost2010Prop36
280
     0
102
RTVSPost2010PropOp36
 70
     1
102
RTVSPost2010Prop37
 90
       50
102
RTVSPost2010PropOp37
 70
     1
102
RTVSPost2010Prop38
140
0.0
102
RTVSPost2010PropOp38
 70
     1
102
RTVSPost2010Prop39
140
1.0
102
RTVSPost2010PropOp39
 70
     1
102
RTVSPost2010Prop40
 90
        0
102
RTVSPost2010PropOp40
 70
     1
102
RTVSPost2010Prop41ColorIndex
 90
       18
102
RTVSPost2010Prop41ColorRGB
 90
        0
102
RTVSPost2010PropOp41
 70
     1
102
RTVSPost2010Prop42
 90
       50
102
RTVSPost2010PropOp42
 70
     1
102
RTVSPost2010Prop43
 90
        3
102
RTVSPost2010PropOp43
 70
     1
102
RTVSPost2010Prop44ColorIndex
 90
        5
102
RTVSPost2010Prop44ColorRGB
 90
      255
102
RTVSPost2010PropOp44
 70
     1
102
RTVSPost2010Prop45
280
     0
102
RTVSPost2010PropOp45
 70
     1
102
RTVSPost2010Prop46
 90
       50
102
RTVSPost2010PropOp46
 70
     1
102
RTVSPost2010Prop47
 90
       50
102
RTVSPost2010PropOp47
 70
     1
102
RTVSPost2010Prop48
 90
       50
102
RTVSPost2010PropOp48
 70
     1
102
RTVSPost2010Prop49
280
     0
102
RTVSPost2010PropOp49
 70
     1
102
RTVSPost2010Prop50
 90
       50
102
RTVSPost2010PropOp50
 70
     1
102
RTVSPost2010Prop51ColorIndex
 90
      256
102
RTVSPost2010Prop51ColorRGB
 90
-16777216
102
RTVSPost2010PropOp51
 70
     0
102
RTVSPost2010Prop52
140
1.0
102
RTVSPost2010PropOp52
 70
     0
102
RTVSPost2010Prop53
 90
        2
102
RTVSPost2010PropOp53
 70
     1
102
RTVSPost2010Prop54
  1
strokes_ogs.tif
102
RTVSPost2010PropOp54
 70
     1
102
RTVSPost2010Prop55
280
     0
102
RTVSPost2010PropOp55
 70
     1
102
RTVSPost2010Prop56
140
1.0
102
RTVSPost2010PropOp56
 70
     1
102
RTVSPost2010Prop57
140
1.0
102
RTVSPost2010PropOp57
 70
     1
  0
XRECORD
  5
9E1
102
{ACAD_REACTORS
330
9E0
102
}
330
9E0
100
AcDbXrecord
280
     1
102
RTVSPropertyOp0
 70
     1
102
RTVSPropertyOp1
 70
     1
102
RTVSPropertyOp2
 70
     1
102
RTVSPropertyOp3
 70
     1
102
RTVSPropertyOp4
 70
     1
102
RTVSPropertyOp5
 70
     1
102
RTVSPropertyOp6
 70
     1
102
RTVSPropertyOp7
 70
     1
102
RTVSPropertyOp8
 70
     1
102
RTVSPropertyOp9
 70
     1
102
RTVSPropertyOp10
 70
     1
102
RTVSPropertyOp11
 70
     1
102
RTVSPropertyOp12
 70
     1
102
RTVSPropertyOp13
 70
     1
102
RTVSPropertyOp14
 70
     1
102
RTVSPropertyOp15
 70
     1
102
RTVSPropertyOp16
 70
     1
102
RTVSPropertyOp17
 70
     1
102
RTVSPropertyOp18
 70
     1
102
RTVSPropertyOp19
 70
     1
102
RTVSPropertyOp20
 70
     1
102
RTVSPropertyOp21
 70
     1
102
RTVSPropertyOp22
 70
     1
102
RTVSPropertyOp23
 70
     1
102
RTVSPropertyOp24
 70
     1
102
RTVSPropertyOp25
 70
     1
102
RTVSPropertyOp26
 70
     1
102
RTVSPropertyOp27
 70
     1
102
RTVSPropertyOp28
 70
     1
102
RTVSPropertyOp29
 70
     1
102
RTVSPropertyOp30
 70
     1
102
RTVSPropertyOp31
 70
     1
102
RTVSPropertyOp32
 70
     1
102
RTVSPropertyOp33
 70
     1
102
RTVSPropertyOp34
 70
     1
102
RTVSPropertyOp35
 70
     1
102
RTVSPropertyOp36
 70
     1
102
RTVSPropertyOp37
 70
     1
102
RTVSPropertyOp38
 70
     1
102
RTVSPropertyOp39
 70
     1
102
RTVSPropertyOp40
 70
     1
102
RTVSPropertyOp41
 70
     1
102
RTVSPropertyOp42
 70
     1
102
RTVSPropertyOp43
 70
     1
102
RTVSPropertyOp44
 70
     1
102
RTVSPropertyOp45
 70
     1
102
RTVSPropertyOp46
 70
     1
102
RTVSPropertyOp47
 70
     1
102
RTVSPropertyOp48
 70
     1
102
RTVSPropertyOp49
 70
     1
102
RTVSPropertyOp50
 70
     1
102
RTVSPropertyOp51
 70
     0
102
RTVSPropertyOp52
 70
     0
102
RTVSPropertyOp53
 70
     1
102
RTVSPropertyOp54
 70
     1
102
RTVSPropertyOp55
 70
     1
102
RTVSPropertyOp56
 70
     1
102
RTVSPropertyOp57
 70
     1
102
RTVSPost2010Prop28
280
     0
102
RTVSPost2010PropOp28
 70
     1
102
RTVSPost2010Prop29
280
     1
102
RTVSPost2010PropOp29
 70
     1
102
RTVSPost2010Prop30
280
     1
102
RTVSPost2010PropOp30
 70
     1
102
RTVSPost2010Prop31
280
     0
102
RTVSPost2010PropOp31
 70
     1
102
RTVSPost2010Prop32
280
     0
102
RTVSPost2010PropOp32
 70
     1
102
RTVSPost2010Prop33
280
     0
102
RTVSPost2010PropOp33
 70
     1
102
RTVSPost2010Prop34
280
     0
102
RTVSPost2010PropOp34
 70
     1
102
RTVSPost2010Prop35
280
     0
102
RTVSPost2010PropOp35
 70
     1
102
RTVSPost2010Prop36
280
     0
102
RTVSPost2010PropOp36
 70
     1
102
RTVSPost2010Prop37
 90
       50
102
RTVSPost2010PropOp37
 70
     1
102
RTVSPost2010Prop38
140
0.0
102
RTVSPost2010PropOp38
 70
     1
102
RTVSPost2010Prop39
140
1.0
102
RTVSPost2010PropOp39
 70
     1
102
RTVSPost2010Prop40
 90
        0
102
RTVSPost2010PropOp40
 70
     1
102
RTVSPost2010Prop41ColorIndex
 90
       18
102
RTVSPost2010Prop41ColorRGB
 90
        0
102
RTVSPost2010PropOp41
 70
     1
102
RTVSPost2010Prop42
 90
       50
102
RTVSPost2010PropOp42
 70
     1
102
RTVSPost2010Prop43
 90
        3
102
RTVSPost2010PropOp43
 70
     1
102
RTVSPost2010Prop44ColorIndex
 90
        5
102
RTVSPost2010Prop44ColorRGB
 90
      255
102
RTVSPost2010PropOp44
 70
     1
102
RTVSPost2010Prop45
280
     0
102
RTVSPost2010PropOp45
 70
     1
102
RTVSPost2010Prop46
 90
       50
102
RTVSPost2010PropOp46
 70
     1
102
RTVSPost2010Prop47
 90
       50
102
RTVSPost2010PropOp47
 70
     1
102
RTVSPost2010Prop48
 90
       50
102
RTVSPost2010PropOp48
 70
     1
102
RTVSPost2010Prop49
280
     0
102
RTVSPost2010PropOp49
 70
     1
102
RTVSPost2010Prop50
 90
       50
102
RTVSPost2010PropOp50
 70
     1
102
RTVSPost2010Prop51ColorIndex
 90
      256
102
RTVSPost2010Prop51ColorRGB
 90
-16777216
102
RTVSPost2010PropOp51
 70
     0
102
RTVSPost2010Prop52
140
1.0
102
RTVSPost2010PropOp52
 70
     0
102
RTVSPost2010Prop53
 90
        2
102
RTVSPost2010PropOp53
 70
     1
102
RTVSPost2010Prop54
  1
strokes_ogs.tif
102
RTVSPost2010PropOp54
 70
     1
102
RTVSPost2010Prop55
280
     0
102
RTVSPost2010PropOp55
 70
     1
102
RTVSPost2010Prop56
140
1.0
102
RTVSPost2010PropOp56
 70
     1
102
RTVSPost2010Prop57
140
1.0
102
RTVSPost2010PropOp57
 70
     1
  0
XRECORD
  5
9E7
102
{ACAD_REACTORS
330
9E6
102
}
330
9E6
100
AcDbXrecord
280
     1
102
RTVSPropertyOp0
 70
     1
102
RTVSPropertyOp1
 70
     1
102
RTVSPropertyOp2
 70
     1
102
RTVSPropertyOp3
 70
     1
102
RTVSPropertyOp4
 70
     1
102
RTVSPropertyOp5
 70
     1
102
RTVSPropertyOp6
 70
     1
102
RTVSPropertyOp7
 70
     1
102
RTVSPropertyOp8
 70
     1
102
RTVSPropertyOp9
 70
     1
102
RTVSPropertyOp10
 70
     1
102
RTVSPropertyOp11
 70
     1
102
RTVSPropertyOp12
 70
     1
102
RTVSPropertyOp13
 70
     1
102
RTVSPropertyOp14
 70
     1
102
RTVSPropertyOp15
 70
     1
102
RTVSPropertyOp16
 70
     1
102
RTVSPropertyOp17
 70
     1
102
RTVSPropertyOp18
 70
     1
102
RTVSPropertyOp19
 70
     1
102
RTVSPropertyOp20
 70
     1
102
RTVSPropertyOp21
 70
     1
102
RTVSPropertyOp22
 70
     1
102
RTVSPropertyOp23
 70
     1
102
RTVSPropertyOp24
 70
     1
102
RTVSPropertyOp25
 70
     1
102
RTVSPropertyOp26
 70
     1
102
RTVSPropertyOp27
 70
     1
102
RTVSPropertyOp28
 70
     1
102
RTVSPropertyOp29
 70
     1
102
RTVSPropertyOp30
 70
     1
102
RTVSPropertyOp31
 70
     1
102
RTVSPropertyOp32
 70
     1
102
RTVSPropertyOp33
 70
     1
102
RTVSPropertyOp34
 70
     1
102
RTVSPropertyOp35
 70
     1
102
RTVSPropertyOp36
 70
     1
102
RTVSPropertyOp37
 70
     1
102
RTVSPropertyOp38
 70
     1
102
RTVSPropertyOp39
 70
     1
102
RTVSPropertyOp40
 70
     1
102
RTVSPropertyOp41
 70
     1
102
RTVSPropertyOp42
 70
     1
102
RTVSPropertyOp43
 70
     1
102
RTVSPropertyOp44
 70
     1
102
RTVSPropertyOp45
 70
     1
102
RTVSPropertyOp46
 70
     1
102
RTVSPropertyOp47
 70
     1
102
RTVSPropertyOp48
 70
     1
102
RTVSPropertyOp49
 70
     1
102
RTVSPropertyOp50
 70
     1
102
RTVSPropertyOp51
 70
     0
102
RTVSPropertyOp52
 70
     0
102
RTVSPropertyOp53
 70
     1
102
RTVSPropertyOp54
 70
     1
102
RTVSPropertyOp55
 70
     1
102
RTVSPropertyOp56
 70
     1
102
RTVSPropertyOp57
 70
     1
102
RTVSPost2010Prop28
280
     0
102
RTVSPost2010PropOp28
 70
     1
102
RTVSPost2010Prop29
280
     1
102
RTVSPost2010PropOp29
 70
     1
102
RTVSPost2010Prop30
280
     1
102
RTVSPost2010PropOp30
 70
     1
102
RTVSPost2010Prop31
280
     0
102
RTVSPost2010PropOp31
 70
     1
102
RTVSPost2010Prop32
280
     0
102
RTVSPost2010PropOp32
 70
     1
102
RTVSPost2010Prop33
280
     0
102
RTVSPost2010PropOp33
 70
     1
102
RTVSPost2010Prop34
280
     0
102
RTVSPost2010PropOp34
 70
     1
102
RTVSPost2010Prop35
280
     0
102
RTVSPost2010PropOp35
 70
     1
102
RTVSPost2010Prop36
280
     0
102
RTVSPost2010PropOp36
 70
     1
102
RTVSPost2010Prop37
 90
       50
102
RTVSPost2010PropOp37
 70
     1
102
RTVSPost2010Prop38
140
0.0
102
RTVSPost2010PropOp38
 70
     1
102
RTVSPost2010Prop39
140
1.0
102
RTVSPost2010PropOp39
 70
     1
102
RTVSPost2010Prop40
 90
        0
102
RTVSPost2010PropOp40
 70
     1
102
RTVSPost2010Prop41ColorIndex
 90
       18
102
RTVSPost2010Prop41ColorRGB
 90
        0
102
RTVSPost2010PropOp41
 70
     1
102
RTVSPost2010Prop42
 90
       50
102
RTVSPost2010PropOp42
 70
     1
102
RTVSPost2010Prop43
 90
        3
102
RTVSPost2010PropOp43
 70
     1
102
RTVSPost2010Prop44ColorIndex
 90
        5
102
RTVSPost2010Prop44ColorRGB
 90
      255
102
RTVSPost2010PropOp44
 70
     1
102
RTVSPost2010Prop45
280
     0
102
RTVSPost2010PropOp45
 70
     1
102
RTVSPost2010Prop46
 90
       50
102
RTVSPost2010PropOp46
 70
     1
102
RTVSPost2010Prop47
 90
       50
102
RTVSPost2010PropOp47
 70
     1
102
RTVSPost2010Prop48
 90
       50
102
RTVSPost2010PropOp48
 70
     1
102
RTVSPost2010Prop49
280
     0
102
RTVSPost2010PropOp49
 70
     1
102
RTVSPost2010Prop50
 90
       50
102
RTVSPost2010PropOp50
 70
     1
102
RTVSPost2010Prop51ColorIndex
 90
      256
102
RTVSPost2010Prop51ColorRGB
 90
-16777216
102
RTVSPost2010PropOp51
 70
     0
102
RTVSPost2010Prop52
140
1.0
102
RTVSPost2010PropOp52
 70
     0
102
RTVSPost2010Prop53
 90
        2
102
RTVSPost2010PropOp53
 70
     1
102
RTVSPost2010Prop54
  1
strokes_ogs.tif
102
RTVSPost2010PropOp54
 70
     1
102
RTVSPost2010Prop55
280
     0
102
RTVSPost2010PropOp55
 70
     1
102
RTVSPost2010Prop56
140
1.0
102
RTVSPost2010PropOp56
 70
     1
102
RTVSPost2010Prop57
140
1.0
102
RTVSPost2010PropOp57
 70
     1
  0
XRECORD
  5
9FB
102
{ACAD_REACTORS
330
9FA
102
}
330
9FA
100
AcDbXrecord
280
     1
102
RTVSPropertyOp0
 70
     0
102
RTVSPropertyOp1
 70
     0
102
RTVSPropertyOp2
 70
     0
102
RTVSPropertyOp3
 70
     0
102
RTVSPropertyOp4
 70
     0
102
RTVSPropertyOp5
 70
     0
102
RTVSPropertyOp6
 70
     0
102
RTVSPropertyOp7
 70
     0
102
RTVSPropertyOp8
 70
     0
102
RTVSPropertyOp9
 70
     0
102
RTVSPropertyOp10
 70
     0
102
RTVSPropertyOp11
 70
     0
102
RTVSPropertyOp12
 70
     0
102
RTVSPropertyOp13
 70
     0
102
RTVSPropertyOp14
 70
     2
102
RTVSPropertyOp15
 70
     0
102
RTVSPropertyOp16
 70
     0
102
RTVSPropertyOp17
 70
     0
102
RTVSPropertyOp18
 70
     0
102
RTVSPropertyOp19
 70
     0
102
RTVSPropertyOp20
 70
     0
102
RTVSPropertyOp21
 70
     0
102
RTVSPropertyOp22
 70
     0
102
RTVSPropertyOp23
 70
     0
102
RTVSPropertyOp24
 70
     0
102
RTVSPropertyOp25
 70
     0
102
RTVSPropertyOp26
 70
     0
102
RTVSPropertyOp27
 70
     0
102
RTVSPropertyOp28
 70
     0
102
RTVSPropertyOp29
 70
     0
102
RTVSPropertyOp30
 70
     0
102
RTVSPropertyOp31
 70
     0
102
RTVSPropertyOp32
 70
     0
102
RTVSPropertyOp33
 70
     0
102
RTVSPropertyOp34
 70
     0
102
RTVSPropertyOp35
 70
     0
102
RTVSPropertyOp36
 70
     0
102
RTVSPropertyOp37
 70
     0
102
RTVSPropertyOp38
 70
     0
102
RTVSPropertyOp39
 70
     0
102
RTVSPropertyOp40
 70
     0
102
RTVSPropertyOp41
 70
     0
102
RTVSPropertyOp42
 70
     0
102
RTVSPropertyOp43
 70
     0
102
RTVSPropertyOp44
 70
     0
102
RTVSPropertyOp45
 70
     0
102
RTVSPropertyOp46
 70
     0
102
RTVSPropertyOp47
 70
     0
102
RTVSPropertyOp48
 70
     0
102
RTVSPropertyOp49
 70
     0
102
RTVSPropertyOp50
 70
     0
102
RTVSPropertyOp51
 70
     0
102
RTVSPropertyOp52
 70
     0
102
RTVSPropertyOp53
 70
     0
102
RTVSPropertyOp54
 70
     0
102
RTVSPropertyOp55
 70
     0
102
RTVSPropertyOp56
 70
     0
102
RTVSPropertyOp57
 70
     0
102
RTVSPost2010Prop28
280
     0
102
RTVSPost2010PropOp28
 70
     0
102
RTVSPost2010Prop29
280
     1
102
RTVSPost2010PropOp29
 70
     0
102
RTVSPost2010Prop30
280
     1
102
RTVSPost2010PropOp30
 70
     0
102
RTVSPost2010Prop31
280
     0
102
RTVSPost2010PropOp31
 70
     0
102
RTVSPost2010Prop32
280
     0
102
RTVSPost2010PropOp32
 70
     0
102
RTVSPost2010Prop33
280
     0
102
RTVSPost2010PropOp33
 70
     0
102
RTVSPost2010Prop34
280
     0
102
RTVSPost2010PropOp34
 70
     0
102
RTVSPost2010Prop35
280
     0
102
RTVSPost2010PropOp35
 70
     0
102
RTVSPost2010Prop36
280
     0
102
RTVSPost2010PropOp36
 70
     0
102
RTVSPost2010Prop37
 90
       50
102
RTVSPost2010PropOp37
 70
     0
102
RTVSPost2010Prop38
140
0.0
102
RTVSPost2010PropOp38
 70
     0
102
RTVSPost2010Prop39
140
1.0
102
RTVSPost2010PropOp39
 70
     0
102
RTVSPost2010Prop40
 90
        0
102
RTVSPost2010PropOp40
 70
     0
102
RTVSPost2010Prop41ColorIndex
 90
       18
102
RTVSPost2010Prop41ColorRGB
 90
        0
102
RTVSPost2010PropOp41
 70
     0
102
RTVSPost2010Prop42
 90
       50
102
RTVSPost2010PropOp42
 70
     0
102
RTVSPost2010Prop43
 90
        3
102
RTVSPost2010PropOp43
 70
     0
102
RTVSPost2010Prop44ColorIndex
 90
        5
102
RTVSPost2010Prop44ColorRGB
 90
      255
102
RTVSPost2010PropOp44
 70
     0
102
RTVSPost2010Prop45
280
     0
102
RTVSPost2010PropOp45
 70
     0
102
RTVSPost2010Prop46
 90
       50
102
RTVSPost2010PropOp46
 70
     0
102
RTVSPost2010Prop47
 90
       50
102
RTVSPost2010PropOp47
 70
     0
102
RTVSPost2010Prop48
 90
       50
102
RTVSPost2010PropOp48
 70
     0
102
RTVSPost2010Prop49
280
     0
102
RTVSPost2010PropOp49
 70
     0
102
RTVSPost2010Prop50
 90
       50
102
RTVSPost2010PropOp50
 70
     0
102
RTVSPost2010Prop51ColorIndex
 90
      256
102
RTVSPost2010Prop51ColorRGB
 90
-16777216
102
RTVSPost2010PropOp51
 70
     0
102
RTVSPost2010Prop52
140
1.0
102
RTVSPost2010PropOp52
 70
     0
102
RTVSPost2010Prop53
 90
        2
102
RTVSPost2010PropOp53
 70
     0
102
RTVSPost2010Prop54
  1
strokes_ogs.tif
102
RTVSPost2010PropOp54
 70
     0
102
RTVSPost2010Prop55
280
     0
102
RTVSPost2010PropOp55
 70
     0
102
RTVSPost2010Prop56
140
1.0
102
RTVSPost2010PropOp56
 70
     0
102
RTVSPost2010Prop57
140
1.0
102
RTVSPost2010PropOp57
 70
     0
  0
XRECORD
  5
9F5
102
{ACAD_REACTORS
330
9F4
102
}
330
9F4
100
AcDbXrecord
280
     1
102
RTVSPropertyOp0
 70
     1
102
RTVSPropertyOp1
 70
     1
102
RTVSPropertyOp2
 70
     1
102
RTVSPropertyOp3
 70
     1
102
RTVSPropertyOp4
 70
     1
102
RTVSPropertyOp5
 70
     1
102
RTVSPropertyOp6
 70
     1
102
RTVSPropertyOp7
 70
     1
102
RTVSPropertyOp8
 70
     1
102
RTVSPropertyOp9
 70
     1
102
RTVSPropertyOp10
 70
     1
102
RTVSPropertyOp11
 70
     1
102
RTVSPropertyOp12
 70
     1
102
RTVSPropertyOp13
 70
     1
102
RTVSPropertyOp14
 70
     1
102
RTVSPropertyOp15
 70
     1
102
RTVSPropertyOp16
 70
     1
102
RTVSPropertyOp17
 70
     1
102
RTVSPropertyOp18
 70
     1
102
RTVSPropertyOp19
 70
     1
102
RTVSPropertyOp20
 70
     1
102
RTVSPropertyOp21
 70
     1
102
RTVSPropertyOp22
 70
     1
102
RTVSPropertyOp23
 70
     1
102
RTVSPropertyOp24
 70
     1
102
RTVSPropertyOp25
 70
     1
102
RTVSPropertyOp26
 70
     1
102
RTVSPropertyOp27
 70
     1
102
RTVSPropertyOp28
 70
     1
102
RTVSPropertyOp29
 70
     1
102
RTVSPropertyOp30
 70
     1
102
RTVSPropertyOp31
 70
     1
102
RTVSPropertyOp32
 70
     1
102
RTVSPropertyOp33
 70
     1
102
RTVSPropertyOp34
 70
     1
102
RTVSPropertyOp35
 70
     1
102
RTVSPropertyOp36
 70
     1
102
RTVSPropertyOp37
 70
     1
102
RTVSPropertyOp38
 70
     1
102
RTVSPropertyOp39
 70
     1
102
RTVSPropertyOp40
 70
     1
102
RTVSPropertyOp41
 70
     1
102
RTVSPropertyOp42
 70
     1
102
RTVSPropertyOp43
 70
     1
102
RTVSPropertyOp44
 70
     1
102
RTVSPropertyOp45
 70
     1
102
RTVSPropertyOp46
 70
     1
102
RTVSPropertyOp47
 70
     1
102
RTVSPropertyOp48
 70
     1
102
RTVSPropertyOp49
 70
     1
102
RTVSPropertyOp50
 70
     1
102
RTVSPropertyOp51
 70
     0
102
RTVSPropertyOp52
 70
     0
102
RTVSPropertyOp53
 70
     1
102
RTVSPropertyOp54
 70
     1
102
RTVSPropertyOp55
 70
     1
102
RTVSPropertyOp56
 70
     1
102
RTVSPropertyOp57
 70
     1
102
RTVSPost2010Prop28
280
     0
102
RTVSPost2010PropOp28
 70
     1
102
RTVSPost2010Prop29
280
     1
102
RTVSPost2010PropOp29
 70
     1
102
RTVSPost2010Prop30
280
     1
102
RTVSPost2010PropOp30
 70
     1
102
RTVSPost2010Prop31
280
     0
102
RTVSPost2010PropOp31
 70
     1
102
RTVSPost2010Prop32
280
     0
102
RTVSPost2010PropOp32
 70
     1
102
RTVSPost2010Prop33
280
     0
102
RTVSPost2010PropOp33
 70
     1
102
RTVSPost2010Prop34
280
     0
102
RTVSPost2010PropOp34
 70
     1
102
RTVSPost2010Prop35
280
     0
102
RTVSPost2010PropOp35
 70
     1
102
RTVSPost2010Prop36
280
     0
102
RTVSPost2010PropOp36
 70
     1
102
RTVSPost2010Prop37
 90
       50
102
RTVSPost2010PropOp37
 70
     1
102
RTVSPost2010Prop38
140
0.0
102
RTVSPost2010PropOp38
 70
     1
102
RTVSPost2010Prop39
140
1.0
102
RTVSPost2010PropOp39
 70
     1
102
RTVSPost2010Prop40
 90
        0
102
RTVSPost2010PropOp40
 70
     1
102
RTVSPost2010Prop41ColorIndex
 90
       18
102
RTVSPost2010Prop41ColorRGB
 90
        0
102
RTVSPost2010PropOp41
 70
     1
102
RTVSPost2010Prop42
 90
       50
102
RTVSPost2010PropOp42
 70
     1
102
RTVSPost2010Prop43
 90
        3
102
RTVSPost2010PropOp43
 70
     1
102
RTVSPost2010Prop44ColorIndex
 90
        5
102
RTVSPost2010Prop44ColorRGB
 90
      255
102
RTVSPost2010PropOp44
 70
     1
102
RTVSPost2010Prop45
280
     0
102
RTVSPost2010PropOp45
 70
     1
102
RTVSPost2010Prop46
 90
       50
102
RTVSPost2010PropOp46
 70
     1
102
RTVSPost2010Prop47
 90
       50
102
RTVSPost2010PropOp47
 70
     1
102
RTVSPost2010Prop48
 90
       50
102
RTVSPost2010PropOp48
 70
     1
102
RTVSPost2010Prop49
280
     0
102
RTVSPost2010PropOp49
 70
     1
102
RTVSPost2010Prop50
 90
       50
102
RTVSPost2010PropOp50
 70
     1
102
RTVSPost2010Prop51ColorIndex
 90
      256
102
RTVSPost2010Prop51ColorRGB
 90
-16777216
102
RTVSPost2010PropOp51
 70
     0
102
RTVSPost2010Prop52
140
1.0
102
RTVSPost2010PropOp52
 70
     0
102
RTVSPost2010Prop53
 90
        2
102
RTVSPost2010PropOp53
 70
     1
102
RTVSPost2010Prop54
  1
strokes_ogs.tif
102
RTVSPost2010PropOp54
 70
     1
102
RTVSPost2010Prop55
280
     0
102
RTVSPost2010PropOp55
 70
     1
102
RTVSPost2010Prop56
140
1.0
102
RTVSPost2010PropOp56
 70
     1
102
RTVSPost2010Prop57
140
1.0
102
RTVSPost2010PropOp57
 70
     1
  0
XRECORD
  5
9FD
102
{ACAD_REACTORS
330
9FC
102
}
330
9FC
100
AcDbXrecord
280
     1
102
RTVSPropertyOp0
 70
     0
102
RTVSPropertyOp1
 70
     0
102
RTVSPropertyOp2
 70
     0
102
RTVSPropertyOp3
 70
     0
102
RTVSPropertyOp4
 70
     0
102
RTVSPropertyOp5
 70
     0
102
RTVSPropertyOp6
 70
     0
102
RTVSPropertyOp7
 70
     0
102
RTVSPropertyOp8
 70
     0
102
RTVSPropertyOp9
 70
     0
102
RTVSPropertyOp10
 70
     0
102
RTVSPropertyOp11
 70
     0
102
RTVSPropertyOp12
 70
     0
102
RTVSPropertyOp13
 70
     0
102
RTVSPropertyOp14
 70
     2
102
RTVSPropertyOp15
 70
     0
102
RTVSPropertyOp16
 70
     0
102
RTVSPropertyOp17
 70
     0
102
RTVSPropertyOp18
 70
     0
102
RTVSPropertyOp19
 70
     0
102
RTVSPropertyOp20
 70
     0
102
RTVSPropertyOp21
 70
     0
102
RTVSPropertyOp22
 70
     0
102
RTVSPropertyOp23
 70
     0
102
RTVSPropertyOp24
 70
     0
102
RTVSPropertyOp25
 70
     0
102
RTVSPropertyOp26
 70
     0
102
RTVSPropertyOp27
 70
     0
102
RTVSPropertyOp28
 70
     0
102
RTVSPropertyOp29
 70
     0
102
RTVSPropertyOp30
 70
     0
102
RTVSPropertyOp31
 70
     0
102
RTVSPropertyOp32
 70
     0
102
RTVSPropertyOp33
 70
     0
102
RTVSPropertyOp34
 70
     0
102
RTVSPropertyOp35
 70
     0
102
RTVSPropertyOp36
 70
     0
102
RTVSPropertyOp37
 70
     0
102
RTVSPropertyOp38
 70
     0
102
RTVSPropertyOp39
 70
     0
102
RTVSPropertyOp40
 70
     0
102
RTVSPropertyOp41
 70
     0
102
RTVSPropertyOp42
 70
     0
102
RTVSPropertyOp43
 70
     0
102
RTVSPropertyOp44
 70
     0
102
RTVSPropertyOp45
 70
     0
102
RTVSPropertyOp46
 70
     0
102
RTVSPropertyOp47
 70
     0
102
RTVSPropertyOp48
 70
     0
102
RTVSPropertyOp49
 70
     0
102
RTVSPropertyOp50
 70
     0
102
RTVSPropertyOp51
 70
     0
102
RTVSPropertyOp52
 70
     0
102
RTVSPropertyOp53
 70
     0
102
RTVSPropertyOp54
 70
     0
102
RTVSPropertyOp55
 70
     0
102
RTVSPropertyOp56
 70
     0
102
RTVSPropertyOp57
 70
     0
102
RTVSPost2010Prop28
280
     0
102
RTVSPost2010PropOp28
 70
     0
102
RTVSPost2010Prop29
280
     1
102
RTVSPost2010PropOp29
 70
     0
102
RTVSPost2010Prop30
280
     1
102
RTVSPost2010PropOp30
 70
     0
102
RTVSPost2010Prop31
280
     0
102
RTVSPost2010PropOp31
 70
     0
102
RTVSPost2010Prop32
280
     0
102
RTVSPost2010PropOp32
 70
     0
102
RTVSPost2010Prop33
280
     0
102
RTVSPost2010PropOp33
 70
     0
102
RTVSPost2010Prop34
280
     0
102
RTVSPost2010PropOp34
 70
     0
102
RTVSPost2010Prop35
280
     0
102
RTVSPost2010PropOp35
 70
     0
102
RTVSPost2010Prop36
280
     0
102
RTVSPost2010PropOp36
 70
     0
102
RTVSPost2010Prop37
 90
       50
102
RTVSPost2010PropOp37
 70
     0
102
RTVSPost2010Prop38
140
0.0
102
RTVSPost2010PropOp38
 70
     0
102
RTVSPost2010Prop39
140
1.0
102
RTVSPost2010PropOp39
 70
     0
102
RTVSPost2010Prop40
 90
        0
102
RTVSPost2010PropOp40
 70
     0
102
RTVSPost2010Prop41ColorIndex
 90
       18
102
RTVSPost2010Prop41ColorRGB
 90
        0
102
RTVSPost2010PropOp41
 70
     0
102
RTVSPost2010Prop42
 90
       50
102
RTVSPost2010PropOp42
 70
     0
102
RTVSPost2010Prop43
 90
        3
102
RTVSPost2010PropOp43
 70
     0
102
RTVSPost2010Prop44ColorIndex
 90
        5
102
RTVSPost2010Prop44ColorRGB
 90
      255
102
RTVSPost2010PropOp44
 70
     0
102
RTVSPost2010Prop45
280
     0
102
RTVSPost2010PropOp45
 70
     0
102
RTVSPost2010Prop46
 90
       50
102
RTVSPost2010PropOp46
 70
     0
102
RTVSPost2010Prop47
 90
       50
102
RTVSPost2010PropOp47
 70
     0
102
RTVSPost2010Prop48
 90
       50
102
RTVSPost2010PropOp48
 70
     0
102
RTVSPost2010Prop49
280
     0
102
RTVSPost2010PropOp49
 70
     0
102
RTVSPost2010Prop50
 90
       50
102
RTVSPost2010PropOp50
 70
     0
102
RTVSPost2010Prop51ColorIndex
 90
      256
102
RTVSPost2010Prop51ColorRGB
 90
-16777216
102
RTVSPost2010PropOp51
 70
     0
102
RTVSPost2010Prop52
140
1.0
102
RTVSPost2010PropOp52
 70
     0
102
RTVSPost2010Prop53
 90
        2
102
RTVSPost2010PropOp53
 70
     0
102
RTVSPost2010Prop54
  1
strokes_ogs.tif
102
RTVSPost2010PropOp54
 70
     0
102
RTVSPost2010Prop55
280
     0
102
RTVSPost2010PropOp55
 70
     0
102
RTVSPost2010Prop56
140
1.0
102
RTVSPost2010PropOp56
 70
     0
102
RTVSPost2010Prop57
140
1.0
102
RTVSPost2010PropOp57
 70
     0
  0
XRECORD
  5
9EB
102
{ACAD_REACTORS
330
9EA
102
}
330
9EA
100
AcDbXrecord
280
     1
102
RTVSPropertyOp0
 70
     1
102
RTVSPropertyOp1
 70
     1
102
RTVSPropertyOp2
 70
     1
102
RTVSPropertyOp3
 70
     1
102
RTVSPropertyOp4
 70
     1
102
RTVSPropertyOp5
 70
     1
102
RTVSPropertyOp6
 70
     1
102
RTVSPropertyOp7
 70
     1
102
RTVSPropertyOp8
 70
     1
102
RTVSPropertyOp9
 70
     1
102
RTVSPropertyOp10
 70
     1
102
RTVSPropertyOp11
 70
     1
102
RTVSPropertyOp12
 70
     1
102
RTVSPropertyOp13
 70
     1
102
RTVSPropertyOp14
 70
     1
102
RTVSPropertyOp15
 70
     1
102
RTVSPropertyOp16
 70
     1
102
RTVSPropertyOp17
 70
     1
102
RTVSPropertyOp18
 70
     1
102
RTVSPropertyOp19
 70
     1
102
RTVSPropertyOp20
 70
     1
102
RTVSPropertyOp21
 70
     1
102
RTVSPropertyOp22
 70
     1
102
RTVSPropertyOp23
 70
     1
102
RTVSPropertyOp24
 70
     1
102
RTVSPropertyOp25
 70
     1
102
RTVSPropertyOp26
 70
     1
102
RTVSPropertyOp27
 70
     1
102
RTVSPropertyOp28
 70
     1
102
RTVSPropertyOp29
 70
     1
102
RTVSPropertyOp30
 70
     1
102
RTVSPropertyOp31
 70
     1
102
RTVSPropertyOp32
 70
     1
102
RTVSPropertyOp33
 70
     1
102
RTVSPropertyOp34
 70
     1
102
RTVSPropertyOp35
 70
     1
102
RTVSPropertyOp36
 70
     1
102
RTVSPropertyOp37
 70
     1
102
RTVSPropertyOp38
 70
     1
102
RTVSPropertyOp39
 70
     1
102
RTVSPropertyOp40
 70
     1
102
RTVSPropertyOp41
 70
     1
102
RTVSPropertyOp42
 70
     1
102
RTVSPropertyOp43
 70
     1
102
RTVSPropertyOp44
 70
     1
102
RTVSPropertyOp45
 70
     1
102
RTVSPropertyOp46
 70
     1
102
RTVSPropertyOp47
 70
     1
102
RTVSPropertyOp48
 70
     1
102
RTVSPropertyOp49
 70
     1
102
RTVSPropertyOp50
 70
     1
102
RTVSPropertyOp51
 70
     0
102
RTVSPropertyOp52
 70
     0
102
RTVSPropertyOp53
 70
     1
102
RTVSPropertyOp54
 70
     1
102
RTVSPropertyOp55
 70
     1
102
RTVSPropertyOp56
 70
     1
102
RTVSPropertyOp57
 70
     1
102
RTVSPost2010Prop28
280
     0
102
RTVSPost2010PropOp28
 70
     1
102
RTVSPost2010Prop29
280
     1
102
RTVSPost2010PropOp29
 70
     1
102
RTVSPost2010Prop30
280
     1
102
RTVSPost2010PropOp30
 70
     1
102
RTVSPost2010Prop31
280
     0
102
RTVSPost2010PropOp31
 70
     1
102
RTVSPost2010Prop32
280
     0
102
RTVSPost2010PropOp32
 70
     1
102
RTVSPost2010Prop33
280
     0
102
RTVSPost2010PropOp33
 70
     1
102
RTVSPost2010Prop34
280
     0
102
RTVSPost2010PropOp34
 70
     1
102
RTVSPost2010Prop35
280
     0
102
RTVSPost2010PropOp35
 70
     1
102
RTVSPost2010Prop36
280
     0
102
RTVSPost2010PropOp36
 70
     1
102
RTVSPost2010Prop37
 90
       50
102
RTVSPost2010PropOp37
 70
     1
102
RTVSPost2010Prop38
140
0.0
102
RTVSPost2010PropOp38
 70
     1
102
RTVSPost2010Prop39
140
1.0
102
RTVSPost2010PropOp39
 70
     1
102
RTVSPost2010Prop40
 90
        0
102
RTVSPost2010PropOp40
 70
     1
102
RTVSPost2010Prop41ColorIndex
 90
       18
102
RTVSPost2010Prop41ColorRGB
 90
        0
102
RTVSPost2010PropOp41
 70
     1
102
RTVSPost2010Prop42
 90
       50
102
RTVSPost2010PropOp42
 70
     1
102
RTVSPost2010Prop43
 90
        3
102
RTVSPost2010PropOp43
 70
     1
102
RTVSPost2010Prop44ColorIndex
 90
        5
102
RTVSPost2010Prop44ColorRGB
 90
      255
102
RTVSPost2010PropOp44
 70
     1
102
RTVSPost2010Prop45
280
     0
102
RTVSPost2010PropOp45
 70
     1
102
RTVSPost2010Prop46
 90
       50
102
RTVSPost2010PropOp46
 70
     1
102
RTVSPost2010Prop47
 90
       50
102
RTVSPost2010PropOp47
 70
     1
102
RTVSPost2010Prop48
 90
       50
102
RTVSPost2010PropOp48
 70
     1
102
RTVSPost2010Prop49
280
     0
102
RTVSPost2010PropOp49
 70
     1
102
RTVSPost2010Prop50
 90
       50
102
RTVSPost2010PropOp50
 70
     1
102
RTVSPost2010Prop51ColorIndex
 90
      256
102
RTVSPost2010Prop51ColorRGB
 90
-16777216
102
RTVSPost2010PropOp51
 70
     0
102
RTVSPost2010Prop52
140
1.0
102
RTVSPost2010PropOp52
 70
     0
102
RTVSPost2010Prop53
 90
        2
102
RTVSPost2010PropOp53
 70
     1
102
RTVSPost2010Prop54
  1
strokes_ogs.tif
102
RTVSPost2010PropOp54
 70
     1
102
RTVSPost2010Prop55
280
     0
102
RTVSPost2010PropOp55
 70
     1
102
RTVSPost2010Prop56
140
1.0
102
RTVSPost2010PropOp56
 70
     1
102
RTVSPost2010Prop57
140
1.0
102
RTVSPost2010PropOp57
 70
     1
  0
XRECORD
  5
A09
102
{ACAD_REACTORS
330
A08
102
}
330
A08
100
AcDbXrecord
280
     1
102
RTVSPropertyOp0
 70
     1
102
RTVSPropertyOp1
 70
     1
102
RTVSPropertyOp2
 70
     1
102
RTVSPropertyOp3
 70
     1
102
RTVSPropertyOp4
 70
     1
102
RTVSPropertyOp5
 70
     1
102
RTVSPropertyOp6
 70
     1
102
RTVSPropertyOp7
 70
     1
102
RTVSPropertyOp8
 70
     1
102
RTVSPropertyOp9
 70
     1
102
RTVSPropertyOp10
 70
     1
102
RTVSPropertyOp11
 70
     1
102
RTVSPropertyOp12
 70
     1
102
RTVSPropertyOp13
 70
     1
102
RTVSPropertyOp14
 70
     1
102
RTVSPropertyOp15
 70
     1
102
RTVSPropertyOp16
 70
     1
102
RTVSPropertyOp17
 70
     1
102
RTVSPropertyOp18
 70
     1
102
RTVSPropertyOp19
 70
     1
102
RTVSPropertyOp20
 70
     1
102
RTVSPropertyOp21
 70
     1
102
RTVSPropertyOp22
 70
     1
102
RTVSPropertyOp23
 70
     1
102
RTVSPropertyOp24
 70
     1
102
RTVSPropertyOp25
 70
     1
102
RTVSPropertyOp26
 70
     1
102
RTVSPropertyOp27
 70
     1
102
RTVSPropertyOp28
 70
     1
102
RTVSPropertyOp29
 70
     1
102
RTVSPropertyOp30
 70
     1
102
RTVSPropertyOp31
 70
     1
102
RTVSPropertyOp32
 70
     1
102
RTVSPropertyOp33
 70
     1
102
RTVSPropertyOp34
 70
     1
102
RTVSPropertyOp35
 70
     1
102
RTVSPropertyOp36
 70
     1
102
RTVSPropertyOp37
 70
     1
102
RTVSPropertyOp38
 70
     1
102
RTVSPropertyOp39
 70
     1
102
RTVSPropertyOp40
 70
     1
102
RTVSPropertyOp41
 70
     1
102
RTVSPropertyOp42
 70
     1
102
RTVSPropertyOp43
 70
     1
102
RTVSPropertyOp44
 70
     1
102
RTVSPropertyOp45
 70
     1
102
RTVSPropertyOp46
 70
     1
102
RTVSPropertyOp47
 70
     1
102
RTVSPropertyOp48
 70
     1
102
RTVSPropertyOp49
 70
     1
102
RTVSPropertyOp50
 70
     1
102
RTVSPropertyOp51
 70
     0
102
RTVSPropertyOp52
 70
     0
102
RTVSPropertyOp53
 70
     1
102
RTVSPropertyOp54
 70
     1
102
RTVSPropertyOp55
 70
     1
102
RTVSPropertyOp56
 70
     1
102
RTVSPropertyOp57
 70
     1
102
RTVSPost2010Prop28
280
     0
102
RTVSPost2010PropOp28
 70
     1
102
RTVSPost2010Prop29
280
     1
102
RTVSPost2010PropOp29
 70
     1
102
RTVSPost2010Prop30
280
     1
102
RTVSPost2010PropOp30
 70
     1
102
RTVSPost2010Prop31
280
     0
102
RTVSPost2010PropOp31
 70
     1
102
RTVSPost2010Prop32
280
     0
102
RTVSPost2010PropOp32
 70
     1
102
RTVSPost2010Prop33
280
     0
102
RTVSPost2010PropOp33
 70
     1
102
RTVSPost2010Prop34
280
     0
102
RTVSPost2010PropOp34
 70
     1
102
RTVSPost2010Prop35
280
     0
102
RTVSPost2010PropOp35
 70
     1
102
RTVSPost2010Prop36
280
     0
102
RTVSPost2010PropOp36
 70
     1
102
RTVSPost2010Prop37
 90
       50
102
RTVSPost2010PropOp37
 70
     1
102
RTVSPost2010Prop38
140
0.0
102
RTVSPost2010PropOp38
 70
     1
102
RTVSPost2010Prop39
140
1.0
102
RTVSPost2010PropOp39
 70
     1
102
RTVSPost2010Prop40
 90
        0
102
RTVSPost2010PropOp40
 70
     1
102
RTVSPost2010Prop41ColorIndex
 90
       18
102
RTVSPost2010Prop41ColorRGB
 90
        0
102
RTVSPost2010PropOp41
 70
     1
102
RTVSPost2010Prop42
 90
       50
102
RTVSPost2010PropOp42
 70
     1
102
RTVSPost2010Prop43
 90
        3
102
RTVSPost2010PropOp43
 70
     1
102
RTVSPost2010Prop44ColorIndex
 90
        5
102
RTVSPost2010Prop44ColorRGB
 90
      255
102
RTVSPost2010PropOp44
 70
     1
102
RTVSPost2010Prop45
280
     0
102
RTVSPost2010PropOp45
 70
     1
102
RTVSPost2010Prop46
 90
       50
102
RTVSPost2010PropOp46
 70
     1
102
RTVSPost2010Prop47
 90
       50
102
RTVSPost2010PropOp47
 70
     1
102
RTVSPost2010Prop48
 90
       50
102
RTVSPost2010PropOp48
 70
     1
102
RTVSPost2010Prop49
280
     0
102
RTVSPost2010PropOp49
 70
     1
102
RTVSPost2010Prop50
 90
       50
102
RTVSPost2010PropOp50
 70
     1
102
RTVSPost2010Prop51ColorIndex
 90
      256
102
RTVSPost2010Prop51ColorRGB
 90
-16777216
102
RTVSPost2010PropOp51
 70
     0
102
RTVSPost2010Prop52
140
1.0
102
RTVSPost2010PropOp52
 70
     0
102
RTVSPost2010Prop53
 90
        2
102
RTVSPost2010PropOp53
 70
     1
102
RTVSPost2010Prop54
  1
strokes_ogs.tif
102
RTVSPost2010PropOp54
 70
     1
102
RTVSPost2010Prop55
280
     0
102
RTVSPost2010PropOp55
 70
     1
102
RTVSPost2010Prop56
140
1.0
102
RTVSPost2010PropOp56
 70
     1
102
RTVSPost2010Prop57
140
1.0
102
RTVSPost2010PropOp57
 70
     1
  0
XRECORD
  5
A07
102
{ACAD_REACTORS
330
A06
102
}
330
A06
100
AcDbXrecord
280
     1
102
RTVSPropertyOp0
 70
     1
102
RTVSPropertyOp1
 70
     1
102
RTVSPropertyOp2
 70
     1
102
RTVSPropertyOp3
 70
     1
102
RTVSPropertyOp4
 70
     1
102
RTVSPropertyOp5
 70
     1
102
RTVSPropertyOp6
 70
     1
102
RTVSPropertyOp7
 70
     1
102
RTVSPropertyOp8
 70
     1
102
RTVSPropertyOp9
 70
     1
102
RTVSPropertyOp10
 70
     1
102
RTVSPropertyOp11
 70
     1
102
RTVSPropertyOp12
 70
     1
102
RTVSPropertyOp13
 70
     1
102
RTVSPropertyOp14
 70
     1
102
RTVSPropertyOp15
 70
     1
102
RTVSPropertyOp16
 70
     1
102
RTVSPropertyOp17
 70
     1
102
RTVSPropertyOp18
 70
     1
102
RTVSPropertyOp19
 70
     1
102
RTVSPropertyOp20
 70
     1
102
RTVSPropertyOp21
 70
     1
102
RTVSPropertyOp22
 70
     1
102
RTVSPropertyOp23
 70
     1
102
RTVSPropertyOp24
 70
     1
102
RTVSPropertyOp25
 70
     1
102
RTVSPropertyOp26
 70
     1
102
RTVSPropertyOp27
 70
     1
102
RTVSPropertyOp28
 70
     1
102
RTVSPropertyOp29
 70
     1
102
RTVSPropertyOp30
 70
     1
102
RTVSPropertyOp31
 70
     1
102
RTVSPropertyOp32
 70
     1
102
RTVSPropertyOp33
 70
     1
102
RTVSPropertyOp34
 70
     1
102
RTVSPropertyOp35
 70
     1
102
RTVSPropertyOp36
 70
     1
102
RTVSPropertyOp37
 70
     1
102
RTVSPropertyOp38
 70
     1
102
RTVSPropertyOp39
 70
     1
102
RTVSPropertyOp40
 70
     1
102
RTVSPropertyOp41
 70
     1
102
RTVSPropertyOp42
 70
     1
102
RTVSPropertyOp43
 70
     1
102
RTVSPropertyOp44
 70
     1
102
RTVSPropertyOp45
 70
     1
102
RTVSPropertyOp46
 70
     1
102
RTVSPropertyOp47
 70
     1
102
RTVSPropertyOp48
 70
     1
102
RTVSPropertyOp49
 70
     1
102
RTVSPropertyOp50
 70
     1
102
RTVSPropertyOp51
 70
     0
102
RTVSPropertyOp52
 70
     0
102
RTVSPropertyOp53
 70
     1
102
RTVSPropertyOp54
 70
     1
102
RTVSPropertyOp55
 70
     1
102
RTVSPropertyOp56
 70
     1
102
RTVSPropertyOp57
 70
     1
102
RTVSPost2010Prop28
280
     0
102
RTVSPost2010PropOp28
 70
     1
102
RTVSPost2010Prop29
280
     1
102
RTVSPost2010PropOp29
 70
     1
102
RTVSPost2010Prop30
280
     1
102
RTVSPost2010PropOp30
 70
     1
102
RTVSPost2010Prop31
280
     0
102
RTVSPost2010PropOp31
 70
     1
102
RTVSPost2010Prop32
280
     0
102
RTVSPost2010PropOp32
 70
     1
102
RTVSPost2010Prop33
280
     0
102
RTVSPost2010PropOp33
 70
     1
102
RTVSPost2010Prop34
280
     0
102
RTVSPost2010PropOp34
 70
     1
102
RTVSPost2010Prop35
280
     0
102
RTVSPost2010PropOp35
 70
     1
102
RTVSPost2010Prop36
280
     0
102
RTVSPost2010PropOp36
 70
     1
102
RTVSPost2010Prop37
 90
       50
102
RTVSPost2010PropOp37
 70
     1
102
RTVSPost2010Prop38
140
0.0
102
RTVSPost2010PropOp38
 70
     1
102
RTVSPost2010Prop39
140
1.0
102
RTVSPost2010PropOp39
 70
     1
102
RTVSPost2010Prop40
 90
        0
102
RTVSPost2010PropOp40
 70
     1
102
RTVSPost2010Prop41ColorIndex
 90
       18
102
RTVSPost2010Prop41ColorRGB
 90
        0
102
RTVSPost2010PropOp41
 70
     1
102
RTVSPost2010Prop42
 90
       50
102
RTVSPost2010PropOp42
 70
     1
102
RTVSPost2010Prop43
 90
        3
102
RTVSPost2010PropOp43
 70
     1
102
RTVSPost2010Prop44ColorIndex
 90
        5
102
RTVSPost2010Prop44ColorRGB
 90
      255
102
RTVSPost2010PropOp44
 70
     1
102
RTVSPost2010Prop45
280
     0
102
RTVSPost2010PropOp45
 70
     1
102
RTVSPost2010Prop46
 90
       50
102
RTVSPost2010PropOp46
 70
     1
102
RTVSPost2010Prop47
 90
       50
102
RTVSPost2010PropOp47
 70
     1
102
RTVSPost2010Prop48
 90
       50
102
RTVSPost2010PropOp48
 70
     1
102
RTVSPost2010Prop49
280
     0
102
RTVSPost2010PropOp49
 70
     1
102
RTVSPost2010Prop50
 90
       50
102
RTVSPost2010PropOp50
 70
     1
102
RTVSPost2010Prop51ColorIndex
 90
      256
102
RTVSPost2010Prop51ColorRGB
 90
-16777216
102
RTVSPost2010PropOp51
 70
     0
102
RTVSPost2010Prop52
140
1.0
102
RTVSPost2010PropOp52
 70
     0
102
RTVSPost2010Prop53
 90
        2
102
RTVSPost2010PropOp53
 70
     1
102
RTVSPost2010Prop54
  1
strokes_ogs.tif
102
RTVSPost2010PropOp54
 70
     1
102
RTVSPost2010Prop55
280
     0
102
RTVSPost2010PropOp55
 70
     1
102
RTVSPost2010Prop56
140
1.0
102
RTVSPost2010PropOp56
 70
     1
102
RTVSPost2010Prop57
140
1.0
102
RTVSPost2010PropOp57
 70
     1
  0
XRECORD
  5
A01
102
{ACAD_REACTORS
330
A00
102
}
330
A00
100
AcDbXrecord
280
     1
102
RTVSPropertyOp0
 70
     1
102
RTVSPropertyOp1
 70
     1
102
RTVSPropertyOp2
 70
     1
102
RTVSPropertyOp3
 70
     1
102
RTVSPropertyOp4
 70
     1
102
RTVSPropertyOp5
 70
     1
102
RTVSPropertyOp6
 70
     1
102
RTVSPropertyOp7
 70
     1
102
RTVSPropertyOp8
 70
     1
102
RTVSPropertyOp9
 70
     1
102
RTVSPropertyOp10
 70
     1
102
RTVSPropertyOp11
 70
     1
102
RTVSPropertyOp12
 70
     1
102
RTVSPropertyOp13
 70
     1
102
RTVSPropertyOp14
 70
     1
102
RTVSPropertyOp15
 70
     1
102
RTVSPropertyOp16
 70
     1
102
RTVSPropertyOp17
 70
     1
102
RTVSPropertyOp18
 70
     1
102
RTVSPropertyOp19
 70
     1
102
RTVSPropertyOp20
 70
     1
102
RTVSPropertyOp21
 70
     1
102
RTVSPropertyOp22
 70
     1
102
RTVSPropertyOp23
 70
     1
102
RTVSPropertyOp24
 70
     1
102
RTVSPropertyOp25
 70
     1
102
RTVSPropertyOp26
 70
     1
102
RTVSPropertyOp27
 70
     1
102
RTVSPropertyOp28
 70
     1
102
RTVSPropertyOp29
 70
     1
102
RTVSPropertyOp30
 70
     1
102
RTVSPropertyOp31
 70
     1
102
RTVSPropertyOp32
 70
     1
102
RTVSPropertyOp33
 70
     1
102
RTVSPropertyOp34
 70
     1
102
RTVSPropertyOp35
 70
     1
102
RTVSPropertyOp36
 70
     1
102
RTVSPropertyOp37
 70
     1
102
RTVSPropertyOp38
 70
     1
102
RTVSPropertyOp39
 70
     1
102
RTVSPropertyOp40
 70
     1
102
RTVSPropertyOp41
 70
     1
102
RTVSPropertyOp42
 70
     1
102
RTVSPropertyOp43
 70
     1
102
RTVSPropertyOp44
 70
     1
102
RTVSPropertyOp45
 70
     1
102
RTVSPropertyOp46
 70
     1
102
RTVSPropertyOp47
 70
     1
102
RTVSPropertyOp48
 70
     1
102
RTVSPropertyOp49
 70
     1
102
RTVSPropertyOp50
 70
     1
102
RTVSPropertyOp51
 70
     0
102
RTVSPropertyOp52
 70
     0
102
RTVSPropertyOp53
 70
     1
102
RTVSPropertyOp54
 70
     1
102
RTVSPropertyOp55
 70
     1
102
RTVSPropertyOp56
 70
     1
102
RTVSPropertyOp57
 70
     1
102
RTVSPost2010Prop28
280
     0
102
RTVSPost2010PropOp28
 70
     1
102
RTVSPost2010Prop29
280
     1
102
RTVSPost2010PropOp29
 70
     1
102
RTVSPost2010Prop30
280
     1
102
RTVSPost2010PropOp30
 70
     1
102
RTVSPost2010Prop31
280
     0
102
RTVSPost2010PropOp31
 70
     1
102
RTVSPost2010Prop32
280
     0
102
RTVSPost2010PropOp32
 70
     1
102
RTVSPost2010Prop33
280
     0
102
RTVSPost2010PropOp33
 70
     1
102
RTVSPost2010Prop34
280
     0
102
RTVSPost2010PropOp34
 70
     1
102
RTVSPost2010Prop35
280
     0
102
RTVSPost2010PropOp35
 70
     1
102
RTVSPost2010Prop36
280
     0
102
RTVSPost2010PropOp36
 70
     1
102
RTVSPost2010Prop37
 90
       50
102
RTVSPost2010PropOp37
 70
     1
102
RTVSPost2010Prop38
140
0.0
102
RTVSPost2010PropOp38
 70
     1
102
RTVSPost2010Prop39
140
1.0
102
RTVSPost2010PropOp39
 70
     1
102
RTVSPost2010Prop40
 90
        0
102
RTVSPost2010PropOp40
 70
     1
102
RTVSPost2010Prop41ColorIndex
 90
       18
102
RTVSPost2010Prop41ColorRGB
 90
        0
102
RTVSPost2010PropOp41
 70
     1
102
RTVSPost2010Prop42
 90
       50
102
RTVSPost2010PropOp42
 70
     1
102
RTVSPost2010Prop43
 90
        3
102
RTVSPost2010PropOp43
 70
     1
102
RTVSPost2010Prop44ColorIndex
 90
        5
102
RTVSPost2010Prop44ColorRGB
 90
      255
102
RTVSPost2010PropOp44
 70
     1
102
RTVSPost2010Prop45
280
     0
102
RTVSPost2010PropOp45
 70
     1
102
RTVSPost2010Prop46
 90
       50
102
RTVSPost2010PropOp46
 70
     1
102
RTVSPost2010Prop47
 90
       50
102
RTVSPost2010PropOp47
 70
     1
102
RTVSPost2010Prop48
 90
       50
102
RTVSPost2010PropOp48
 70
     1
102
RTVSPost2010Prop49
280
     0
102
RTVSPost2010PropOp49
 70
     1
102
RTVSPost2010Prop50
 90
       50
102
RTVSPost2010PropOp50
 70
     1
102
RTVSPost2010Prop51ColorIndex
 90
      256
102
RTVSPost2010Prop51ColorRGB
 90
-16777216
102
RTVSPost2010PropOp51
 70
     0
102
RTVSPost2010Prop52
140
1.0
102
RTVSPost2010PropOp52
 70
     0
102
RTVSPost2010Prop53
 90
        2
102
RTVSPost2010PropOp53
 70
     1
102
RTVSPost2010Prop54
  1
strokes_ogs.tif
102
RTVSPost2010PropOp54
 70
     1
102
RTVSPost2010Prop55
280
     0
102
RTVSPost2010PropOp55
 70
     1
102
RTVSPost2010Prop56
140
1.0
102
RTVSPost2010PropOp56
 70
     1
102
RTVSPost2010Prop57
140
1.0
102
RTVSPost2010PropOp57
 70
     1
  0
XRECORD
  5
A03
102
{ACAD_REACTORS
330
A02
102
}
330
A02
100
AcDbXrecord
280
     1
102
RTVSPropertyOp0
 70
     1
102
RTVSPropertyOp1
 70
     1
102
RTVSPropertyOp2
 70
     1
102
RTVSPropertyOp3
 70
     1
102
RTVSPropertyOp4
 70
     1
102
RTVSPropertyOp5
 70
     1
102
RTVSPropertyOp6
 70
     1
102
RTVSPropertyOp7
 70
     1
102
RTVSPropertyOp8
 70
     1
102
RTVSPropertyOp9
 70
     1
102
RTVSPropertyOp10
 70
     1
102
RTVSPropertyOp11
 70
     1
102
RTVSPropertyOp12
 70
     1
102
RTVSPropertyOp13
 70
     1
102
RTVSPropertyOp14
 70
     1
102
RTVSPropertyOp15
 70
     1
102
RTVSPropertyOp16
 70
     1
102
RTVSPropertyOp17
 70
     1
102
RTVSPropertyOp18
 70
     1
102
RTVSPropertyOp19
 70
     1
102
RTVSPropertyOp20
 70
     1
102
RTVSPropertyOp21
 70
     1
102
RTVSPropertyOp22
 70
     1
102
RTVSPropertyOp23
 70
     1
102
RTVSPropertyOp24
 70
     1
102
RTVSPropertyOp25
 70
     1
102
RTVSPropertyOp26
 70
     1
102
RTVSPropertyOp27
 70
     1
102
RTVSPropertyOp28
 70
     1
102
RTVSPropertyOp29
 70
     1
102
RTVSPropertyOp30
 70
     1
102
RTVSPropertyOp31
 70
     1
102
RTVSPropertyOp32
 70
     1
102
RTVSPropertyOp33
 70
     1
102
RTVSPropertyOp34
 70
     1
102
RTVSPropertyOp35
 70
     1
102
RTVSPropertyOp36
 70
     1
102
RTVSPropertyOp37
 70
     1
102
RTVSPropertyOp38
 70
     1
102
RTVSPropertyOp39
 70
     1
102
RTVSPropertyOp40
 70
     1
102
RTVSPropertyOp41
 70
     1
102
RTVSPropertyOp42
 70
     1
102
RTVSPropertyOp43
 70
     1
102
RTVSPropertyOp44
 70
     1
102
RTVSPropertyOp45
 70
     1
102
RTVSPropertyOp46
 70
     1
102
RTVSPropertyOp47
 70
     1
102
RTVSPropertyOp48
 70
     1
102
RTVSPropertyOp49
 70
     1
102
RTVSPropertyOp50
 70
     1
102
RTVSPropertyOp51
 70
     0
102
RTVSPropertyOp52
 70
     0
102
RTVSPropertyOp53
 70
     1
102
RTVSPropertyOp54
 70
     1
102
RTVSPropertyOp55
 70
     1
102
RTVSPropertyOp56
 70
     1
102
RTVSPropertyOp57
 70
     1
102
RTVSPost2010Prop28
280
     0
102
RTVSPost2010PropOp28
 70
     1
102
RTVSPost2010Prop29
280
     1
102
RTVSPost2010PropOp29
 70
     1
102
RTVSPost2010Prop30
280
     1
102
RTVSPost2010PropOp30
 70
     1
102
RTVSPost2010Prop31
280
     0
102
RTVSPost2010PropOp31
 70
     1
102
RTVSPost2010Prop32
280
     0
102
RTVSPost2010PropOp32
 70
     1
102
RTVSPost2010Prop33
280
     0
102
RTVSPost2010PropOp33
 70
     1
102
RTVSPost2010Prop34
280
     0
102
RTVSPost2010PropOp34
 70
     1
102
RTVSPost2010Prop35
280
     0
102
RTVSPost2010PropOp35
 70
     1
102
RTVSPost2010Prop36
280
     0
102
RTVSPost2010PropOp36
 70
     1
102
RTVSPost2010Prop37
 90
       50
102
RTVSPost2010PropOp37
 70
     1
102
RTVSPost2010Prop38
140
0.0
102
RTVSPost2010PropOp38
 70
     1
102
RTVSPost2010Prop39
140
1.0
102
RTVSPost2010PropOp39
 70
     1
102
RTVSPost2010Prop40
 90
        0
102
RTVSPost2010PropOp40
 70
     1
102
RTVSPost2010Prop41ColorIndex
 90
       18
102
RTVSPost2010Prop41ColorRGB
 90
        0
102
RTVSPost2010PropOp41
 70
     1
102
RTVSPost2010Prop42
 90
       50
102
RTVSPost2010PropOp42
 70
     1
102
RTVSPost2010Prop43
 90
        3
102
RTVSPost2010PropOp43
 70
     1
102
RTVSPost2010Prop44ColorIndex
 90
        5
102
RTVSPost2010Prop44ColorRGB
 90
      255
102
RTVSPost2010PropOp44
 70
     1
102
RTVSPost2010Prop45
280
     0
102
RTVSPost2010PropOp45
 70
     1
102
RTVSPost2010Prop46
 90
       50
102
RTVSPost2010PropOp46
 70
     1
102
RTVSPost2010Prop47
 90
       50
102
RTVSPost2010PropOp47
 70
     1
102
RTVSPost2010Prop48
 90
       50
102
RTVSPost2010PropOp48
 70
     1
102
RTVSPost2010Prop49
280
     0
102
RTVSPost2010PropOp49
 70
     1
102
RTVSPost2010Prop50
 90
       50
102
RTVSPost2010PropOp50
 70
     1
102
RTVSPost2010Prop51ColorIndex
 90
      256
102
RTVSPost2010Prop51ColorRGB
 90
-16777216
102
RTVSPost2010PropOp51
 70
     0
102
RTVSPost2010Prop52
140
1.0
102
RTVSPost2010PropOp52
 70
     0
102
RTVSPost2010Prop53
 90
        2
102
RTVSPost2010PropOp53
 70
     1
102
RTVSPost2010Prop54
  1
strokes_ogs.tif
102
RTVSPost2010PropOp54
 70
     1
102
RTVSPost2010Prop55
280
     0
102
RTVSPost2010PropOp55
 70
     1
102
RTVSPost2010Prop56
140
1.0
102
RTVSPost2010PropOp56
 70
     1
102
RTVSPost2010Prop57
140
1.0
102
RTVSPost2010PropOp57
 70
     1
  0
XRECORD
  5
9F3
102
{ACAD_REACTORS
330
9F2
102
}
330
9F2
100
AcDbXrecord
280
     1
102
RTVSPropertyOp0
 70
     1
102
RTVSPropertyOp1
 70
     1
102
RTVSPropertyOp2
 70
     1
102
RTVSPropertyOp3
 70
     1
102
RTVSPropertyOp4
 70
     1
102
RTVSPropertyOp5
 70
     1
102
RTVSPropertyOp6
 70
     1
102
RTVSPropertyOp7
 70
     1
102
RTVSPropertyOp8
 70
     1
102
RTVSPropertyOp9
 70
     1
102
RTVSPropertyOp10
 70
     1
102
RTVSPropertyOp11
 70
     1
102
RTVSPropertyOp12
 70
     1
102
RTVSPropertyOp13
 70
     1
102
RTVSPropertyOp14
 70
     1
102
RTVSPropertyOp15
 70
     1
102
RTVSPropertyOp16
 70
     1
102
RTVSPropertyOp17
 70
     1
102
RTVSPropertyOp18
 70
     1
102
RTVSPropertyOp19
 70
     1
102
RTVSPropertyOp20
 70
     1
102
RTVSPropertyOp21
 70
     1
102
RTVSPropertyOp22
 70
     1
102
RTVSPropertyOp23
 70
     1
102
RTVSPropertyOp24
 70
     1
102
RTVSPropertyOp25
 70
     1
102
RTVSPropertyOp26
 70
     1
102
RTVSPropertyOp27
 70
     1
102
RTVSPropertyOp28
 70
     1
102
RTVSPropertyOp29
 70
     1
102
RTVSPropertyOp30
 70
     1
102
RTVSPropertyOp31
 70
     1
102
RTVSPropertyOp32
 70
     1
102
RTVSPropertyOp33
 70
     1
102
RTVSPropertyOp34
 70
     1
102
RTVSPropertyOp35
 70
     1
102
RTVSPropertyOp36
 70
     1
102
RTVSPropertyOp37
 70
     1
102
RTVSPropertyOp38
 70
     1
102
RTVSPropertyOp39
 70
     1
102
RTVSPropertyOp40
 70
     1
102
RTVSPropertyOp41
 70
     1
102
RTVSPropertyOp42
 70
     1
102
RTVSPropertyOp43
 70
     1
102
RTVSPropertyOp44
 70
     1
102
RTVSPropertyOp45
 70
     1
102
RTVSPropertyOp46
 70
     1
102
RTVSPropertyOp47
 70
     1
102
RTVSPropertyOp48
 70
     1
102
RTVSPropertyOp49
 70
     1
102
RTVSPropertyOp50
 70
     1
102
RTVSPropertyOp51
 70
     0
102
RTVSPropertyOp52
 70
     0
102
RTVSPropertyOp53
 70
     1
102
RTVSPropertyOp54
 70
     1
102
RTVSPropertyOp55
 70
     1
102
RTVSPropertyOp56
 70
     1
102
RTVSPropertyOp57
 70
     1
102
RTVSPost2010Prop28
280
     0
102
RTVSPost2010PropOp28
 70
     1
102
RTVSPost2010Prop29
280
     1
102
RTVSPost2010PropOp29
 70
     1
102
RTVSPost2010Prop30
280
     1
102
RTVSPost2010PropOp30
 70
     1
102
RTVSPost2010Prop31
280
     0
102
RTVSPost2010PropOp31
 70
     1
102
RTVSPost2010Prop32
280
     0
102
RTVSPost2010PropOp32
 70
     1
102
RTVSPost2010Prop33
280
     0
102
RTVSPost2010PropOp33
 70
     1
102
RTVSPost2010Prop34
280
     0
102
RTVSPost2010PropOp34
 70
     1
102
RTVSPost2010Prop35
280
     0
102
RTVSPost2010PropOp35
 70
     1
102
RTVSPost2010Prop36
280
     0
102
RTVSPost2010PropOp36
 70
     1
102
RTVSPost2010Prop37
 90
       50
102
RTVSPost2010PropOp37
 70
     1
102
RTVSPost2010Prop38
140
0.0
102
RTVSPost2010PropOp38
 70
     1
102
RTVSPost2010Prop39
140
1.0
102
RTVSPost2010PropOp39
 70
     1
102
RTVSPost2010Prop40
 90
        0
102
RTVSPost2010PropOp40
 70
     1
102
RTVSPost2010Prop41ColorIndex
 90
       18
102
RTVSPost2010Prop41ColorRGB
 90
        0
102
RTVSPost2010PropOp41
 70
     1
102
RTVSPost2010Prop42
 90
       50
102
RTVSPost2010PropOp42
 70
     1
102
RTVSPost2010Prop43
 90
        3
102
RTVSPost2010PropOp43
 70
     1
102
RTVSPost2010Prop44ColorIndex
 90
        5
102
RTVSPost2010Prop44ColorRGB
 90
      255
102
RTVSPost2010PropOp44
 70
     1
102
RTVSPost2010Prop45
280
     0
102
RTVSPost2010PropOp45
 70
     1
102
RTVSPost2010Prop46
 90
       50
102
RTVSPost2010PropOp46
 70
     1
102
RTVSPost2010Prop47
 90
       50
102
RTVSPost2010PropOp47
 70
     1
102
RTVSPost2010Prop48
 90
       50
102
RTVSPost2010PropOp48
 70
     1
102
RTVSPost2010Prop49
280
     0
102
RTVSPost2010PropOp49
 70
     1
102
RTVSPost2010Prop50
 90
       50
102
RTVSPost2010PropOp50
 70
     1
102
RTVSPost2010Prop51ColorIndex
 90
      256
102
RTVSPost2010Prop51ColorRGB
 90
-16777216
102
RTVSPost2010PropOp51
 70
     0
102
RTVSPost2010Prop52
140
1.0
102
RTVSPost2010PropOp52
 70
     0
102
RTVSPost2010Prop53
 90
        2
102
RTVSPost2010PropOp53
 70
     1
102
RTVSPost2010Prop54
  1
strokes_ogs.tif
102
RTVSPost2010PropOp54
 70
     1
102
RTVSPost2010Prop55
280
     0
102
RTVSPost2010PropOp55
 70
     1
102
RTVSPost2010Prop56
140
1.0
102
RTVSPost2010PropOp56
 70
     1
102
RTVSPost2010Prop57
140
1.0
102
RTVSPost2010PropOp57
 70
     1
  0
XRECORD
  5
9E5
102
{ACAD_REACTORS
330
9E4
102
}
330
9E4
100
AcDbXrecord
280
     1
102
RTVSPropertyOp0
 70
     1
102
RTVSPropertyOp1
 70
     1
102
RTVSPropertyOp2
 70
     1
102
RTVSPropertyOp3
 70
     1
102
RTVSPropertyOp4
 70
     1
102
RTVSPropertyOp5
 70
     1
102
RTVSPropertyOp6
 70
     1
102
RTVSPropertyOp7
 70
     1
102
RTVSPropertyOp8
 70
     1
102
RTVSPropertyOp9
 70
     1
102
RTVSPropertyOp10
 70
     1
102
RTVSPropertyOp11
 70
     1
102
RTVSPropertyOp12
 70
     1
102
RTVSPropertyOp13
 70
     1
102
RTVSPropertyOp14
 70
     1
102
RTVSPropertyOp15
 70
     1
102
RTVSPropertyOp16
 70
     1
102
RTVSPropertyOp17
 70
     1
102
RTVSPropertyOp18
 70
     1
102
RTVSPropertyOp19
 70
     1
102
RTVSPropertyOp20
 70
     1
102
RTVSPropertyOp21
 70
     1
102
RTVSPropertyOp22
 70
     1
102
RTVSPropertyOp23
 70
     1
102
RTVSPropertyOp24
 70
     1
102
RTVSPropertyOp25
 70
     1
102
RTVSPropertyOp26
 70
     1
102
RTVSPropertyOp27
 70
     1
102
RTVSPropertyOp28
 70
     1
102
RTVSPropertyOp29
 70
     1
102
RTVSPropertyOp30
 70
     1
102
RTVSPropertyOp31
 70
     1
102
RTVSPropertyOp32
 70
     1
102
RTVSPropertyOp33
 70
     1
102
RTVSPropertyOp34
 70
     1
102
RTVSPropertyOp35
 70
     1
102
RTVSPropertyOp36
 70
     1
102
RTVSPropertyOp37
 70
     1
102
RTVSPropertyOp38
 70
     1
102
RTVSPropertyOp39
 70
     1
102
RTVSPropertyOp40
 70
     1
102
RTVSPropertyOp41
 70
     1
102
RTVSPropertyOp42
 70
     1
102
RTVSPropertyOp43
 70
     1
102
RTVSPropertyOp44
 70
     1
102
RTVSPropertyOp45
 70
     1
102
RTVSPropertyOp46
 70
     1
102
RTVSPropertyOp47
 70
     1
102
RTVSPropertyOp48
 70
     1
102
RTVSPropertyOp49
 70
     1
102
RTVSPropertyOp50
 70
     1
102
RTVSPropertyOp51
 70
     0
102
RTVSPropertyOp52
 70
     0
102
RTVSPropertyOp53
 70
     1
102
RTVSPropertyOp54
 70
     1
102
RTVSPropertyOp55
 70
     1
102
RTVSPropertyOp56
 70
     1
102
RTVSPropertyOp57
 70
     1
102
RTVSPost2010Prop28
280
     0
102
RTVSPost2010PropOp28
 70
     1
102
RTVSPost2010Prop29
280
     1
102
RTVSPost2010PropOp29
 70
     1
102
RTVSPost2010Prop30
280
     1
102
RTVSPost2010PropOp30
 70
     1
102
RTVSPost2010Prop31
280
     0
102
RTVSPost2010PropOp31
 70
     1
102
RTVSPost2010Prop32
280
     0
102
RTVSPost2010PropOp32
 70
     1
102
RTVSPost2010Prop33
280
     0
102
RTVSPost2010PropOp33
 70
     1
102
RTVSPost2010Prop34
280
     0
102
RTVSPost2010PropOp34
 70
     1
102
RTVSPost2010Prop35
280
     0
102
RTVSPost2010PropOp35
 70
     1
102
RTVSPost2010Prop36
280
     0
102
RTVSPost2010PropOp36
 70
     1
102
RTVSPost2010Prop37
 90
       50
102
RTVSPost2010PropOp37
 70
     1
102
RTVSPost2010Prop38
140
0.0
102
RTVSPost2010PropOp38
 70
     1
102
RTVSPost2010Prop39
140
1.0
102
RTVSPost2010PropOp39
 70
     1
102
RTVSPost2010Prop40
 90
        0
102
RTVSPost2010PropOp40
 70
     1
102
RTVSPost2010Prop41ColorIndex
 90
       18
102
RTVSPost2010Prop41ColorRGB
 90
        0
102
RTVSPost2010PropOp41
 70
     1
102
RTVSPost2010Prop42
 90
       50
102
RTVSPost2010PropOp42
 70
     1
102
RTVSPost2010Prop43
 90
        3
102
RTVSPost2010PropOp43
 70
     1
102
RTVSPost2010Prop44ColorIndex
 90
        5
102
RTVSPost2010Prop44ColorRGB
 90
      255
102
RTVSPost2010PropOp44
 70
     1
102
RTVSPost2010Prop45
280
     0
102
RTVSPost2010PropOp45
 70
     1
102
RTVSPost2010Prop46
 90
       50
102
RTVSPost2010PropOp46
 70
     1
102
RTVSPost2010Prop47
 90
       50
102
RTVSPost2010PropOp47
 70
     1
102
RTVSPost2010Prop48
 90
       50
102
RTVSPost2010PropOp48
 70
     1
102
RTVSPost2010Prop49
280
     0
102
RTVSPost2010PropOp49
 70
     1
102
RTVSPost2010Prop50
 90
       50
102
RTVSPost2010PropOp50
 70
     1
102
RTVSPost2010Prop51ColorIndex
 90
      256
102
RTVSPost2010Prop51ColorRGB
 90
-16777216
102
RTVSPost2010PropOp51
 70
     0
102
RTVSPost2010Prop52
140
1.0
102
RTVSPost2010PropOp52
 70
     0
102
RTVSPost2010Prop53
 90
        2
102
RTVSPost2010PropOp53
 70
     1
102
RTVSPost2010Prop54
  1
strokes_ogs.tif
102
RTVSPost2010PropOp54
 70
     1
102
RTVSPost2010Prop55
280
     0
102
RTVSPost2010PropOp55
 70
     1
102
RTVSPost2010Prop56
140
1.0
102
RTVSPost2010PropOp56
 70
     1
102
RTVSPost2010Prop57
140
1.0
102
RTVSPost2010PropOp57
 70
     1
  0
XRECORD
  5
A05
102
{ACAD_REACTORS
330
A04
102
}
330
A04
100
AcDbXrecord
280
     1
102
RTVSPropertyOp0
 70
     1
102
RTVSPropertyOp1
 70
     1
102
RTVSPropertyOp2
 70
     1
102
RTVSPropertyOp3
 70
     1
102
RTVSPropertyOp4
 70
     1
102
RTVSPropertyOp5
 70
     1
102
RTVSPropertyOp6
 70
     1
102
RTVSPropertyOp7
 70
     1
102
RTVSPropertyOp8
 70
     1
102
RTVSPropertyOp9
 70
     1
102
RTVSPropertyOp10
 70
     1
102
RTVSPropertyOp11
 70
     1
102
RTVSPropertyOp12
 70
     1
102
RTVSPropertyOp13
 70
     1
102
RTVSPropertyOp14
 70
     1
102
RTVSPropertyOp15
 70
     1
102
RTVSPropertyOp16
 70
     1
102
RTVSPropertyOp17
 70
     1
102
RTVSPropertyOp18
 70
     1
102
RTVSPropertyOp19
 70
     1
102
RTVSPropertyOp20
 70
     1
102
RTVSPropertyOp21
 70
     1
102
RTVSPropertyOp22
 70
     1
102
RTVSPropertyOp23
 70
     1
102
RTVSPropertyOp24
 70
     1
102
RTVSPropertyOp25
 70
     1
102
RTVSPropertyOp26
 70
     1
102
RTVSPropertyOp27
 70
     1
102
RTVSPropertyOp28
 70
     1
102
RTVSPropertyOp29
 70
     1
102
RTVSPropertyOp30
 70
     1
102
RTVSPropertyOp31
 70
     1
102
RTVSPropertyOp32
 70
     1
102
RTVSPropertyOp33
 70
     1
102
RTVSPropertyOp34
 70
     1
102
RTVSPropertyOp35
 70
     1
102
RTVSPropertyOp36
 70
     1
102
RTVSPropertyOp37
 70
     1
102
RTVSPropertyOp38
 70
     1
102
RTVSPropertyOp39
 70
     1
102
RTVSPropertyOp40
 70
     1
102
RTVSPropertyOp41
 70
     1
102
RTVSPropertyOp42
 70
     1
102
RTVSPropertyOp43
 70
     1
102
RTVSPropertyOp44
 70
     1
102
RTVSPropertyOp45
 70
     1
102
RTVSPropertyOp46
 70
     1
102
RTVSPropertyOp47
 70
     1
102
RTVSPropertyOp48
 70
     1
102
RTVSPropertyOp49
 70
     1
102
RTVSPropertyOp50
 70
     1
102
RTVSPropertyOp51
 70
     0
102
RTVSPropertyOp52
 70
     0
102
RTVSPropertyOp53
 70
     1
102
RTVSPropertyOp54
 70
     1
102
RTVSPropertyOp55
 70
     1
102
RTVSPropertyOp56
 70
     1
102
RTVSPropertyOp57
 70
     1
102
RTVSPost2010Prop28
280
     0
102
RTVSPost2010PropOp28
 70
     1
102
RTVSPost2010Prop29
280
     1
102
RTVSPost2010PropOp29
 70
     1
102
RTVSPost2010Prop30
280
     1
102
RTVSPost2010PropOp30
 70
     1
102
RTVSPost2010Prop31
280
     0
102
RTVSPost2010PropOp31
 70
     1
102
RTVSPost2010Prop32
280
     0
102
RTVSPost2010PropOp32
 70
     1
102
RTVSPost2010Prop33
280
     0
102
RTVSPost2010PropOp33
 70
     1
102
RTVSPost2010Prop34
280
     0
102
RTVSPost2010PropOp34
 70
     1
102
RTVSPost2010Prop35
280
     0
102
RTVSPost2010PropOp35
 70
     1
102
RTVSPost2010Prop36
280
     0
102
RTVSPost2010PropOp36
 70
     1
102
RTVSPost2010Prop37
 90
       50
102
RTVSPost2010PropOp37
 70
     1
102
RTVSPost2010Prop38
140
0.0
102
RTVSPost2010PropOp38
 70
     1
102
RTVSPost2010Prop39
140
1.0
102
RTVSPost2010PropOp39
 70
     1
102
RTVSPost2010Prop40
 90
        0
102
RTVSPost2010PropOp40
 70
     1
102
RTVSPost2010Prop41ColorIndex
 90
       18
102
RTVSPost2010Prop41ColorRGB
 90
        0
102
RTVSPost2010PropOp41
 70
     1
102
RTVSPost2010Prop42
 90
       50
102
RTVSPost2010PropOp42
 70
     1
102
RTVSPost2010Prop43
 90
        3
102
RTVSPost2010PropOp43
 70
     1
102
RTVSPost2010Prop44ColorIndex
 90
        5
102
RTVSPost2010Prop44ColorRGB
 90
      255
102
RTVSPost2010PropOp44
 70
     1
102
RTVSPost2010Prop45
280
     0
102
RTVSPost2010PropOp45
 70
     1
102
RTVSPost2010Prop46
 90
       50
102
RTVSPost2010PropOp46
 70
     1
102
RTVSPost2010Prop47
 90
       50
102
RTVSPost2010PropOp47
 70
     1
102
RTVSPost2010Prop48
 90
       50
102
RTVSPost2010PropOp48
 70
     1
102
RTVSPost2010Prop49
280
     0
102
RTVSPost2010PropOp49
 70
     1
102
RTVSPost2010Prop50
 90
       50
102
RTVSPost2010PropOp50
 70
     1
102
RTVSPost2010Prop51ColorIndex
 90
      256
102
RTVSPost2010Prop51ColorRGB
 90
-16777216
102
RTVSPost2010PropOp51
 70
     0
102
RTVSPost2010Prop52
140
1.0
102
RTVSPost2010PropOp52
 70
     0
102
RTVSPost2010Prop53
 90
        2
102
RTVSPost2010PropOp53
 70
     1
102
RTVSPost2010Prop54
  1
strokes_ogs.tif
102
RTVSPost2010PropOp54
 70
     1
102
RTVSPost2010Prop55
280
     0
102
RTVSPost2010PropOp55
 70
     1
102
RTVSPost2010Prop56
140
1.0
102
RTVSPost2010PropOp56
 70
     1
102
RTVSPost2010Prop57
140
1.0
102
RTVSPost2010PropOp57
 70
     1
  0
ENDSEC
  0
EOF
