  0
SECTION
  2
HEADER
  9
$ACADVER
  1
AC1009
  9
$INSBASE
 10
0.0
 20
0.0
 30
0.0
  9
$EXTMIN
 10
-3883648.8000429589
 20
-2939188.9728776952
 30
0.0
  9
$EXTMAX
 10
3890511.7540660859
 20
2943259.1797314808
 30
0.0
  9
$LIMMIN
 10
0.0
 20
0.0
  9
$LIMMAX
 10
420.0
 20
297.0
  9
$ORTHOMODE
 70
     0
  9
$REGENMODE
 70
     1
  9
$FILLMODE
 70
     1
  9
$QTEXTMODE
 70
     0
  9
$MIRRTEXT
 70
     0
  9
$DRAGMODE
 70
     2
  9
$LTSCALE
 40
1.0
  9
$OSMODE
 70
  3071
  9
$ATTMODE
 70
     1
  9
$TEXTSIZE
 40
2.5
  9
$TRACEWID
 40
1.0
  9
$TEXTSTYLE
  7
STANDARD
  9
$CLAYER
  8
0
  9
$CELTYPE
  6
BYLAYER
  9
$CECOLOR
 62
     1
  9
$DIMSCALE
 40
1.0
  9
$DIMASZ
 40
2.5
  9
$DIMEXO
 40
0.625
  9
$DIMDLI
 40
3.75
  9
$DIMRND
 40
0.0
  9
$DIMDLE
 40
0.0
  9
$DIMEXE
 40
1.25
  9
$DIMTP
 40
0.0
  9
$DIMTM
 40
0.0
  9
$DIMTXT
 40
2.5
  9
$DIMCEN
 40
2.5
  9
$DIMTSZ
 40
0.0
  9
$DIMTOL
 70
     0
  9
$DIMLIM
 70
     0
  9
$DIMTIH
 70
     0
  9
$DIMTOH
 70
     0
  9
$DIMSE1
 70
     0
  9
$DIMSE2
 70
     0
  9
$DIMTAD
 70
     1
  9
$DIMZIN
 70
     8
  9
$DIMBLK
  1

  9
$DIMASO
 70
     1
  9
$DIMSHO
 70
     1
  9
$DIMPOST
  1

  9
$DIMAPOST
  1

  9
$DIMALT
 70
     0
  9
$DIMALTD
 70
     3
  9
$DIMALTF
 40
0.03937007874016
  9
$DIMLFAC
 40
1.0
  9
$DIMTOFL
 70
     1
  9
$DIMTVP
 40
0.0
  9
$DIMTIX
 70
     0
  9
$DIMSOXD
 70
     0
  9
$DIMSAH
 70
     0
  9
$DIMBLK1
  1

  9
$DIMBLK2
  1

  9
$DIMSTYLE
  2
ISO-25
  9
$DIMCLRD
 70
     0
  9
$DIMCLRE
 70
     0
  9
$DIMCLRT
 70
     0
  9
$DIMTFAC
 40
1.0
  9
$DIMGAP
 40
0.625
  9
$LUNITS
 70
     2
  9
$LUPREC
 70
     4
  9
$SKETCHINC
 40
1.0
  9
$FILLETRAD
 40
3.0
  9
$AUNITS
 70
     0
  9
$AUPREC
 70
     0
  9
$MENU
  1
.
  9
$ELEVATION
 40
0.0
  9
$PELEVATION
 40
0.0
  9
$THICKNESS
 40
0.0
  9
$LIMCHECK
 70
     0
  9
$BLIPMODE
 70
     0
  9
$CHAMFERA
 40
0.0
  9
$CHAMFERB
 40
0.0
  9
$SKPOLY
 70
     0
  9
$TDCREATE
 40
2457453.7122282288
  9
$TDUPDATE
 40
2457453.7247666442
  9
$TDINDWG
 40
0.0125389815
  9
$TDUSRTIMER
 40
0.012538669
  9
$USRTIMER
 70
     1
  9
$ANGBASE
 50
0.0
  9
$ANGDIR
 70
     0
  9
$PDMODE
 70
     0
  9
$PDSIZE
 40
0.0
  9
$PLINEWID
 40
0.0
  9
$COORDS
 70
     1
  9
$SPLFRAME
 70
     0
  9
$SPLINETYPE
 70
     6
  9
$SPLINESEGS
 70
     8
  9
$ATTDIA
 70
     0
  9
$ATTREQ
 70
     1
  9
$HANDLING
 70
     1
  9
$HANDSEED
  5
36A
  9
$SURFTAB1
 70
     6
  9
$SURFTAB2
 70
     6
  9
$SURFTYPE
 70
     6
  9
$SURFU
 70
     6
  9
$SURFV
 70
     6
  9
$UCSNAME
  2

  9
$UCSORG
 10
0.0
 20
0.0
 30
0.0
  9
$UCSXDIR
 10
1.0
 20
0.0
 30
0.0
  9
$UCSYDIR
 10
0.0
 20
1.0
 30
0.0
  9
$PUCSNAME
  2

  9
$PUCSORG
 10
0.0
 20
0.0
 30
0.0
  9
$PUCSXDIR
 10
1.0
 20
0.0
 30
0.0
  9
$PUCSYDIR
 10
0.0
 20
1.0
 30
0.0
  9
$USERI1
 70
     0
  9
$USERI2
 70
     0
  9
$USERI3
 70
     0
  9
$USERI4
 70
     0
  9
$USERI5
 70
     0
  9
$USERR1
 40
0.0
  9
$USERR2
 40
0.0
  9
$USERR3
 40
0.0
  9
$USERR4
 40
0.0
  9
$USERR5
 40
0.0
  9
$WORLDVIEW
 70
     1
  9
$SHADEDGE
 70
     3
  9
$SHADEDIF
 70
    70
  9
$TILEMODE
 70
     1
  9
$MAXACTVP
 70
    64
  9
$PLIMCHECK
 70
     0
  9
$PEXTMIN
 10
0.0
 20
0.0
 30
0.0
  9
$PEXTMAX
 10
0.0
 20
0.0
 30
0.0
  9
$PLIMMIN
 10
0.0
 20
0.0
  9
$PLIMMAX
 10
12.0
 20
9.0
  9
$UNITMODE
 70
     0
  9
$VISRETAIN
 70
     1
  9
$PLINEGEN
 70
     0
  9
$PSLTSCALE
 70
     1
  0
ENDSEC
  0
SECTION
  2
TABLES
  0
TABLE
  2
VPORT
 70
     1
  0
VPORT
  2
*ACTIVE
 70
     0
 10
0.0
 20
0.0
 11
1.0
 21
1.0
 12
3883.6474475596142
 22
1436.380789107305
 13
0.0
 23
0.0
 14
10.0
 24
10.0
 15
10.0
 25
10.0
 16
0.0
 26
0.0
 36
1.0
 17
0.0
 27
0.0
 37
0.0
 40
3089.1299688695308
 41
2.3996175908221788
 42
50.0
 43
0.0
 44
0.0
 50
0.0
 51
0.0
 71
     0
 72
  1000
 73
     1
 74
     3
 75
     0
 76
     0
 77
     0
 78
     0
  0
ENDTAB
  0
TABLE
  2
LTYPE
 70
     1
  0
LTYPE
  2
CONTINUOUS
 70
     0
  3
Solid line
 72
    65
 73
     0
 40
0.0
  0
ENDTAB
  0
TABLE
  2
LAYER
 70
     2
  0
LAYER
  2
0
 70
     0
 62
     7
  6
CONTINUOUS
  0
LAYER
  2
DEFPOINTS
 70
     0
 62
     7
  6
CONTINUOUS
  0
ENDTAB
  0
TABLE
  2
STYLE
 70
     2
  0
STYLE
  2
STANDARD
 70
     0
 40
0.0
 41
1.0
 50
0.0
 71
     0
 42
2.5
  3
txt
  4

  0
STYLE
  2
������������
 70
     0
 40
0.0
 41
1.0
 50
0.0
 71
     0
 42
2.5
  3
txt
  4

  0
ENDTAB
  0
TABLE
  2
VIEW
 70
     0
  0
ENDTAB
  0
TABLE
  2
UCS
 70
     0
  0
ENDTAB
  0
TABLE
  2
APPID
 70
     8
  0
APPID
  2
ACAD
 70
     0
  0
APPID
  2
ACAD_PSEXT
 70
     0
  0
APPID
  2
ACADANNOPO
 70
     0
  0
APPID
  2
ACADANNOTATIVE
 70
     0
  0
APPID
  2
ACAD_DSTYLE_DIMJAG
 70
     0
  0
APPID
  2
ACAD_DSTYLE_DIMTALN
 70
     0
  0
APPID
  2
ACAD_MLEADERVER
 70
     0
  0
APPID
  2
ACAD_DSTYLE_DIMRADIAL_EXTENSION
 70
     0
  0
ENDTAB
  0
TABLE
  2
DIMSTYLE
 70
     3
  0
DIMSTYLE
  2
STANDARD
 70
     0
  3

  4

  5

  6

  7

 40
1.0
 41
0.18
 42
0.0625
 43
0.38
 44
0.18
 45
0.0
 46
0.0
 47
0.0
 48
0.0
140
0.18
141
0.09
142
0.0
143
25.399999999999999
144
1.0
145
0.0
146
1.0
147
0.09
 71
     0
 72
     0
 73
     1
 74
     1
 75
     0
 76
     0
 77
     0
 78
     0
170
     0
171
     2
172
     0
173
     0
174
     0
175
     0
176
     0
177
     0
178
     0
  0
DIMSTYLE
  2
������������
 70
     0
  3

  4

  5

  6

  7

 40
0.0
 41
2.5
 42
0.625
 43
3.75
 44
1.25
 45
0.0
 46
0.0
 47
0.0
 48
0.0
140
2.5
141
2.5
142
0.0
143
0.03937007874016
144
1.0
145
0.0
146
1.0
147
0.625
 71
     0
 72
     0
 73
     0
 74
     0
 75
     0
 76
     0
 77
     1
 78
     8
170
     0
171
     3
172
     1
173
     0
174
     0
175
     0
176
     0
177
     0
178
     0
  0
DIMSTYLE
  2
ISO-25
 70
     0
  3

  4

  5

  6

  7

 40
1.0
 41
2.5
 42
0.625
 43
3.75
 44
1.25
 45
0.0
 46
0.0
 47
0.0
 48
0.0
140
2.5
141
2.5
142
0.0
143
0.03937007874016
144
1.0
145
0.0
146
1.0
147
0.625
 71
     0
 72
     0
 73
     0
 74
     0
 75
     0
 76
     0
 77
     1
 78
     8
170
     0
171
     3
172
     1
173
     0
174
     0
175
     0
176
     0
177
     0
178
     0
  0
ENDTAB
  0
ENDSEC
  0
SECTION
  2
BLOCKS
  0
BLOCK
  8
0
  2
$MODEL_SPACE
 70
     0
 10
0.0
 20
0.0
 30
0.0
  3
$MODEL_SPACE
  1

  0
ENDBLK
  5
21
  8
0
  0
BLOCK
 67
     1
  8
0
  2
$PAPER_SPACE
 70
     0
 10
0.0
 20
0.0
 30
0.0
  3
$PAPER_SPACE
  1

  0
ENDBLK
  5
D5
 67
     1
  8
0
  0
BLOCK
  8
0
 62
     1
  2
*D1
 70
     1
 10
0.0
 20
0.0
 30
0.0
  3
*D1
  1

  0
LINE
  5
215
  8
0
 62
     0
 10
2818.4310120481459
 20
2418.8242593161799
 30
0.0
 11
2818.4310120481459
 21
2837.2163085724069
 31
0.0
  0
LINE
  5
216
  8
0
 62
     0
 10
4134.0364094993447
 20
2418.8242593161799
 30
0.0
 11
4134.0364094993447
 21
2837.2163085724069
 31
0.0
  0
LINE
  5
217
  8
0
 62
     0
 10
2820.9310120481459
 20
2835.9663085724069
 30
0.0
 11
4131.5364094993456
 21
2835.9663085724069
 31
0.0
  0
SOLID
  5
218
  8
0
 62
     0
 10
2820.9310120481459
 20
2836.3829752390739
 30
0.0
 11
2820.9310120481459
 21
2835.5496419057399
 31
0.0
 12
2818.4310120481459
 22
2835.9663085724069
 32
0.0
 13
2818.4310120481459
 23
2835.9663085724069
 33
0.0
  0
SOLID
  5
219
  8
0
 62
     0
 10
4131.5364094993456
 20
2836.3829752390739
 30
0.0
 11
4131.5364094993456
 21
2835.5496419057399
 31
0.0
 12
4134.0364094993447
 22
2835.9663085724069
 32
0.0
 13
4134.0364094993447
 23
2835.9663085724069
 33
0.0
  0
INSERT
  5
21A
  8
0
 62
     1
  2
*U5
 10
0.0
 20
0.0
 30
0.0
  0
POINT
  5
21B
  8
DEFPOINTS
 62
     0
 10
2818.4310120481459
 20
2418.1992593161799
 30
0.0
  0
POINT
  5
21C
  8
DEFPOINTS
 62
     0
 10
4134.0364094993447
 20
2418.1992593161799
 30
0.0
  0
POINT
  5
21D
  8
DEFPOINTS
 62
     0
 10
4134.0364094993447
 20
2835.9663085724069
 30
0.0
  0
ENDBLK
  5
200
  8
0
 62
     1
  0
BLOCK
  8
0
 62
     1
  2
*D2
 70
     1
 10
0.0
 20
0.0
 30
0.0
  3
*D2
  1

  0
LINE
  5
236
  8
0
 62
     0
 10
4615.4370602957752
 20
2021.0361885934831
 30
0.0
 11
4625.0440567772612
 21
2022.4822011496051
 31
0.0
  0
INSERT
  5
237
  8
0
 62
     1
  2
*U6
 10
0.0
 20
0.0
 30
0.0
  0
SOLID
  5
238
  8
0
 62
     0
 10
4624.9820400899034
 20
2022.8942266847359
 30
0.0
 11
4625.106073464618
 21
2022.0701756144731
 31
0.0
 12
4627.5162099880481
 22
2022.854301273753
 32
0.0
 13
4627.5162099880481
 23
2022.854301273753
 33
0.0
  0
ARC
  5
239
  8
0
 62
     0
 10
4587.9617586154463
 20
2016.900699287376
 30
0.0
 40
39.999999999996362
 50
270.89524655489208
 51
10.35020483928915
  0
POINT
  5
23A
  8
DEFPOINTS
 62
     0
 10
4627.5162099880481
 20
2022.854301273753
 30
0.0
  0
POINT
  5
23B
  8
DEFPOINTS
 62
     0
 10
4587.9617586154463
 20
2016.900699287376
 30
0.0
  0
ENDBLK
  5
22E
  8
0
 62
     1
  0
BLOCK
  8
0
 62
     1
  2
*D3
 70
     1
 10
0.0
 20
0.0
 30
0.0
  3
*D3
  1

  0
LINE
  5
24A
  8
0
 62
     0
 10
4642.5011919250128
 20
2045.798346387186
 30
0.0
 11
4674.1155097819283
 21
2062.549151177268
 31
0.0
  0
INSERT
  5
24B
  8
0
 62
     1
  2
*U7
 10
0.0
 20
0.0
 30
0.0
  0
SOLID
  5
24C
  8
0
 62
     0
 10
4673.9204309276984
 20
2062.9173296010558
 30
0.0
 11
4674.3105886361591
 21
2062.1809727534792
 31
0.0
 12
4676.3245803246591
 22
2063.7196243026501
 32
0.0
 13
4676.3245803246591
 23
2063.7196243026501
 33
0.0
  0
ARC
  5
24D
  8
0
 62
     0
 10
4587.9617586154527
 20
2016.9006992873831
 30
0.0
 40
99.999999999989996
 50
270.35809862195691
 51
28.633018148423179
  0
POINT
  5
24E
  8
DEFPOINTS
 62
     0
 10
4676.3245803246591
 20
2063.7196243026501
 30
0.0
  0
POINT
  5
24F
  8
DEFPOINTS
 62
     0
 10
4587.9617586154527
 20
2016.9006992873831
 30
0.0
  0
ENDBLK
  5
242
  8
0
 62
     1
  0
BLOCK
  8
0
 62
     1
  2
*D4
 70
     1
 10
0.0
 20
0.0
 30
0.0
  3
*D4
  1

  0
LINE
  5
270
  8
0
 62
     0
 10
4797.9617586154436
 20
2059.231418841186
 30
0.0
 11
4797.9617586154436
 21
2035.650699287376
 31
0.0
  0
LINE
  5
271
  8
0
 62
     0
 10
4857.9617586154427
 20
2059.231418841186
 30
0.0
 11
4857.9617586154427
 21
2035.650699287376
 31
0.0
  0
LINE
  5
272
  8
0
 62
     0
 10
4800.4617586154436
 20
2036.9006992873769
 30
0.0
 11
4855.4617586154436
 21
2036.9006992873769
 31
0.0
  0
SOLID
  5
273
  8
0
 62
     0
 10
4800.4617586154436
 20
2037.317365954043
 30
0.0
 11
4800.4617586154436
 21
2036.48403262071
 31
0.0
 12
4797.9617586154436
 22
2036.9006992873769
 32
0.0
 13
4797.9617586154436
 23
2036.9006992873769
 33
0.0
  0
SOLID
  5
274
  8
0
 62
     0
 10
4855.4617586154436
 20
2037.317365954043
 30
0.0
 11
4855.4617586154436
 21
2036.48403262071
 31
0.0
 12
4857.9617586154427
 22
2036.9006992873769
 32
0.0
 13
4857.9617586154427
 23
2036.9006992873769
 33
0.0
  0
INSERT
  5
275
  8
0
 62
     1
  2
*U8
 10
0.0
 20
0.0
 30
0.0
  0
POINT
  5
276
  8
DEFPOINTS
 62
     0
 10
4797.9617586154436
 20
2059.856418841186
 30
0.0
  0
POINT
  5
277
  8
DEFPOINTS
 62
     0
 10
4857.9617586154427
 20
2059.856418841186
 30
0.0
  0
POINT
  5
278
  8
DEFPOINTS
 62
     0
 10
4857.9617586154427
 20
2036.9006992873769
 30
0.0
  0
ENDBLK
  5
265
  8
0
 62
     1
  0
BLOCK
  8
0
 62
     1
  2
*U5
 70
     1
 10
0.0
 20
0.0
 30
0.0
  3
*U5
  1

  0
TEXT
  5
339
  8
0
 62
     0
 10
3470.0519235977572
 20
2837.0858515464861
 30
0.0
 40
2.5
  1
1315,61
  0
ENDBLK
  5
33B
  8
0
 62
     1
  0
BLOCK
  8
0
 62
     1
  2
*U6
 70
     1
 10
0.0
 20
0.0
 30
0.0
  3
*U6
  1

  0
TEXT
  5
33D
  8
0
 62
     0
 10
4615.6842296588129
 20
2021.7485450447359
 30
0.0
 40
2.5
  1
R40
 50
8.5597117295051817
  0
ENDBLK
  5
33F
  8
0
 62
     1
  0
BLOCK
  8
0
 62
     1
  2
*U7
 70
     1
 10
0.0
 20
0.0
 30
0.0
  3
*U7
  1

  0
TEXT
  5
341
  8
0
 62
     0
 10
4642.4982749863666
 20
2046.5523595827831
 30
0.0
 40
2.5
  1
R100
 50
27.916820904509489
  0
ENDBLK
  5
343
  8
0
 62
     1
  0
BLOCK
  8
0
 62
     1
  2
*U8
 70
     1
 10
0.0
 20
0.0
 30
0.0
  3
*U8
  1

  0
TEXT
  5
345
  8
0
 62
     0
 10
4826.0373043180352
 20
2037.5683323023829
 30
0.0
 40
2.5
  1
60
  0
ENDBLK
  5
347
  8
0
 62
     1
  0
ENDSEC
  0
SECTION
  2
ENTITIES
  0
POLYLINE
  5
2F5
  8
0
 62
     1
 66
     1
 10
0.0
 20
0.0
 30
0.0
 70
     1
  0
VERTEX
  5
348
  8
0
 62
     1
 10
3841.7861667418838
 20
1168.9452053551199
 30
0.0
  0
VERTEX
  5
349
  8
0
 62
     1
 10
3631.7861667418838
 20
1168.9452053551199
 30
0.0
  0
VERTEX
  5
34A
  8
0
 62
     1
 10
3574.7861667418838
 20
1168.9452053551199
 30
0.0
 42
0.4142135623730951
  0
VERTEX
  5
34B
  8
0
 62
     1
 10
3571.7861667418838
 20
1165.9452053551199
 30
0.0
  0
VERTEX
  5
34C
  8
0
 62
     1
 10
3571.7861667418838
 20
818.94520535512027
 30
0.0
 42
0.4142135623730951
  0
VERTEX
  5
34D
  8
0
 62
     1
 10
3671.7861667418838
 20
718.94520535512027
 30
0.0
  0
VERTEX
  5
34E
  8
0
 62
     1
 10
4053.4856897392242
 20
718.94520535512027
 30
0.0
 42
0.1803074573828711
  0
VERTEX
  5
34F
  8
0
 62
     1
 10
4055.449284577177
 20
719.67710145266199
 30
0.0
 42
0.2996448871388095
  0
VERTEX
  5
350
  8
0
 62
     1
 10
4106.4414189876388
 20
900.42476548454692
 30
0.0
 42
-0.4711833874014225
  0
VERTEX
  5
351
  8
0
 62
     1
 10
4108.9513806254863
 20
904.3117680482078
 30
0.0
 42
0.3328635118887846
  0
VERTEX
  5
352
  8
0
 62
     1
 10
4202.1445288264604
 20
992.78508169036809
 30
0.0
 42
0.3878563673728315
  0
VERTEX
  5
353
  8
0
 62
     1
 10
4199.9570275406977
 20
996.18836325617337
 30
0.0
 42
0.3585306444273431
  0
VERTEX
  5
354
  8
0
 62
     1
 10
4087.3360590540228
 20
944.67826087436367
 30
0.0
 42
-0.5008964893938723
  0
VERTEX
  5
355
  8
0
 62
     1
 10
4082.6162438287411
 20
943.77666343313797
 30
0.0
 42
0.297033811584843
  0
VERTEX
  5
356
  8
0
 62
     1
 10
3961.6542383794158
 20
963.60940673229413
 30
0.0
 42
0.4201758971217103
  0
VERTEX
  5
357
  8
0
 62
     1
 10
3960.1434106775368
 20
959.59904254812875
 30
0.0
 42
0.333209319938122
  0
VERTEX
  5
358
  8
0
 62
     1
 10
4065.1671897824858
 20
903.27661640588497
 30
0.0
 42
-0.4932729266739833
  0
VERTEX
  5
359
  8
0
 62
     1
 10
4068.6000277909311
 20
899.97790485338737
 30
0.0
  0
VERTEX
  5
35A
  8
0
 62
     1
 10
4061.7861667418829
 20
838.94520535512038
 30
0.0
 42
-0.4142135623730955
  0
VERTEX
  5
35B
  8
0
 62
     1
 10
4001.7861667418838
 20
778.94520535512038
 30
0.0
 42
-0.4142135623730951
  0
VERTEX
  5
35C
  8
0
 62
     1
 10
3941.7861667418838
 20
838.94520535512038
 30
0.0
  0
VERTEX
  5
35D
  8
0
 62
     1
 10
3941.7861667418838
 20
1068.9452053551199
 30
0.0
 42
0.4142135623730951
  0
SEQEND
  5
35E
  8
0
 62
     1
  0
POLYLINE
  5
2F6
  8
0
 62
     1
 66
     1
 10
0.0
 20
0.0
 30
0.0
 70
     1
  0
VERTEX
  5
35F
  8
0
 62
     1
 10
3881.7861667418838
 20
988.94520535512038
 30
0.0
 42
0.4142135623730951
  0
VERTEX
  5
360
  8
0
 62
     1
 10
3841.7861667418838
 20
1028.9452053551199
 30
0.0
  0
VERTEX
  5
361
  8
0
 62
     1
 10
3634.7861667418838
 20
1028.9452053551199
 30
0.0
 42
0.4142135623730951
  0
VERTEX
  5
362
  8
0
 62
     1
 10
3631.7861667418838
 20
1025.9452053551199
 30
0.0
  0
VERTEX
  5
363
  8
0
 62
     1
 10
3631.7861667418838
 20
878.94520535512027
 30
0.0
  0
VERTEX
  5
364
  8
0
 62
     1
 10
3631.7861667418838
 20
818.94520535512027
 30
0.0
 42
0.4142135623730951
  0
VERTEX
  5
365
  8
0
 62
     1
 10
3671.7861667418838
 20
778.94520535512038
 30
0.0
  0
VERTEX
  5
366
  8
0
 62
     1
 10
3899.8772644416772
 20
778.94520535512038
 30
0.0
 42
0.762960788913893
  0
VERTEX
  5
367
  8
0
 62
     1
 10
3901.4057925091329
 20
784.52660070395768
 30
0.0
 42
-0.2649997107692706
  0
VERTEX
  5
368
  8
0
 62
     1
 10
3881.7861667418838
 20
818.94520535512027
 30
0.0
  0
SEQEND
  5
369
  8
0
 62
     1
  0
ENDSEC
  0
EOF
