  0
SECTION
  2
ENTITIES
  0
ARC
  8
APS_GEOMETRY
 10
-1765.564819
 20
1032.678833
 40
373.478221
 50
232.805531
 51
254.367169
  0
ARC
  8
APS_GEOMETRY
 10
-1796.781804
 20
992.139086
 40
322.313574
 50
209.066659
 51
232.86951
  0
ARC
  8
APS_GEOMETRY
 10
-2015.135377
 20
870.673075
 40
72.449127
 50
180.696761
 51
208.998682
  0
ARC
  8
APS_GEOMETRY
 10
-2015.352301
 20
870.29779
 40
72.228616
 50
152.041149
 51
180.401177
  0
ARC
  8
APS_GEOMETRY
 10
-2006.304242
 20
865.274203
 40
82.576102
 50
125.987817
 51
151.905717
  0
ARC
  8
APS_GEOMETRY
 10
-1997.895016
 20
853.949403
 40
96.680962
 50
102.764733
 51
126.076507
  0
ARC
  8
APS_GEOMETRY
 10
-1940.336274
 20
604.731115
 40
352.459086
 50
80.717939
 51
102.938976
  0
ARC
  8
APS_GEOMETRY
 10
-1909.005683
 20
790.606413
 40
163.966819
 50
51.564122
 51
81.046281
  0
ARC
  8
APS_GEOMETRY
 10
-1890.393255
 20
813.53349
 40
134.438137
 50
17.989898
 51
51.703419
  0
ARC
  8
APS_GEOMETRY
 10
-2126.875918
 20
739.819698
 40
382.137063
 50
346.613059
 51
17.550957
  0
ARC
  8
APS_GEOMETRY
 10
-2077.45814
 20
729.992449
 40
331.7921
 50
316.550346
 51
346.288187
  0
ARC
  8
APS_GEOMETRY
 10
-2017.466416
 20
676.113577
 40
251.195096
 50
275.229528
 51
316.061674
  0
ARC
  8
APS_GEOMETRY
 10
-2067.947853
 20
1137.856631
 40
715.664154
 50
258.404003
 51
275.884859
  0
ARC
  8
APS_GEOMETRY
 10
-2002.484035
 20
1454.279097
 40
1038.787194
 50
253.886126
 51
258.375116
  0
ARC
  8
APS_GEOMETRY
 10
-2417.879637
 20
13.845262
 40
460.347318
 50
73.974867
 51
100.04252
  0
ARC
  8
APS_GEOMETRY
 10
-3465.355352
 20
5926.817212
 40
5544.687459
 50
278.366164
 51
280.04592
  0
ARC
  8
APS_GEOMETRY
 10
-2714.963458
 20
824.027121
 40
387.017958
 50
254.811449
 51
278.372563
  0
ARC
  8
APS_GEOMETRY
 10
-2724.850628
 20
792.392769
 40
353.900448
 50
229.992892
 51
255.014424
  0
ARC
  8
APS_GEOMETRY
 10
-2841.553358
 20
653.769641
 40
172.694081
 50
201.356272
 51
230.083058
  0
ARC
  8
APS_GEOMETRY
 10
-2858.91747
 20
646.260965
 40
153.789345
 50
170.046151
 51
201.106781
  0
ARC
  8
APS_GEOMETRY
 10
-2849.884157
 20
643.685077
 40
163.134855
 50
139.853404
 51
169.703479
  0
ARC
  8
APS_GEOMETRY
 10
-2685.165828
 20
502.784804
 40
379.89289
 50
107.096686
 51
139.626811
  0
ARC
  8
APS_GEOMETRY
 10
-2790.906575
 20
847.068261
 40
19.737654
 50
85.801631
 51
107.520853
  0
ARC
  8
APS_GEOMETRY
 10
-2790.816077
 20
847.523199
 40
19.277396
 50
63.90491
 51
85.970893
  0
ARC
  8
APS_GEOMETRY
 10
-2789.756948
 20
849.598396
 40
16.947907
 50
39.975203
 51
64.034614
  0
ARC
  8
APS_GEOMETRY
 10
-2787.870252
 20
851.18657
 40
14.481757
 50
13.214368
 51
39.955679
  0
ARC
  8
APS_GEOMETRY
 10
-2786.943583
 20
851.461704
 40
13.516847
 50
344.96644
 51
12.976922
  0
ARC
  8
APS_GEOMETRY
 10
-2788.000051
 20
851.805049
 40
14.626328
 50
318.177639
 51
344.740954
  0
ARC
  8
APS_GEOMETRY
 10
-3689.547384
 20
1649.52253
 40
1218.428735
 50
314.122579
 51
318.492757
  0
ARC
  8
APS_GEOMETRY
 10
-2740.629725
 20
670.077336
 40
145.302089
 50
133.845317
 51
157.640192
  0
ARC
  8
APS_GEOMETRY
 10
-2753.552104
 20
675.724336
 40
131.203419
 50
157.774024
 51
183.256772
  0
ARC
  8
APS_GEOMETRY
 10
-2751.348799
 20
676.340256
 40
133.439056
 50
183.467062
 51
208.662293
  0
ARC
  8
APS_GEOMETRY
 10
-2795.069147
 20
652.603156
 40
83.690823
 50
208.759434
 51
232.173773
  0
ARC
  8
APS_GEOMETRY
 10
-2786.94465
 20
662.909367
 40
96.813982
 50
232.116453
 51
253.350464
  0
ARC
  8
APS_GEOMETRY
 10
-2667.795579
 20
1058.347434
 40
509.812321
 50
253.254472
 51
281.325101
  0
ARC
  8
APS_GEOMETRY
 10
-2409.674495
 20
-231.922137
 40
806.022816
 50
80.357662
 51
101.305021
  0
ARC
  8
APS_GEOMETRY
 10
-2490.48673
 20
-707.35455
 40
1288.274406
 50
72.652514
 51
80.35602
  0
ARC
  8
APS_GEOMETRY
 10
-2030.354495
 20
766.877872
 40
256.097173
 50
252.73382
 51
275.331979
  0
ARC
  8
APS_GEOMETRY
 10
-2028.803577
 20
759.133924
 40
248.243981
 50
275.14166
 51
298.217563
  0
ARC
  8
APS_GEOMETRY
 10
-1973.304552
 20
656.882027
 40
131.903923
 50
297.975785
 51
326.929993
  0
ARC
  8
APS_GEOMETRY
 10
-1956.449295
 20
645.592701
 40
111.619281
 50
327.065102
 51
359.470392
  0
ARC
  8
APS_GEOMETRY
 10
-1872.946941
 20
644.547851
 40
28.112161
 50
0.026746
 51
37.41101
  0
ARC
  8
APS_GEOMETRY
 10
-1877.861058
 20
640.700937
 40
34.352616
 50
37.527978
 51
70.168256
  0
ARC
  8
APS_GEOMETRY
 10
-2588.819938
 20
983.406156
 40
197.845637
 50
116.984553
 51
147.406145
  0
ARC
  8
APS_GEOMETRY
 10
-2572.259082
 20
952.979468
 40
232.476179
 50
89.932715
 51
117.219118
  0
ARC
  8
APS_GEOMETRY
 10
-2596.935875
 20
1186.621787
 40
24.977045
 50
357.323607
 51
26.234101
  0
ARC
  8
APS_GEOMETRY
 10
-2600.006549
 20
1185.020627
 40
28.439312
 50
26.393005
 51
52.885611
  0
ARC
  8
APS_GEOMETRY
 10
-2603.058333
 20
1181.069865
 40
33.431286
 50
52.800485
 51
76.564063
  0
ARC
  8
APS_GEOMETRY
 10
-2611.936021
 20
1144.872459
 40
70.701138
 50
76.382574
 51
102.144819
  0
ARC
  8
APS_GEOMETRY
 10
-2613.369325
 20
1150.053731
 40
65.335025
 50
101.871935
 51
129.040531
  0
ARC
  8
APS_GEOMETRY
 10
-2688.380133
 20
1242.477368
 40
53.697545
 50
283.881835
 51
309.089682
  0
ARC
  8
APS_GEOMETRY
 10
-2689.725263
 20
1247.017645
 40
58.428337
 50
260.277586
 51
284.094175
  0
ARC
  8
APS_GEOMETRY
 10
-2690.502383
 20
1243.732954
 40
55.059991
 50
235.710782
 51
260.497423
  0
ARC
  8
APS_GEOMETRY
 10
-2708.199544
 20
1217.896287
 40
23.743657
 50
206.902547
 51
235.869691
  0
ARC
  8
APS_GEOMETRY
 10
-2710.983343
 20
1216.400768
 40
20.584577
 50
174.802763
 51
206.696373
  0
ARC
  8
APS_GEOMETRY
 10
-2710.315599
 20
1216.191053
 40
21.26909
 50
143.205367
 51
174.403085
  0
ARC
  8
APS_GEOMETRY
 10
-2715.233057
 20
1219.874097
 40
15.125298
 50
118.295301
 51
143.220638
  0
ARC
  8
APS_GEOMETRY
 10
-2714.12769
 20
1217.903371
 40
17.38456
 50
95.724489
 51
118.424291
  0
ARC
  8
APS_GEOMETRY
 10
-2714.01148
 20
1217.311554
 40
17.985106
 50
73.716842
 51
95.904801
  0
ARC
  8
APS_GEOMETRY
 10
-2713.531626
 20
1218.783279
 40
16.437941
 50
50.314248
 51
73.884002
  0
ARC
  8
APS_GEOMETRY
 10
-2711.950371
 20
1220.66448
 40
13.980504
 50
24.098499
 51
50.378085
  0
ARC
  8
APS_GEOMETRY
 10
-2704.188095
 20
1224.151044
 40
5.471179
 50
350.81836
 51
23.95918
  0
ARC
  8
APS_GEOMETRY
 10
-2704.503073
 20
1224.245033
 40
5.797275
 50
318.527174
 51
350.398075
  0
ARC
  8
APS_GEOMETRY
 10
-2695.094715
 20
1215.949828
 40
6.745764
 50
138.658625
 51
164.595746
  0
ARC
  8
APS_GEOMETRY
 10
-2695.576448
 20
1216.106166
 40
6.239851
 50
164.804738
 51
192.137259
  0
ARC
  8
APS_GEOMETRY
 10
-2695.182606
 20
1216.217602
 40
6.648371
 50
192.36252
 51
218.554388
  0
ARC
  8
APS_GEOMETRY
 10
-2694.330817
 20
1216.901478
 40
7.740716
 50
218.583395
 51
242.23072
  0
ARC
  8
APS_GEOMETRY
 10
-2693.807979
 20
1217.85658
 40
8.829434
 50
242.116315
 51
263.764086
  0
ARC
  8
APS_GEOMETRY
 10
-2693.748817
 20
1218.168297
 40
9.145767
 50
263.607768
 51
284.750156
  0
ARC
  8
APS_GEOMETRY
 10
-2697.909852
 20
1234.352829
 40
25.856541
 50
284.535772
 51
309.720979
  0
ARC
  8
APS_GEOMETRY
 10
-2695.270675
 20
1231.221951
 40
21.761833
 50
309.644157
 51
337.927346
  0
ARC
  8
APS_GEOMETRY
 10
-2693.058176
 20
1230.240151
 40
19.342708
 50
338.159654
 51
8.779183
  0
ARC
  8
APS_GEOMETRY
 10
-2708.80879
 20
1227.559697
 40
35.318746
 50
9.176773
 51
41.087661
  0
ARC
  8
APS_GEOMETRY
 10
-2714.183036
 20
1222.852529
 40
42.462956
 50
41.108968
 51
69.292431
  0
ARC
  8
APS_GEOMETRY
 10
-2716.421933
 20
1217.506024
 40
48.256163
 50
69.050521
 51
94.908016
  0
ARC
  8
APS_GEOMETRY
 10
-2715.129938
 20
1197.590847
 40
68.210128
 50
94.558064
 51
124.069316
  0
ARC
  8
APS_GEOMETRY
 10
-2722.00245
 20
1207.393034
 40
56.240796
 50
123.863754
 51
157.483801
  0
ARC
  8
APS_GEOMETRY
 10
-2745.049042
 20
1217.185741
 40
31.201732
 50
157.88899
 51
191.249777
  0
ARC
  8
APS_GEOMETRY
 10
-2742.86651
 20
1217.864853
 40
33.475677
 50
191.661038
 51
223.474861
  0
ARC
  8
APS_GEOMETRY
 10
-2638.063121
 20
1316.13236
 40
177.14242
 50
223.21671
 51
241.891839
  0
ARC
  8
APS_GEOMETRY
 10
-2702.519225
 20
1082.601302
 40
79.582785
 50
103.81422
 51
131.868612
  0
ARC
  8
APS_GEOMETRY
 10
-2711.804475
 20
1092.832651
 40
65.766583
 50
131.793811
 51
163.698462
  0
ARC
  8
APS_GEOMETRY
 10
-2757.137356
 20
1109.77308
 40
17.854535
 50
175.117147
 51
207.485964
  0
ARC
  8
APS_GEOMETRY
 10
-2754.651531
 20
1111.149982
 40
20.695386
 50
207.691382
 51
236.992626
  0
ARC
  8
APS_GEOMETRY
 10
-2752.495811
 20
1114.348253
 40
24.551867
 50
236.839677
 51
262.955397
  0
LINE
  8
APS_GEOMETRY
 10
-2140.828747
 11
-2066.998489
 20
1139.941308
 21
1222.806303
  0
ARC
  8
APS_GEOMETRY
 10
-2065.24597
 20
1221.226384
 40
2.359549
 50
113.898462
 51
137.964927
  0
ARC
  8
APS_GEOMETRY
 10
-2065.115413
 20
1220.947902
 40
2.667054
 50
91.873428
 51
114.039075
  0
ARC
  8
APS_GEOMETRY
 10
-2065.106191
 20
1220.91767
 40
2.697583
 50
70.051303
 51
92.048212
  0
ARC
  8
APS_GEOMETRY
 10
-2065.007733
 20
1221.170001
 40
2.42681
 50
46.587526
 51
70.203837
  0
LINE
  8
APS_GEOMETRY
 10
-2063.339918
 11
-2001.72265
 20
1222.932896
 21
1163.995229
  0
ARC
  8
APS_GEOMETRY
 10
-2000.063518
 20
1165.746108
 40
2.412114
 50
226.541197
 51
248.286092
  0
ARC
  8
APS_GEOMETRY
 10
-1999.959891
 20
1165.991899
 40
2.678809
 50
248.171918
 51
268.439744
  0
ARC
  8
APS_GEOMETRY
 10
-1999.952889
 20
1166.015107
 40
2.702207
 50
268.304736
 51
288.454702
  0
ARC
  8
APS_GEOMETRY
 10
-1999.873303
 20
1165.793046
 40
2.466378
 50
288.333924
 51
309.756677
  0
LINE
  8
APS_GEOMETRY
 10
-1998.295984
 11
-1913.831754
 20
1163.896976
 21
1234.788308
  0
ARC
  8
APS_GEOMETRY
 10
-1912.24121
 20
1232.87105
 40
2.491126
 50
104.929502
 51
129.678873
  0
ARC
  8
APS_GEOMETRY
 10
-1912.172927
 20
1232.651288
 40
2.721077
 50
81.803301
 51
105.126595
  0
ARC
  8
APS_GEOMETRY
 10
-1912.144966
 20
1232.779462
 40
2.590243
 50
57.902609
 51
82.011258
  0
ARC
  8
APS_GEOMETRY
 10
-1911.941388
 20
1233.094659
 40
2.215057
 50
31.247551
 51
58.031334
  0
LINE
  8
APS_GEOMETRY
 10
-1910.04766
 11
-1859.829886
 20
1234.243691
 21
1150.153881
  0
ARC
  8
APS_GEOMETRY
 10
-1861.46786
 20
1149.165935
 40
1.91285
 50
3.549491
 51
31.096323
  0
ARC
  8
APS_GEOMETRY
 10
-1861.433284
 20
1149.177107
 40
1.877671
 50
335.381681
 51
3.274574
  0
ARC
  8
APS_GEOMETRY
 10
-1861.648292
 20
1149.281966
 40
2.116824
 50
309.492989
 51
335.225735
  0
LINE
  8
APS_GEOMETRY
 10
-1860.302026
 11
-1955.396678
 20
1147.648408
 21
1068.29814
  0
ARC
  8
APS_GEOMETRY
 10
-1956.972511
 20
1070.204344
 40
2.47323
 50
287.573575
 51
309.58007
  0
ARC
  8
APS_GEOMETRY
 10
-1957.049273
 20
1070.425914
 40
2.707643
 50
266.997274
 51
287.706479
  0
ARC
  8
APS_GEOMETRY
 10
-1957.058355
 20
1070.383162
 40
2.664482
 50
246.210479
 51
267.144137
  0
ARC
  8
APS_GEOMETRY
 10
-1957.179771
 20
1070.119994
 40
2.374703
 50
223.714554
 51
246.329757
  0
LINE
  8
APS_GEOMETRY
 10
-1958.896186
 11
-2007.447101
 20
1068.478917
 21
1119.783889
  0
ARC
  8
APS_GEOMETRY
 10
-2009.16019
 20
1118.146942
 40
2.369445
 50
43.697981
 51
65.658087
  0
ARC
  8
APS_GEOMETRY
 10
-2009.282783
 20
1117.888015
 40
2.655889
 50
65.55085
 51
85.892545
  0
ARC
  8
APS_GEOMETRY
 10
-2009.293366
 20
1117.82905
 40
2.715468
 50
85.758944
 51
105.800247
  0
ARC
  8
APS_GEOMETRY
 10
-2009.355134
 20
1118.027373
 40
2.507826
 50
105.6761
 51
126.815696
  0
ARC
  8
APS_GEOMETRY
 10
-2009.558881
 20
1118.295626
 40
2.170978
 50
126.753293
 51
150.041179
  0
LINE
  8
APS_GEOMETRY
 10
-2011.439783
 11
-2047.20051
 20
1119.379764
 21
1056.591456
  0
ARC
  8
APS_GEOMETRY
 10
-2049.108186
 20
1057.69686
 40
2.204801
 50
302.213346
 51
329.90983
  0
ARC
  8
APS_GEOMETRY
 10
-2049.319495
 20
1058.020474
 40
2.591252
 50
277.50754
 51
302.35202
  0
ARC
  8
APS_GEOMETRY
 10
-2049.346812
 20
1058.144924
 40
2.718225
 50
253.677665
 51
277.735665
  0
ARC
  8
APS_GEOMETRY
 10
-2049.426371
 20
1057.905819
 40
2.466415
 50
228.206876
 51
253.890329
  0
LINE
  8
APS_GEOMETRY
 10
-2051.070096
 11
-2140.661301
 20
1056.066969
 21
1137.176479
  0
ARC
  8
APS_GEOMETRY
 10
-2139.28442
 20
1138.720136
 40
2.068496
 50
199.298161
 51
228.268289
  0
ARC
  8
APS_GEOMETRY
 10
-2139.478528
 20
1138.642843
 40
1.859771
 50
167.904475
 51
199.027052
  0
ARC
  8
APS_GEOMETRY
 10
-2139.34745
 20
1138.603005
 40
1.996321
 50
137.903237
 51
167.574796
  0
ARC
  8
APS_GEOMETRY
 10
-1953.561394
 20
797.191847
 40
91.286038
 50
93.74176
 51
114.583079
  0
ARC
  8
APS_GEOMETRY
 10
-1953.202915
 20
795.296108
 40
93.201424
 50
73.332592
 51
93.885612
  0
ARC
  8
APS_GEOMETRY
 10
-1950.826281
 20
802.546012
 40
85.574691
 50
51.700137
 51
73.464758
  0
ARC
  8
APS_GEOMETRY
 10
-1943.404858
 20
811.820486
 40
73.6967
 50
27.698245
 51
51.759271
  0
ARC
  8
APS_GEOMETRY
 10
-1891.021648
 20
839.339779
 40
14.524826
 50
357.773483
 51
27.629998
  0
ARC
  8
APS_GEOMETRY
 10
-1891.22048
 20
839.434885
 40
14.727462
 50
327.854587
 51
357.433815
  0
ARC
  8
APS_GEOMETRY
 10
-1893.258006
 20
840.754538
 40
17.154816
 50
301.05113
 51
327.743549
  0
ARC
  8
APS_GEOMETRY
 10
-1894.773836
 20
843.181039
 40
20.015542
 50
277.123027
 51
301.185748
  0
ARC
  8
APS_GEOMETRY
 10
-1909.574774
 20
957.301517
 40
135.091641
 50
251.468414
 51
277.350247
  0
ARC
  8
APS_GEOMETRY
 10
-1914.782204
 20
943.450791
 40
120.305221
 50
223.739847
 51
251.723343
  0
ARC
  8
APS_GEOMETRY
 10
-1986.742189
 20
864.566184
 40
15.562637
 50
167.048897
 51
196.01141
  0
ARC
  8
APS_GEOMETRY
 10
-1985.645443
 20
864.235582
 40
16.705753
 50
139.173297
 51
166.786902
  0
ARC
  8
APS_GEOMETRY
 10
-1983.410953
 20
862.298653
 40
19.662883
 50
114.411925
 51
139.159295
  0
ARC
  8
APS_GEOMETRY
 10
-3490.386477
 20
1145.632736
 40
340.216108
 50
9.366263
 51
33.425697
  0
ARC
  8
APS_GEOMETRY
 10
-3463.318445
 20
1164.050378
 40
307.479997
 50
33.339828
 51
59.094919
  0
ARC
  8
APS_GEOMETRY
 10
-3307.182004
 20
1424.87565
 40
3.492481
 50
59.155707
 51
86.435414
  0
ARC
  8
APS_GEOMETRY
 10
-3307.168661
 20
1424.91908
 40
3.448322
 50
86.611817
 51
114.124789
  0
ARC
  8
APS_GEOMETRY
 10
-3307.046561
 20
1424.662236
 40
3.732644
 50
114.223898
 51
140.315168
  0
ARC
  8
APS_GEOMETRY
 10
-3306.725127
 20
1424.390191
 40
4.153729
 50
140.258595
 51
164.541188
  0
ARC
  8
APS_GEOMETRY
 10
-3306.490584
 20
1424.315041
 40
4.399829
 50
164.412077
 51
187.767724
  0
ARC
  8
APS_GEOMETRY
 10
-3306.617168
 20
1424.287541
 40
4.270702
 50
187.631699
 51
211.463228
  0
ARC
  8
APS_GEOMETRY
 10
-3969.415259
 20
1124.370042
 40
723.259343
 50
341.910518
 51
24.304937
  0
ARC
  8
APS_GEOMETRY
 10
-2624.005613
 20
684.895733
 40
692.108024
 50
161.910518
 51
182.766512
  0
ARC
  8
APS_GEOMETRY
 10
-2842.91474
 20
674.317542
 40
472.943465
 50
182.766512
 51
209.846142
  0
ARC
  8
APS_GEOMETRY
 10
-3123.100274
 20
513.460434
 40
149.866196
 50
209.81512
 51
233.424168
  0
ARC
  8
APS_GEOMETRY
 10
-3131.354639
 20
502.40638
 40
136.070373
 50
233.441796
 51
258.628909
  0
ARC
  8
APS_GEOMETRY
 10
-3157.515599
 20
372.362757
 40
3.421447
 50
258.757634
 51
283.330018
  0
ARC
  8
APS_GEOMETRY
 10
-3157.556682
 20
372.506996
 40
3.571278
 50
283.437842
 51
307.315955
  0
ARC
  8
APS_GEOMETRY
 10
-3157.768432
 20
372.783499
 40
3.919548
 50
307.327448
 51
329.762906
  0
ARC
  8
APS_GEOMETRY
 10
-3158.068918
 20
372.964541
 40
4.270325
 50
329.694584
 51
350.873962
  0
ARC
  8
APS_GEOMETRY
 10
-3158.202585
 20
372.99339
 40
4.406881
 50
350.779273
 51
11.513424
  0
ARC
  8
APS_GEOMETRY
 10
-3158.03911
 20
373.033754
 40
4.238645
 50
11.419835
 51
32.705749
  0
ARC
  8
APS_GEOMETRY
 10
-2547.54428
 20
671.355988
 40
675.27533
 50
167.160071
 51
206.001017
  0
ARC
  8
APS_GEOMETRY
 10
-102045.643103
 20
23349.698974
 40
101374.609088
 50
347.160071
 51
347.277735
  0
ARC
  8
APS_GEOMETRY
 10
-3609.57265
 20
1125.973689
 40
461.012721
 50
347.277735
 51
9.366263
  0
ARC
  8
APS_GEOMETRY
 10
-1750.709641
 20
1061.311665
 40
340.216108
 50
9.366263
 51
33.425697
  0
ARC
  8
APS_GEOMETRY
 10
-1723.64161
 20
1079.729307
 40
307.479997
 50
33.339828
 51
59.094919
  0
ARC
  8
APS_GEOMETRY
 10
-1567.505168
 20
1340.554579
 40
3.492481
 50
59.155707
 51
86.435414
  0
ARC
  8
APS_GEOMETRY
 10
-1567.491825
 20
1340.598009
 40
3.448322
 50
86.611817
 51
114.124789
  0
ARC
  8
APS_GEOMETRY
 10
-1567.369725
 20
1340.341165
 40
3.732644
 50
114.223898
 51
140.315168
  0
ARC
  8
APS_GEOMETRY
 10
-1567.048292
 20
1340.06912
 40
4.153729
 50
140.258595
 51
164.541188
  0
ARC
  8
APS_GEOMETRY
 10
-1566.813749
 20
1339.99397
 40
4.399829
 50
164.412077
 51
187.767724
  0
ARC
  8
APS_GEOMETRY
 10
-1566.940333
 20
1339.96647
 40
4.270702
 50
187.631699
 51
211.463228
  0
ARC
  8
APS_GEOMETRY
 10
-2229.738423
 20
1040.048971
 40
723.259343
 50
341.910518
 51
24.304937
  0
ARC
  8
APS_GEOMETRY
 10
-884.328777
 20
600.574662
 40
692.108024
 50
161.910518
 51
182.766512
  0
ARC
  8
APS_GEOMETRY
 10
-1103.237904
 20
589.996471
 40
472.943465
 50
182.766512
 51
209.846142
  0
ARC
  8
APS_GEOMETRY
 10
-1383.423438
 20
429.139363
 40
149.866196
 50
209.81512
 51
233.424168
  0
ARC
  8
APS_GEOMETRY
 10
-1391.677803
 20
418.085309
 40
136.070373
 50
233.441796
 51
258.628909
  0
ARC
  8
APS_GEOMETRY
 10
-1417.838763
 20
288.041686
 40
3.421447
 50
258.757634
 51
283.330018
  0
ARC
  8
APS_GEOMETRY
 10
-1417.879846
 20
288.185924
 40
3.571278
 50
283.437842
 51
307.315955
  0
ARC
  8
APS_GEOMETRY
 10
-1418.091596
 20
288.462428
 40
3.919548
 50
307.327448
 51
329.762906
  0
ARC
  8
APS_GEOMETRY
 10
-1418.392083
 20
288.64347
 40
4.270325
 50
329.694584
 51
350.873962
  0
ARC
  8
APS_GEOMETRY
 10
-1418.525749
 20
288.672318
 40
4.406881
 50
350.779273
 51
11.513424
  0
ARC
  8
APS_GEOMETRY
 10
-1418.362274
 20
288.712683
 40
4.238645
 50
11.419835
 51
32.705749
  0
ARC
  8
APS_GEOMETRY
 10
-807.867444
 20
587.034917
 40
675.27533
 50
167.160071
 51
206.001017
  0
ARC
  8
APS_GEOMETRY
 10
-100305.966267
 20
23265.377902
 40
101374.609088
 50
347.160071
 51
347.277735
  0
ARC
  8
APS_GEOMETRY
 10
-1869.895814
 20
1041.652618
 40
461.012721
 50
347.277735
 51
9.366263
  0
ENDSEC
  0
EOF
