  0
SECTION
  2
HEADER
  9
$ACADVER
  1
AC1021
  9
$ACADMAINTVER
 70
    25
  9
$DWGCODEPAGE
  3
ANSI_1252
  9
$INSBASE
 10
0.0
 20
0.0
 30
0.0
  9
$EXTMIN
 10
-807.7515
 20
259.4815
 30
0.0
  9
$EXTMAX
 10
-784.2485
 20
272.2515
 30
0.0
  9
$LIMMIN
 10
0.0
 20
0.0
  9
$LIMMAX
 10
12.0
 20
9.0
  9
$ORTHOMODE
 70
     0
  9
$REGENMODE
 70
     1
  9
$FILLMODE
 70
     1
  9
$QTEXTMODE
 70
     0
  9
$MIRRTEXT
 70
     1
  9
$LTSCALE
 40
1.0
  9
$ATTMODE
 70
     1
  9
$TEXTSIZE
 40
0.2
  9
$TRACEWID
 40
0.05
  9
$TEXTSTYLE
  7
Standard
  9
$CLAYER
  8
0
  9
$CELTYPE
  6
ByLayer
  9
$CECOLOR
 62
   256
  9
$CELTSCALE
 40
1.0
  9
$DISPSILH
 70
     0
  9
$DIMSCALE
 40
1.0
  9
$DIMASZ
 40
0.18
  9
$DIMEXO
 40
0.0625
  9
$DIMDLI
 40
0.38
  9
$DIMRND
 40
0.0
  9
$DIMDLE
 40
0.0
  9
$DIMEXE
 40
0.18
  9
$DIMTP
 40
0.0
  9
$DIMTM
 40
0.0
  9
$DIMTXT
 40
0.18
  9
$DIMCEN
 40
0.09
  9
$DIMTSZ
 40
0.0
  9
$DIMTOL
 70
     0
  9
$DIMLIM
 70
     0
  9
$DIMTIH
 70
     1
  9
$DIMTOH
 70
     1
  9
$DIMSE1
 70
     0
  9
$DIMSE2
 70
     0
  9
$DIMTAD
 70
     0
  9
$DIMZIN
 70
     0
  9
$DIMBLK
  1

  9
$DIMASO
 70
     1
  9
$DIMSHO
 70
     1
  9
$DIMPOST
  1

  9
$DIMAPOST
  1

  9
$DIMALT
 70
     0
  9
$DIMALTD
 70
     2
  9
$DIMALTF
 40
25.4
  9
$DIMLFAC
 40
1.0
  9
$DIMTOFL
 70
     0
  9
$DIMTVP
 40
0.0
  9
$DIMTIX
 70
     0
  9
$DIMSOXD
 70
     0
  9
$DIMSAH
 70
     0
  9
$DIMBLK1
  1

  9
$DIMBLK2
  1

  9
$DIMSTYLE
  2
Standard
  9
$DIMCLRD
 70
     0
  9
$DIMCLRE
 70
     0
  9
$DIMCLRT
 70
     0
  9
$DIMTFAC
 40
1.0
  9
$DIMGAP
 40
0.09
  9
$DIMJUST
 70
     0
  9
$DIMSD1
 70
     0
  9
$DIMSD2
 70
     0
  9
$DIMTOLJ
 70
     1
  9
$DIMTZIN
 70
     0
  9
$DIMALTZ
 70
     0
  9
$DIMALTTZ
 70
     0
  9
$DIMUPT
 70
     0
  9
$DIMDEC
 70
     4
  9
$DIMTDEC
 70
     4
  9
$DIMALTU
 70
     2
  9
$DIMALTTD
 70
     2
  9
$DIMTXSTY
  7
Standard
  9
$DIMAUNIT
 70
     0
  9
$DIMADEC
 70
     0
  9
$DIMALTRND
 40
0.0
  9
$DIMAZIN
 70
     0
  9
$DIMDSEP
 70
    46
  9
$DIMATFIT
 70
     3
  9
$DIMFRAC
 70
     0
  9
$DIMLDRBLK
  1

  9
$DIMLUNIT
 70
     2
  9
$DIMLWD
 70
    -2
  9
$DIMLWE
 70
    -2
  9
$DIMTMOVE
 70
     0
  9
$DIMFXL
 40
1.0
  9
$DIMFXLON
 70
     0
  9
$DIMJOGANG
 40
0.7853981633974483
  9
$DIMTFILL
 70
     0
  9
$DIMTFILLCLR
 70
     0
  9
$DIMARCSYM
 70
     0
  9
$DIMLTYPE
  6

  9
$DIMLTEX1
  6

  9
$DIMLTEX2
  6

  9
$LUNITS
 70
     2
  9
$LUPREC
 70
     4
  9
$SKETCHINC
 40
0.1
  9
$FILLETRAD
 40
0.5
  9
$AUNITS
 70
     0
  9
$AUPREC
 70
     0
  9
$MENU
  1
.
  9
$ELEVATION
 40
0.0
  9
$PELEVATION
 40
0.0
  9
$THICKNESS
 40
0.0
  9
$LIMCHECK
 70
     0
  9
$CHAMFERA
 40
0.0
  9
$CHAMFERB
 40
0.0
  9
$CHAMFERC
 40
0.0
  9
$CHAMFERD
 40
0.0
  9
$SKPOLY
 70
     0
  9
$TDCREATE
 40
2457704.691186493
  9
$TDUCREATE
 40
2457704.941186493
  9
$TDUPDATE
 40
2457704.691186504
  9
$TDUUPDATE
 40
2457704.941186504
  9
$TDINDWG
 40
0.0000000116
  9
$TDUSRTIMER
 40
0.0000000116
  9
$USRTIMER
 70
     1
  9
$ANGBASE
 50
0.0
  9
$ANGDIR
 70
     0
  9
$PDMODE
 70
     0
  9
$PDSIZE
 40
0.0
  9
$PLINEWID
 40
0.0
  9
$SPLFRAME
 70
     0
  9
$SPLINETYPE
 70
     6
  9
$SPLINESEGS
 70
     8
  9
$HANDSEED
  5
DB
  9
$SURFTAB1
 70
     6
  9
$SURFTAB2
 70
     6
  9
$SURFTYPE
 70
     6
  9
$SURFU
 70
     6
  9
$SURFV
 70
     6
  9
$UCSBASE
  2

  9
$UCSNAME
  2

  9
$UCSORG
 10
0.0
 20
0.0
 30
0.0
  9
$UCSXDIR
 10
1.0
 20
0.0
 30
0.0
  9
$UCSYDIR
 10
0.0
 20
1.0
 30
0.0
  9
$UCSORTHOREF
  2

  9
$UCSORTHOVIEW
 70
     0
  9
$UCSORGTOP
 10
0.0
 20
0.0
 30
0.0
  9
$UCSORGBOTTOM
 10
0.0
 20
0.0
 30
0.0
  9
$UCSORGLEFT
 10
0.0
 20
0.0
 30
0.0
  9
$UCSORGRIGHT
 10
0.0
 20
0.0
 30
0.0
  9
$UCSORGFRONT
 10
0.0
 20
0.0
 30
0.0
  9
$UCSORGBACK
 10
0.0
 20
0.0
 30
0.0
  9
$PUCSBASE
  2

  9
$PUCSNAME
  2

  9
$PUCSORG
 10
0.0
 20
0.0
 30
0.0
  9
$PUCSXDIR
 10
1.0
 20
0.0
 30
0.0
  9
$PUCSYDIR
 10
0.0
 20
1.0
 30
0.0
  9
$PUCSORTHOREF
  2

  9
$PUCSORTHOVIEW
 70
     0
  9
$PUCSORGTOP
 10
0.0
 20
0.0
 30
0.0
  9
$PUCSORGBOTTOM
 10
0.0
 20
0.0
 30
0.0
  9
$PUCSORGLEFT
 10
0.0
 20
0.0
 30
0.0
  9
$PUCSORGRIGHT
 10
0.0
 20
0.0
 30
0.0
  9
$PUCSORGFRONT
 10
0.0
 20
0.0
 30
0.0
  9
$PUCSORGBACK
 10
0.0
 20
0.0
 30
0.0
  9
$USERI1
 70
     0
  9
$USERI2
 70
     0
  9
$USERI3
 70
     0
  9
$USERI4
 70
     0
  9
$USERI5
 70
     0
  9
$USERR1
 40
0.0
  9
$USERR2
 40
0.0
  9
$USERR3
 40
0.0
  9
$USERR4
 40
0.0
  9
$USERR5
 40
0.0
  9
$WORLDVIEW
 70
     1
  9
$SHADEDGE
 70
     3
  9
$SHADEDIF
 70
    70
  9
$TILEMODE
 70
     1
  9
$MAXACTVP
 70
    64
  9
$PINSBASE
 10
0.0
 20
0.0
 30
0.0
  9
$PLIMCHECK
 70
     0
  9
$PEXTMIN
 10
1.000000000000000E 20
 20
1.000000000000000E 20
 30
1.000000000000000E 20
  9
$PEXTMAX
 10
-1.000000000000000E 20
 20
-1.000000000000000E 20
 30
-1.000000000000000E 20
  9
$PLIMMIN
 10
0.0
 20
0.0
  9
$PLIMMAX
 10
12.0
 20
9.0
  9
$UNITMODE
 70
     0
  9
$VISRETAIN
 70
     1
  9
$PLINEGEN
 70
     0
  9
$PSLTSCALE
 70
     1
  9
$TREEDEPTH
 70
  3020
  9
$CMLSTYLE
  2
Standard
  9
$CMLJUST
 70
     0
  9
$CMLSCALE
 40
1.0
  9
$PROXYGRAPHICS
 70
     1
  9
$MEASUREMENT
 70
     0
  9
$CELWEIGHT
370
    -1
  9
$ENDCAPS
280
     0
  9
$JOINSTYLE
280
     0
  9
$LWDISPLAY
290
     0
  9
$INSUNITS
 70
     1
  9
$HYPERLINKBASE
  1

  9
$STYLESHEET
  1

  9
$XEDIT
290
     1
  9
$CEPSNTYPE
380
     0
  9
$PSTYLEMODE
290
     1
  9
$FINGERPRINTGUID
  2
{62E46CA3-9EDA-4369-A049-A722273AE4BB}
  9
$VERSIONGUID
  2
{FAEB1C32-E019-11D5-929B-00C0DF256EC4}
  9
$EXTNAMES
290
     1
  9
$PSVPSCALE
 40
0.0
  9
$OLESTARTUP
290
     0
  9
$SORTENTS
280
   127
  9
$INDEXCTL
280
     0
  9
$HIDETEXT
280
     1
  9
$XCLIPFRAME
290
     0
  9
$HALOGAP
280
     0
  9
$OBSCOLOR
 70
   257
  9
$OBSLTYPE
280
     0
  9
$INTERSECTIONDISPLAY
280
     0
  9
$INTERSECTIONCOLOR
 70
   257
  9
$DIMASSOC
280
     2
  9
$PROJECTNAME
  1

  9
$CAMERADISPLAY
290
     0
  9
$LENSLENGTH
 40
50.0
  9
$CAMERAHEIGHT
 40
0.0
  9
$STEPSPERSEC
 40
2.0
  9
$STEPSIZE
 40
6.0
  9
$3DDWFPREC
 40
2.0
  9
$PSOLWIDTH
 40
0.25
  9
$PSOLHEIGHT
 40
4.0
  9
$LOFTANG1
 40
1.570796326794897
  9
$LOFTANG2
 40
1.570796326794897
  9
$LOFTMAG1
 40
0.0
  9
$LOFTMAG2
 40
0.0
  9
$LOFTPARAM
 70
     7
  9
$LOFTNORMALS
280
     1
  9
$LATITUDE
 40
37.795
  9
$LONGITUDE
 40
-122.394
  9
$NORTHDIRECTION
 40
0.0
  9
$TIMEZONE
 70
 -8000
  9
$LIGHTGLYPHDISPLAY
280
     1
  9
$TILEMODELIGHTSYNCH
280
     1
  9
$CMATERIAL
347
44
  9
$SOLIDHIST
280
     1
  9
$SHOWHIST
280
     1
  9
$DWFFRAME
280
     2
  9
$DGNFRAME
280
     2
  9
$REALWORLDSCALE
290
     1
  9
$INTERFERECOLOR
 62
   256
  9
$CSHADOW
280
     0
  9
$SHADOWPLANELOCATION
 40
0.0
  0
ENDSEC
  0
SECTION
  2
CLASSES
  0
CLASS
  1
ACDBDICTIONARYWDFLT
  2
AcDbDictionaryWithDefault
  3
ObjectDBX Classes
 90
        0
 91
        4
280
     0
281
     0
  0
CLASS
  1
VISUALSTYLE
  2
AcDbVisualStyle
  3
ObjectDBX Classes
 90
     4095
 91
        4
280
     0
281
     0
  0
CLASS
  1
MATERIAL
  2
AcDbMaterial
  3
ObjectDBX Classes
 90
     1153
 91
        4
280
     0
281
     0
  0
CLASS
  1
SCALE
  2
AcDbScale
  3
ObjectDBX Classes
 90
     1153
 91
        4
280
     0
281
     0
  0
CLASS
  1
SUN
  2
AcDbSun
  3
SCENEOE
 90
     1153
 91
        4
280
     0
281
     0
  0
CLASS
  1
DICTIONARYVAR
  2
AcDbDictionaryVar
  3
ObjectDBX Classes
 90
        0
 91
        4
280
     0
281
     0
  0
ENDSEC
  0
SECTION
  2
TABLES
  0
TABLE
  2
VPORT
  5
8
330
0
100
AcDbSymbolTable
 70
     1
  0
VPORT
  5
29
330
8
100
AcDbSymbolTableRecord
100
AcDbViewportTableRecord
  2
*Active
 70
     0
 10
0.0
 20
0.0
 11
1.0
 21
1.0
 12
10.42990654205607
 22
4.5
 13
0.0
 23
0.0
 14
0.5
 24
0.5
 15
0.5
 25
0.5
 16
0.0
 26
0.0
 36
1.0
 17
0.0
 27
0.0
 37
0.0
 40
9.0
 41
1.972972972850329
 42
50.0
 43
0.0
 44
0.0
 50
0.0
 51
0.0
 71
     0
 72
   100
 73
     1
 74
     3
 75
     0
 76
     0
 77
     0
 78
     0
281
     0
 65
     1
110
0.0
120
0.0
130
0.0
111
1.0
121
0.0
131
0.0
112
0.0
122
1.0
132
0.0
 79
     0
146
0.0
 60
     3
 61
     5
292
     1
282
     1
141
0.0
142
0.0
 63
   250
361
69
  0
ENDTAB
  0
TABLE
  2
LTYPE
  5
5
330
0
100
AcDbSymbolTable
 70
     1
  0
LTYPE
  5
14
330
5
100
AcDbSymbolTableRecord
100
AcDbLinetypeTableRecord
  2
ByBlock
 70
     0
  3

 72
    65
 73
     0
 40
0.0
  0
LTYPE
  5
15
330
5
100
AcDbSymbolTableRecord
100
AcDbLinetypeTableRecord
  2
ByLayer
 70
     0
  3

 72
    65
 73
     0
 40
0.0
  0
LTYPE
  5
16
330
5
100
AcDbSymbolTableRecord
100
AcDbLinetypeTableRecord
  2
Continuous
 70
     0
  3
Solid line
 72
    65
 73
     0
 40
0.0
  0
ENDTAB
  0
TABLE
  2
LAYER
  5
2
330
0
100
AcDbSymbolTable
 70
     2
  0
LAYER
  5
10
330
2
100
AcDbSymbolTableRecord
100
AcDbLayerTableRecord
  2
0
 70
     0
 62
     7
  6
Continuous
370
    -3
390
F
347
46
  0
LAYER
  5
6B
330
2
100
AcDbSymbolTableRecord
100
AcDbLayerTableRecord
  2
Layer 1
 70
     0
 62
     7
  6
Continuous
370
    -3
390
F
347
46
  0
ENDTAB
  0
TABLE
  2
STYLE
  5
3
330
0
100
AcDbSymbolTable
 70
     1
  0
STYLE
  5
11
330
3
100
AcDbSymbolTableRecord
100
AcDbTextStyleTableRecord
  2
Standard
 70
     0
 40
0.0
 41
1.0
 50
0.0
 71
     0
 42
0.2
  3
txt
  4

  0
ENDTAB
  0
TABLE
  2
VIEW
  5
6
330
0
100
AcDbSymbolTable
 70
     0
  0
ENDTAB
  0
TABLE
  2
UCS
  5
7
330
0
100
AcDbSymbolTable
 70
     0
  0
ENDTAB
  0
TABLE
  2
APPID
  5
9
330
0
100
AcDbSymbolTable
 70
     2
  0
APPID
  5
12
330
9
100
AcDbSymbolTableRecord
100
AcDbRegAppTableRecord
  2
ACAD
 70
     0
  0
APPID
  5
6A
330
9
100
AcDbSymbolTableRecord
100
AcDbRegAppTableRecord
  2
ODA
 70
     0
  0
ENDTAB
  0
TABLE
  2
DIMSTYLE
  5
A
330
0
100
AcDbSymbolTable
 70
     1
100
AcDbDimStyleTable
  0
DIMSTYLE
105
27
330
A
100
AcDbSymbolTableRecord
100
AcDbDimStyleTableRecord
  2
Standard
 70
     0
178
     0
340
11
  0
ENDTAB
  0
TABLE
  2
BLOCK_RECORD
  5
1
330
0
100
AcDbSymbolTable
 70
     1
  0
BLOCK_RECORD
  5
1F
330
1
100
AcDbSymbolTableRecord
100
AcDbBlockTableRecord
  2
*Model_Space
340
22
 70
     0
280
     1
281
     0
  0
BLOCK_RECORD
  5
1B
330
1
100
AcDbSymbolTableRecord
100
AcDbBlockTableRecord
  2
*Paper_Space
340
1E
 70
     0
280
     1
281
     0
  0
BLOCK_RECORD
  5
23
330
1
100
AcDbSymbolTableRecord
100
AcDbBlockTableRecord
  2
*Paper_Space0
340
26
 70
     0
280
     1
281
     0
  0
ENDTAB
  0
ENDSEC
  0
SECTION
  2
BLOCKS
  0
BLOCK
  5
20
330
1F
100
AcDbEntity
  8
0
100
AcDbBlockBegin
  2
*Model_Space
 70
     0
 10
0.0
 20
0.0
 30
0.0
  3
*Model_Space
  1
*Model_Space
  0
ENDBLK
  5
21
330
1F
100
AcDbEntity
  8
0
100
AcDbBlockEnd
  0
BLOCK
  5
1C
330
1B
100
AcDbEntity
 67
     1
  8
0
100
AcDbBlockBegin
  2
*Paper_Space
 70
     0
 10
0.0
 20
0.0
 30
0.0
  3
*Paper_Space
  1
*Paper_Space
  0
ENDBLK
  5
1D
330
1B
100
AcDbEntity
 67
     1
  8
0
100
AcDbBlockEnd
  0
BLOCK
  5
24
330
23
100
AcDbEntity
  8
0
100
AcDbBlockBegin
  2
*Paper_Space0
 70
     0
 10
0.0
 20
0.0
 30
0.0
  3
*Paper_Space0
  1
*Paper_Space0
  0
ENDBLK
  5
25
330
23
100
AcDbEntity
  8
0
100
AcDbBlockEnd
  0
ENDSEC
  0
SECTION
  2
ENTITIES
  0
SPLINE
  5
6C
330
1F
100
AcDbEntity
  8
Layer 1
 62
     1
370
     9
100
AcDbSpline
210
0.0
220
0.0
230
1.0
 70
    11
 71
     3
 72
    48
 73
    44
 74
     0
 42
0.000000001
 43
0.0000000001
 40
0.0
 40
0.0
 40
0.0
 40
0.0
 40
0.0833333333333333
 40
0.0833333333333333
 40
0.0833333333333333
 40
0.0833333333333333
 40
0.1666666666666667
 40
0.1666666666666667
 40
0.1666666666666667
 40
0.1666666666666667
 40
0.25
 40
0.25
 40
0.25
 40
0.25
 40
0.3333333333333333
 40
0.3333333333333333
 40
0.3333333333333333
 40
0.3333333333333333
 40
0.4166666666666667
 40
0.4166666666666667
 40
0.4166666666666667
 40
0.4166666666666667
 40
0.5
 40
0.5
 40
0.5
 40
0.5
 40
0.5833333333333334
 40
0.5833333333333334
 40
0.5833333333333334
 40
0.5833333333333334
 40
0.6666666666666666
 40
0.6666666666666666
 40
0.6666666666666666
 40
0.6666666666666666
 40
0.75
 40
0.75
 40
0.75
 40
0.75
 40
0.8333333333333334
 40
0.8333333333333334
 40
0.8333333333333334
 40
0.8333333333333334
 40
1.0
 40
1.0
 40
1.0
 40
1.0
 10
-800.2195590551181
 20
268.3004133858267
 30
0.0
 10
-800.2195590551181
 20
268.3004133858267
 30
0.0
 10
-800.4300551181102
 20
268.1442322834646
 30
0.0
 10
-800.4300551181102
 20
268.1442322834646
 30
0.0
 10
-800.4300551181102
 20
268.1442322834646
 30
0.0
 10
-800.4300551181102
 20
268.1442322834646
 30
0.0
 10
-800.3465748031496
 20
268.3926929133858
 30
0.0
 10
-800.3465748031496
 20
268.3926929133858
 30
0.0
 10
-800.3465748031496
 20
268.3926929133858
 30
0.0
 10
-800.3465748031496
 20
268.3926929133858
 30
0.0
 10
-800.560157480315
 20
268.5446299212599
 30
0.0
 10
-800.560157480315
 20
268.5446299212599
 30
0.0
 10
-800.560157480315
 20
268.5446299212599
 30
0.0
 10
-800.560157480315
 20
268.5446299212599
 30
0.0
 10
-800.2980590551181
 20
268.5420039370078
 30
0.0
 10
-800.2980590551181
 20
268.5420039370078
 30
0.0
 10
-800.2980590551181
 20
268.5420039370078
 30
0.0
 10
-800.2980590551181
 20
268.5420039370078
 30
0.0
 10
-800.2195590551181
 20
268.7920866141732
 30
0.0
 10
-800.2195590551181
 20
268.7920866141732
 30
0.0
 10
-800.2195590551181
 20
268.7920866141732
 30
0.0
 10
-800.2195590551181
 20
268.7920866141732
 30
0.0
 10
-800.1410590551181
 20
268.5420039370078
 30
0.0
 10
-800.1410590551181
 20
268.5420039370078
 30
0.0
 10
-800.1410590551181
 20
268.5420039370078
 30
0.0
 10
-800.1410590551181
 20
268.5420039370078
 30
0.0
 10
-799.8789606299213
 20
268.5446299212599
 30
0.0
 10
-799.8789606299213
 20
268.5446299212599
 30
0.0
 10
-799.8789606299213
 20
268.5446299212599
 30
0.0
 10
-799.8789606299213
 20
268.5446299212599
 30
0.0
 10
-800.0925433070867
 20
268.3926929133858
 30
0.0
 10
-800.0925433070867
 20
268.3926929133858
 30
0.0
 10
-800.0925433070867
 20
268.3926929133858
 30
0.0
 10
-800.0925433070867
 20
268.3926929133858
 30
0.0
 10
-800.0090590551181
 20
268.1442322834646
 30
0.0
 10
-800.0090590551181
 20
268.1442322834646
 30
0.0
 10
-800.0090590551181
 20
268.1442322834646
 30
0.0
 10
-800.0090590551181
 20
268.1442322834646
 30
0.0
 10
-800.2195590551181
 20
268.3004133858267
 30
0.0
 10
-800.2195590551181
 20
268.3004133858267
 30
0.0
 10
-800.2195590551181
 20
268.3004133858267
 30
0.0
 10
-800.2195590551181
 20
268.3004133858267
 30
0.0
 10
-800.2195590551181
 20
268.3004133858267
 30
0.0
 10
-800.2195590551181
 20
268.3004133858267
 30
0.0
  0
SPLINE
  5
6D
330
1F
100
AcDbEntity
  8
Layer 1
 62
     1
370
     9
100
AcDbSpline
210
0.0
220
0.0
230
1.0
 70
    11
 71
     3
 72
    48
 73
    44
 74
     0
 42
0.000000001
 43
0.0000000001
 40
0.0
 40
0.0
 40
0.0
 40
0.0
 40
0.0833333333333333
 40
0.0833333333333333
 40
0.0833333333333333
 40
0.0833333333333333
 40
0.1666666666666667
 40
0.1666666666666667
 40
0.1666666666666667
 40
0.1666666666666667
 40
0.25
 40
0.25
 40
0.25
 40
0.25
 40
0.3333333333333333
 40
0.3333333333333333
 40
0.3333333333333333
 40
0.3333333333333333
 40
0.4166666666666667
 40
0.4166666666666667
 40
0.4166666666666667
 40
0.4166666666666667
 40
0.5
 40
0.5
 40
0.5
 40
0.5
 40
0.5833333333333334
 40
0.5833333333333334
 40
0.5833333333333334
 40
0.5833333333333334
 40
0.6666666666666666
 40
0.6666666666666666
 40
0.6666666666666666
 40
0.6666666666666666
 40
0.75
 40
0.75
 40
0.75
 40
0.75
 40
0.8333333333333334
 40
0.8333333333333334
 40
0.8333333333333334
 40
0.8333333333333334
 40
1.0
 40
1.0
 40
1.0
 40
1.0
 10
-804.4998385826772
 20
270.7286929133858
 30
0.0
 10
-804.4998385826772
 20
270.7286929133858
 30
0.0
 10
-804.7103346456693
 20
270.5725157480315
 30
0.0
 10
-804.7103346456693
 20
270.5725157480315
 30
0.0
 10
-804.7103346456693
 20
270.5725157480315
 30
0.0
 10
-804.7103346456693
 20
270.5725157480315
 30
0.0
 10
-804.6268503937008
 20
270.8209763779528
 30
0.0
 10
-804.6268503937008
 20
270.8209763779528
 30
0.0
 10
-804.6268503937008
 20
270.8209763779528
 30
0.0
 10
-804.6268503937008
 20
270.8209763779528
 30
0.0
 10
-804.840437007874
 20
270.9729094488189
 30
0.0
 10
-804.840437007874
 20
270.9729094488189
 30
0.0
 10
-804.840437007874
 20
270.9729094488189
 30
0.0
 10
-804.840437007874
 20
270.9729094488189
 30
0.0
 10
-804.5783346456693
 20
270.9702834645669
 30
0.0
 10
-804.5783346456693
 20
270.9702834645669
 30
0.0
 10
-804.5783346456693
 20
270.9702834645669
 30
0.0
 10
-804.5783346456693
 20
270.9702834645669
 30
0.0
 10
-804.4998385826772
 20
271.2203661417323
 30
0.0
 10
-804.4998385826772
 20
271.2203661417323
 30
0.0
 10
-804.4998385826772
 20
271.2203661417323
 30
0.0
 10
-804.4998385826772
 20
271.2203661417323
 30
0.0
 10
-804.4213385826772
 20
270.9702834645669
 30
0.0
 10
-804.4213385826772
 20
270.9702834645669
 30
0.0
 10
-804.4213385826772
 20
270.9702834645669
 30
0.0
 10
-804.4213385826772
 20
270.9702834645669
 30
0.0
 10
-804.1592440944881
 20
270.9729094488189
 30
0.0
 10
-804.1592440944881
 20
270.9729094488189
 30
0.0
 10
-804.1592440944881
 20
270.9729094488189
 30
0.0
 10
-804.1592440944881
 20
270.9729094488189
 30
0.0
 10
-804.3728267716535
 20
270.8209763779528
 30
0.0
 10
-804.3728267716535
 20
270.8209763779528
 30
0.0
 10
-804.3728267716535
 20
270.8209763779528
 30
0.0
 10
-804.3728267716535
 20
270.8209763779528
 30
0.0
 10
-804.2893346456693
 20
270.5725157480315
 30
0.0
 10
-804.2893346456693
 20
270.5725157480315
 30
0.0
 10
-804.2893346456693
 20
270.5725157480315
 30
0.0
 10
-804.2893346456693
 20
270.5725157480315
 30
0.0
 10
-804.4998385826772
 20
270.7286929133858
 30
0.0
 10
-804.4998385826772
 20
270.7286929133858
 30
0.0
 10
-804.4998385826772
 20
270.7286929133858
 30
0.0
 10
-804.4998385826772
 20
270.7286929133858
 30
0.0
 10
-804.4998385826772
 20
270.7286929133858
 30
0.0
 10
-804.4998385826772
 20
270.7286929133858
 30
0.0
  0
SPLINE
  5
6E
330
1F
100
AcDbEntity
  8
Layer 1
 62
     1
370
     9
100
AcDbSpline
210
0.0
220
0.0
230
1.0
 70
    11
 71
     3
 72
    48
 73
    44
 74
     0
 42
0.000000001
 43
0.0000000001
 40
0.0
 40
0.0
 40
0.0
 40
0.0
 40
0.0833333333333333
 40
0.0833333333333333
 40
0.0833333333333333
 40
0.0833333333333333
 40
0.1666666666666667
 40
0.1666666666666667
 40
0.1666666666666667
 40
0.1666666666666667
 40
0.25
 40
0.25
 40
0.25
 40
0.25
 40
0.3333333333333333
 40
0.3333333333333333
 40
0.3333333333333333
 40
0.3333333333333333
 40
0.4166666666666667
 40
0.4166666666666667
 40
0.4166666666666667
 40
0.4166666666666667
 40
0.5
 40
0.5
 40
0.5
 40
0.5
 40
0.5833333333333334
 40
0.5833333333333334
 40
0.5833333333333334
 40
0.5833333333333334
 40
0.6666666666666666
 40
0.6666666666666666
 40
0.6666666666666666
 40
0.6666666666666666
 40
0.75
 40
0.75
 40
0.75
 40
0.75
 40
0.8333333333333334
 40
0.8333333333333334
 40
0.8333333333333334
 40
0.8333333333333334
 40
1.0
 40
1.0
 40
1.0
 40
1.0
 10
-803.0689763779527
 20
270.7286929133858
 30
0.0
 10
-803.0689763779527
 20
270.7286929133858
 30
0.0
 10
-803.2794724409449
 20
270.5725157480315
 30
0.0
 10
-803.2794724409449
 20
270.5725157480315
 30
0.0
 10
-803.2794724409449
 20
270.5725157480315
 30
0.0
 10
-803.2794724409449
 20
270.5725157480315
 30
0.0
 10
-803.1959803149606
 20
270.8209763779528
 30
0.0
 10
-803.1959803149606
 20
270.8209763779528
 30
0.0
 10
-803.1959803149606
 20
270.8209763779528
 30
0.0
 10
-803.1959803149606
 20
270.8209763779528
 30
0.0
 10
-803.4095708661417
 20
270.9729094488189
 30
0.0
 10
-803.4095708661417
 20
270.9729094488189
 30
0.0
 10
-803.4095708661417
 20
270.9729094488189
 30
0.0
 10
-803.4095708661417
 20
270.9729094488189
 30
0.0
 10
-803.147468503937
 20
270.9702834645669
 30
0.0
 10
-803.147468503937
 20
270.9702834645669
 30
0.0
 10
-803.147468503937
 20
270.9702834645669
 30
0.0
 10
-803.147468503937
 20
270.9702834645669
 30
0.0
 10
-803.0689763779527
 20
271.2203661417323
 30
0.0
 10
-803.0689763779527
 20
271.2203661417323
 30
0.0
 10
-803.0689763779527
 20
271.2203661417323
 30
0.0
 10
-803.0689763779527
 20
271.2203661417323
 30
0.0
 10
-802.9904763779527
 20
270.9702834645669
 30
0.0
 10
-802.9904763779527
 20
270.9702834645669
 30
0.0
 10
-802.9904763779527
 20
270.9702834645669
 30
0.0
 10
-802.9904763779527
 20
270.9702834645669
 30
0.0
 10
-802.7283779527559
 20
270.9729094488189
 30
0.0
 10
-802.7283779527559
 20
270.9729094488189
 30
0.0
 10
-802.7283779527559
 20
270.9729094488189
 30
0.0
 10
-802.7283779527559
 20
270.9729094488189
 30
0.0
 10
-802.9419645669292
 20
270.8209763779528
 30
0.0
 10
-802.9419645669292
 20
270.8209763779528
 30
0.0
 10
-802.9419645669292
 20
270.8209763779528
 30
0.0
 10
-802.9419645669292
 20
270.8209763779528
 30
0.0
 10
-802.8584724409449
 20
270.5725157480315
 30
0.0
 10
-802.8584724409449
 20
270.5725157480315
 30
0.0
 10
-802.8584724409449
 20
270.5725157480315
 30
0.0
 10
-802.8584724409449
 20
270.5725157480315
 30
0.0
 10
-803.0689763779527
 20
270.7286929133858
 30
0.0
 10
-803.0689763779527
 20
270.7286929133858
 30
0.0
 10
-803.0689763779527
 20
270.7286929133858
 30
0.0
 10
-803.0689763779527
 20
270.7286929133858
 30
0.0
 10
-803.0689763779527
 20
270.7286929133858
 30
0.0
 10
-803.0689763779527
 20
270.7286929133858
 30
0.0
  0
SPLINE
  5
6F
330
1F
100
AcDbEntity
  8
Layer 1
 62
     1
370
     9
100
AcDbSpline
210
0.0
220
0.0
230
1.0
 70
    11
 71
     3
 72
    48
 73
    44
 74
     0
 42
0.000000001
 43
0.0000000001
 40
0.0
 40
0.0
 40
0.0
 40
0.0
 40
0.0833333333333333
 40
0.0833333333333333
 40
0.0833333333333333
 40
0.0833333333333333
 40
0.1666666666666667
 40
0.1666666666666667
 40
0.1666666666666667
 40
0.1666666666666667
 40
0.25
 40
0.25
 40
0.25
 40
0.25
 40
0.3333333333333333
 40
0.3333333333333333
 40
0.3333333333333333
 40
0.3333333333333333
 40
0.4166666666666667
 40
0.4166666666666667
 40
0.4166666666666667
 40
0.4166666666666667
 40
0.5
 40
0.5
 40
0.5
 40
0.5
 40
0.5833333333333334
 40
0.5833333333333334
 40
0.5833333333333334
 40
0.5833333333333334
 40
0.6666666666666666
 40
0.6666666666666666
 40
0.6666666666666666
 40
0.6666666666666666
 40
0.75
 40
0.75
 40
0.75
 40
0.75
 40
0.8333333333333334
 40
0.8333333333333334
 40
0.8333333333333334
 40
0.8333333333333334
 40
1.0
 40
1.0
 40
1.0
 40
1.0
 10
-805.9307007874015
 20
270.7286929133858
 30
0.0
 10
-805.9307007874015
 20
270.7286929133858
 30
0.0
 10
-806.1412007874015
 20
270.5725157480315
 30
0.0
 10
-806.1412007874015
 20
270.5725157480315
 30
0.0
 10
-806.1412007874015
 20
270.5725157480315
 30
0.0
 10
-806.1412007874015
 20
270.5725157480315
 30
0.0
 10
-806.0577125984252
 20
270.8209763779528
 30
0.0
 10
-806.0577125984252
 20
270.8209763779528
 30
0.0
 10
-806.0577125984252
 20
270.8209763779528
 30
0.0
 10
-806.0577125984252
 20
270.8209763779528
 30
0.0
 10
-806.2712992125985
 20
270.9729094488189
 30
0.0
 10
-806.2712992125985
 20
270.9729094488189
 30
0.0
 10
-806.2712992125985
 20
270.9729094488189
 30
0.0
 10
-806.2712992125985
 20
270.9729094488189
 30
0.0
 10
-806.0091968503937
 20
270.9702834645669
 30
0.0
 10
-806.0091968503937
 20
270.9702834645669
 30
0.0
 10
-806.0091968503937
 20
270.9702834645669
 30
0.0
 10
-806.0091968503937
 20
270.9702834645669
 30
0.0
 10
-805.9307007874015
 20
271.2203661417323
 30
0.0
 10
-805.9307007874015
 20
271.2203661417323
 30
0.0
 10
-805.9307007874015
 20
271.2203661417323
 30
0.0
 10
-805.9307007874015
 20
271.2203661417323
 30
0.0
 10
-805.8522047244095
 20
270.9702834645669
 30
0.0
 10
-805.8522047244095
 20
270.9702834645669
 30
0.0
 10
-805.8522047244095
 20
270.9702834645669
 30
0.0
 10
-805.8522047244095
 20
270.9702834645669
 30
0.0
 10
-805.5901062992126
 20
270.9729094488189
 30
0.0
 10
-805.5901062992126
 20
270.9729094488189
 30
0.0
 10
-805.5901062992126
 20
270.9729094488189
 30
0.0
 10
-805.5901062992126
 20
270.9729094488189
 30
0.0
 10
-805.803688976378
 20
270.8209763779528
 30
0.0
 10
-805.803688976378
 20
270.8209763779528
 30
0.0
 10
-805.803688976378
 20
270.8209763779528
 30
0.0
 10
-805.803688976378
 20
270.8209763779528
 30
0.0
 10
-805.7201968503937
 20
270.5725157480315
 30
0.0
 10
-805.7201968503937
 20
270.5725157480315
 30
0.0
 10
-805.7201968503937
 20
270.5725157480315
 30
0.0
 10
-805.7201968503937
 20
270.5725157480315
 30
0.0
 10
-805.9307007874015
 20
270.7286929133858
 30
0.0
 10
-805.9307007874015
 20
270.7286929133858
 30
0.0
 10
-805.9307007874015
 20
270.7286929133858
 30
0.0
 10
-805.9307007874015
 20
270.7286929133858
 30
0.0
 10
-805.9307007874015
 20
270.7286929133858
 30
0.0
 10
-805.9307007874015
 20
270.7286929133858
 30
0.0
  0
SPLINE
  5
70
330
1F
100
AcDbEntity
  8
Layer 1
 62
     1
370
     9
100
AcDbSpline
210
0.0
220
0.0
230
1.0
 70
    11
 71
     3
 72
    48
 73
    44
 74
     0
 42
0.000000001
 43
0.0000000001
 40
0.0
 40
0.0
 40
0.0
 40
0.0
 40
0.0833333333333333
 40
0.0833333333333333
 40
0.0833333333333333
 40
0.0833333333333333
 40
0.1666666666666667
 40
0.1666666666666667
 40
0.1666666666666667
 40
0.1666666666666667
 40
0.25
 40
0.25
 40
0.25
 40
0.25
 40
0.3333333333333333
 40
0.3333333333333333
 40
0.3333333333333333
 40
0.3333333333333333
 40
0.4166666666666667
 40
0.4166666666666667
 40
0.4166666666666667
 40
0.4166666666666667
 40
0.5
 40
0.5
 40
0.5
 40
0.5
 40
0.5833333333333334
 40
0.5833333333333334
 40
0.5833333333333334
 40
0.5833333333333334
 40
0.6666666666666666
 40
0.6666666666666666
 40
0.6666666666666666
 40
0.6666666666666666
 40
0.75
 40
0.75
 40
0.75
 40
0.75
 40
0.8333333333333334
 40
0.8333333333333334
 40
0.8333333333333334
 40
0.8333333333333334
 40
1.0
 40
1.0
 40
1.0
 40
1.0
 10
-801.6504251968504
 20
270.7286929133858
 30
0.0
 10
-801.6504251968504
 20
270.7286929133858
 30
0.0
 10
-801.8609212598425
 20
270.5725157480315
 30
0.0
 10
-801.8609212598425
 20
270.5725157480315
 30
0.0
 10
-801.8609212598425
 20
270.5725157480315
 30
0.0
 10
-801.8609212598425
 20
270.5725157480315
 30
0.0
 10
-801.777437007874
 20
270.8209763779528
 30
0.0
 10
-801.777437007874
 20
270.8209763779528
 30
0.0
 10
-801.777437007874
 20
270.8209763779528
 30
0.0
 10
-801.777437007874
 20
270.8209763779528
 30
0.0
 10
-801.9910196850394
 20
270.9729094488189
 30
0.0
 10
-801.9910196850394
 20
270.9729094488189
 30
0.0
 10
-801.9910196850394
 20
270.9729094488189
 30
0.0
 10
-801.9910196850394
 20
270.9729094488189
 30
0.0
 10
-801.7289212598425
 20
270.9702834645669
 30
0.0
 10
-801.7289212598425
 20
270.9702834645669
 30
0.0
 10
-801.7289212598425
 20
270.9702834645669
 30
0.0
 10
-801.7289212598425
 20
270.9702834645669
 30
0.0
 10
-801.6504251968504
 20
271.2203661417323
 30
0.0
 10
-801.6504251968504
 20
271.2203661417323
 30
0.0
 10
-801.6504251968504
 20
271.2203661417323
 30
0.0
 10
-801.6504251968504
 20
271.2203661417323
 30
0.0
 10
-801.5719212598425
 20
270.9702834645669
 30
0.0
 10
-801.5719212598425
 20
270.9702834645669
 30
0.0
 10
-801.5719212598425
 20
270.9702834645669
 30
0.0
 10
-801.5719212598425
 20
270.9702834645669
 30
0.0
 10
-801.3098228346456
 20
270.9729094488189
 30
0.0
 10
-801.3098228346456
 20
270.9729094488189
 30
0.0
 10
-801.3098228346456
 20
270.9729094488189
 30
0.0
 10
-801.3098228346456
 20
270.9729094488189
 30
0.0
 10
-801.5234094488189
 20
270.8209763779528
 30
0.0
 10
-801.5234094488189
 20
270.8209763779528
 30
0.0
 10
-801.5234094488189
 20
270.8209763779528
 30
0.0
 10
-801.5234094488189
 20
270.8209763779528
 30
0.0
 10
-801.4399212598425
 20
270.5725157480315
 30
0.0
 10
-801.4399212598425
 20
270.5725157480315
 30
0.0
 10
-801.4399212598425
 20
270.5725157480315
 30
0.0
 10
-801.4399212598425
 20
270.5725157480315
 30
0.0
 10
-801.6504251968504
 20
270.7286929133858
 30
0.0
 10
-801.6504251968504
 20
270.7286929133858
 30
0.0
 10
-801.6504251968504
 20
270.7286929133858
 30
0.0
 10
-801.6504251968504
 20
270.7286929133858
 30
0.0
 10
-801.6504251968504
 20
270.7286929133858
 30
0.0
 10
-801.6504251968504
 20
270.7286929133858
 30
0.0
  0
SPLINE
  5
71
330
1F
100
AcDbEntity
  8
Layer 1
 62
     1
370
     9
100
AcDbSpline
210
0.0
220
0.0
230
1.0
 70
    11
 71
     3
 72
    48
 73
    44
 74
     0
 42
0.000000001
 43
0.0000000001
 40
0.0
 40
0.0
 40
0.0
 40
0.0
 40
0.0833333333333333
 40
0.0833333333333333
 40
0.0833333333333333
 40
0.0833333333333333
 40
0.1666666666666667
 40
0.1666666666666667
 40
0.1666666666666667
 40
0.1666666666666667
 40
0.25
 40
0.25
 40
0.25
 40
0.25
 40
0.3333333333333333
 40
0.3333333333333333
 40
0.3333333333333333
 40
0.3333333333333333
 40
0.4166666666666667
 40
0.4166666666666667
 40
0.4166666666666667
 40
0.4166666666666667
 40
0.5
 40
0.5
 40
0.5
 40
0.5
 40
0.5833333333333334
 40
0.5833333333333334
 40
0.5833333333333334
 40
0.5833333333333334
 40
0.6666666666666666
 40
0.6666666666666666
 40
0.6666666666666666
 40
0.6666666666666666
 40
0.75
 40
0.75
 40
0.75
 40
0.75
 40
0.8333333333333334
 40
0.8333333333333334
 40
0.8333333333333334
 40
0.8333333333333334
 40
1.0
 40
1.0
 40
1.0
 40
1.0
 10
-800.2195590551181
 20
270.7286929133858
 30
0.0
 10
-800.2195590551181
 20
270.7286929133858
 30
0.0
 10
-800.4300551181102
 20
270.5725157480315
 30
0.0
 10
-800.4300551181102
 20
270.5725157480315
 30
0.0
 10
-800.4300551181102
 20
270.5725157480315
 30
0.0
 10
-800.4300551181102
 20
270.5725157480315
 30
0.0
 10
-800.3465748031496
 20
270.8209763779528
 30
0.0
 10
-800.3465748031496
 20
270.8209763779528
 30
0.0
 10
-800.3465748031496
 20
270.8209763779528
 30
0.0
 10
-800.3465748031496
 20
270.8209763779528
 30
0.0
 10
-800.560157480315
 20
270.9729094488189
 30
0.0
 10
-800.560157480315
 20
270.9729094488189
 30
0.0
 10
-800.560157480315
 20
270.9729094488189
 30
0.0
 10
-800.560157480315
 20
270.9729094488189
 30
0.0
 10
-800.2980590551181
 20
270.9702834645669
 30
0.0
 10
-800.2980590551181
 20
270.9702834645669
 30
0.0
 10
-800.2980590551181
 20
270.9702834645669
 30
0.0
 10
-800.2980590551181
 20
270.9702834645669
 30
0.0
 10
-800.2195590551181
 20
271.2203661417323
 30
0.0
 10
-800.2195590551181
 20
271.2203661417323
 30
0.0
 10
-800.2195590551181
 20
271.2203661417323
 30
0.0
 10
-800.2195590551181
 20
271.2203661417323
 30
0.0
 10
-800.1410590551181
 20
270.9702834645669
 30
0.0
 10
-800.1410590551181
 20
270.9702834645669
 30
0.0
 10
-800.1410590551181
 20
270.9702834645669
 30
0.0
 10
-800.1410590551181
 20
270.9702834645669
 30
0.0
 10
-799.8789606299213
 20
270.9729094488189
 30
0.0
 10
-799.8789606299213
 20
270.9729094488189
 30
0.0
 10
-799.8789606299213
 20
270.9729094488189
 30
0.0
 10
-799.8789606299213
 20
270.9729094488189
 30
0.0
 10
-800.0925433070867
 20
270.8209763779528
 30
0.0
 10
-800.0925433070867
 20
270.8209763779528
 30
0.0
 10
-800.0925433070867
 20
270.8209763779528
 30
0.0
 10
-800.0925433070867
 20
270.8209763779528
 30
0.0
 10
-800.0090590551181
 20
270.5725157480315
 30
0.0
 10
-800.0090590551181
 20
270.5725157480315
 30
0.0
 10
-800.0090590551181
 20
270.5725157480315
 30
0.0
 10
-800.0090590551181
 20
270.5725157480315
 30
0.0
 10
-800.2195590551181
 20
270.7286929133858
 30
0.0
 10
-800.2195590551181
 20
270.7286929133858
 30
0.0
 10
-800.2195590551181
 20
270.7286929133858
 30
0.0
 10
-800.2195590551181
 20
270.7286929133858
 30
0.0
 10
-800.2195590551181
 20
270.7286929133858
 30
0.0
 10
-800.2195590551181
 20
270.7286929133858
 30
0.0
  0
SPLINE
  5
72
330
1F
100
AcDbEntity
  8
Layer 1
 62
     1
370
     9
100
AcDbSpline
210
0.0
220
0.0
230
1.0
 70
    11
 71
     3
 72
    48
 73
    44
 74
     0
 42
0.000000001
 43
0.0000000001
 40
0.0
 40
0.0
 40
0.0
 40
0.0
 40
0.0833333333333333
 40
0.0833333333333333
 40
0.0833333333333333
 40
0.0833333333333333
 40
0.1666666666666667
 40
0.1666666666666667
 40
0.1666666666666667
 40
0.1666666666666667
 40
0.25
 40
0.25
 40
0.25
 40
0.25
 40
0.3333333333333333
 40
0.3333333333333333
 40
0.3333333333333333
 40
0.3333333333333333
 40
0.4166666666666667
 40
0.4166666666666667
 40
0.4166666666666667
 40
0.4166666666666667
 40
0.5
 40
0.5
 40
0.5
 40
0.5
 40
0.5833333333333334
 40
0.5833333333333334
 40
0.5833333333333334
 40
0.5833333333333334
 40
0.6666666666666666
 40
0.6666666666666666
 40
0.6666666666666666
 40
0.6666666666666666
 40
0.75
 40
0.75
 40
0.75
 40
0.75
 40
0.8333333333333334
 40
0.8333333333333334
 40
0.8333333333333334
 40
0.8333333333333334
 40
1.0
 40
1.0
 40
1.0
 40
1.0
 10
-798.7886968503936
 20
270.7286929133858
 30
0.0
 10
-798.7886968503936
 20
270.7286929133858
 30
0.0
 10
-798.9991929133859
 20
270.5725157480315
 30
0.0
 10
-798.9991929133859
 20
270.5725157480315
 30
0.0
 10
-798.9991929133859
 20
270.5725157480315
 30
0.0
 10
-798.9991929133859
 20
270.5725157480315
 30
0.0
 10
-798.9157086614173
 20
270.8209763779528
 30
0.0
 10
-798.9157086614173
 20
270.8209763779528
 30
0.0
 10
-798.9157086614173
 20
270.8209763779528
 30
0.0
 10
-798.9157086614173
 20
270.8209763779528
 30
0.0
 10
-799.1292952755906
 20
270.9729094488189
 30
0.0
 10
-799.1292952755906
 20
270.9729094488189
 30
0.0
 10
-799.1292952755906
 20
270.9729094488189
 30
0.0
 10
-799.1292952755906
 20
270.9729094488189
 30
0.0
 10
-798.8671968503937
 20
270.9702834645669
 30
0.0
 10
-798.8671968503937
 20
270.9702834645669
 30
0.0
 10
-798.8671968503937
 20
270.9702834645669
 30
0.0
 10
-798.8671968503937
 20
270.9702834645669
 30
0.0
 10
-798.7886968503936
 20
271.2203661417323
 30
0.0
 10
-798.7886968503936
 20
271.2203661417323
 30
0.0
 10
-798.7886968503936
 20
271.2203661417323
 30
0.0
 10
-798.7886968503936
 20
271.2203661417323
 30
0.0
 10
-798.7101968503937
 20
270.9702834645669
 30
0.0
 10
-798.7101968503937
 20
270.9702834645669
 30
0.0
 10
-798.7101968503937
 20
270.9702834645669
 30
0.0
 10
-798.7101968503937
 20
270.9702834645669
 30
0.0
 10
-798.4480984251968
 20
270.9729094488189
 30
0.0
 10
-798.4480984251968
 20
270.9729094488189
 30
0.0
 10
-798.4480984251968
 20
270.9729094488189
 30
0.0
 10
-798.4480984251968
 20
270.9729094488189
 30
0.0
 10
-798.6616811023622
 20
270.8209763779528
 30
0.0
 10
-798.6616811023622
 20
270.8209763779528
 30
0.0
 10
-798.6616811023622
 20
270.8209763779528
 30
0.0
 10
-798.6616811023622
 20
270.8209763779528
 30
0.0
 10
-798.578188976378
 20
270.5725157480315
 30
0.0
 10
-798.578188976378
 20
270.5725157480315
 30
0.0
 10
-798.578188976378
 20
270.5725157480315
 30
0.0
 10
-798.578188976378
 20
270.5725157480315
 30
0.0
 10
-798.7886968503936
 20
270.7286929133858
 30
0.0
 10
-798.7886968503936
 20
270.7286929133858
 30
0.0
 10
-798.7886968503936
 20
270.7286929133858
 30
0.0
 10
-798.7886968503936
 20
270.7286929133858
 30
0.0
 10
-798.7886968503936
 20
270.7286929133858
 30
0.0
 10
-798.7886968503936
 20
270.7286929133858
 30
0.0
  0
SPLINE
  5
73
330
1F
100
AcDbEntity
  8
Layer 1
 62
     1
370
     9
100
AcDbSpline
210
0.0
220
0.0
230
1.0
 70
    11
 71
     3
 72
    48
 73
    44
 74
     0
 42
0.000000001
 43
0.0000000001
 40
0.0
 40
0.0
 40
0.0
 40
0.0
 40
0.0833333333333333
 40
0.0833333333333333
 40
0.0833333333333333
 40
0.0833333333333333
 40
0.1666666666666667
 40
0.1666666666666667
 40
0.1666666666666667
 40
0.1666666666666667
 40
0.25
 40
0.25
 40
0.25
 40
0.25
 40
0.3333333333333333
 40
0.3333333333333333
 40
0.3333333333333333
 40
0.3333333333333333
 40
0.4166666666666667
 40
0.4166666666666667
 40
0.4166666666666667
 40
0.4166666666666667
 40
0.5
 40
0.5
 40
0.5
 40
0.5
 40
0.5833333333333334
 40
0.5833333333333334
 40
0.5833333333333334
 40
0.5833333333333334
 40
0.6666666666666666
 40
0.6666666666666666
 40
0.6666666666666666
 40
0.6666666666666666
 40
0.75
 40
0.75
 40
0.75
 40
0.75
 40
0.8333333333333334
 40
0.8333333333333334
 40
0.8333333333333334
 40
0.8333333333333334
 40
1.0
 40
1.0
 40
1.0
 40
1.0
 10
-805.2140354330709
 20
270.1179330708661
 30
0.0
 10
-805.2140354330709
 20
270.1179330708661
 30
0.0
 10
-805.4245393700787
 20
269.9617480314961
 30
0.0
 10
-805.4245393700787
 20
269.9617480314961
 30
0.0
 10
-805.4245393700787
 20
269.9617480314961
 30
0.0
 10
-805.4245393700787
 20
269.9617480314961
 30
0.0
 10
-805.3410511811023
 20
270.2102125984252
 30
0.0
 10
-805.3410511811023
 20
270.2102125984252
 30
0.0
 10
-805.3410511811023
 20
270.2102125984252
 30
0.0
 10
-805.3410511811023
 20
270.2102125984252
 30
0.0
 10
-805.5546338582677
 20
270.3621456692914
 30
0.0
 10
-805.5546338582677
 20
270.3621456692914
 30
0.0
 10
-805.5546338582677
 20
270.3621456692914
 30
0.0
 10
-805.5546338582677
 20
270.3621456692914
 30
0.0
 10
-805.2925354330708
 20
270.3595236220472
 30
0.0
 10
-805.2925354330708
 20
270.3595236220472
 30
0.0
 10
-805.2925354330708
 20
270.3595236220472
 30
0.0
 10
-805.2925354330708
 20
270.3595236220472
 30
0.0
 10
-805.2140354330709
 20
270.6095984251969
 30
0.0
 10
-805.2140354330709
 20
270.6095984251969
 30
0.0
 10
-805.2140354330709
 20
270.6095984251969
 30
0.0
 10
-805.2140354330709
 20
270.6095984251969
 30
0.0
 10
-805.1355433070867
 20
270.3595236220472
 30
0.0
 10
-805.1355433070867
 20
270.3595236220472
 30
0.0
 10
-805.1355433070867
 20
270.3595236220472
 30
0.0
 10
-805.1355433070867
 20
270.3595236220472
 30
0.0
 10
-804.873437007874
 20
270.3621456692914
 30
0.0
 10
-804.873437007874
 20
270.3621456692914
 30
0.0
 10
-804.873437007874
 20
270.3621456692914
 30
0.0
 10
-804.873437007874
 20
270.3621456692914
 30
0.0
 10
-805.0870196850394
 20
270.2102125984252
 30
0.0
 10
-805.0870196850394
 20
270.2102125984252
 30
0.0
 10
-805.0870196850394
 20
270.2102125984252
 30
0.0
 10
-805.0870196850394
 20
270.2102125984252
 30
0.0
 10
-805.0035354330709
 20
269.9617480314961
 30
0.0
 10
-805.0035354330709
 20
269.9617480314961
 30
0.0
 10
-805.0035354330709
 20
269.9617480314961
 30
0.0
 10
-805.0035354330709
 20
269.9617480314961
 30
0.0
 10
-805.2140354330709
 20
270.1179330708661
 30
0.0
 10
-805.2140354330709
 20
270.1179330708661
 30
0.0
 10
-805.2140354330709
 20
270.1179330708661
 30
0.0
 10
-805.2140354330709
 20
270.1179330708661
 30
0.0
 10
-805.2140354330709
 20
270.1179330708661
 30
0.0
 10
-805.2140354330709
 20
270.1179330708661
 30
0.0
  0
SPLINE
  5
74
330
1F
100
AcDbEntity
  8
Layer 1
 62
     1
370
     9
100
AcDbSpline
210
0.0
220
0.0
230
1.0
 70
    11
 71
     3
 72
    48
 73
    44
 74
     0
 42
0.000000001
 43
0.0000000001
 40
0.0
 40
0.0
 40
0.0
 40
0.0
 40
0.0833333333333333
 40
0.0833333333333333
 40
0.0833333333333333
 40
0.0833333333333333
 40
0.1666666666666667
 40
0.1666666666666667
 40
0.1666666666666667
 40
0.1666666666666667
 40
0.25
 40
0.25
 40
0.25
 40
0.25
 40
0.3333333333333333
 40
0.3333333333333333
 40
0.3333333333333333
 40
0.3333333333333333
 40
0.4166666666666667
 40
0.4166666666666667
 40
0.4166666666666667
 40
0.4166666666666667
 40
0.5
 40
0.5
 40
0.5
 40
0.5
 40
0.5833333333333334
 40
0.5833333333333334
 40
0.5833333333333334
 40
0.5833333333333334
 40
0.6666666666666666
 40
0.6666666666666666
 40
0.6666666666666666
 40
0.6666666666666666
 40
0.75
 40
0.75
 40
0.75
 40
0.75
 40
0.8333333333333334
 40
0.8333333333333334
 40
0.8333333333333334
 40
0.8333333333333334
 40
1.0
 40
1.0
 40
1.0
 40
1.0
 10
-803.7831732283464
 20
270.1179330708661
 30
0.0
 10
-803.7831732283464
 20
270.1179330708661
 30
0.0
 10
-803.9936771653544
 20
269.9617480314961
 30
0.0
 10
-803.9936771653544
 20
269.9617480314961
 30
0.0
 10
-803.9936771653544
 20
269.9617480314961
 30
0.0
 10
-803.9936771653544
 20
269.9617480314961
 30
0.0
 10
-803.91018503937
 20
270.2102125984252
 30
0.0
 10
-803.91018503937
 20
270.2102125984252
 30
0.0
 10
-803.91018503937
 20
270.2102125984252
 30
0.0
 10
-803.91018503937
 20
270.2102125984252
 30
0.0
 10
-804.1237716535433
 20
270.3621456692914
 30
0.0
 10
-804.1237716535433
 20
270.3621456692914
 30
0.0
 10
-804.1237716535433
 20
270.3621456692914
 30
0.0
 10
-804.1237716535433
 20
270.3621456692914
 30
0.0
 10
-803.8616732283465
 20
270.3595236220472
 30
0.0
 10
-803.8616732283465
 20
270.3595236220472
 30
0.0
 10
-803.8616732283465
 20
270.3595236220472
 30
0.0
 10
-803.8616732283465
 20
270.3595236220472
 30
0.0
 10
-803.7831732283464
 20
270.6095984251969
 30
0.0
 10
-803.7831732283464
 20
270.6095984251969
 30
0.0
 10
-803.7831732283464
 20
270.6095984251969
 30
0.0
 10
-803.7831732283464
 20
270.6095984251969
 30
0.0
 10
-803.7046732283465
 20
270.3595236220472
 30
0.0
 10
-803.7046732283465
 20
270.3595236220472
 30
0.0
 10
-803.7046732283465
 20
270.3595236220472
 30
0.0
 10
-803.7046732283465
 20
270.3595236220472
 30
0.0
 10
-803.4425748031496
 20
270.3621456692914
 30
0.0
 10
-803.4425748031496
 20
270.3621456692914
 30
0.0
 10
-803.4425748031496
 20
270.3621456692914
 30
0.0
 10
-803.4425748031496
 20
270.3621456692914
 30
0.0
 10
-803.656157480315
 20
270.2102125984252
 30
0.0
 10
-803.656157480315
 20
270.2102125984252
 30
0.0
 10
-803.656157480315
 20
270.2102125984252
 30
0.0
 10
-803.656157480315
 20
270.2102125984252
 30
0.0
 10
-803.5726732283465
 20
269.9617480314961
 30
0.0
 10
-803.5726732283465
 20
269.9617480314961
 30
0.0
 10
-803.5726732283465
 20
269.9617480314961
 30
0.0
 10
-803.5726732283465
 20
269.9617480314961
 30
0.0
 10
-803.7831732283464
 20
270.1179330708661
 30
0.0
 10
-803.7831732283464
 20
270.1179330708661
 30
0.0
 10
-803.7831732283464
 20
270.1179330708661
 30
0.0
 10
-803.7831732283464
 20
270.1179330708661
 30
0.0
 10
-803.7831732283464
 20
270.1179330708661
 30
0.0
 10
-803.7831732283464
 20
270.1179330708661
 30
0.0
  0
SPLINE
  5
75
330
1F
100
AcDbEntity
  8
Layer 1
 62
     1
370
     9
100
AcDbSpline
210
0.0
220
0.0
230
1.0
 70
    11
 71
     3
 72
    48
 73
    44
 74
     0
 42
0.000000001
 43
0.0000000001
 40
0.0
 40
0.0
 40
0.0
 40
0.0
 40
0.0833333333333333
 40
0.0833333333333333
 40
0.0833333333333333
 40
0.0833333333333333
 40
0.1666666666666667
 40
0.1666666666666667
 40
0.1666666666666667
 40
0.1666666666666667
 40
0.25
 40
0.25
 40
0.25
 40
0.25
 40
0.3333333333333333
 40
0.3333333333333333
 40
0.3333333333333333
 40
0.3333333333333333
 40
0.4166666666666667
 40
0.4166666666666667
 40
0.4166666666666667
 40
0.4166666666666667
 40
0.5
 40
0.5
 40
0.5
 40
0.5
 40
0.5833333333333334
 40
0.5833333333333334
 40
0.5833333333333334
 40
0.5833333333333334
 40
0.6666666666666666
 40
0.6666666666666666
 40
0.6666666666666666
 40
0.6666666666666666
 40
0.75
 40
0.75
 40
0.75
 40
0.75
 40
0.8333333333333334
 40
0.8333333333333334
 40
0.8333333333333334
 40
0.8333333333333334
 40
1.0
 40
1.0
 40
1.0
 40
1.0
 10
-802.3646259842519
 20
270.1179330708661
 30
0.0
 10
-802.3646259842519
 20
270.1179330708661
 30
0.0
 10
-802.5751220472441
 20
269.9617480314961
 30
0.0
 10
-802.5751220472441
 20
269.9617480314961
 30
0.0
 10
-802.5751220472441
 20
269.9617480314961
 30
0.0
 10
-802.5751220472441
 20
269.9617480314961
 30
0.0
 10
-802.4916377952756
 20
270.2102125984252
 30
0.0
 10
-802.4916377952756
 20
270.2102125984252
 30
0.0
 10
-802.4916377952756
 20
270.2102125984252
 30
0.0
 10
-802.4916377952756
 20
270.2102125984252
 30
0.0
 10
-802.7052204724409
 20
270.3621456692914
 30
0.0
 10
-802.7052204724409
 20
270.3621456692914
 30
0.0
 10
-802.7052204724409
 20
270.3621456692914
 30
0.0
 10
-802.7052204724409
 20
270.3621456692914
 30
0.0
 10
-802.4431220472441
 20
270.3595236220472
 30
0.0
 10
-802.4431220472441
 20
270.3595236220472
 30
0.0
 10
-802.4431220472441
 20
270.3595236220472
 30
0.0
 10
-802.4431220472441
 20
270.3595236220472
 30
0.0
 10
-802.3646259842519
 20
270.6095984251969
 30
0.0
 10
-802.3646259842519
 20
270.6095984251969
 30
0.0
 10
-802.3646259842519
 20
270.6095984251969
 30
0.0
 10
-802.3646259842519
 20
270.6095984251969
 30
0.0
 10
-802.286125984252
 20
270.3595236220472
 30
0.0
 10
-802.286125984252
 20
270.3595236220472
 30
0.0
 10
-802.286125984252
 20
270.3595236220472
 30
0.0
 10
-802.286125984252
 20
270.3595236220472
 30
0.0
 10
-802.0240275590551
 20
270.3621456692914
 30
0.0
 10
-802.0240275590551
 20
270.3621456692914
 30
0.0
 10
-802.0240275590551
 20
270.3621456692914
 30
0.0
 10
-802.0240275590551
 20
270.3621456692914
 30
0.0
 10
-802.2376141732284
 20
270.2102125984252
 30
0.0
 10
-802.2376141732284
 20
270.2102125984252
 30
0.0
 10
-802.2376141732284
 20
270.2102125984252
 30
0.0
 10
-802.2376141732284
 20
270.2102125984252
 30
0.0
 10
-802.1541220472441
 20
269.9617480314961
 30
0.0
 10
-802.1541220472441
 20
269.9617480314961
 30
0.0
 10
-802.1541220472441
 20
269.9617480314961
 30
0.0
 10
-802.1541220472441
 20
269.9617480314961
 30
0.0
 10
-802.3646259842519
 20
270.1179330708661
 30
0.0
 10
-802.3646259842519
 20
270.1179330708661
 30
0.0
 10
-802.3646259842519
 20
270.1179330708661
 30
0.0
 10
-802.3646259842519
 20
270.1179330708661
 30
0.0
 10
-802.3646259842519
 20
270.1179330708661
 30
0.0
 10
-802.3646259842519
 20
270.1179330708661
 30
0.0
  0
SPLINE
  5
76
330
1F
100
AcDbEntity
  8
Layer 1
 62
     1
370
     9
100
AcDbSpline
210
0.0
220
0.0
230
1.0
 70
    11
 71
     3
 72
    48
 73
    44
 74
     0
 42
0.000000001
 43
0.0000000001
 40
0.0
 40
0.0
 40
0.0
 40
0.0
 40
0.0833333333333333
 40
0.0833333333333333
 40
0.0833333333333333
 40
0.0833333333333333
 40
0.1666666666666667
 40
0.1666666666666667
 40
0.1666666666666667
 40
0.1666666666666667
 40
0.25
 40
0.25
 40
0.25
 40
0.25
 40
0.3333333333333333
 40
0.3333333333333333
 40
0.3333333333333333
 40
0.3333333333333333
 40
0.4166666666666667
 40
0.4166666666666667
 40
0.4166666666666667
 40
0.4166666666666667
 40
0.5
 40
0.5
 40
0.5
 40
0.5
 40
0.5833333333333334
 40
0.5833333333333334
 40
0.5833333333333334
 40
0.5833333333333334
 40
0.6666666666666666
 40
0.6666666666666666
 40
0.6666666666666666
 40
0.6666666666666666
 40
0.75
 40
0.75
 40
0.75
 40
0.75
 40
0.8333333333333334
 40
0.8333333333333334
 40
0.8333333333333334
 40
0.8333333333333334
 40
1.0
 40
1.0
 40
1.0
 40
1.0
 10
-800.9337637795276
 20
270.1179330708661
 30
0.0
 10
-800.9337637795276
 20
270.1179330708661
 30
0.0
 10
-801.1442598425197
 20
269.9617480314961
 30
0.0
 10
-801.1442598425197
 20
269.9617480314961
 30
0.0
 10
-801.1442598425197
 20
269.9617480314961
 30
0.0
 10
-801.1442598425197
 20
269.9617480314961
 30
0.0
 10
-801.0607677165355
 20
270.2102125984252
 30
0.0
 10
-801.0607677165355
 20
270.2102125984252
 30
0.0
 10
-801.0607677165355
 20
270.2102125984252
 30
0.0
 10
-801.0607677165355
 20
270.2102125984252
 30
0.0
 10
-801.2743582677165
 20
270.3621456692914
 30
0.0
 10
-801.2743582677165
 20
270.3621456692914
 30
0.0
 10
-801.2743582677165
 20
270.3621456692914
 30
0.0
 10
-801.2743582677165
 20
270.3621456692914
 30
0.0
 10
-801.0122559055118
 20
270.3595236220472
 30
0.0
 10
-801.0122559055118
 20
270.3595236220472
 30
0.0
 10
-801.0122559055118
 20
270.3595236220472
 30
0.0
 10
-801.0122559055118
 20
270.3595236220472
 30
0.0
 10
-800.9337637795276
 20
270.6095984251969
 30
0.0
 10
-800.9337637795276
 20
270.6095984251969
 30
0.0
 10
-800.9337637795276
 20
270.6095984251969
 30
0.0
 10
-800.9337637795276
 20
270.6095984251969
 30
0.0
 10
-800.8552637795276
 20
270.3595236220472
 30
0.0
 10
-800.8552637795276
 20
270.3595236220472
 30
0.0
 10
-800.8552637795276
 20
270.3595236220472
 30
0.0
 10
-800.8552637795276
 20
270.3595236220472
 30
0.0
 10
-800.5931653543307
 20
270.3621456692914
 30
0.0
 10
-800.5931653543307
 20
270.3621456692914
 30
0.0
 10
-800.5931653543307
 20
270.3621456692914
 30
0.0
 10
-800.5931653543307
 20
270.3621456692914
 30
0.0
 10
-800.8067519685039
 20
270.2102125984252
 30
0.0
 10
-800.8067519685039
 20
270.2102125984252
 30
0.0
 10
-800.8067519685039
 20
270.2102125984252
 30
0.0
 10
-800.8067519685039
 20
270.2102125984252
 30
0.0
 10
-800.7232598425197
 20
269.9617480314961
 30
0.0
 10
-800.7232598425197
 20
269.9617480314961
 30
0.0
 10
-800.7232598425197
 20
269.9617480314961
 30
0.0
 10
-800.7232598425197
 20
269.9617480314961
 30
0.0
 10
-800.9337637795276
 20
270.1179330708661
 30
0.0
 10
-800.9337637795276
 20
270.1179330708661
 30
0.0
 10
-800.9337637795276
 20
270.1179330708661
 30
0.0
 10
-800.9337637795276
 20
270.1179330708661
 30
0.0
 10
-800.9337637795276
 20
270.1179330708661
 30
0.0
 10
-800.9337637795276
 20
270.1179330708661
 30
0.0
  0
SPLINE
  5
77
330
1F
100
AcDbEntity
  8
Layer 1
 62
     1
370
     9
100
AcDbSpline
210
0.0
220
0.0
230
1.0
 70
    11
 71
     3
 72
    48
 73
    44
 74
     0
 42
0.000000001
 43
0.0000000001
 40
0.0
 40
0.0
 40
0.0
 40
0.0
 40
0.0833333333333333
 40
0.0833333333333333
 40
0.0833333333333333
 40
0.0833333333333333
 40
0.1666666666666667
 40
0.1666666666666667
 40
0.1666666666666667
 40
0.1666666666666667
 40
0.25
 40
0.25
 40
0.25
 40
0.25
 40
0.3333333333333333
 40
0.3333333333333333
 40
0.3333333333333333
 40
0.3333333333333333
 40
0.4166666666666667
 40
0.4166666666666667
 40
0.4166666666666667
 40
0.4166666666666667
 40
0.5
 40
0.5
 40
0.5
 40
0.5
 40
0.5833333333333334
 40
0.5833333333333334
 40
0.5833333333333334
 40
0.5833333333333334
 40
0.6666666666666666
 40
0.6666666666666666
 40
0.6666666666666666
 40
0.6666666666666666
 40
0.75
 40
0.75
 40
0.75
 40
0.75
 40
0.8333333333333334
 40
0.8333333333333334
 40
0.8333333333333334
 40
0.8333333333333334
 40
1.0
 40
1.0
 40
1.0
 40
1.0
 10
-799.5028937007874
 20
270.1179330708661
 30
0.0
 10
-799.5028937007874
 20
270.1179330708661
 30
0.0
 10
-799.7133976377953
 20
269.9617480314961
 30
0.0
 10
-799.7133976377953
 20
269.9617480314961
 30
0.0
 10
-799.7133976377953
 20
269.9617480314961
 30
0.0
 10
-799.7133976377953
 20
269.9617480314961
 30
0.0
 10
-799.629905511811
 20
270.2102125984252
 30
0.0
 10
-799.629905511811
 20
270.2102125984252
 30
0.0
 10
-799.629905511811
 20
270.2102125984252
 30
0.0
 10
-799.629905511811
 20
270.2102125984252
 30
0.0
 10
-799.8434881889764
 20
270.3621456692914
 30
0.0
 10
-799.8434881889764
 20
270.3621456692914
 30
0.0
 10
-799.8434881889764
 20
270.3621456692914
 30
0.0
 10
-799.8434881889764
 20
270.3621456692914
 30
0.0
 10
-799.5813897637795
 20
270.3595236220472
 30
0.0
 10
-799.5813897637795
 20
270.3595236220472
 30
0.0
 10
-799.5813897637795
 20
270.3595236220472
 30
0.0
 10
-799.5813897637795
 20
270.3595236220472
 30
0.0
 10
-799.5028937007874
 20
270.6095984251969
 30
0.0
 10
-799.5028937007874
 20
270.6095984251969
 30
0.0
 10
-799.5028937007874
 20
270.6095984251969
 30
0.0
 10
-799.5028937007874
 20
270.6095984251969
 30
0.0
 10
-799.4244015748031
 20
270.3595236220472
 30
0.0
 10
-799.4244015748031
 20
270.3595236220472
 30
0.0
 10
-799.4244015748031
 20
270.3595236220472
 30
0.0
 10
-799.4244015748031
 20
270.3595236220472
 30
0.0
 10
-799.1622952755905
 20
270.3621456692914
 30
0.0
 10
-799.1622952755905
 20
270.3621456692914
 30
0.0
 10
-799.1622952755905
 20
270.3621456692914
 30
0.0
 10
-799.1622952755905
 20
270.3621456692914
 30
0.0
 10
-799.3758858267717
 20
270.2102125984252
 30
0.0
 10
-799.3758858267717
 20
270.2102125984252
 30
0.0
 10
-799.3758858267717
 20
270.2102125984252
 30
0.0
 10
-799.3758858267717
 20
270.2102125984252
 30
0.0
 10
-799.2923937007874
 20
269.9617480314961
 30
0.0
 10
-799.2923937007874
 20
269.9617480314961
 30
0.0
 10
-799.2923937007874
 20
269.9617480314961
 30
0.0
 10
-799.2923937007874
 20
269.9617480314961
 30
0.0
 10
-799.5028937007874
 20
270.1179330708661
 30
0.0
 10
-799.5028937007874
 20
270.1179330708661
 30
0.0
 10
-799.5028937007874
 20
270.1179330708661
 30
0.0
 10
-799.5028937007874
 20
270.1179330708661
 30
0.0
 10
-799.5028937007874
 20
270.1179330708661
 30
0.0
 10
-799.5028937007874
 20
270.1179330708661
 30
0.0
  0
SPLINE
  5
78
330
1F
100
AcDbEntity
  8
Layer 1
 62
     1
370
     9
100
AcDbSpline
210
0.0
220
0.0
230
1.0
 70
    11
 71
     3
 72
    48
 73
    44
 74
     0
 42
0.000000001
 43
0.0000000001
 40
0.0
 40
0.0
 40
0.0
 40
0.0
 40
0.0833333333333333
 40
0.0833333333333333
 40
0.0833333333333333
 40
0.0833333333333333
 40
0.1666666666666667
 40
0.1666666666666667
 40
0.1666666666666667
 40
0.1666666666666667
 40
0.25
 40
0.25
 40
0.25
 40
0.25
 40
0.3333333333333333
 40
0.3333333333333333
 40
0.3333333333333333
 40
0.3333333333333333
 40
0.4166666666666667
 40
0.4166666666666667
 40
0.4166666666666667
 40
0.4166666666666667
 40
0.5
 40
0.5
 40
0.5
 40
0.5
 40
0.5833333333333334
 40
0.5833333333333334
 40
0.5833333333333334
 40
0.5833333333333334
 40
0.6666666666666666
 40
0.6666666666666666
 40
0.6666666666666666
 40
0.6666666666666666
 40
0.75
 40
0.75
 40
0.75
 40
0.75
 40
0.8333333333333334
 40
0.8333333333333334
 40
0.8333333333333334
 40
0.8333333333333334
 40
1.0
 40
1.0
 40
1.0
 40
1.0
 10
-804.4998385826772
 20
269.5071653543307
 30
0.0
 10
-804.4998385826772
 20
269.5071653543307
 30
0.0
 10
-804.7103346456693
 20
269.3509803149606
 30
0.0
 10
-804.7103346456693
 20
269.3509803149606
 30
0.0
 10
-804.7103346456693
 20
269.3509803149606
 30
0.0
 10
-804.7103346456693
 20
269.3509803149606
 30
0.0
 10
-804.6268503937008
 20
269.5994448818898
 30
0.0
 10
-804.6268503937008
 20
269.5994448818898
 30
0.0
 10
-804.6268503937008
 20
269.5994448818898
 30
0.0
 10
-804.6268503937008
 20
269.5994448818898
 30
0.0
 10
-804.840437007874
 20
269.7513818897638
 30
0.0
 10
-804.840437007874
 20
269.7513818897638
 30
0.0
 10
-804.840437007874
 20
269.7513818897638
 30
0.0
 10
-804.840437007874
 20
269.7513818897638
 30
0.0
 10
-804.5783346456693
 20
269.7487559055118
 30
0.0
 10
-804.5783346456693
 20
269.7487559055118
 30
0.0
 10
-804.5783346456693
 20
269.7487559055118
 30
0.0
 10
-804.5783346456693
 20
269.7487559055118
 30
0.0
 10
-804.4998385826772
 20
269.9988385826771
 30
0.0
 10
-804.4998385826772
 20
269.9988385826771
 30
0.0
 10
-804.4998385826772
 20
269.9988385826771
 30
0.0
 10
-804.4998385826772
 20
269.9988385826771
 30
0.0
 10
-804.4213385826772
 20
269.7487559055118
 30
0.0
 10
-804.4213385826772
 20
269.7487559055118
 30
0.0
 10
-804.4213385826772
 20
269.7487559055118
 30
0.0
 10
-804.4213385826772
 20
269.7487559055118
 30
0.0
 10
-804.1592440944881
 20
269.7513818897638
 30
0.0
 10
-804.1592440944881
 20
269.7513818897638
 30
0.0
 10
-804.1592440944881
 20
269.7513818897638
 30
0.0
 10
-804.1592440944881
 20
269.7513818897638
 30
0.0
 10
-804.3728267716535
 20
269.5994448818898
 30
0.0
 10
-804.3728267716535
 20
269.5994448818898
 30
0.0
 10
-804.3728267716535
 20
269.5994448818898
 30
0.0
 10
-804.3728267716535
 20
269.5994448818898
 30
0.0
 10
-804.2893346456693
 20
269.3509803149606
 30
0.0
 10
-804.2893346456693
 20
269.3509803149606
 30
0.0
 10
-804.2893346456693
 20
269.3509803149606
 30
0.0
 10
-804.2893346456693
 20
269.3509803149606
 30
0.0
 10
-804.4998385826772
 20
269.5071653543307
 30
0.0
 10
-804.4998385826772
 20
269.5071653543307
 30
0.0
 10
-804.4998385826772
 20
269.5071653543307
 30
0.0
 10
-804.4998385826772
 20
269.5071653543307
 30
0.0
 10
-804.4998385826772
 20
269.5071653543307
 30
0.0
 10
-804.4998385826772
 20
269.5071653543307
 30
0.0
  0
SPLINE
  5
79
330
1F
100
AcDbEntity
  8
Layer 1
 62
     1
370
     9
100
AcDbSpline
210
0.0
220
0.0
230
1.0
 70
    11
 71
     3
 72
    48
 73
    44
 74
     0
 42
0.000000001
 43
0.0000000001
 40
0.0
 40
0.0
 40
0.0
 40
0.0
 40
0.0833333333333333
 40
0.0833333333333333
 40
0.0833333333333333
 40
0.0833333333333333
 40
0.1666666666666667
 40
0.1666666666666667
 40
0.1666666666666667
 40
0.1666666666666667
 40
0.25
 40
0.25
 40
0.25
 40
0.25
 40
0.3333333333333333
 40
0.3333333333333333
 40
0.3333333333333333
 40
0.3333333333333333
 40
0.4166666666666667
 40
0.4166666666666667
 40
0.4166666666666667
 40
0.4166666666666667
 40
0.5
 40
0.5
 40
0.5
 40
0.5
 40
0.5833333333333334
 40
0.5833333333333334
 40
0.5833333333333334
 40
0.5833333333333334
 40
0.6666666666666666
 40
0.6666666666666666
 40
0.6666666666666666
 40
0.6666666666666666
 40
0.75
 40
0.75
 40
0.75
 40
0.75
 40
0.8333333333333334
 40
0.8333333333333334
 40
0.8333333333333334
 40
0.8333333333333334
 40
1.0
 40
1.0
 40
1.0
 40
1.0
 10
-803.0689763779527
 20
269.5071653543307
 30
0.0
 10
-803.0689763779527
 20
269.5071653543307
 30
0.0
 10
-803.2794724409449
 20
269.3509803149606
 30
0.0
 10
-803.2794724409449
 20
269.3509803149606
 30
0.0
 10
-803.2794724409449
 20
269.3509803149606
 30
0.0
 10
-803.2794724409449
 20
269.3509803149606
 30
0.0
 10
-803.1959803149606
 20
269.5994448818898
 30
0.0
 10
-803.1959803149606
 20
269.5994448818898
 30
0.0
 10
-803.1959803149606
 20
269.5994448818898
 30
0.0
 10
-803.1959803149606
 20
269.5994448818898
 30
0.0
 10
-803.4095708661417
 20
269.7513818897638
 30
0.0
 10
-803.4095708661417
 20
269.7513818897638
 30
0.0
 10
-803.4095708661417
 20
269.7513818897638
 30
0.0
 10
-803.4095708661417
 20
269.7513818897638
 30
0.0
 10
-803.147468503937
 20
269.7487559055118
 30
0.0
 10
-803.147468503937
 20
269.7487559055118
 30
0.0
 10
-803.147468503937
 20
269.7487559055118
 30
0.0
 10
-803.147468503937
 20
269.7487559055118
 30
0.0
 10
-803.0689763779527
 20
269.9988385826771
 30
0.0
 10
-803.0689763779527
 20
269.9988385826771
 30
0.0
 10
-803.0689763779527
 20
269.9988385826771
 30
0.0
 10
-803.0689763779527
 20
269.9988385826771
 30
0.0
 10
-802.9904763779527
 20
269.7487559055118
 30
0.0
 10
-802.9904763779527
 20
269.7487559055118
 30
0.0
 10
-802.9904763779527
 20
269.7487559055118
 30
0.0
 10
-802.9904763779527
 20
269.7487559055118
 30
0.0
 10
-802.7283779527559
 20
269.7513818897638
 30
0.0
 10
-802.7283779527559
 20
269.7513818897638
 30
0.0
 10
-802.7283779527559
 20
269.7513818897638
 30
0.0
 10
-802.7283779527559
 20
269.7513818897638
 30
0.0
 10
-802.9419645669292
 20
269.5994448818898
 30
0.0
 10
-802.9419645669292
 20
269.5994448818898
 30
0.0
 10
-802.9419645669292
 20
269.5994448818898
 30
0.0
 10
-802.9419645669292
 20
269.5994448818898
 30
0.0
 10
-802.8584724409449
 20
269.3509803149606
 30
0.0
 10
-802.8584724409449
 20
269.3509803149606
 30
0.0
 10
-802.8584724409449
 20
269.3509803149606
 30
0.0
 10
-802.8584724409449
 20
269.3509803149606
 30
0.0
 10
-803.0689763779527
 20
269.5071653543307
 30
0.0
 10
-803.0689763779527
 20
269.5071653543307
 30
0.0
 10
-803.0689763779527
 20
269.5071653543307
 30
0.0
 10
-803.0689763779527
 20
269.5071653543307
 30
0.0
 10
-803.0689763779527
 20
269.5071653543307
 30
0.0
 10
-803.0689763779527
 20
269.5071653543307
 30
0.0
  0
SPLINE
  5
7A
330
1F
100
AcDbEntity
  8
Layer 1
 62
     1
370
     9
100
AcDbSpline
210
0.0
220
0.0
230
1.0
 70
    11
 71
     3
 72
    48
 73
    44
 74
     0
 42
0.000000001
 43
0.0000000001
 40
0.0
 40
0.0
 40
0.0
 40
0.0
 40
0.0833333333333333
 40
0.0833333333333333
 40
0.0833333333333333
 40
0.0833333333333333
 40
0.1666666666666667
 40
0.1666666666666667
 40
0.1666666666666667
 40
0.1666666666666667
 40
0.25
 40
0.25
 40
0.25
 40
0.25
 40
0.3333333333333333
 40
0.3333333333333333
 40
0.3333333333333333
 40
0.3333333333333333
 40
0.4166666666666667
 40
0.4166666666666667
 40
0.4166666666666667
 40
0.4166666666666667
 40
0.5
 40
0.5
 40
0.5
 40
0.5
 40
0.5833333333333334
 40
0.5833333333333334
 40
0.5833333333333334
 40
0.5833333333333334
 40
0.6666666666666666
 40
0.6666666666666666
 40
0.6666666666666666
 40
0.6666666666666666
 40
0.75
 40
0.75
 40
0.75
 40
0.75
 40
0.8333333333333334
 40
0.8333333333333334
 40
0.8333333333333334
 40
0.8333333333333334
 40
1.0
 40
1.0
 40
1.0
 40
1.0
 10
-805.9307007874015
 20
269.5071653543307
 30
0.0
 10
-805.9307007874015
 20
269.5071653543307
 30
0.0
 10
-806.1412007874015
 20
269.3509803149606
 30
0.0
 10
-806.1412007874015
 20
269.3509803149606
 30
0.0
 10
-806.1412007874015
 20
269.3509803149606
 30
0.0
 10
-806.1412007874015
 20
269.3509803149606
 30
0.0
 10
-806.0577125984252
 20
269.5994448818898
 30
0.0
 10
-806.0577125984252
 20
269.5994448818898
 30
0.0
 10
-806.0577125984252
 20
269.5994448818898
 30
0.0
 10
-806.0577125984252
 20
269.5994448818898
 30
0.0
 10
-806.2712992125985
 20
269.7513818897638
 30
0.0
 10
-806.2712992125985
 20
269.7513818897638
 30
0.0
 10
-806.2712992125985
 20
269.7513818897638
 30
0.0
 10
-806.2712992125985
 20
269.7513818897638
 30
0.0
 10
-806.0091968503937
 20
269.7487559055118
 30
0.0
 10
-806.0091968503937
 20
269.7487559055118
 30
0.0
 10
-806.0091968503937
 20
269.7487559055118
 30
0.0
 10
-806.0091968503937
 20
269.7487559055118
 30
0.0
 10
-805.9307007874015
 20
269.9988385826771
 30
0.0
 10
-805.9307007874015
 20
269.9988385826771
 30
0.0
 10
-805.9307007874015
 20
269.9988385826771
 30
0.0
 10
-805.9307007874015
 20
269.9988385826771
 30
0.0
 10
-805.8522047244095
 20
269.7487559055118
 30
0.0
 10
-805.8522047244095
 20
269.7487559055118
 30
0.0
 10
-805.8522047244095
 20
269.7487559055118
 30
0.0
 10
-805.8522047244095
 20
269.7487559055118
 30
0.0
 10
-805.5901062992126
 20
269.7513818897638
 30
0.0
 10
-805.5901062992126
 20
269.7513818897638
 30
0.0
 10
-805.5901062992126
 20
269.7513818897638
 30
0.0
 10
-805.5901062992126
 20
269.7513818897638
 30
0.0
 10
-805.803688976378
 20
269.5994448818898
 30
0.0
 10
-805.803688976378
 20
269.5994448818898
 30
0.0
 10
-805.803688976378
 20
269.5994448818898
 30
0.0
 10
-805.803688976378
 20
269.5994448818898
 30
0.0
 10
-805.7201968503937
 20
269.3509803149606
 30
0.0
 10
-805.7201968503937
 20
269.3509803149606
 30
0.0
 10
-805.7201968503937
 20
269.3509803149606
 30
0.0
 10
-805.7201968503937
 20
269.3509803149606
 30
0.0
 10
-805.9307007874015
 20
269.5071653543307
 30
0.0
 10
-805.9307007874015
 20
269.5071653543307
 30
0.0
 10
-805.9307007874015
 20
269.5071653543307
 30
0.0
 10
-805.9307007874015
 20
269.5071653543307
 30
0.0
 10
-805.9307007874015
 20
269.5071653543307
 30
0.0
 10
-805.9307007874015
 20
269.5071653543307
 30
0.0
  0
SPLINE
  5
7B
330
1F
100
AcDbEntity
  8
Layer 1
 62
     1
370
     9
100
AcDbSpline
210
0.0
220
0.0
230
1.0
 70
    11
 71
     3
 72
    48
 73
    44
 74
     0
 42
0.000000001
 43
0.0000000001
 40
0.0
 40
0.0
 40
0.0
 40
0.0
 40
0.0833333333333333
 40
0.0833333333333333
 40
0.0833333333333333
 40
0.0833333333333333
 40
0.1666666666666667
 40
0.1666666666666667
 40
0.1666666666666667
 40
0.1666666666666667
 40
0.25
 40
0.25
 40
0.25
 40
0.25
 40
0.3333333333333333
 40
0.3333333333333333
 40
0.3333333333333333
 40
0.3333333333333333
 40
0.4166666666666667
 40
0.4166666666666667
 40
0.4166666666666667
 40
0.4166666666666667
 40
0.5
 40
0.5
 40
0.5
 40
0.5
 40
0.5833333333333334
 40
0.5833333333333334
 40
0.5833333333333334
 40
0.5833333333333334
 40
0.6666666666666666
 40
0.6666666666666666
 40
0.6666666666666666
 40
0.6666666666666666
 40
0.75
 40
0.75
 40
0.75
 40
0.75
 40
0.8333333333333334
 40
0.8333333333333334
 40
0.8333333333333334
 40
0.8333333333333334
 40
1.0
 40
1.0
 40
1.0
 40
1.0
 10
-801.6504251968504
 20
269.5071653543307
 30
0.0
 10
-801.6504251968504
 20
269.5071653543307
 30
0.0
 10
-801.8609212598425
 20
269.3509803149606
 30
0.0
 10
-801.8609212598425
 20
269.3509803149606
 30
0.0
 10
-801.8609212598425
 20
269.3509803149606
 30
0.0
 10
-801.8609212598425
 20
269.3509803149606
 30
0.0
 10
-801.777437007874
 20
269.5994448818898
 30
0.0
 10
-801.777437007874
 20
269.5994448818898
 30
0.0
 10
-801.777437007874
 20
269.5994448818898
 30
0.0
 10
-801.777437007874
 20
269.5994448818898
 30
0.0
 10
-801.9910196850394
 20
269.7513818897638
 30
0.0
 10
-801.9910196850394
 20
269.7513818897638
 30
0.0
 10
-801.9910196850394
 20
269.7513818897638
 30
0.0
 10
-801.9910196850394
 20
269.7513818897638
 30
0.0
 10
-801.7289212598425
 20
269.7487559055118
 30
0.0
 10
-801.7289212598425
 20
269.7487559055118
 30
0.0
 10
-801.7289212598425
 20
269.7487559055118
 30
0.0
 10
-801.7289212598425
 20
269.7487559055118
 30
0.0
 10
-801.6504251968504
 20
269.9988385826771
 30
0.0
 10
-801.6504251968504
 20
269.9988385826771
 30
0.0
 10
-801.6504251968504
 20
269.9988385826771
 30
0.0
 10
-801.6504251968504
 20
269.9988385826771
 30
0.0
 10
-801.5719212598425
 20
269.7487559055118
 30
0.0
 10
-801.5719212598425
 20
269.7487559055118
 30
0.0
 10
-801.5719212598425
 20
269.7487559055118
 30
0.0
 10
-801.5719212598425
 20
269.7487559055118
 30
0.0
 10
-801.3098228346456
 20
269.7513818897638
 30
0.0
 10
-801.3098228346456
 20
269.7513818897638
 30
0.0
 10
-801.3098228346456
 20
269.7513818897638
 30
0.0
 10
-801.3098228346456
 20
269.7513818897638
 30
0.0
 10
-801.5234094488189
 20
269.5994448818898
 30
0.0
 10
-801.5234094488189
 20
269.5994448818898
 30
0.0
 10
-801.5234094488189
 20
269.5994448818898
 30
0.0
 10
-801.5234094488189
 20
269.5994448818898
 30
0.0
 10
-801.4399212598425
 20
269.3509803149606
 30
0.0
 10
-801.4399212598425
 20
269.3509803149606
 30
0.0
 10
-801.4399212598425
 20
269.3509803149606
 30
0.0
 10
-801.4399212598425
 20
269.3509803149606
 30
0.0
 10
-801.6504251968504
 20
269.5071653543307
 30
0.0
 10
-801.6504251968504
 20
269.5071653543307
 30
0.0
 10
-801.6504251968504
 20
269.5071653543307
 30
0.0
 10
-801.6504251968504
 20
269.5071653543307
 30
0.0
 10
-801.6504251968504
 20
269.5071653543307
 30
0.0
 10
-801.6504251968504
 20
269.5071653543307
 30
0.0
  0
SPLINE
  5
7C
330
1F
100
AcDbEntity
  8
Layer 1
 62
     1
370
     9
100
AcDbSpline
210
0.0
220
0.0
230
1.0
 70
    11
 71
     3
 72
    48
 73
    44
 74
     0
 42
0.000000001
 43
0.0000000001
 40
0.0
 40
0.0
 40
0.0
 40
0.0
 40
0.0833333333333333
 40
0.0833333333333333
 40
0.0833333333333333
 40
0.0833333333333333
 40
0.1666666666666667
 40
0.1666666666666667
 40
0.1666666666666667
 40
0.1666666666666667
 40
0.25
 40
0.25
 40
0.25
 40
0.25
 40
0.3333333333333333
 40
0.3333333333333333
 40
0.3333333333333333
 40
0.3333333333333333
 40
0.4166666666666667
 40
0.4166666666666667
 40
0.4166666666666667
 40
0.4166666666666667
 40
0.5
 40
0.5
 40
0.5
 40
0.5
 40
0.5833333333333334
 40
0.5833333333333334
 40
0.5833333333333334
 40
0.5833333333333334
 40
0.6666666666666666
 40
0.6666666666666666
 40
0.6666666666666666
 40
0.6666666666666666
 40
0.75
 40
0.75
 40
0.75
 40
0.75
 40
0.8333333333333334
 40
0.8333333333333334
 40
0.8333333333333334
 40
0.8333333333333334
 40
1.0
 40
1.0
 40
1.0
 40
1.0
 10
-800.2195590551181
 20
269.5071653543307
 30
0.0
 10
-800.2195590551181
 20
269.5071653543307
 30
0.0
 10
-800.4300551181102
 20
269.3509803149606
 30
0.0
 10
-800.4300551181102
 20
269.3509803149606
 30
0.0
 10
-800.4300551181102
 20
269.3509803149606
 30
0.0
 10
-800.4300551181102
 20
269.3509803149606
 30
0.0
 10
-800.3465748031496
 20
269.5994448818898
 30
0.0
 10
-800.3465748031496
 20
269.5994448818898
 30
0.0
 10
-800.3465748031496
 20
269.5994448818898
 30
0.0
 10
-800.3465748031496
 20
269.5994448818898
 30
0.0
 10
-800.560157480315
 20
269.7513818897638
 30
0.0
 10
-800.560157480315
 20
269.7513818897638
 30
0.0
 10
-800.560157480315
 20
269.7513818897638
 30
0.0
 10
-800.560157480315
 20
269.7513818897638
 30
0.0
 10
-800.2980590551181
 20
269.7487559055118
 30
0.0
 10
-800.2980590551181
 20
269.7487559055118
 30
0.0
 10
-800.2980590551181
 20
269.7487559055118
 30
0.0
 10
-800.2980590551181
 20
269.7487559055118
 30
0.0
 10
-800.2195590551181
 20
269.9988385826771
 30
0.0
 10
-800.2195590551181
 20
269.9988385826771
 30
0.0
 10
-800.2195590551181
 20
269.9988385826771
 30
0.0
 10
-800.2195590551181
 20
269.9988385826771
 30
0.0
 10
-800.1410590551181
 20
269.7487559055118
 30
0.0
 10
-800.1410590551181
 20
269.7487559055118
 30
0.0
 10
-800.1410590551181
 20
269.7487559055118
 30
0.0
 10
-800.1410590551181
 20
269.7487559055118
 30
0.0
 10
-799.8789606299213
 20
269.7513818897638
 30
0.0
 10
-799.8789606299213
 20
269.7513818897638
 30
0.0
 10
-799.8789606299213
 20
269.7513818897638
 30
0.0
 10
-799.8789606299213
 20
269.7513818897638
 30
0.0
 10
-800.0925433070867
 20
269.5994448818898
 30
0.0
 10
-800.0925433070867
 20
269.5994448818898
 30
0.0
 10
-800.0925433070867
 20
269.5994448818898
 30
0.0
 10
-800.0925433070867
 20
269.5994448818898
 30
0.0
 10
-800.0090590551181
 20
269.3509803149606
 30
0.0
 10
-800.0090590551181
 20
269.3509803149606
 30
0.0
 10
-800.0090590551181
 20
269.3509803149606
 30
0.0
 10
-800.0090590551181
 20
269.3509803149606
 30
0.0
 10
-800.2195590551181
 20
269.5071653543307
 30
0.0
 10
-800.2195590551181
 20
269.5071653543307
 30
0.0
 10
-800.2195590551181
 20
269.5071653543307
 30
0.0
 10
-800.2195590551181
 20
269.5071653543307
 30
0.0
 10
-800.2195590551181
 20
269.5071653543307
 30
0.0
 10
-800.2195590551181
 20
269.5071653543307
 30
0.0
  0
SPLINE
  5
7D
330
1F
100
AcDbEntity
  8
Layer 1
 62
     1
370
     9
100
AcDbSpline
210
0.0
220
0.0
230
1.0
 70
    11
 71
     3
 72
    48
 73
    44
 74
     0
 42
0.000000001
 43
0.0000000001
 40
0.0
 40
0.0
 40
0.0
 40
0.0
 40
0.0833333333333333
 40
0.0833333333333333
 40
0.0833333333333333
 40
0.0833333333333333
 40
0.1666666666666667
 40
0.1666666666666667
 40
0.1666666666666667
 40
0.1666666666666667
 40
0.25
 40
0.25
 40
0.25
 40
0.25
 40
0.3333333333333333
 40
0.3333333333333333
 40
0.3333333333333333
 40
0.3333333333333333
 40
0.4166666666666667
 40
0.4166666666666667
 40
0.4166666666666667
 40
0.4166666666666667
 40
0.5
 40
0.5
 40
0.5
 40
0.5
 40
0.5833333333333334
 40
0.5833333333333334
 40
0.5833333333333334
 40
0.5833333333333334
 40
0.6666666666666666
 40
0.6666666666666666
 40
0.6666666666666666
 40
0.6666666666666666
 40
0.75
 40
0.75
 40
0.75
 40
0.75
 40
0.8333333333333334
 40
0.8333333333333334
 40
0.8333333333333334
 40
0.8333333333333334
 40
1.0
 40
1.0
 40
1.0
 40
1.0
 10
-798.7886968503936
 20
269.5071653543307
 30
0.0
 10
-798.7886968503936
 20
269.5071653543307
 30
0.0
 10
-798.9991929133859
 20
269.3509803149606
 30
0.0
 10
-798.9991929133859
 20
269.3509803149606
 30
0.0
 10
-798.9991929133859
 20
269.3509803149606
 30
0.0
 10
-798.9991929133859
 20
269.3509803149606
 30
0.0
 10
-798.9157086614173
 20
269.5994448818898
 30
0.0
 10
-798.9157086614173
 20
269.5994448818898
 30
0.0
 10
-798.9157086614173
 20
269.5994448818898
 30
0.0
 10
-798.9157086614173
 20
269.5994448818898
 30
0.0
 10
-799.1292952755906
 20
269.7513818897638
 30
0.0
 10
-799.1292952755906
 20
269.7513818897638
 30
0.0
 10
-799.1292952755906
 20
269.7513818897638
 30
0.0
 10
-799.1292952755906
 20
269.7513818897638
 30
0.0
 10
-798.8671968503937
 20
269.7487559055118
 30
0.0
 10
-798.8671968503937
 20
269.7487559055118
 30
0.0
 10
-798.8671968503937
 20
269.7487559055118
 30
0.0
 10
-798.8671968503937
 20
269.7487559055118
 30
0.0
 10
-798.7886968503936
 20
269.9988385826771
 30
0.0
 10
-798.7886968503936
 20
269.9988385826771
 30
0.0
 10
-798.7886968503936
 20
269.9988385826771
 30
0.0
 10
-798.7886968503936
 20
269.9988385826771
 30
0.0
 10
-798.7101968503937
 20
269.7487559055118
 30
0.0
 10
-798.7101968503937
 20
269.7487559055118
 30
0.0
 10
-798.7101968503937
 20
269.7487559055118
 30
0.0
 10
-798.7101968503937
 20
269.7487559055118
 30
0.0
 10
-798.4480984251968
 20
269.7513818897638
 30
0.0
 10
-798.4480984251968
 20
269.7513818897638
 30
0.0
 10
-798.4480984251968
 20
269.7513818897638
 30
0.0
 10
-798.4480984251968
 20
269.7513818897638
 30
0.0
 10
-798.6616811023622
 20
269.5994448818898
 30
0.0
 10
-798.6616811023622
 20
269.5994448818898
 30
0.0
 10
-798.6616811023622
 20
269.5994448818898
 30
0.0
 10
-798.6616811023622
 20
269.5994448818898
 30
0.0
 10
-798.578188976378
 20
269.3509803149606
 30
0.0
 10
-798.578188976378
 20
269.3509803149606
 30
0.0
 10
-798.578188976378
 20
269.3509803149606
 30
0.0
 10
-798.578188976378
 20
269.3509803149606
 30
0.0
 10
-798.7886968503936
 20
269.5071653543307
 30
0.0
 10
-798.7886968503936
 20
269.5071653543307
 30
0.0
 10
-798.7886968503936
 20
269.5071653543307
 30
0.0
 10
-798.7886968503936
 20
269.5071653543307
 30
0.0
 10
-798.7886968503936
 20
269.5071653543307
 30
0.0
 10
-798.7886968503936
 20
269.5071653543307
 30
0.0
  0
SPLINE
  5
7E
330
1F
100
AcDbEntity
  8
Layer 1
 62
     1
370
     9
100
AcDbSpline
210
0.0
220
0.0
230
1.0
 70
    11
 71
     3
 72
    48
 73
    44
 74
     0
 42
0.000000001
 43
0.0000000001
 40
0.0
 40
0.0
 40
0.0
 40
0.0
 40
0.0833333333333333
 40
0.0833333333333333
 40
0.0833333333333333
 40
0.0833333333333333
 40
0.1666666666666667
 40
0.1666666666666667
 40
0.1666666666666667
 40
0.1666666666666667
 40
0.25
 40
0.25
 40
0.25
 40
0.25
 40
0.3333333333333333
 40
0.3333333333333333
 40
0.3333333333333333
 40
0.3333333333333333
 40
0.4166666666666667
 40
0.4166666666666667
 40
0.4166666666666667
 40
0.4166666666666667
 40
0.5
 40
0.5
 40
0.5
 40
0.5
 40
0.5833333333333334
 40
0.5833333333333334
 40
0.5833333333333334
 40
0.5833333333333334
 40
0.6666666666666666
 40
0.6666666666666666
 40
0.6666666666666666
 40
0.6666666666666666
 40
0.75
 40
0.75
 40
0.75
 40
0.75
 40
0.8333333333333334
 40
0.8333333333333334
 40
0.8333333333333334
 40
0.8333333333333334
 40
1.0
 40
1.0
 40
1.0
 40
1.0
 10
-803.7856377952755
 20
268.9111811023622
 30
0.0
 10
-803.7856377952755
 20
268.9111811023622
 30
0.0
 10
-803.9961338582677
 20
268.7549960629921
 30
0.0
 10
-803.9961338582677
 20
268.7549960629921
 30
0.0
 10
-803.9961338582677
 20
268.7549960629921
 30
0.0
 10
-803.9961338582677
 20
268.7549960629921
 30
0.0
 10
-803.9126496062992
 20
269.0034606299213
 30
0.0
 10
-803.9126496062992
 20
269.0034606299213
 30
0.0
 10
-803.9126496062992
 20
269.0034606299213
 30
0.0
 10
-803.9126496062992
 20
269.0034606299213
 30
0.0
 10
-804.1262322834646
 20
269.1553937007874
 30
0.0
 10
-804.1262322834646
 20
269.1553937007874
 30
0.0
 10
-804.1262322834646
 20
269.1553937007874
 30
0.0
 10
-804.1262322834646
 20
269.1553937007874
 30
0.0
 10
-803.8641338582677
 20
269.1527637795276
 30
0.0
 10
-803.8641338582677
 20
269.1527637795276
 30
0.0
 10
-803.8641338582677
 20
269.1527637795276
 30
0.0
 10
-803.8641338582677
 20
269.1527637795276
 30
0.0
 10
-803.7856377952755
 20
269.4028464566929
 30
0.0
 10
-803.7856377952755
 20
269.4028464566929
 30
0.0
 10
-803.7856377952755
 20
269.4028464566929
 30
0.0
 10
-803.7856377952755
 20
269.4028464566929
 30
0.0
 10
-803.7071338582678
 20
269.1527637795276
 30
0.0
 10
-803.7071338582678
 20
269.1527637795276
 30
0.0
 10
-803.7071338582678
 20
269.1527637795276
 30
0.0
 10
-803.7071338582678
 20
269.1527637795276
 30
0.0
 10
-803.4450354330709
 20
269.1553937007874
 30
0.0
 10
-803.4450354330709
 20
269.1553937007874
 30
0.0
 10
-803.4450354330709
 20
269.1553937007874
 30
0.0
 10
-803.4450354330709
 20
269.1553937007874
 30
0.0
 10
-803.6586220472441
 20
269.0034606299213
 30
0.0
 10
-803.6586220472441
 20
269.0034606299213
 30
0.0
 10
-803.6586220472441
 20
269.0034606299213
 30
0.0
 10
-803.6586220472441
 20
269.0034606299213
 30
0.0
 10
-803.5751377952756
 20
268.7549960629921
 30
0.0
 10
-803.5751377952756
 20
268.7549960629921
 30
0.0
 10
-803.5751377952756
 20
268.7549960629921
 30
0.0
 10
-803.5751377952756
 20
268.7549960629921
 30
0.0
 10
-803.7856377952755
 20
268.9111811023622
 30
0.0
 10
-803.7856377952755
 20
268.9111811023622
 30
0.0
 10
-803.7856377952755
 20
268.9111811023622
 30
0.0
 10
-803.7856377952755
 20
268.9111811023622
 30
0.0
 10
-803.7856377952755
 20
268.9111811023622
 30
0.0
 10
-803.7856377952755
 20
268.9111811023622
 30
0.0
  0
SPLINE
  5
7F
330
1F
100
AcDbEntity
  8
Layer 1
 62
     1
370
     9
100
AcDbSpline
210
0.0
220
0.0
230
1.0
 70
    11
 71
     3
 72
    48
 73
    44
 74
     0
 42
0.000000001
 43
0.0000000001
 40
0.0
 40
0.0
 40
0.0
 40
0.0
 40
0.0833333333333333
 40
0.0833333333333333
 40
0.0833333333333333
 40
0.0833333333333333
 40
0.1666666666666667
 40
0.1666666666666667
 40
0.1666666666666667
 40
0.1666666666666667
 40
0.25
 40
0.25
 40
0.25
 40
0.25
 40
0.3333333333333333
 40
0.3333333333333333
 40
0.3333333333333333
 40
0.3333333333333333
 40
0.4166666666666667
 40
0.4166666666666667
 40
0.4166666666666667
 40
0.4166666666666667
 40
0.5
 40
0.5
 40
0.5
 40
0.5
 40
0.5833333333333334
 40
0.5833333333333334
 40
0.5833333333333334
 40
0.5833333333333334
 40
0.6666666666666666
 40
0.6666666666666666
 40
0.6666666666666666
 40
0.6666666666666666
 40
0.75
 40
0.75
 40
0.75
 40
0.75
 40
0.8333333333333334
 40
0.8333333333333334
 40
0.8333333333333334
 40
0.8333333333333334
 40
1.0
 40
1.0
 40
1.0
 40
1.0
 10
-802.3547755905512
 20
268.9111811023622
 30
0.0
 10
-802.3547755905512
 20
268.9111811023622
 30
0.0
 10
-802.5652716535433
 20
268.7549960629921
 30
0.0
 10
-802.5652716535433
 20
268.7549960629921
 30
0.0
 10
-802.5652716535433
 20
268.7549960629921
 30
0.0
 10
-802.5652716535433
 20
268.7549960629921
 30
0.0
 10
-802.4817874015748
 20
269.0034606299213
 30
0.0
 10
-802.4817874015748
 20
269.0034606299213
 30
0.0
 10
-802.4817874015748
 20
269.0034606299213
 30
0.0
 10
-802.4817874015748
 20
269.0034606299213
 30
0.0
 10
-802.6953700787402
 20
269.1553937007874
 30
0.0
 10
-802.6953700787402
 20
269.1553937007874
 30
0.0
 10
-802.6953700787402
 20
269.1553937007874
 30
0.0
 10
-802.6953700787402
 20
269.1553937007874
 30
0.0
 10
-802.4332716535433
 20
269.1527637795276
 30
0.0
 10
-802.4332716535433
 20
269.1527637795276
 30
0.0
 10
-802.4332716535433
 20
269.1527637795276
 30
0.0
 10
-802.4332716535433
 20
269.1527637795276
 30
0.0
 10
-802.3547755905512
 20
269.4028464566929
 30
0.0
 10
-802.3547755905512
 20
269.4028464566929
 30
0.0
 10
-802.3547755905512
 20
269.4028464566929
 30
0.0
 10
-802.3547755905512
 20
269.4028464566929
 30
0.0
 10
-802.2762716535433
 20
269.1527637795276
 30
0.0
 10
-802.2762716535433
 20
269.1527637795276
 30
0.0
 10
-802.2762716535433
 20
269.1527637795276
 30
0.0
 10
-802.2762716535433
 20
269.1527637795276
 30
0.0
 10
-802.0141732283464
 20
269.1553937007874
 30
0.0
 10
-802.0141732283464
 20
269.1553937007874
 30
0.0
 10
-802.0141732283464
 20
269.1553937007874
 30
0.0
 10
-802.0141732283464
 20
269.1553937007874
 30
0.0
 10
-802.2277559055118
 20
269.0034606299213
 30
0.0
 10
-802.2277559055118
 20
269.0034606299213
 30
0.0
 10
-802.2277559055118
 20
269.0034606299213
 30
0.0
 10
-802.2277559055118
 20
269.0034606299213
 30
0.0
 10
-802.1442755905512
 20
268.7549960629921
 30
0.0
 10
-802.1442755905512
 20
268.7549960629921
 30
0.0
 10
-802.1442755905512
 20
268.7549960629921
 30
0.0
 10
-802.1442755905512
 20
268.7549960629921
 30
0.0
 10
-802.3547755905512
 20
268.9111811023622
 30
0.0
 10
-802.3547755905512
 20
268.9111811023622
 30
0.0
 10
-802.3547755905512
 20
268.9111811023622
 30
0.0
 10
-802.3547755905512
 20
268.9111811023622
 30
0.0
 10
-802.3547755905512
 20
268.9111811023622
 30
0.0
 10
-802.3547755905512
 20
268.9111811023622
 30
0.0
  0
SPLINE
  5
80
330
1F
100
AcDbEntity
  8
Layer 1
 62
     1
370
     9
100
AcDbSpline
210
0.0
220
0.0
230
1.0
 70
    11
 71
     3
 72
    48
 73
    44
 74
     0
 42
0.000000001
 43
0.0000000001
 40
0.0
 40
0.0
 40
0.0
 40
0.0
 40
0.0833333333333333
 40
0.0833333333333333
 40
0.0833333333333333
 40
0.0833333333333333
 40
0.1666666666666667
 40
0.1666666666666667
 40
0.1666666666666667
 40
0.1666666666666667
 40
0.25
 40
0.25
 40
0.25
 40
0.25
 40
0.3333333333333333
 40
0.3333333333333333
 40
0.3333333333333333
 40
0.3333333333333333
 40
0.4166666666666667
 40
0.4166666666666667
 40
0.4166666666666667
 40
0.4166666666666667
 40
0.5
 40
0.5
 40
0.5
 40
0.5
 40
0.5833333333333334
 40
0.5833333333333334
 40
0.5833333333333334
 40
0.5833333333333334
 40
0.6666666666666666
 40
0.6666666666666666
 40
0.6666666666666666
 40
0.6666666666666666
 40
0.75
 40
0.75
 40
0.75
 40
0.75
 40
0.8333333333333334
 40
0.8333333333333334
 40
0.8333333333333334
 40
0.8333333333333334
 40
1.0
 40
1.0
 40
1.0
 40
1.0
 10
-805.2165
 20
268.9111811023622
 30
0.0
 10
-805.2165
 20
268.9111811023622
 30
0.0
 10
-805.4270039370078
 20
268.7549960629921
 30
0.0
 10
-805.4270039370078
 20
268.7549960629921
 30
0.0
 10
-805.4270039370078
 20
268.7549960629921
 30
0.0
 10
-805.4270039370078
 20
268.7549960629921
 30
0.0
 10
-805.3435118110236
 20
269.0034606299213
 30
0.0
 10
-805.3435118110236
 20
269.0034606299213
 30
0.0
 10
-805.3435118110236
 20
269.0034606299213
 30
0.0
 10
-805.3435118110236
 20
269.0034606299213
 30
0.0
 10
-805.557094488189
 20
269.1553937007874
 30
0.0
 10
-805.557094488189
 20
269.1553937007874
 30
0.0
 10
-805.557094488189
 20
269.1553937007874
 30
0.0
 10
-805.557094488189
 20
269.1553937007874
 30
0.0
 10
-805.295
 20
269.1527637795276
 30
0.0
 10
-805.295
 20
269.1527637795276
 30
0.0
 10
-805.295
 20
269.1527637795276
 30
0.0
 10
-805.295
 20
269.1527637795276
 30
0.0
 10
-805.2165
 20
269.4028464566929
 30
0.0
 10
-805.2165
 20
269.4028464566929
 30
0.0
 10
-805.2165
 20
269.4028464566929
 30
0.0
 10
-805.2165
 20
269.4028464566929
 30
0.0
 10
-805.1380039370079
 20
269.1527637795276
 30
0.0
 10
-805.1380039370079
 20
269.1527637795276
 30
0.0
 10
-805.1380039370079
 20
269.1527637795276
 30
0.0
 10
-805.1380039370079
 20
269.1527637795276
 30
0.0
 10
-804.8758976377952
 20
269.1553937007874
 30
0.0
 10
-804.8758976377952
 20
269.1553937007874
 30
0.0
 10
-804.8758976377952
 20
269.1553937007874
 30
0.0
 10
-804.8758976377952
 20
269.1553937007874
 30
0.0
 10
-805.0894881889764
 20
269.0034606299213
 30
0.0
 10
-805.0894881889764
 20
269.0034606299213
 30
0.0
 10
-805.0894881889764
 20
269.0034606299213
 30
0.0
 10
-805.0894881889764
 20
269.0034606299213
 30
0.0
 10
-805.006
 20
268.7549960629921
 30
0.0
 10
-805.006
 20
268.7549960629921
 30
0.0
 10
-805.006
 20
268.7549960629921
 30
0.0
 10
-805.006
 20
268.7549960629921
 30
0.0
 10
-805.2165
 20
268.9111811023622
 30
0.0
 10
-805.2165
 20
268.9111811023622
 30
0.0
 10
-805.2165
 20
268.9111811023622
 30
0.0
 10
-805.2165
 20
268.9111811023622
 30
0.0
 10
-805.2165
 20
268.9111811023622
 30
0.0
 10
-805.2165
 20
268.9111811023622
 30
0.0
  0
SPLINE
  5
81
330
1F
100
AcDbEntity
  8
Layer 1
 62
     1
370
     9
100
AcDbSpline
210
0.0
220
0.0
230
1.0
 70
    11
 71
     3
 72
    48
 73
    44
 74
     0
 42
0.000000001
 43
0.0000000001
 40
0.0
 40
0.0
 40
0.0
 40
0.0
 40
0.0833333333333333
 40
0.0833333333333333
 40
0.0833333333333333
 40
0.0833333333333333
 40
0.1666666666666667
 40
0.1666666666666667
 40
0.1666666666666667
 40
0.1666666666666667
 40
0.25
 40
0.25
 40
0.25
 40
0.25
 40
0.3333333333333333
 40
0.3333333333333333
 40
0.3333333333333333
 40
0.3333333333333333
 40
0.4166666666666667
 40
0.4166666666666667
 40
0.4166666666666667
 40
0.4166666666666667
 40
0.5
 40
0.5
 40
0.5
 40
0.5
 40
0.5833333333333334
 40
0.5833333333333334
 40
0.5833333333333334
 40
0.5833333333333334
 40
0.6666666666666666
 40
0.6666666666666666
 40
0.6666666666666666
 40
0.6666666666666666
 40
0.75
 40
0.75
 40
0.75
 40
0.75
 40
0.8333333333333334
 40
0.8333333333333334
 40
0.8333333333333334
 40
0.8333333333333334
 40
1.0
 40
1.0
 40
1.0
 40
1.0
 10
-800.9362165354331
 20
268.9111811023622
 30
0.0
 10
-800.9362165354331
 20
268.9111811023622
 30
0.0
 10
-801.1467244094488
 20
268.7549960629921
 30
0.0
 10
-801.1467244094488
 20
268.7549960629921
 30
0.0
 10
-801.1467244094488
 20
268.7549960629921
 30
0.0
 10
-801.1467244094488
 20
268.7549960629921
 30
0.0
 10
-801.0632283464566
 20
269.0034606299213
 30
0.0
 10
-801.0632283464566
 20
269.0034606299213
 30
0.0
 10
-801.0632283464566
 20
269.0034606299213
 30
0.0
 10
-801.0632283464566
 20
269.0034606299213
 30
0.0
 10
-801.2768228346457
 20
269.1553937007874
 30
0.0
 10
-801.2768228346457
 20
269.1553937007874
 30
0.0
 10
-801.2768228346457
 20
269.1553937007874
 30
0.0
 10
-801.2768228346457
 20
269.1553937007874
 30
0.0
 10
-801.0147204724409
 20
269.1527637795276
 30
0.0
 10
-801.0147204724409
 20
269.1527637795276
 30
0.0
 10
-801.0147204724409
 20
269.1527637795276
 30
0.0
 10
-801.0147204724409
 20
269.1527637795276
 30
0.0
 10
-800.9362165354331
 20
269.4028464566929
 30
0.0
 10
-800.9362165354331
 20
269.4028464566929
 30
0.0
 10
-800.9362165354331
 20
269.4028464566929
 30
0.0
 10
-800.9362165354331
 20
269.4028464566929
 30
0.0
 10
-800.8577283464567
 20
269.1527637795276
 30
0.0
 10
-800.8577283464567
 20
269.1527637795276
 30
0.0
 10
-800.8577283464567
 20
269.1527637795276
 30
0.0
 10
-800.8577283464567
 20
269.1527637795276
 30
0.0
 10
-800.5956220472441
 20
269.1553937007874
 30
0.0
 10
-800.5956220472441
 20
269.1553937007874
 30
0.0
 10
-800.5956220472441
 20
269.1553937007874
 30
0.0
 10
-800.5956220472441
 20
269.1553937007874
 30
0.0
 10
-800.8092125984252
 20
269.0034606299213
 30
0.0
 10
-800.8092125984252
 20
269.0034606299213
 30
0.0
 10
-800.8092125984252
 20
269.0034606299213
 30
0.0
 10
-800.8092125984252
 20
269.0034606299213
 30
0.0
 10
-800.7257204724409
 20
268.7549960629921
 30
0.0
 10
-800.7257204724409
 20
268.7549960629921
 30
0.0
 10
-800.7257204724409
 20
268.7549960629921
 30
0.0
 10
-800.7257204724409
 20
268.7549960629921
 30
0.0
 10
-800.9362165354331
 20
268.9111811023622
 30
0.0
 10
-800.9362165354331
 20
268.9111811023622
 30
0.0
 10
-800.9362165354331
 20
268.9111811023622
 30
0.0
 10
-800.9362165354331
 20
268.9111811023622
 30
0.0
 10
-800.9362165354331
 20
268.9111811023622
 30
0.0
 10
-800.9362165354331
 20
268.9111811023622
 30
0.0
  0
SPLINE
  5
82
330
1F
100
AcDbEntity
  8
Layer 1
 62
     1
370
     9
100
AcDbSpline
210
0.0
220
0.0
230
1.0
 70
    11
 71
     3
 72
    48
 73
    44
 74
     0
 42
0.000000001
 43
0.0000000001
 40
0.0
 40
0.0
 40
0.0
 40
0.0
 40
0.0833333333333333
 40
0.0833333333333333
 40
0.0833333333333333
 40
0.0833333333333333
 40
0.1666666666666667
 40
0.1666666666666667
 40
0.1666666666666667
 40
0.1666666666666667
 40
0.25
 40
0.25
 40
0.25
 40
0.25
 40
0.3333333333333333
 40
0.3333333333333333
 40
0.3333333333333333
 40
0.3333333333333333
 40
0.4166666666666667
 40
0.4166666666666667
 40
0.4166666666666667
 40
0.4166666666666667
 40
0.5
 40
0.5
 40
0.5
 40
0.5
 40
0.5833333333333334
 40
0.5833333333333334
 40
0.5833333333333334
 40
0.5833333333333334
 40
0.6666666666666666
 40
0.6666666666666666
 40
0.6666666666666666
 40
0.6666666666666666
 40
0.75
 40
0.75
 40
0.75
 40
0.75
 40
0.8333333333333334
 40
0.8333333333333334
 40
0.8333333333333334
 40
0.8333333333333334
 40
1.0
 40
1.0
 40
1.0
 40
1.0
 10
-799.5053543307087
 20
268.9111811023622
 30
0.0
 10
-799.5053543307087
 20
268.9111811023622
 30
0.0
 10
-799.7158582677165
 20
268.7549960629921
 30
0.0
 10
-799.7158582677165
 20
268.7549960629921
 30
0.0
 10
-799.7158582677165
 20
268.7549960629921
 30
0.0
 10
-799.7158582677165
 20
268.7549960629921
 30
0.0
 10
-799.6323661417323
 20
269.0034606299213
 30
0.0
 10
-799.6323661417323
 20
269.0034606299213
 30
0.0
 10
-799.6323661417323
 20
269.0034606299213
 30
0.0
 10
-799.6323661417323
 20
269.0034606299213
 30
0.0
 10
-799.8459527559055
 20
269.1553937007874
 30
0.0
 10
-799.8459527559055
 20
269.1553937007874
 30
0.0
 10
-799.8459527559055
 20
269.1553937007874
 30
0.0
 10
-799.8459527559055
 20
269.1553937007874
 30
0.0
 10
-799.5838582677166
 20
269.1527637795276
 30
0.0
 10
-799.5838582677166
 20
269.1527637795276
 30
0.0
 10
-799.5838582677166
 20
269.1527637795276
 30
0.0
 10
-799.5838582677166
 20
269.1527637795276
 30
0.0
 10
-799.5053543307087
 20
269.4028464566929
 30
0.0
 10
-799.5053543307087
 20
269.4028464566929
 30
0.0
 10
-799.5053543307087
 20
269.4028464566929
 30
0.0
 10
-799.5053543307087
 20
269.4028464566929
 30
0.0
 10
-799.4268622047244
 20
269.1527637795276
 30
0.0
 10
-799.4268622047244
 20
269.1527637795276
 30
0.0
 10
-799.4268622047244
 20
269.1527637795276
 30
0.0
 10
-799.4268622047244
 20
269.1527637795276
 30
0.0
 10
-799.1647598425196
 20
269.1553937007874
 30
0.0
 10
-799.1647598425196
 20
269.1553937007874
 30
0.0
 10
-799.1647598425196
 20
269.1553937007874
 30
0.0
 10
-799.1647598425196
 20
269.1553937007874
 30
0.0
 10
-799.3783503937008
 20
269.0034606299213
 30
0.0
 10
-799.3783503937008
 20
269.0034606299213
 30
0.0
 10
-799.3783503937008
 20
269.0034606299213
 30
0.0
 10
-799.3783503937008
 20
269.0034606299213
 30
0.0
 10
-799.2948582677166
 20
268.7549960629921
 30
0.0
 10
-799.2948582677166
 20
268.7549960629921
 30
0.0
 10
-799.2948582677166
 20
268.7549960629921
 30
0.0
 10
-799.2948582677166
 20
268.7549960629921
 30
0.0
 10
-799.5053543307087
 20
268.9111811023622
 30
0.0
 10
-799.5053543307087
 20
268.9111811023622
 30
0.0
 10
-799.5053543307087
 20
268.9111811023622
 30
0.0
 10
-799.5053543307087
 20
268.9111811023622
 30
0.0
 10
-799.5053543307087
 20
268.9111811023622
 30
0.0
 10
-799.5053543307087
 20
268.9111811023622
 30
0.0
  0
SPLINE
  5
83
330
1F
100
AcDbEntity
  8
Layer 1
 62
     1
370
     9
100
AcDbSpline
210
0.0
220
0.0
230
1.0
 70
    11
 71
     3
 72
    48
 73
    44
 74
     0
 42
0.000000001
 43
0.0000000001
 40
0.0
 40
0.0
 40
0.0
 40
0.0
 40
0.0833333333333333
 40
0.0833333333333333
 40
0.0833333333333333
 40
0.0833333333333333
 40
0.1666666666666667
 40
0.1666666666666667
 40
0.1666666666666667
 40
0.1666666666666667
 40
0.25
 40
0.25
 40
0.25
 40
0.25
 40
0.3333333333333333
 40
0.3333333333333333
 40
0.3333333333333333
 40
0.3333333333333333
 40
0.4166666666666667
 40
0.4166666666666667
 40
0.4166666666666667
 40
0.4166666666666667
 40
0.5
 40
0.5
 40
0.5
 40
0.5
 40
0.5833333333333334
 40
0.5833333333333334
 40
0.5833333333333334
 40
0.5833333333333334
 40
0.6666666666666666
 40
0.6666666666666666
 40
0.6666666666666666
 40
0.6666666666666666
 40
0.75
 40
0.75
 40
0.75
 40
0.75
 40
0.8333333333333334
 40
0.8333333333333334
 40
0.8333333333333334
 40
0.8333333333333334
 40
1.0
 40
1.0
 40
1.0
 40
1.0
 10
-804.4998385826772
 20
268.3004133858267
 30
0.0
 10
-804.4998385826772
 20
268.3004133858267
 30
0.0
 10
-804.7103346456693
 20
268.1442322834646
 30
0.0
 10
-804.7103346456693
 20
268.1442322834646
 30
0.0
 10
-804.7103346456693
 20
268.1442322834646
 30
0.0
 10
-804.7103346456693
 20
268.1442322834646
 30
0.0
 10
-804.6268503937008
 20
268.3926929133858
 30
0.0
 10
-804.6268503937008
 20
268.3926929133858
 30
0.0
 10
-804.6268503937008
 20
268.3926929133858
 30
0.0
 10
-804.6268503937008
 20
268.3926929133858
 30
0.0
 10
-804.840437007874
 20
268.5446299212599
 30
0.0
 10
-804.840437007874
 20
268.5446299212599
 30
0.0
 10
-804.840437007874
 20
268.5446299212599
 30
0.0
 10
-804.840437007874
 20
268.5446299212599
 30
0.0
 10
-804.5783346456693
 20
268.5420039370078
 30
0.0
 10
-804.5783346456693
 20
268.5420039370078
 30
0.0
 10
-804.5783346456693
 20
268.5420039370078
 30
0.0
 10
-804.5783346456693
 20
268.5420039370078
 30
0.0
 10
-804.4998385826772
 20
268.7920866141732
 30
0.0
 10
-804.4998385826772
 20
268.7920866141732
 30
0.0
 10
-804.4998385826772
 20
268.7920866141732
 30
0.0
 10
-804.4998385826772
 20
268.7920866141732
 30
0.0
 10
-804.4213385826772
 20
268.5420039370078
 30
0.0
 10
-804.4213385826772
 20
268.5420039370078
 30
0.0
 10
-804.4213385826772
 20
268.5420039370078
 30
0.0
 10
-804.4213385826772
 20
268.5420039370078
 30
0.0
 10
-804.1592440944881
 20
268.5446299212599
 30
0.0
 10
-804.1592440944881
 20
268.5446299212599
 30
0.0
 10
-804.1592440944881
 20
268.5446299212599
 30
0.0
 10
-804.1592440944881
 20
268.5446299212599
 30
0.0
 10
-804.3728267716535
 20
268.3926929133858
 30
0.0
 10
-804.3728267716535
 20
268.3926929133858
 30
0.0
 10
-804.3728267716535
 20
268.3926929133858
 30
0.0
 10
-804.3728267716535
 20
268.3926929133858
 30
0.0
 10
-804.2893346456693
 20
268.1442322834646
 30
0.0
 10
-804.2893346456693
 20
268.1442322834646
 30
0.0
 10
-804.2893346456693
 20
268.1442322834646
 30
0.0
 10
-804.2893346456693
 20
268.1442322834646
 30
0.0
 10
-804.4998385826772
 20
268.3004133858267
 30
0.0
 10
-804.4998385826772
 20
268.3004133858267
 30
0.0
 10
-804.4998385826772
 20
268.3004133858267
 30
0.0
 10
-804.4998385826772
 20
268.3004133858267
 30
0.0
 10
-804.4998385826772
 20
268.3004133858267
 30
0.0
 10
-804.4998385826772
 20
268.3004133858267
 30
0.0
  0
SPLINE
  5
84
330
1F
100
AcDbEntity
  8
Layer 1
 62
     1
370
     9
100
AcDbSpline
210
0.0
220
0.0
230
1.0
 70
    11
 71
     3
 72
    48
 73
    44
 74
     0
 42
0.000000001
 43
0.0000000001
 40
0.0
 40
0.0
 40
0.0
 40
0.0
 40
0.0833333333333333
 40
0.0833333333333333
 40
0.0833333333333333
 40
0.0833333333333333
 40
0.1666666666666667
 40
0.1666666666666667
 40
0.1666666666666667
 40
0.1666666666666667
 40
0.25
 40
0.25
 40
0.25
 40
0.25
 40
0.3333333333333333
 40
0.3333333333333333
 40
0.3333333333333333
 40
0.3333333333333333
 40
0.4166666666666667
 40
0.4166666666666667
 40
0.4166666666666667
 40
0.4166666666666667
 40
0.5
 40
0.5
 40
0.5
 40
0.5
 40
0.5833333333333334
 40
0.5833333333333334
 40
0.5833333333333334
 40
0.5833333333333334
 40
0.6666666666666666
 40
0.6666666666666666
 40
0.6666666666666666
 40
0.6666666666666666
 40
0.75
 40
0.75
 40
0.75
 40
0.75
 40
0.8333333333333334
 40
0.8333333333333334
 40
0.8333333333333334
 40
0.8333333333333334
 40
1.0
 40
1.0
 40
1.0
 40
1.0
 10
-803.0689763779527
 20
268.3004133858267
 30
0.0
 10
-803.0689763779527
 20
268.3004133858267
 30
0.0
 10
-803.2794724409449
 20
268.1442322834646
 30
0.0
 10
-803.2794724409449
 20
268.1442322834646
 30
0.0
 10
-803.2794724409449
 20
268.1442322834646
 30
0.0
 10
-803.2794724409449
 20
268.1442322834646
 30
0.0
 10
-803.1959803149606
 20
268.3926929133858
 30
0.0
 10
-803.1959803149606
 20
268.3926929133858
 30
0.0
 10
-803.1959803149606
 20
268.3926929133858
 30
0.0
 10
-803.1959803149606
 20
268.3926929133858
 30
0.0
 10
-803.4095708661417
 20
268.5446299212599
 30
0.0
 10
-803.4095708661417
 20
268.5446299212599
 30
0.0
 10
-803.4095708661417
 20
268.5446299212599
 30
0.0
 10
-803.4095708661417
 20
268.5446299212599
 30
0.0
 10
-803.147468503937
 20
268.5420039370078
 30
0.0
 10
-803.147468503937
 20
268.5420039370078
 30
0.0
 10
-803.147468503937
 20
268.5420039370078
 30
0.0
 10
-803.147468503937
 20
268.5420039370078
 30
0.0
 10
-803.0689763779527
 20
268.7920866141732
 30
0.0
 10
-803.0689763779527
 20
268.7920866141732
 30
0.0
 10
-803.0689763779527
 20
268.7920866141732
 30
0.0
 10
-803.0689763779527
 20
268.7920866141732
 30
0.0
 10
-802.9904763779527
 20
268.5420039370078
 30
0.0
 10
-802.9904763779527
 20
268.5420039370078
 30
0.0
 10
-802.9904763779527
 20
268.5420039370078
 30
0.0
 10
-802.9904763779527
 20
268.5420039370078
 30
0.0
 10
-802.7283779527559
 20
268.5446299212599
 30
0.0
 10
-802.7283779527559
 20
268.5446299212599
 30
0.0
 10
-802.7283779527559
 20
268.5446299212599
 30
0.0
 10
-802.7283779527559
 20
268.5446299212599
 30
0.0
 10
-802.9419645669292
 20
268.3926929133858
 30
0.0
 10
-802.9419645669292
 20
268.3926929133858
 30
0.0
 10
-802.9419645669292
 20
268.3926929133858
 30
0.0
 10
-802.9419645669292
 20
268.3926929133858
 30
0.0
 10
-802.8584724409449
 20
268.1442322834646
 30
0.0
 10
-802.8584724409449
 20
268.1442322834646
 30
0.0
 10
-802.8584724409449
 20
268.1442322834646
 30
0.0
 10
-802.8584724409449
 20
268.1442322834646
 30
0.0
 10
-803.0689763779527
 20
268.3004133858267
 30
0.0
 10
-803.0689763779527
 20
268.3004133858267
 30
0.0
 10
-803.0689763779527
 20
268.3004133858267
 30
0.0
 10
-803.0689763779527
 20
268.3004133858267
 30
0.0
 10
-803.0689763779527
 20
268.3004133858267
 30
0.0
 10
-803.0689763779527
 20
268.3004133858267
 30
0.0
  0
SPLINE
  5
85
330
1F
100
AcDbEntity
  8
Layer 1
 62
     1
370
     9
100
AcDbSpline
210
0.0
220
0.0
230
1.0
 70
    11
 71
     3
 72
    48
 73
    44
 74
     0
 42
0.000000001
 43
0.0000000001
 40
0.0
 40
0.0
 40
0.0
 40
0.0
 40
0.0833333333333333
 40
0.0833333333333333
 40
0.0833333333333333
 40
0.0833333333333333
 40
0.1666666666666667
 40
0.1666666666666667
 40
0.1666666666666667
 40
0.1666666666666667
 40
0.25
 40
0.25
 40
0.25
 40
0.25
 40
0.3333333333333333
 40
0.3333333333333333
 40
0.3333333333333333
 40
0.3333333333333333
 40
0.4166666666666667
 40
0.4166666666666667
 40
0.4166666666666667
 40
0.4166666666666667
 40
0.5
 40
0.5
 40
0.5
 40
0.5
 40
0.5833333333333334
 40
0.5833333333333334
 40
0.5833333333333334
 40
0.5833333333333334
 40
0.6666666666666666
 40
0.6666666666666666
 40
0.6666666666666666
 40
0.6666666666666666
 40
0.75
 40
0.75
 40
0.75
 40
0.75
 40
0.8333333333333334
 40
0.8333333333333334
 40
0.8333333333333334
 40
0.8333333333333334
 40
1.0
 40
1.0
 40
1.0
 40
1.0
 10
-805.9307007874015
 20
268.3004133858267
 30
0.0
 10
-805.9307007874015
 20
268.3004133858267
 30
0.0
 10
-806.1412007874015
 20
268.1442322834646
 30
0.0
 10
-806.1412007874015
 20
268.1442322834646
 30
0.0
 10
-806.1412007874015
 20
268.1442322834646
 30
0.0
 10
-806.1412007874015
 20
268.1442322834646
 30
0.0
 10
-806.0577125984252
 20
268.3926929133858
 30
0.0
 10
-806.0577125984252
 20
268.3926929133858
 30
0.0
 10
-806.0577125984252
 20
268.3926929133858
 30
0.0
 10
-806.0577125984252
 20
268.3926929133858
 30
0.0
 10
-806.2712992125985
 20
268.5446299212599
 30
0.0
 10
-806.2712992125985
 20
268.5446299212599
 30
0.0
 10
-806.2712992125985
 20
268.5446299212599
 30
0.0
 10
-806.2712992125985
 20
268.5446299212599
 30
0.0
 10
-806.0091968503937
 20
268.5420039370078
 30
0.0
 10
-806.0091968503937
 20
268.5420039370078
 30
0.0
 10
-806.0091968503937
 20
268.5420039370078
 30
0.0
 10
-806.0091968503937
 20
268.5420039370078
 30
0.0
 10
-805.9307007874015
 20
268.7920866141732
 30
0.0
 10
-805.9307007874015
 20
268.7920866141732
 30
0.0
 10
-805.9307007874015
 20
268.7920866141732
 30
0.0
 10
-805.9307007874015
 20
268.7920866141732
 30
0.0
 10
-805.8522047244095
 20
268.5420039370078
 30
0.0
 10
-805.8522047244095
 20
268.5420039370078
 30
0.0
 10
-805.8522047244095
 20
268.5420039370078
 30
0.0
 10
-805.8522047244095
 20
268.5420039370078
 30
0.0
 10
-805.5901062992126
 20
268.5446299212599
 30
0.0
 10
-805.5901062992126
 20
268.5446299212599
 30
0.0
 10
-805.5901062992126
 20
268.5446299212599
 30
0.0
 10
-805.5901062992126
 20
268.5446299212599
 30
0.0
 10
-805.803688976378
 20
268.3926929133858
 30
0.0
 10
-805.803688976378
 20
268.3926929133858
 30
0.0
 10
-805.803688976378
 20
268.3926929133858
 30
0.0
 10
-805.803688976378
 20
268.3926929133858
 30
0.0
 10
-805.7201968503937
 20
268.1442322834646
 30
0.0
 10
-805.7201968503937
 20
268.1442322834646
 30
0.0
 10
-805.7201968503937
 20
268.1442322834646
 30
0.0
 10
-805.7201968503937
 20
268.1442322834646
 30
0.0
 10
-805.9307007874015
 20
268.3004133858267
 30
0.0
 10
-805.9307007874015
 20
268.3004133858267
 30
0.0
 10
-805.9307007874015
 20
268.3004133858267
 30
0.0
 10
-805.9307007874015
 20
268.3004133858267
 30
0.0
 10
-805.9307007874015
 20
268.3004133858267
 30
0.0
 10
-805.9307007874015
 20
268.3004133858267
 30
0.0
  0
SPLINE
  5
86
330
1F
100
AcDbEntity
  8
Layer 1
 62
     1
370
     9
100
AcDbSpline
210
0.0
220
0.0
230
1.0
 70
    11
 71
     3
 72
    48
 73
    44
 74
     0
 42
0.000000001
 43
0.0000000001
 40
0.0
 40
0.0
 40
0.0
 40
0.0
 40
0.0833333333333333
 40
0.0833333333333333
 40
0.0833333333333333
 40
0.0833333333333333
 40
0.1666666666666667
 40
0.1666666666666667
 40
0.1666666666666667
 40
0.1666666666666667
 40
0.25
 40
0.25
 40
0.25
 40
0.25
 40
0.3333333333333333
 40
0.3333333333333333
 40
0.3333333333333333
 40
0.3333333333333333
 40
0.4166666666666667
 40
0.4166666666666667
 40
0.4166666666666667
 40
0.4166666666666667
 40
0.5
 40
0.5
 40
0.5
 40
0.5
 40
0.5833333333333334
 40
0.5833333333333334
 40
0.5833333333333334
 40
0.5833333333333334
 40
0.6666666666666666
 40
0.6666666666666666
 40
0.6666666666666666
 40
0.6666666666666666
 40
0.75
 40
0.75
 40
0.75
 40
0.75
 40
0.8333333333333334
 40
0.8333333333333334
 40
0.8333333333333334
 40
0.8333333333333334
 40
1.0
 40
1.0
 40
1.0
 40
1.0
 10
-801.6504251968504
 20
268.3004133858267
 30
0.0
 10
-801.6504251968504
 20
268.3004133858267
 30
0.0
 10
-801.8609212598425
 20
268.1442322834646
 30
0.0
 10
-801.8609212598425
 20
268.1442322834646
 30
0.0
 10
-801.8609212598425
 20
268.1442322834646
 30
0.0
 10
-801.8609212598425
 20
268.1442322834646
 30
0.0
 10
-801.777437007874
 20
268.3926929133858
 30
0.0
 10
-801.777437007874
 20
268.3926929133858
 30
0.0
 10
-801.777437007874
 20
268.3926929133858
 30
0.0
 10
-801.777437007874
 20
268.3926929133858
 30
0.0
 10
-801.9910196850394
 20
268.5446299212599
 30
0.0
 10
-801.9910196850394
 20
268.5446299212599
 30
0.0
 10
-801.9910196850394
 20
268.5446299212599
 30
0.0
 10
-801.9910196850394
 20
268.5446299212599
 30
0.0
 10
-801.7289212598425
 20
268.5420039370078
 30
0.0
 10
-801.7289212598425
 20
268.5420039370078
 30
0.0
 10
-801.7289212598425
 20
268.5420039370078
 30
0.0
 10
-801.7289212598425
 20
268.5420039370078
 30
0.0
 10
-801.6504251968504
 20
268.7920866141732
 30
0.0
 10
-801.6504251968504
 20
268.7920866141732
 30
0.0
 10
-801.6504251968504
 20
268.7920866141732
 30
0.0
 10
-801.6504251968504
 20
268.7920866141732
 30
0.0
 10
-801.5719212598425
 20
268.5420039370078
 30
0.0
 10
-801.5719212598425
 20
268.5420039370078
 30
0.0
 10
-801.5719212598425
 20
268.5420039370078
 30
0.0
 10
-801.5719212598425
 20
268.5420039370078
 30
0.0
 10
-801.3098228346456
 20
268.5446299212599
 30
0.0
 10
-801.3098228346456
 20
268.5446299212599
 30
0.0
 10
-801.3098228346456
 20
268.5446299212599
 30
0.0
 10
-801.3098228346456
 20
268.5446299212599
 30
0.0
 10
-801.5234094488189
 20
268.3926929133858
 30
0.0
 10
-801.5234094488189
 20
268.3926929133858
 30
0.0
 10
-801.5234094488189
 20
268.3926929133858
 30
0.0
 10
-801.5234094488189
 20
268.3926929133858
 30
0.0
 10
-801.4399212598425
 20
268.1442322834646
 30
0.0
 10
-801.4399212598425
 20
268.1442322834646
 30
0.0
 10
-801.4399212598425
 20
268.1442322834646
 30
0.0
 10
-801.4399212598425
 20
268.1442322834646
 30
0.0
 10
-801.6504251968504
 20
268.3004133858267
 30
0.0
 10
-801.6504251968504
 20
268.3004133858267
 30
0.0
 10
-801.6504251968504
 20
268.3004133858267
 30
0.0
 10
-801.6504251968504
 20
268.3004133858267
 30
0.0
 10
-801.6504251968504
 20
268.3004133858267
 30
0.0
 10
-801.6504251968504
 20
268.3004133858267
 30
0.0
  0
SPLINE
  5
87
330
1F
100
AcDbEntity
  8
Layer 1
 62
     1
370
     9
100
AcDbSpline
210
0.0
220
0.0
230
1.0
 70
    11
 71
     3
 72
    48
 73
    44
 74
     0
 42
0.000000001
 43
0.0000000001
 40
0.0
 40
0.0
 40
0.0
 40
0.0
 40
0.0833333333333333
 40
0.0833333333333333
 40
0.0833333333333333
 40
0.0833333333333333
 40
0.1666666666666667
 40
0.1666666666666667
 40
0.1666666666666667
 40
0.1666666666666667
 40
0.25
 40
0.25
 40
0.25
 40
0.25
 40
0.3333333333333333
 40
0.3333333333333333
 40
0.3333333333333333
 40
0.3333333333333333
 40
0.4166666666666667
 40
0.4166666666666667
 40
0.4166666666666667
 40
0.4166666666666667
 40
0.5
 40
0.5
 40
0.5
 40
0.5
 40
0.5833333333333334
 40
0.5833333333333334
 40
0.5833333333333334
 40
0.5833333333333334
 40
0.6666666666666666
 40
0.6666666666666666
 40
0.6666666666666666
 40
0.6666666666666666
 40
0.75
 40
0.75
 40
0.75
 40
0.75
 40
0.8333333333333334
 40
0.8333333333333334
 40
0.8333333333333334
 40
0.8333333333333334
 40
1.0
 40
1.0
 40
1.0
 40
1.0
 10
-798.7886968503936
 20
268.3004133858267
 30
0.0
 10
-798.7886968503936
 20
268.3004133858267
 30
0.0
 10
-798.9991929133859
 20
268.1442322834646
 30
0.0
 10
-798.9991929133859
 20
268.1442322834646
 30
0.0
 10
-798.9991929133859
 20
268.1442322834646
 30
0.0
 10
-798.9991929133859
 20
268.1442322834646
 30
0.0
 10
-798.9157086614173
 20
268.3926929133858
 30
0.0
 10
-798.9157086614173
 20
268.3926929133858
 30
0.0
 10
-798.9157086614173
 20
268.3926929133858
 30
0.0
 10
-798.9157086614173
 20
268.3926929133858
 30
0.0
 10
-799.1292952755906
 20
268.5446299212599
 30
0.0
 10
-799.1292952755906
 20
268.5446299212599
 30
0.0
 10
-799.1292952755906
 20
268.5446299212599
 30
0.0
 10
-799.1292952755906
 20
268.5446299212599
 30
0.0
 10
-798.8671968503937
 20
268.5420039370078
 30
0.0
 10
-798.8671968503937
 20
268.5420039370078
 30
0.0
 10
-798.8671968503937
 20
268.5420039370078
 30
0.0
 10
-798.8671968503937
 20
268.5420039370078
 30
0.0
 10
-798.7886968503936
 20
268.7920866141732
 30
0.0
 10
-798.7886968503936
 20
268.7920866141732
 30
0.0
 10
-798.7886968503936
 20
268.7920866141732
 30
0.0
 10
-798.7886968503936
 20
268.7920866141732
 30
0.0
 10
-798.7101968503937
 20
268.5420039370078
 30
0.0
 10
-798.7101968503937
 20
268.5420039370078
 30
0.0
 10
-798.7101968503937
 20
268.5420039370078
 30
0.0
 10
-798.7101968503937
 20
268.5420039370078
 30
0.0
 10
-798.4480984251968
 20
268.5446299212599
 30
0.0
 10
-798.4480984251968
 20
268.5446299212599
 30
0.0
 10
-798.4480984251968
 20
268.5446299212599
 30
0.0
 10
-798.4480984251968
 20
268.5446299212599
 30
0.0
 10
-798.6616811023622
 20
268.3926929133858
 30
0.0
 10
-798.6616811023622
 20
268.3926929133858
 30
0.0
 10
-798.6616811023622
 20
268.3926929133858
 30
0.0
 10
-798.6616811023622
 20
268.3926929133858
 30
0.0
 10
-798.578188976378
 20
268.1442322834646
 30
0.0
 10
-798.578188976378
 20
268.1442322834646
 30
0.0
 10
-798.578188976378
 20
268.1442322834646
 30
0.0
 10
-798.578188976378
 20
268.1442322834646
 30
0.0
 10
-798.7886968503936
 20
268.3004133858267
 30
0.0
 10
-798.7886968503936
 20
268.3004133858267
 30
0.0
 10
-798.7886968503936
 20
268.3004133858267
 30
0.0
 10
-798.7886968503936
 20
268.3004133858267
 30
0.0
 10
-798.7886968503936
 20
268.3004133858267
 30
0.0
 10
-798.7886968503936
 20
268.3004133858267
 30
0.0
  0
SPLINE
  5
88
330
1F
100
AcDbEntity
  8
Layer 1
 62
     1
370
     9
100
AcDbSpline
210
0.0
220
0.0
230
1.0
 70
    11
 71
     3
 72
    48
 73
    44
 74
     0
 42
0.000000001
 43
0.0000000001
 40
0.0
 40
0.0
 40
0.0
 40
0.0
 40
0.0833333333333333
 40
0.0833333333333333
 40
0.0833333333333333
 40
0.0833333333333333
 40
0.1666666666666667
 40
0.1666666666666667
 40
0.1666666666666667
 40
0.1666666666666667
 40
0.25
 40
0.25
 40
0.25
 40
0.25
 40
0.3333333333333333
 40
0.3333333333333333
 40
0.3333333333333333
 40
0.3333333333333333
 40
0.4166666666666667
 40
0.4166666666666667
 40
0.4166666666666667
 40
0.4166666666666667
 40
0.5
 40
0.5
 40
0.5
 40
0.5
 40
0.5833333333333334
 40
0.5833333333333334
 40
0.5833333333333334
 40
0.5833333333333334
 40
0.6666666666666666
 40
0.6666666666666666
 40
0.6666666666666666
 40
0.6666666666666666
 40
0.75
 40
0.75
 40
0.75
 40
0.75
 40
0.8333333333333334
 40
0.8333333333333334
 40
0.8333333333333334
 40
0.8333333333333334
 40
1.0
 40
1.0
 40
1.0
 40
1.0
 10
-799.500437007874
 20
267.6896456692913
 30
0.0
 10
-799.500437007874
 20
267.6896456692913
 30
0.0
 10
-799.7109330708662
 20
267.5334645669291
 30
0.0
 10
-799.7109330708662
 20
267.5334645669291
 30
0.0
 10
-799.7109330708662
 20
267.5334645669291
 30
0.0
 10
-799.7109330708662
 20
267.5334645669291
 30
0.0
 10
-799.6274409448819
 20
267.7819251968504
 30
0.0
 10
-799.6274409448819
 20
267.7819251968504
 30
0.0
 10
-799.6274409448819
 20
267.7819251968504
 30
0.0
 10
-799.6274409448819
 20
267.7819251968504
 30
0.0
 10
-799.841031496063
 20
267.9338661417323
 30
0.0
 10
-799.841031496063
 20
267.9338661417323
 30
0.0
 10
-799.841031496063
 20
267.9338661417323
 30
0.0
 10
-799.841031496063
 20
267.9338661417323
 30
0.0
 10
-799.5789291338583
 20
267.9312401574803
 30
0.0
 10
-799.5789291338583
 20
267.9312401574803
 30
0.0
 10
-799.5789291338583
 20
267.9312401574803
 30
0.0
 10
-799.5789291338583
 20
267.9312401574803
 30
0.0
 10
-799.500437007874
 20
268.1813188976378
 30
0.0
 10
-799.500437007874
 20
268.1813188976378
 30
0.0
 10
-799.500437007874
 20
268.1813188976378
 30
0.0
 10
-799.500437007874
 20
268.1813188976378
 30
0.0
 10
-799.4219330708661
 20
267.9312401574803
 30
0.0
 10
-799.4219330708661
 20
267.9312401574803
 30
0.0
 10
-799.4219330708661
 20
267.9312401574803
 30
0.0
 10
-799.4219330708661
 20
267.9312401574803
 30
0.0
 10
-799.1598385826771
 20
267.9338661417323
 30
0.0
 10
-799.1598385826771
 20
267.9338661417323
 30
0.0
 10
-799.1598385826771
 20
267.9338661417323
 30
0.0
 10
-799.1598385826771
 20
267.9338661417323
 30
0.0
 10
-799.3734251968503
 20
267.7819251968504
 30
0.0
 10
-799.3734251968503
 20
267.7819251968504
 30
0.0
 10
-799.3734251968503
 20
267.7819251968504
 30
0.0
 10
-799.3734251968503
 20
267.7819251968504
 30
0.0
 10
-799.2899330708661
 20
267.5334645669291
 30
0.0
 10
-799.2899330708661
 20
267.5334645669291
 30
0.0
 10
-799.2899330708661
 20
267.5334645669291
 30
0.0
 10
-799.2899330708661
 20
267.5334645669291
 30
0.0
 10
-799.500437007874
 20
267.6896456692913
 30
0.0
 10
-799.500437007874
 20
267.6896456692913
 30
0.0
 10
-799.500437007874
 20
267.6896456692913
 30
0.0
 10
-799.500437007874
 20
267.6896456692913
 30
0.0
 10
-799.500437007874
 20
267.6896456692913
 30
0.0
 10
-799.500437007874
 20
267.6896456692913
 30
0.0
  0
SPLINE
  5
89
330
1F
100
AcDbEntity
  8
Layer 1
 62
     1
370
     9
100
AcDbSpline
210
0.0
220
0.0
230
1.0
 70
    11
 71
     3
 72
    48
 73
    44
 74
     0
 42
0.000000001
 43
0.0000000001
 40
0.0
 40
0.0
 40
0.0
 40
0.0
 40
0.0833333333333333
 40
0.0833333333333333
 40
0.0833333333333333
 40
0.0833333333333333
 40
0.1666666666666667
 40
0.1666666666666667
 40
0.1666666666666667
 40
0.1666666666666667
 40
0.25
 40
0.25
 40
0.25
 40
0.25
 40
0.3333333333333333
 40
0.3333333333333333
 40
0.3333333333333333
 40
0.3333333333333333
 40
0.4166666666666667
 40
0.4166666666666667
 40
0.4166666666666667
 40
0.4166666666666667
 40
0.5
 40
0.5
 40
0.5
 40
0.5
 40
0.5833333333333334
 40
0.5833333333333334
 40
0.5833333333333334
 40
0.5833333333333334
 40
0.6666666666666666
 40
0.6666666666666666
 40
0.6666666666666666
 40
0.6666666666666666
 40
0.75
 40
0.75
 40
0.75
 40
0.75
 40
0.8333333333333334
 40
0.8333333333333334
 40
0.8333333333333334
 40
0.8333333333333334
 40
1.0
 40
1.0
 40
1.0
 40
1.0
 10
-803.7807086614173
 20
267.6896456692913
 30
0.0
 10
-803.7807086614173
 20
267.6896456692913
 30
0.0
 10
-803.9912165354331
 20
267.5334645669291
 30
0.0
 10
-803.9912165354331
 20
267.5334645669291
 30
0.0
 10
-803.9912165354331
 20
267.5334645669291
 30
0.0
 10
-803.9912165354331
 20
267.5334645669291
 30
0.0
 10
-803.9077244094489
 20
267.7819251968504
 30
0.0
 10
-803.9077244094489
 20
267.7819251968504
 30
0.0
 10
-803.9077244094489
 20
267.7819251968504
 30
0.0
 10
-803.9077244094489
 20
267.7819251968504
 30
0.0
 10
-804.1213070866141
 20
267.9338661417323
 30
0.0
 10
-804.1213070866141
 20
267.9338661417323
 30
0.0
 10
-804.1213070866141
 20
267.9338661417323
 30
0.0
 10
-804.1213070866141
 20
267.9338661417323
 30
0.0
 10
-803.8592086614174
 20
267.9312401574803
 30
0.0
 10
-803.8592086614174
 20
267.9312401574803
 30
0.0
 10
-803.8592086614174
 20
267.9312401574803
 30
0.0
 10
-803.8592086614174
 20
267.9312401574803
 30
0.0
 10
-803.7807086614173
 20
268.1813188976378
 30
0.0
 10
-803.7807086614173
 20
268.1813188976378
 30
0.0
 10
-803.7807086614173
 20
268.1813188976378
 30
0.0
 10
-803.7807086614173
 20
268.1813188976378
 30
0.0
 10
-803.7022165354331
 20
267.9312401574803
 30
0.0
 10
-803.7022165354331
 20
267.9312401574803
 30
0.0
 10
-803.7022165354331
 20
267.9312401574803
 30
0.0
 10
-803.7022165354331
 20
267.9312401574803
 30
0.0
 10
-803.4401102362204
 20
267.9338661417323
 30
0.0
 10
-803.4401102362204
 20
267.9338661417323
 30
0.0
 10
-803.4401102362204
 20
267.9338661417323
 30
0.0
 10
-803.4401102362204
 20
267.9338661417323
 30
0.0
 10
-803.6536929133858
 20
267.7819251968504
 30
0.0
 10
-803.6536929133858
 20
267.7819251968504
 30
0.0
 10
-803.6536929133858
 20
267.7819251968504
 30
0.0
 10
-803.6536929133858
 20
267.7819251968504
 30
0.0
 10
-803.5702125984252
 20
267.5334645669291
 30
0.0
 10
-803.5702125984252
 20
267.5334645669291
 30
0.0
 10
-803.5702125984252
 20
267.5334645669291
 30
0.0
 10
-803.5702125984252
 20
267.5334645669291
 30
0.0
 10
-803.7807086614173
 20
267.6896456692913
 30
0.0
 10
-803.7807086614173
 20
267.6896456692913
 30
0.0
 10
-803.7807086614173
 20
267.6896456692913
 30
0.0
 10
-803.7807086614173
 20
267.6896456692913
 30
0.0
 10
-803.7807086614173
 20
267.6896456692913
 30
0.0
 10
-803.7807086614173
 20
267.6896456692913
 30
0.0
  0
SPLINE
  5
8A
330
1F
100
AcDbEntity
  8
Layer 1
 62
     1
370
     9
100
AcDbSpline
210
0.0
220
0.0
230
1.0
 70
    11
 71
     3
 72
    48
 73
    44
 74
     0
 42
0.000000001
 43
0.0000000001
 40
0.0
 40
0.0
 40
0.0
 40
0.0
 40
0.0833333333333333
 40
0.0833333333333333
 40
0.0833333333333333
 40
0.0833333333333333
 40
0.1666666666666667
 40
0.1666666666666667
 40
0.1666666666666667
 40
0.1666666666666667
 40
0.25
 40
0.25
 40
0.25
 40
0.25
 40
0.3333333333333333
 40
0.3333333333333333
 40
0.3333333333333333
 40
0.3333333333333333
 40
0.4166666666666667
 40
0.4166666666666667
 40
0.4166666666666667
 40
0.4166666666666667
 40
0.5
 40
0.5
 40
0.5
 40
0.5
 40
0.5833333333333334
 40
0.5833333333333334
 40
0.5833333333333334
 40
0.5833333333333334
 40
0.6666666666666666
 40
0.6666666666666666
 40
0.6666666666666666
 40
0.6666666666666666
 40
0.75
 40
0.75
 40
0.75
 40
0.75
 40
0.8333333333333334
 40
0.8333333333333334
 40
0.8333333333333334
 40
0.8333333333333334
 40
1.0
 40
1.0
 40
1.0
 40
1.0
 10
-802.349842519685
 20
267.6896456692913
 30
0.0
 10
-802.349842519685
 20
267.6896456692913
 30
0.0
 10
-802.5603543307086
 20
267.5334645669291
 30
0.0
 10
-802.5603543307086
 20
267.5334645669291
 30
0.0
 10
-802.5603543307086
 20
267.5334645669291
 30
0.0
 10
-802.5603543307086
 20
267.5334645669291
 30
0.0
 10
-802.4768582677166
 20
267.7819251968504
 30
0.0
 10
-802.4768582677166
 20
267.7819251968504
 30
0.0
 10
-802.4768582677166
 20
267.7819251968504
 30
0.0
 10
-802.4768582677166
 20
267.7819251968504
 30
0.0
 10
-802.6904448818898
 20
267.9338661417323
 30
0.0
 10
-802.6904448818898
 20
267.9338661417323
 30
0.0
 10
-802.6904448818898
 20
267.9338661417323
 30
0.0
 10
-802.6904448818898
 20
267.9338661417323
 30
0.0
 10
-802.4283464566929
 20
267.9312401574803
 30
0.0
 10
-802.4283464566929
 20
267.9312401574803
 30
0.0
 10
-802.4283464566929
 20
267.9312401574803
 30
0.0
 10
-802.4283464566929
 20
267.9312401574803
 30
0.0
 10
-802.349842519685
 20
268.1813188976378
 30
0.0
 10
-802.349842519685
 20
268.1813188976378
 30
0.0
 10
-802.349842519685
 20
268.1813188976378
 30
0.0
 10
-802.349842519685
 20
268.1813188976378
 30
0.0
 10
-802.2713464566929
 20
267.9312401574803
 30
0.0
 10
-802.2713464566929
 20
267.9312401574803
 30
0.0
 10
-802.2713464566929
 20
267.9312401574803
 30
0.0
 10
-802.2713464566929
 20
267.9312401574803
 30
0.0
 10
-802.0092480314961
 20
267.9338661417323
 30
0.0
 10
-802.0092480314961
 20
267.9338661417323
 30
0.0
 10
-802.0092480314961
 20
267.9338661417323
 30
0.0
 10
-802.0092480314961
 20
267.9338661417323
 30
0.0
 10
-802.2228307086614
 20
267.7819251968504
 30
0.0
 10
-802.2228307086614
 20
267.7819251968504
 30
0.0
 10
-802.2228307086614
 20
267.7819251968504
 30
0.0
 10
-802.2228307086614
 20
267.7819251968504
 30
0.0
 10
-802.1393464566929
 20
267.5334645669291
 30
0.0
 10
-802.1393464566929
 20
267.5334645669291
 30
0.0
 10
-802.1393464566929
 20
267.5334645669291
 30
0.0
 10
-802.1393464566929
 20
267.5334645669291
 30
0.0
 10
-802.349842519685
 20
267.6896456692913
 30
0.0
 10
-802.349842519685
 20
267.6896456692913
 30
0.0
 10
-802.349842519685
 20
267.6896456692913
 30
0.0
 10
-802.349842519685
 20
267.6896456692913
 30
0.0
 10
-802.349842519685
 20
267.6896456692913
 30
0.0
 10
-802.349842519685
 20
267.6896456692913
 30
0.0
  0
SPLINE
  5
8B
330
1F
100
AcDbEntity
  8
Layer 1
 62
     1
370
     9
100
AcDbSpline
210
0.0
220
0.0
230
1.0
 70
    11
 71
     3
 72
    48
 73
    44
 74
     0
 42
0.000000001
 43
0.0000000001
 40
0.0
 40
0.0
 40
0.0
 40
0.0
 40
0.0833333333333333
 40
0.0833333333333333
 40
0.0833333333333333
 40
0.0833333333333333
 40
0.1666666666666667
 40
0.1666666666666667
 40
0.1666666666666667
 40
0.1666666666666667
 40
0.25
 40
0.25
 40
0.25
 40
0.25
 40
0.3333333333333333
 40
0.3333333333333333
 40
0.3333333333333333
 40
0.3333333333333333
 40
0.4166666666666667
 40
0.4166666666666667
 40
0.4166666666666667
 40
0.4166666666666667
 40
0.5
 40
0.5
 40
0.5
 40
0.5
 40
0.5833333333333334
 40
0.5833333333333334
 40
0.5833333333333334
 40
0.5833333333333334
 40
0.6666666666666666
 40
0.6666666666666666
 40
0.6666666666666666
 40
0.6666666666666666
 40
0.75
 40
0.75
 40
0.75
 40
0.75
 40
0.8333333333333334
 40
0.8333333333333334
 40
0.8333333333333334
 40
0.8333333333333334
 40
1.0
 40
1.0
 40
1.0
 40
1.0
 10
-805.2115708661418
 20
267.6896456692913
 30
0.0
 10
-805.2115708661418
 20
267.6896456692913
 30
0.0
 10
-805.4220787401575
 20
267.5334645669291
 30
0.0
 10
-805.4220787401575
 20
267.5334645669291
 30
0.0
 10
-805.4220787401575
 20
267.5334645669291
 30
0.0
 10
-805.4220787401575
 20
267.5334645669291
 30
0.0
 10
-805.3385866141732
 20
267.7819251968504
 30
0.0
 10
-805.3385866141732
 20
267.7819251968504
 30
0.0
 10
-805.3385866141732
 20
267.7819251968504
 30
0.0
 10
-805.3385866141732
 20
267.7819251968504
 30
0.0
 10
-805.5521692913386
 20
267.9338661417323
 30
0.0
 10
-805.5521692913386
 20
267.9338661417323
 30
0.0
 10
-805.5521692913386
 20
267.9338661417323
 30
0.0
 10
-805.5521692913386
 20
267.9338661417323
 30
0.0
 10
-805.2900708661417
 20
267.9312401574803
 30
0.0
 10
-805.2900708661417
 20
267.9312401574803
 30
0.0
 10
-805.2900708661417
 20
267.9312401574803
 30
0.0
 10
-805.2900708661417
 20
267.9312401574803
 30
0.0
 10
-805.2115708661418
 20
268.1813188976378
 30
0.0
 10
-805.2115708661418
 20
268.1813188976378
 30
0.0
 10
-805.2115708661418
 20
268.1813188976378
 30
0.0
 10
-805.2115708661418
 20
268.1813188976378
 30
0.0
 10
-805.1330787401574
 20
267.9312401574803
 30
0.0
 10
-805.1330787401574
 20
267.9312401574803
 30
0.0
 10
-805.1330787401574
 20
267.9312401574803
 30
0.0
 10
-805.1330787401574
 20
267.9312401574803
 30
0.0
 10
-804.8709724409449
 20
267.9338661417323
 30
0.0
 10
-804.8709724409449
 20
267.9338661417323
 30
0.0
 10
-804.8709724409449
 20
267.9338661417323
 30
0.0
 10
-804.8709724409449
 20
267.9338661417323
 30
0.0
 10
-805.0845590551181
 20
267.7819251968504
 30
0.0
 10
-805.0845590551181
 20
267.7819251968504
 30
0.0
 10
-805.0845590551181
 20
267.7819251968504
 30
0.0
 10
-805.0845590551181
 20
267.7819251968504
 30
0.0
 10
-805.0010748031495
 20
267.5334645669291
 30
0.0
 10
-805.0010748031495
 20
267.5334645669291
 30
0.0
 10
-805.0010748031495
 20
267.5334645669291
 30
0.0
 10
-805.0010748031495
 20
267.5334645669291
 30
0.0
 10
-805.2115708661418
 20
267.6896456692913
 30
0.0
 10
-805.2115708661418
 20
267.6896456692913
 30
0.0
 10
-805.2115708661418
 20
267.6896456692913
 30
0.0
 10
-805.2115708661418
 20
267.6896456692913
 30
0.0
 10
-805.2115708661418
 20
267.6896456692913
 30
0.0
 10
-805.2115708661418
 20
267.6896456692913
 30
0.0
  0
SPLINE
  5
8C
330
1F
100
AcDbEntity
  8
Layer 1
 62
     1
370
     9
100
AcDbSpline
210
0.0
220
0.0
230
1.0
 70
    11
 71
     3
 72
    48
 73
    44
 74
     0
 42
0.000000001
 43
0.0000000001
 40
0.0
 40
0.0
 40
0.0
 40
0.0
 40
0.0833333333333333
 40
0.0833333333333333
 40
0.0833333333333333
 40
0.0833333333333333
 40
0.1666666666666667
 40
0.1666666666666667
 40
0.1666666666666667
 40
0.1666666666666667
 40
0.25
 40
0.25
 40
0.25
 40
0.25
 40
0.3333333333333333
 40
0.3333333333333333
 40
0.3333333333333333
 40
0.3333333333333333
 40
0.4166666666666667
 40
0.4166666666666667
 40
0.4166666666666667
 40
0.4166666666666667
 40
0.5
 40
0.5
 40
0.5
 40
0.5
 40
0.5833333333333334
 40
0.5833333333333334
 40
0.5833333333333334
 40
0.5833333333333334
 40
0.6666666666666666
 40
0.6666666666666666
 40
0.6666666666666666
 40
0.6666666666666666
 40
0.75
 40
0.75
 40
0.75
 40
0.75
 40
0.8333333333333334
 40
0.8333333333333334
 40
0.8333333333333334
 40
0.8333333333333334
 40
1.0
 40
1.0
 40
1.0
 40
1.0
 10
-800.9312992125984
 20
267.6896456692913
 30
0.0
 10
-800.9312992125984
 20
267.6896456692913
 30
0.0
 10
-801.1417952755905
 20
267.5334645669291
 30
0.0
 10
-801.1417952755905
 20
267.5334645669291
 30
0.0
 10
-801.1417952755905
 20
267.5334645669291
 30
0.0
 10
-801.1417952755905
 20
267.5334645669291
 30
0.0
 10
-801.0583110236221
 20
267.7819251968504
 30
0.0
 10
-801.0583110236221
 20
267.7819251968504
 30
0.0
 10
-801.0583110236221
 20
267.7819251968504
 30
0.0
 10
-801.0583110236221
 20
267.7819251968504
 30
0.0
 10
-801.2718976377953
 20
267.9338661417323
 30
0.0
 10
-801.2718976377953
 20
267.9338661417323
 30
0.0
 10
-801.2718976377953
 20
267.9338661417323
 30
0.0
 10
-801.2718976377953
 20
267.9338661417323
 30
0.0
 10
-801.0097913385827
 20
267.9312401574803
 30
0.0
 10
-801.0097913385827
 20
267.9312401574803
 30
0.0
 10
-801.0097913385827
 20
267.9312401574803
 30
0.0
 10
-801.0097913385827
 20
267.9312401574803
 30
0.0
 10
-800.9312992125984
 20
268.1813188976378
 30
0.0
 10
-800.9312992125984
 20
268.1813188976378
 30
0.0
 10
-800.9312992125984
 20
268.1813188976378
 30
0.0
 10
-800.9312992125984
 20
268.1813188976378
 30
0.0
 10
-800.8527992125984
 20
267.9312401574803
 30
0.0
 10
-800.8527992125984
 20
267.9312401574803
 30
0.0
 10
-800.8527992125984
 20
267.9312401574803
 30
0.0
 10
-800.8527992125984
 20
267.9312401574803
 30
0.0
 10
-800.5907047244094
 20
267.9338661417323
 30
0.0
 10
-800.5907047244094
 20
267.9338661417323
 30
0.0
 10
-800.5907047244094
 20
267.9338661417323
 30
0.0
 10
-800.5907047244094
 20
267.9338661417323
 30
0.0
 10
-800.8042874015748
 20
267.7819251968504
 30
0.0
 10
-800.8042874015748
 20
267.7819251968504
 30
0.0
 10
-800.8042874015748
 20
267.7819251968504
 30
0.0
 10
-800.8042874015748
 20
267.7819251968504
 30
0.0
 10
-800.7207952755906
 20
267.5334645669291
 30
0.0
 10
-800.7207952755906
 20
267.5334645669291
 30
0.0
 10
-800.7207952755906
 20
267.5334645669291
 30
0.0
 10
-800.7207952755906
 20
267.5334645669291
 30
0.0
 10
-800.9312992125984
 20
267.6896456692913
 30
0.0
 10
-800.9312992125984
 20
267.6896456692913
 30
0.0
 10
-800.9312992125984
 20
267.6896456692913
 30
0.0
 10
-800.9312992125984
 20
267.6896456692913
 30
0.0
 10
-800.9312992125984
 20
267.6896456692913
 30
0.0
 10
-800.9312992125984
 20
267.6896456692913
 30
0.0
  0
SPLINE
  5
8D
330
1F
100
AcDbEntity
  8
Layer 1
 62
     1
370
     9
100
AcDbSpline
210
0.0
220
0.0
230
1.0
 70
    11
 71
     3
 72
    48
 73
    44
 74
     0
 42
0.000000001
 43
0.0000000001
 40
0.0
 40
0.0
 40
0.0
 40
0.0
 40
0.0833333333333333
 40
0.0833333333333333
 40
0.0833333333333333
 40
0.0833333333333333
 40
0.1666666666666667
 40
0.1666666666666667
 40
0.1666666666666667
 40
0.1666666666666667
 40
0.25
 40
0.25
 40
0.25
 40
0.25
 40
0.3333333333333333
 40
0.3333333333333333
 40
0.3333333333333333
 40
0.3333333333333333
 40
0.4166666666666667
 40
0.4166666666666667
 40
0.4166666666666667
 40
0.4166666666666667
 40
0.5
 40
0.5
 40
0.5
 40
0.5
 40
0.5833333333333334
 40
0.5833333333333334
 40
0.5833333333333334
 40
0.5833333333333334
 40
0.6666666666666666
 40
0.6666666666666666
 40
0.6666666666666666
 40
0.6666666666666666
 40
0.75
 40
0.75
 40
0.75
 40
0.75
 40
0.8333333333333334
 40
0.8333333333333334
 40
0.8333333333333334
 40
0.8333333333333334
 40
1.0
 40
1.0
 40
1.0
 40
1.0
 10
-800.2195590551181
 20
267.0887362204724
 30
0.0
 10
-800.2195590551181
 20
267.0887362204724
 30
0.0
 10
-800.4300551181102
 20
266.9325551181103
 30
0.0
 10
-800.4300551181102
 20
266.9325551181103
 30
0.0
 10
-800.4300551181102
 20
266.9325551181103
 30
0.0
 10
-800.4300551181102
 20
266.9325551181103
 30
0.0
 10
-800.3465748031496
 20
267.1810157480315
 30
0.0
 10
-800.3465748031496
 20
267.1810157480315
 30
0.0
 10
-800.3465748031496
 20
267.1810157480315
 30
0.0
 10
-800.3465748031496
 20
267.1810157480315
 30
0.0
 10
-800.560157480315
 20
267.3329488188976
 30
0.0
 10
-800.560157480315
 20
267.3329488188976
 30
0.0
 10
-800.560157480315
 20
267.3329488188976
 30
0.0
 10
-800.560157480315
 20
267.3329488188976
 30
0.0
 10
-800.2980590551181
 20
267.3303267716535
 30
0.0
 10
-800.2980590551181
 20
267.3303267716535
 30
0.0
 10
-800.2980590551181
 20
267.3303267716535
 30
0.0
 10
-800.2980590551181
 20
267.3303267716535
 30
0.0
 10
-800.2195590551181
 20
267.580405511811
 30
0.0
 10
-800.2195590551181
 20
267.580405511811
 30
0.0
 10
-800.2195590551181
 20
267.580405511811
 30
0.0
 10
-800.2195590551181
 20
267.580405511811
 30
0.0
 10
-800.1410590551181
 20
267.3303267716535
 30
0.0
 10
-800.1410590551181
 20
267.3303267716535
 30
0.0
 10
-800.1410590551181
 20
267.3303267716535
 30
0.0
 10
-800.1410590551181
 20
267.3303267716535
 30
0.0
 10
-799.8789606299213
 20
267.3329488188976
 30
0.0
 10
-799.8789606299213
 20
267.3329488188976
 30
0.0
 10
-799.8789606299213
 20
267.3329488188976
 30
0.0
 10
-799.8789606299213
 20
267.3329488188976
 30
0.0
 10
-800.0925433070867
 20
267.1810157480315
 30
0.0
 10
-800.0925433070867
 20
267.1810157480315
 30
0.0
 10
-800.0925433070867
 20
267.1810157480315
 30
0.0
 10
-800.0925433070867
 20
267.1810157480315
 30
0.0
 10
-800.0090590551181
 20
266.9325551181103
 30
0.0
 10
-800.0090590551181
 20
266.9325551181103
 30
0.0
 10
-800.0090590551181
 20
266.9325551181103
 30
0.0
 10
-800.0090590551181
 20
266.9325551181103
 30
0.0
 10
-800.2195590551181
 20
267.0887362204724
 30
0.0
 10
-800.2195590551181
 20
267.0887362204724
 30
0.0
 10
-800.2195590551181
 20
267.0887362204724
 30
0.0
 10
-800.2195590551181
 20
267.0887362204724
 30
0.0
 10
-800.2195590551181
 20
267.0887362204724
 30
0.0
 10
-800.2195590551181
 20
267.0887362204724
 30
0.0
  0
SPLINE
  5
8E
330
1F
100
AcDbEntity
  8
Layer 1
 62
     1
370
     9
100
AcDbSpline
210
0.0
220
0.0
230
1.0
 70
    11
 71
     3
 72
    48
 73
    44
 74
     0
 42
0.000000001
 43
0.0000000001
 40
0.0
 40
0.0
 40
0.0
 40
0.0
 40
0.0833333333333333
 40
0.0833333333333333
 40
0.0833333333333333
 40
0.0833333333333333
 40
0.1666666666666667
 40
0.1666666666666667
 40
0.1666666666666667
 40
0.1666666666666667
 40
0.25
 40
0.25
 40
0.25
 40
0.25
 40
0.3333333333333333
 40
0.3333333333333333
 40
0.3333333333333333
 40
0.3333333333333333
 40
0.4166666666666667
 40
0.4166666666666667
 40
0.4166666666666667
 40
0.4166666666666667
 40
0.5
 40
0.5
 40
0.5
 40
0.5
 40
0.5833333333333334
 40
0.5833333333333334
 40
0.5833333333333334
 40
0.5833333333333334
 40
0.6666666666666666
 40
0.6666666666666666
 40
0.6666666666666666
 40
0.6666666666666666
 40
0.75
 40
0.75
 40
0.75
 40
0.75
 40
0.8333333333333334
 40
0.8333333333333334
 40
0.8333333333333334
 40
0.8333333333333334
 40
1.0
 40
1.0
 40
1.0
 40
1.0
 10
-804.4998385826772
 20
267.0887362204724
 30
0.0
 10
-804.4998385826772
 20
267.0887362204724
 30
0.0
 10
-804.7103346456693
 20
266.9325551181103
 30
0.0
 10
-804.7103346456693
 20
266.9325551181103
 30
0.0
 10
-804.7103346456693
 20
266.9325551181103
 30
0.0
 10
-804.7103346456693
 20
266.9325551181103
 30
0.0
 10
-804.6268503937008
 20
267.1810157480315
 30
0.0
 10
-804.6268503937008
 20
267.1810157480315
 30
0.0
 10
-804.6268503937008
 20
267.1810157480315
 30
0.0
 10
-804.6268503937008
 20
267.1810157480315
 30
0.0
 10
-804.840437007874
 20
267.3329488188976
 30
0.0
 10
-804.840437007874
 20
267.3329488188976
 30
0.0
 10
-804.840437007874
 20
267.3329488188976
 30
0.0
 10
-804.840437007874
 20
267.3329488188976
 30
0.0
 10
-804.5783346456693
 20
267.3303267716535
 30
0.0
 10
-804.5783346456693
 20
267.3303267716535
 30
0.0
 10
-804.5783346456693
 20
267.3303267716535
 30
0.0
 10
-804.5783346456693
 20
267.3303267716535
 30
0.0
 10
-804.4998385826772
 20
267.580405511811
 30
0.0
 10
-804.4998385826772
 20
267.580405511811
 30
0.0
 10
-804.4998385826772
 20
267.580405511811
 30
0.0
 10
-804.4998385826772
 20
267.580405511811
 30
0.0
 10
-804.4213385826772
 20
267.3303267716535
 30
0.0
 10
-804.4213385826772
 20
267.3303267716535
 30
0.0
 10
-804.4213385826772
 20
267.3303267716535
 30
0.0
 10
-804.4213385826772
 20
267.3303267716535
 30
0.0
 10
-804.1592440944881
 20
267.3329488188976
 30
0.0
 10
-804.1592440944881
 20
267.3329488188976
 30
0.0
 10
-804.1592440944881
 20
267.3329488188976
 30
0.0
 10
-804.1592440944881
 20
267.3329488188976
 30
0.0
 10
-804.3728267716535
 20
267.1810157480315
 30
0.0
 10
-804.3728267716535
 20
267.1810157480315
 30
0.0
 10
-804.3728267716535
 20
267.1810157480315
 30
0.0
 10
-804.3728267716535
 20
267.1810157480315
 30
0.0
 10
-804.2893346456693
 20
266.9325551181103
 30
0.0
 10
-804.2893346456693
 20
266.9325551181103
 30
0.0
 10
-804.2893346456693
 20
266.9325551181103
 30
0.0
 10
-804.2893346456693
 20
266.9325551181103
 30
0.0
 10
-804.4998385826772
 20
267.0887362204724
 30
0.0
 10
-804.4998385826772
 20
267.0887362204724
 30
0.0
 10
-804.4998385826772
 20
267.0887362204724
 30
0.0
 10
-804.4998385826772
 20
267.0887362204724
 30
0.0
 10
-804.4998385826772
 20
267.0887362204724
 30
0.0
 10
-804.4998385826772
 20
267.0887362204724
 30
0.0
  0
SPLINE
  5
8F
330
1F
100
AcDbEntity
  8
Layer 1
 62
     1
370
     9
100
AcDbSpline
210
0.0
220
0.0
230
1.0
 70
    11
 71
     3
 72
    48
 73
    44
 74
     0
 42
0.000000001
 43
0.0000000001
 40
0.0
 40
0.0
 40
0.0
 40
0.0
 40
0.0833333333333333
 40
0.0833333333333333
 40
0.0833333333333333
 40
0.0833333333333333
 40
0.1666666666666667
 40
0.1666666666666667
 40
0.1666666666666667
 40
0.1666666666666667
 40
0.25
 40
0.25
 40
0.25
 40
0.25
 40
0.3333333333333333
 40
0.3333333333333333
 40
0.3333333333333333
 40
0.3333333333333333
 40
0.4166666666666667
 40
0.4166666666666667
 40
0.4166666666666667
 40
0.4166666666666667
 40
0.5
 40
0.5
 40
0.5
 40
0.5
 40
0.5833333333333334
 40
0.5833333333333334
 40
0.5833333333333334
 40
0.5833333333333334
 40
0.6666666666666666
 40
0.6666666666666666
 40
0.6666666666666666
 40
0.6666666666666666
 40
0.75
 40
0.75
 40
0.75
 40
0.75
 40
0.8333333333333334
 40
0.8333333333333334
 40
0.8333333333333334
 40
0.8333333333333334
 40
1.0
 40
1.0
 40
1.0
 40
1.0
 10
-803.0689763779527
 20
267.0887362204724
 30
0.0
 10
-803.0689763779527
 20
267.0887362204724
 30
0.0
 10
-803.2794724409449
 20
266.9325551181103
 30
0.0
 10
-803.2794724409449
 20
266.9325551181103
 30
0.0
 10
-803.2794724409449
 20
266.9325551181103
 30
0.0
 10
-803.2794724409449
 20
266.9325551181103
 30
0.0
 10
-803.1959803149606
 20
267.1810157480315
 30
0.0
 10
-803.1959803149606
 20
267.1810157480315
 30
0.0
 10
-803.1959803149606
 20
267.1810157480315
 30
0.0
 10
-803.1959803149606
 20
267.1810157480315
 30
0.0
 10
-803.4095708661417
 20
267.3329488188976
 30
0.0
 10
-803.4095708661417
 20
267.3329488188976
 30
0.0
 10
-803.4095708661417
 20
267.3329488188976
 30
0.0
 10
-803.4095708661417
 20
267.3329488188976
 30
0.0
 10
-803.147468503937
 20
267.3303267716535
 30
0.0
 10
-803.147468503937
 20
267.3303267716535
 30
0.0
 10
-803.147468503937
 20
267.3303267716535
 30
0.0
 10
-803.147468503937
 20
267.3303267716535
 30
0.0
 10
-803.0689763779527
 20
267.580405511811
 30
0.0
 10
-803.0689763779527
 20
267.580405511811
 30
0.0
 10
-803.0689763779527
 20
267.580405511811
 30
0.0
 10
-803.0689763779527
 20
267.580405511811
 30
0.0
 10
-802.9904763779527
 20
267.3303267716535
 30
0.0
 10
-802.9904763779527
 20
267.3303267716535
 30
0.0
 10
-802.9904763779527
 20
267.3303267716535
 30
0.0
 10
-802.9904763779527
 20
267.3303267716535
 30
0.0
 10
-802.7283779527559
 20
267.3329488188976
 30
0.0
 10
-802.7283779527559
 20
267.3329488188976
 30
0.0
 10
-802.7283779527559
 20
267.3329488188976
 30
0.0
 10
-802.7283779527559
 20
267.3329488188976
 30
0.0
 10
-802.9419645669292
 20
267.1810157480315
 30
0.0
 10
-802.9419645669292
 20
267.1810157480315
 30
0.0
 10
-802.9419645669292
 20
267.1810157480315
 30
0.0
 10
-802.9419645669292
 20
267.1810157480315
 30
0.0
 10
-802.8584724409449
 20
266.9325551181103
 30
0.0
 10
-802.8584724409449
 20
266.9325551181103
 30
0.0
 10
-802.8584724409449
 20
266.9325551181103
 30
0.0
 10
-802.8584724409449
 20
266.9325551181103
 30
0.0
 10
-803.0689763779527
 20
267.0887362204724
 30
0.0
 10
-803.0689763779527
 20
267.0887362204724
 30
0.0
 10
-803.0689763779527
 20
267.0887362204724
 30
0.0
 10
-803.0689763779527
 20
267.0887362204724
 30
0.0
 10
-803.0689763779527
 20
267.0887362204724
 30
0.0
 10
-803.0689763779527
 20
267.0887362204724
 30
0.0
  0
SPLINE
  5
90
330
1F
100
AcDbEntity
  8
Layer 1
 62
     1
370
     9
100
AcDbSpline
210
0.0
220
0.0
230
1.0
 70
    11
 71
     3
 72
    48
 73
    44
 74
     0
 42
0.000000001
 43
0.0000000001
 40
0.0
 40
0.0
 40
0.0
 40
0.0
 40
0.0833333333333333
 40
0.0833333333333333
 40
0.0833333333333333
 40
0.0833333333333333
 40
0.1666666666666667
 40
0.1666666666666667
 40
0.1666666666666667
 40
0.1666666666666667
 40
0.25
 40
0.25
 40
0.25
 40
0.25
 40
0.3333333333333333
 40
0.3333333333333333
 40
0.3333333333333333
 40
0.3333333333333333
 40
0.4166666666666667
 40
0.4166666666666667
 40
0.4166666666666667
 40
0.4166666666666667
 40
0.5
 40
0.5
 40
0.5
 40
0.5
 40
0.5833333333333334
 40
0.5833333333333334
 40
0.5833333333333334
 40
0.5833333333333334
 40
0.6666666666666666
 40
0.6666666666666666
 40
0.6666666666666666
 40
0.6666666666666666
 40
0.75
 40
0.75
 40
0.75
 40
0.75
 40
0.8333333333333334
 40
0.8333333333333334
 40
0.8333333333333334
 40
0.8333333333333334
 40
1.0
 40
1.0
 40
1.0
 40
1.0
 10
-805.9307007874015
 20
267.0887362204724
 30
0.0
 10
-805.9307007874015
 20
267.0887362204724
 30
0.0
 10
-806.1412007874015
 20
266.9325551181103
 30
0.0
 10
-806.1412007874015
 20
266.9325551181103
 30
0.0
 10
-806.1412007874015
 20
266.9325551181103
 30
0.0
 10
-806.1412007874015
 20
266.9325551181103
 30
0.0
 10
-806.0577125984252
 20
267.1810157480315
 30
0.0
 10
-806.0577125984252
 20
267.1810157480315
 30
0.0
 10
-806.0577125984252
 20
267.1810157480315
 30
0.0
 10
-806.0577125984252
 20
267.1810157480315
 30
0.0
 10
-806.2712992125985
 20
267.3329488188976
 30
0.0
 10
-806.2712992125985
 20
267.3329488188976
 30
0.0
 10
-806.2712992125985
 20
267.3329488188976
 30
0.0
 10
-806.2712992125985
 20
267.3329488188976
 30
0.0
 10
-806.0091968503937
 20
267.3303267716535
 30
0.0
 10
-806.0091968503937
 20
267.3303267716535
 30
0.0
 10
-806.0091968503937
 20
267.3303267716535
 30
0.0
 10
-806.0091968503937
 20
267.3303267716535
 30
0.0
 10
-805.9307007874015
 20
267.580405511811
 30
0.0
 10
-805.9307007874015
 20
267.580405511811
 30
0.0
 10
-805.9307007874015
 20
267.580405511811
 30
0.0
 10
-805.9307007874015
 20
267.580405511811
 30
0.0
 10
-805.8522047244095
 20
267.3303267716535
 30
0.0
 10
-805.8522047244095
 20
267.3303267716535
 30
0.0
 10
-805.8522047244095
 20
267.3303267716535
 30
0.0
 10
-805.8522047244095
 20
267.3303267716535
 30
0.0
 10
-805.5901062992126
 20
267.3329488188976
 30
0.0
 10
-805.5901062992126
 20
267.3329488188976
 30
0.0
 10
-805.5901062992126
 20
267.3329488188976
 30
0.0
 10
-805.5901062992126
 20
267.3329488188976
 30
0.0
 10
-805.803688976378
 20
267.1810157480315
 30
0.0
 10
-805.803688976378
 20
267.1810157480315
 30
0.0
 10
-805.803688976378
 20
267.1810157480315
 30
0.0
 10
-805.803688976378
 20
267.1810157480315
 30
0.0
 10
-805.7201968503937
 20
266.9325551181103
 30
0.0
 10
-805.7201968503937
 20
266.9325551181103
 30
0.0
 10
-805.7201968503937
 20
266.9325551181103
 30
0.0
 10
-805.7201968503937
 20
266.9325551181103
 30
0.0
 10
-805.9307007874015
 20
267.0887362204724
 30
0.0
 10
-805.9307007874015
 20
267.0887362204724
 30
0.0
 10
-805.9307007874015
 20
267.0887362204724
 30
0.0
 10
-805.9307007874015
 20
267.0887362204724
 30
0.0
 10
-805.9307007874015
 20
267.0887362204724
 30
0.0
 10
-805.9307007874015
 20
267.0887362204724
 30
0.0
  0
SPLINE
  5
91
330
1F
100
AcDbEntity
  8
Layer 1
 62
     1
370
     9
100
AcDbSpline
210
0.0
220
0.0
230
1.0
 70
    11
 71
     3
 72
    48
 73
    44
 74
     0
 42
0.000000001
 43
0.0000000001
 40
0.0
 40
0.0
 40
0.0
 40
0.0
 40
0.0833333333333333
 40
0.0833333333333333
 40
0.0833333333333333
 40
0.0833333333333333
 40
0.1666666666666667
 40
0.1666666666666667
 40
0.1666666666666667
 40
0.1666666666666667
 40
0.25
 40
0.25
 40
0.25
 40
0.25
 40
0.3333333333333333
 40
0.3333333333333333
 40
0.3333333333333333
 40
0.3333333333333333
 40
0.4166666666666667
 40
0.4166666666666667
 40
0.4166666666666667
 40
0.4166666666666667
 40
0.5
 40
0.5
 40
0.5
 40
0.5
 40
0.5833333333333334
 40
0.5833333333333334
 40
0.5833333333333334
 40
0.5833333333333334
 40
0.6666666666666666
 40
0.6666666666666666
 40
0.6666666666666666
 40
0.6666666666666666
 40
0.75
 40
0.75
 40
0.75
 40
0.75
 40
0.8333333333333334
 40
0.8333333333333334
 40
0.8333333333333334
 40
0.8333333333333334
 40
1.0
 40
1.0
 40
1.0
 40
1.0
 10
-801.6504251968504
 20
267.0887362204724
 30
0.0
 10
-801.6504251968504
 20
267.0887362204724
 30
0.0
 10
-801.8609212598425
 20
266.9325551181103
 30
0.0
 10
-801.8609212598425
 20
266.9325551181103
 30
0.0
 10
-801.8609212598425
 20
266.9325551181103
 30
0.0
 10
-801.8609212598425
 20
266.9325551181103
 30
0.0
 10
-801.777437007874
 20
267.1810157480315
 30
0.0
 10
-801.777437007874
 20
267.1810157480315
 30
0.0
 10
-801.777437007874
 20
267.1810157480315
 30
0.0
 10
-801.777437007874
 20
267.1810157480315
 30
0.0
 10
-801.9910196850394
 20
267.3329488188976
 30
0.0
 10
-801.9910196850394
 20
267.3329488188976
 30
0.0
 10
-801.9910196850394
 20
267.3329488188976
 30
0.0
 10
-801.9910196850394
 20
267.3329488188976
 30
0.0
 10
-801.7289212598425
 20
267.3303267716535
 30
0.0
 10
-801.7289212598425
 20
267.3303267716535
 30
0.0
 10
-801.7289212598425
 20
267.3303267716535
 30
0.0
 10
-801.7289212598425
 20
267.3303267716535
 30
0.0
 10
-801.6504251968504
 20
267.580405511811
 30
0.0
 10
-801.6504251968504
 20
267.580405511811
 30
0.0
 10
-801.6504251968504
 20
267.580405511811
 30
0.0
 10
-801.6504251968504
 20
267.580405511811
 30
0.0
 10
-801.5719212598425
 20
267.3303267716535
 30
0.0
 10
-801.5719212598425
 20
267.3303267716535
 30
0.0
 10
-801.5719212598425
 20
267.3303267716535
 30
0.0
 10
-801.5719212598425
 20
267.3303267716535
 30
0.0
 10
-801.3098228346456
 20
267.3329488188976
 30
0.0
 10
-801.3098228346456
 20
267.3329488188976
 30
0.0
 10
-801.3098228346456
 20
267.3329488188976
 30
0.0
 10
-801.3098228346456
 20
267.3329488188976
 30
0.0
 10
-801.5234094488189
 20
267.1810157480315
 30
0.0
 10
-801.5234094488189
 20
267.1810157480315
 30
0.0
 10
-801.5234094488189
 20
267.1810157480315
 30
0.0
 10
-801.5234094488189
 20
267.1810157480315
 30
0.0
 10
-801.4399212598425
 20
266.9325551181103
 30
0.0
 10
-801.4399212598425
 20
266.9325551181103
 30
0.0
 10
-801.4399212598425
 20
266.9325551181103
 30
0.0
 10
-801.4399212598425
 20
266.9325551181103
 30
0.0
 10
-801.6504251968504
 20
267.0887362204724
 30
0.0
 10
-801.6504251968504
 20
267.0887362204724
 30
0.0
 10
-801.6504251968504
 20
267.0887362204724
 30
0.0
 10
-801.6504251968504
 20
267.0887362204724
 30
0.0
 10
-801.6504251968504
 20
267.0887362204724
 30
0.0
 10
-801.6504251968504
 20
267.0887362204724
 30
0.0
  0
SPLINE
  5
92
330
1F
100
AcDbEntity
  8
Layer 1
 62
     1
370
     9
100
AcDbSpline
210
0.0
220
0.0
230
1.0
 70
    11
 71
     3
 72
    48
 73
    44
 74
     0
 42
0.000000001
 43
0.0000000001
 40
0.0
 40
0.0
 40
0.0
 40
0.0
 40
0.0833333333333333
 40
0.0833333333333333
 40
0.0833333333333333
 40
0.0833333333333333
 40
0.1666666666666667
 40
0.1666666666666667
 40
0.1666666666666667
 40
0.1666666666666667
 40
0.25
 40
0.25
 40
0.25
 40
0.25
 40
0.3333333333333333
 40
0.3333333333333333
 40
0.3333333333333333
 40
0.3333333333333333
 40
0.4166666666666667
 40
0.4166666666666667
 40
0.4166666666666667
 40
0.4166666666666667
 40
0.5
 40
0.5
 40
0.5
 40
0.5
 40
0.5833333333333334
 40
0.5833333333333334
 40
0.5833333333333334
 40
0.5833333333333334
 40
0.6666666666666666
 40
0.6666666666666666
 40
0.6666666666666666
 40
0.6666666666666666
 40
0.75
 40
0.75
 40
0.75
 40
0.75
 40
0.8333333333333334
 40
0.8333333333333334
 40
0.8333333333333334
 40
0.8333333333333334
 40
1.0
 40
1.0
 40
1.0
 40
1.0
 10
-798.7886968503936
 20
267.0887362204724
 30
0.0
 10
-798.7886968503936
 20
267.0887362204724
 30
0.0
 10
-798.9991929133859
 20
266.9325551181103
 30
0.0
 10
-798.9991929133859
 20
266.9325551181103
 30
0.0
 10
-798.9991929133859
 20
266.9325551181103
 30
0.0
 10
-798.9991929133859
 20
266.9325551181103
 30
0.0
 10
-798.9157086614173
 20
267.1810157480315
 30
0.0
 10
-798.9157086614173
 20
267.1810157480315
 30
0.0
 10
-798.9157086614173
 20
267.1810157480315
 30
0.0
 10
-798.9157086614173
 20
267.1810157480315
 30
0.0
 10
-799.1292952755906
 20
267.3329488188976
 30
0.0
 10
-799.1292952755906
 20
267.3329488188976
 30
0.0
 10
-799.1292952755906
 20
267.3329488188976
 30
0.0
 10
-799.1292952755906
 20
267.3329488188976
 30
0.0
 10
-798.8671968503937
 20
267.3303267716535
 30
0.0
 10
-798.8671968503937
 20
267.3303267716535
 30
0.0
 10
-798.8671968503937
 20
267.3303267716535
 30
0.0
 10
-798.8671968503937
 20
267.3303267716535
 30
0.0
 10
-798.7886968503936
 20
267.580405511811
 30
0.0
 10
-798.7886968503936
 20
267.580405511811
 30
0.0
 10
-798.7886968503936
 20
267.580405511811
 30
0.0
 10
-798.7886968503936
 20
267.580405511811
 30
0.0
 10
-798.7101968503937
 20
267.3303267716535
 30
0.0
 10
-798.7101968503937
 20
267.3303267716535
 30
0.0
 10
-798.7101968503937
 20
267.3303267716535
 30
0.0
 10
-798.7101968503937
 20
267.3303267716535
 30
0.0
 10
-798.4480984251968
 20
267.3329488188976
 30
0.0
 10
-798.4480984251968
 20
267.3329488188976
 30
0.0
 10
-798.4480984251968
 20
267.3329488188976
 30
0.0
 10
-798.4480984251968
 20
267.3329488188976
 30
0.0
 10
-798.6616811023622
 20
267.1810157480315
 30
0.0
 10
-798.6616811023622
 20
267.1810157480315
 30
0.0
 10
-798.6616811023622
 20
267.1810157480315
 30
0.0
 10
-798.6616811023622
 20
267.1810157480315
 30
0.0
 10
-798.578188976378
 20
266.9325551181103
 30
0.0
 10
-798.578188976378
 20
266.9325551181103
 30
0.0
 10
-798.578188976378
 20
266.9325551181103
 30
0.0
 10
-798.578188976378
 20
266.9325551181103
 30
0.0
 10
-798.7886968503936
 20
267.0887362204724
 30
0.0
 10
-798.7886968503936
 20
267.0887362204724
 30
0.0
 10
-798.7886968503936
 20
267.0887362204724
 30
0.0
 10
-798.7886968503936
 20
267.0887362204724
 30
0.0
 10
-798.7886968503936
 20
267.0887362204724
 30
0.0
 10
-798.7886968503936
 20
267.0887362204724
 30
0.0
  0
SPLINE
  5
93
330
1F
100
AcDbEntity
  8
Layer 1
 62
     1
370
     9
100
AcDbSpline
210
0.0
220
0.0
230
1.0
 70
    11
 71
     3
 72
    48
 73
    44
 74
     0
 42
0.000000001
 43
0.0000000001
 40
0.0
 40
0.0
 40
0.0
 40
0.0
 40
0.0833333333333333
 40
0.0833333333333333
 40
0.0833333333333333
 40
0.0833333333333333
 40
0.1666666666666667
 40
0.1666666666666667
 40
0.1666666666666667
 40
0.1666666666666667
 40
0.25
 40
0.25
 40
0.25
 40
0.25
 40
0.3333333333333333
 40
0.3333333333333333
 40
0.3333333333333333
 40
0.3333333333333333
 40
0.4166666666666667
 40
0.4166666666666667
 40
0.4166666666666667
 40
0.4166666666666667
 40
0.5
 40
0.5
 40
0.5
 40
0.5
 40
0.5833333333333334
 40
0.5833333333333334
 40
0.5833333333333334
 40
0.5833333333333334
 40
0.6666666666666666
 40
0.6666666666666666
 40
0.6666666666666666
 40
0.6666666666666666
 40
0.75
 40
0.75
 40
0.75
 40
0.75
 40
0.8333333333333334
 40
0.8333333333333334
 40
0.8333333333333334
 40
0.8333333333333334
 40
1.0
 40
1.0
 40
1.0
 40
1.0
 10
-800.2195590551181
 20
265.8770551181103
 30
0.0
 10
-800.2195590551181
 20
265.8770551181103
 30
0.0
 10
-800.4300551181102
 20
265.7208779527559
 30
0.0
 10
-800.4300551181102
 20
265.7208779527559
 30
0.0
 10
-800.4300551181102
 20
265.7208779527559
 30
0.0
 10
-800.4300551181102
 20
265.7208779527559
 30
0.0
 10
-800.3465748031496
 20
265.9693346456693
 30
0.0
 10
-800.3465748031496
 20
265.9693346456693
 30
0.0
 10
-800.3465748031496
 20
265.9693346456693
 30
0.0
 10
-800.3465748031496
 20
265.9693346456693
 30
0.0
 10
-800.560157480315
 20
266.1212716535433
 30
0.0
 10
-800.560157480315
 20
266.1212716535433
 30
0.0
 10
-800.560157480315
 20
266.1212716535433
 30
0.0
 10
-800.560157480315
 20
266.1212716535433
 30
0.0
 10
-800.2980590551181
 20
266.1186496062992
 30
0.0
 10
-800.2980590551181
 20
266.1186496062992
 30
0.0
 10
-800.2980590551181
 20
266.1186496062992
 30
0.0
 10
-800.2980590551181
 20
266.1186496062992
 30
0.0
 10
-800.2195590551181
 20
266.3687283464567
 30
0.0
 10
-800.2195590551181
 20
266.3687283464567
 30
0.0
 10
-800.2195590551181
 20
266.3687283464567
 30
0.0
 10
-800.2195590551181
 20
266.3687283464567
 30
0.0
 10
-800.1410590551181
 20
266.1186496062992
 30
0.0
 10
-800.1410590551181
 20
266.1186496062992
 30
0.0
 10
-800.1410590551181
 20
266.1186496062992
 30
0.0
 10
-800.1410590551181
 20
266.1186496062992
 30
0.0
 10
-799.8789606299213
 20
266.1212716535433
 30
0.0
 10
-799.8789606299213
 20
266.1212716535433
 30
0.0
 10
-799.8789606299213
 20
266.1212716535433
 30
0.0
 10
-799.8789606299213
 20
266.1212716535433
 30
0.0
 10
-800.0925433070867
 20
265.9693346456693
 30
0.0
 10
-800.0925433070867
 20
265.9693346456693
 30
0.0
 10
-800.0925433070867
 20
265.9693346456693
 30
0.0
 10
-800.0925433070867
 20
265.9693346456693
 30
0.0
 10
-800.0090590551181
 20
265.7208779527559
 30
0.0
 10
-800.0090590551181
 20
265.7208779527559
 30
0.0
 10
-800.0090590551181
 20
265.7208779527559
 30
0.0
 10
-800.0090590551181
 20
265.7208779527559
 30
0.0
 10
-800.2195590551181
 20
265.8770551181103
 30
0.0
 10
-800.2195590551181
 20
265.8770551181103
 30
0.0
 10
-800.2195590551181
 20
265.8770551181103
 30
0.0
 10
-800.2195590551181
 20
265.8770551181103
 30
0.0
 10
-800.2195590551181
 20
265.8770551181103
 30
0.0
 10
-800.2195590551181
 20
265.8770551181103
 30
0.0
  0
SPLINE
  5
94
330
1F
100
AcDbEntity
  8
Layer 1
 62
     1
370
     9
100
AcDbSpline
210
0.0
220
0.0
230
1.0
 70
    11
 71
     3
 72
    48
 73
    44
 74
     0
 42
0.000000001
 43
0.0000000001
 40
0.0
 40
0.0
 40
0.0
 40
0.0
 40
0.0833333333333333
 40
0.0833333333333333
 40
0.0833333333333333
 40
0.0833333333333333
 40
0.1666666666666667
 40
0.1666666666666667
 40
0.1666666666666667
 40
0.1666666666666667
 40
0.25
 40
0.25
 40
0.25
 40
0.25
 40
0.3333333333333333
 40
0.3333333333333333
 40
0.3333333333333333
 40
0.3333333333333333
 40
0.4166666666666667
 40
0.4166666666666667
 40
0.4166666666666667
 40
0.4166666666666667
 40
0.5
 40
0.5
 40
0.5
 40
0.5
 40
0.5833333333333334
 40
0.5833333333333334
 40
0.5833333333333334
 40
0.5833333333333334
 40
0.6666666666666666
 40
0.6666666666666666
 40
0.6666666666666666
 40
0.6666666666666666
 40
0.75
 40
0.75
 40
0.75
 40
0.75
 40
0.8333333333333334
 40
0.8333333333333334
 40
0.8333333333333334
 40
0.8333333333333334
 40
1.0
 40
1.0
 40
1.0
 40
1.0
 10
-804.4998385826772
 20
265.8770551181103
 30
0.0
 10
-804.4998385826772
 20
265.8770551181103
 30
0.0
 10
-804.7103346456693
 20
265.7208779527559
 30
0.0
 10
-804.7103346456693
 20
265.7208779527559
 30
0.0
 10
-804.7103346456693
 20
265.7208779527559
 30
0.0
 10
-804.7103346456693
 20
265.7208779527559
 30
0.0
 10
-804.6268503937008
 20
265.9693346456693
 30
0.0
 10
-804.6268503937008
 20
265.9693346456693
 30
0.0
 10
-804.6268503937008
 20
265.9693346456693
 30
0.0
 10
-804.6268503937008
 20
265.9693346456693
 30
0.0
 10
-804.840437007874
 20
266.1212716535433
 30
0.0
 10
-804.840437007874
 20
266.1212716535433
 30
0.0
 10
-804.840437007874
 20
266.1212716535433
 30
0.0
 10
-804.840437007874
 20
266.1212716535433
 30
0.0
 10
-804.5783346456693
 20
266.1186496062992
 30
0.0
 10
-804.5783346456693
 20
266.1186496062992
 30
0.0
 10
-804.5783346456693
 20
266.1186496062992
 30
0.0
 10
-804.5783346456693
 20
266.1186496062992
 30
0.0
 10
-804.4998385826772
 20
266.3687283464567
 30
0.0
 10
-804.4998385826772
 20
266.3687283464567
 30
0.0
 10
-804.4998385826772
 20
266.3687283464567
 30
0.0
 10
-804.4998385826772
 20
266.3687283464567
 30
0.0
 10
-804.4213385826772
 20
266.1186496062992
 30
0.0
 10
-804.4213385826772
 20
266.1186496062992
 30
0.0
 10
-804.4213385826772
 20
266.1186496062992
 30
0.0
 10
-804.4213385826772
 20
266.1186496062992
 30
0.0
 10
-804.1592440944881
 20
266.1212716535433
 30
0.0
 10
-804.1592440944881
 20
266.1212716535433
 30
0.0
 10
-804.1592440944881
 20
266.1212716535433
 30
0.0
 10
-804.1592440944881
 20
266.1212716535433
 30
0.0
 10
-804.3728267716535
 20
265.9693346456693
 30
0.0
 10
-804.3728267716535
 20
265.9693346456693
 30
0.0
 10
-804.3728267716535
 20
265.9693346456693
 30
0.0
 10
-804.3728267716535
 20
265.9693346456693
 30
0.0
 10
-804.2893346456693
 20
265.7208779527559
 30
0.0
 10
-804.2893346456693
 20
265.7208779527559
 30
0.0
 10
-804.2893346456693
 20
265.7208779527559
 30
0.0
 10
-804.2893346456693
 20
265.7208779527559
 30
0.0
 10
-804.4998385826772
 20
265.8770551181103
 30
0.0
 10
-804.4998385826772
 20
265.8770551181103
 30
0.0
 10
-804.4998385826772
 20
265.8770551181103
 30
0.0
 10
-804.4998385826772
 20
265.8770551181103
 30
0.0
 10
-804.4998385826772
 20
265.8770551181103
 30
0.0
 10
-804.4998385826772
 20
265.8770551181103
 30
0.0
  0
SPLINE
  5
95
330
1F
100
AcDbEntity
  8
Layer 1
 62
     1
370
     9
100
AcDbSpline
210
0.0
220
0.0
230
1.0
 70
    11
 71
     3
 72
    48
 73
    44
 74
     0
 42
0.000000001
 43
0.0000000001
 40
0.0
 40
0.0
 40
0.0
 40
0.0
 40
0.0833333333333333
 40
0.0833333333333333
 40
0.0833333333333333
 40
0.0833333333333333
 40
0.1666666666666667
 40
0.1666666666666667
 40
0.1666666666666667
 40
0.1666666666666667
 40
0.25
 40
0.25
 40
0.25
 40
0.25
 40
0.3333333333333333
 40
0.3333333333333333
 40
0.3333333333333333
 40
0.3333333333333333
 40
0.4166666666666667
 40
0.4166666666666667
 40
0.4166666666666667
 40
0.4166666666666667
 40
0.5
 40
0.5
 40
0.5
 40
0.5
 40
0.5833333333333334
 40
0.5833333333333334
 40
0.5833333333333334
 40
0.5833333333333334
 40
0.6666666666666666
 40
0.6666666666666666
 40
0.6666666666666666
 40
0.6666666666666666
 40
0.75
 40
0.75
 40
0.75
 40
0.75
 40
0.8333333333333334
 40
0.8333333333333334
 40
0.8333333333333334
 40
0.8333333333333334
 40
1.0
 40
1.0
 40
1.0
 40
1.0
 10
-803.0689763779527
 20
265.8770551181103
 30
0.0
 10
-803.0689763779527
 20
265.8770551181103
 30
0.0
 10
-803.2794724409449
 20
265.7208779527559
 30
0.0
 10
-803.2794724409449
 20
265.7208779527559
 30
0.0
 10
-803.2794724409449
 20
265.7208779527559
 30
0.0
 10
-803.2794724409449
 20
265.7208779527559
 30
0.0
 10
-803.1959803149606
 20
265.9693346456693
 30
0.0
 10
-803.1959803149606
 20
265.9693346456693
 30
0.0
 10
-803.1959803149606
 20
265.9693346456693
 30
0.0
 10
-803.1959803149606
 20
265.9693346456693
 30
0.0
 10
-803.4095708661417
 20
266.1212716535433
 30
0.0
 10
-803.4095708661417
 20
266.1212716535433
 30
0.0
 10
-803.4095708661417
 20
266.1212716535433
 30
0.0
 10
-803.4095708661417
 20
266.1212716535433
 30
0.0
 10
-803.147468503937
 20
266.1186496062992
 30
0.0
 10
-803.147468503937
 20
266.1186496062992
 30
0.0
 10
-803.147468503937
 20
266.1186496062992
 30
0.0
 10
-803.147468503937
 20
266.1186496062992
 30
0.0
 10
-803.0689763779527
 20
266.3687283464567
 30
0.0
 10
-803.0689763779527
 20
266.3687283464567
 30
0.0
 10
-803.0689763779527
 20
266.3687283464567
 30
0.0
 10
-803.0689763779527
 20
266.3687283464567
 30
0.0
 10
-802.9904763779527
 20
266.1186496062992
 30
0.0
 10
-802.9904763779527
 20
266.1186496062992
 30
0.0
 10
-802.9904763779527
 20
266.1186496062992
 30
0.0
 10
-802.9904763779527
 20
266.1186496062992
 30
0.0
 10
-802.7283779527559
 20
266.1212716535433
 30
0.0
 10
-802.7283779527559
 20
266.1212716535433
 30
0.0
 10
-802.7283779527559
 20
266.1212716535433
 30
0.0
 10
-802.7283779527559
 20
266.1212716535433
 30
0.0
 10
-802.9419645669292
 20
265.9693346456693
 30
0.0
 10
-802.9419645669292
 20
265.9693346456693
 30
0.0
 10
-802.9419645669292
 20
265.9693346456693
 30
0.0
 10
-802.9419645669292
 20
265.9693346456693
 30
0.0
 10
-802.8584724409449
 20
265.7208779527559
 30
0.0
 10
-802.8584724409449
 20
265.7208779527559
 30
0.0
 10
-802.8584724409449
 20
265.7208779527559
 30
0.0
 10
-802.8584724409449
 20
265.7208779527559
 30
0.0
 10
-803.0689763779527
 20
265.8770551181103
 30
0.0
 10
-803.0689763779527
 20
265.8770551181103
 30
0.0
 10
-803.0689763779527
 20
265.8770551181103
 30
0.0
 10
-803.0689763779527
 20
265.8770551181103
 30
0.0
 10
-803.0689763779527
 20
265.8770551181103
 30
0.0
 10
-803.0689763779527
 20
265.8770551181103
 30
0.0
  0
SPLINE
  5
96
330
1F
100
AcDbEntity
  8
Layer 1
 62
     1
370
     9
100
AcDbSpline
210
0.0
220
0.0
230
1.0
 70
    11
 71
     3
 72
    48
 73
    44
 74
     0
 42
0.000000001
 43
0.0000000001
 40
0.0
 40
0.0
 40
0.0
 40
0.0
 40
0.0833333333333333
 40
0.0833333333333333
 40
0.0833333333333333
 40
0.0833333333333333
 40
0.1666666666666667
 40
0.1666666666666667
 40
0.1666666666666667
 40
0.1666666666666667
 40
0.25
 40
0.25
 40
0.25
 40
0.25
 40
0.3333333333333333
 40
0.3333333333333333
 40
0.3333333333333333
 40
0.3333333333333333
 40
0.4166666666666667
 40
0.4166666666666667
 40
0.4166666666666667
 40
0.4166666666666667
 40
0.5
 40
0.5
 40
0.5
 40
0.5
 40
0.5833333333333334
 40
0.5833333333333334
 40
0.5833333333333334
 40
0.5833333333333334
 40
0.6666666666666666
 40
0.6666666666666666
 40
0.6666666666666666
 40
0.6666666666666666
 40
0.75
 40
0.75
 40
0.75
 40
0.75
 40
0.8333333333333334
 40
0.8333333333333334
 40
0.8333333333333334
 40
0.8333333333333334
 40
1.0
 40
1.0
 40
1.0
 40
1.0
 10
-805.9307007874015
 20
265.8770551181103
 30
0.0
 10
-805.9307007874015
 20
265.8770551181103
 30
0.0
 10
-806.1412007874015
 20
265.7208779527559
 30
0.0
 10
-806.1412007874015
 20
265.7208779527559
 30
0.0
 10
-806.1412007874015
 20
265.7208779527559
 30
0.0
 10
-806.1412007874015
 20
265.7208779527559
 30
0.0
 10
-806.0577125984252
 20
265.9693346456693
 30
0.0
 10
-806.0577125984252
 20
265.9693346456693
 30
0.0
 10
-806.0577125984252
 20
265.9693346456693
 30
0.0
 10
-806.0577125984252
 20
265.9693346456693
 30
0.0
 10
-806.2712992125985
 20
266.1212716535433
 30
0.0
 10
-806.2712992125985
 20
266.1212716535433
 30
0.0
 10
-806.2712992125985
 20
266.1212716535433
 30
0.0
 10
-806.2712992125985
 20
266.1212716535433
 30
0.0
 10
-806.0091968503937
 20
266.1186496062992
 30
0.0
 10
-806.0091968503937
 20
266.1186496062992
 30
0.0
 10
-806.0091968503937
 20
266.1186496062992
 30
0.0
 10
-806.0091968503937
 20
266.1186496062992
 30
0.0
 10
-805.9307007874015
 20
266.3687283464567
 30
0.0
 10
-805.9307007874015
 20
266.3687283464567
 30
0.0
 10
-805.9307007874015
 20
266.3687283464567
 30
0.0
 10
-805.9307007874015
 20
266.3687283464567
 30
0.0
 10
-805.8522047244095
 20
266.1186496062992
 30
0.0
 10
-805.8522047244095
 20
266.1186496062992
 30
0.0
 10
-805.8522047244095
 20
266.1186496062992
 30
0.0
 10
-805.8522047244095
 20
266.1186496062992
 30
0.0
 10
-805.5901062992126
 20
266.1212716535433
 30
0.0
 10
-805.5901062992126
 20
266.1212716535433
 30
0.0
 10
-805.5901062992126
 20
266.1212716535433
 30
0.0
 10
-805.5901062992126
 20
266.1212716535433
 30
0.0
 10
-805.803688976378
 20
265.9693346456693
 30
0.0
 10
-805.803688976378
 20
265.9693346456693
 30
0.0
 10
-805.803688976378
 20
265.9693346456693
 30
0.0
 10
-805.803688976378
 20
265.9693346456693
 30
0.0
 10
-805.7201968503937
 20
265.7208779527559
 30
0.0
 10
-805.7201968503937
 20
265.7208779527559
 30
0.0
 10
-805.7201968503937
 20
265.7208779527559
 30
0.0
 10
-805.7201968503937
 20
265.7208779527559
 30
0.0
 10
-805.9307007874015
 20
265.8770551181103
 30
0.0
 10
-805.9307007874015
 20
265.8770551181103
 30
0.0
 10
-805.9307007874015
 20
265.8770551181103
 30
0.0
 10
-805.9307007874015
 20
265.8770551181103
 30
0.0
 10
-805.9307007874015
 20
265.8770551181103
 30
0.0
 10
-805.9307007874015
 20
265.8770551181103
 30
0.0
  0
SPLINE
  5
97
330
1F
100
AcDbEntity
  8
Layer 1
 62
     1
370
     9
100
AcDbSpline
210
0.0
220
0.0
230
1.0
 70
    11
 71
     3
 72
    48
 73
    44
 74
     0
 42
0.000000001
 43
0.0000000001
 40
0.0
 40
0.0
 40
0.0
 40
0.0
 40
0.0833333333333333
 40
0.0833333333333333
 40
0.0833333333333333
 40
0.0833333333333333
 40
0.1666666666666667
 40
0.1666666666666667
 40
0.1666666666666667
 40
0.1666666666666667
 40
0.25
 40
0.25
 40
0.25
 40
0.25
 40
0.3333333333333333
 40
0.3333333333333333
 40
0.3333333333333333
 40
0.3333333333333333
 40
0.4166666666666667
 40
0.4166666666666667
 40
0.4166666666666667
 40
0.4166666666666667
 40
0.5
 40
0.5
 40
0.5
 40
0.5
 40
0.5833333333333334
 40
0.5833333333333334
 40
0.5833333333333334
 40
0.5833333333333334
 40
0.6666666666666666
 40
0.6666666666666666
 40
0.6666666666666666
 40
0.6666666666666666
 40
0.75
 40
0.75
 40
0.75
 40
0.75
 40
0.8333333333333334
 40
0.8333333333333334
 40
0.8333333333333334
 40
0.8333333333333334
 40
1.0
 40
1.0
 40
1.0
 40
1.0
 10
-801.6504251968504
 20
265.8770551181103
 30
0.0
 10
-801.6504251968504
 20
265.8770551181103
 30
0.0
 10
-801.8609212598425
 20
265.7208779527559
 30
0.0
 10
-801.8609212598425
 20
265.7208779527559
 30
0.0
 10
-801.8609212598425
 20
265.7208779527559
 30
0.0
 10
-801.8609212598425
 20
265.7208779527559
 30
0.0
 10
-801.777437007874
 20
265.9693346456693
 30
0.0
 10
-801.777437007874
 20
265.9693346456693
 30
0.0
 10
-801.777437007874
 20
265.9693346456693
 30
0.0
 10
-801.777437007874
 20
265.9693346456693
 30
0.0
 10
-801.9910196850394
 20
266.1212716535433
 30
0.0
 10
-801.9910196850394
 20
266.1212716535433
 30
0.0
 10
-801.9910196850394
 20
266.1212716535433
 30
0.0
 10
-801.9910196850394
 20
266.1212716535433
 30
0.0
 10
-801.7289212598425
 20
266.1186496062992
 30
0.0
 10
-801.7289212598425
 20
266.1186496062992
 30
0.0
 10
-801.7289212598425
 20
266.1186496062992
 30
0.0
 10
-801.7289212598425
 20
266.1186496062992
 30
0.0
 10
-801.6504251968504
 20
266.3687283464567
 30
0.0
 10
-801.6504251968504
 20
266.3687283464567
 30
0.0
 10
-801.6504251968504
 20
266.3687283464567
 30
0.0
 10
-801.6504251968504
 20
266.3687283464567
 30
0.0
 10
-801.5719212598425
 20
266.1186496062992
 30
0.0
 10
-801.5719212598425
 20
266.1186496062992
 30
0.0
 10
-801.5719212598425
 20
266.1186496062992
 30
0.0
 10
-801.5719212598425
 20
266.1186496062992
 30
0.0
 10
-801.3098228346456
 20
266.1212716535433
 30
0.0
 10
-801.3098228346456
 20
266.1212716535433
 30
0.0
 10
-801.3098228346456
 20
266.1212716535433
 30
0.0
 10
-801.3098228346456
 20
266.1212716535433
 30
0.0
 10
-801.5234094488189
 20
265.9693346456693
 30
0.0
 10
-801.5234094488189
 20
265.9693346456693
 30
0.0
 10
-801.5234094488189
 20
265.9693346456693
 30
0.0
 10
-801.5234094488189
 20
265.9693346456693
 30
0.0
 10
-801.4399212598425
 20
265.7208779527559
 30
0.0
 10
-801.4399212598425
 20
265.7208779527559
 30
0.0
 10
-801.4399212598425
 20
265.7208779527559
 30
0.0
 10
-801.4399212598425
 20
265.7208779527559
 30
0.0
 10
-801.6504251968504
 20
265.8770551181103
 30
0.0
 10
-801.6504251968504
 20
265.8770551181103
 30
0.0
 10
-801.6504251968504
 20
265.8770551181103
 30
0.0
 10
-801.6504251968504
 20
265.8770551181103
 30
0.0
 10
-801.6504251968504
 20
265.8770551181103
 30
0.0
 10
-801.6504251968504
 20
265.8770551181103
 30
0.0
  0
SPLINE
  5
98
330
1F
100
AcDbEntity
  8
Layer 1
 62
     1
370
     9
100
AcDbSpline
210
0.0
220
0.0
230
1.0
 70
    11
 71
     3
 72
    48
 73
    44
 74
     0
 42
0.000000001
 43
0.0000000001
 40
0.0
 40
0.0
 40
0.0
 40
0.0
 40
0.0833333333333333
 40
0.0833333333333333
 40
0.0833333333333333
 40
0.0833333333333333
 40
0.1666666666666667
 40
0.1666666666666667
 40
0.1666666666666667
 40
0.1666666666666667
 40
0.25
 40
0.25
 40
0.25
 40
0.25
 40
0.3333333333333333
 40
0.3333333333333333
 40
0.3333333333333333
 40
0.3333333333333333
 40
0.4166666666666667
 40
0.4166666666666667
 40
0.4166666666666667
 40
0.4166666666666667
 40
0.5
 40
0.5
 40
0.5
 40
0.5
 40
0.5833333333333334
 40
0.5833333333333334
 40
0.5833333333333334
 40
0.5833333333333334
 40
0.6666666666666666
 40
0.6666666666666666
 40
0.6666666666666666
 40
0.6666666666666666
 40
0.75
 40
0.75
 40
0.75
 40
0.75
 40
0.8333333333333334
 40
0.8333333333333334
 40
0.8333333333333334
 40
0.8333333333333334
 40
1.0
 40
1.0
 40
1.0
 40
1.0
 10
-798.7886968503936
 20
265.8770551181103
 30
0.0
 10
-798.7886968503936
 20
265.8770551181103
 30
0.0
 10
-798.9991929133859
 20
265.7208779527559
 30
0.0
 10
-798.9991929133859
 20
265.7208779527559
 30
0.0
 10
-798.9991929133859
 20
265.7208779527559
 30
0.0
 10
-798.9991929133859
 20
265.7208779527559
 30
0.0
 10
-798.9157086614173
 20
265.9693346456693
 30
0.0
 10
-798.9157086614173
 20
265.9693346456693
 30
0.0
 10
-798.9157086614173
 20
265.9693346456693
 30
0.0
 10
-798.9157086614173
 20
265.9693346456693
 30
0.0
 10
-799.1292952755906
 20
266.1212716535433
 30
0.0
 10
-799.1292952755906
 20
266.1212716535433
 30
0.0
 10
-799.1292952755906
 20
266.1212716535433
 30
0.0
 10
-799.1292952755906
 20
266.1212716535433
 30
0.0
 10
-798.8671968503937
 20
266.1186496062992
 30
0.0
 10
-798.8671968503937
 20
266.1186496062992
 30
0.0
 10
-798.8671968503937
 20
266.1186496062992
 30
0.0
 10
-798.8671968503937
 20
266.1186496062992
 30
0.0
 10
-798.7886968503936
 20
266.3687283464567
 30
0.0
 10
-798.7886968503936
 20
266.3687283464567
 30
0.0
 10
-798.7886968503936
 20
266.3687283464567
 30
0.0
 10
-798.7886968503936
 20
266.3687283464567
 30
0.0
 10
-798.7101968503937
 20
266.1186496062992
 30
0.0
 10
-798.7101968503937
 20
266.1186496062992
 30
0.0
 10
-798.7101968503937
 20
266.1186496062992
 30
0.0
 10
-798.7101968503937
 20
266.1186496062992
 30
0.0
 10
-798.4480984251968
 20
266.1212716535433
 30
0.0
 10
-798.4480984251968
 20
266.1212716535433
 30
0.0
 10
-798.4480984251968
 20
266.1212716535433
 30
0.0
 10
-798.4480984251968
 20
266.1212716535433
 30
0.0
 10
-798.6616811023622
 20
265.9693346456693
 30
0.0
 10
-798.6616811023622
 20
265.9693346456693
 30
0.0
 10
-798.6616811023622
 20
265.9693346456693
 30
0.0
 10
-798.6616811023622
 20
265.9693346456693
 30
0.0
 10
-798.578188976378
 20
265.7208779527559
 30
0.0
 10
-798.578188976378
 20
265.7208779527559
 30
0.0
 10
-798.578188976378
 20
265.7208779527559
 30
0.0
 10
-798.578188976378
 20
265.7208779527559
 30
0.0
 10
-798.7886968503936
 20
265.8770551181103
 30
0.0
 10
-798.7886968503936
 20
265.8770551181103
 30
0.0
 10
-798.7886968503936
 20
265.8770551181103
 30
0.0
 10
-798.7886968503936
 20
265.8770551181103
 30
0.0
 10
-798.7886968503936
 20
265.8770551181103
 30
0.0
 10
-798.7886968503936
 20
265.8770551181103
 30
0.0
  0
SPLINE
  5
99
330
1F
100
AcDbEntity
  8
Layer 1
 62
     1
370
     9
100
AcDbSpline
210
0.0
220
0.0
230
1.0
 70
    11
 71
     3
 72
    48
 73
    44
 74
     0
 42
0.000000001
 43
0.0000000001
 40
0.0
 40
0.0
 40
0.0
 40
0.0
 40
0.0833333333333333
 40
0.0833333333333333
 40
0.0833333333333333
 40
0.0833333333333333
 40
0.1666666666666667
 40
0.1666666666666667
 40
0.1666666666666667
 40
0.1666666666666667
 40
0.25
 40
0.25
 40
0.25
 40
0.25
 40
0.3333333333333333
 40
0.3333333333333333
 40
0.3333333333333333
 40
0.3333333333333333
 40
0.4166666666666667
 40
0.4166666666666667
 40
0.4166666666666667
 40
0.4166666666666667
 40
0.5
 40
0.5
 40
0.5
 40
0.5
 40
0.5833333333333334
 40
0.5833333333333334
 40
0.5833333333333334
 40
0.5833333333333334
 40
0.6666666666666666
 40
0.6666666666666666
 40
0.6666666666666666
 40
0.6666666666666666
 40
0.75
 40
0.75
 40
0.75
 40
0.75
 40
0.8333333333333334
 40
0.8333333333333334
 40
0.8333333333333334
 40
0.8333333333333334
 40
1.0
 40
1.0
 40
1.0
 40
1.0
 10
-800.9312992125984
 20
266.477968503937
 30
0.0
 10
-800.9312992125984
 20
266.477968503937
 30
0.0
 10
-801.1417952755905
 20
266.3217874015748
 30
0.0
 10
-801.1417952755905
 20
266.3217874015748
 30
0.0
 10
-801.1417952755905
 20
266.3217874015748
 30
0.0
 10
-801.1417952755905
 20
266.3217874015748
 30
0.0
 10
-801.0583110236221
 20
266.5702480314961
 30
0.0
 10
-801.0583110236221
 20
266.5702480314961
 30
0.0
 10
-801.0583110236221
 20
266.5702480314961
 30
0.0
 10
-801.0583110236221
 20
266.5702480314961
 30
0.0
 10
-801.2718976377953
 20
266.7221850393701
 30
0.0
 10
-801.2718976377953
 20
266.7221850393701
 30
0.0
 10
-801.2718976377953
 20
266.7221850393701
 30
0.0
 10
-801.2718976377953
 20
266.7221850393701
 30
0.0
 10
-801.0097913385827
 20
266.719562992126
 30
0.0
 10
-801.0097913385827
 20
266.719562992126
 30
0.0
 10
-801.0097913385827
 20
266.719562992126
 30
0.0
 10
-801.0097913385827
 20
266.719562992126
 30
0.0
 10
-800.9312992125984
 20
266.9696417322835
 30
0.0
 10
-800.9312992125984
 20
266.9696417322835
 30
0.0
 10
-800.9312992125984
 20
266.9696417322835
 30
0.0
 10
-800.9312992125984
 20
266.9696417322835
 30
0.0
 10
-800.8527992125984
 20
266.719562992126
 30
0.0
 10
-800.8527992125984
 20
266.719562992126
 30
0.0
 10
-800.8527992125984
 20
266.719562992126
 30
0.0
 10
-800.8527992125984
 20
266.719562992126
 30
0.0
 10
-800.5907047244094
 20
266.7221850393701
 30
0.0
 10
-800.5907047244094
 20
266.7221850393701
 30
0.0
 10
-800.5907047244094
 20
266.7221850393701
 30
0.0
 10
-800.5907047244094
 20
266.7221850393701
 30
0.0
 10
-800.8042874015748
 20
266.5702480314961
 30
0.0
 10
-800.8042874015748
 20
266.5702480314961
 30
0.0
 10
-800.8042874015748
 20
266.5702480314961
 30
0.0
 10
-800.8042874015748
 20
266.5702480314961
 30
0.0
 10
-800.7207952755906
 20
266.3217874015748
 30
0.0
 10
-800.7207952755906
 20
266.3217874015748
 30
0.0
 10
-800.7207952755906
 20
266.3217874015748
 30
0.0
 10
-800.7207952755906
 20
266.3217874015748
 30
0.0
 10
-800.9312992125984
 20
266.477968503937
 30
0.0
 10
-800.9312992125984
 20
266.477968503937
 30
0.0
 10
-800.9312992125984
 20
266.477968503937
 30
0.0
 10
-800.9312992125984
 20
266.477968503937
 30
0.0
 10
-800.9312992125984
 20
266.477968503937
 30
0.0
 10
-800.9312992125984
 20
266.477968503937
 30
0.0
  0
SPLINE
  5
9A
330
1F
100
AcDbEntity
  8
Layer 1
 62
     1
370
     9
100
AcDbSpline
210
0.0
220
0.0
230
1.0
 70
    11
 71
     3
 72
    48
 73
    44
 74
     0
 42
0.000000001
 43
0.0000000001
 40
0.0
 40
0.0
 40
0.0
 40
0.0
 40
0.0833333333333333
 40
0.0833333333333333
 40
0.0833333333333333
 40
0.0833333333333333
 40
0.1666666666666667
 40
0.1666666666666667
 40
0.1666666666666667
 40
0.1666666666666667
 40
0.25
 40
0.25
 40
0.25
 40
0.25
 40
0.3333333333333333
 40
0.3333333333333333
 40
0.3333333333333333
 40
0.3333333333333333
 40
0.4166666666666667
 40
0.4166666666666667
 40
0.4166666666666667
 40
0.4166666666666667
 40
0.5
 40
0.5
 40
0.5
 40
0.5
 40
0.5833333333333334
 40
0.5833333333333334
 40
0.5833333333333334
 40
0.5833333333333334
 40
0.6666666666666666
 40
0.6666666666666666
 40
0.6666666666666666
 40
0.6666666666666666
 40
0.75
 40
0.75
 40
0.75
 40
0.75
 40
0.8333333333333334
 40
0.8333333333333334
 40
0.8333333333333334
 40
0.8333333333333334
 40
1.0
 40
1.0
 40
1.0
 40
1.0
 10
-805.2115708661418
 20
266.477968503937
 30
0.0
 10
-805.2115708661418
 20
266.477968503937
 30
0.0
 10
-805.4220787401575
 20
266.3217874015748
 30
0.0
 10
-805.4220787401575
 20
266.3217874015748
 30
0.0
 10
-805.4220787401575
 20
266.3217874015748
 30
0.0
 10
-805.4220787401575
 20
266.3217874015748
 30
0.0
 10
-805.3385866141732
 20
266.5702480314961
 30
0.0
 10
-805.3385866141732
 20
266.5702480314961
 30
0.0
 10
-805.3385866141732
 20
266.5702480314961
 30
0.0
 10
-805.3385866141732
 20
266.5702480314961
 30
0.0
 10
-805.5521692913386
 20
266.7221850393701
 30
0.0
 10
-805.5521692913386
 20
266.7221850393701
 30
0.0
 10
-805.5521692913386
 20
266.7221850393701
 30
0.0
 10
-805.5521692913386
 20
266.7221850393701
 30
0.0
 10
-805.2900708661417
 20
266.719562992126
 30
0.0
 10
-805.2900708661417
 20
266.719562992126
 30
0.0
 10
-805.2900708661417
 20
266.719562992126
 30
0.0
 10
-805.2900708661417
 20
266.719562992126
 30
0.0
 10
-805.2115708661418
 20
266.9696417322835
 30
0.0
 10
-805.2115708661418
 20
266.9696417322835
 30
0.0
 10
-805.2115708661418
 20
266.9696417322835
 30
0.0
 10
-805.2115708661418
 20
266.9696417322835
 30
0.0
 10
-805.1330787401574
 20
266.719562992126
 30
0.0
 10
-805.1330787401574
 20
266.719562992126
 30
0.0
 10
-805.1330787401574
 20
266.719562992126
 30
0.0
 10
-805.1330787401574
 20
266.719562992126
 30
0.0
 10
-804.8709724409449
 20
266.7221850393701
 30
0.0
 10
-804.8709724409449
 20
266.7221850393701
 30
0.0
 10
-804.8709724409449
 20
266.7221850393701
 30
0.0
 10
-804.8709724409449
 20
266.7221850393701
 30
0.0
 10
-805.0845590551181
 20
266.5702480314961
 30
0.0
 10
-805.0845590551181
 20
266.5702480314961
 30
0.0
 10
-805.0845590551181
 20
266.5702480314961
 30
0.0
 10
-805.0845590551181
 20
266.5702480314961
 30
0.0
 10
-805.0010748031495
 20
266.3217874015748
 30
0.0
 10
-805.0010748031495
 20
266.3217874015748
 30
0.0
 10
-805.0010748031495
 20
266.3217874015748
 30
0.0
 10
-805.0010748031495
 20
266.3217874015748
 30
0.0
 10
-805.2115708661418
 20
266.477968503937
 30
0.0
 10
-805.2115708661418
 20
266.477968503937
 30
0.0
 10
-805.2115708661418
 20
266.477968503937
 30
0.0
 10
-805.2115708661418
 20
266.477968503937
 30
0.0
 10
-805.2115708661418
 20
266.477968503937
 30
0.0
 10
-805.2115708661418
 20
266.477968503937
 30
0.0
  0
SPLINE
  5
9B
330
1F
100
AcDbEntity
  8
Layer 1
 62
     1
370
     9
100
AcDbSpline
210
0.0
220
0.0
230
1.0
 70
    11
 71
     3
 72
    48
 73
    44
 74
     0
 42
0.000000001
 43
0.0000000001
 40
0.0
 40
0.0
 40
0.0
 40
0.0
 40
0.0833333333333333
 40
0.0833333333333333
 40
0.0833333333333333
 40
0.0833333333333333
 40
0.1666666666666667
 40
0.1666666666666667
 40
0.1666666666666667
 40
0.1666666666666667
 40
0.25
 40
0.25
 40
0.25
 40
0.25
 40
0.3333333333333333
 40
0.3333333333333333
 40
0.3333333333333333
 40
0.3333333333333333
 40
0.4166666666666667
 40
0.4166666666666667
 40
0.4166666666666667
 40
0.4166666666666667
 40
0.5
 40
0.5
 40
0.5
 40
0.5
 40
0.5833333333333334
 40
0.5833333333333334
 40
0.5833333333333334
 40
0.5833333333333334
 40
0.6666666666666666
 40
0.6666666666666666
 40
0.6666666666666666
 40
0.6666666666666666
 40
0.75
 40
0.75
 40
0.75
 40
0.75
 40
0.8333333333333334
 40
0.8333333333333334
 40
0.8333333333333334
 40
0.8333333333333334
 40
1.0
 40
1.0
 40
1.0
 40
1.0
 10
-803.7807086614173
 20
266.477968503937
 30
0.0
 10
-803.7807086614173
 20
266.477968503937
 30
0.0
 10
-803.9912165354331
 20
266.3217874015748
 30
0.0
 10
-803.9912165354331
 20
266.3217874015748
 30
0.0
 10
-803.9912165354331
 20
266.3217874015748
 30
0.0
 10
-803.9912165354331
 20
266.3217874015748
 30
0.0
 10
-803.9077244094489
 20
266.5702480314961
 30
0.0
 10
-803.9077244094489
 20
266.5702480314961
 30
0.0
 10
-803.9077244094489
 20
266.5702480314961
 30
0.0
 10
-803.9077244094489
 20
266.5702480314961
 30
0.0
 10
-804.1213070866141
 20
266.7221850393701
 30
0.0
 10
-804.1213070866141
 20
266.7221850393701
 30
0.0
 10
-804.1213070866141
 20
266.7221850393701
 30
0.0
 10
-804.1213070866141
 20
266.7221850393701
 30
0.0
 10
-803.8592086614174
 20
266.719562992126
 30
0.0
 10
-803.8592086614174
 20
266.719562992126
 30
0.0
 10
-803.8592086614174
 20
266.719562992126
 30
0.0
 10
-803.8592086614174
 20
266.719562992126
 30
0.0
 10
-803.7807086614173
 20
266.9696417322835
 30
0.0
 10
-803.7807086614173
 20
266.9696417322835
 30
0.0
 10
-803.7807086614173
 20
266.9696417322835
 30
0.0
 10
-803.7807086614173
 20
266.9696417322835
 30
0.0
 10
-803.7022165354331
 20
266.719562992126
 30
0.0
 10
-803.7022165354331
 20
266.719562992126
 30
0.0
 10
-803.7022165354331
 20
266.719562992126
 30
0.0
 10
-803.7022165354331
 20
266.719562992126
 30
0.0
 10
-803.4401102362204
 20
266.7221850393701
 30
0.0
 10
-803.4401102362204
 20
266.7221850393701
 30
0.0
 10
-803.4401102362204
 20
266.7221850393701
 30
0.0
 10
-803.4401102362204
 20
266.7221850393701
 30
0.0
 10
-803.6536929133858
 20
266.5702480314961
 30
0.0
 10
-803.6536929133858
 20
266.5702480314961
 30
0.0
 10
-803.6536929133858
 20
266.5702480314961
 30
0.0
 10
-803.6536929133858
 20
266.5702480314961
 30
0.0
 10
-803.5702125984252
 20
266.3217874015748
 30
0.0
 10
-803.5702125984252
 20
266.3217874015748
 30
0.0
 10
-803.5702125984252
 20
266.3217874015748
 30
0.0
 10
-803.5702125984252
 20
266.3217874015748
 30
0.0
 10
-803.7807086614173
 20
266.477968503937
 30
0.0
 10
-803.7807086614173
 20
266.477968503937
 30
0.0
 10
-803.7807086614173
 20
266.477968503937
 30
0.0
 10
-803.7807086614173
 20
266.477968503937
 30
0.0
 10
-803.7807086614173
 20
266.477968503937
 30
0.0
 10
-803.7807086614173
 20
266.477968503937
 30
0.0
  0
SPLINE
  5
9C
330
1F
100
AcDbEntity
  8
Layer 1
 62
     1
370
     9
100
AcDbSpline
210
0.0
220
0.0
230
1.0
 70
    11
 71
     3
 72
    48
 73
    44
 74
     0
 42
0.000000001
 43
0.0000000001
 40
0.0
 40
0.0
 40
0.0
 40
0.0
 40
0.0833333333333333
 40
0.0833333333333333
 40
0.0833333333333333
 40
0.0833333333333333
 40
0.1666666666666667
 40
0.1666666666666667
 40
0.1666666666666667
 40
0.1666666666666667
 40
0.25
 40
0.25
 40
0.25
 40
0.25
 40
0.3333333333333333
 40
0.3333333333333333
 40
0.3333333333333333
 40
0.3333333333333333
 40
0.4166666666666667
 40
0.4166666666666667
 40
0.4166666666666667
 40
0.4166666666666667
 40
0.5
 40
0.5
 40
0.5
 40
0.5
 40
0.5833333333333334
 40
0.5833333333333334
 40
0.5833333333333334
 40
0.5833333333333334
 40
0.6666666666666666
 40
0.6666666666666666
 40
0.6666666666666666
 40
0.6666666666666666
 40
0.75
 40
0.75
 40
0.75
 40
0.75
 40
0.8333333333333334
 40
0.8333333333333334
 40
0.8333333333333334
 40
0.8333333333333334
 40
1.0
 40
1.0
 40
1.0
 40
1.0
 10
-802.3621614173228
 20
266.477968503937
 30
0.0
 10
-802.3621614173228
 20
266.477968503937
 30
0.0
 10
-802.572657480315
 20
266.3217874015748
 30
0.0
 10
-802.572657480315
 20
266.3217874015748
 30
0.0
 10
-802.572657480315
 20
266.3217874015748
 30
0.0
 10
-802.572657480315
 20
266.3217874015748
 30
0.0
 10
-802.4891732283464
 20
266.5702480314961
 30
0.0
 10
-802.4891732283464
 20
266.5702480314961
 30
0.0
 10
-802.4891732283464
 20
266.5702480314961
 30
0.0
 10
-802.4891732283464
 20
266.5702480314961
 30
0.0
 10
-802.7027598425196
 20
266.7221850393701
 30
0.0
 10
-802.7027598425196
 20
266.7221850393701
 30
0.0
 10
-802.7027598425196
 20
266.7221850393701
 30
0.0
 10
-802.7027598425196
 20
266.7221850393701
 30
0.0
 10
-802.4406535433071
 20
266.719562992126
 30
0.0
 10
-802.4406535433071
 20
266.719562992126
 30
0.0
 10
-802.4406535433071
 20
266.719562992126
 30
0.0
 10
-802.4406535433071
 20
266.719562992126
 30
0.0
 10
-802.3621614173228
 20
266.9696417322835
 30
0.0
 10
-802.3621614173228
 20
266.9696417322835
 30
0.0
 10
-802.3621614173228
 20
266.9696417322835
 30
0.0
 10
-802.3621614173228
 20
266.9696417322835
 30
0.0
 10
-802.2836653543308
 20
266.719562992126
 30
0.0
 10
-802.2836653543308
 20
266.719562992126
 30
0.0
 10
-802.2836653543308
 20
266.719562992126
 30
0.0
 10
-802.2836653543308
 20
266.719562992126
 30
0.0
 10
-802.0215669291339
 20
266.7221850393701
 30
0.0
 10
-802.0215669291339
 20
266.7221850393701
 30
0.0
 10
-802.0215669291339
 20
266.7221850393701
 30
0.0
 10
-802.0215669291339
 20
266.7221850393701
 30
0.0
 10
-802.2351496062992
 20
266.5702480314961
 30
0.0
 10
-802.2351496062992
 20
266.5702480314961
 30
0.0
 10
-802.2351496062992
 20
266.5702480314961
 30
0.0
 10
-802.2351496062992
 20
266.5702480314961
 30
0.0
 10
-802.151657480315
 20
266.3217874015748
 30
0.0
 10
-802.151657480315
 20
266.3217874015748
 30
0.0
 10
-802.151657480315
 20
266.3217874015748
 30
0.0
 10
-802.151657480315
 20
266.3217874015748
 30
0.0
 10
-802.3621614173228
 20
266.477968503937
 30
0.0
 10
-802.3621614173228
 20
266.477968503937
 30
0.0
 10
-802.3621614173228
 20
266.477968503937
 30
0.0
 10
-802.3621614173228
 20
266.477968503937
 30
0.0
 10
-802.3621614173228
 20
266.477968503937
 30
0.0
 10
-802.3621614173228
 20
266.477968503937
 30
0.0
  0
SPLINE
  5
9D
330
1F
100
AcDbEntity
  8
Layer 1
 62
     1
370
     9
100
AcDbSpline
210
0.0
220
0.0
230
1.0
 70
    11
 71
     3
 72
    48
 73
    44
 74
     0
 42
0.000000001
 43
0.0000000001
 40
0.0
 40
0.0
 40
0.0
 40
0.0
 40
0.0833333333333333
 40
0.0833333333333333
 40
0.0833333333333333
 40
0.0833333333333333
 40
0.1666666666666667
 40
0.1666666666666667
 40
0.1666666666666667
 40
0.1666666666666667
 40
0.25
 40
0.25
 40
0.25
 40
0.25
 40
0.3333333333333333
 40
0.3333333333333333
 40
0.3333333333333333
 40
0.3333333333333333
 40
0.4166666666666667
 40
0.4166666666666667
 40
0.4166666666666667
 40
0.4166666666666667
 40
0.5
 40
0.5
 40
0.5
 40
0.5
 40
0.5833333333333334
 40
0.5833333333333334
 40
0.5833333333333334
 40
0.5833333333333334
 40
0.6666666666666666
 40
0.6666666666666666
 40
0.6666666666666666
 40
0.6666666666666666
 40
0.75
 40
0.75
 40
0.75
 40
0.75
 40
0.8333333333333334
 40
0.8333333333333334
 40
0.8333333333333334
 40
0.8333333333333334
 40
1.0
 40
1.0
 40
1.0
 40
1.0
 10
-799.500437007874
 20
266.477968503937
 30
0.0
 10
-799.500437007874
 20
266.477968503937
 30
0.0
 10
-799.7109330708662
 20
266.3217874015748
 30
0.0
 10
-799.7109330708662
 20
266.3217874015748
 30
0.0
 10
-799.7109330708662
 20
266.3217874015748
 30
0.0
 10
-799.7109330708662
 20
266.3217874015748
 30
0.0
 10
-799.6274409448819
 20
266.5702480314961
 30
0.0
 10
-799.6274409448819
 20
266.5702480314961
 30
0.0
 10
-799.6274409448819
 20
266.5702480314961
 30
0.0
 10
-799.6274409448819
 20
266.5702480314961
 30
0.0
 10
-799.841031496063
 20
266.7221850393701
 30
0.0
 10
-799.841031496063
 20
266.7221850393701
 30
0.0
 10
-799.841031496063
 20
266.7221850393701
 30
0.0
 10
-799.841031496063
 20
266.7221850393701
 30
0.0
 10
-799.5789291338583
 20
266.719562992126
 30
0.0
 10
-799.5789291338583
 20
266.719562992126
 30
0.0
 10
-799.5789291338583
 20
266.719562992126
 30
0.0
 10
-799.5789291338583
 20
266.719562992126
 30
0.0
 10
-799.500437007874
 20
266.9696417322835
 30
0.0
 10
-799.500437007874
 20
266.9696417322835
 30
0.0
 10
-799.500437007874
 20
266.9696417322835
 30
0.0
 10
-799.500437007874
 20
266.9696417322835
 30
0.0
 10
-799.4219330708661
 20
266.719562992126
 30
0.0
 10
-799.4219330708661
 20
266.719562992126
 30
0.0
 10
-799.4219330708661
 20
266.719562992126
 30
0.0
 10
-799.4219330708661
 20
266.719562992126
 30
0.0
 10
-799.1598385826771
 20
266.7221850393701
 30
0.0
 10
-799.1598385826771
 20
266.7221850393701
 30
0.0
 10
-799.1598385826771
 20
266.7221850393701
 30
0.0
 10
-799.1598385826771
 20
266.7221850393701
 30
0.0
 10
-799.3734251968503
 20
266.5702480314961
 30
0.0
 10
-799.3734251968503
 20
266.5702480314961
 30
0.0
 10
-799.3734251968503
 20
266.5702480314961
 30
0.0
 10
-799.3734251968503
 20
266.5702480314961
 30
0.0
 10
-799.2899330708661
 20
266.3217874015748
 30
0.0
 10
-799.2899330708661
 20
266.3217874015748
 30
0.0
 10
-799.2899330708661
 20
266.3217874015748
 30
0.0
 10
-799.2899330708661
 20
266.3217874015748
 30
0.0
 10
-799.500437007874
 20
266.477968503937
 30
0.0
 10
-799.500437007874
 20
266.477968503937
 30
0.0
 10
-799.500437007874
 20
266.477968503937
 30
0.0
 10
-799.500437007874
 20
266.477968503937
 30
0.0
 10
-799.500437007874
 20
266.477968503937
 30
0.0
 10
-799.500437007874
 20
266.477968503937
 30
0.0
  0
SPLINE
  5
9E
330
1F
100
AcDbEntity
  8
Layer 1
 62
     1
370
     9
100
AcDbSpline
210
0.0
220
0.0
230
1.0
 70
    11
 71
     3
 72
    24
 73
    20
 74
     0
 42
0.000000001
 43
0.0000000001
 40
0.0
 40
0.0
 40
0.0
 40
0.0
 40
0.1666666666666667
 40
0.1666666666666667
 40
0.1666666666666667
 40
0.1666666666666667
 40
0.3333333333333333
 40
0.3333333333333333
 40
0.3333333333333333
 40
0.3333333333333333
 40
0.5
 40
0.5
 40
0.5
 40
0.5
 40
0.6666666666666666
 40
0.6666666666666666
 40
0.6666666666666666
 40
0.6666666666666666
 40
1.0
 40
1.0
 40
1.0
 40
1.0
 10
-785.2656456692913
 20
270.6409291338583
 30
0.0
 10
-785.2656456692913
 20
270.6409291338583
 30
0.0
 10
-798.0642755905512
 20
270.6409291338583
 30
0.0
 10
-798.0642755905512
 20
270.6409291338583
 30
0.0
 10
-798.0642755905512
 20
270.6409291338583
 30
0.0
 10
-798.0642755905512
 20
270.6409291338583
 30
0.0
 10
-798.0783622047244
 20
269.7677322834646
 30
0.0
 10
-798.0783622047244
 20
269.7677322834646
 30
0.0
 10
-798.0783622047244
 20
269.7677322834646
 30
0.0
 10
-798.0783622047244
 20
269.7677322834646
 30
0.0
 10
-785.2656456692913
 20
269.7677322834646
 30
0.0
 10
-785.2656456692913
 20
269.7677322834646
 30
0.0
 10
-785.2656456692913
 20
269.7677322834646
 30
0.0
 10
-785.2656456692913
 20
269.7677322834646
 30
0.0
 10
-785.2656456692913
 20
270.6409291338583
 30
0.0
 10
-785.2656456692913
 20
270.6409291338583
 30
0.0
 10
-785.2656456692913
 20
270.6409291338583
 30
0.0
 10
-785.2656456692913
 20
270.6409291338583
 30
0.0
 10
-785.2656456692913
 20
270.6409291338583
 30
0.0
 10
-785.2656456692913
 20
270.6409291338583
 30
0.0
  0
SPLINE
  5
9F
330
1F
100
AcDbEntity
  8
Layer 1
 62
     1
370
     9
100
AcDbSpline
210
0.0
220
0.0
230
1.0
 70
    11
 71
     3
 72
    24
 73
    20
 74
     0
 42
0.000000001
 43
0.0000000001
 40
0.0
 40
0.0
 40
0.0
 40
0.0
 40
0.1666666666666667
 40
0.1666666666666667
 40
0.1666666666666667
 40
0.1666666666666667
 40
0.3333333333333333
 40
0.3333333333333333
 40
0.3333333333333333
 40
0.3333333333333333
 40
0.5
 40
0.5
 40
0.5
 40
0.5
 40
0.6666666666666666
 40
0.6666666666666666
 40
0.6666666666666666
 40
0.6666666666666666
 40
1.0
 40
1.0
 40
1.0
 40
1.0
 10
-785.2656456692913
 20
268.8945275590551
 30
0.0
 10
-785.2656456692913
 20
268.8945275590551
 30
0.0
 10
-798.0642755905512
 20
268.8945275590551
 30
0.0
 10
-798.0642755905512
 20
268.8945275590551
 30
0.0
 10
-798.0642755905512
 20
268.8945275590551
 30
0.0
 10
-798.0642755905512
 20
268.8945275590551
 30
0.0
 10
-798.0783622047244
 20
268.0354173228346
 30
0.0
 10
-798.0783622047244
 20
268.0354173228346
 30
0.0
 10
-798.0783622047244
 20
268.0354173228346
 30
0.0
 10
-798.0783622047244
 20
268.0354173228346
 30
0.0
 10
-785.2656456692913
 20
268.0354173228346
 30
0.0
 10
-785.2656456692913
 20
268.0354173228346
 30
0.0
 10
-785.2656456692913
 20
268.0354173228346
 30
0.0
 10
-785.2656456692913
 20
268.0354173228346
 30
0.0
 10
-785.2656456692913
 20
268.8945275590551
 30
0.0
 10
-785.2656456692913
 20
268.8945275590551
 30
0.0
 10
-785.2656456692913
 20
268.8945275590551
 30
0.0
 10
-785.2656456692913
 20
268.8945275590551
 30
0.0
 10
-785.2656456692913
 20
268.8945275590551
 30
0.0
 10
-785.2656456692913
 20
268.8945275590551
 30
0.0
  0
SPLINE
  5
A0
330
1F
100
AcDbEntity
  8
Layer 1
 62
     1
370
     9
100
AcDbSpline
210
0.0
220
0.0
230
1.0
 70
    11
 71
     3
 72
    24
 73
    20
 74
     0
 42
0.000000001
 43
0.0000000001
 40
0.0
 40
0.0
 40
0.0
 40
0.0
 40
0.1666666666666667
 40
0.1666666666666667
 40
0.1666666666666667
 40
0.1666666666666667
 40
0.3333333333333333
 40
0.3333333333333333
 40
0.3333333333333333
 40
0.3333333333333333
 40
0.5
 40
0.5
 40
0.5
 40
0.5
 40
0.6666666666666666
 40
0.6666666666666666
 40
0.6666666666666666
 40
0.6666666666666666
 40
1.0
 40
1.0
 40
1.0
 40
1.0
 10
-785.2656456692913
 20
266.2890551181102
 30
0.0
 10
-785.2656456692913
 20
266.2890551181102
 30
0.0
 10
-798.0783622047244
 20
266.3031023622047
 30
0.0
 10
-798.0783622047244
 20
266.3031023622047
 30
0.0
 10
-798.0783622047244
 20
266.3031023622047
 30
0.0
 10
-798.0783622047244
 20
266.3031023622047
 30
0.0
 10
-798.0783622047244
 20
267.1622165354331
 30
0.0
 10
-798.0783622047244
 20
267.1622165354331
 30
0.0
 10
-798.0783622047244
 20
267.1622165354331
 30
0.0
 10
-798.0783622047244
 20
267.1622165354331
 30
0.0
 10
-785.2656456692913
 20
267.1622165354331
 30
0.0
 10
-785.2656456692913
 20
267.1622165354331
 30
0.0
 10
-785.2656456692913
 20
267.1622165354331
 30
0.0
 10
-785.2656456692913
 20
267.1622165354331
 30
0.0
 10
-785.2656456692913
 20
266.2890551181102
 30
0.0
 10
-785.2656456692913
 20
266.2890551181102
 30
0.0
 10
-785.2656456692913
 20
266.2890551181102
 30
0.0
 10
-785.2656456692913
 20
266.2890551181102
 30
0.0
 10
-785.2656456692913
 20
266.2890551181102
 30
0.0
 10
-785.2656456692913
 20
266.2890551181102
 30
0.0
  0
SPLINE
  5
A1
330
1F
100
AcDbEntity
  8
Layer 1
 62
     1
370
     9
100
AcDbSpline
210
0.0
220
0.0
230
1.0
 70
    11
 71
     3
 72
    52
 73
    48
 74
     0
 42
0.000000001
 43
0.0000000001
 40
0.0
 40
0.0
 40
0.0
 40
0.0
 40
0.0769230769230769
 40
0.0769230769230769
 40
0.0769230769230769
 40
0.0769230769230769
 40
0.1538461538461539
 40
0.1538461538461539
 40
0.1538461538461539
 40
0.1538461538461539
 40
0.2307692307692308
 40
0.2307692307692308
 40
0.2307692307692308
 40
0.2307692307692308
 40
0.3076923076923077
 40
0.3076923076923077
 40
0.3076923076923077
 40
0.3076923076923077
 40
0.3846153846153846
 40
0.3846153846153846
 40
0.3846153846153846
 40
0.3846153846153846
 40
0.4615384615384616
 40
0.4615384615384616
 40
0.4615384615384616
 40
0.4615384615384616
 40
0.5384615384615384
 40
0.5384615384615384
 40
0.5384615384615384
 40
0.5384615384615384
 40
0.6153846153846154
 40
0.6153846153846154
 40
0.6153846153846154
 40
0.6153846153846154
 40
0.6923076923076923
 40
0.6923076923076923
 40
0.6923076923076923
 40
0.6923076923076923
 40
0.7692307692307693
 40
0.7692307692307693
 40
0.7692307692307693
 40
0.7692307692307693
 40
0.8461538461538461
 40
0.8461538461538461
 40
0.8461538461538461
 40
0.8461538461538461
 40
1.0
 40
1.0
 40
1.0
 40
1.0
 10
-785.0
 20
259.483
 30
0.0
 10
-785.0
 20
259.483
 30
0.0
 10
-807.0
 20
259.483
 30
0.0
 10
-807.0
 20
259.483
 30
0.0
 10
-807.0
 20
259.483
 30
0.0
 10
-807.0
 20
259.483
 30
0.0
 10
-807.0
 20
260.233
 30
0.0
 10
-807.0
 20
260.233
 30
0.0
 10
-807.0
 20
260.233
 30
0.0
 10
-807.0
 20
260.233
 30
0.0
 10
-807.75
 20
260.233
 30
0.0
 10
-807.75
 20
260.233
 30
0.0
 10
-807.75
 20
260.233
 30
0.0
 10
-807.75
 20
260.233
 30
0.0
 10
-807.75
 20
271.5
 30
0.0
 10
-807.75
 20
271.5
 30
0.0
 10
-807.75
 20
271.5
 30
0.0
 10
-807.75
 20
271.5
 30
0.0
 10
-807.0
 20
271.5
 30
0.0
 10
-807.0
 20
271.5
 30
0.0
 10
-807.0
 20
271.5
 30
0.0
 10
-807.0
 20
271.5
 30
0.0
 10
-807.0
 20
272.25
 30
0.0
 10
-807.0
 20
272.25
 30
0.0
 10
-807.0
 20
272.25
 30
0.0
 10
-807.0
 20
272.25
 30
0.0
 10
-785.0
 20
272.25
 30
0.0
 10
-785.0
 20
272.25
 30
0.0
 10
-785.0
 20
272.25
 30
0.0
 10
-785.0
 20
272.25
 30
0.0
 10
-785.0
 20
271.5
 30
0.0
 10
-785.0
 20
271.5
 30
0.0
 10
-785.0
 20
271.5
 30
0.0
 10
-785.0
 20
271.5
 30
0.0
 10
-784.25
 20
271.5
 30
0.0
 10
-784.25
 20
271.5
 30
0.0
 10
-784.25
 20
271.5
 30
0.0
 10
-784.25
 20
271.5
 30
0.0
 10
-784.25
 20
260.233
 30
0.0
 10
-784.25
 20
260.233
 30
0.0
 10
-784.25
 20
260.233
 30
0.0
 10
-784.25
 20
260.233
 30
0.0
 10
-785.0
 20
260.233
 30
0.0
 10
-785.0
 20
260.233
 30
0.0
 10
-785.0
 20
260.233
 30
0.0
 10
-785.0
 20
260.233
 30
0.0
 10
-785.0
 20
259.483
 30
0.0
 10
-785.0
 20
259.483
 30
0.0
  0
SPLINE
  5
A2
330
1F
100
AcDbEntity
  8
Layer 1
 62
     1
370
     9
100
AcDbSpline
210
0.0
220
0.0
230
1.0
 70
    11
 71
     3
 72
    24
 73
    20
 74
     0
 42
0.000000001
 43
0.0000000001
 40
0.0
 40
0.0
 40
0.0
 40
0.0
 40
0.1666666666666667
 40
0.1666666666666667
 40
0.1666666666666667
 40
0.1666666666666667
 40
0.3333333333333333
 40
0.3333333333333333
 40
0.3333333333333333
 40
0.3333333333333333
 40
0.5
 40
0.5
 40
0.5
 40
0.5
 40
0.6666666666666666
 40
0.6666666666666666
 40
0.6666666666666666
 40
0.6666666666666666
 40
1.0
 40
1.0
 40
1.0
 40
1.0
 10
-806.6227047244095
 20
261.0920708661417
 30
0.0
 10
-806.6227047244095
 20
261.0920708661417
 30
0.0
 10
-785.2656456692913
 20
261.0920708661417
 30
0.0
 10
-785.2656456692913
 20
261.0920708661417
 30
0.0
 10
-785.2656456692913
 20
261.0920708661417
 30
0.0
 10
-785.2656456692913
 20
261.0920708661417
 30
0.0
 10
-785.2656456692913
 20
261.9652677165354
 30
0.0
 10
-785.2656456692913
 20
261.9652677165354
 30
0.0
 10
-785.2656456692913
 20
261.9652677165354
 30
0.0
 10
-785.2656456692913
 20
261.9652677165354
 30
0.0
 10
-806.6227047244095
 20
261.9652677165354
 30
0.0
 10
-806.6227047244095
 20
261.9652677165354
 30
0.0
 10
-806.6227047244095
 20
261.9652677165354
 30
0.0
 10
-806.6227047244095
 20
261.9652677165354
 30
0.0
 10
-806.6227047244095
 20
261.0920708661417
 30
0.0
 10
-806.6227047244095
 20
261.0920708661417
 30
0.0
 10
-806.6227047244095
 20
261.0920708661417
 30
0.0
 10
-806.6227047244095
 20
261.0920708661417
 30
0.0
 10
-806.6227047244095
 20
261.0920708661417
 30
0.0
 10
-806.6227047244095
 20
261.0920708661417
 30
0.0
  0
SPLINE
  5
A3
330
1F
100
AcDbEntity
  8
Layer 1
 62
     1
370
     9
100
AcDbSpline
210
0.0
220
0.0
230
1.0
 70
    11
 71
     3
 72
    24
 73
    20
 74
     0
 42
0.000000001
 43
0.0000000001
 40
0.0
 40
0.0
 40
0.0
 40
0.0
 40
0.1666666666666667
 40
0.1666666666666667
 40
0.1666666666666667
 40
0.1666666666666667
 40
0.3333333333333333
 40
0.3333333333333333
 40
0.3333333333333333
 40
0.3333333333333333
 40
0.5
 40
0.5
 40
0.5
 40
0.5
 40
0.6666666666666666
 40
0.6666666666666666
 40
0.6666666666666666
 40
0.6666666666666666
 40
1.0
 40
1.0
 40
1.0
 40
1.0
 10
-806.6227047244095
 20
263.6975826771654
 30
0.0
 10
-806.6227047244095
 20
263.6975826771654
 30
0.0
 10
-785.2656456692913
 20
263.6975826771654
 30
0.0
 10
-785.2656456692913
 20
263.6975826771654
 30
0.0
 10
-785.2656456692913
 20
263.6975826771654
 30
0.0
 10
-785.2656456692913
 20
263.6975826771654
 30
0.0
 10
-785.2656456692913
 20
262.8243858267717
 30
0.0
 10
-785.2656456692913
 20
262.8243858267717
 30
0.0
 10
-785.2656456692913
 20
262.8243858267717
 30
0.0
 10
-785.2656456692913
 20
262.8243858267717
 30
0.0
 10
-806.6227047244095
 20
262.8243858267717
 30
0.0
 10
-806.6227047244095
 20
262.8243858267717
 30
0.0
 10
-806.6227047244095
 20
262.8243858267717
 30
0.0
 10
-806.6227047244095
 20
262.8243858267717
 30
0.0
 10
-806.6227047244095
 20
263.6975826771654
 30
0.0
 10
-806.6227047244095
 20
263.6975826771654
 30
0.0
 10
-806.6227047244095
 20
263.6975826771654
 30
0.0
 10
-806.6227047244095
 20
263.6975826771654
 30
0.0
 10
-806.6227047244095
 20
263.6975826771654
 30
0.0
 10
-806.6227047244095
 20
263.6975826771654
 30
0.0
  0
SPLINE
  5
A4
330
1F
100
AcDbEntity
  8
Layer 1
 62
     1
370
     9
100
AcDbSpline
210
0.0
220
0.0
230
1.0
 70
    11
 71
     3
 72
    24
 73
    20
 74
     0
 42
0.000000001
 43
0.0000000001
 40
0.0
 40
0.0
 40
0.0
 40
0.0
 40
0.1666666666666667
 40
0.1666666666666667
 40
0.1666666666666667
 40
0.1666666666666667
 40
0.3333333333333333
 40
0.3333333333333333
 40
0.3333333333333333
 40
0.3333333333333333
 40
0.5
 40
0.5
 40
0.5
 40
0.5
 40
0.6666666666666666
 40
0.6666666666666666
 40
0.6666666666666666
 40
0.6666666666666666
 40
1.0
 40
1.0
 40
1.0
 40
1.0
 10
-806.6227047244095
 20
264.5707874015748
 30
0.0
 10
-806.6227047244095
 20
264.5707874015748
 30
0.0
 10
-785.2656456692913
 20
264.5707874015748
 30
0.0
 10
-785.2656456692913
 20
264.5707874015748
 30
0.0
 10
-785.2656456692913
 20
264.5707874015748
 30
0.0
 10
-785.2656456692913
 20
264.5707874015748
 30
0.0
 10
-785.2656456692913
 20
265.4299015748031
 30
0.0
 10
-785.2656456692913
 20
265.4299015748031
 30
0.0
 10
-785.2656456692913
 20
265.4299015748031
 30
0.0
 10
-785.2656456692913
 20
265.4299015748031
 30
0.0
 10
-806.6227047244095
 20
265.4299015748031
 30
0.0
 10
-806.6227047244095
 20
265.4299015748031
 30
0.0
 10
-806.6227047244095
 20
265.4299015748031
 30
0.0
 10
-806.6227047244095
 20
265.4299015748031
 30
0.0
 10
-806.6227047244095
 20
264.5707874015748
 30
0.0
 10
-806.6227047244095
 20
264.5707874015748
 30
0.0
 10
-806.6227047244095
 20
264.5707874015748
 30
0.0
 10
-806.6227047244095
 20
264.5707874015748
 30
0.0
 10
-806.6227047244095
 20
264.5707874015748
 30
0.0
 10
-806.6227047244095
 20
264.5707874015748
 30
0.0
  0
ENDSEC
  0
SECTION
  2
OBJECTS
  0
DICTIONARY
  5
C
330
0
100
AcDbDictionary
281
     1
  3
ACAD_DETAILVIEWSTYLE
350
D9
  3
ACAD_GROUP
350
D
  3
ACAD_LAYOUT
350
1A
  3
ACAD_MATERIAL
350
43
  3
ACAD_MLEADERSTYLE
350
D8
  3
ACAD_MLINESTYLE
350
17
  3
ACAD_PLOTSETTINGS
350
19
  3
ACAD_PLOTSTYLENAME
350
E
  3
ACAD_SCALELIST
350
47
  3
ACAD_SECTIONVIEWSTYLE
350
DA
  3
ACAD_TABLESTYLE
350
D7
  3
ACAD_VISUALSTYLE
350
2A
  3
AcDbVariableDictionary
350
A5
  0
SUN
  5
69
330
29
100
AcDbSun
 90
        1
290
     0
 63
     7
421
 16777215
 40
1.0
291
     1
 91
  2455826
 92
 54000000
292
     0
 70
     2
 71
   256
280
     1
  0
DICTIONARY
  5
D9
102
{ACAD_REACTORS
330
C
102
}
330
C
100
AcDbDictionary
281
     1
  0
DICTIONARY
  5
D
102
{ACAD_REACTORS
330
C
102
}
330
C
100
AcDbDictionary
281
     1
  0
DICTIONARY
  5
1A
102
{ACAD_REACTORS
330
C
102
}
330
C
100
AcDbDictionary
281
     1
  3
Layout1
350
1E
  3
Layout2
350
26
  3
Model
350
22
  0
DICTIONARY
  5
43
102
{ACAD_REACTORS
330
C
102
}
330
C
100
AcDbDictionary
281
     1
  3
ByBlock
350
45
  3
ByLayer
350
44
  3
Global
350
46
  0
DICTIONARY
  5
D8
102
{ACAD_REACTORS
330
C
102
}
330
C
100
AcDbDictionary
281
     1
  0
DICTIONARY
  5
17
102
{ACAD_REACTORS
330
C
102
}
330
C
100
AcDbDictionary
281
     1
  3
Standard
350
18
  0
DICTIONARY
  5
19
102
{ACAD_REACTORS
330
C
102
}
330
C
100
AcDbDictionary
281
     1
  0
ACDBDICTIONARYWDFLT
  5
E
102
{ACAD_REACTORS
330
C
102
}
330
C
100
AcDbDictionary
281
     1
  3
Normal
350
F
100
AcDbDictionaryWithDefault
340
F
  0
DICTIONARY
  5
47
102
{ACAD_REACTORS
330
C
102
}
330
C
100
AcDbDictionary
281
     1
  3
A0
350
48
  3
A1
350
49
  3
A2
350
4A
  3
A3
350
4B
  3
A4
350
4C
  3
A5
350
4D
  3
A6
350
4E
  3
A7
350
4F
  3
A8
350
50
  3
A9
350
51
  3
B0
350
52
  3
B1
350
53
  3
B2
350
54
  3
B3
350
55
  3
B4
350
56
  3
B5
350
57
  3
B6
350
58
  3
B7
350
59
  3
B8
350
5A
  3
B9
350
5B
  3
C0
350
5C
  3
C1
350
5D
  3
C2
350
5E
  3
C3
350
5F
  3
C4
350
60
  3
C5
350
61
  3
C6
350
62
  3
C7
350
63
  3
C8
350
64
  3
C9
350
65
  3
D0
350
66
  3
D1
350
67
  3
D2
350
68
  0
DICTIONARY
  5
DA
102
{ACAD_REACTORS
330
C
102
}
330
C
100
AcDbDictionary
281
     1
  0
DICTIONARY
  5
D7
102
{ACAD_REACTORS
330
C
102
}
330
C
100
AcDbDictionary
281
     1
  0
DICTIONARY
  5
2A
102
{ACAD_REACTORS
330
C
102
}
330
C
100
AcDbDictionary
281
     1
  3
2dWireframe
350
2F
  3
Basic
350
32
  3
Brighten
350
36
  3
ColorChange
350
3A
  3
Conceptual
350
34
  3
Dim
350
35
  3
EdgeColorOff
350
3D
  3
Facepattern
350
39
  3
Flat
350
2B
  3
FlatWithEdges
350
2C
  3
Gouraud
350
2D
  3
GouraudWithEdges
350
2E
  3
Hidden
350
31
  3
JitterOff
350
3B
  3
Linepattern
350
38
  3
OverhangOff
350
3C
  3
Realistic
350
33
  3
Shaded
350
42
  3
Shaded with edges
350
41
  3
Shades of Gray
350
3E
  3
Sketchy
350
3F
  3
Thicken
350
37
  3
Wireframe
350
30
  3
X-Ray
350
40
  0
DICTIONARY
  5
A5
102
{ACAD_REACTORS
330
C
102
}
330
C
100
AcDbDictionary
281
     1
  3
CANNOSCALE
350
A6
  0
LAYOUT
  5
1E
102
{ACAD_REACTORS
330
1A
102
}
330
1A
100
AcDbPlotSettings
  1

  2
none_device
  4

  6

 40
0.0
 41
0.0
 42
0.0
 43
0.0
 44
0.0
 45
0.0
 46
0.0
 47
0.0
 48
0.0
 49
0.0
140
0.0
141
0.0
142
1.0
143
1.0
 70
   688
 72
     0
 73
     0
 74
     5
  7

 75
    16
 76
     0
 77
     2
 78
   300
147
1.0
148
0.0
149
0.0
100
AcDbLayout
  1
Layout1
 70
     1
 71
     1
 10
0.0
 20
0.0
 11
12.0
 21
9.0
 12
0.0
 22
0.0
 32
0.0
 14
1.000000000000000E 20
 24
1.000000000000000E 20
 34
1.000000000000000E 20
 15
-1.000000000000000E 20
 25
-1.000000000000000E 20
 35
-1.000000000000000E 20
146
0.0
 13
0.0
 23
0.0
 33
0.0
 16
1.0
 26
0.0
 36
0.0
 17
0.0
 27
1.0
 37
0.0
 76
     0
330
1B
  0
LAYOUT
  5
26
102
{ACAD_REACTORS
330
1A
102
}
330
1A
100
AcDbPlotSettings
  1

  2
none_device
  4

  6

 40
0.0
 41
0.0
 42
0.0
 43
0.0
 44
0.0
 45
0.0
 46
0.0
 47
0.0
 48
0.0
 49
0.0
140
0.0
141
0.0
142
1.0
143
1.0
 70
   688
 72
     0
 73
     0
 74
     5
  7

 75
    16
 76
     0
 77
     2
 78
   300
147
1.0
148
0.0
149
0.0
100
AcDbLayout
  1
Layout2
 70
     1
 71
     2
 10
0.0
 20
0.0
 11
0.0
 21
0.0
 12
0.0
 22
0.0
 32
0.0
 14
0.0
 24
0.0
 34
0.0
 15
0.0
 25
0.0
 35
0.0
146
0.0
 13
0.0
 23
0.0
 33
0.0
 16
1.0
 26
0.0
 36
0.0
 17
0.0
 27
1.0
 37
0.0
 76
     0
330
23
  0
LAYOUT
  5
22
102
{ACAD_REACTORS
330
1A
102
}
330
1A
100
AcDbPlotSettings
  1

  2
none_device
  4
Letter_(8.50_x_11.00_Inches)
  6

 40
6.35
 41
6.35
 42
6.35000508
 43
6.35000508
 44
215.9
 45
279.4
 46
0.0
 47
0.0
 48
0.0
 49
0.0
140
0.0
141
0.0
142
1.0
143
1.0
 70
  1712
 72
     0
 73
     0
 74
     0
  7

 75
     0
 76
     0
 77
     2
 78
   300
147
1.0
148
0.0
149
0.0
100
AcDbLayout
  1
Model
 70
     1
 71
     0
 10
0.0
 20
0.0
 11
12.0
 21
9.0
 12
0.0
 22
0.0
 32
0.0
 14
-807.7515
 24
259.4815
 34
0.0
 15
-784.2485
 25
272.2515
 35
0.0
146
0.0
 13
0.0
 23
0.0
 33
0.0
 16
1.0
 26
0.0
 36
0.0
 17
0.0
 27
1.0
 37
0.0
 76
     0
330
1F
331
29
  0
MATERIAL
  5
45
102
{ACAD_REACTORS
330
43
102
}
330
43
100
AcDbMaterial
  1
ByBlock
 72
     1
 94
      127
  0
MATERIAL
  5
44
102
{ACAD_REACTORS
330
43
102
}
330
43
100
AcDbMaterial
  1
ByLayer
 72
     1
 94
      127
  0
MATERIAL
  5
46
102
{ACAD_REACTORS
330
43
102
}
330
43
100
AcDbMaterial
  1
Global
 72
     1
 94
      127
  0
MLINESTYLE
  5
18
102
{ACAD_REACTORS
330
17
102
}
330
17
100
AcDbMlineStyle
  2
Standard
 70
     0
  3

 62
   256
 51
90.0
 52
90.0
 71
     2
 49
0.5
 62
   256
  6
BYLAYER
 49
-0.5
 62
   256
  6
BYLAYER
  0
ACDBPLACEHOLDER
  5
F
102
{ACAD_REACTORS
330
E
102
}
330
E
  0
SCALE
  5
48
102
{ACAD_REACTORS
330
47
102
}
330
47
100
AcDbScale
 70
     0
300
1:1
140
1.0
141
1.0
290
     1
  0
SCALE
  5
49
102
{ACAD_REACTORS
330
47
102
}
330
47
100
AcDbScale
 70
     0
300
1:2
140
1.0
141
2.0
290
     0
  0
SCALE
  5
4A
102
{ACAD_REACTORS
330
47
102
}
330
47
100
AcDbScale
 70
     0
300
1:4
140
1.0
141
4.0
290
     0
  0
SCALE
  5
4B
102
{ACAD_REACTORS
330
47
102
}
330
47
100
AcDbScale
 70
     0
300
1:5
140
1.0
141
5.0
290
     0
  0
SCALE
  5
4C
102
{ACAD_REACTORS
330
47
102
}
330
47
100
AcDbScale
 70
     0
300
1:8
140
1.0
141
8.0
290
     0
  0
SCALE
  5
4D
102
{ACAD_REACTORS
330
47
102
}
330
47
100
AcDbScale
 70
     0
300
1:10
140
1.0
141
10.0
290
     0
  0
SCALE
  5
4E
102
{ACAD_REACTORS
330
47
102
}
330
47
100
AcDbScale
 70
     0
300
1:16
140
1.0
141
16.0
290
     0
  0
SCALE
  5
4F
102
{ACAD_REACTORS
330
47
102
}
330
47
100
AcDbScale
 70
     0
300
1:20
140
1.0
141
20.0
290
     0
  0
SCALE
  5
50
102
{ACAD_REACTORS
330
47
102
}
330
47
100
AcDbScale
 70
     0
300
1:30
140
1.0
141
30.0
290
     0
  0
SCALE
  5
51
102
{ACAD_REACTORS
330
47
102
}
330
47
100
AcDbScale
 70
     0
300
1:40
140
1.0
141
40.0
290
     0
  0
SCALE
  5
52
102
{ACAD_REACTORS
330
47
102
}
330
47
100
AcDbScale
 70
     0
300
1:50
140
1.0
141
50.0
290
     0
  0
SCALE
  5
53
102
{ACAD_REACTORS
330
47
102
}
330
47
100
AcDbScale
 70
     0
300
1:100
140
1.0
141
100.0
290
     0
  0
SCALE
  5
54
102
{ACAD_REACTORS
330
47
102
}
330
47
100
AcDbScale
 70
     0
300
2:1
140
2.0
141
1.0
290
     0
  0
SCALE
  5
55
102
{ACAD_REACTORS
330
47
102
}
330
47
100
AcDbScale
 70
     0
300
4:1
140
4.0
141
1.0
290
     0
  0
SCALE
  5
56
102
{ACAD_REACTORS
330
47
102
}
330
47
100
AcDbScale
 70
     0
300
8:1
140
8.0
141
1.0
290
     0
  0
SCALE
  5
57
102
{ACAD_REACTORS
330
47
102
}
330
47
100
AcDbScale
 70
     0
300
10:1
140
10.0
141
1.0
290
     0
  0
SCALE
  5
58
102
{ACAD_REACTORS
330
47
102
}
330
47
100
AcDbScale
 70
     0
300
100:1
140
100.0
141
1.0
290
     0
  0
SCALE
  5
59
102
{ACAD_REACTORS
330
47
102
}
330
47
100
AcDbScale
 70
     0
300
1/128\" = 1\'-0\"
140
0.0078125
141
12.0
290
     0
  0
SCALE
  5
5A
102
{ACAD_REACTORS
330
47
102
}
330
47
100
AcDbScale
 70
     0
300
1/64\" = 1\'-0\"
140
0.015625
141
12.0
290
     0
  0
SCALE
  5
5B
102
{ACAD_REACTORS
330
47
102
}
330
47
100
AcDbScale
 70
     0
300
1/32\" = 1\'-0\"
140
0.03125
141
12.0
290
     0
  0
SCALE
  5
5C
102
{ACAD_REACTORS
330
47
102
}
330
47
100
AcDbScale
 70
     0
300
1/16\" = 1\'-0\"
140
0.0625
141
12.0
290
     0
  0
SCALE
  5
5D
102
{ACAD_REACTORS
330
47
102
}
330
47
100
AcDbScale
 70
     0
300
3/32\" = 1\'-0\"
140
0.09375
141
12.0
290
     0
  0
SCALE
  5
5E
102
{ACAD_REACTORS
330
47
102
}
330
47
100
AcDbScale
 70
     0
300
1/8\" = 1\'-0\"
140
0.125
141
12.0
290
     0
  0
SCALE
  5
5F
102
{ACAD_REACTORS
330
47
102
}
330
47
100
AcDbScale
 70
     0
300
3/16\" = 1\'-0\"
140
0.1875
141
12.0
290
     0
  0
SCALE
  5
60
102
{ACAD_REACTORS
330
47
102
}
330
47
100
AcDbScale
 70
     0
300
1/4\" = 1\'-0\"
140
0.25
141
12.0
290
     0
  0
SCALE
  5
61
102
{ACAD_REACTORS
330
47
102
}
330
47
100
AcDbScale
 70
     0
300
3/8\" = 1\'-0\"
140
0.375
141
12.0
290
     0
  0
SCALE
  5
62
102
{ACAD_REACTORS
330
47
102
}
330
47
100
AcDbScale
 70
     0
300
1/2\" = 1\'-0\"
140
0.5
141
12.0
290
     0
  0
SCALE
  5
63
102
{ACAD_REACTORS
330
47
102
}
330
47
100
AcDbScale
 70
     0
300
3/4\" = 1\'-0\"
140
0.75
141
12.0
290
     0
  0
SCALE
  5
64
102
{ACAD_REACTORS
330
47
102
}
330
47
100
AcDbScale
 70
     0
300
1\" = 1\'-0\"
140
1.0
141
12.0
290
     0
  0
SCALE
  5
65
102
{ACAD_REACTORS
330
47
102
}
330
47
100
AcDbScale
 70
     0
300
1-1/2\" = 1\'-0\"
140
1.5
141
12.0
290
     0
  0
SCALE
  5
66
102
{ACAD_REACTORS
330
47
102
}
330
47
100
AcDbScale
 70
     0
300
3\" = 1\'-0\"
140
3.0
141
12.0
290
     0
  0
SCALE
  5
67
102
{ACAD_REACTORS
330
47
102
}
330
47
100
AcDbScale
 70
     0
300
6\" = 1\'-0\"
140
6.0
141
12.0
290
     0
  0
SCALE
  5
68
102
{ACAD_REACTORS
330
47
102
}
330
47
100
AcDbScale
 70
     0
300
1\'-0\" = 1\'-0\"
140
12.0
141
12.0
290
     0
  0
VISUALSTYLE
  5
2F
102
{ACAD_REACTORS
330
2A
102
}
102
{ACAD_XDICTIONARY
360
AF
102
}
330
2A
100
AcDbVisualStyle
  2
2dWireframe
 70
     4
 71
     0
 72
     2
 73
     0
 90
        0
 40
0.6
 41
30.0
 62
     5
 63
     7
421
 16777215
 74
     1
 91
        4
 64
     7
 65
   257
 75
     1
175
     1
 42
1.0
 92
        0
 66
   257
 43
1.0
 76
     1
 77
     6
 78
     2
 67
     7
 79
     5
170
     0
171
     0
290
     0
174
     0
 93
        1
 44
0.0
173
     0
291
     0
 45
0.0
  0
VISUALSTYLE
  5
32
102
{ACAD_REACTORS
330
2A
102
}
102
{ACAD_XDICTIONARY
360
B5
102
}
330
2A
100
AcDbVisualStyle
  2
Basic
 70
     7
 71
     1
 72
     0
 73
     1
 90
        0
 40
0.6
 41
30.0
 62
     5
 63
     7
421
 16777215
 74
     0
 91
        4
 64
     7
 65
   257
 75
     1
175
     1
 42
1.0
 92
        8
 66
     7
 43
1.0
 76
     1
 77
     6
 78
     2
 67
     7
 79
     5
170
     0
171
     0
290
     0
174
     0
 93
        1
 44
0.0
173
     0
291
     1
 45
0.0
  0
VISUALSTYLE
  5
36
102
{ACAD_REACTORS
330
2A
102
}
102
{ACAD_XDICTIONARY
360
BD
102
}
330
2A
100
AcDbVisualStyle
  2
Brighten
 70
    12
 71
     2
 72
     2
 73
     0
 90
        0
 40
0.6
 41
30.0
 62
     5
 63
     7
421
 16777215
 74
     1
 91
        4
 64
     7
 65
   257
 75
     1
175
     1
 42
1.0
 92
        8
 66
     7
 43
1.0
 76
     1
 77
     6
 78
     2
 67
     7
 79
     5
170
     0
171
     0
290
     0
174
     0
 93
        1
 44
50.0
173
     0
291
     1
 45
0.0
  0
VISUALSTYLE
  5
3A
102
{ACAD_REACTORS
330
2A
102
}
102
{ACAD_XDICTIONARY
360
C5
102
}
330
2A
100
AcDbVisualStyle
  2
ColorChange
 70
    16
 71
     2
 72
     2
 73
     3
 90
        0
 40
0.6
 41
30.0
 62
     5
 63
     8
421
  8421504
 74
     1
 91
        4
 64
     7
 65
   257
 75
     1
175
     1
 42
1.0
 92
        8
 66
     8
424
  8421504
 43
1.0
 76
     1
 77
     6
 78
     2
 67
     7
 79
     5
170
     0
171
     0
290
     0
174
     0
 93
        1
 44
0.0
173
     0
291
     1
 45
0.0
  0
VISUALSTYLE
  5
34
102
{ACAD_REACTORS
330
2A
102
}
102
{ACAD_XDICTIONARY
360
B9
102
}
330
2A
100
AcDbVisualStyle
  2
Conceptual
 70
     9
 71
     3
 72
     2
 73
     0
 90
        0
 40
0.6
 41
30.0
 62
     5
 63
     7
421
 16777215
 74
     2
 91
        2
 64
     7
 65
   257
 75
     1
175
     1
 42
179.0
 92
        8
 66
     7
 43
1.0
 76
     1
 77
     6
 78
     2
 67
     7
 79
     3
170
     0
171
     0
290
     0
174
     0
 93
        1
 44
0.0
173
     0
291
     0
 45
0.0
  0
VISUALSTYLE
  5
35
102
{ACAD_REACTORS
330
2A
102
}
102
{ACAD_XDICTIONARY
360
BB
102
}
330
2A
100
AcDbVisualStyle
  2
Dim
 70
    11
 71
     2
 72
     2
 73
     0
 90
        0
 40
0.6
 41
30.0
 62
     5
 63
     7
421
 16777215
 74
     1
 91
        4
 64
     7
 65
   257
 75
     1
175
     1
 42
1.0
 92
        8
 66
     7
 43
1.0
 76
     1
 77
     6
 78
     2
 67
     7
 79
     5
170
     0
171
     0
290
     0
174
     0
 93
        1
 44
-50.0
173
     0
291
     1
 45
0.0
  0
VISUALSTYLE
  5
3D
102
{ACAD_REACTORS
330
2A
102
}
102
{ACAD_XDICTIONARY
360
CB
102
}
330
2A
100
AcDbVisualStyle
  2
EdgeColorOff
 70
    22
 71
     2
 72
     2
 73
     0
 90
        0
 40
0.6
 41
30.0
 62
     5
 63
     7
421
 16777215
 74
     1
 91
        4
 64
     7
 65
   257
 75
     1
175
     1
 42
1.0
 92
        8
 66
     7
 43
1.0
 76
     1
 77
     6
 78
     2
 67
     7
 79
     5
170
     0
171
     0
290
     0
174
     0
 93
        1
 44
0.0
173
     0
291
     1
 45
0.0
  0
VISUALSTYLE
  5
39
102
{ACAD_REACTORS
330
2A
102
}
102
{ACAD_XDICTIONARY
360
C3
102
}
330
2A
100
AcDbVisualStyle
  2
Facepattern
 70
    15
 71
     2
 72
     2
 73
     0
 90
        0
 40
0.6
 41
30.0
 62
     5
 63
     7
421
 16777215
 74
     1
 91
        4
 64
     7
 65
   257
 75
     1
175
     1
 42
1.0
 92
        8
 66
     7
 43
1.0
 76
     1
 77
     6
 78
     2
 67
     7
 79
     5
170
     0
171
     0
290
     0
174
     0
 93
        1
 44
0.0
173
     0
291
     1
 45
0.0
  0
VISUALSTYLE
  5
2B
102
{ACAD_REACTORS
330
2A
102
}
102
{ACAD_XDICTIONARY
360
A7
102
}
330
2A
100
AcDbVisualStyle
  2
Flat
 70
     0
 71
     2
 72
     1
 73
     1
 90
        2
 40
0.6
 41
30.0
 62
     5
 63
     7
421
 16777215
 74
     0
 91
        0
 64
     7
 65
   257
 75
     1
175
     1
 42
1.0
 92
        8
 66
     7
 43
1.0
 76
     1
 77
     6
 78
     2
 67
     7
 79
     5
170
     0
171
     0
290
     0
174
     0
 93
       13
 44
0.0
173
     0
291
     1
 45
0.0
  0
VISUALSTYLE
  5
2C
102
{ACAD_REACTORS
330
2A
102
}
102
{ACAD_XDICTIONARY
360
A9
102
}
330
2A
100
AcDbVisualStyle
  2
FlatWithEdges
 70
     1
 71
     2
 72
     1
 73
     1
 90
        2
 40
0.6
 41
30.0
 62
     5
 63
     7
421
 16777215
 74
     1
 91
        0
 64
     7
 65
   257
 75
     1
175
     1
 42
1.0
 92
        0
 66
   257
 43
1.0
 76
     1
 77
     6
 78
     2
 67
     7
 79
     5
170
     0
171
     0
290
     0
174
     0
 93
       13
 44
0.0
173
     0
291
     1
 45
0.0
  0
VISUALSTYLE
  5
2D
102
{ACAD_REACTORS
330
2A
102
}
102
{ACAD_XDICTIONARY
360
AB
102
}
330
2A
100
AcDbVisualStyle
  2
Gouraud
 70
     2
 71
     2
 72
     2
 73
     1
 90
        2
 40
0.6
 41
30.0
 62
     5
 63
     7
421
 16777215
 74
     0
 91
        0
 64
     7
 65
   257
 75
     1
175
     1
 42
1.0
 92
        0
 66
     7
 43
1.0
 76
     1
 77
     6
 78
     2
 67
     7
 79
     5
170
     0
171
     0
290
     0
174
     0
 93
       13
 44
0.0
173
     0
291
     1
 45
0.0
  0
VISUALSTYLE
  5
2E
102
{ACAD_REACTORS
330
2A
102
}
102
{ACAD_XDICTIONARY
360
AD
102
}
330
2A
100
AcDbVisualStyle
  2
GouraudWithEdges
 70
     3
 71
     2
 72
     2
 73
     1
 90
        2
 40
0.6
 41
30.0
 62
     5
 63
     7
421
 16777215
 74
     1
 91
        0
 64
     7
 65
   257
 75
     1
175
     1
 42
1.0
 92
        0
 66
   257
 43
1.0
 76
     1
 77
     6
 78
     2
 67
     7
 79
     5
170
     0
171
     0
290
     0
174
     0
 93
       13
 44
0.0
173
     0
291
     1
 45
0.0
  0
VISUALSTYLE
  5
31
102
{ACAD_REACTORS
330
2A
102
}
102
{ACAD_XDICTIONARY
360
B3
102
}
330
2A
100
AcDbVisualStyle
  2
Hidden
 70
     6
 71
     1
 72
     2
 73
     2
 90
        0
 40
0.6
 41
30.0
 62
     5
 63
     7
421
 16777215
 74
     2
 91
        2
 64
     7
 65
   257
 75
     2
175
     1
 42
40.0
 92
        0
 66
   257
 43
1.0
 76
     1
 77
     6
 78
     2
 67
     7
 79
     3
170
     0
171
     0
290
     0
174
     0
 93
        1
 44
0.0
173
     0
291
     0
 45
0.0
  0
VISUALSTYLE
  5
3B
102
{ACAD_REACTORS
330
2A
102
}
102
{ACAD_XDICTIONARY
360
C7
102
}
330
2A
100
AcDbVisualStyle
  2
JitterOff
 70
    20
 71
     2
 72
     2
 73
     0
 90
        0
 40
0.6
 41
30.0
 62
     5
 63
     7
421
 16777215
 74
     1
 91
        4
 64
     7
 65
   257
 75
     1
175
     1
 42
1.0
 92
       10
 66
     7
 43
1.0
 76
     1
 77
     6
 78
     2
 67
     7
 79
     5
170
     0
171
     0
290
     0
174
     0
 93
        1
 44
0.0
173
     0
291
     1
 45
0.0
  0
VISUALSTYLE
  5
38
102
{ACAD_REACTORS
330
2A
102
}
102
{ACAD_XDICTIONARY
360
C1
102
}
330
2A
100
AcDbVisualStyle
  2
Linepattern
 70
    14
 71
     2
 72
     2
 73
     0
 90
        0
 40
0.6
 41
30.0
 62
     5
 63
     7
421
 16777215
 74
     1
 91
        4
 64
     7
 65
   257
 75
     7
175
     7
 42
1.0
 92
        8
 66
     7
 43
1.0
 76
     1
 77
     6
 78
     2
 67
     7
 79
     5
170
     0
171
     0
290
     0
174
     0
 93
        1
 44
0.0
173
     0
291
     1
 45
0.0
  0
VISUALSTYLE
  5
3C
102
{ACAD_REACTORS
330
2A
102
}
102
{ACAD_XDICTIONARY
360
C9
102
}
330
2A
100
AcDbVisualStyle
  2
OverhangOff
 70
    21
 71
     2
 72
     2
 73
     0
 90
        0
 40
0.6
 41
30.0
 62
     5
 63
     7
421
 16777215
 74
     1
 91
        4
 64
     7
 65
   257
 75
     1
175
     1
 42
1.0
 92
        9
 66
     7
 43
1.0
 76
     1
 77
     6
 78
     2
 67
     7
 79
     5
170
     0
171
     0
290
     0
174
     0
 93
        1
 44
0.0
173
     0
291
     1
 45
0.0
  0
VISUALSTYLE
  5
33
102
{ACAD_REACTORS
330
2A
102
}
102
{ACAD_XDICTIONARY
360
B7
102
}
330
2A
100
AcDbVisualStyle
  2
Realistic
 70
     8
 71
     2
 72
     3
 73
     0
 90
        2
 40
0.6
 41
30.0
 62
     5
 63
     7
421
 16777215
 74
     0
 91
        0
 64
     7
 65
   257
 75
     1
175
     1
 42
1.0
 92
        8
 66
   257
 43
1.0
 76
     1
 77
     6
 78
     2
 67
     7
 79
     3
170
     0
171
     0
290
     0
174
     0
 93
       13
 44
0.0
173
     0
291
     0
 45
0.0
  0
VISUALSTYLE
  5
42
102
{ACAD_REACTORS
330
2A
102
}
102
{ACAD_XDICTIONARY
360
D5
102
}
330
2A
100
AcDbVisualStyle
  2
Shaded
 70
    27
 71
     2
 72
     2
 73
     1
 90
        2
 40
0.6
 41
30.0
 62
     5
 63
     7
421
 16777215
 74
     0
 91
        4
 64
     7
 65
   257
 75
     1
175
     1
 42
1.0
 92
        8
 66
   257
 43
1.0
 76
     1
 77
     6
 78
     2
 67
     8
425
  7895160
 79
     3
170
     0
171
     0
290
     0
174
     0
 93
        5
 44
0.0
173
     0
291
     0
 45
0.0
  0
VISUALSTYLE
  5
41
102
{ACAD_REACTORS
330
2A
102
}
102
{ACAD_XDICTIONARY
360
D3
102
}
330
2A
100
AcDbVisualStyle
  2
Shaded with edges
 70
    26
 71
     2
 72
     2
 73
     1
 90
        2
 40
0.6
 41
30.0
 62
     5
 63
     7
421
 16777215
 74
     1
 91
       10
 64
     7
 65
   257
 75
     2
175
     1
 42
1.0
 92
        8
 66
   257
 43
1.0
 76
     1
 77
     6
 78
     2
 67
     7
 79
     3
170
     0
171
     0
290
     0
174
     0
 93
        5
 44
0.0
173
     0
291
     0
 45
0.0
  0
VISUALSTYLE
  5
3E
102
{ACAD_REACTORS
330
2A
102
}
102
{ACAD_XDICTIONARY
360
CD
102
}
330
2A
100
AcDbVisualStyle
  2
Shades of Gray
 70
    23
 71
     2
 72
     2
 73
     3
 90
        0
 40
0.6
 41
30.0
 62
     5
 63
     7
421
 16777215
 74
     2
 91
        2
 64
     7
 65
     7
 75
     1
175
     1
 42
40.0
 92
        8
 66
     7
 43
1.0
 76
     1
 77
     6
 78
     2
 67
     7
 79
     3
170
     0
171
     0
290
     0
174
     0
 93
        1
 44
0.0
173
     0
291
     0
 45
0.0
  0
VISUALSTYLE
  5
3F
102
{ACAD_REACTORS
330
2A
102
}
102
{ACAD_XDICTIONARY
360
CF
102
}
330
2A
100
AcDbVisualStyle
  2
Sketchy
 70
    24
 71
     1
 72
     2
 73
     2
 90
        0
 40
0.6
 41
30.0
 62
     5
 63
     7
421
 16777215
 74
     2
 91
        2
 64
     7
 65
     7
 75
     1
175
     1
 42
40.0
 92
       11
 66
     7
 43
1.0
 76
     1
 77
     6
 78
     2
 67
     7
 79
     6
170
     0
171
     0
290
     0
174
     0
 93
        1
 44
0.0
173
     0
291
     0
 45
0.0
  0
VISUALSTYLE
  5
37
102
{ACAD_REACTORS
330
2A
102
}
102
{ACAD_XDICTIONARY
360
BF
102
}
330
2A
100
AcDbVisualStyle
  2
Thicken
 70
    13
 71
     2
 72
     2
 73
     0
 90
        0
 40
0.6
 41
30.0
 62
     5
 63
     7
421
 16777215
 74
     1
 91
        4
 64
     7
 65
   257
 75
     1
175
     1
 42
1.0
 92
       12
 66
     7
 43
1.0
 76
     1
 77
     6
 78
     2
 67
     7
 79
     5
170
     0
171
     0
290
     0
174
     0
 93
        1
 44
0.0
173
     0
291
     1
 45
0.0
  0
VISUALSTYLE
  5
30
102
{ACAD_REACTORS
330
2A
102
}
102
{ACAD_XDICTIONARY
360
B1
102
}
330
2A
100
AcDbVisualStyle
  2
Wireframe
 70
     5
 71
     0
 72
     2
 73
     0
 90
        0
 40
0.6
 41
30.0
 62
     5
 63
     7
421
 16777215
 74
     1
 91
        4
 64
     7
 65
   257
 75
     1
175
     1
 42
1.0
 92
        0
 66
   257
 43
1.0
 76
     1
 77
     6
 78
     2
 67
     7
 79
     3
170
     0
171
     0
290
     0
174
     0
 93
        1
 44
0.0
173
     0
291
     0
 45
0.0
  0
VISUALSTYLE
  5
40
102
{ACAD_REACTORS
330
2A
102
}
102
{ACAD_XDICTIONARY
360
D1
102
}
330
2A
100
AcDbVisualStyle
  2
X-Ray
 70
    25
 71
     2
 72
     2
 73
     1
 90
        1
 40
0.5
 41
30.0
 62
     5
 63
     7
421
 16777215
 74
     1
 91
        0
 64
     7
 65
   257
 75
     1
175
     1
 42
1.0
 92
        8
 66
     7
 43
1.0
 76
     1
 77
     6
 78
     2
 67
     7
 79
     3
170
     0
171
     0
290
     0
174
     0
 93
       13
 44
0.0
173
     0
291
     0
 45
0.0
  0
DICTIONARYVAR
  5
A6
102
{ACAD_REACTORS
330
A5
102
}
330
A5
100
DictionaryVariables
280
     0
  1
1:1
  0
DICTIONARY
  5
AF
330
2F
100
AcDbDictionary
280
     1
281
     1
  3
ACAD_XREC_ROUNDTRIP
360
B0
  0
DICTIONARY
  5
B5
330
32
100
AcDbDictionary
280
     1
281
     1
  3
ACAD_XREC_ROUNDTRIP
360
B6
  0
DICTIONARY
  5
BD
330
36
100
AcDbDictionary
280
     1
281
     1
  3
ACAD_XREC_ROUNDTRIP
360
BE
  0
DICTIONARY
  5
C5
330
3A
100
AcDbDictionary
280
     1
281
     1
  3
ACAD_XREC_ROUNDTRIP
360
C6
  0
DICTIONARY
  5
B9
330
34
100
AcDbDictionary
280
     1
281
     1
  3
ACAD_XREC_ROUNDTRIP
360
BA
  0
DICTIONARY
  5
BB
330
35
100
AcDbDictionary
280
     1
281
     1
  3
ACAD_XREC_ROUNDTRIP
360
BC
  0
DICTIONARY
  5
CB
330
3D
100
AcDbDictionary
280
     1
281
     1
  3
ACAD_XREC_ROUNDTRIP
360
CC
  0
DICTIONARY
  5
C3
330
39
100
AcDbDictionary
280
     1
281
     1
  3
ACAD_XREC_ROUNDTRIP
360
C4
  0
DICTIONARY
  5
A7
330
2B
100
AcDbDictionary
280
     1
281
     1
  3
ACAD_XREC_ROUNDTRIP
360
A8
  0
DICTIONARY
  5
A9
330
2C
100
AcDbDictionary
280
     1
281
     1
  3
ACAD_XREC_ROUNDTRIP
360
AA
  0
DICTIONARY
  5
AB
330
2D
100
AcDbDictionary
280
     1
281
     1
  3
ACAD_XREC_ROUNDTRIP
360
AC
  0
DICTIONARY
  5
AD
330
2E
100
AcDbDictionary
280
     1
281
     1
  3
ACAD_XREC_ROUNDTRIP
360
AE
  0
DICTIONARY
  5
B3
330
31
100
AcDbDictionary
280
     1
281
     1
  3
ACAD_XREC_ROUNDTRIP
360
B4
  0
DICTIONARY
  5
C7
330
3B
100
AcDbDictionary
280
     1
281
     1
  3
ACAD_XREC_ROUNDTRIP
360
C8
  0
DICTIONARY
  5
C1
330
38
100
AcDbDictionary
280
     1
281
     1
  3
ACAD_XREC_ROUNDTRIP
360
C2
  0
DICTIONARY
  5
C9
330
3C
100
AcDbDictionary
280
     1
281
     1
  3
ACAD_XREC_ROUNDTRIP
360
CA
  0
DICTIONARY
  5
B7
330
33
100
AcDbDictionary
280
     1
281
     1
  3
ACAD_XREC_ROUNDTRIP
360
B8
  0
DICTIONARY
  5
D5
330
42
100
AcDbDictionary
280
     1
281
     1
  3
ACAD_XREC_ROUNDTRIP
360
D6
  0
DICTIONARY
  5
D3
330
41
100
AcDbDictionary
280
     1
281
     1
  3
ACAD_XREC_ROUNDTRIP
360
D4
  0
DICTIONARY
  5
CD
330
3E
100
AcDbDictionary
280
     1
281
     1
  3
ACAD_XREC_ROUNDTRIP
360
CE
  0
DICTIONARY
  5
CF
330
3F
100
AcDbDictionary
280
     1
281
     1
  3
ACAD_XREC_ROUNDTRIP
360
D0
  0
DICTIONARY
  5
BF
330
37
100
AcDbDictionary
280
     1
281
     1
  3
ACAD_XREC_ROUNDTRIP
360
C0
  0
DICTIONARY
  5
B1
330
30
100
AcDbDictionary
280
     1
281
     1
  3
ACAD_XREC_ROUNDTRIP
360
B2
  0
DICTIONARY
  5
D1
330
40
100
AcDbDictionary
280
     1
281
     1
  3
ACAD_XREC_ROUNDTRIP
360
D2
  0
XRECORD
  5
B0
102
{ACAD_REACTORS
330
AF
102
}
330
AF
100
AcDbXrecord
280
     1
102
RTVSPropertyOp0
 70
     1
102
RTVSPropertyOp1
 70
     1
102
RTVSPropertyOp2
 70
     1
102
RTVSPropertyOp3
 70
     1
102
RTVSPropertyOp4
 70
     1
102
RTVSPropertyOp5
 70
     1
102
RTVSPropertyOp6
 70
     1
102
RTVSPropertyOp7
 70
     1
102
RTVSPropertyOp8
 70
     1
102
RTVSPropertyOp9
 70
     1
102
RTVSPropertyOp10
 70
     1
102
RTVSPropertyOp11
 70
     1
102
RTVSPropertyOp12
 70
     1
102
RTVSPropertyOp13
 70
     1
102
RTVSPropertyOp14
 70
     1
102
RTVSPropertyOp15
 70
     1
102
RTVSPropertyOp16
 70
     1
102
RTVSPropertyOp17
 70
     1
102
RTVSPropertyOp18
 70
     1
102
RTVSPropertyOp19
 70
     1
102
RTVSPropertyOp20
 70
     1
102
RTVSPropertyOp21
 70
     1
102
RTVSPropertyOp22
 70
     1
102
RTVSPropertyOp23
 70
     1
102
RTVSPropertyOp24
 70
     1
102
RTVSPropertyOp25
 70
     1
102
RTVSPropertyOp26
 70
     1
102
RTVSPropertyOp27
 70
     1
102
RTVSPropertyOp28
 70
     1
102
RTVSPropertyOp29
 70
     1
102
RTVSPropertyOp30
 70
     1
102
RTVSPropertyOp31
 70
     1
102
RTVSPropertyOp32
 70
     1
102
RTVSPropertyOp33
 70
     1
102
RTVSPropertyOp34
 70
     1
102
RTVSPropertyOp35
 70
     1
102
RTVSPropertyOp36
 70
     1
102
RTVSPropertyOp37
 70
     1
102
RTVSPropertyOp38
 70
     1
102
RTVSPropertyOp39
 70
     1
102
RTVSPropertyOp40
 70
     1
102
RTVSPropertyOp41
 70
     1
102
RTVSPropertyOp42
 70
     1
102
RTVSPropertyOp43
 70
     1
102
RTVSPropertyOp44
 70
     1
102
RTVSPropertyOp45
 70
     1
102
RTVSPropertyOp46
 70
     1
102
RTVSPropertyOp47
 70
     1
102
RTVSPropertyOp48
 70
     1
102
RTVSPropertyOp49
 70
     1
102
RTVSPropertyOp50
 70
     1
102
RTVSPropertyOp51
 70
     0
102
RTVSPropertyOp52
 70
     0
102
RTVSPropertyOp53
 70
     1
102
RTVSPropertyOp54
 70
     1
102
RTVSPropertyOp55
 70
     1
102
RTVSPropertyOp56
 70
     1
102
RTVSPropertyOp57
 70
     1
102
RTVSPost2010Prop28
280
     1
102
RTVSPost2010PropOp28
 70
     1
102
RTVSPost2010Prop29
280
     1
102
RTVSPost2010PropOp29
 70
     1
102
RTVSPost2010Prop30
280
     0
102
RTVSPost2010PropOp30
 70
     1
102
RTVSPost2010Prop31
280
     0
102
RTVSPost2010PropOp31
 70
     1
102
RTVSPost2010Prop32
280
     0
102
RTVSPost2010PropOp32
 70
     1
102
RTVSPost2010Prop33
280
     0
102
RTVSPost2010PropOp33
 70
     1
102
RTVSPost2010Prop34
280
     0
102
RTVSPost2010PropOp34
 70
     1
102
RTVSPost2010Prop35
280
     0
102
RTVSPost2010PropOp35
 70
     1
102
RTVSPost2010Prop36
280
     0
102
RTVSPost2010PropOp36
 70
     1
102
RTVSPost2010Prop37
 90
       50
102
RTVSPost2010PropOp37
 70
     1
102
RTVSPost2010Prop38
140
0.0
102
RTVSPost2010PropOp38
 70
     1
102
RTVSPost2010Prop39
140
1.0
102
RTVSPost2010PropOp39
 70
     1
102
RTVSPost2010Prop40
 90
        0
102
RTVSPost2010PropOp40
 70
     1
102
RTVSPost2010Prop41ColorIndex
 90
       18
102
RTVSPost2010Prop41ColorRGB
 90
        0
102
RTVSPost2010PropOp41
 70
     1
102
RTVSPost2010Prop42
 90
       50
102
RTVSPost2010PropOp42
 70
     1
102
RTVSPost2010Prop43
 90
        3
102
RTVSPost2010PropOp43
 70
     1
102
RTVSPost2010Prop44ColorIndex
 90
        5
102
RTVSPost2010Prop44ColorRGB
 90
      255
102
RTVSPost2010PropOp44
 70
     1
102
RTVSPost2010Prop45
280
     0
102
RTVSPost2010PropOp45
 70
     1
102
RTVSPost2010Prop46
 90
       50
102
RTVSPost2010PropOp46
 70
     1
102
RTVSPost2010Prop47
 90
       50
102
RTVSPost2010PropOp47
 70
     1
102
RTVSPost2010Prop48
 90
       50
102
RTVSPost2010PropOp48
 70
     1
102
RTVSPost2010Prop49
280
     0
102
RTVSPost2010PropOp49
 70
     1
102
RTVSPost2010Prop50
 90
       50
102
RTVSPost2010PropOp50
 70
     1
102
RTVSPost2010Prop51ColorIndex
 90
      256
102
RTVSPost2010Prop51ColorRGB
 90
-16777216
102
RTVSPost2010PropOp51
 70
     0
102
RTVSPost2010Prop52
140
1.0
102
RTVSPost2010PropOp52
 70
     0
102
RTVSPost2010Prop53
 90
        2
102
RTVSPost2010PropOp53
 70
     1
102
RTVSPost2010Prop54
  1
strokes_ogs.tif
102
RTVSPost2010PropOp54
 70
     1
102
RTVSPost2010Prop55
280
     0
102
RTVSPost2010PropOp55
 70
     1
102
RTVSPost2010Prop56
140
1.0
102
RTVSPost2010PropOp56
 70
     1
102
RTVSPost2010Prop57
140
1.0
102
RTVSPost2010PropOp57
 70
     1
  0
XRECORD
  5
B6
102
{ACAD_REACTORS
330
B5
102
}
330
B5
100
AcDbXrecord
280
     1
102
RTVSPropertyOp0
 70
     1
102
RTVSPropertyOp1
 70
     1
102
RTVSPropertyOp2
 70
     1
102
RTVSPropertyOp3
 70
     1
102
RTVSPropertyOp4
 70
     1
102
RTVSPropertyOp5
 70
     1
102
RTVSPropertyOp6
 70
     1
102
RTVSPropertyOp7
 70
     1
102
RTVSPropertyOp8
 70
     1
102
RTVSPropertyOp9
 70
     1
102
RTVSPropertyOp10
 70
     1
102
RTVSPropertyOp11
 70
     1
102
RTVSPropertyOp12
 70
     1
102
RTVSPropertyOp13
 70
     1
102
RTVSPropertyOp14
 70
     1
102
RTVSPropertyOp15
 70
     1
102
RTVSPropertyOp16
 70
     1
102
RTVSPropertyOp17
 70
     1
102
RTVSPropertyOp18
 70
     1
102
RTVSPropertyOp19
 70
     1
102
RTVSPropertyOp20
 70
     1
102
RTVSPropertyOp21
 70
     1
102
RTVSPropertyOp22
 70
     1
102
RTVSPropertyOp23
 70
     1
102
RTVSPropertyOp24
 70
     1
102
RTVSPropertyOp25
 70
     1
102
RTVSPropertyOp26
 70
     1
102
RTVSPropertyOp27
 70
     1
102
RTVSPropertyOp28
 70
     1
102
RTVSPropertyOp29
 70
     1
102
RTVSPropertyOp30
 70
     1
102
RTVSPropertyOp31
 70
     1
102
RTVSPropertyOp32
 70
     1
102
RTVSPropertyOp33
 70
     1
102
RTVSPropertyOp34
 70
     1
102
RTVSPropertyOp35
 70
     1
102
RTVSPropertyOp36
 70
     1
102
RTVSPropertyOp37
 70
     1
102
RTVSPropertyOp38
 70
     1
102
RTVSPropertyOp39
 70
     1
102
RTVSPropertyOp40
 70
     1
102
RTVSPropertyOp41
 70
     1
102
RTVSPropertyOp42
 70
     1
102
RTVSPropertyOp43
 70
     1
102
RTVSPropertyOp44
 70
     1
102
RTVSPropertyOp45
 70
     1
102
RTVSPropertyOp46
 70
     1
102
RTVSPropertyOp47
 70
     1
102
RTVSPropertyOp48
 70
     1
102
RTVSPropertyOp49
 70
     1
102
RTVSPropertyOp50
 70
     1
102
RTVSPropertyOp51
 70
     0
102
RTVSPropertyOp52
 70
     0
102
RTVSPropertyOp53
 70
     1
102
RTVSPropertyOp54
 70
     1
102
RTVSPropertyOp55
 70
     1
102
RTVSPropertyOp56
 70
     1
102
RTVSPropertyOp57
 70
     1
102
RTVSPost2010Prop28
280
     0
102
RTVSPost2010PropOp28
 70
     1
102
RTVSPost2010Prop29
280
     1
102
RTVSPost2010PropOp29
 70
     1
102
RTVSPost2010Prop30
280
     1
102
RTVSPost2010PropOp30
 70
     1
102
RTVSPost2010Prop31
280
     0
102
RTVSPost2010PropOp31
 70
     1
102
RTVSPost2010Prop32
280
     0
102
RTVSPost2010PropOp32
 70
     1
102
RTVSPost2010Prop33
280
     0
102
RTVSPost2010PropOp33
 70
     1
102
RTVSPost2010Prop34
280
     0
102
RTVSPost2010PropOp34
 70
     1
102
RTVSPost2010Prop35
280
     0
102
RTVSPost2010PropOp35
 70
     1
102
RTVSPost2010Prop36
280
     0
102
RTVSPost2010PropOp36
 70
     1
102
RTVSPost2010Prop37
 90
       50
102
RTVSPost2010PropOp37
 70
     1
102
RTVSPost2010Prop38
140
0.0
102
RTVSPost2010PropOp38
 70
     1
102
RTVSPost2010Prop39
140
1.0
102
RTVSPost2010PropOp39
 70
     1
102
RTVSPost2010Prop40
 90
        0
102
RTVSPost2010PropOp40
 70
     1
102
RTVSPost2010Prop41ColorIndex
 90
       18
102
RTVSPost2010Prop41ColorRGB
 90
        0
102
RTVSPost2010PropOp41
 70
     1
102
RTVSPost2010Prop42
 90
       50
102
RTVSPost2010PropOp42
 70
     1
102
RTVSPost2010Prop43
 90
        3
102
RTVSPost2010PropOp43
 70
     1
102
RTVSPost2010Prop44ColorIndex
 90
        5
102
RTVSPost2010Prop44ColorRGB
 90
      255
102
RTVSPost2010PropOp44
 70
     1
102
RTVSPost2010Prop45
280
     0
102
RTVSPost2010PropOp45
 70
     1
102
RTVSPost2010Prop46
 90
       50
102
RTVSPost2010PropOp46
 70
     1
102
RTVSPost2010Prop47
 90
       50
102
RTVSPost2010PropOp47
 70
     1
102
RTVSPost2010Prop48
 90
       50
102
RTVSPost2010PropOp48
 70
     1
102
RTVSPost2010Prop49
280
     0
102
RTVSPost2010PropOp49
 70
     1
102
RTVSPost2010Prop50
 90
       50
102
RTVSPost2010PropOp50
 70
     1
102
RTVSPost2010Prop51ColorIndex
 90
      256
102
RTVSPost2010Prop51ColorRGB
 90
-16777216
102
RTVSPost2010PropOp51
 70
     0
102
RTVSPost2010Prop52
140
1.0
102
RTVSPost2010PropOp52
 70
     0
102
RTVSPost2010Prop53
 90
        2
102
RTVSPost2010PropOp53
 70
     1
102
RTVSPost2010Prop54
  1
strokes_ogs.tif
102
RTVSPost2010PropOp54
 70
     1
102
RTVSPost2010Prop55
280
     0
102
RTVSPost2010PropOp55
 70
     1
102
RTVSPost2010Prop56
140
1.0
102
RTVSPost2010PropOp56
 70
     1
102
RTVSPost2010Prop57
140
1.0
102
RTVSPost2010PropOp57
 70
     1
  0
XRECORD
  5
BE
102
{ACAD_REACTORS
330
BD
102
}
330
BD
100
AcDbXrecord
280
     1
102
RTVSPropertyOp0
 70
     1
102
RTVSPropertyOp1
 70
     1
102
RTVSPropertyOp2
 70
     1
102
RTVSPropertyOp3
 70
     1
102
RTVSPropertyOp4
 70
     1
102
RTVSPropertyOp5
 70
     1
102
RTVSPropertyOp6
 70
     1
102
RTVSPropertyOp7
 70
     1
102
RTVSPropertyOp8
 70
     1
102
RTVSPropertyOp9
 70
     1
102
RTVSPropertyOp10
 70
     1
102
RTVSPropertyOp11
 70
     1
102
RTVSPropertyOp12
 70
     1
102
RTVSPropertyOp13
 70
     1
102
RTVSPropertyOp14
 70
     1
102
RTVSPropertyOp15
 70
     1
102
RTVSPropertyOp16
 70
     1
102
RTVSPropertyOp17
 70
     1
102
RTVSPropertyOp18
 70
     1
102
RTVSPropertyOp19
 70
     1
102
RTVSPropertyOp20
 70
     1
102
RTVSPropertyOp21
 70
     1
102
RTVSPropertyOp22
 70
     1
102
RTVSPropertyOp23
 70
     1
102
RTVSPropertyOp24
 70
     1
102
RTVSPropertyOp25
 70
     1
102
RTVSPropertyOp26
 70
     1
102
RTVSPropertyOp27
 70
     1
102
RTVSPropertyOp28
 70
     1
102
RTVSPropertyOp29
 70
     1
102
RTVSPropertyOp30
 70
     1
102
RTVSPropertyOp31
 70
     1
102
RTVSPropertyOp32
 70
     1
102
RTVSPropertyOp33
 70
     1
102
RTVSPropertyOp34
 70
     1
102
RTVSPropertyOp35
 70
     1
102
RTVSPropertyOp36
 70
     1
102
RTVSPropertyOp37
 70
     1
102
RTVSPropertyOp38
 70
     1
102
RTVSPropertyOp39
 70
     1
102
RTVSPropertyOp40
 70
     1
102
RTVSPropertyOp41
 70
     1
102
RTVSPropertyOp42
 70
     1
102
RTVSPropertyOp43
 70
     1
102
RTVSPropertyOp44
 70
     1
102
RTVSPropertyOp45
 70
     1
102
RTVSPropertyOp46
 70
     1
102
RTVSPropertyOp47
 70
     1
102
RTVSPropertyOp48
 70
     1
102
RTVSPropertyOp49
 70
     1
102
RTVSPropertyOp50
 70
     1
102
RTVSPropertyOp51
 70
     0
102
RTVSPropertyOp52
 70
     0
102
RTVSPropertyOp53
 70
     1
102
RTVSPropertyOp54
 70
     1
102
RTVSPropertyOp55
 70
     1
102
RTVSPropertyOp56
 70
     1
102
RTVSPropertyOp57
 70
     1
102
RTVSPost2010Prop28
280
     0
102
RTVSPost2010PropOp28
 70
     1
102
RTVSPost2010Prop29
280
     1
102
RTVSPost2010PropOp29
 70
     1
102
RTVSPost2010Prop30
280
     1
102
RTVSPost2010PropOp30
 70
     1
102
RTVSPost2010Prop31
280
     0
102
RTVSPost2010PropOp31
 70
     1
102
RTVSPost2010Prop32
280
     0
102
RTVSPost2010PropOp32
 70
     1
102
RTVSPost2010Prop33
280
     0
102
RTVSPost2010PropOp33
 70
     1
102
RTVSPost2010Prop34
280
     0
102
RTVSPost2010PropOp34
 70
     1
102
RTVSPost2010Prop35
280
     0
102
RTVSPost2010PropOp35
 70
     1
102
RTVSPost2010Prop36
280
     0
102
RTVSPost2010PropOp36
 70
     1
102
RTVSPost2010Prop37
 90
       50
102
RTVSPost2010PropOp37
 70
     1
102
RTVSPost2010Prop38
140
0.0
102
RTVSPost2010PropOp38
 70
     1
102
RTVSPost2010Prop39
140
1.0
102
RTVSPost2010PropOp39
 70
     1
102
RTVSPost2010Prop40
 90
        0
102
RTVSPost2010PropOp40
 70
     1
102
RTVSPost2010Prop41ColorIndex
 90
       18
102
RTVSPost2010Prop41ColorRGB
 90
        0
102
RTVSPost2010PropOp41
 70
     1
102
RTVSPost2010Prop42
 90
       50
102
RTVSPost2010PropOp42
 70
     1
102
RTVSPost2010Prop43
 90
        3
102
RTVSPost2010PropOp43
 70
     1
102
RTVSPost2010Prop44ColorIndex
 90
        5
102
RTVSPost2010Prop44ColorRGB
 90
      255
102
RTVSPost2010PropOp44
 70
     1
102
RTVSPost2010Prop45
280
     0
102
RTVSPost2010PropOp45
 70
     1
102
RTVSPost2010Prop46
 90
       50
102
RTVSPost2010PropOp46
 70
     1
102
RTVSPost2010Prop47
 90
       50
102
RTVSPost2010PropOp47
 70
     1
102
RTVSPost2010Prop48
 90
       50
102
RTVSPost2010PropOp48
 70
     1
102
RTVSPost2010Prop49
280
     0
102
RTVSPost2010PropOp49
 70
     1
102
RTVSPost2010Prop50
 90
       50
102
RTVSPost2010PropOp50
 70
     1
102
RTVSPost2010Prop51ColorIndex
 90
      256
102
RTVSPost2010Prop51ColorRGB
 90
-16777216
102
RTVSPost2010PropOp51
 70
     0
102
RTVSPost2010Prop52
140
1.0
102
RTVSPost2010PropOp52
 70
     0
102
RTVSPost2010Prop53
 90
        2
102
RTVSPost2010PropOp53
 70
     1
102
RTVSPost2010Prop54
  1
strokes_ogs.tif
102
RTVSPost2010PropOp54
 70
     1
102
RTVSPost2010Prop55
280
     0
102
RTVSPost2010PropOp55
 70
     1
102
RTVSPost2010Prop56
140
1.0
102
RTVSPost2010PropOp56
 70
     1
102
RTVSPost2010Prop57
140
1.0
102
RTVSPost2010PropOp57
 70
     1
  0
XRECORD
  5
C6
102
{ACAD_REACTORS
330
C5
102
}
330
C5
100
AcDbXrecord
280
     1
102
RTVSPropertyOp0
 70
     1
102
RTVSPropertyOp1
 70
     1
102
RTVSPropertyOp2
 70
     1
102
RTVSPropertyOp3
 70
     1
102
RTVSPropertyOp4
 70
     1
102
RTVSPropertyOp5
 70
     1
102
RTVSPropertyOp6
 70
     1
102
RTVSPropertyOp7
 70
     1
102
RTVSPropertyOp8
 70
     1
102
RTVSPropertyOp9
 70
     1
102
RTVSPropertyOp10
 70
     1
102
RTVSPropertyOp11
 70
     1
102
RTVSPropertyOp12
 70
     1
102
RTVSPropertyOp13
 70
     1
102
RTVSPropertyOp14
 70
     1
102
RTVSPropertyOp15
 70
     1
102
RTVSPropertyOp16
 70
     1
102
RTVSPropertyOp17
 70
     1
102
RTVSPropertyOp18
 70
     1
102
RTVSPropertyOp19
 70
     1
102
RTVSPropertyOp20
 70
     1
102
RTVSPropertyOp21
 70
     1
102
RTVSPropertyOp22
 70
     1
102
RTVSPropertyOp23
 70
     1
102
RTVSPropertyOp24
 70
     1
102
RTVSPropertyOp25
 70
     1
102
RTVSPropertyOp26
 70
     1
102
RTVSPropertyOp27
 70
     1
102
RTVSPropertyOp28
 70
     1
102
RTVSPropertyOp29
 70
     1
102
RTVSPropertyOp30
 70
     1
102
RTVSPropertyOp31
 70
     1
102
RTVSPropertyOp32
 70
     1
102
RTVSPropertyOp33
 70
     1
102
RTVSPropertyOp34
 70
     1
102
RTVSPropertyOp35
 70
     1
102
RTVSPropertyOp36
 70
     1
102
RTVSPropertyOp37
 70
     1
102
RTVSPropertyOp38
 70
     1
102
RTVSPropertyOp39
 70
     1
102
RTVSPropertyOp40
 70
     1
102
RTVSPropertyOp41
 70
     1
102
RTVSPropertyOp42
 70
     1
102
RTVSPropertyOp43
 70
     1
102
RTVSPropertyOp44
 70
     1
102
RTVSPropertyOp45
 70
     1
102
RTVSPropertyOp46
 70
     1
102
RTVSPropertyOp47
 70
     1
102
RTVSPropertyOp48
 70
     1
102
RTVSPropertyOp49
 70
     1
102
RTVSPropertyOp50
 70
     1
102
RTVSPropertyOp51
 70
     0
102
RTVSPropertyOp52
 70
     0
102
RTVSPropertyOp53
 70
     1
102
RTVSPropertyOp54
 70
     1
102
RTVSPropertyOp55
 70
     1
102
RTVSPropertyOp56
 70
     1
102
RTVSPropertyOp57
 70
     1
102
RTVSPost2010Prop28
280
     0
102
RTVSPost2010PropOp28
 70
     1
102
RTVSPost2010Prop29
280
     1
102
RTVSPost2010PropOp29
 70
     1
102
RTVSPost2010Prop30
280
     1
102
RTVSPost2010PropOp30
 70
     1
102
RTVSPost2010Prop31
280
     0
102
RTVSPost2010PropOp31
 70
     1
102
RTVSPost2010Prop32
280
     0
102
RTVSPost2010PropOp32
 70
     1
102
RTVSPost2010Prop33
280
     0
102
RTVSPost2010PropOp33
 70
     1
102
RTVSPost2010Prop34
280
     0
102
RTVSPost2010PropOp34
 70
     1
102
RTVSPost2010Prop35
280
     0
102
RTVSPost2010PropOp35
 70
     1
102
RTVSPost2010Prop36
280
     0
102
RTVSPost2010PropOp36
 70
     1
102
RTVSPost2010Prop37
 90
       50
102
RTVSPost2010PropOp37
 70
     1
102
RTVSPost2010Prop38
140
0.0
102
RTVSPost2010PropOp38
 70
     1
102
RTVSPost2010Prop39
140
1.0
102
RTVSPost2010PropOp39
 70
     1
102
RTVSPost2010Prop40
 90
        0
102
RTVSPost2010PropOp40
 70
     1
102
RTVSPost2010Prop41ColorIndex
 90
       18
102
RTVSPost2010Prop41ColorRGB
 90
        0
102
RTVSPost2010PropOp41
 70
     1
102
RTVSPost2010Prop42
 90
       50
102
RTVSPost2010PropOp42
 70
     1
102
RTVSPost2010Prop43
 90
        3
102
RTVSPost2010PropOp43
 70
     1
102
RTVSPost2010Prop44ColorIndex
 90
        5
102
RTVSPost2010Prop44ColorRGB
 90
      255
102
RTVSPost2010PropOp44
 70
     1
102
RTVSPost2010Prop45
280
     0
102
RTVSPost2010PropOp45
 70
     1
102
RTVSPost2010Prop46
 90
       50
102
RTVSPost2010PropOp46
 70
     1
102
RTVSPost2010Prop47
 90
       50
102
RTVSPost2010PropOp47
 70
     1
102
RTVSPost2010Prop48
 90
       50
102
RTVSPost2010PropOp48
 70
     1
102
RTVSPost2010Prop49
280
     0
102
RTVSPost2010PropOp49
 70
     1
102
RTVSPost2010Prop50
 90
       50
102
RTVSPost2010PropOp50
 70
     1
102
RTVSPost2010Prop51ColorIndex
 90
      256
102
RTVSPost2010Prop51ColorRGB
 90
-16777216
102
RTVSPost2010PropOp51
 70
     0
102
RTVSPost2010Prop52
140
1.0
102
RTVSPost2010PropOp52
 70
     0
102
RTVSPost2010Prop53
 90
        2
102
RTVSPost2010PropOp53
 70
     1
102
RTVSPost2010Prop54
  1
strokes_ogs.tif
102
RTVSPost2010PropOp54
 70
     1
102
RTVSPost2010Prop55
280
     0
102
RTVSPost2010PropOp55
 70
     1
102
RTVSPost2010Prop56
140
1.0
102
RTVSPost2010PropOp56
 70
     1
102
RTVSPost2010Prop57
140
1.0
102
RTVSPost2010PropOp57
 70
     1
  0
XRECORD
  5
BA
102
{ACAD_REACTORS
330
B9
102
}
330
B9
100
AcDbXrecord
280
     1
102
RTVSPropertyOp0
 70
     1
102
RTVSPropertyOp1
 70
     1
102
RTVSPropertyOp2
 70
     1
102
RTVSPropertyOp3
 70
     1
102
RTVSPropertyOp4
 70
     1
102
RTVSPropertyOp5
 70
     1
102
RTVSPropertyOp6
 70
     1
102
RTVSPropertyOp7
 70
     1
102
RTVSPropertyOp8
 70
     1
102
RTVSPropertyOp9
 70
     1
102
RTVSPropertyOp10
 70
     1
102
RTVSPropertyOp11
 70
     1
102
RTVSPropertyOp12
 70
     1
102
RTVSPropertyOp13
 70
     1
102
RTVSPropertyOp14
 70
     1
102
RTVSPropertyOp15
 70
     1
102
RTVSPropertyOp16
 70
     1
102
RTVSPropertyOp17
 70
     1
102
RTVSPropertyOp18
 70
     1
102
RTVSPropertyOp19
 70
     1
102
RTVSPropertyOp20
 70
     1
102
RTVSPropertyOp21
 70
     1
102
RTVSPropertyOp22
 70
     1
102
RTVSPropertyOp23
 70
     1
102
RTVSPropertyOp24
 70
     1
102
RTVSPropertyOp25
 70
     1
102
RTVSPropertyOp26
 70
     1
102
RTVSPropertyOp27
 70
     1
102
RTVSPropertyOp28
 70
     1
102
RTVSPropertyOp29
 70
     1
102
RTVSPropertyOp30
 70
     1
102
RTVSPropertyOp31
 70
     1
102
RTVSPropertyOp32
 70
     1
102
RTVSPropertyOp33
 70
     1
102
RTVSPropertyOp34
 70
     1
102
RTVSPropertyOp35
 70
     1
102
RTVSPropertyOp36
 70
     1
102
RTVSPropertyOp37
 70
     1
102
RTVSPropertyOp38
 70
     1
102
RTVSPropertyOp39
 70
     1
102
RTVSPropertyOp40
 70
     1
102
RTVSPropertyOp41
 70
     1
102
RTVSPropertyOp42
 70
     1
102
RTVSPropertyOp43
 70
     1
102
RTVSPropertyOp44
 70
     1
102
RTVSPropertyOp45
 70
     1
102
RTVSPropertyOp46
 70
     1
102
RTVSPropertyOp47
 70
     1
102
RTVSPropertyOp48
 70
     1
102
RTVSPropertyOp49
 70
     1
102
RTVSPropertyOp50
 70
     1
102
RTVSPropertyOp51
 70
     0
102
RTVSPropertyOp52
 70
     0
102
RTVSPropertyOp53
 70
     1
102
RTVSPropertyOp54
 70
     1
102
RTVSPropertyOp55
 70
     1
102
RTVSPropertyOp56
 70
     1
102
RTVSPropertyOp57
 70
     1
102
RTVSPost2010Prop28
280
     0
102
RTVSPost2010PropOp28
 70
     1
102
RTVSPost2010Prop29
280
     1
102
RTVSPost2010PropOp29
 70
     1
102
RTVSPost2010Prop30
280
     1
102
RTVSPost2010PropOp30
 70
     1
102
RTVSPost2010Prop31
280
     0
102
RTVSPost2010PropOp31
 70
     1
102
RTVSPost2010Prop32
280
     0
102
RTVSPost2010PropOp32
 70
     1
102
RTVSPost2010Prop33
280
     0
102
RTVSPost2010PropOp33
 70
     1
102
RTVSPost2010Prop34
280
     0
102
RTVSPost2010PropOp34
 70
     1
102
RTVSPost2010Prop35
280
     0
102
RTVSPost2010PropOp35
 70
     1
102
RTVSPost2010Prop36
280
     0
102
RTVSPost2010PropOp36
 70
     1
102
RTVSPost2010Prop37
 90
       50
102
RTVSPost2010PropOp37
 70
     1
102
RTVSPost2010Prop38
140
0.0
102
RTVSPost2010PropOp38
 70
     1
102
RTVSPost2010Prop39
140
1.0
102
RTVSPost2010PropOp39
 70
     1
102
RTVSPost2010Prop40
 90
        0
102
RTVSPost2010PropOp40
 70
     1
102
RTVSPost2010Prop41ColorIndex
 90
       18
102
RTVSPost2010Prop41ColorRGB
 90
        0
102
RTVSPost2010PropOp41
 70
     1
102
RTVSPost2010Prop42
 90
       50
102
RTVSPost2010PropOp42
 70
     1
102
RTVSPost2010Prop43
 90
        3
102
RTVSPost2010PropOp43
 70
     1
102
RTVSPost2010Prop44ColorIndex
 90
        5
102
RTVSPost2010Prop44ColorRGB
 90
      255
102
RTVSPost2010PropOp44
 70
     1
102
RTVSPost2010Prop45
280
     0
102
RTVSPost2010PropOp45
 70
     1
102
RTVSPost2010Prop46
 90
       50
102
RTVSPost2010PropOp46
 70
     1
102
RTVSPost2010Prop47
 90
       50
102
RTVSPost2010PropOp47
 70
     1
102
RTVSPost2010Prop48
 90
       50
102
RTVSPost2010PropOp48
 70
     1
102
RTVSPost2010Prop49
280
     0
102
RTVSPost2010PropOp49
 70
     1
102
RTVSPost2010Prop50
 90
       50
102
RTVSPost2010PropOp50
 70
     1
102
RTVSPost2010Prop51ColorIndex
 90
      256
102
RTVSPost2010Prop51ColorRGB
 90
-16777216
102
RTVSPost2010PropOp51
 70
     0
102
RTVSPost2010Prop52
140
1.0
102
RTVSPost2010PropOp52
 70
     0
102
RTVSPost2010Prop53
 90
        2
102
RTVSPost2010PropOp53
 70
     1
102
RTVSPost2010Prop54
  1
strokes_ogs.tif
102
RTVSPost2010PropOp54
 70
     1
102
RTVSPost2010Prop55
280
     0
102
RTVSPost2010PropOp55
 70
     1
102
RTVSPost2010Prop56
140
1.0
102
RTVSPost2010PropOp56
 70
     1
102
RTVSPost2010Prop57
140
1.0
102
RTVSPost2010PropOp57
 70
     1
  0
XRECORD
  5
BC
102
{ACAD_REACTORS
330
BB
102
}
330
BB
100
AcDbXrecord
280
     1
102
RTVSPropertyOp0
 70
     1
102
RTVSPropertyOp1
 70
     1
102
RTVSPropertyOp2
 70
     1
102
RTVSPropertyOp3
 70
     1
102
RTVSPropertyOp4
 70
     1
102
RTVSPropertyOp5
 70
     1
102
RTVSPropertyOp6
 70
     1
102
RTVSPropertyOp7
 70
     1
102
RTVSPropertyOp8
 70
     1
102
RTVSPropertyOp9
 70
     1
102
RTVSPropertyOp10
 70
     1
102
RTVSPropertyOp11
 70
     1
102
RTVSPropertyOp12
 70
     1
102
RTVSPropertyOp13
 70
     1
102
RTVSPropertyOp14
 70
     1
102
RTVSPropertyOp15
 70
     1
102
RTVSPropertyOp16
 70
     1
102
RTVSPropertyOp17
 70
     1
102
RTVSPropertyOp18
 70
     1
102
RTVSPropertyOp19
 70
     1
102
RTVSPropertyOp20
 70
     1
102
RTVSPropertyOp21
 70
     1
102
RTVSPropertyOp22
 70
     1
102
RTVSPropertyOp23
 70
     1
102
RTVSPropertyOp24
 70
     1
102
RTVSPropertyOp25
 70
     1
102
RTVSPropertyOp26
 70
     1
102
RTVSPropertyOp27
 70
     1
102
RTVSPropertyOp28
 70
     1
102
RTVSPropertyOp29
 70
     1
102
RTVSPropertyOp30
 70
     1
102
RTVSPropertyOp31
 70
     1
102
RTVSPropertyOp32
 70
     1
102
RTVSPropertyOp33
 70
     1
102
RTVSPropertyOp34
 70
     1
102
RTVSPropertyOp35
 70
     1
102
RTVSPropertyOp36
 70
     1
102
RTVSPropertyOp37
 70
     1
102
RTVSPropertyOp38
 70
     1
102
RTVSPropertyOp39
 70
     1
102
RTVSPropertyOp40
 70
     1
102
RTVSPropertyOp41
 70
     1
102
RTVSPropertyOp42
 70
     1
102
RTVSPropertyOp43
 70
     1
102
RTVSPropertyOp44
 70
     1
102
RTVSPropertyOp45
 70
     1
102
RTVSPropertyOp46
 70
     1
102
RTVSPropertyOp47
 70
     1
102
RTVSPropertyOp48
 70
     1
102
RTVSPropertyOp49
 70
     1
102
RTVSPropertyOp50
 70
     1
102
RTVSPropertyOp51
 70
     0
102
RTVSPropertyOp52
 70
     0
102
RTVSPropertyOp53
 70
     1
102
RTVSPropertyOp54
 70
     1
102
RTVSPropertyOp55
 70
     1
102
RTVSPropertyOp56
 70
     1
102
RTVSPropertyOp57
 70
     1
102
RTVSPost2010Prop28
280
     0
102
RTVSPost2010PropOp28
 70
     1
102
RTVSPost2010Prop29
280
     1
102
RTVSPost2010PropOp29
 70
     1
102
RTVSPost2010Prop30
280
     1
102
RTVSPost2010PropOp30
 70
     1
102
RTVSPost2010Prop31
280
     0
102
RTVSPost2010PropOp31
 70
     1
102
RTVSPost2010Prop32
280
     0
102
RTVSPost2010PropOp32
 70
     1
102
RTVSPost2010Prop33
280
     0
102
RTVSPost2010PropOp33
 70
     1
102
RTVSPost2010Prop34
280
     0
102
RTVSPost2010PropOp34
 70
     1
102
RTVSPost2010Prop35
280
     0
102
RTVSPost2010PropOp35
 70
     1
102
RTVSPost2010Prop36
280
     0
102
RTVSPost2010PropOp36
 70
     1
102
RTVSPost2010Prop37
 90
       50
102
RTVSPost2010PropOp37
 70
     1
102
RTVSPost2010Prop38
140
0.0
102
RTVSPost2010PropOp38
 70
     1
102
RTVSPost2010Prop39
140
1.0
102
RTVSPost2010PropOp39
 70
     1
102
RTVSPost2010Prop40
 90
        0
102
RTVSPost2010PropOp40
 70
     1
102
RTVSPost2010Prop41ColorIndex
 90
       18
102
RTVSPost2010Prop41ColorRGB
 90
        0
102
RTVSPost2010PropOp41
 70
     1
102
RTVSPost2010Prop42
 90
       50
102
RTVSPost2010PropOp42
 70
     1
102
RTVSPost2010Prop43
 90
        3
102
RTVSPost2010PropOp43
 70
     1
102
RTVSPost2010Prop44ColorIndex
 90
        5
102
RTVSPost2010Prop44ColorRGB
 90
      255
102
RTVSPost2010PropOp44
 70
     1
102
RTVSPost2010Prop45
280
     0
102
RTVSPost2010PropOp45
 70
     1
102
RTVSPost2010Prop46
 90
       50
102
RTVSPost2010PropOp46
 70
     1
102
RTVSPost2010Prop47
 90
       50
102
RTVSPost2010PropOp47
 70
     1
102
RTVSPost2010Prop48
 90
       50
102
RTVSPost2010PropOp48
 70
     1
102
RTVSPost2010Prop49
280
     0
102
RTVSPost2010PropOp49
 70
     1
102
RTVSPost2010Prop50
 90
       50
102
RTVSPost2010PropOp50
 70
     1
102
RTVSPost2010Prop51ColorIndex
 90
      256
102
RTVSPost2010Prop51ColorRGB
 90
-16777216
102
RTVSPost2010PropOp51
 70
     0
102
RTVSPost2010Prop52
140
1.0
102
RTVSPost2010PropOp52
 70
     0
102
RTVSPost2010Prop53
 90
        2
102
RTVSPost2010PropOp53
 70
     1
102
RTVSPost2010Prop54
  1
strokes_ogs.tif
102
RTVSPost2010PropOp54
 70
     1
102
RTVSPost2010Prop55
280
     0
102
RTVSPost2010PropOp55
 70
     1
102
RTVSPost2010Prop56
140
1.0
102
RTVSPost2010PropOp56
 70
     1
102
RTVSPost2010Prop57
140
1.0
102
RTVSPost2010PropOp57
 70
     1
  0
XRECORD
  5
CC
102
{ACAD_REACTORS
330
CB
102
}
330
CB
100
AcDbXrecord
280
     1
102
RTVSPropertyOp0
 70
     0
102
RTVSPropertyOp1
 70
     0
102
RTVSPropertyOp2
 70
     0
102
RTVSPropertyOp3
 70
     0
102
RTVSPropertyOp4
 70
     0
102
RTVSPropertyOp5
 70
     0
102
RTVSPropertyOp6
 70
     0
102
RTVSPropertyOp7
 70
     0
102
RTVSPropertyOp8
 70
     0
102
RTVSPropertyOp9
 70
     0
102
RTVSPropertyOp10
 70
     0
102
RTVSPropertyOp11
 70
     0
102
RTVSPropertyOp12
 70
     0
102
RTVSPropertyOp13
 70
     0
102
RTVSPropertyOp14
 70
     2
102
RTVSPropertyOp15
 70
     0
102
RTVSPropertyOp16
 70
     0
102
RTVSPropertyOp17
 70
     0
102
RTVSPropertyOp18
 70
     0
102
RTVSPropertyOp19
 70
     0
102
RTVSPropertyOp20
 70
     0
102
RTVSPropertyOp21
 70
     0
102
RTVSPropertyOp22
 70
     0
102
RTVSPropertyOp23
 70
     0
102
RTVSPropertyOp24
 70
     0
102
RTVSPropertyOp25
 70
     0
102
RTVSPropertyOp26
 70
     0
102
RTVSPropertyOp27
 70
     0
102
RTVSPropertyOp28
 70
     0
102
RTVSPropertyOp29
 70
     0
102
RTVSPropertyOp30
 70
     0
102
RTVSPropertyOp31
 70
     0
102
RTVSPropertyOp32
 70
     0
102
RTVSPropertyOp33
 70
     0
102
RTVSPropertyOp34
 70
     0
102
RTVSPropertyOp35
 70
     0
102
RTVSPropertyOp36
 70
     0
102
RTVSPropertyOp37
 70
     0
102
RTVSPropertyOp38
 70
     0
102
RTVSPropertyOp39
 70
     0
102
RTVSPropertyOp40
 70
     0
102
RTVSPropertyOp41
 70
     0
102
RTVSPropertyOp42
 70
     0
102
RTVSPropertyOp43
 70
     0
102
RTVSPropertyOp44
 70
     0
102
RTVSPropertyOp45
 70
     0
102
RTVSPropertyOp46
 70
     0
102
RTVSPropertyOp47
 70
     0
102
RTVSPropertyOp48
 70
     0
102
RTVSPropertyOp49
 70
     0
102
RTVSPropertyOp50
 70
     0
102
RTVSPropertyOp51
 70
     0
102
RTVSPropertyOp52
 70
     0
102
RTVSPropertyOp53
 70
     0
102
RTVSPropertyOp54
 70
     0
102
RTVSPropertyOp55
 70
     0
102
RTVSPropertyOp56
 70
     0
102
RTVSPropertyOp57
 70
     0
102
RTVSPost2010Prop28
280
     0
102
RTVSPost2010PropOp28
 70
     0
102
RTVSPost2010Prop29
280
     1
102
RTVSPost2010PropOp29
 70
     0
102
RTVSPost2010Prop30
280
     1
102
RTVSPost2010PropOp30
 70
     0
102
RTVSPost2010Prop31
280
     0
102
RTVSPost2010PropOp31
 70
     0
102
RTVSPost2010Prop32
280
     0
102
RTVSPost2010PropOp32
 70
     0
102
RTVSPost2010Prop33
280
     0
102
RTVSPost2010PropOp33
 70
     0
102
RTVSPost2010Prop34
280
     0
102
RTVSPost2010PropOp34
 70
     0
102
RTVSPost2010Prop35
280
     0
102
RTVSPost2010PropOp35
 70
     0
102
RTVSPost2010Prop36
280
     0
102
RTVSPost2010PropOp36
 70
     0
102
RTVSPost2010Prop37
 90
       50
102
RTVSPost2010PropOp37
 70
     0
102
RTVSPost2010Prop38
140
0.0
102
RTVSPost2010PropOp38
 70
     0
102
RTVSPost2010Prop39
140
1.0
102
RTVSPost2010PropOp39
 70
     0
102
RTVSPost2010Prop40
 90
        0
102
RTVSPost2010PropOp40
 70
     0
102
RTVSPost2010Prop41ColorIndex
 90
       18
102
RTVSPost2010Prop41ColorRGB
 90
        0
102
RTVSPost2010PropOp41
 70
     0
102
RTVSPost2010Prop42
 90
       50
102
RTVSPost2010PropOp42
 70
     0
102
RTVSPost2010Prop43
 90
        3
102
RTVSPost2010PropOp43
 70
     0
102
RTVSPost2010Prop44ColorIndex
 90
        5
102
RTVSPost2010Prop44ColorRGB
 90
      255
102
RTVSPost2010PropOp44
 70
     0
102
RTVSPost2010Prop45
280
     0
102
RTVSPost2010PropOp45
 70
     0
102
RTVSPost2010Prop46
 90
       50
102
RTVSPost2010PropOp46
 70
     0
102
RTVSPost2010Prop47
 90
       50
102
RTVSPost2010PropOp47
 70
     0
102
RTVSPost2010Prop48
 90
       50
102
RTVSPost2010PropOp48
 70
     0
102
RTVSPost2010Prop49
280
     0
102
RTVSPost2010PropOp49
 70
     0
102
RTVSPost2010Prop50
 90
       50
102
RTVSPost2010PropOp50
 70
     0
102
RTVSPost2010Prop51ColorIndex
 90
      256
102
RTVSPost2010Prop51ColorRGB
 90
-16777216
102
RTVSPost2010PropOp51
 70
     0
102
RTVSPost2010Prop52
140
1.0
102
RTVSPost2010PropOp52
 70
     0
102
RTVSPost2010Prop53
 90
        2
102
RTVSPost2010PropOp53
 70
     0
102
RTVSPost2010Prop54
  1
strokes_ogs.tif
102
RTVSPost2010PropOp54
 70
     0
102
RTVSPost2010Prop55
280
     0
102
RTVSPost2010PropOp55
 70
     0
102
RTVSPost2010Prop56
140
1.0
102
RTVSPost2010PropOp56
 70
     0
102
RTVSPost2010Prop57
140
1.0
102
RTVSPost2010PropOp57
 70
     0
  0
XRECORD
  5
C4
102
{ACAD_REACTORS
330
C3
102
}
330
C3
100
AcDbXrecord
280
     1
102
RTVSPropertyOp0
 70
     1
102
RTVSPropertyOp1
 70
     1
102
RTVSPropertyOp2
 70
     1
102
RTVSPropertyOp3
 70
     1
102
RTVSPropertyOp4
 70
     1
102
RTVSPropertyOp5
 70
     1
102
RTVSPropertyOp6
 70
     1
102
RTVSPropertyOp7
 70
     1
102
RTVSPropertyOp8
 70
     1
102
RTVSPropertyOp9
 70
     1
102
RTVSPropertyOp10
 70
     1
102
RTVSPropertyOp11
 70
     1
102
RTVSPropertyOp12
 70
     1
102
RTVSPropertyOp13
 70
     1
102
RTVSPropertyOp14
 70
     1
102
RTVSPropertyOp15
 70
     1
102
RTVSPropertyOp16
 70
     1
102
RTVSPropertyOp17
 70
     1
102
RTVSPropertyOp18
 70
     1
102
RTVSPropertyOp19
 70
     1
102
RTVSPropertyOp20
 70
     1
102
RTVSPropertyOp21
 70
     1
102
RTVSPropertyOp22
 70
     1
102
RTVSPropertyOp23
 70
     1
102
RTVSPropertyOp24
 70
     1
102
RTVSPropertyOp25
 70
     1
102
RTVSPropertyOp26
 70
     1
102
RTVSPropertyOp27
 70
     1
102
RTVSPropertyOp28
 70
     1
102
RTVSPropertyOp29
 70
     1
102
RTVSPropertyOp30
 70
     1
102
RTVSPropertyOp31
 70
     1
102
RTVSPropertyOp32
 70
     1
102
RTVSPropertyOp33
 70
     1
102
RTVSPropertyOp34
 70
     1
102
RTVSPropertyOp35
 70
     1
102
RTVSPropertyOp36
 70
     1
102
RTVSPropertyOp37
 70
     1
102
RTVSPropertyOp38
 70
     1
102
RTVSPropertyOp39
 70
     1
102
RTVSPropertyOp40
 70
     1
102
RTVSPropertyOp41
 70
     1
102
RTVSPropertyOp42
 70
     1
102
RTVSPropertyOp43
 70
     1
102
RTVSPropertyOp44
 70
     1
102
RTVSPropertyOp45
 70
     1
102
RTVSPropertyOp46
 70
     1
102
RTVSPropertyOp47
 70
     1
102
RTVSPropertyOp48
 70
     1
102
RTVSPropertyOp49
 70
     1
102
RTVSPropertyOp50
 70
     1
102
RTVSPropertyOp51
 70
     0
102
RTVSPropertyOp52
 70
     0
102
RTVSPropertyOp53
 70
     1
102
RTVSPropertyOp54
 70
     1
102
RTVSPropertyOp55
 70
     1
102
RTVSPropertyOp56
 70
     1
102
RTVSPropertyOp57
 70
     1
102
RTVSPost2010Prop28
280
     0
102
RTVSPost2010PropOp28
 70
     1
102
RTVSPost2010Prop29
280
     1
102
RTVSPost2010PropOp29
 70
     1
102
RTVSPost2010Prop30
280
     1
102
RTVSPost2010PropOp30
 70
     1
102
RTVSPost2010Prop31
280
     0
102
RTVSPost2010PropOp31
 70
     1
102
RTVSPost2010Prop32
280
     0
102
RTVSPost2010PropOp32
 70
     1
102
RTVSPost2010Prop33
280
     0
102
RTVSPost2010PropOp33
 70
     1
102
RTVSPost2010Prop34
280
     0
102
RTVSPost2010PropOp34
 70
     1
102
RTVSPost2010Prop35
280
     0
102
RTVSPost2010PropOp35
 70
     1
102
RTVSPost2010Prop36
280
     0
102
RTVSPost2010PropOp36
 70
     1
102
RTVSPost2010Prop37
 90
       50
102
RTVSPost2010PropOp37
 70
     1
102
RTVSPost2010Prop38
140
0.0
102
RTVSPost2010PropOp38
 70
     1
102
RTVSPost2010Prop39
140
1.0
102
RTVSPost2010PropOp39
 70
     1
102
RTVSPost2010Prop40
 90
        0
102
RTVSPost2010PropOp40
 70
     1
102
RTVSPost2010Prop41ColorIndex
 90
       18
102
RTVSPost2010Prop41ColorRGB
 90
        0
102
RTVSPost2010PropOp41
 70
     1
102
RTVSPost2010Prop42
 90
       50
102
RTVSPost2010PropOp42
 70
     1
102
RTVSPost2010Prop43
 90
        3
102
RTVSPost2010PropOp43
 70
     1
102
RTVSPost2010Prop44ColorIndex
 90
        5
102
RTVSPost2010Prop44ColorRGB
 90
      255
102
RTVSPost2010PropOp44
 70
     1
102
RTVSPost2010Prop45
280
     0
102
RTVSPost2010PropOp45
 70
     1
102
RTVSPost2010Prop46
 90
       50
102
RTVSPost2010PropOp46
 70
     1
102
RTVSPost2010Prop47
 90
       50
102
RTVSPost2010PropOp47
 70
     1
102
RTVSPost2010Prop48
 90
       50
102
RTVSPost2010PropOp48
 70
     1
102
RTVSPost2010Prop49
280
     0
102
RTVSPost2010PropOp49
 70
     1
102
RTVSPost2010Prop50
 90
       50
102
RTVSPost2010PropOp50
 70
     1
102
RTVSPost2010Prop51ColorIndex
 90
      256
102
RTVSPost2010Prop51ColorRGB
 90
-16777216
102
RTVSPost2010PropOp51
 70
     0
102
RTVSPost2010Prop52
140
1.0
102
RTVSPost2010PropOp52
 70
     0
102
RTVSPost2010Prop53
 90
        2
102
RTVSPost2010PropOp53
 70
     1
102
RTVSPost2010Prop54
  1
strokes_ogs.tif
102
RTVSPost2010PropOp54
 70
     1
102
RTVSPost2010Prop55
280
     0
102
RTVSPost2010PropOp55
 70
     1
102
RTVSPost2010Prop56
140
1.0
102
RTVSPost2010PropOp56
 70
     1
102
RTVSPost2010Prop57
140
1.0
102
RTVSPost2010PropOp57
 70
     1
  0
XRECORD
  5
A8
102
{ACAD_REACTORS
330
A7
102
}
330
A7
100
AcDbXrecord
280
     1
102
RTVSPropertyOp0
 70
     1
102
RTVSPropertyOp1
 70
     1
102
RTVSPropertyOp2
 70
     1
102
RTVSPropertyOp3
 70
     1
102
RTVSPropertyOp4
 70
     1
102
RTVSPropertyOp5
 70
     1
102
RTVSPropertyOp6
 70
     1
102
RTVSPropertyOp7
 70
     1
102
RTVSPropertyOp8
 70
     1
102
RTVSPropertyOp9
 70
     1
102
RTVSPropertyOp10
 70
     1
102
RTVSPropertyOp11
 70
     1
102
RTVSPropertyOp12
 70
     1
102
RTVSPropertyOp13
 70
     1
102
RTVSPropertyOp14
 70
     1
102
RTVSPropertyOp15
 70
     1
102
RTVSPropertyOp16
 70
     1
102
RTVSPropertyOp17
 70
     1
102
RTVSPropertyOp18
 70
     1
102
RTVSPropertyOp19
 70
     1
102
RTVSPropertyOp20
 70
     1
102
RTVSPropertyOp21
 70
     1
102
RTVSPropertyOp22
 70
     1
102
RTVSPropertyOp23
 70
     1
102
RTVSPropertyOp24
 70
     1
102
RTVSPropertyOp25
 70
     1
102
RTVSPropertyOp26
 70
     1
102
RTVSPropertyOp27
 70
     1
102
RTVSPropertyOp28
 70
     1
102
RTVSPropertyOp29
 70
     1
102
RTVSPropertyOp30
 70
     1
102
RTVSPropertyOp31
 70
     1
102
RTVSPropertyOp32
 70
     1
102
RTVSPropertyOp33
 70
     1
102
RTVSPropertyOp34
 70
     1
102
RTVSPropertyOp35
 70
     1
102
RTVSPropertyOp36
 70
     1
102
RTVSPropertyOp37
 70
     1
102
RTVSPropertyOp38
 70
     1
102
RTVSPropertyOp39
 70
     1
102
RTVSPropertyOp40
 70
     1
102
RTVSPropertyOp41
 70
     1
102
RTVSPropertyOp42
 70
     1
102
RTVSPropertyOp43
 70
     1
102
RTVSPropertyOp44
 70
     1
102
RTVSPropertyOp45
 70
     1
102
RTVSPropertyOp46
 70
     1
102
RTVSPropertyOp47
 70
     1
102
RTVSPropertyOp48
 70
     1
102
RTVSPropertyOp49
 70
     1
102
RTVSPropertyOp50
 70
     1
102
RTVSPropertyOp51
 70
     0
102
RTVSPropertyOp52
 70
     0
102
RTVSPropertyOp53
 70
     1
102
RTVSPropertyOp54
 70
     1
102
RTVSPropertyOp55
 70
     1
102
RTVSPropertyOp56
 70
     1
102
RTVSPropertyOp57
 70
     1
102
RTVSPost2010Prop28
280
     0
102
RTVSPost2010PropOp28
 70
     1
102
RTVSPost2010Prop29
280
     1
102
RTVSPost2010PropOp29
 70
     1
102
RTVSPost2010Prop30
280
     1
102
RTVSPost2010PropOp30
 70
     1
102
RTVSPost2010Prop31
280
     0
102
RTVSPost2010PropOp31
 70
     1
102
RTVSPost2010Prop32
280
     0
102
RTVSPost2010PropOp32
 70
     1
102
RTVSPost2010Prop33
280
     0
102
RTVSPost2010PropOp33
 70
     1
102
RTVSPost2010Prop34
280
     0
102
RTVSPost2010PropOp34
 70
     1
102
RTVSPost2010Prop35
280
     0
102
RTVSPost2010PropOp35
 70
     1
102
RTVSPost2010Prop36
280
     0
102
RTVSPost2010PropOp36
 70
     1
102
RTVSPost2010Prop37
 90
       50
102
RTVSPost2010PropOp37
 70
     1
102
RTVSPost2010Prop38
140
0.0
102
RTVSPost2010PropOp38
 70
     1
102
RTVSPost2010Prop39
140
1.0
102
RTVSPost2010PropOp39
 70
     1
102
RTVSPost2010Prop40
 90
        0
102
RTVSPost2010PropOp40
 70
     1
102
RTVSPost2010Prop41ColorIndex
 90
       18
102
RTVSPost2010Prop41ColorRGB
 90
        0
102
RTVSPost2010PropOp41
 70
     1
102
RTVSPost2010Prop42
 90
       50
102
RTVSPost2010PropOp42
 70
     1
102
RTVSPost2010Prop43
 90
        3
102
RTVSPost2010PropOp43
 70
     1
102
RTVSPost2010Prop44ColorIndex
 90
        5
102
RTVSPost2010Prop44ColorRGB
 90
      255
102
RTVSPost2010PropOp44
 70
     1
102
RTVSPost2010Prop45
280
     0
102
RTVSPost2010PropOp45
 70
     1
102
RTVSPost2010Prop46
 90
       50
102
RTVSPost2010PropOp46
 70
     1
102
RTVSPost2010Prop47
 90
       50
102
RTVSPost2010PropOp47
 70
     1
102
RTVSPost2010Prop48
 90
       50
102
RTVSPost2010PropOp48
 70
     1
102
RTVSPost2010Prop49
280
     0
102
RTVSPost2010PropOp49
 70
     1
102
RTVSPost2010Prop50
 90
       50
102
RTVSPost2010PropOp50
 70
     1
102
RTVSPost2010Prop51ColorIndex
 90
      256
102
RTVSPost2010Prop51ColorRGB
 90
-16777216
102
RTVSPost2010PropOp51
 70
     0
102
RTVSPost2010Prop52
140
1.0
102
RTVSPost2010PropOp52
 70
     0
102
RTVSPost2010Prop53
 90
        2
102
RTVSPost2010PropOp53
 70
     1
102
RTVSPost2010Prop54
  1
strokes_ogs.tif
102
RTVSPost2010PropOp54
 70
     1
102
RTVSPost2010Prop55
280
     0
102
RTVSPost2010PropOp55
 70
     1
102
RTVSPost2010Prop56
140
1.0
102
RTVSPost2010PropOp56
 70
     1
102
RTVSPost2010Prop57
140
1.0
102
RTVSPost2010PropOp57
 70
     1
  0
XRECORD
  5
AA
102
{ACAD_REACTORS
330
A9
102
}
330
A9
100
AcDbXrecord
280
     1
102
RTVSPropertyOp0
 70
     1
102
RTVSPropertyOp1
 70
     1
102
RTVSPropertyOp2
 70
     1
102
RTVSPropertyOp3
 70
     1
102
RTVSPropertyOp4
 70
     1
102
RTVSPropertyOp5
 70
     1
102
RTVSPropertyOp6
 70
     1
102
RTVSPropertyOp7
 70
     1
102
RTVSPropertyOp8
 70
     1
102
RTVSPropertyOp9
 70
     1
102
RTVSPropertyOp10
 70
     1
102
RTVSPropertyOp11
 70
     1
102
RTVSPropertyOp12
 70
     1
102
RTVSPropertyOp13
 70
     1
102
RTVSPropertyOp14
 70
     1
102
RTVSPropertyOp15
 70
     1
102
RTVSPropertyOp16
 70
     1
102
RTVSPropertyOp17
 70
     1
102
RTVSPropertyOp18
 70
     1
102
RTVSPropertyOp19
 70
     1
102
RTVSPropertyOp20
 70
     1
102
RTVSPropertyOp21
 70
     1
102
RTVSPropertyOp22
 70
     1
102
RTVSPropertyOp23
 70
     1
102
RTVSPropertyOp24
 70
     1
102
RTVSPropertyOp25
 70
     1
102
RTVSPropertyOp26
 70
     1
102
RTVSPropertyOp27
 70
     1
102
RTVSPropertyOp28
 70
     1
102
RTVSPropertyOp29
 70
     1
102
RTVSPropertyOp30
 70
     1
102
RTVSPropertyOp31
 70
     1
102
RTVSPropertyOp32
 70
     1
102
RTVSPropertyOp33
 70
     1
102
RTVSPropertyOp34
 70
     1
102
RTVSPropertyOp35
 70
     1
102
RTVSPropertyOp36
 70
     1
102
RTVSPropertyOp37
 70
     1
102
RTVSPropertyOp38
 70
     1
102
RTVSPropertyOp39
 70
     1
102
RTVSPropertyOp40
 70
     1
102
RTVSPropertyOp41
 70
     1
102
RTVSPropertyOp42
 70
     1
102
RTVSPropertyOp43
 70
     1
102
RTVSPropertyOp44
 70
     1
102
RTVSPropertyOp45
 70
     1
102
RTVSPropertyOp46
 70
     1
102
RTVSPropertyOp47
 70
     1
102
RTVSPropertyOp48
 70
     1
102
RTVSPropertyOp49
 70
     1
102
RTVSPropertyOp50
 70
     1
102
RTVSPropertyOp51
 70
     0
102
RTVSPropertyOp52
 70
     0
102
RTVSPropertyOp53
 70
     1
102
RTVSPropertyOp54
 70
     1
102
RTVSPropertyOp55
 70
     1
102
RTVSPropertyOp56
 70
     1
102
RTVSPropertyOp57
 70
     1
102
RTVSPost2010Prop28
280
     0
102
RTVSPost2010PropOp28
 70
     1
102
RTVSPost2010Prop29
280
     1
102
RTVSPost2010PropOp29
 70
     1
102
RTVSPost2010Prop30
280
     1
102
RTVSPost2010PropOp30
 70
     1
102
RTVSPost2010Prop31
280
     0
102
RTVSPost2010PropOp31
 70
     1
102
RTVSPost2010Prop32
280
     0
102
RTVSPost2010PropOp32
 70
     1
102
RTVSPost2010Prop33
280
     0
102
RTVSPost2010PropOp33
 70
     1
102
RTVSPost2010Prop34
280
     0
102
RTVSPost2010PropOp34
 70
     1
102
RTVSPost2010Prop35
280
     0
102
RTVSPost2010PropOp35
 70
     1
102
RTVSPost2010Prop36
280
     0
102
RTVSPost2010PropOp36
 70
     1
102
RTVSPost2010Prop37
 90
       50
102
RTVSPost2010PropOp37
 70
     1
102
RTVSPost2010Prop38
140
0.0
102
RTVSPost2010PropOp38
 70
     1
102
RTVSPost2010Prop39
140
1.0
102
RTVSPost2010PropOp39
 70
     1
102
RTVSPost2010Prop40
 90
        0
102
RTVSPost2010PropOp40
 70
     1
102
RTVSPost2010Prop41ColorIndex
 90
       18
102
RTVSPost2010Prop41ColorRGB
 90
        0
102
RTVSPost2010PropOp41
 70
     1
102
RTVSPost2010Prop42
 90
       50
102
RTVSPost2010PropOp42
 70
     1
102
RTVSPost2010Prop43
 90
        3
102
RTVSPost2010PropOp43
 70
     1
102
RTVSPost2010Prop44ColorIndex
 90
        5
102
RTVSPost2010Prop44ColorRGB
 90
      255
102
RTVSPost2010PropOp44
 70
     1
102
RTVSPost2010Prop45
280
     0
102
RTVSPost2010PropOp45
 70
     1
102
RTVSPost2010Prop46
 90
       50
102
RTVSPost2010PropOp46
 70
     1
102
RTVSPost2010Prop47
 90
       50
102
RTVSPost2010PropOp47
 70
     1
102
RTVSPost2010Prop48
 90
       50
102
RTVSPost2010PropOp48
 70
     1
102
RTVSPost2010Prop49
280
     0
102
RTVSPost2010PropOp49
 70
     1
102
RTVSPost2010Prop50
 90
       50
102
RTVSPost2010PropOp50
 70
     1
102
RTVSPost2010Prop51ColorIndex
 90
      256
102
RTVSPost2010Prop51ColorRGB
 90
-16777216
102
RTVSPost2010PropOp51
 70
     0
102
RTVSPost2010Prop52
140
1.0
102
RTVSPost2010PropOp52
 70
     0
102
RTVSPost2010Prop53
 90
        2
102
RTVSPost2010PropOp53
 70
     1
102
RTVSPost2010Prop54
  1
strokes_ogs.tif
102
RTVSPost2010PropOp54
 70
     1
102
RTVSPost2010Prop55
280
     0
102
RTVSPost2010PropOp55
 70
     1
102
RTVSPost2010Prop56
140
1.0
102
RTVSPost2010PropOp56
 70
     1
102
RTVSPost2010Prop57
140
1.0
102
RTVSPost2010PropOp57
 70
     1
  0
XRECORD
  5
AC
102
{ACAD_REACTORS
330
AB
102
}
330
AB
100
AcDbXrecord
280
     1
102
RTVSPropertyOp0
 70
     1
102
RTVSPropertyOp1
 70
     1
102
RTVSPropertyOp2
 70
     1
102
RTVSPropertyOp3
 70
     1
102
RTVSPropertyOp4
 70
     1
102
RTVSPropertyOp5
 70
     1
102
RTVSPropertyOp6
 70
     1
102
RTVSPropertyOp7
 70
     1
102
RTVSPropertyOp8
 70
     1
102
RTVSPropertyOp9
 70
     1
102
RTVSPropertyOp10
 70
     1
102
RTVSPropertyOp11
 70
     1
102
RTVSPropertyOp12
 70
     1
102
RTVSPropertyOp13
 70
     1
102
RTVSPropertyOp14
 70
     1
102
RTVSPropertyOp15
 70
     1
102
RTVSPropertyOp16
 70
     1
102
RTVSPropertyOp17
 70
     1
102
RTVSPropertyOp18
 70
     1
102
RTVSPropertyOp19
 70
     1
102
RTVSPropertyOp20
 70
     1
102
RTVSPropertyOp21
 70
     1
102
RTVSPropertyOp22
 70
     1
102
RTVSPropertyOp23
 70
     1
102
RTVSPropertyOp24
 70
     1
102
RTVSPropertyOp25
 70
     1
102
RTVSPropertyOp26
 70
     1
102
RTVSPropertyOp27
 70
     1
102
RTVSPropertyOp28
 70
     1
102
RTVSPropertyOp29
 70
     1
102
RTVSPropertyOp30
 70
     1
102
RTVSPropertyOp31
 70
     1
102
RTVSPropertyOp32
 70
     1
102
RTVSPropertyOp33
 70
     1
102
RTVSPropertyOp34
 70
     1
102
RTVSPropertyOp35
 70
     1
102
RTVSPropertyOp36
 70
     1
102
RTVSPropertyOp37
 70
     1
102
RTVSPropertyOp38
 70
     1
102
RTVSPropertyOp39
 70
     1
102
RTVSPropertyOp40
 70
     1
102
RTVSPropertyOp41
 70
     1
102
RTVSPropertyOp42
 70
     1
102
RTVSPropertyOp43
 70
     1
102
RTVSPropertyOp44
 70
     1
102
RTVSPropertyOp45
 70
     1
102
RTVSPropertyOp46
 70
     1
102
RTVSPropertyOp47
 70
     1
102
RTVSPropertyOp48
 70
     1
102
RTVSPropertyOp49
 70
     1
102
RTVSPropertyOp50
 70
     1
102
RTVSPropertyOp51
 70
     0
102
RTVSPropertyOp52
 70
     0
102
RTVSPropertyOp53
 70
     1
102
RTVSPropertyOp54
 70
     1
102
RTVSPropertyOp55
 70
     1
102
RTVSPropertyOp56
 70
     1
102
RTVSPropertyOp57
 70
     1
102
RTVSPost2010Prop28
280
     0
102
RTVSPost2010PropOp28
 70
     1
102
RTVSPost2010Prop29
280
     1
102
RTVSPost2010PropOp29
 70
     1
102
RTVSPost2010Prop30
280
     1
102
RTVSPost2010PropOp30
 70
     1
102
RTVSPost2010Prop31
280
     0
102
RTVSPost2010PropOp31
 70
     1
102
RTVSPost2010Prop32
280
     0
102
RTVSPost2010PropOp32
 70
     1
102
RTVSPost2010Prop33
280
     0
102
RTVSPost2010PropOp33
 70
     1
102
RTVSPost2010Prop34
280
     0
102
RTVSPost2010PropOp34
 70
     1
102
RTVSPost2010Prop35
280
     0
102
RTVSPost2010PropOp35
 70
     1
102
RTVSPost2010Prop36
280
     0
102
RTVSPost2010PropOp36
 70
     1
102
RTVSPost2010Prop37
 90
       50
102
RTVSPost2010PropOp37
 70
     1
102
RTVSPost2010Prop38
140
0.0
102
RTVSPost2010PropOp38
 70
     1
102
RTVSPost2010Prop39
140
1.0
102
RTVSPost2010PropOp39
 70
     1
102
RTVSPost2010Prop40
 90
        0
102
RTVSPost2010PropOp40
 70
     1
102
RTVSPost2010Prop41ColorIndex
 90
       18
102
RTVSPost2010Prop41ColorRGB
 90
        0
102
RTVSPost2010PropOp41
 70
     1
102
RTVSPost2010Prop42
 90
       50
102
RTVSPost2010PropOp42
 70
     1
102
RTVSPost2010Prop43
 90
        3
102
RTVSPost2010PropOp43
 70
     1
102
RTVSPost2010Prop44ColorIndex
 90
        5
102
RTVSPost2010Prop44ColorRGB
 90
      255
102
RTVSPost2010PropOp44
 70
     1
102
RTVSPost2010Prop45
280
     0
102
RTVSPost2010PropOp45
 70
     1
102
RTVSPost2010Prop46
 90
       50
102
RTVSPost2010PropOp46
 70
     1
102
RTVSPost2010Prop47
 90
       50
102
RTVSPost2010PropOp47
 70
     1
102
RTVSPost2010Prop48
 90
       50
102
RTVSPost2010PropOp48
 70
     1
102
RTVSPost2010Prop49
280
     0
102
RTVSPost2010PropOp49
 70
     1
102
RTVSPost2010Prop50
 90
       50
102
RTVSPost2010PropOp50
 70
     1
102
RTVSPost2010Prop51ColorIndex
 90
      256
102
RTVSPost2010Prop51ColorRGB
 90
-16777216
102
RTVSPost2010PropOp51
 70
     0
102
RTVSPost2010Prop52
140
1.0
102
RTVSPost2010PropOp52
 70
     0
102
RTVSPost2010Prop53
 90
        2
102
RTVSPost2010PropOp53
 70
     1
102
RTVSPost2010Prop54
  1
strokes_ogs.tif
102
RTVSPost2010PropOp54
 70
     1
102
RTVSPost2010Prop55
280
     0
102
RTVSPost2010PropOp55
 70
     1
102
RTVSPost2010Prop56
140
1.0
102
RTVSPost2010PropOp56
 70
     1
102
RTVSPost2010Prop57
140
1.0
102
RTVSPost2010PropOp57
 70
     1
  0
XRECORD
  5
AE
102
{ACAD_REACTORS
330
AD
102
}
330
AD
100
AcDbXrecord
280
     1
102
RTVSPropertyOp0
 70
     1
102
RTVSPropertyOp1
 70
     1
102
RTVSPropertyOp2
 70
     1
102
RTVSPropertyOp3
 70
     1
102
RTVSPropertyOp4
 70
     1
102
RTVSPropertyOp5
 70
     1
102
RTVSPropertyOp6
 70
     1
102
RTVSPropertyOp7
 70
     1
102
RTVSPropertyOp8
 70
     1
102
RTVSPropertyOp9
 70
     1
102
RTVSPropertyOp10
 70
     1
102
RTVSPropertyOp11
 70
     1
102
RTVSPropertyOp12
 70
     1
102
RTVSPropertyOp13
 70
     1
102
RTVSPropertyOp14
 70
     1
102
RTVSPropertyOp15
 70
     1
102
RTVSPropertyOp16
 70
     1
102
RTVSPropertyOp17
 70
     1
102
RTVSPropertyOp18
 70
     1
102
RTVSPropertyOp19
 70
     1
102
RTVSPropertyOp20
 70
     1
102
RTVSPropertyOp21
 70
     1
102
RTVSPropertyOp22
 70
     1
102
RTVSPropertyOp23
 70
     1
102
RTVSPropertyOp24
 70
     1
102
RTVSPropertyOp25
 70
     1
102
RTVSPropertyOp26
 70
     1
102
RTVSPropertyOp27
 70
     1
102
RTVSPropertyOp28
 70
     1
102
RTVSPropertyOp29
 70
     1
102
RTVSPropertyOp30
 70
     1
102
RTVSPropertyOp31
 70
     1
102
RTVSPropertyOp32
 70
     1
102
RTVSPropertyOp33
 70
     1
102
RTVSPropertyOp34
 70
     1
102
RTVSPropertyOp35
 70
     1
102
RTVSPropertyOp36
 70
     1
102
RTVSPropertyOp37
 70
     1
102
RTVSPropertyOp38
 70
     1
102
RTVSPropertyOp39
 70
     1
102
RTVSPropertyOp40
 70
     1
102
RTVSPropertyOp41
 70
     1
102
RTVSPropertyOp42
 70
     1
102
RTVSPropertyOp43
 70
     1
102
RTVSPropertyOp44
 70
     1
102
RTVSPropertyOp45
 70
     1
102
RTVSPropertyOp46
 70
     1
102
RTVSPropertyOp47
 70
     1
102
RTVSPropertyOp48
 70
     1
102
RTVSPropertyOp49
 70
     1
102
RTVSPropertyOp50
 70
     1
102
RTVSPropertyOp51
 70
     0
102
RTVSPropertyOp52
 70
     0
102
RTVSPropertyOp53
 70
     1
102
RTVSPropertyOp54
 70
     1
102
RTVSPropertyOp55
 70
     1
102
RTVSPropertyOp56
 70
     1
102
RTVSPropertyOp57
 70
     1
102
RTVSPost2010Prop28
280
     0
102
RTVSPost2010PropOp28
 70
     1
102
RTVSPost2010Prop29
280
     1
102
RTVSPost2010PropOp29
 70
     1
102
RTVSPost2010Prop30
280
     1
102
RTVSPost2010PropOp30
 70
     1
102
RTVSPost2010Prop31
280
     0
102
RTVSPost2010PropOp31
 70
     1
102
RTVSPost2010Prop32
280
     0
102
RTVSPost2010PropOp32
 70
     1
102
RTVSPost2010Prop33
280
     0
102
RTVSPost2010PropOp33
 70
     1
102
RTVSPost2010Prop34
280
     0
102
RTVSPost2010PropOp34
 70
     1
102
RTVSPost2010Prop35
280
     0
102
RTVSPost2010PropOp35
 70
     1
102
RTVSPost2010Prop36
280
     0
102
RTVSPost2010PropOp36
 70
     1
102
RTVSPost2010Prop37
 90
       50
102
RTVSPost2010PropOp37
 70
     1
102
RTVSPost2010Prop38
140
0.0
102
RTVSPost2010PropOp38
 70
     1
102
RTVSPost2010Prop39
140
1.0
102
RTVSPost2010PropOp39
 70
     1
102
RTVSPost2010Prop40
 90
        0
102
RTVSPost2010PropOp40
 70
     1
102
RTVSPost2010Prop41ColorIndex
 90
       18
102
RTVSPost2010Prop41ColorRGB
 90
        0
102
RTVSPost2010PropOp41
 70
     1
102
RTVSPost2010Prop42
 90
       50
102
RTVSPost2010PropOp42
 70
     1
102
RTVSPost2010Prop43
 90
        3
102
RTVSPost2010PropOp43
 70
     1
102
RTVSPost2010Prop44ColorIndex
 90
        5
102
RTVSPost2010Prop44ColorRGB
 90
      255
102
RTVSPost2010PropOp44
 70
     1
102
RTVSPost2010Prop45
280
     0
102
RTVSPost2010PropOp45
 70
     1
102
RTVSPost2010Prop46
 90
       50
102
RTVSPost2010PropOp46
 70
     1
102
RTVSPost2010Prop47
 90
       50
102
RTVSPost2010PropOp47
 70
     1
102
RTVSPost2010Prop48
 90
       50
102
RTVSPost2010PropOp48
 70
     1
102
RTVSPost2010Prop49
280
     0
102
RTVSPost2010PropOp49
 70
     1
102
RTVSPost2010Prop50
 90
       50
102
RTVSPost2010PropOp50
 70
     1
102
RTVSPost2010Prop51ColorIndex
 90
      256
102
RTVSPost2010Prop51ColorRGB
 90
-16777216
102
RTVSPost2010PropOp51
 70
     0
102
RTVSPost2010Prop52
140
1.0
102
RTVSPost2010PropOp52
 70
     0
102
RTVSPost2010Prop53
 90
        2
102
RTVSPost2010PropOp53
 70
     1
102
RTVSPost2010Prop54
  1
strokes_ogs.tif
102
RTVSPost2010PropOp54
 70
     1
102
RTVSPost2010Prop55
280
     0
102
RTVSPost2010PropOp55
 70
     1
102
RTVSPost2010Prop56
140
1.0
102
RTVSPost2010PropOp56
 70
     1
102
RTVSPost2010Prop57
140
1.0
102
RTVSPost2010PropOp57
 70
     1
  0
XRECORD
  5
B4
102
{ACAD_REACTORS
330
B3
102
}
330
B3
100
AcDbXrecord
280
     1
102
RTVSPropertyOp0
 70
     1
102
RTVSPropertyOp1
 70
     1
102
RTVSPropertyOp2
 70
     1
102
RTVSPropertyOp3
 70
     1
102
RTVSPropertyOp4
 70
     1
102
RTVSPropertyOp5
 70
     1
102
RTVSPropertyOp6
 70
     1
102
RTVSPropertyOp7
 70
     1
102
RTVSPropertyOp8
 70
     1
102
RTVSPropertyOp9
 70
     1
102
RTVSPropertyOp10
 70
     1
102
RTVSPropertyOp11
 70
     1
102
RTVSPropertyOp12
 70
     1
102
RTVSPropertyOp13
 70
     1
102
RTVSPropertyOp14
 70
     1
102
RTVSPropertyOp15
 70
     1
102
RTVSPropertyOp16
 70
     1
102
RTVSPropertyOp17
 70
     1
102
RTVSPropertyOp18
 70
     1
102
RTVSPropertyOp19
 70
     1
102
RTVSPropertyOp20
 70
     1
102
RTVSPropertyOp21
 70
     1
102
RTVSPropertyOp22
 70
     1
102
RTVSPropertyOp23
 70
     1
102
RTVSPropertyOp24
 70
     1
102
RTVSPropertyOp25
 70
     1
102
RTVSPropertyOp26
 70
     1
102
RTVSPropertyOp27
 70
     1
102
RTVSPropertyOp28
 70
     1
102
RTVSPropertyOp29
 70
     1
102
RTVSPropertyOp30
 70
     1
102
RTVSPropertyOp31
 70
     1
102
RTVSPropertyOp32
 70
     1
102
RTVSPropertyOp33
 70
     1
102
RTVSPropertyOp34
 70
     1
102
RTVSPropertyOp35
 70
     1
102
RTVSPropertyOp36
 70
     1
102
RTVSPropertyOp37
 70
     1
102
RTVSPropertyOp38
 70
     1
102
RTVSPropertyOp39
 70
     1
102
RTVSPropertyOp40
 70
     1
102
RTVSPropertyOp41
 70
     1
102
RTVSPropertyOp42
 70
     1
102
RTVSPropertyOp43
 70
     1
102
RTVSPropertyOp44
 70
     1
102
RTVSPropertyOp45
 70
     1
102
RTVSPropertyOp46
 70
     1
102
RTVSPropertyOp47
 70
     1
102
RTVSPropertyOp48
 70
     1
102
RTVSPropertyOp49
 70
     1
102
RTVSPropertyOp50
 70
     1
102
RTVSPropertyOp51
 70
     0
102
RTVSPropertyOp52
 70
     0
102
RTVSPropertyOp53
 70
     1
102
RTVSPropertyOp54
 70
     1
102
RTVSPropertyOp55
 70
     1
102
RTVSPropertyOp56
 70
     1
102
RTVSPropertyOp57
 70
     1
102
RTVSPost2010Prop28
280
     0
102
RTVSPost2010PropOp28
 70
     1
102
RTVSPost2010Prop29
280
     1
102
RTVSPost2010PropOp29
 70
     1
102
RTVSPost2010Prop30
280
     1
102
RTVSPost2010PropOp30
 70
     1
102
RTVSPost2010Prop31
280
     0
102
RTVSPost2010PropOp31
 70
     1
102
RTVSPost2010Prop32
280
     0
102
RTVSPost2010PropOp32
 70
     1
102
RTVSPost2010Prop33
280
     0
102
RTVSPost2010PropOp33
 70
     1
102
RTVSPost2010Prop34
280
     0
102
RTVSPost2010PropOp34
 70
     1
102
RTVSPost2010Prop35
280
     0
102
RTVSPost2010PropOp35
 70
     1
102
RTVSPost2010Prop36
280
     0
102
RTVSPost2010PropOp36
 70
     1
102
RTVSPost2010Prop37
 90
       50
102
RTVSPost2010PropOp37
 70
     1
102
RTVSPost2010Prop38
140
0.0
102
RTVSPost2010PropOp38
 70
     1
102
RTVSPost2010Prop39
140
1.0
102
RTVSPost2010PropOp39
 70
     1
102
RTVSPost2010Prop40
 90
        0
102
RTVSPost2010PropOp40
 70
     1
102
RTVSPost2010Prop41ColorIndex
 90
       18
102
RTVSPost2010Prop41ColorRGB
 90
        0
102
RTVSPost2010PropOp41
 70
     1
102
RTVSPost2010Prop42
 90
       50
102
RTVSPost2010PropOp42
 70
     1
102
RTVSPost2010Prop43
 90
        3
102
RTVSPost2010PropOp43
 70
     1
102
RTVSPost2010Prop44ColorIndex
 90
        5
102
RTVSPost2010Prop44ColorRGB
 90
      255
102
RTVSPost2010PropOp44
 70
     1
102
RTVSPost2010Prop45
280
     0
102
RTVSPost2010PropOp45
 70
     1
102
RTVSPost2010Prop46
 90
       50
102
RTVSPost2010PropOp46
 70
     1
102
RTVSPost2010Prop47
 90
       50
102
RTVSPost2010PropOp47
 70
     1
102
RTVSPost2010Prop48
 90
       50
102
RTVSPost2010PropOp48
 70
     1
102
RTVSPost2010Prop49
280
     0
102
RTVSPost2010PropOp49
 70
     1
102
RTVSPost2010Prop50
 90
       50
102
RTVSPost2010PropOp50
 70
     1
102
RTVSPost2010Prop51ColorIndex
 90
      256
102
RTVSPost2010Prop51ColorRGB
 90
-16777216
102
RTVSPost2010PropOp51
 70
     0
102
RTVSPost2010Prop52
140
1.0
102
RTVSPost2010PropOp52
 70
     0
102
RTVSPost2010Prop53
 90
        2
102
RTVSPost2010PropOp53
 70
     1
102
RTVSPost2010Prop54
  1
strokes_ogs.tif
102
RTVSPost2010PropOp54
 70
     1
102
RTVSPost2010Prop55
280
     0
102
RTVSPost2010PropOp55
 70
     1
102
RTVSPost2010Prop56
140
1.0
102
RTVSPost2010PropOp56
 70
     1
102
RTVSPost2010Prop57
140
1.0
102
RTVSPost2010PropOp57
 70
     1
  0
XRECORD
  5
C8
102
{ACAD_REACTORS
330
C7
102
}
330
C7
100
AcDbXrecord
280
     1
102
RTVSPropertyOp0
 70
     0
102
RTVSPropertyOp1
 70
     0
102
RTVSPropertyOp2
 70
     0
102
RTVSPropertyOp3
 70
     0
102
RTVSPropertyOp4
 70
     0
102
RTVSPropertyOp5
 70
     0
102
RTVSPropertyOp6
 70
     0
102
RTVSPropertyOp7
 70
     0
102
RTVSPropertyOp8
 70
     0
102
RTVSPropertyOp9
 70
     0
102
RTVSPropertyOp10
 70
     0
102
RTVSPropertyOp11
 70
     0
102
RTVSPropertyOp12
 70
     0
102
RTVSPropertyOp13
 70
     0
102
RTVSPropertyOp14
 70
     2
102
RTVSPropertyOp15
 70
     0
102
RTVSPropertyOp16
 70
     0
102
RTVSPropertyOp17
 70
     0
102
RTVSPropertyOp18
 70
     0
102
RTVSPropertyOp19
 70
     0
102
RTVSPropertyOp20
 70
     0
102
RTVSPropertyOp21
 70
     0
102
RTVSPropertyOp22
 70
     0
102
RTVSPropertyOp23
 70
     0
102
RTVSPropertyOp24
 70
     0
102
RTVSPropertyOp25
 70
     0
102
RTVSPropertyOp26
 70
     0
102
RTVSPropertyOp27
 70
     0
102
RTVSPropertyOp28
 70
     0
102
RTVSPropertyOp29
 70
     0
102
RTVSPropertyOp30
 70
     0
102
RTVSPropertyOp31
 70
     0
102
RTVSPropertyOp32
 70
     0
102
RTVSPropertyOp33
 70
     0
102
RTVSPropertyOp34
 70
     0
102
RTVSPropertyOp35
 70
     0
102
RTVSPropertyOp36
 70
     0
102
RTVSPropertyOp37
 70
     0
102
RTVSPropertyOp38
 70
     0
102
RTVSPropertyOp39
 70
     0
102
RTVSPropertyOp40
 70
     0
102
RTVSPropertyOp41
 70
     0
102
RTVSPropertyOp42
 70
     0
102
RTVSPropertyOp43
 70
     0
102
RTVSPropertyOp44
 70
     0
102
RTVSPropertyOp45
 70
     0
102
RTVSPropertyOp46
 70
     0
102
RTVSPropertyOp47
 70
     0
102
RTVSPropertyOp48
 70
     0
102
RTVSPropertyOp49
 70
     0
102
RTVSPropertyOp50
 70
     0
102
RTVSPropertyOp51
 70
     0
102
RTVSPropertyOp52
 70
     0
102
RTVSPropertyOp53
 70
     0
102
RTVSPropertyOp54
 70
     0
102
RTVSPropertyOp55
 70
     0
102
RTVSPropertyOp56
 70
     0
102
RTVSPropertyOp57
 70
     0
102
RTVSPost2010Prop28
280
     0
102
RTVSPost2010PropOp28
 70
     0
102
RTVSPost2010Prop29
280
     1
102
RTVSPost2010PropOp29
 70
     0
102
RTVSPost2010Prop30
280
     1
102
RTVSPost2010PropOp30
 70
     0
102
RTVSPost2010Prop31
280
     0
102
RTVSPost2010PropOp31
 70
     0
102
RTVSPost2010Prop32
280
     0
102
RTVSPost2010PropOp32
 70
     0
102
RTVSPost2010Prop33
280
     0
102
RTVSPost2010PropOp33
 70
     0
102
RTVSPost2010Prop34
280
     0
102
RTVSPost2010PropOp34
 70
     0
102
RTVSPost2010Prop35
280
     0
102
RTVSPost2010PropOp35
 70
     0
102
RTVSPost2010Prop36
280
     0
102
RTVSPost2010PropOp36
 70
     0
102
RTVSPost2010Prop37
 90
       50
102
RTVSPost2010PropOp37
 70
     0
102
RTVSPost2010Prop38
140
0.0
102
RTVSPost2010PropOp38
 70
     0
102
RTVSPost2010Prop39
140
1.0
102
RTVSPost2010PropOp39
 70
     0
102
RTVSPost2010Prop40
 90
        0
102
RTVSPost2010PropOp40
 70
     0
102
RTVSPost2010Prop41ColorIndex
 90
       18
102
RTVSPost2010Prop41ColorRGB
 90
        0
102
RTVSPost2010PropOp41
 70
     0
102
RTVSPost2010Prop42
 90
       50
102
RTVSPost2010PropOp42
 70
     0
102
RTVSPost2010Prop43
 90
        3
102
RTVSPost2010PropOp43
 70
     0
102
RTVSPost2010Prop44ColorIndex
 90
        5
102
RTVSPost2010Prop44ColorRGB
 90
      255
102
RTVSPost2010PropOp44
 70
     0
102
RTVSPost2010Prop45
280
     0
102
RTVSPost2010PropOp45
 70
     0
102
RTVSPost2010Prop46
 90
       50
102
RTVSPost2010PropOp46
 70
     0
102
RTVSPost2010Prop47
 90
       50
102
RTVSPost2010PropOp47
 70
     0
102
RTVSPost2010Prop48
 90
       50
102
RTVSPost2010PropOp48
 70
     0
102
RTVSPost2010Prop49
280
     0
102
RTVSPost2010PropOp49
 70
     0
102
RTVSPost2010Prop50
 90
       50
102
RTVSPost2010PropOp50
 70
     0
102
RTVSPost2010Prop51ColorIndex
 90
      256
102
RTVSPost2010Prop51ColorRGB
 90
-16777216
102
RTVSPost2010PropOp51
 70
     0
102
RTVSPost2010Prop52
140
1.0
102
RTVSPost2010PropOp52
 70
     0
102
RTVSPost2010Prop53
 90
        2
102
RTVSPost2010PropOp53
 70
     0
102
RTVSPost2010Prop54
  1
strokes_ogs.tif
102
RTVSPost2010PropOp54
 70
     0
102
RTVSPost2010Prop55
280
     0
102
RTVSPost2010PropOp55
 70
     0
102
RTVSPost2010Prop56
140
1.0
102
RTVSPost2010PropOp56
 70
     0
102
RTVSPost2010Prop57
140
1.0
102
RTVSPost2010PropOp57
 70
     0
  0
XRECORD
  5
C2
102
{ACAD_REACTORS
330
C1
102
}
330
C1
100
AcDbXrecord
280
     1
102
RTVSPropertyOp0
 70
     1
102
RTVSPropertyOp1
 70
     1
102
RTVSPropertyOp2
 70
     1
102
RTVSPropertyOp3
 70
     1
102
RTVSPropertyOp4
 70
     1
102
RTVSPropertyOp5
 70
     1
102
RTVSPropertyOp6
 70
     1
102
RTVSPropertyOp7
 70
     1
102
RTVSPropertyOp8
 70
     1
102
RTVSPropertyOp9
 70
     1
102
RTVSPropertyOp10
 70
     1
102
RTVSPropertyOp11
 70
     1
102
RTVSPropertyOp12
 70
     1
102
RTVSPropertyOp13
 70
     1
102
RTVSPropertyOp14
 70
     1
102
RTVSPropertyOp15
 70
     1
102
RTVSPropertyOp16
 70
     1
102
RTVSPropertyOp17
 70
     1
102
RTVSPropertyOp18
 70
     1
102
RTVSPropertyOp19
 70
     1
102
RTVSPropertyOp20
 70
     1
102
RTVSPropertyOp21
 70
     1
102
RTVSPropertyOp22
 70
     1
102
RTVSPropertyOp23
 70
     1
102
RTVSPropertyOp24
 70
     1
102
RTVSPropertyOp25
 70
     1
102
RTVSPropertyOp26
 70
     1
102
RTVSPropertyOp27
 70
     1
102
RTVSPropertyOp28
 70
     1
102
RTVSPropertyOp29
 70
     1
102
RTVSPropertyOp30
 70
     1
102
RTVSPropertyOp31
 70
     1
102
RTVSPropertyOp32
 70
     1
102
RTVSPropertyOp33
 70
     1
102
RTVSPropertyOp34
 70
     1
102
RTVSPropertyOp35
 70
     1
102
RTVSPropertyOp36
 70
     1
102
RTVSPropertyOp37
 70
     1
102
RTVSPropertyOp38
 70
     1
102
RTVSPropertyOp39
 70
     1
102
RTVSPropertyOp40
 70
     1
102
RTVSPropertyOp41
 70
     1
102
RTVSPropertyOp42
 70
     1
102
RTVSPropertyOp43
 70
     1
102
RTVSPropertyOp44
 70
     1
102
RTVSPropertyOp45
 70
     1
102
RTVSPropertyOp46
 70
     1
102
RTVSPropertyOp47
 70
     1
102
RTVSPropertyOp48
 70
     1
102
RTVSPropertyOp49
 70
     1
102
RTVSPropertyOp50
 70
     1
102
RTVSPropertyOp51
 70
     0
102
RTVSPropertyOp52
 70
     0
102
RTVSPropertyOp53
 70
     1
102
RTVSPropertyOp54
 70
     1
102
RTVSPropertyOp55
 70
     1
102
RTVSPropertyOp56
 70
     1
102
RTVSPropertyOp57
 70
     1
102
RTVSPost2010Prop28
280
     0
102
RTVSPost2010PropOp28
 70
     1
102
RTVSPost2010Prop29
280
     1
102
RTVSPost2010PropOp29
 70
     1
102
RTVSPost2010Prop30
280
     1
102
RTVSPost2010PropOp30
 70
     1
102
RTVSPost2010Prop31
280
     0
102
RTVSPost2010PropOp31
 70
     1
102
RTVSPost2010Prop32
280
     0
102
RTVSPost2010PropOp32
 70
     1
102
RTVSPost2010Prop33
280
     0
102
RTVSPost2010PropOp33
 70
     1
102
RTVSPost2010Prop34
280
     0
102
RTVSPost2010PropOp34
 70
     1
102
RTVSPost2010Prop35
280
     0
102
RTVSPost2010PropOp35
 70
     1
102
RTVSPost2010Prop36
280
     0
102
RTVSPost2010PropOp36
 70
     1
102
RTVSPost2010Prop37
 90
       50
102
RTVSPost2010PropOp37
 70
     1
102
RTVSPost2010Prop38
140
0.0
102
RTVSPost2010PropOp38
 70
     1
102
RTVSPost2010Prop39
140
1.0
102
RTVSPost2010PropOp39
 70
     1
102
RTVSPost2010Prop40
 90
        0
102
RTVSPost2010PropOp40
 70
     1
102
RTVSPost2010Prop41ColorIndex
 90
       18
102
RTVSPost2010Prop41ColorRGB
 90
        0
102
RTVSPost2010PropOp41
 70
     1
102
RTVSPost2010Prop42
 90
       50
102
RTVSPost2010PropOp42
 70
     1
102
RTVSPost2010Prop43
 90
        3
102
RTVSPost2010PropOp43
 70
     1
102
RTVSPost2010Prop44ColorIndex
 90
        5
102
RTVSPost2010Prop44ColorRGB
 90
      255
102
RTVSPost2010PropOp44
 70
     1
102
RTVSPost2010Prop45
280
     0
102
RTVSPost2010PropOp45
 70
     1
102
RTVSPost2010Prop46
 90
       50
102
RTVSPost2010PropOp46
 70
     1
102
RTVSPost2010Prop47
 90
       50
102
RTVSPost2010PropOp47
 70
     1
102
RTVSPost2010Prop48
 90
       50
102
RTVSPost2010PropOp48
 70
     1
102
RTVSPost2010Prop49
280
     0
102
RTVSPost2010PropOp49
 70
     1
102
RTVSPost2010Prop50
 90
       50
102
RTVSPost2010PropOp50
 70
     1
102
RTVSPost2010Prop51ColorIndex
 90
      256
102
RTVSPost2010Prop51ColorRGB
 90
-16777216
102
RTVSPost2010PropOp51
 70
     0
102
RTVSPost2010Prop52
140
1.0
102
RTVSPost2010PropOp52
 70
     0
102
RTVSPost2010Prop53
 90
        2
102
RTVSPost2010PropOp53
 70
     1
102
RTVSPost2010Prop54
  1
strokes_ogs.tif
102
RTVSPost2010PropOp54
 70
     1
102
RTVSPost2010Prop55
280
     0
102
RTVSPost2010PropOp55
 70
     1
102
RTVSPost2010Prop56
140
1.0
102
RTVSPost2010PropOp56
 70
     1
102
RTVSPost2010Prop57
140
1.0
102
RTVSPost2010PropOp57
 70
     1
  0
XRECORD
  5
CA
102
{ACAD_REACTORS
330
C9
102
}
330
C9
100
AcDbXrecord
280
     1
102
RTVSPropertyOp0
 70
     0
102
RTVSPropertyOp1
 70
     0
102
RTVSPropertyOp2
 70
     0
102
RTVSPropertyOp3
 70
     0
102
RTVSPropertyOp4
 70
     0
102
RTVSPropertyOp5
 70
     0
102
RTVSPropertyOp6
 70
     0
102
RTVSPropertyOp7
 70
     0
102
RTVSPropertyOp8
 70
     0
102
RTVSPropertyOp9
 70
     0
102
RTVSPropertyOp10
 70
     0
102
RTVSPropertyOp11
 70
     0
102
RTVSPropertyOp12
 70
     0
102
RTVSPropertyOp13
 70
     0
102
RTVSPropertyOp14
 70
     2
102
RTVSPropertyOp15
 70
     0
102
RTVSPropertyOp16
 70
     0
102
RTVSPropertyOp17
 70
     0
102
RTVSPropertyOp18
 70
     0
102
RTVSPropertyOp19
 70
     0
102
RTVSPropertyOp20
 70
     0
102
RTVSPropertyOp21
 70
     0
102
RTVSPropertyOp22
 70
     0
102
RTVSPropertyOp23
 70
     0
102
RTVSPropertyOp24
 70
     0
102
RTVSPropertyOp25
 70
     0
102
RTVSPropertyOp26
 70
     0
102
RTVSPropertyOp27
 70
     0
102
RTVSPropertyOp28
 70
     0
102
RTVSPropertyOp29
 70
     0
102
RTVSPropertyOp30
 70
     0
102
RTVSPropertyOp31
 70
     0
102
RTVSPropertyOp32
 70
     0
102
RTVSPropertyOp33
 70
     0
102
RTVSPropertyOp34
 70
     0
102
RTVSPropertyOp35
 70
     0
102
RTVSPropertyOp36
 70
     0
102
RTVSPropertyOp37
 70
     0
102
RTVSPropertyOp38
 70
     0
102
RTVSPropertyOp39
 70
     0
102
RTVSPropertyOp40
 70
     0
102
RTVSPropertyOp41
 70
     0
102
RTVSPropertyOp42
 70
     0
102
RTVSPropertyOp43
 70
     0
102
RTVSPropertyOp44
 70
     0
102
RTVSPropertyOp45
 70
     0
102
RTVSPropertyOp46
 70
     0
102
RTVSPropertyOp47
 70
     0
102
RTVSPropertyOp48
 70
     0
102
RTVSPropertyOp49
 70
     0
102
RTVSPropertyOp50
 70
     0
102
RTVSPropertyOp51
 70
     0
102
RTVSPropertyOp52
 70
     0
102
RTVSPropertyOp53
 70
     0
102
RTVSPropertyOp54
 70
     0
102
RTVSPropertyOp55
 70
     0
102
RTVSPropertyOp56
 70
     0
102
RTVSPropertyOp57
 70
     0
102
RTVSPost2010Prop28
280
     0
102
RTVSPost2010PropOp28
 70
     0
102
RTVSPost2010Prop29
280
     1
102
RTVSPost2010PropOp29
 70
     0
102
RTVSPost2010Prop30
280
     1
102
RTVSPost2010PropOp30
 70
     0
102
RTVSPost2010Prop31
280
     0
102
RTVSPost2010PropOp31
 70
     0
102
RTVSPost2010Prop32
280
     0
102
RTVSPost2010PropOp32
 70
     0
102
RTVSPost2010Prop33
280
     0
102
RTVSPost2010PropOp33
 70
     0
102
RTVSPost2010Prop34
280
     0
102
RTVSPost2010PropOp34
 70
     0
102
RTVSPost2010Prop35
280
     0
102
RTVSPost2010PropOp35
 70
     0
102
RTVSPost2010Prop36
280
     0
102
RTVSPost2010PropOp36
 70
     0
102
RTVSPost2010Prop37
 90
       50
102
RTVSPost2010PropOp37
 70
     0
102
RTVSPost2010Prop38
140
0.0
102
RTVSPost2010PropOp38
 70
     0
102
RTVSPost2010Prop39
140
1.0
102
RTVSPost2010PropOp39
 70
     0
102
RTVSPost2010Prop40
 90
        0
102
RTVSPost2010PropOp40
 70
     0
102
RTVSPost2010Prop41ColorIndex
 90
       18
102
RTVSPost2010Prop41ColorRGB
 90
        0
102
RTVSPost2010PropOp41
 70
     0
102
RTVSPost2010Prop42
 90
       50
102
RTVSPost2010PropOp42
 70
     0
102
RTVSPost2010Prop43
 90
        3
102
RTVSPost2010PropOp43
 70
     0
102
RTVSPost2010Prop44ColorIndex
 90
        5
102
RTVSPost2010Prop44ColorRGB
 90
      255
102
RTVSPost2010PropOp44
 70
     0
102
RTVSPost2010Prop45
280
     0
102
RTVSPost2010PropOp45
 70
     0
102
RTVSPost2010Prop46
 90
       50
102
RTVSPost2010PropOp46
 70
     0
102
RTVSPost2010Prop47
 90
       50
102
RTVSPost2010PropOp47
 70
     0
102
RTVSPost2010Prop48
 90
       50
102
RTVSPost2010PropOp48
 70
     0
102
RTVSPost2010Prop49
280
     0
102
RTVSPost2010PropOp49
 70
     0
102
RTVSPost2010Prop50
 90
       50
102
RTVSPost2010PropOp50
 70
     0
102
RTVSPost2010Prop51ColorIndex
 90
      256
102
RTVSPost2010Prop51ColorRGB
 90
-16777216
102
RTVSPost2010PropOp51
 70
     0
102
RTVSPost2010Prop52
140
1.0
102
RTVSPost2010PropOp52
 70
     0
102
RTVSPost2010Prop53
 90
        2
102
RTVSPost2010PropOp53
 70
     0
102
RTVSPost2010Prop54
  1
strokes_ogs.tif
102
RTVSPost2010PropOp54
 70
     0
102
RTVSPost2010Prop55
280
     0
102
RTVSPost2010PropOp55
 70
     0
102
RTVSPost2010Prop56
140
1.0
102
RTVSPost2010PropOp56
 70
     0
102
RTVSPost2010Prop57
140
1.0
102
RTVSPost2010PropOp57
 70
     0
  0
XRECORD
  5
B8
102
{ACAD_REACTORS
330
B7
102
}
330
B7
100
AcDbXrecord
280
     1
102
RTVSPropertyOp0
 70
     1
102
RTVSPropertyOp1
 70
     1
102
RTVSPropertyOp2
 70
     1
102
RTVSPropertyOp3
 70
     1
102
RTVSPropertyOp4
 70
     1
102
RTVSPropertyOp5
 70
     1
102
RTVSPropertyOp6
 70
     1
102
RTVSPropertyOp7
 70
     1
102
RTVSPropertyOp8
 70
     1
102
RTVSPropertyOp9
 70
     1
102
RTVSPropertyOp10
 70
     1
102
RTVSPropertyOp11
 70
     1
102
RTVSPropertyOp12
 70
     1
102
RTVSPropertyOp13
 70
     1
102
RTVSPropertyOp14
 70
     1
102
RTVSPropertyOp15
 70
     1
102
RTVSPropertyOp16
 70
     1
102
RTVSPropertyOp17
 70
     1
102
RTVSPropertyOp18
 70
     1
102
RTVSPropertyOp19
 70
     1
102
RTVSPropertyOp20
 70
     1
102
RTVSPropertyOp21
 70
     1
102
RTVSPropertyOp22
 70
     1
102
RTVSPropertyOp23
 70
     1
102
RTVSPropertyOp24
 70
     1
102
RTVSPropertyOp25
 70
     1
102
RTVSPropertyOp26
 70
     1
102
RTVSPropertyOp27
 70
     1
102
RTVSPropertyOp28
 70
     1
102
RTVSPropertyOp29
 70
     1
102
RTVSPropertyOp30
 70
     1
102
RTVSPropertyOp31
 70
     1
102
RTVSPropertyOp32
 70
     1
102
RTVSPropertyOp33
 70
     1
102
RTVSPropertyOp34
 70
     1
102
RTVSPropertyOp35
 70
     1
102
RTVSPropertyOp36
 70
     1
102
RTVSPropertyOp37
 70
     1
102
RTVSPropertyOp38
 70
     1
102
RTVSPropertyOp39
 70
     1
102
RTVSPropertyOp40
 70
     1
102
RTVSPropertyOp41
 70
     1
102
RTVSPropertyOp42
 70
     1
102
RTVSPropertyOp43
 70
     1
102
RTVSPropertyOp44
 70
     1
102
RTVSPropertyOp45
 70
     1
102
RTVSPropertyOp46
 70
     1
102
RTVSPropertyOp47
 70
     1
102
RTVSPropertyOp48
 70
     1
102
RTVSPropertyOp49
 70
     1
102
RTVSPropertyOp50
 70
     1
102
RTVSPropertyOp51
 70
     0
102
RTVSPropertyOp52
 70
     0
102
RTVSPropertyOp53
 70
     1
102
RTVSPropertyOp54
 70
     1
102
RTVSPropertyOp55
 70
     1
102
RTVSPropertyOp56
 70
     1
102
RTVSPropertyOp57
 70
     1
102
RTVSPost2010Prop28
280
     0
102
RTVSPost2010PropOp28
 70
     1
102
RTVSPost2010Prop29
280
     1
102
RTVSPost2010PropOp29
 70
     1
102
RTVSPost2010Prop30
280
     1
102
RTVSPost2010PropOp30
 70
     1
102
RTVSPost2010Prop31
280
     0
102
RTVSPost2010PropOp31
 70
     1
102
RTVSPost2010Prop32
280
     0
102
RTVSPost2010PropOp32
 70
     1
102
RTVSPost2010Prop33
280
     0
102
RTVSPost2010PropOp33
 70
     1
102
RTVSPost2010Prop34
280
     0
102
RTVSPost2010PropOp34
 70
     1
102
RTVSPost2010Prop35
280
     0
102
RTVSPost2010PropOp35
 70
     1
102
RTVSPost2010Prop36
280
     0
102
RTVSPost2010PropOp36
 70
     1
102
RTVSPost2010Prop37
 90
       50
102
RTVSPost2010PropOp37
 70
     1
102
RTVSPost2010Prop38
140
0.0
102
RTVSPost2010PropOp38
 70
     1
102
RTVSPost2010Prop39
140
1.0
102
RTVSPost2010PropOp39
 70
     1
102
RTVSPost2010Prop40
 90
        0
102
RTVSPost2010PropOp40
 70
     1
102
RTVSPost2010Prop41ColorIndex
 90
       18
102
RTVSPost2010Prop41ColorRGB
 90
        0
102
RTVSPost2010PropOp41
 70
     1
102
RTVSPost2010Prop42
 90
       50
102
RTVSPost2010PropOp42
 70
     1
102
RTVSPost2010Prop43
 90
        3
102
RTVSPost2010PropOp43
 70
     1
102
RTVSPost2010Prop44ColorIndex
 90
        5
102
RTVSPost2010Prop44ColorRGB
 90
      255
102
RTVSPost2010PropOp44
 70
     1
102
RTVSPost2010Prop45
280
     0
102
RTVSPost2010PropOp45
 70
     1
102
RTVSPost2010Prop46
 90
       50
102
RTVSPost2010PropOp46
 70
     1
102
RTVSPost2010Prop47
 90
       50
102
RTVSPost2010PropOp47
 70
     1
102
RTVSPost2010Prop48
 90
       50
102
RTVSPost2010PropOp48
 70
     1
102
RTVSPost2010Prop49
280
     0
102
RTVSPost2010PropOp49
 70
     1
102
RTVSPost2010Prop50
 90
       50
102
RTVSPost2010PropOp50
 70
     1
102
RTVSPost2010Prop51ColorIndex
 90
      256
102
RTVSPost2010Prop51ColorRGB
 90
-16777216
102
RTVSPost2010PropOp51
 70
     0
102
RTVSPost2010Prop52
140
1.0
102
RTVSPost2010PropOp52
 70
     0
102
RTVSPost2010Prop53
 90
        2
102
RTVSPost2010PropOp53
 70
     1
102
RTVSPost2010Prop54
  1
strokes_ogs.tif
102
RTVSPost2010PropOp54
 70
     1
102
RTVSPost2010Prop55
280
     0
102
RTVSPost2010PropOp55
 70
     1
102
RTVSPost2010Prop56
140
1.0
102
RTVSPost2010PropOp56
 70
     1
102
RTVSPost2010Prop57
140
1.0
102
RTVSPost2010PropOp57
 70
     1
  0
XRECORD
  5
D6
102
{ACAD_REACTORS
330
D5
102
}
330
D5
100
AcDbXrecord
280
     1
102
RTVSPropertyOp0
 70
     1
102
RTVSPropertyOp1
 70
     1
102
RTVSPropertyOp2
 70
     1
102
RTVSPropertyOp3
 70
     1
102
RTVSPropertyOp4
 70
     1
102
RTVSPropertyOp5
 70
     1
102
RTVSPropertyOp6
 70
     1
102
RTVSPropertyOp7
 70
     1
102
RTVSPropertyOp8
 70
     1
102
RTVSPropertyOp9
 70
     1
102
RTVSPropertyOp10
 70
     1
102
RTVSPropertyOp11
 70
     1
102
RTVSPropertyOp12
 70
     1
102
RTVSPropertyOp13
 70
     1
102
RTVSPropertyOp14
 70
     1
102
RTVSPropertyOp15
 70
     1
102
RTVSPropertyOp16
 70
     1
102
RTVSPropertyOp17
 70
     1
102
RTVSPropertyOp18
 70
     1
102
RTVSPropertyOp19
 70
     1
102
RTVSPropertyOp20
 70
     1
102
RTVSPropertyOp21
 70
     1
102
RTVSPropertyOp22
 70
     1
102
RTVSPropertyOp23
 70
     1
102
RTVSPropertyOp24
 70
     1
102
RTVSPropertyOp25
 70
     1
102
RTVSPropertyOp26
 70
     1
102
RTVSPropertyOp27
 70
     1
102
RTVSPropertyOp28
 70
     1
102
RTVSPropertyOp29
 70
     1
102
RTVSPropertyOp30
 70
     1
102
RTVSPropertyOp31
 70
     1
102
RTVSPropertyOp32
 70
     1
102
RTVSPropertyOp33
 70
     1
102
RTVSPropertyOp34
 70
     1
102
RTVSPropertyOp35
 70
     1
102
RTVSPropertyOp36
 70
     1
102
RTVSPropertyOp37
 70
     1
102
RTVSPropertyOp38
 70
     1
102
RTVSPropertyOp39
 70
     1
102
RTVSPropertyOp40
 70
     1
102
RTVSPropertyOp41
 70
     1
102
RTVSPropertyOp42
 70
     1
102
RTVSPropertyOp43
 70
     1
102
RTVSPropertyOp44
 70
     1
102
RTVSPropertyOp45
 70
     1
102
RTVSPropertyOp46
 70
     1
102
RTVSPropertyOp47
 70
     1
102
RTVSPropertyOp48
 70
     1
102
RTVSPropertyOp49
 70
     1
102
RTVSPropertyOp50
 70
     1
102
RTVSPropertyOp51
 70
     0
102
RTVSPropertyOp52
 70
     0
102
RTVSPropertyOp53
 70
     1
102
RTVSPropertyOp54
 70
     1
102
RTVSPropertyOp55
 70
     1
102
RTVSPropertyOp56
 70
     1
102
RTVSPropertyOp57
 70
     1
102
RTVSPost2010Prop28
280
     0
102
RTVSPost2010PropOp28
 70
     1
102
RTVSPost2010Prop29
280
     1
102
RTVSPost2010PropOp29
 70
     1
102
RTVSPost2010Prop30
280
     1
102
RTVSPost2010PropOp30
 70
     1
102
RTVSPost2010Prop31
280
     0
102
RTVSPost2010PropOp31
 70
     1
102
RTVSPost2010Prop32
280
     0
102
RTVSPost2010PropOp32
 70
     1
102
RTVSPost2010Prop33
280
     0
102
RTVSPost2010PropOp33
 70
     1
102
RTVSPost2010Prop34
280
     0
102
RTVSPost2010PropOp34
 70
     1
102
RTVSPost2010Prop35
280
     0
102
RTVSPost2010PropOp35
 70
     1
102
RTVSPost2010Prop36
280
     0
102
RTVSPost2010PropOp36
 70
     1
102
RTVSPost2010Prop37
 90
       50
102
RTVSPost2010PropOp37
 70
     1
102
RTVSPost2010Prop38
140
0.0
102
RTVSPost2010PropOp38
 70
     1
102
RTVSPost2010Prop39
140
1.0
102
RTVSPost2010PropOp39
 70
     1
102
RTVSPost2010Prop40
 90
        0
102
RTVSPost2010PropOp40
 70
     1
102
RTVSPost2010Prop41ColorIndex
 90
       18
102
RTVSPost2010Prop41ColorRGB
 90
        0
102
RTVSPost2010PropOp41
 70
     1
102
RTVSPost2010Prop42
 90
       50
102
RTVSPost2010PropOp42
 70
     1
102
RTVSPost2010Prop43
 90
        3
102
RTVSPost2010PropOp43
 70
     1
102
RTVSPost2010Prop44ColorIndex
 90
        5
102
RTVSPost2010Prop44ColorRGB
 90
      255
102
RTVSPost2010PropOp44
 70
     1
102
RTVSPost2010Prop45
280
     0
102
RTVSPost2010PropOp45
 70
     1
102
RTVSPost2010Prop46
 90
       50
102
RTVSPost2010PropOp46
 70
     1
102
RTVSPost2010Prop47
 90
       50
102
RTVSPost2010PropOp47
 70
     1
102
RTVSPost2010Prop48
 90
       50
102
RTVSPost2010PropOp48
 70
     1
102
RTVSPost2010Prop49
280
     0
102
RTVSPost2010PropOp49
 70
     1
102
RTVSPost2010Prop50
 90
       50
102
RTVSPost2010PropOp50
 70
     1
102
RTVSPost2010Prop51ColorIndex
 90
      256
102
RTVSPost2010Prop51ColorRGB
 90
-16777216
102
RTVSPost2010PropOp51
 70
     0
102
RTVSPost2010Prop52
140
1.0
102
RTVSPost2010PropOp52
 70
     0
102
RTVSPost2010Prop53
 90
        2
102
RTVSPost2010PropOp53
 70
     1
102
RTVSPost2010Prop54
  1
strokes_ogs.tif
102
RTVSPost2010PropOp54
 70
     1
102
RTVSPost2010Prop55
280
     0
102
RTVSPost2010PropOp55
 70
     1
102
RTVSPost2010Prop56
140
1.0
102
RTVSPost2010PropOp56
 70
     1
102
RTVSPost2010Prop57
140
1.0
102
RTVSPost2010PropOp57
 70
     1
  0
XRECORD
  5
D4
102
{ACAD_REACTORS
330
D3
102
}
330
D3
100
AcDbXrecord
280
     1
102
RTVSPropertyOp0
 70
     1
102
RTVSPropertyOp1
 70
     1
102
RTVSPropertyOp2
 70
     1
102
RTVSPropertyOp3
 70
     1
102
RTVSPropertyOp4
 70
     1
102
RTVSPropertyOp5
 70
     1
102
RTVSPropertyOp6
 70
     1
102
RTVSPropertyOp7
 70
     1
102
RTVSPropertyOp8
 70
     1
102
RTVSPropertyOp9
 70
     1
102
RTVSPropertyOp10
 70
     1
102
RTVSPropertyOp11
 70
     1
102
RTVSPropertyOp12
 70
     1
102
RTVSPropertyOp13
 70
     1
102
RTVSPropertyOp14
 70
     1
102
RTVSPropertyOp15
 70
     1
102
RTVSPropertyOp16
 70
     1
102
RTVSPropertyOp17
 70
     1
102
RTVSPropertyOp18
 70
     1
102
RTVSPropertyOp19
 70
     1
102
RTVSPropertyOp20
 70
     1
102
RTVSPropertyOp21
 70
     1
102
RTVSPropertyOp22
 70
     1
102
RTVSPropertyOp23
 70
     1
102
RTVSPropertyOp24
 70
     1
102
RTVSPropertyOp25
 70
     1
102
RTVSPropertyOp26
 70
     1
102
RTVSPropertyOp27
 70
     1
102
RTVSPropertyOp28
 70
     1
102
RTVSPropertyOp29
 70
     1
102
RTVSPropertyOp30
 70
     1
102
RTVSPropertyOp31
 70
     1
102
RTVSPropertyOp32
 70
     1
102
RTVSPropertyOp33
 70
     1
102
RTVSPropertyOp34
 70
     1
102
RTVSPropertyOp35
 70
     1
102
RTVSPropertyOp36
 70
     1
102
RTVSPropertyOp37
 70
     1
102
RTVSPropertyOp38
 70
     1
102
RTVSPropertyOp39
 70
     1
102
RTVSPropertyOp40
 70
     1
102
RTVSPropertyOp41
 70
     1
102
RTVSPropertyOp42
 70
     1
102
RTVSPropertyOp43
 70
     1
102
RTVSPropertyOp44
 70
     1
102
RTVSPropertyOp45
 70
     1
102
RTVSPropertyOp46
 70
     1
102
RTVSPropertyOp47
 70
     1
102
RTVSPropertyOp48
 70
     1
102
RTVSPropertyOp49
 70
     1
102
RTVSPropertyOp50
 70
     1
102
RTVSPropertyOp51
 70
     0
102
RTVSPropertyOp52
 70
     0
102
RTVSPropertyOp53
 70
     1
102
RTVSPropertyOp54
 70
     1
102
RTVSPropertyOp55
 70
     1
102
RTVSPropertyOp56
 70
     1
102
RTVSPropertyOp57
 70
     1
102
RTVSPost2010Prop28
280
     0
102
RTVSPost2010PropOp28
 70
     1
102
RTVSPost2010Prop29
280
     1
102
RTVSPost2010PropOp29
 70
     1
102
RTVSPost2010Prop30
280
     1
102
RTVSPost2010PropOp30
 70
     1
102
RTVSPost2010Prop31
280
     0
102
RTVSPost2010PropOp31
 70
     1
102
RTVSPost2010Prop32
280
     0
102
RTVSPost2010PropOp32
 70
     1
102
RTVSPost2010Prop33
280
     0
102
RTVSPost2010PropOp33
 70
     1
102
RTVSPost2010Prop34
280
     0
102
RTVSPost2010PropOp34
 70
     1
102
RTVSPost2010Prop35
280
     0
102
RTVSPost2010PropOp35
 70
     1
102
RTVSPost2010Prop36
280
     0
102
RTVSPost2010PropOp36
 70
     1
102
RTVSPost2010Prop37
 90
       50
102
RTVSPost2010PropOp37
 70
     1
102
RTVSPost2010Prop38
140
0.0
102
RTVSPost2010PropOp38
 70
     1
102
RTVSPost2010Prop39
140
1.0
102
RTVSPost2010PropOp39
 70
     1
102
RTVSPost2010Prop40
 90
        0
102
RTVSPost2010PropOp40
 70
     1
102
RTVSPost2010Prop41ColorIndex
 90
       18
102
RTVSPost2010Prop41ColorRGB
 90
        0
102
RTVSPost2010PropOp41
 70
     1
102
RTVSPost2010Prop42
 90
       50
102
RTVSPost2010PropOp42
 70
     1
102
RTVSPost2010Prop43
 90
        3
102
RTVSPost2010PropOp43
 70
     1
102
RTVSPost2010Prop44ColorIndex
 90
        5
102
RTVSPost2010Prop44ColorRGB
 90
      255
102
RTVSPost2010PropOp44
 70
     1
102
RTVSPost2010Prop45
280
     0
102
RTVSPost2010PropOp45
 70
     1
102
RTVSPost2010Prop46
 90
       50
102
RTVSPost2010PropOp46
 70
     1
102
RTVSPost2010Prop47
 90
       50
102
RTVSPost2010PropOp47
 70
     1
102
RTVSPost2010Prop48
 90
       50
102
RTVSPost2010PropOp48
 70
     1
102
RTVSPost2010Prop49
280
     0
102
RTVSPost2010PropOp49
 70
     1
102
RTVSPost2010Prop50
 90
       50
102
RTVSPost2010PropOp50
 70
     1
102
RTVSPost2010Prop51ColorIndex
 90
      256
102
RTVSPost2010Prop51ColorRGB
 90
-16777216
102
RTVSPost2010PropOp51
 70
     0
102
RTVSPost2010Prop52
140
1.0
102
RTVSPost2010PropOp52
 70
     0
102
RTVSPost2010Prop53
 90
        2
102
RTVSPost2010PropOp53
 70
     1
102
RTVSPost2010Prop54
  1
strokes_ogs.tif
102
RTVSPost2010PropOp54
 70
     1
102
RTVSPost2010Prop55
280
     0
102
RTVSPost2010PropOp55
 70
     1
102
RTVSPost2010Prop56
140
1.0
102
RTVSPost2010PropOp56
 70
     1
102
RTVSPost2010Prop57
140
1.0
102
RTVSPost2010PropOp57
 70
     1
  0
XRECORD
  5
CE
102
{ACAD_REACTORS
330
CD
102
}
330
CD
100
AcDbXrecord
280
     1
102
RTVSPropertyOp0
 70
     1
102
RTVSPropertyOp1
 70
     1
102
RTVSPropertyOp2
 70
     1
102
RTVSPropertyOp3
 70
     1
102
RTVSPropertyOp4
 70
     1
102
RTVSPropertyOp5
 70
     1
102
RTVSPropertyOp6
 70
     1
102
RTVSPropertyOp7
 70
     1
102
RTVSPropertyOp8
 70
     1
102
RTVSPropertyOp9
 70
     1
102
RTVSPropertyOp10
 70
     1
102
RTVSPropertyOp11
 70
     1
102
RTVSPropertyOp12
 70
     1
102
RTVSPropertyOp13
 70
     1
102
RTVSPropertyOp14
 70
     1
102
RTVSPropertyOp15
 70
     1
102
RTVSPropertyOp16
 70
     1
102
RTVSPropertyOp17
 70
     1
102
RTVSPropertyOp18
 70
     1
102
RTVSPropertyOp19
 70
     1
102
RTVSPropertyOp20
 70
     1
102
RTVSPropertyOp21
 70
     1
102
RTVSPropertyOp22
 70
     1
102
RTVSPropertyOp23
 70
     1
102
RTVSPropertyOp24
 70
     1
102
RTVSPropertyOp25
 70
     1
102
RTVSPropertyOp26
 70
     1
102
RTVSPropertyOp27
 70
     1
102
RTVSPropertyOp28
 70
     1
102
RTVSPropertyOp29
 70
     1
102
RTVSPropertyOp30
 70
     1
102
RTVSPropertyOp31
 70
     1
102
RTVSPropertyOp32
 70
     1
102
RTVSPropertyOp33
 70
     1
102
RTVSPropertyOp34
 70
     1
102
RTVSPropertyOp35
 70
     1
102
RTVSPropertyOp36
 70
     1
102
RTVSPropertyOp37
 70
     1
102
RTVSPropertyOp38
 70
     1
102
RTVSPropertyOp39
 70
     1
102
RTVSPropertyOp40
 70
     1
102
RTVSPropertyOp41
 70
     1
102
RTVSPropertyOp42
 70
     1
102
RTVSPropertyOp43
 70
     1
102
RTVSPropertyOp44
 70
     1
102
RTVSPropertyOp45
 70
     1
102
RTVSPropertyOp46
 70
     1
102
RTVSPropertyOp47
 70
     1
102
RTVSPropertyOp48
 70
     1
102
RTVSPropertyOp49
 70
     1
102
RTVSPropertyOp50
 70
     1
102
RTVSPropertyOp51
 70
     0
102
RTVSPropertyOp52
 70
     0
102
RTVSPropertyOp53
 70
     1
102
RTVSPropertyOp54
 70
     1
102
RTVSPropertyOp55
 70
     1
102
RTVSPropertyOp56
 70
     1
102
RTVSPropertyOp57
 70
     1
102
RTVSPost2010Prop28
280
     0
102
RTVSPost2010PropOp28
 70
     1
102
RTVSPost2010Prop29
280
     1
102
RTVSPost2010PropOp29
 70
     1
102
RTVSPost2010Prop30
280
     1
102
RTVSPost2010PropOp30
 70
     1
102
RTVSPost2010Prop31
280
     0
102
RTVSPost2010PropOp31
 70
     1
102
RTVSPost2010Prop32
280
     0
102
RTVSPost2010PropOp32
 70
     1
102
RTVSPost2010Prop33
280
     0
102
RTVSPost2010PropOp33
 70
     1
102
RTVSPost2010Prop34
280
     0
102
RTVSPost2010PropOp34
 70
     1
102
RTVSPost2010Prop35
280
     0
102
RTVSPost2010PropOp35
 70
     1
102
RTVSPost2010Prop36
280
     0
102
RTVSPost2010PropOp36
 70
     1
102
RTVSPost2010Prop37
 90
       50
102
RTVSPost2010PropOp37
 70
     1
102
RTVSPost2010Prop38
140
0.0
102
RTVSPost2010PropOp38
 70
     1
102
RTVSPost2010Prop39
140
1.0
102
RTVSPost2010PropOp39
 70
     1
102
RTVSPost2010Prop40
 90
        0
102
RTVSPost2010PropOp40
 70
     1
102
RTVSPost2010Prop41ColorIndex
 90
       18
102
RTVSPost2010Prop41ColorRGB
 90
        0
102
RTVSPost2010PropOp41
 70
     1
102
RTVSPost2010Prop42
 90
       50
102
RTVSPost2010PropOp42
 70
     1
102
RTVSPost2010Prop43
 90
        3
102
RTVSPost2010PropOp43
 70
     1
102
RTVSPost2010Prop44ColorIndex
 90
        5
102
RTVSPost2010Prop44ColorRGB
 90
      255
102
RTVSPost2010PropOp44
 70
     1
102
RTVSPost2010Prop45
280
     0
102
RTVSPost2010PropOp45
 70
     1
102
RTVSPost2010Prop46
 90
       50
102
RTVSPost2010PropOp46
 70
     1
102
RTVSPost2010Prop47
 90
       50
102
RTVSPost2010PropOp47
 70
     1
102
RTVSPost2010Prop48
 90
       50
102
RTVSPost2010PropOp48
 70
     1
102
RTVSPost2010Prop49
280
     0
102
RTVSPost2010PropOp49
 70
     1
102
RTVSPost2010Prop50
 90
       50
102
RTVSPost2010PropOp50
 70
     1
102
RTVSPost2010Prop51ColorIndex
 90
      256
102
RTVSPost2010Prop51ColorRGB
 90
-16777216
102
RTVSPost2010PropOp51
 70
     0
102
RTVSPost2010Prop52
140
1.0
102
RTVSPost2010PropOp52
 70
     0
102
RTVSPost2010Prop53
 90
        2
102
RTVSPost2010PropOp53
 70
     1
102
RTVSPost2010Prop54
  1
strokes_ogs.tif
102
RTVSPost2010PropOp54
 70
     1
102
RTVSPost2010Prop55
280
     0
102
RTVSPost2010PropOp55
 70
     1
102
RTVSPost2010Prop56
140
1.0
102
RTVSPost2010PropOp56
 70
     1
102
RTVSPost2010Prop57
140
1.0
102
RTVSPost2010PropOp57
 70
     1
  0
XRECORD
  5
D0
102
{ACAD_REACTORS
330
CF
102
}
330
CF
100
AcDbXrecord
280
     1
102
RTVSPropertyOp0
 70
     1
102
RTVSPropertyOp1
 70
     1
102
RTVSPropertyOp2
 70
     1
102
RTVSPropertyOp3
 70
     1
102
RTVSPropertyOp4
 70
     1
102
RTVSPropertyOp5
 70
     1
102
RTVSPropertyOp6
 70
     1
102
RTVSPropertyOp7
 70
     1
102
RTVSPropertyOp8
 70
     1
102
RTVSPropertyOp9
 70
     1
102
RTVSPropertyOp10
 70
     1
102
RTVSPropertyOp11
 70
     1
102
RTVSPropertyOp12
 70
     1
102
RTVSPropertyOp13
 70
     1
102
RTVSPropertyOp14
 70
     1
102
RTVSPropertyOp15
 70
     1
102
RTVSPropertyOp16
 70
     1
102
RTVSPropertyOp17
 70
     1
102
RTVSPropertyOp18
 70
     1
102
RTVSPropertyOp19
 70
     1
102
RTVSPropertyOp20
 70
     1
102
RTVSPropertyOp21
 70
     1
102
RTVSPropertyOp22
 70
     1
102
RTVSPropertyOp23
 70
     1
102
RTVSPropertyOp24
 70
     1
102
RTVSPropertyOp25
 70
     1
102
RTVSPropertyOp26
 70
     1
102
RTVSPropertyOp27
 70
     1
102
RTVSPropertyOp28
 70
     1
102
RTVSPropertyOp29
 70
     1
102
RTVSPropertyOp30
 70
     1
102
RTVSPropertyOp31
 70
     1
102
RTVSPropertyOp32
 70
     1
102
RTVSPropertyOp33
 70
     1
102
RTVSPropertyOp34
 70
     1
102
RTVSPropertyOp35
 70
     1
102
RTVSPropertyOp36
 70
     1
102
RTVSPropertyOp37
 70
     1
102
RTVSPropertyOp38
 70
     1
102
RTVSPropertyOp39
 70
     1
102
RTVSPropertyOp40
 70
     1
102
RTVSPropertyOp41
 70
     1
102
RTVSPropertyOp42
 70
     1
102
RTVSPropertyOp43
 70
     1
102
RTVSPropertyOp44
 70
     1
102
RTVSPropertyOp45
 70
     1
102
RTVSPropertyOp46
 70
     1
102
RTVSPropertyOp47
 70
     1
102
RTVSPropertyOp48
 70
     1
102
RTVSPropertyOp49
 70
     1
102
RTVSPropertyOp50
 70
     1
102
RTVSPropertyOp51
 70
     0
102
RTVSPropertyOp52
 70
     0
102
RTVSPropertyOp53
 70
     1
102
RTVSPropertyOp54
 70
     1
102
RTVSPropertyOp55
 70
     1
102
RTVSPropertyOp56
 70
     1
102
RTVSPropertyOp57
 70
     1
102
RTVSPost2010Prop28
280
     0
102
RTVSPost2010PropOp28
 70
     1
102
RTVSPost2010Prop29
280
     1
102
RTVSPost2010PropOp29
 70
     1
102
RTVSPost2010Prop30
280
     1
102
RTVSPost2010PropOp30
 70
     1
102
RTVSPost2010Prop31
280
     0
102
RTVSPost2010PropOp31
 70
     1
102
RTVSPost2010Prop32
280
     0
102
RTVSPost2010PropOp32
 70
     1
102
RTVSPost2010Prop33
280
     0
102
RTVSPost2010PropOp33
 70
     1
102
RTVSPost2010Prop34
280
     0
102
RTVSPost2010PropOp34
 70
     1
102
RTVSPost2010Prop35
280
     0
102
RTVSPost2010PropOp35
 70
     1
102
RTVSPost2010Prop36
280
     0
102
RTVSPost2010PropOp36
 70
     1
102
RTVSPost2010Prop37
 90
       50
102
RTVSPost2010PropOp37
 70
     1
102
RTVSPost2010Prop38
140
0.0
102
RTVSPost2010PropOp38
 70
     1
102
RTVSPost2010Prop39
140
1.0
102
RTVSPost2010PropOp39
 70
     1
102
RTVSPost2010Prop40
 90
        0
102
RTVSPost2010PropOp40
 70
     1
102
RTVSPost2010Prop41ColorIndex
 90
       18
102
RTVSPost2010Prop41ColorRGB
 90
        0
102
RTVSPost2010PropOp41
 70
     1
102
RTVSPost2010Prop42
 90
       50
102
RTVSPost2010PropOp42
 70
     1
102
RTVSPost2010Prop43
 90
        3
102
RTVSPost2010PropOp43
 70
     1
102
RTVSPost2010Prop44ColorIndex
 90
        5
102
RTVSPost2010Prop44ColorRGB
 90
      255
102
RTVSPost2010PropOp44
 70
     1
102
RTVSPost2010Prop45
280
     0
102
RTVSPost2010PropOp45
 70
     1
102
RTVSPost2010Prop46
 90
       50
102
RTVSPost2010PropOp46
 70
     1
102
RTVSPost2010Prop47
 90
       50
102
RTVSPost2010PropOp47
 70
     1
102
RTVSPost2010Prop48
 90
       50
102
RTVSPost2010PropOp48
 70
     1
102
RTVSPost2010Prop49
280
     0
102
RTVSPost2010PropOp49
 70
     1
102
RTVSPost2010Prop50
 90
       50
102
RTVSPost2010PropOp50
 70
     1
102
RTVSPost2010Prop51ColorIndex
 90
      256
102
RTVSPost2010Prop51ColorRGB
 90
-16777216
102
RTVSPost2010PropOp51
 70
     0
102
RTVSPost2010Prop52
140
1.0
102
RTVSPost2010PropOp52
 70
     0
102
RTVSPost2010Prop53
 90
        2
102
RTVSPost2010PropOp53
 70
     1
102
RTVSPost2010Prop54
  1
strokes_ogs.tif
102
RTVSPost2010PropOp54
 70
     1
102
RTVSPost2010Prop55
280
     0
102
RTVSPost2010PropOp55
 70
     1
102
RTVSPost2010Prop56
140
1.0
102
RTVSPost2010PropOp56
 70
     1
102
RTVSPost2010Prop57
140
1.0
102
RTVSPost2010PropOp57
 70
     1
  0
XRECORD
  5
C0
102
{ACAD_REACTORS
330
BF
102
}
330
BF
100
AcDbXrecord
280
     1
102
RTVSPropertyOp0
 70
     1
102
RTVSPropertyOp1
 70
     1
102
RTVSPropertyOp2
 70
     1
102
RTVSPropertyOp3
 70
     1
102
RTVSPropertyOp4
 70
     1
102
RTVSPropertyOp5
 70
     1
102
RTVSPropertyOp6
 70
     1
102
RTVSPropertyOp7
 70
     1
102
RTVSPropertyOp8
 70
     1
102
RTVSPropertyOp9
 70
     1
102
RTVSPropertyOp10
 70
     1
102
RTVSPropertyOp11
 70
     1
102
RTVSPropertyOp12
 70
     1
102
RTVSPropertyOp13
 70
     1
102
RTVSPropertyOp14
 70
     1
102
RTVSPropertyOp15
 70
     1
102
RTVSPropertyOp16
 70
     1
102
RTVSPropertyOp17
 70
     1
102
RTVSPropertyOp18
 70
     1
102
RTVSPropertyOp19
 70
     1
102
RTVSPropertyOp20
 70
     1
102
RTVSPropertyOp21
 70
     1
102
RTVSPropertyOp22
 70
     1
102
RTVSPropertyOp23
 70
     1
102
RTVSPropertyOp24
 70
     1
102
RTVSPropertyOp25
 70
     1
102
RTVSPropertyOp26
 70
     1
102
RTVSPropertyOp27
 70
     1
102
RTVSPropertyOp28
 70
     1
102
RTVSPropertyOp29
 70
     1
102
RTVSPropertyOp30
 70
     1
102
RTVSPropertyOp31
 70
     1
102
RTVSPropertyOp32
 70
     1
102
RTVSPropertyOp33
 70
     1
102
RTVSPropertyOp34
 70
     1
102
RTVSPropertyOp35
 70
     1
102
RTVSPropertyOp36
 70
     1
102
RTVSPropertyOp37
 70
     1
102
RTVSPropertyOp38
 70
     1
102
RTVSPropertyOp39
 70
     1
102
RTVSPropertyOp40
 70
     1
102
RTVSPropertyOp41
 70
     1
102
RTVSPropertyOp42
 70
     1
102
RTVSPropertyOp43
 70
     1
102
RTVSPropertyOp44
 70
     1
102
RTVSPropertyOp45
 70
     1
102
RTVSPropertyOp46
 70
     1
102
RTVSPropertyOp47
 70
     1
102
RTVSPropertyOp48
 70
     1
102
RTVSPropertyOp49
 70
     1
102
RTVSPropertyOp50
 70
     1
102
RTVSPropertyOp51
 70
     0
102
RTVSPropertyOp52
 70
     0
102
RTVSPropertyOp53
 70
     1
102
RTVSPropertyOp54
 70
     1
102
RTVSPropertyOp55
 70
     1
102
RTVSPropertyOp56
 70
     1
102
RTVSPropertyOp57
 70
     1
102
RTVSPost2010Prop28
280
     0
102
RTVSPost2010PropOp28
 70
     1
102
RTVSPost2010Prop29
280
     1
102
RTVSPost2010PropOp29
 70
     1
102
RTVSPost2010Prop30
280
     1
102
RTVSPost2010PropOp30
 70
     1
102
RTVSPost2010Prop31
280
     0
102
RTVSPost2010PropOp31
 70
     1
102
RTVSPost2010Prop32
280
     0
102
RTVSPost2010PropOp32
 70
     1
102
RTVSPost2010Prop33
280
     0
102
RTVSPost2010PropOp33
 70
     1
102
RTVSPost2010Prop34
280
     0
102
RTVSPost2010PropOp34
 70
     1
102
RTVSPost2010Prop35
280
     0
102
RTVSPost2010PropOp35
 70
     1
102
RTVSPost2010Prop36
280
     0
102
RTVSPost2010PropOp36
 70
     1
102
RTVSPost2010Prop37
 90
       50
102
RTVSPost2010PropOp37
 70
     1
102
RTVSPost2010Prop38
140
0.0
102
RTVSPost2010PropOp38
 70
     1
102
RTVSPost2010Prop39
140
1.0
102
RTVSPost2010PropOp39
 70
     1
102
RTVSPost2010Prop40
 90
        0
102
RTVSPost2010PropOp40
 70
     1
102
RTVSPost2010Prop41ColorIndex
 90
       18
102
RTVSPost2010Prop41ColorRGB
 90
        0
102
RTVSPost2010PropOp41
 70
     1
102
RTVSPost2010Prop42
 90
       50
102
RTVSPost2010PropOp42
 70
     1
102
RTVSPost2010Prop43
 90
        3
102
RTVSPost2010PropOp43
 70
     1
102
RTVSPost2010Prop44ColorIndex
 90
        5
102
RTVSPost2010Prop44ColorRGB
 90
      255
102
RTVSPost2010PropOp44
 70
     1
102
RTVSPost2010Prop45
280
     0
102
RTVSPost2010PropOp45
 70
     1
102
RTVSPost2010Prop46
 90
       50
102
RTVSPost2010PropOp46
 70
     1
102
RTVSPost2010Prop47
 90
       50
102
RTVSPost2010PropOp47
 70
     1
102
RTVSPost2010Prop48
 90
       50
102
RTVSPost2010PropOp48
 70
     1
102
RTVSPost2010Prop49
280
     0
102
RTVSPost2010PropOp49
 70
     1
102
RTVSPost2010Prop50
 90
       50
102
RTVSPost2010PropOp50
 70
     1
102
RTVSPost2010Prop51ColorIndex
 90
      256
102
RTVSPost2010Prop51ColorRGB
 90
-16777216
102
RTVSPost2010PropOp51
 70
     0
102
RTVSPost2010Prop52
140
1.0
102
RTVSPost2010PropOp52
 70
     0
102
RTVSPost2010Prop53
 90
        2
102
RTVSPost2010PropOp53
 70
     1
102
RTVSPost2010Prop54
  1
strokes_ogs.tif
102
RTVSPost2010PropOp54
 70
     1
102
RTVSPost2010Prop55
280
     0
102
RTVSPost2010PropOp55
 70
     1
102
RTVSPost2010Prop56
140
1.0
102
RTVSPost2010PropOp56
 70
     1
102
RTVSPost2010Prop57
140
1.0
102
RTVSPost2010PropOp57
 70
     1
  0
XRECORD
  5
B2
102
{ACAD_REACTORS
330
B1
102
}
330
B1
100
AcDbXrecord
280
     1
102
RTVSPropertyOp0
 70
     1
102
RTVSPropertyOp1
 70
     1
102
RTVSPropertyOp2
 70
     1
102
RTVSPropertyOp3
 70
     1
102
RTVSPropertyOp4
 70
     1
102
RTVSPropertyOp5
 70
     1
102
RTVSPropertyOp6
 70
     1
102
RTVSPropertyOp7
 70
     1
102
RTVSPropertyOp8
 70
     1
102
RTVSPropertyOp9
 70
     1
102
RTVSPropertyOp10
 70
     1
102
RTVSPropertyOp11
 70
     1
102
RTVSPropertyOp12
 70
     1
102
RTVSPropertyOp13
 70
     1
102
RTVSPropertyOp14
 70
     1
102
RTVSPropertyOp15
 70
     1
102
RTVSPropertyOp16
 70
     1
102
RTVSPropertyOp17
 70
     1
102
RTVSPropertyOp18
 70
     1
102
RTVSPropertyOp19
 70
     1
102
RTVSPropertyOp20
 70
     1
102
RTVSPropertyOp21
 70
     1
102
RTVSPropertyOp22
 70
     1
102
RTVSPropertyOp23
 70
     1
102
RTVSPropertyOp24
 70
     1
102
RTVSPropertyOp25
 70
     1
102
RTVSPropertyOp26
 70
     1
102
RTVSPropertyOp27
 70
     1
102
RTVSPropertyOp28
 70
     1
102
RTVSPropertyOp29
 70
     1
102
RTVSPropertyOp30
 70
     1
102
RTVSPropertyOp31
 70
     1
102
RTVSPropertyOp32
 70
     1
102
RTVSPropertyOp33
 70
     1
102
RTVSPropertyOp34
 70
     1
102
RTVSPropertyOp35
 70
     1
102
RTVSPropertyOp36
 70
     1
102
RTVSPropertyOp37
 70
     1
102
RTVSPropertyOp38
 70
     1
102
RTVSPropertyOp39
 70
     1
102
RTVSPropertyOp40
 70
     1
102
RTVSPropertyOp41
 70
     1
102
RTVSPropertyOp42
 70
     1
102
RTVSPropertyOp43
 70
     1
102
RTVSPropertyOp44
 70
     1
102
RTVSPropertyOp45
 70
     1
102
RTVSPropertyOp46
 70
     1
102
RTVSPropertyOp47
 70
     1
102
RTVSPropertyOp48
 70
     1
102
RTVSPropertyOp49
 70
     1
102
RTVSPropertyOp50
 70
     1
102
RTVSPropertyOp51
 70
     0
102
RTVSPropertyOp52
 70
     0
102
RTVSPropertyOp53
 70
     1
102
RTVSPropertyOp54
 70
     1
102
RTVSPropertyOp55
 70
     1
102
RTVSPropertyOp56
 70
     1
102
RTVSPropertyOp57
 70
     1
102
RTVSPost2010Prop28
280
     0
102
RTVSPost2010PropOp28
 70
     1
102
RTVSPost2010Prop29
280
     1
102
RTVSPost2010PropOp29
 70
     1
102
RTVSPost2010Prop30
280
     1
102
RTVSPost2010PropOp30
 70
     1
102
RTVSPost2010Prop31
280
     0
102
RTVSPost2010PropOp31
 70
     1
102
RTVSPost2010Prop32
280
     0
102
RTVSPost2010PropOp32
 70
     1
102
RTVSPost2010Prop33
280
     0
102
RTVSPost2010PropOp33
 70
     1
102
RTVSPost2010Prop34
280
     0
102
RTVSPost2010PropOp34
 70
     1
102
RTVSPost2010Prop35
280
     0
102
RTVSPost2010PropOp35
 70
     1
102
RTVSPost2010Prop36
280
     0
102
RTVSPost2010PropOp36
 70
     1
102
RTVSPost2010Prop37
 90
       50
102
RTVSPost2010PropOp37
 70
     1
102
RTVSPost2010Prop38
140
0.0
102
RTVSPost2010PropOp38
 70
     1
102
RTVSPost2010Prop39
140
1.0
102
RTVSPost2010PropOp39
 70
     1
102
RTVSPost2010Prop40
 90
        0
102
RTVSPost2010PropOp40
 70
     1
102
RTVSPost2010Prop41ColorIndex
 90
       18
102
RTVSPost2010Prop41ColorRGB
 90
        0
102
RTVSPost2010PropOp41
 70
     1
102
RTVSPost2010Prop42
 90
       50
102
RTVSPost2010PropOp42
 70
     1
102
RTVSPost2010Prop43
 90
        3
102
RTVSPost2010PropOp43
 70
     1
102
RTVSPost2010Prop44ColorIndex
 90
        5
102
RTVSPost2010Prop44ColorRGB
 90
      255
102
RTVSPost2010PropOp44
 70
     1
102
RTVSPost2010Prop45
280
     0
102
RTVSPost2010PropOp45
 70
     1
102
RTVSPost2010Prop46
 90
       50
102
RTVSPost2010PropOp46
 70
     1
102
RTVSPost2010Prop47
 90
       50
102
RTVSPost2010PropOp47
 70
     1
102
RTVSPost2010Prop48
 90
       50
102
RTVSPost2010PropOp48
 70
     1
102
RTVSPost2010Prop49
280
     0
102
RTVSPost2010PropOp49
 70
     1
102
RTVSPost2010Prop50
 90
       50
102
RTVSPost2010PropOp50
 70
     1
102
RTVSPost2010Prop51ColorIndex
 90
      256
102
RTVSPost2010Prop51ColorRGB
 90
-16777216
102
RTVSPost2010PropOp51
 70
     0
102
RTVSPost2010Prop52
140
1.0
102
RTVSPost2010PropOp52
 70
     0
102
RTVSPost2010Prop53
 90
        2
102
RTVSPost2010PropOp53
 70
     1
102
RTVSPost2010Prop54
  1
strokes_ogs.tif
102
RTVSPost2010PropOp54
 70
     1
102
RTVSPost2010Prop55
280
     0
102
RTVSPost2010PropOp55
 70
     1
102
RTVSPost2010Prop56
140
1.0
102
RTVSPost2010PropOp56
 70
     1
102
RTVSPost2010Prop57
140
1.0
102
RTVSPost2010PropOp57
 70
     1
  0
XRECORD
  5
D2
102
{ACAD_REACTORS
330
D1
102
}
330
D1
100
AcDbXrecord
280
     1
102
RTVSPropertyOp0
 70
     1
102
RTVSPropertyOp1
 70
     1
102
RTVSPropertyOp2
 70
     1
102
RTVSPropertyOp3
 70
     1
102
RTVSPropertyOp4
 70
     1
102
RTVSPropertyOp5
 70
     1
102
RTVSPropertyOp6
 70
     1
102
RTVSPropertyOp7
 70
     1
102
RTVSPropertyOp8
 70
     1
102
RTVSPropertyOp9
 70
     1
102
RTVSPropertyOp10
 70
     1
102
RTVSPropertyOp11
 70
     1
102
RTVSPropertyOp12
 70
     1
102
RTVSPropertyOp13
 70
     1
102
RTVSPropertyOp14
 70
     1
102
RTVSPropertyOp15
 70
     1
102
RTVSPropertyOp16
 70
     1
102
RTVSPropertyOp17
 70
     1
102
RTVSPropertyOp18
 70
     1
102
RTVSPropertyOp19
 70
     1
102
RTVSPropertyOp20
 70
     1
102
RTVSPropertyOp21
 70
     1
102
RTVSPropertyOp22
 70
     1
102
RTVSPropertyOp23
 70
     1
102
RTVSPropertyOp24
 70
     1
102
RTVSPropertyOp25
 70
     1
102
RTVSPropertyOp26
 70
     1
102
RTVSPropertyOp27
 70
     1
102
RTVSPropertyOp28
 70
     1
102
RTVSPropertyOp29
 70
     1
102
RTVSPropertyOp30
 70
     1
102
RTVSPropertyOp31
 70
     1
102
RTVSPropertyOp32
 70
     1
102
RTVSPropertyOp33
 70
     1
102
RTVSPropertyOp34
 70
     1
102
RTVSPropertyOp35
 70
     1
102
RTVSPropertyOp36
 70
     1
102
RTVSPropertyOp37
 70
     1
102
RTVSPropertyOp38
 70
     1
102
RTVSPropertyOp39
 70
     1
102
RTVSPropertyOp40
 70
     1
102
RTVSPropertyOp41
 70
     1
102
RTVSPropertyOp42
 70
     1
102
RTVSPropertyOp43
 70
     1
102
RTVSPropertyOp44
 70
     1
102
RTVSPropertyOp45
 70
     1
102
RTVSPropertyOp46
 70
     1
102
RTVSPropertyOp47
 70
     1
102
RTVSPropertyOp48
 70
     1
102
RTVSPropertyOp49
 70
     1
102
RTVSPropertyOp50
 70
     1
102
RTVSPropertyOp51
 70
     0
102
RTVSPropertyOp52
 70
     0
102
RTVSPropertyOp53
 70
     1
102
RTVSPropertyOp54
 70
     1
102
RTVSPropertyOp55
 70
     1
102
RTVSPropertyOp56
 70
     1
102
RTVSPropertyOp57
 70
     1
102
RTVSPost2010Prop28
280
     0
102
RTVSPost2010PropOp28
 70
     1
102
RTVSPost2010Prop29
280
     1
102
RTVSPost2010PropOp29
 70
     1
102
RTVSPost2010Prop30
280
     1
102
RTVSPost2010PropOp30
 70
     1
102
RTVSPost2010Prop31
280
     0
102
RTVSPost2010PropOp31
 70
     1
102
RTVSPost2010Prop32
280
     0
102
RTVSPost2010PropOp32
 70
     1
102
RTVSPost2010Prop33
280
     0
102
RTVSPost2010PropOp33
 70
     1
102
RTVSPost2010Prop34
280
     0
102
RTVSPost2010PropOp34
 70
     1
102
RTVSPost2010Prop35
280
     0
102
RTVSPost2010PropOp35
 70
     1
102
RTVSPost2010Prop36
280
     0
102
RTVSPost2010PropOp36
 70
     1
102
RTVSPost2010Prop37
 90
       50
102
RTVSPost2010PropOp37
 70
     1
102
RTVSPost2010Prop38
140
0.0
102
RTVSPost2010PropOp38
 70
     1
102
RTVSPost2010Prop39
140
1.0
102
RTVSPost2010PropOp39
 70
     1
102
RTVSPost2010Prop40
 90
        0
102
RTVSPost2010PropOp40
 70
     1
102
RTVSPost2010Prop41ColorIndex
 90
       18
102
RTVSPost2010Prop41ColorRGB
 90
        0
102
RTVSPost2010PropOp41
 70
     1
102
RTVSPost2010Prop42
 90
       50
102
RTVSPost2010PropOp42
 70
     1
102
RTVSPost2010Prop43
 90
        3
102
RTVSPost2010PropOp43
 70
     1
102
RTVSPost2010Prop44ColorIndex
 90
        5
102
RTVSPost2010Prop44ColorRGB
 90
      255
102
RTVSPost2010PropOp44
 70
     1
102
RTVSPost2010Prop45
280
     0
102
RTVSPost2010PropOp45
 70
     1
102
RTVSPost2010Prop46
 90
       50
102
RTVSPost2010PropOp46
 70
     1
102
RTVSPost2010Prop47
 90
       50
102
RTVSPost2010PropOp47
 70
     1
102
RTVSPost2010Prop48
 90
       50
102
RTVSPost2010PropOp48
 70
     1
102
RTVSPost2010Prop49
280
     0
102
RTVSPost2010PropOp49
 70
     1
102
RTVSPost2010Prop50
 90
       50
102
RTVSPost2010PropOp50
 70
     1
102
RTVSPost2010Prop51ColorIndex
 90
      256
102
RTVSPost2010Prop51ColorRGB
 90
-16777216
102
RTVSPost2010PropOp51
 70
     0
102
RTVSPost2010Prop52
140
1.0
102
RTVSPost2010PropOp52
 70
     0
102
RTVSPost2010Prop53
 90
        2
102
RTVSPost2010PropOp53
 70
     1
102
RTVSPost2010Prop54
  1
strokes_ogs.tif
102
RTVSPost2010PropOp54
 70
     1
102
RTVSPost2010Prop55
280
     0
102
RTVSPost2010PropOp55
 70
     1
102
RTVSPost2010Prop56
140
1.0
102
RTVSPost2010PropOp56
 70
     1
102
RTVSPost2010Prop57
140
1.0
102
RTVSPost2010PropOp57
 70
     1
  0
ENDSEC
  0
EOF
