  0
SECTION
  2
HEADER
  9
$ACADVER
  1
AC1015
  9
$ACADMAINTVER
 70
    20
  9
$DWGCODEPAGE
  3
ANSI_1254
  9
$INSBASE
 10
0.0
 20
0.0
 30
0.0
  9
$EXTMIN
 10
-0.0061591817514675
 20
-0.0120753034561787
 30
0.0
  9
$EXTMAX
 10
720.0621023358722
 20
902.0956697931623
 30
0.0
  9
$LIMMIN
 10
0.0
 20
0.0
  9
$LIMMAX
 10
420.0
 20
297.0
  9
$ORTHOMODE
 70
     1
  9
$REGENMODE
 70
     1
  9
$FILLMODE
 70
     1
  9
$QTEXTMODE
 70
     0
  9
$MIRRTEXT
 70
     0
  9
$LTSCALE
 40
1.0
  9
$ATTMODE
 70
     1
  9
$TEXTSIZE
 40
2.5
  9
$TRACEWID
 40
1.0
  9
$TEXTSTYLE
  7
Standard
  9
$CLAYER
  8
0
  9
$CELTYPE
  6
ByLayer
  9
$CECOLOR
 62
   256
  9
$CELTSCALE
 40
1.0
  9
$DISPSILH
 70
     0
  9
$DIMSCALE
 40
1.0
  9
$DIMASZ
 40
2.5
  9
$DIMEXO
 40
0.625
  9
$DIMDLI
 40
3.75
  9
$DIMRND
 40
0.0
  9
$DIMDLE
 40
0.0
  9
$DIMEXE
 40
1.25
  9
$DIMTP
 40
0.0
  9
$DIMTM
 40
0.0
  9
$DIMTXT
 40
60.0
  9
$DIMCEN
 40
2.5
  9
$DIMTSZ
 40
0.0
  9
$DIMTOL
 70
     0
  9
$DIMLIM
 70
     0
  9
$DIMTIH
 70
     0
  9
$DIMTOH
 70
     0
  9
$DIMSE1
 70
     0
  9
$DIMSE2
 70
     0
  9
$DIMTAD
 70
     1
  9
$DIMZIN
 70
     8
  9
$DIMBLK
  1

  9
$DIMASO
 70
     1
  9
$DIMSHO
 70
     1
  9
$DIMPOST
  1

  9
$DIMAPOST
  1

  9
$DIMALT
 70
     0
  9
$DIMALTD
 70
     3
  9
$DIMALTF
 40
0.03937007874016
  9
$DIMLFAC
 40
1.0
  9
$DIMTOFL
 70
     1
  9
$DIMTVP
 40
0.0
  9
$DIMTIX
 70
     0
  9
$DIMSOXD
 70
     0
  9
$DIMSAH
 70
     0
  9
$DIMBLK1
  1

  9
$DIMBLK2
  1

  9
$DIMSTYLE
  2
ISO-25
  9
$DIMCLRD
 70
     0
  9
$DIMCLRE
 70
     0
  9
$DIMCLRT
 70
     0
  9
$DIMTFAC
 40
1.0
  9
$DIMGAP
 40
0.625
  9
$DIMJUST
 70
     0
  9
$DIMSD1
 70
     0
  9
$DIMSD2
 70
     0
  9
$DIMTOLJ
 70
     0
  9
$DIMTZIN
 70
     8
  9
$DIMALTZ
 70
     0
  9
$DIMALTTZ
 70
     0
  9
$DIMUPT
 70
     0
  9
$DIMDEC
 70
     2
  9
$DIMTDEC
 70
     2
  9
$DIMALTU
 70
     2
  9
$DIMALTTD
 70
     3
  9
$DIMTXSTY
  7
Standard
  9
$DIMAUNIT
 70
     0
  9
$DIMADEC
 70
     0
  9
$DIMALTRND
 40
0.0
  9
$DIMAZIN
 70
     0
  9
$DIMDSEP
 70
    44
  9
$DIMATFIT
 70
     3
  9
$DIMFRAC
 70
     0
  9
$DIMLDRBLK
  1

  9
$DIMLUNIT
 70
     2
  9
$DIMLWD
 70
    -2
  9
$DIMLWE
 70
    -2
  9
$DIMTMOVE
 70
     0
  9
$LUNITS
 70
     2
  9
$LUPREC
 70
     4
  9
$SKETCHINC
 40
1.0
  9
$FILLETRAD
 40
0.5
  9
$AUNITS
 70
     0
  9
$AUPREC
 70
     0
  9
$MENU
  1
.
  9
$ELEVATION
 40
0.0
  9
$PELEVATION
 40
0.0
  9
$THICKNESS
 40
0.0
  9
$LIMCHECK
 70
     0
  9
$CHAMFERA
 40
0.0
  9
$CHAMFERB
 40
0.0
  9
$CHAMFERC
 40
0.0
  9
$CHAMFERD
 40
0.0
  9
$SKPOLY
 70
     0
  9
$TDCREATE
 40
2457065.634501782
  9
$TDUCREATE
 40
2457065.509501783
  9
$TDUPDATE
 40
2457119.733489838
  9
$TDUUPDATE
 40
2457119.608489838
  9
$TDINDWG
 40
0.4040268866
  9
$TDUSRTIMER
 40
0.4040266204
  9
$USRTIMER
 70
     1
  9
$ANGBASE
 50
0.0
  9
$ANGDIR
 70
     0
  9
$PDMODE
 70
     0
  9
$PDSIZE
 40
0.0
  9
$PLINEWID
 40
0.0
  9
$SPLFRAME
 70
     0
  9
$SPLINETYPE
 70
     6
  9
$SPLINESEGS
 70
     8
  9
$HANDSEED
  5
2722
  9
$SURFTAB1
 70
     6
  9
$SURFTAB2
 70
     6
  9
$SURFTYPE
 70
     6
  9
$SURFU
 70
     6
  9
$SURFV
 70
     6
  9
$UCSBASE
  2

  9
$UCSNAME
  2

  9
$UCSORG
 10
0.0
 20
0.0
 30
0.0
  9
$UCSXDIR
 10
1.0
 20
0.0
 30
0.0
  9
$UCSYDIR
 10
0.0
 20
1.0
 30
0.0
  9
$UCSORTHOREF
  2

  9
$UCSORTHOVIEW
 70
     0
  9
$UCSORGTOP
 10
0.0
 20
0.0
 30
0.0
  9
$UCSORGBOTTOM
 10
0.0
 20
0.0
 30
0.0
  9
$UCSORGLEFT
 10
0.0
 20
0.0
 30
0.0
  9
$UCSORGRIGHT
 10
0.0
 20
0.0
 30
0.0
  9
$UCSORGFRONT
 10
0.0
 20
0.0
 30
0.0
  9
$UCSORGBACK
 10
0.0
 20
0.0
 30
0.0
  9
$PUCSBASE
  2

  9
$PUCSNAME
  2

  9
$PUCSORG
 10
0.0
 20
0.0
 30
0.0
  9
$PUCSXDIR
 10
1.0
 20
0.0
 30
0.0
  9
$PUCSYDIR
 10
0.0
 20
1.0
 30
0.0
  9
$PUCSORTHOREF
  2

  9
$PUCSORTHOVIEW
 70
     0
  9
$PUCSORGTOP
 10
0.0
 20
0.0
 30
0.0
  9
$PUCSORGBOTTOM
 10
0.0
 20
0.0
 30
0.0
  9
$PUCSORGLEFT
 10
0.0
 20
0.0
 30
0.0
  9
$PUCSORGRIGHT
 10
0.0
 20
0.0
 30
0.0
  9
$PUCSORGFRONT
 10
0.0
 20
0.0
 30
0.0
  9
$PUCSORGBACK
 10
0.0
 20
0.0
 30
0.0
  9
$USERI1
 70
     0
  9
$USERI2
 70
     0
  9
$USERI3
 70
     0
  9
$USERI4
 70
     0
  9
$USERI5
 70
     0
  9
$USERR1
 40
0.0
  9
$USERR2
 40
0.0
  9
$USERR3
 40
0.0
  9
$USERR4
 40
0.0
  9
$USERR5
 40
0.0
  9
$WORLDVIEW
 70
     1
  9
$SHADEDGE
 70
     3
  9
$SHADEDIF
 70
    70
  9
$TILEMODE
 70
     1
  9
$MAXACTVP
 70
    64
  9
$PINSBASE
 10
0.0
 20
0.0
 30
0.0
  9
$PLIMCHECK
 70
     0
  9
$PEXTMIN
 10
0.0
 20
0.0
 30
0.0
  9
$PEXTMAX
 10
0.0
 20
0.0
 30
0.0
  9
$PLIMMIN
 10
0.0
 20
0.0
  9
$PLIMMAX
 10
12.0
 20
9.0
  9
$UNITMODE
 70
     0
  9
$VISRETAIN
 70
     1
  9
$PLINEGEN
 70
     0
  9
$PSLTSCALE
 70
     1
  9
$TREEDEPTH
 70
  3020
  9
$CMLSTYLE
  2
Standard
  9
$CMLJUST
 70
     0
  9
$CMLSCALE
 40
20.0
  9
$PROXYGRAPHICS
 70
     1
  9
$MEASUREMENT
 70
     1
  9
$CELWEIGHT
370
    -1
  9
$ENDCAPS
280
     0
  9
$JOINSTYLE
280
     0
  9
$LWDISPLAY
290
     0
  9
$INSUNITS
 70
     4
  9
$HYPERLINKBASE
  1

  9
$STYLESHEET
  1

  9
$XEDIT
290
     1
  9
$CEPSNTYPE
380
     0
  9
$PSTYLEMODE
290
     1
  9
$FINGERPRINTGUID
  2
{5FEA69AF-AED5-4522-9EAA-EC344F9C55EC}
  9
$VERSIONGUID
  2
{B0F3B689-C3FB-4B01-9A73-822889DB763A}
  9
$EXTNAMES
290
     1
  9
$PSVPSCALE
 40
0.0
  9
$OLESTARTUP
290
     0
  0
ENDSEC
  0
SECTION
  2
CLASSES
  0
CLASS
  1
ACDBDICTIONARYWDFLT
  2
AcDbDictionaryWithDefault
  3
ObjectDBX Classes
 90
        0
280
     0
281
     0
  0
CLASS
  1
ACDBPLACEHOLDER
  2
AcDbPlaceHolder
  3
ObjectDBX Classes
 90
        0
280
     0
281
     0
  0
CLASS
  1
LAYOUT
  2
AcDbLayout
  3
ObjectDBX Classes
 90
        0
280
     0
281
     0
  0
CLASS
  1
DICTIONARYVAR
  2
AcDbDictionaryVar
  3
ObjectDBX Classes
 90
        0
280
     0
281
     0
  0
CLASS
  1
TABLESTYLE
  2
AcDbTableStyle
  3
ObjectDBX Classes
 90
     4095
280
     0
281
     0
  0
CLASS
  1
MATERIAL
  2
AcDbMaterial
  3
ObjectDBX Classes
 90
     1153
280
     0
281
     0
  0
CLASS
  1
VISUALSTYLE
  2
AcDbVisualStyle
  3
ObjectDBX Classes
 90
     4095
280
     0
281
     0
  0
CLASS
  1
SCALE
  2
AcDbScale
  3
ObjectDBX Classes
 90
     1153
280
     0
281
     0
  0
CLASS
  1
MLEADERSTYLE
  2
AcDbMLeaderStyle
  3
ACDB_MLEADERSTYLE_CLASS
 90
     4095
280
     0
281
     0
  0
CLASS
  1
CELLSTYLEMAP
  2
AcDbCellStyleMap
  3
ObjectDBX Classes
 90
     1152
280
     0
281
     0
  0
CLASS
  1
EXACXREFPANELOBJECT
  2
ExAcXREFPanelObject
  3
EXAC_ESW
 90
    33793
280
     0
281
     0
  0
CLASS
  1
NPOCOLLECTION
  2
AcDbImpNonPersistentObjectsCollection
  3
ObjectDBX Classes
 90
    33921
280
     0
281
     0
  0
CLASS
  1
LAYER_INDEX
  2
AcDbLayerIndex
  3
ObjectDBX Classes
 90
    32768
280
     0
281
     0
  0
CLASS
  1
SPATIAL_INDEX
  2
AcDbSpatialIndex
  3
ObjectDBX Classes
 90
    32768
280
     0
281
     0
  0
CLASS
  1
IDBUFFER
  2
AcDbIdBuffer
  3
ObjectDBX Classes
 90
    32768
280
     0
281
     0
  0
CLASS
  1
ACDBSECTIONVIEWSTYLE
  2
AcDbSectionViewStyle
  3
ObjectDBX Classes
 90
     1025
280
     0
281
     0
  0
CLASS
  1
ACDBDETAILVIEWSTYLE
  2
AcDbDetailViewStyle
  3
ObjectDBX Classes
 90
     1025
280
     0
281
     0
  0
CLASS
  1
IMAGEDEF
  2
AcDbRasterImageDef
  3
ISM
 90
        0
280
     0
281
     0
  0
CLASS
  1
RASTERVARIABLES
  2
AcDbRasterVariables
  3
ISM
 90
        0
280
     0
281
     0
  0
CLASS
  1
IMAGEDEF_REACTOR
  2
AcDbRasterImageDefReactor
  3
ISM
 90
    32769
280
     0
281
     0
  0
CLASS
  1
IMAGE
  2
AcDbRasterImage
  3
ISM
 90
    34943
280
     0
281
     1
  0
CLASS
  1
SORTENTSTABLE
  2
AcDbSortentsTable
  3
ObjectDBX Classes
 90
        0
280
     0
281
     0
  0
CLASS
  1
DIMASSOC
  2
AcDbDimAssoc
  3
\"AcDbDimAssoc|Product Desc:     AcDim ARX App For Dimension|Company:          Autodesk, Inc.|WEB Address:      www.autodesk.com\"
 90
    32768
280
     0
281
     0
  0
CLASS
  1
SOLID_BACKGROUND
  2
AcDbSolidBackground
  3
SCENEOE
 90
    36863
280
     0
281
     0
  0
CLASS
  1
ACDBASSOCNETWORK
  2
AcDbAssocNetwork
  3
ObjectDBX Classes
 90
    33793
280
     0
281
     0
  0
CLASS
  1
ACDBASSOCACTION
  2
AcDbAssocAction
  3
ObjectDBX Classes
 90
    33793
280
     0
281
     0
  0
CLASS
  1
ACDBASSOCROTATEDDIMACTIONBODY
  2
AcDbAssocRotatedDimActionBody
  3
ObjectDBX Classes
 90
    33793
280
     0
281
     0
  0
CLASS
  1
ACDBASSOCOSNAPPOINTREFACTIONPARAM
  2
AcDbAssocOsnapPointRefActionParam
  3
ObjectDBX Classes
 90
    33793
280
     0
281
     0
  0
CLASS
  1
ACDBASSOCEDGEACTIONPARAM
  2
AcDbAssocEdgeActionParam
  3
ObjectDBX Classes
 90
    33793
280
     0
281
     0
  0
CLASS
  1
ACDBASSOCPERSSUBENTMANAGER
  2
AcDbAssocPersSubentManager
  3
ObjectDBX Classes
 90
     1024
280
     0
281
     0
  0
CLASS
  1
ACDBASSOCGEOMDEPENDENCY
  2
AcDbAssocGeomDependency
  3
ObjectDBX Classes
 90
    33793
280
     0
281
     0
  0
CLASS
  1
ACDBASSOCDEPENDENCY
  2
AcDbAssocDependency
  3
ObjectDBX Classes
 90
    33793
280
     0
281
     0
  0
ENDSEC
  0
SECTION
  2
TABLES
  0
TABLE
  2
VPORT
  5
8
330
0
100
AcDbSymbolTable
 70
     1
  0
VPORT
  5
EA
330
8
100
AcDbSymbolTableRecord
100
AcDbViewportTableRecord
  2
*Active
 70
     0
 10
0.0
 20
0.0
 11
1.0
 21
1.0
 12
-4875.083034830384
 22
616.1701393490528
 13
0.0
 23
0.0
 14
10.0
 24
10.0
 15
10.0
 25
10.0
 16
-0.000000000007276
 26
0.0
 36
31093.29813701083
 17
5493.521728515625
 27
-199.6221313476561
 37
0.0
 40
1341.830604975582
 41
2.256198347107437
 42
50.0
 43
0.0
 44
0.0
 50
0.0
 51
0.0
 71
     0
 72
  1000
 73
     1
 74
     3
 75
     0
 76
     1
 77
     0
 78
     0
281
     0
 65
     1
110
0.0
120
0.0
130
0.0
111
1.0
121
0.0
131
0.0
112
0.0
122
1.0
132
0.0
 79
     0
146
0.0
1001
ACAD_NAV_VCDISPLAY
1070
     3
  0
ENDTAB
  0
TABLE
  2
LTYPE
  5
5
330
0
100
AcDbSymbolTable
 70
     1
  0
LTYPE
  5
14
330
5
100
AcDbSymbolTableRecord
100
AcDbLinetypeTableRecord
  2
ByBlock
 70
     0
  3

 72
    65
 73
     0
 40
0.0
  0
LTYPE
  5
15
330
5
100
AcDbSymbolTableRecord
100
AcDbLinetypeTableRecord
  2
ByLayer
 70
     0
  3

 72
    65
 73
     0
 40
0.0
  0
LTYPE
  5
16
330
5
100
AcDbSymbolTableRecord
100
AcDbLinetypeTableRecord
  2
Continuous
 70
     0
  3
Solid line
 72
    65
 73
     0
 40
0.0
  0
ENDTAB
  0
TABLE
  2
LAYER
  5
2
102
{ACAD_XDICTIONARY
360
1FF
102
}
330
0
100
AcDbSymbolTable
 70
     3
  0
LAYER
  5
10
102
{ACAD_XDICTIONARY
360
13C
102
}
330
2
100
AcDbSymbolTableRecord
100
AcDbLayerTableRecord
  2
0
 70
     0
 62
     7
  6
Continuous
370
    -3
390
F
  0
LAYER
  5
574
330
2
100
AcDbSymbolTableRecord
100
AcDbLayerTableRecord
  2
Defpoints
 70
     0
 62
     7
  6
Continuous
290
     0
370
    -3
390
F
  0
LAYER
  5
1873
102
{ACAD_XDICTIONARY
360
1874
102
}
330
2
100
AcDbSymbolTableRecord
100
AcDbLayerTableRecord
  2
1 mermer
 70
     0
 62
   232
  6
Continuous
370
    -3
390
F
  0
ENDTAB
  0
TABLE
  2
STYLE
  5
3
330
0
100
AcDbSymbolTable
 70
     2
  0
STYLE
  5
11
330
3
100
AcDbSymbolTableRecord
100
AcDbTextStyleTableRecord
  2
Standard
 70
     0
 40
0.0
 41
1.0
 50
0.0
 71
     0
 42
2.5
  3
ARIAL.TTF
  4

1001
ACAD
1000
Arial
1071
       34
  0
STYLE
  5
132
330
3
100
AcDbSymbolTableRecord
100
AcDbTextStyleTableRecord
  2
Annotative
 70
     0
 40
0.0
 41
1.0
 50
0.0
 71
     0
 42
2.5
  3
ARIAL.TTF
  4

1001
AcadAnnotative
1000
AnnotativeData
1002
{
1070
     1
1070
     1
1002
}
1001
ACAD
1000
Arial
1071
       34
  0
ENDTAB
  0
TABLE
  2
VIEW
  5
6
330
0
100
AcDbSymbolTable
 70
     0
  0
ENDTAB
  0
TABLE
  2
UCS
  5
7
330
0
100
AcDbSymbolTable
 70
     0
  0
ENDTAB
  0
TABLE
  2
APPID
  5
9
330
0
100
AcDbSymbolTable
 70
    12
  0
APPID
  5
12
330
9
100
AcDbSymbolTableRecord
100
AcDbRegAppTableRecord
  2
ACAD
 70
     0
  0
APPID
  5
9E
330
9
100
AcDbSymbolTableRecord
100
AcDbRegAppTableRecord
  2
ACAD_PSEXT
 70
     0
  0
APPID
  5
133
330
9
100
AcDbSymbolTableRecord
100
AcDbRegAppTableRecord
  2
AcadAnnoPO
 70
     0
  0
APPID
  5
134
330
9
100
AcDbSymbolTableRecord
100
AcDbRegAppTableRecord
  2
AcadAnnotative
 70
     0
  0
APPID
  5
135
330
9
100
AcDbSymbolTableRecord
100
AcDbRegAppTableRecord
  2
ACAD_DSTYLE_DIMJAG
 70
     0
  0
APPID
  5
136
330
9
100
AcDbSymbolTableRecord
100
AcDbRegAppTableRecord
  2
ACAD_DSTYLE_DIMTALN
 70
     0
  0
APPID
  5
165
330
9
100
AcDbSymbolTableRecord
100
AcDbRegAppTableRecord
  2
ACAD_MLEADERVER
 70
     0
  0
APPID
  5
217
330
9
100
AcDbSymbolTableRecord
100
AcDbRegAppTableRecord
  2
ACAD_NAV_VCDISPLAY
 70
     0
  0
APPID
  5
2EE
330
9
100
AcDbSymbolTableRecord
100
AcDbRegAppTableRecord
  2
DCO15
 70
     0
  0
APPID
  5
7C2
330
9
100
AcDbSymbolTableRecord
100
AcDbRegAppTableRecord
  2
ACAD_EXEMPT_FROM_CAD_STANDARDS
 70
     0
  0
APPID
  5
2329
330
9
100
AcDbSymbolTableRecord
100
AcDbRegAppTableRecord
  2
ACAD_OBJECT_CHANGE_GUID
 70
     0
  0
APPID
  5
23DD
330
9
100
AcDbSymbolTableRecord
100
AcDbRegAppTableRecord
  2
ACAD_STEPID
 70
     0
  0
ENDTAB
  0
TABLE
  2
DIMSTYLE
  5
A
330
0
100
AcDbSymbolTable
 70
     3
100
AcDbDimStyleTable
 71
     2
340
27
340
137
  0
DIMSTYLE
105
1B0
330
A
100
AcDbSymbolTableRecord
100
AcDbDimStyleTableRecord
  2
Standard
 70
     0
340
11
  0
DIMSTYLE
105
137
330
A
100
AcDbSymbolTableRecord
100
AcDbDimStyleTableRecord
  2
Annotative
 70
     0
 40
0.0
 41
2.5
 42
0.625
 43
3.75
 44
1.25
 73
     0
 74
     0
 77
     1
 78
     8
140
2.5
141
2.5
143
0.03937007874016
147
0.625
171
     3
172
     1
271
     2
272
     2
274
     3
278
    44
283
     0
284
     8
340
11
1001
AcadAnnotative
1000
AnnotativeData
1002
{
1070
     1
1070
     1
1002
}
1001
ACAD_DSTYLE_DIMJAG
1070
   388
1040
1.5
1001
ACAD_DSTYLE_DIMTALN
1070
   392
1070
     0
  0
DIMSTYLE
105
27
330
A
100
AcDbSymbolTableRecord
100
AcDbDimStyleTableRecord
  2
ISO-25
 70
     0
 41
2.5
 42
0.625
 43
3.75
 44
1.25
 73
     0
 74
     0
 77
     1
 78
     8
140
60.0
141
2.5
143
0.03937007874016
147
0.625
171
     3
172
     1
271
     2
272
     2
274
     3
278
    44
283
     0
284
     8
340
11
1001
ACAD_DSTYLE_DIMJAG
1070
   388
1040
1.5
1001
ACAD_DSTYLE_DIMTALN
1070
   392
1070
     0
  0
ENDTAB
  0
TABLE
  2
BLOCK_RECORD
  5
1
330
0
100
AcDbSymbolTable
 70
    18
  0
BLOCK_RECORD
  5
1F
102
{ACAD_XDICTIONARY
360
1CE
102
}
330
1
100
AcDbSymbolTableRecord
100
AcDbBlockTableRecord
  2
*Model_Space
340
22
  0
BLOCK_RECORD
  5
D2
330
1
100
AcDbSymbolTableRecord
100
AcDbBlockTableRecord
  2
*Paper_Space
340
D3
  0
BLOCK_RECORD
  5
D6
330
1
100
AcDbSymbolTableRecord
100
AcDbBlockTableRecord
  2
*Paper_Space0
340
D7
  0
BLOCK_RECORD
  5
575
330
1
100
AcDbSymbolTableRecord
100
AcDbBlockTableRecord
  2
*D1
340
0
  0
BLOCK_RECORD
  5
5F2
330
1
100
AcDbSymbolTableRecord
100
AcDbBlockTableRecord
  2
*D2
340
0
  0
BLOCK_RECORD
  5
60A
330
1
100
AcDbSymbolTableRecord
100
AcDbBlockTableRecord
  2
*D3
340
0
  0
BLOCK_RECORD
  5
89C
330
1
100
AcDbSymbolTableRecord
100
AcDbBlockTableRecord
  2
*D4
340
0
  0
BLOCK_RECORD
  5
8B4
330
1
100
AcDbSymbolTableRecord
100
AcDbBlockTableRecord
  2
*D5
340
0
  0
BLOCK_RECORD
  5
96E
330
1
100
AcDbSymbolTableRecord
100
AcDbBlockTableRecord
  2
*D6
340
0
  0
BLOCK_RECORD
  5
B81
330
1
100
AcDbSymbolTableRecord
100
AcDbBlockTableRecord
  2
*D7
340
0
  0
BLOCK_RECORD
  5
BA5
330
1
100
AcDbSymbolTableRecord
100
AcDbBlockTableRecord
  2
*D8
340
0
  0
BLOCK_RECORD
  5
E18
330
1
100
AcDbSymbolTableRecord
100
AcDbBlockTableRecord
  2
*D9
340
0
  0
BLOCK_RECORD
  5
101B
330
1
100
AcDbSymbolTableRecord
100
AcDbBlockTableRecord
  2
*D10
340
0
  0
BLOCK_RECORD
  5
1033
330
1
100
AcDbSymbolTableRecord
100
AcDbBlockTableRecord
  2
*D11
340
0
  0
BLOCK_RECORD
  5
12C1
330
1
100
AcDbSymbolTableRecord
100
AcDbBlockTableRecord
  2
*D12
340
0
  0
BLOCK_RECORD
  5
1E1C
330
1
100
AcDbSymbolTableRecord
100
AcDbBlockTableRecord
  2
*D13
340
0
  0
BLOCK_RECORD
  5
1EA0
330
1
100
AcDbSymbolTableRecord
100
AcDbBlockTableRecord
  2
*D14
340
0
  0
BLOCK_RECORD
  5
23C8
330
1
100
AcDbSymbolTableRecord
100
AcDbBlockTableRecord
  2
*D15
340
0
  0
BLOCK_RECORD
  5
23E4
330
1
100
AcDbSymbolTableRecord
100
AcDbBlockTableRecord
  2
*D16
340
0
  0
BLOCK_RECORD
  5
2557
330
1
100
AcDbSymbolTableRecord
100
AcDbBlockTableRecord
  2
*D17
340
0
  0
ENDTAB
  0
ENDSEC
  0
SECTION
  2
BLOCKS
  0
BLOCK
  5
20
330
1F
100
AcDbEntity
  8
0
100
AcDbBlockBegin
  2
*Model_Space
 70
     0
 10
0.0
 20
0.0
 30
0.0
  3
*Model_Space
  1

  0
ENDBLK
  5
21
330
1F
100
AcDbEntity
  8
0
100
AcDbBlockEnd
  0
BLOCK
  5
D4
330
D2
100
AcDbEntity
 67
     1
  8
0
100
AcDbBlockBegin
  2
*Paper_Space
 70
     0
 10
0.0
 20
0.0
 30
0.0
  3
*Paper_Space
  1

  0
ENDBLK
  5
D5
330
D2
100
AcDbEntity
 67
     1
  8
0
100
AcDbBlockEnd
  0
BLOCK
  5
D8
330
D6
100
AcDbEntity
 67
     1
  8
0
100
AcDbBlockBegin
  2
*Paper_Space0
 70
     0
 10
0.0
 20
0.0
 30
0.0
  3
*Paper_Space0
  1

  0
ENDBLK
  5
D9
330
D6
100
AcDbEntity
 67
     1
  8
0
100
AcDbBlockEnd
  0
BLOCK
  5
576
330
575
100
AcDbEntity
  8
0
 62
     1
100
AcDbBlockBegin
  2
*D1
 70
     1
 10
0.0
 20
0.0
 30
0.0
  3
*D1
  1

  0
LINE
  5
582
330
575
100
AcDbEntity
  8
0
 62
     0
370
    -2
100
AcDbLine
 10
5324.170355895461
 20
286.5320843250194
 30
0.0
 11
6192.071697955702
 21
286.5320843250191
 31
0.0
  0
LINE
  5
583
330
575
100
AcDbEntity
  8
0
 62
     0
370
    -2
100
AcDbLine
 10
5324.170355895459
 20
-787.84760601761
 30
0.0
 11
6192.071697955702
 21
-787.8476060176104
 31
0.0
  0
LINE
  5
584
330
575
100
AcDbEntity
  8
0
 62
     0
370
    -2
100
AcDbLine
 10
6190.821697955701
 20
284.0320843250191
 30
0.0
 11
6190.821697955701
 21
-785.3476060176103
 31
0.0
  0
SOLID
  5
585
330
575
100
AcDbEntity
  8
0
 62
     0
100
AcDbTrace
 10
6190.405031289034
 20
284.0320843250191
 30
0.0
 11
6191.238364622368
 21
284.0320843250191
 31
0.0
 12
6190.821697955701
 22
286.5320843250191
 32
0.0
 13
6190.821697955701
 23
286.5320843250191
 33
0.0
  0
SOLID
  5
586
330
575
100
AcDbEntity
  8
0
 62
     0
100
AcDbTrace
 10
6190.405031289034
 20
-785.3476060176103
 30
0.0
 11
6191.238364622368
 21
-785.3476060176103
 31
0.0
 12
6190.821697955701
 22
-787.8476060176104
 32
0.0
 13
6190.821697955701
 23
-787.8476060176104
 33
0.0
  0
MTEXT
  5
587
330
575
100
AcDbEntity
  8
0
 62
     0
100
AcDbMText
 10
6188.694310506861
 20
-250.6577608462946
 30
0.0
 40
2.5
 41
0.0
 71
     5
 72
     1
  1
1074,38
 11
0.0000000000000001
 21
1.0
 31
0.0
 73
     1
 44
1.0
1001
ACAD
1000
MTEXTBEGIN
1070
    73
1070
     1
1070
    44
1040
1.0
1070
    74
1070
     0
1000
MTEXTEND
  0
POINT
  5
588
330
575
100
AcDbEntity
  8
Defpoints
 62
     0
100
AcDbPoint
 10
5323.54535589546
 20
286.5320843250194
 30
0.0
  0
POINT
  5
589
330
575
100
AcDbEntity
  8
Defpoints
 62
     0
100
AcDbPoint
 10
5323.545355895459
 20
-787.84760601761
 30
0.0
  0
POINT
  5
58A
330
575
100
AcDbEntity
  8
Defpoints
 62
     0
100
AcDbPoint
 10
6190.821697955701
 20
-787.8476060176104
 30
0.0
  0
ENDBLK
  5
577
330
575
100
AcDbEntity
  8
0
 62
     1
100
AcDbBlockEnd
  0
BLOCK
  5
5F3
330
5F2
100
AcDbEntity
  8
0
 62
     1
100
AcDbBlockBegin
  2
*D2
 70
     1
 10
0.0
 20
0.0
 30
0.0
  3
*D2
  1

  0
LINE
  5
6A8
330
5F2
100
AcDbEntity
  8
0
 62
     0
370
    -2
100
AcDbLine
 10
7032.50366222677
 20
13.37625189603335
 30
0.0
 11
7492.425238312987
 21
13.37625189603322
 31
0.0
  0
LINE
  5
6A9
330
5F2
100
AcDbEntity
  8
0
 62
     0
370
    -2
100
AcDbLine
 10
7032.50366222677
 20
-887.0258849748298
 30
0.0
 11
7492.425238312987
 21
-887.0258849748301
 31
0.0
  0
LINE
  5
6AA
330
5F2
100
AcDbEntity
  8
0
 62
     0
370
    -2
100
AcDbLine
 10
7491.175238312987
 20
10.87625189603322
 30
0.0
 11
7491.175238312987
 21
-884.5258849748303
 31
0.0
  0
SOLID
  5
6AB
330
5F2
100
AcDbEntity
  8
0
 62
     0
100
AcDbTrace
 10
7490.758571646321
 20
10.87625189603322
 30
0.0
 11
7491.591904979656
 21
10.87625189603322
 31
0.0
 12
7491.175238312987
 22
13.37625189603322
 32
0.0
 13
7491.175238312987
 23
13.37625189603322
 33
0.0
  0
SOLID
  5
6AC
330
5F2
100
AcDbEntity
  8
0
 62
     0
100
AcDbTrace
 10
7490.758571646321
 20
-884.5258849748303
 30
0.0
 11
7491.591904979656
 21
-884.5258849748303
 31
0.0
 12
7491.175238312987
 22
-887.0258849748301
 32
0.0
 13
7491.175238312987
 23
-887.0258849748301
 33
0.0
  0
MTEXT
  5
6AD
330
5F2
100
AcDbEntity
  8
0
 62
     0
100
AcDbMText
 10
7454.492939540816
 20
-436.8248165393971
 30
0.0
 40
60.0
 41
0.0
 71
     5
 72
     1
  1
900,4
 11
0.0000000000000001
 21
1.0
 31
0.0
 73
     1
 44
1.0
1001
ACAD
1000
MTEXTBEGIN
1070
    73
1070
     1
1070
    44
1040
1.0
1070
    74
1070
     0
1000
MTEXTEND
  0
POINT
  5
6AE
330
5F2
100
AcDbEntity
  8
Defpoints
 62
     0
100
AcDbPoint
 10
7031.878662226772
 20
13.37625189603335
 30
0.0
  0
POINT
  5
6AF
330
5F2
100
AcDbEntity
  8
Defpoints
 62
     0
100
AcDbPoint
 10
7031.878662226772
 20
-887.0258849748298
 30
0.0
  0
POINT
  5
6B0
330
5F2
100
AcDbEntity
  8
Defpoints
 62
     0
100
AcDbPoint
 10
7491.175238312987
 20
-887.0258849748301
 30
0.0
  0
ENDBLK
  5
5F4
330
5F2
100
AcDbEntity
  8
0
 62
     1
100
AcDbBlockEnd
  0
BLOCK
  5
60B
330
60A
100
AcDbEntity
  8
0
 62
     1
100
AcDbBlockBegin
  2
*D3
 70
     1
 10
0.0
 20
0.0
 30
0.0
  3
*D3
  1

  0
LINE
  5
69F
330
60A
100
AcDbEntity
  8
0
 62
     0
370
    -2
100
AcDbLine
 10
7382.941191592178
 20
-515.8970215953424
 30
0.0
 11
7382.941191592178
 21
-1066.066971954649
 31
0.0
  0
LINE
  5
6A0
330
60A
100
AcDbEntity
  8
0
 62
     0
370
    -2
100
AcDbLine
 10
6680.816132861359
 20
-515.8970215953464
 30
0.0
 11
6680.816132861359
 21
-1066.066971954649
 31
0.0
  0
LINE
  5
6A1
330
60A
100
AcDbEntity
  8
0
 62
     0
370
    -2
100
AcDbLine
 10
7380.441191592179
 20
-1064.816971954649
 30
0.0
 11
6683.316132861358
 21
-1064.816971954649
 31
0.0
  0
SOLID
  5
6A2
330
60A
100
AcDbEntity
  8
0
 62
     0
100
AcDbTrace
 10
7380.441191592179
 20
-1064.400305287983
 30
0.0
 11
7380.441191592179
 21
-1065.233638621316
 31
0.0
 12
7382.941191592178
 22
-1064.816971954649
 32
0.0
 13
7382.941191592178
 23
-1064.816971954649
 33
0.0
  0
SOLID
  5
6A3
330
60A
100
AcDbEntity
  8
0
 62
     0
100
AcDbTrace
 10
6683.316132861358
 20
-1064.400305287983
 30
0.0
 11
6683.316132861358
 21
-1065.233638621316
 31
0.0
 12
6680.816132861359
 22
-1064.816971954649
 32
0.0
 13
6680.816132861359
 23
-1064.816971954649
 33
0.0
  0
MTEXT
  5
6A4
330
60A
100
AcDbEntity
  8
0
 62
     0
100
AcDbMText
 10
7031.87866222677
 20
-1028.13467318248
 30
0.0
 40
60.0
 41
0.0
 71
     5
 72
     1
  1
702,13
 73
     1
 44
1.0
1001
ACAD
1000
MTEXTBEGIN
1070
    73
1070
     1
1070
    44
1040
1.0
1070
    74
1070
     0
1000
MTEXTEND
  0
POINT
  5
6A5
330
60A
100
AcDbEntity
  8
Defpoints
 62
     0
100
AcDbPoint
 10
7382.941191592178
 20
-515.2720215953426
 30
0.0
  0
POINT
  5
6A6
330
60A
100
AcDbEntity
  8
Defpoints
 62
     0
100
AcDbPoint
 10
6680.816132861359
 20
-515.2720215953462
 30
0.0
  0
POINT
  5
6A7
330
60A
100
AcDbEntity
  8
Defpoints
 62
     0
100
AcDbPoint
 10
6680.816132861359
 20
-1064.816971954649
 30
0.0
  0
ENDBLK
  5
60C
330
60A
100
AcDbEntity
  8
0
 62
     1
100
AcDbBlockEnd
  0
BLOCK
  5
89D
330
89C
100
AcDbEntity
  8
0
 62
     1
100
AcDbBlockBegin
  2
*D4
 70
     1
 10
0.0
 20
0.0
 30
0.0
  3
*D4
  1

  0
LINE
  5
9DA
330
89C
100
AcDbEntity
  8
0
 62
     0
370
    -2
100
AcDbLine
 10
9818.123313111744
 20
-1422.559530674716
 30
0.0
 11
10136.23798502734
 21
-1422.559530674716
 31
0.0
  0
LINE
  5
9DB
330
89C
100
AcDbEntity
  8
0
 62
     0
370
    -2
100
AcDbLine
 10
9834.528552847906
 20
-1921.379579573467
 30
0.0
 11
10136.23798502734
 21
-1921.379579573467
 31
0.0
  0
LINE
  5
9DC
330
89C
100
AcDbEntity
  8
0
 62
     0
370
    -2
100
AcDbLine
 10
10134.98798502733
 20
-1425.059530674716
 30
0.0
 11
10134.98798502733
 21
-1918.879579573467
 31
0.0
  0
SOLID
  5
9DD
330
89C
100
AcDbEntity
  8
0
 62
     0
100
AcDbTrace
 10
10134.57131836067
 20
-1425.059530674716
 30
0.0
 11
10135.404651694
 21
-1425.059530674716
 31
0.0
 12
10134.98798502733
 22
-1422.559530674716
 32
0.0
 13
10134.98798502733
 23
-1422.559530674716
 33
0.0
  0
SOLID
  5
9DE
330
89C
100
AcDbEntity
  8
0
 62
     0
100
AcDbTrace
 10
10134.57131836067
 20
-1918.879579573467
 30
0.0
 11
10135.404651694
 21
-1918.879579573467
 31
0.0
 12
10134.98798502733
 22
-1921.379579573467
 32
0.0
 13
10134.98798502733
 23
-1921.379579573467
 33
0.0
  0
MTEXT
  5
9DF
330
89C
100
AcDbEntity
  8
0
 62
     0
100
AcDbMText
 10
10098.30568625517
 20
-1671.96955512409
 30
0.0
 40
60.0
 41
0.0
 71
     5
 72
     1
  1
498,82
 11
0.0000000000000001
 21
1.0
 31
0.0
 73
     1
 44
1.0
1001
ACAD
1000
MTEXTBEGIN
1070
    73
1070
     1
1070
    44
1040
1.0
1070
    74
1070
     0
1000
MTEXTEND
  0
POINT
  5
9E0
330
89C
100
AcDbEntity
  8
Defpoints
 62
     0
100
AcDbPoint
 10
9817.498313111745
 20
-1422.559530674716
 30
0.0
  0
POINT
  5
9E1
330
89C
100
AcDbEntity
  8
Defpoints
 62
     0
100
AcDbPoint
 10
9833.903552847907
 20
-1921.379579573467
 30
0.0
  0
POINT
  5
9E2
330
89C
100
AcDbEntity
  8
Defpoints
 62
     0
100
AcDbPoint
 10
10134.98798502733
 20
-1921.379579573467
 30
0.0
  0
ENDBLK
  5
89E
330
89C
100
AcDbEntity
  8
0
 62
     1
100
AcDbBlockEnd
  0
BLOCK
  5
8B5
330
8B4
100
AcDbEntity
  8
0
 62
     1
100
AcDbBlockBegin
  2
*D5
 70
     1
 10
0.0
 20
0.0
 30
0.0
  3
*D5
  1

  0
LINE
  5
9E3
330
8B4
100
AcDbEntity
  8
0
 62
     0
370
    -2
100
AcDbLine
 10
10034.59048290283
 20
-1630.869798608731
 30
0.0
 11
10034.59048290283
 21
-2043.629188811915
 31
0.0
  0
LINE
  5
9E4
330
8B4
100
AcDbEntity
  8
0
 62
     0
370
    -2
100
AcDbLine
 10
9534.238601273088
 20
-1642.946075703075
 30
0.0
 11
9534.238601273088
 21
-2043.629188811915
 31
0.0
  0
LINE
  5
9E5
330
8B4
100
AcDbEntity
  8
0
 62
     0
370
    -2
100
AcDbLine
 10
10032.09048290283
 20
-2042.379188811915
 30
0.0
 11
9536.738601273087
 21
-2042.379188811915
 31
0.0
  0
SOLID
  5
9E6
330
8B4
100
AcDbEntity
  8
0
 62
     0
100
AcDbTrace
 10
10032.09048290283
 20
-2041.962522145249
 30
0.0
 11
10032.09048290283
 21
-2042.795855478582
 31
0.0
 12
10034.59048290283
 22
-2042.379188811915
 32
0.0
 13
10034.59048290283
 23
-2042.379188811915
 33
0.0
  0
SOLID
  5
9E7
330
8B4
100
AcDbEntity
  8
0
 62
     0
100
AcDbTrace
 10
9536.738601273087
 20
-2041.962522145249
 30
0.0
 11
9536.738601273087
 21
-2042.795855478582
 31
0.0
 12
9534.238601273088
 22
-2042.379188811915
 32
0.0
 13
9534.238601273088
 23
-2042.379188811915
 33
0.0
  0
MTEXT
  5
9E8
330
8B4
100
AcDbEntity
  8
0
 62
     0
100
AcDbMText
 10
9784.41454208796
 20
-2005.696890039746
 30
0.0
 40
60.0
 41
0.0
 71
     5
 72
     1
  1
500,35
 73
     1
 44
1.0
1001
ACAD
1000
MTEXTBEGIN
1070
    73
1070
     1
1070
    44
1040
1.0
1070
    74
1070
     0
1000
MTEXTEND
  0
POINT
  5
9E9
330
8B4
100
AcDbEntity
  8
Defpoints
 62
     0
100
AcDbPoint
 10
10034.59048290283
 20
-1630.244798608731
 30
0.0
  0
POINT
  5
9EA
330
8B4
100
AcDbEntity
  8
Defpoints
 62
     0
100
AcDbPoint
 10
9534.238601273088
 20
-1642.321075703075
 30
0.0
  0
POINT
  5
9EB
330
8B4
100
AcDbEntity
  8
Defpoints
 62
     0
100
AcDbPoint
 10
9534.238601273088
 20
-2042.379188811915
 30
0.0
  0
ENDBLK
  5
8B6
330
8B4
100
AcDbEntity
  8
0
 62
     1
100
AcDbBlockEnd
  0
BLOCK
  5
96F
330
96E
100
AcDbEntity
  8
0
 62
     1
100
AcDbBlockBegin
  2
*D6
 70
     1
 10
0.0
 20
0.0
 30
0.0
  3
*D6
  1

  0
LINE
  5
97D
330
96E
100
AcDbEntity
  8
0
 62
     0
370
    -2
100
AcDbLine
 10
9905.954898218521
 20
-1242.669318237151
 30
0.0
 11
9952.615012655755
 21
-1242.669318237151
 31
0.0
  0
LINE
  5
97E
330
96E
100
AcDbEntity
  8
0
 62
     0
370
    -2
100
AcDbLine
 10
9905.954898218515
 20
-1247.542344612424
 30
0.0
 11
9952.615012655755
 21
-1247.542344612424
 31
0.0
  0
LINE
  5
97F
330
96E
100
AcDbEntity
  8
0
 62
     0
370
    -2
100
AcDbLine
 10
9951.365012655756
 20
-1240.169318237151
 30
0.0
 11
9951.365012655756
 21
-1237.669318237151
 31
0.0
  0
LINE
  5
980
330
96E
100
AcDbEntity
  8
0
 62
     0
370
    -2
100
AcDbLine
 10
9951.365012655756
 20
-1250.042344612424
 30
0.0
 11
9951.365012655756
 21
-1412.059738882546
 31
0.0
  0
LINE
  5
981
330
96E
100
AcDbEntity
  8
0
 62
     0
370
    -2
100
AcDbLine
 10
9951.365012655756
 20
-1242.669318237151
 30
0.0
 11
9951.365012655756
 21
-1247.542344612424
 31
0.0
  0
SOLID
  5
982
330
96E
100
AcDbEntity
  8
0
 62
     0
100
AcDbTrace
 10
9950.948345989093
 20
-1240.169318237151
 30
0.0
 11
9951.781679322422
 21
-1240.169318237151
 31
0.0
 12
9951.365012655756
 22
-1242.669318237151
 32
0.0
 13
9951.365012655756
 23
-1242.669318237151
 33
0.0
  0
SOLID
  5
983
330
96E
100
AcDbEntity
  8
0
 62
     0
100
AcDbTrace
 10
9950.948345989093
 20
-1250.042344612424
 30
0.0
 11
9951.781679322422
 21
-1250.042344612424
 31
0.0
 12
9951.365012655756
 22
-1247.542344612424
 32
0.0
 13
9951.365012655756
 23
-1247.542344612424
 33
0.0
  0
MTEXT
  5
984
330
96E
100
AcDbEntity
  8
0
 62
     0
100
AcDbMText
 10
9914.682713883587
 20
-1332.301041747483
 30
0.0
 40
60.0
 41
0.0
 71
     5
 72
     1
  1
4,87
 11
0.0000000000000001
 21
1.0
 31
0.0
 73
     1
 44
1.0
1001
ACAD
1000
MTEXTBEGIN
1070
    73
1070
     1
1070
    44
1040
1.0
1070
    74
1070
     0
1000
MTEXTEND
  0
POINT
  5
985
330
96E
100
AcDbEntity
  8
Defpoints
 62
     0
100
AcDbPoint
 10
9905.329898218521
 20
-1242.669318237151
 30
0.0
  0
POINT
  5
986
330
96E
100
AcDbEntity
  8
Defpoints
 62
     0
100
AcDbPoint
 10
9905.329898218521
 20
-1247.542344612424
 30
0.0
  0
POINT
  5
987
330
96E
100
AcDbEntity
  8
Defpoints
 62
     0
100
AcDbPoint
 10
9951.365012655756
 20
-1247.542344612424
 30
0.0
  0
ENDBLK
  5
970
330
96E
100
AcDbEntity
  8
0
 62
     1
100
AcDbBlockEnd
  0
BLOCK
  5
B82
330
B81
100
AcDbEntity
  8
0
 62
     1
100
AcDbBlockBegin
  2
*D7
 70
     1
 10
0.0
 20
0.0
 30
0.0
  3
*D7
  1

  0
LINE
  5
C26
330
B81
100
AcDbEntity
  8
0
 62
     0
370
    -2
100
AcDbLine
 10
10432.07725680542
 20
-1064.257570366996
 30
0.0
 11
10852.15630450017
 21
-1064.257570366996
 31
0.0
  0
LINE
  5
C27
330
B81
100
AcDbEntity
  8
0
 62
     0
370
    -2
100
AcDbLine
 10
10432.07725680515
 20
-1050.302383554365
 30
0.0
 11
10852.15630450017
 21
-1050.302383554366
 31
0.0
  0
LINE
  5
C28
330
B81
100
AcDbEntity
  8
0
 62
     0
370
    -2
100
AcDbLine
 10
10850.90630450017
 20
-1061.757570366996
 30
0.0
 11
10850.90630450017
 21
-1052.802383554366
 31
0.0
  0
LINE
  5
C29
330
B81
100
AcDbEntity
  8
0
 62
     0
370
    -2
100
AcDbLine
 10
10850.90630450017
 20
-1050.302383554366
 30
0.0
 11
10850.90630450017
 21
-849.7720288476809
 31
0.0
  0
SOLID
  5
C2A
330
B81
100
AcDbEntity
  8
0
 62
     0
100
AcDbTrace
 10
10850.4896378335
 20
-1061.757570366996
 30
0.0
 11
10851.32297116683
 21
-1061.757570366996
 31
0.0
 12
10850.90630450017
 22
-1064.257570366996
 32
0.0
 13
10850.90630450017
 23
-1064.257570366996
 33
0.0
  0
SOLID
  5
C2B
330
B81
100
AcDbEntity
  8
0
 62
     0
100
AcDbTrace
 10
10850.4896378335
 20
-1052.802383554366
 30
0.0
 11
10851.32297116683
 21
-1052.802383554366
 31
0.0
 12
10850.90630450017
 22
-1050.302383554366
 32
0.0
 13
10850.90630450017
 23
-1050.302383554366
 33
0.0
  0
MTEXT
  5
C2C
330
B81
100
AcDbEntity
  8
0
 62
     0
100
AcDbMText
 10
10814.224005728
 20
-948.7872062010216
 30
0.0
 40
60.0
 41
0.0
 71
     5
 72
     1
  1
13,96
 11
0.0000000000000001
 21
1.0
 31
0.0
 73
     1
 44
1.0
1001
ACAD
1000
MTEXTBEGIN
1070
    73
1070
     1
1070
    44
1040
1.0
1070
    74
1070
     0
1000
MTEXTEND
  0
POINT
  5
C2D
330
B81
100
AcDbEntity
  8
Defpoints
 62
     0
100
AcDbPoint
 10
10431.45225680542
 20
-1064.257570366996
 30
0.0
  0
POINT
  5
C2E
330
B81
100
AcDbEntity
  8
Defpoints
 62
     0
100
AcDbPoint
 10
10431.45225680515
 20
-1050.302383554365
 30
0.0
  0
POINT
  5
C2F
330
B81
100
AcDbEntity
  8
Defpoints
 62
     0
100
AcDbPoint
 10
10850.90630450017
 20
-1050.302383554366
 30
0.0
  0
ENDBLK
  5
B83
330
B81
100
AcDbEntity
  8
0
 62
     1
100
AcDbBlockEnd
  0
BLOCK
  5
BA6
330
BA5
100
AcDbEntity
  8
0
 62
     1
100
AcDbBlockBegin
  2
*D8
 70
     1
 10
0.0
 20
0.0
 30
0.0
  3
*D8
  1

  0
LINE
  5
C30
330
BA5
100
AcDbEntity
  8
0
 62
     0
370
    -2
100
AcDbLine
 10
10439.57379617975
 20
-1030.442402973755
 30
0.0
 11
11177.33310676514
 21
-1030.442402973755
 31
0.0
  0
LINE
  5
C31
330
BA5
100
AcDbEntity
  8
0
 62
     0
370
    -2
100
AcDbLine
 10
10432.07725680513
 20
-1731.551939222711
 30
0.0
 11
11177.33310676514
 21
-1731.551939222711
 31
0.0
  0
LINE
  5
C32
330
BA5
100
AcDbEntity
  8
0
 62
     0
370
    -2
100
AcDbLine
 10
11176.08310676514
 20
-1032.942402973755
 30
0.0
 11
11176.08310676514
 21
-1729.051939222712
 31
0.0
  0
SOLID
  5
C33
330
BA5
100
AcDbEntity
  8
0
 62
     0
100
AcDbTrace
 10
11175.66644009848
 20
-1032.942402973755
 30
0.0
 11
11176.49977343181
 21
-1032.942402973755
 31
0.0
 12
11176.08310676514
 22
-1030.442402973755
 32
0.0
 13
11176.08310676514
 23
-1030.442402973755
 33
0.0
  0
SOLID
  5
C34
330
BA5
100
AcDbEntity
  8
0
 62
     0
100
AcDbTrace
 10
11175.66644009848
 20
-1729.051939222712
 30
0.0
 11
11176.49977343181
 21
-1729.051939222712
 31
0.0
 12
11176.08310676514
 22
-1731.551939222711
 32
0.0
 13
11176.08310676514
 23
-1731.551939222711
 33
0.0
  0
MTEXT
  5
C35
330
BA5
100
AcDbEntity
  8
0
 62
     0
100
AcDbMText
 10
11139.40080799297
 20
-1380.997171098232
 30
0.0
 40
60.0
 41
0.0
 71
     5
 72
     1
  1
701,11
 11
0.0000000000000001
 21
1.0
 31
0.0
 73
     1
 44
1.0
1001
ACAD
1000
MTEXTBEGIN
1070
    73
1070
     1
1070
    44
1040
1.0
1070
    74
1070
     0
1000
MTEXTEND
  0
POINT
  5
C36
330
BA5
100
AcDbEntity
  8
Defpoints
 62
     0
100
AcDbPoint
 10
10438.94879617975
 20
-1030.442402973755
 30
0.0
  0
POINT
  5
C37
330
BA5
100
AcDbEntity
  8
Defpoints
 62
     0
100
AcDbPoint
 10
10431.45225680513
 20
-1731.551939222711
 30
0.0
  0
POINT
  5
C38
330
BA5
100
AcDbEntity
  8
Defpoints
 62
     0
100
AcDbPoint
 10
11176.08310676514
 20
-1731.551939222711
 30
0.0
  0
ENDBLK
  5
BA7
330
BA5
100
AcDbEntity
  8
0
 62
     1
100
AcDbBlockEnd
  0
BLOCK
  5
E19
330
E18
100
AcDbEntity
  8
0
 62
     1
100
AcDbBlockBegin
  2
*D9
 70
     1
 10
0.0
 20
0.0
 30
0.0
  3
*D9
  1

  0
LINE
  5
E25
330
E18
100
AcDbEntity
  8
0
 62
     0
370
    -2
100
AcDbLine
 10
11886.71273874928
 20
-1069.208706572691
 30
0.0
 11
11983.85763797928
 21
-1069.208706572691
 31
0.0
  0
LINE
  5
E26
330
E18
100
AcDbEntity
  8
0
 62
     0
370
    -2
100
AcDbLine
 10
11886.71273874928
 20
-1692.785635623773
 30
0.0
 11
11983.85763797928
 21
-1692.785635623773
 31
0.0
  0
LINE
  5
E27
330
E18
100
AcDbEntity
  8
0
 62
     0
370
    -2
100
AcDbLine
 10
11982.60763797928
 20
-1071.708706572691
 30
0.0
 11
11982.60763797928
 21
-1690.285635623774
 31
0.0
  0
SOLID
  5
E28
330
E18
100
AcDbEntity
  8
0
 62
     0
100
AcDbTrace
 10
11982.19097131262
 20
-1071.708706572691
 30
0.0
 11
11983.02430464595
 21
-1071.708706572691
 31
0.0
 12
11982.60763797928
 22
-1069.208706572691
 32
0.0
 13
11982.60763797928
 23
-1069.208706572691
 33
0.0
  0
SOLID
  5
E29
330
E18
100
AcDbEntity
  8
0
 62
     0
100
AcDbTrace
 10
11982.19097131262
 20
-1690.285635623774
 30
0.0
 11
11983.02430464595
 21
-1690.285635623774
 31
0.0
 12
11982.60763797928
 22
-1692.785635623773
 32
0.0
 13
11982.60763797928
 23
-1692.785635623773
 33
0.0
  0
MTEXT
  5
E2A
330
E18
100
AcDbEntity
  8
0
 62
     0
100
AcDbMText
 10
11945.92533920711
 20
-1380.99717109823
 30
0.0
 40
60.0
 41
0.0
 71
     5
 72
     1
  1
623,58
 11
0.0000000000000001
 21
1.0
 31
0.0
 73
     1
 44
1.0
1001
ACAD
1000
MTEXTBEGIN
1070
    73
1070
     1
1070
    44
1040
1.0
1070
    74
1070
     0
1000
MTEXTEND
  0
POINT
  5
E2B
330
E18
100
AcDbEntity
  8
Defpoints
 62
     0
100
AcDbPoint
 10
11886.08773874928
 20
-1069.208706572691
 30
0.0
  0
POINT
  5
E2C
330
E18
100
AcDbEntity
  8
Defpoints
 62
     0
100
AcDbPoint
 10
11886.08773874928
 20
-1692.785635623773
 30
0.0
  0
POINT
  5
E2D
330
E18
100
AcDbEntity
  8
Defpoints
 62
     0
100
AcDbPoint
 10
11982.60763797928
 20
-1692.785635623773
 30
0.0
  0
ENDBLK
  5
E1A
330
E18
100
AcDbEntity
  8
0
 62
     1
100
AcDbBlockEnd
  0
BLOCK
  5
101C
330
101B
100
AcDbEntity
  8
0
100
AcDbBlockBegin
  2
*D10
 70
     1
 10
0.0
 20
0.0
 30
0.0
  3
*D10
  1

  0
LINE
  5
121E
330
101B
100
AcDbEntity
  8
0
 62
     0
370
    -2
100
AcDbLine
 10
10873.95530829079
 20
-578.4733579315018
 30
0.0
 11
10873.95530829079
 21
-373.4004469671914
 31
0.0
  0
LINE
  5
121F
330
101B
100
AcDbEntity
  8
0
 62
     0
370
    -2
100
AcDbLine
 10
10173.94538463161
 20
-578.4733579315018
 30
0.0
 11
10173.94538463161
 21
-373.4004469671914
 31
0.0
  0
LINE
  5
1220
330
101B
100
AcDbEntity
  8
0
 62
     0
370
    -2
100
AcDbLine
 10
10871.4553082908
 20
-374.6504469671914
 30
0.0
 11
10176.44538463161
 21
-374.6504469671914
 31
0.0
  0
SOLID
  5
1221
330
101B
100
AcDbEntity
  8
0
 62
     0
100
AcDbTrace
 10
10871.4553082908
 20
-374.2337803005248
 30
0.0
 11
10871.4553082908
 21
-375.0671136338581
 31
0.0
 12
10873.95530829079
 22
-374.6504469671914
 32
0.0
 13
10873.95530829079
 23
-374.6504469671914
 33
0.0
  0
SOLID
  5
1222
330
101B
100
AcDbEntity
  8
0
 62
     0
100
AcDbTrace
 10
10176.44538463161
 20
-374.2337803005248
 30
0.0
 11
10176.44538463161
 21
-375.0671136338581
 31
0.0
 12
10173.94538463161
 22
-374.6504469671914
 32
0.0
 13
10173.94538463161
 23
-374.6504469671914
 33
0.0
  0
MTEXT
  5
1223
330
101B
100
AcDbEntity
  8
0
 62
     0
100
AcDbMText
 10
10523.9503464612
 20
-337.9681481950222
 30
0.0
 40
60.0
 41
0.0
 71
     5
 72
     1
  1
700,01
 73
     1
 44
1.0
1001
ACAD
1000
MTEXTBEGIN
1070
    73
1070
     1
1070
    44
1040
1.0
1070
    74
1070
     0
1000
MTEXTEND
  0
POINT
  5
1224
330
101B
100
AcDbEntity
  8
Defpoints
 62
     0
100
AcDbPoint
 10
10873.95530829079
 20
-579.0983579315017
 30
0.0
  0
POINT
  5
1225
330
101B
100
AcDbEntity
  8
Defpoints
 62
     0
100
AcDbPoint
 10
10173.94538463161
 20
-579.0983579315017
 30
0.0
  0
POINT
  5
1226
330
101B
100
AcDbEntity
  8
Defpoints
 62
     0
100
AcDbPoint
 10
10173.94538463161
 20
-374.6504469671914
 30
0.0
  0
ENDBLK
  5
101D
330
101B
100
AcDbEntity
  8
0
100
AcDbBlockEnd
  0
BLOCK
  5
1034
330
1033
100
AcDbEntity
  8
0
100
AcDbBlockBegin
  2
*D11
 70
     1
 10
0.0
 20
0.0
 30
0.0
  3
*D11
  1

  0
LINE
  5
1242
330
1033
100
AcDbEntity
  8
0
 62
     0
370
    -2
100
AcDbLine
 10
10523.3253464612
 20
-481.12018962569
 30
0.0
 11
10059.86549630841
 21
-481.1201896256898
 31
0.0
  0
LINE
  5
1243
330
1033
100
AcDbEntity
  8
0
 62
     0
370
    -2
100
AcDbLine
 10
10523.3253464612
 20
-981.124281099966
 30
0.0
 11
10059.86549630841
 21
-981.1242810999658
 31
0.0
  0
LINE
  5
1244
330
1033
100
AcDbEntity
  8
0
 62
     0
370
    -2
100
AcDbLine
 10
10061.11549630841
 20
-483.6201896256898
 30
0.0
 11
10061.11549630841
 21
-978.6242810999658
 31
0.0
  0
SOLID
  5
1245
330
1033
100
AcDbEntity
  8
0
 62
     0
100
AcDbTrace
 10
10060.69882964174
 20
-483.6201896256898
 30
0.0
 11
10061.53216297507
 21
-483.6201896256898
 31
0.0
 12
10061.11549630841
 22
-481.1201896256898
 32
0.0
 13
10061.11549630841
 23
-481.1201896256898
 33
0.0
  0
SOLID
  5
1246
330
1033
100
AcDbEntity
  8
0
 62
     0
100
AcDbTrace
 10
10060.69882964174
 20
-978.6242810999658
 30
0.0
 11
10061.53216297507
 21
-978.6242810999658
 31
0.0
 12
10061.11549630841
 22
-981.1242810999658
 32
0.0
 13
10061.11549630841
 23
-981.1242810999658
 33
0.0
  0
MTEXT
  5
1247
330
1033
100
AcDbEntity
  8
0
 62
     0
100
AcDbMText
 10
10029.85611704511
 20
-731.1222353628262
 30
0.0
 40
60.0
 41
0.0
 71
     5
 72
     1
  1
500
 11
0.0000000000000001
 21
1.0
 31
0.0
 73
     1
 44
1.0
1001
ACAD
1000
MTEXTBEGIN
1070
    73
1070
     1
1070
    44
1040
1.0
1070
    74
1070
     0
1000
MTEXTEND
  0
POINT
  5
1248
330
1033
100
AcDbEntity
  8
Defpoints
 62
     0
100
AcDbPoint
 10
10523.9503464612
 20
-481.12018962569
 30
0.0
  0
POINT
  5
1249
330
1033
100
AcDbEntity
  8
Defpoints
 62
     0
100
AcDbPoint
 10
10523.9503464612
 20
-981.124281099966
 30
0.0
  0
POINT
  5
124A
330
1033
100
AcDbEntity
  8
Defpoints
 62
     0
100
AcDbPoint
 10
10061.11549630841
 20
-981.1242810999658
 30
0.0
  0
ENDBLK
  5
1035
330
1033
100
AcDbEntity
  8
0
100
AcDbBlockEnd
  0
BLOCK
  5
12C2
330
12C1
100
AcDbEntity
  8
0
 62
     1
100
AcDbBlockBegin
  2
*D12
 70
     1
 10
0.0
 20
0.0
 30
0.0
  3
*D12
  1

  0
LINE
  5
12CF
330
12C1
100
AcDbEntity
  8
0
 62
     0
370
    -2
100
AcDbLine
 10
11809.58602784742
 20
-565.0506622892967
 30
0.0
 11
11948.77332400287
 21
-565.0506622892967
 31
0.0
  0
LINE
  5
12D0
330
12C1
100
AcDbEntity
  8
0
 62
     0
370
    -2
100
AcDbLine
 10
11814.9782307035
 20
-546.4185076265969
 30
0.0
 11
11948.77332400287
 21
-546.4185076265969
 31
0.0
  0
LINE
  5
12D1
330
12C1
100
AcDbEntity
  8
0
 62
     0
370
    -2
100
AcDbLine
 10
11947.52332400286
 20
-562.5506622892967
 30
0.0
 11
11947.52332400286
 21
-548.9185076265969
 31
0.0
  0
LINE
  5
12D2
330
12C1
100
AcDbEntity
  8
0
 62
     0
370
    -2
100
AcDbLine
 10
11947.52332400286
 20
-546.4185076265969
 30
0.0
 11
11947.52332400286
 21
-345.8472252255055
 31
0.0
  0
SOLID
  5
12D3
330
12C1
100
AcDbEntity
  8
0
 62
     0
100
AcDbTrace
 10
11947.1066573362
 20
-562.5506622892967
 30
0.0
 11
11947.93999066953
 21
-562.5506622892967
 31
0.0
 12
11947.52332400286
 22
-565.0506622892967
 32
0.0
 13
11947.52332400286
 23
-565.0506622892967
 33
0.0
  0
SOLID
  5
12D4
330
12C1
100
AcDbEntity
  8
0
 62
     0
100
AcDbTrace
 10
11947.1066573362
 20
-548.9185076265969
 30
0.0
 11
11947.93999066953
 21
-548.9185076265969
 31
0.0
 12
11947.52332400286
 22
-546.4185076265969
 32
0.0
 13
11947.52332400286
 23
-546.4185076265969
 33
0.0
  0
MTEXT
  5
12D5
330
12C1
100
AcDbEntity
  8
0
 62
     0
100
AcDbMText
 10
11910.84102523069
 20
-444.8828664260493
 30
0.0
 40
60.0
 41
0.0
 71
     5
 72
     1
  1
18,63
 11
0.0000000000000001
 21
1.0
 31
0.0
 73
     1
 44
1.0
1001
ACAD
1000
MTEXTBEGIN
1070
    73
1070
     1
1070
    44
1040
1.0
1070
    74
1070
     0
1000
MTEXTEND
  0
POINT
  5
12D6
330
12C1
100
AcDbEntity
  8
Defpoints
 62
     0
100
AcDbPoint
 10
11808.96102784742
 20
-565.0506622892967
 30
0.0
  0
POINT
  5
12D7
330
12C1
100
AcDbEntity
  8
Defpoints
 62
     0
100
AcDbPoint
 10
11814.3532307035
 20
-546.4185076265969
 30
0.0
  0
POINT
  5
12D8
330
12C1
100
AcDbEntity
  8
Defpoints
 62
     0
100
AcDbPoint
 10
11947.52332400286
 20
-546.4185076265969
 30
0.0
  0
ENDBLK
  5
12C3
330
12C1
100
AcDbEntity
  8
0
 62
     1
100
AcDbBlockEnd
  0
BLOCK
  5
1E1D
330
1E1C
100
AcDbEntity
  8
0
100
AcDbBlockBegin
  2
*D13
 70
     1
 10
0.0
 20
0.0
 30
0.0
  3
*D13
  1

  0
LINE
  5
1E96
330
1E1C
100
AcDbEntity
  8
0
 62
     0
370
    -2
100
AcDbLine
 10
2768.457316179322
 20
-425.5855613440806
 30
0.0
 11
2423.245226966324
 21
-425.5855613440805
 31
0.0
  0
LINE
  5
1E97
330
1E1C
100
AcDbEntity
  8
0
 62
     0
370
    -2
100
AcDbLine
 10
2768.457316179322
 20
-929.3243697034506
 30
0.0
 11
2423.245226966324
 21
-929.3243697034506
 31
0.0
  0
LINE
  5
1E98
330
1E1C
100
AcDbEntity
  8
0
 62
     0
370
    -2
100
AcDbLine
 10
2424.495226966324
 20
-428.0855613440805
 30
0.0
 11
2424.495226966324
 21
-926.8243697034506
 31
0.0
  0
SOLID
  5
1E99
330
1E1C
100
AcDbEntity
  8
0
 62
     0
100
AcDbTrace
 10
2424.078560299657
 20
-428.0855613440805
 30
0.0
 11
2424.91189363299
 21
-428.0855613440805
 31
0.0
 12
2424.495226966324
 22
-425.5855613440805
 32
0.0
 13
2424.495226966324
 23
-425.5855613440805
 33
0.0
  0
SOLID
  5
1E9A
330
1E1C
100
AcDbEntity
  8
0
 62
     0
100
AcDbTrace
 10
2424.078560299657
 20
-926.8243697034506
 30
0.0
 11
2424.91189363299
 21
-926.8243697034506
 31
0.0
 12
2424.495226966324
 22
-929.3243697034506
 32
0.0
 13
2424.495226966324
 23
-929.3243697034506
 33
0.0
  0
MTEXT
  5
1E9B
330
1E1C
100
AcDbEntity
  8
0
 62
     0
100
AcDbMText
 10
2387.812928194154
 20
-677.4549655237652
 30
0.0
 40
60.0
 41
0.0
 71
     5
 72
     1
  1
503,74
 11
0.0000000000000001
 21
1.0
 31
0.0
 73
     1
 44
1.0
1001
ACAD
1000
MTEXTBEGIN
1070
    73
1070
     1
1070
    44
1040
1.0
1070
    74
1070
     0
1000
MTEXTEND
  0
POINT
  5
1E9C
330
1E1C
100
AcDbEntity
  8
Defpoints
 62
     0
100
AcDbPoint
 10
2769.082316179322
 20
-425.5855613440806
 30
0.0
  0
POINT
  5
1E9D
330
1E1C
100
AcDbEntity
  8
Defpoints
 62
     0
100
AcDbPoint
 10
2769.082316179322
 20
-929.3243697034506
 30
0.0
  0
POINT
  5
1E9E
330
1E1C
100
AcDbEntity
  8
Defpoints
 62
     0
100
AcDbPoint
 10
2424.495226966324
 20
-929.3243697034506
 30
0.0
  0
ENDBLK
  5
1E1E
330
1E1C
100
AcDbEntity
  8
0
100
AcDbBlockEnd
  0
BLOCK
  5
1EA1
330
1EA0
100
AcDbEntity
  8
0
100
AcDbBlockBegin
  2
*D14
 70
     1
 10
0.0
 20
0.0
 30
0.0
  3
*D14
  1

  0
LINE
  5
1EAE
330
1EA0
100
AcDbEntity
  8
0
 62
     0
370
    -2
100
AcDbLine
 10
3849.796516828302
 20
-1198.531809617052
 30
0.0
 11
3855.020319817111
 21
-1235.179156708772
 31
0.0
  0
LINE
  5
1EAF
330
1EA0
100
AcDbEntity
  8
0
 62
     0
370
    -2
100
AcDbLine
 10
3861.568120133862
 20
-1196.853856329554
 30
0.0
 11
3866.791923122671
 21
-1233.501203421274
 31
0.0
  0
LINE
  5
1EB0
330
1EA0
100
AcDbEntity
  8
0
 62
     0
370
    -2
100
AcDbLine
 10
3857.318907413255
 20
-1233.588875267375
 30
0.0
 11
3864.140545411866
 21
-1232.616502209197
 31
0.0
  0
LINE
  5
1EB1
330
1EA0
100
AcDbEntity
  8
0
 62
     0
370
    -2
100
AcDbLine
 10
3866.615528065342
 20
-1232.263712094537
 30
0.0
 11
4065.301260356895
 21
-1203.94255914503
 31
0.0
  0
SOLID
  5
1EB2
330
1EA0
100
AcDbEntity
  8
0
 62
     0
100
AcDbTrace
 10
3857.260109060812
 20
-1233.176378158463
 30
0.0
 11
3857.377705765698
 21
-1234.001372376288
 31
0.0
 12
3854.84392475978
 22
-1233.941665382035
 32
0.0
 13
3854.84392475978
 23
-1233.941665382035
 33
0.0
  0
SOLID
  5
1EB3
330
1EA0
100
AcDbEntity
  8
0
 62
     0
100
AcDbTrace
 10
3864.081747059424
 20
-1232.204005100284
 30
0.0
 11
3864.199343764311
 21
-1233.028999318109
 31
0.0
 12
3866.615528065342
 22
-1232.263712094537
 32
0.0
 13
3866.615528065342
 23
-1232.263712094537
 33
0.0
  0
MTEXT
  5
1EB4
330
1EA0
100
AcDbEntity
  8
0
 62
     0
100
AcDbMText
 10
3962.019424581927
 20
-1181.611519302182
 30
0.0
 40
60.0
 41
0.0
 71
     5
 72
     1
  1
11,89
 11
0.9899930613896863
 21
0.1411160458639513
 31
0.0
 73
     1
 44
1.0
1001
ACAD
1000
MTEXTBEGIN
1070
    73
1070
     1
1070
    44
1040
1.0
1070
    74
1070
     0
1000
MTEXTEND
  0
POINT
  5
1EB5
330
1EA0
100
AcDbEntity
  8
Defpoints
 62
     0
100
AcDbPoint
 10
3849.708319299637
 20
-1197.913063953684
 30
0.0
  0
POINT
  5
1EB6
330
1EA0
100
AcDbEntity
  8
Defpoints
 62
     0
100
AcDbPoint
 10
3861.479922605197
 20
-1196.235110666185
 30
0.0
  0
POINT
  5
1EB7
330
1EA0
100
AcDbEntity
  8
Defpoints
 62
     0
100
AcDbPoint
 10
3866.615528065342
 20
-1232.263712094537
 30
0.0
  0
ENDBLK
  5
1EA2
330
1EA0
100
AcDbEntity
  8
0
100
AcDbBlockEnd
  0
BLOCK
  5
23C9
330
23C8
100
AcDbEntity
  8
0
100
AcDbBlockBegin
  2
*D15
 70
     1
 10
0.0
 20
0.0
 30
0.0
  3
*D15
  1

  0
LINE
  5
23CB
330
23C8
100
AcDbEntity
  8
0
 62
     0
370
    -2
100
AcDbLine
 10
1678.654359056923
 20
-529.5537077304122
 30
0.0
 11
2091.838451571756
 21
-529.5537077304124
 31
0.0
  0
LINE
  5
23CC
330
23C8
100
AcDbEntity
  8
0
 62
     0
370
    -2
100
AcDbLine
 10
1678.708619429607
 20
-1178.219766146335
 30
0.0
 11
2091.838451571755
 21
-1178.219766146335
 31
0.0
  0
LINE
  5
23CD
330
23C8
100
AcDbEntity
  8
0
 62
     0
370
    -2
100
AcDbLine
 10
2090.588451571756
 20
-532.0537077304122
 30
0.0
 11
2090.588451571755
 21
-1175.719766146335
 31
0.0
  0
SOLID
  5
23CE
330
23C8
100
AcDbEntity
  8
0
 62
     0
100
AcDbTrace
 10
2090.17178490509
 20
-532.0537077304122
 30
0.0
 11
2091.005118238422
 21
-532.0537077304122
 31
0.0
 12
2090.588451571756
 22
-529.5537077304124
 32
0.0
 13
2090.588451571756
 23
-529.5537077304124
 33
0.0
  0
SOLID
  5
23CF
330
23C8
100
AcDbEntity
  8
0
 62
     0
100
AcDbTrace
 10
2090.17178490509
 20
-1175.719766146335
 30
0.0
 11
2091.005118238422
 21
-1175.719766146335
 31
0.0
 12
2090.588451571755
 22
-1178.219766146335
 32
0.0
 13
2090.588451571755
 23
-1178.219766146335
 33
0.0
  0
MTEXT
  5
23D0
330
23C8
100
AcDbEntity
  8
0
 62
     0
100
AcDbMText
 10
2053.906152799587
 20
-853.8867369383737
 30
0.0
 40
60.0
 41
0.0
 71
     5
 72
     1
  1
648,67
 11
0.0000000000000001
 21
1.0
 31
0.0
 73
     1
 44
1.0
1001
ACAD
1000
MTEXTBEGIN
1070
    73
1070
     1
1070
    44
1040
1.0
1070
    74
1070
     0
1000
MTEXTEND
  0
POINT
  5
23D1
330
23C8
100
AcDbEntity
  8
Defpoints
 62
     0
100
AcDbPoint
 10
1678.029359056924
 20
-529.5537077304122
 30
0.0
  0
POINT
  5
23D2
330
23C8
100
AcDbEntity
  8
Defpoints
 62
     0
100
AcDbPoint
 10
1678.083619429607
 20
-1178.219766146335
 30
0.0
  0
POINT
  5
23D3
330
23C8
100
AcDbEntity
  8
Defpoints
 62
     0
100
AcDbPoint
 10
2090.588451571755
 20
-1178.219766146335
 30
0.0
  0
ENDBLK
  5
23CA
330
23C8
100
AcDbEntity
  8
0
100
AcDbBlockEnd
  0
BLOCK
  5
23E5
330
23E4
100
AcDbEntity
  8
0
100
AcDbBlockBegin
  2
*D16
 70
     1
 10
0.0
 20
0.0
 30
0.0
  3
*D16
  1

  0
LINE
  5
2418
330
23E4
100
AcDbEntity
  8
0
 62
     0
370
    -2
100
AcDbLine
 10
1553.170213717718
 20
-832.6706418765169
 30
0.0
 11
1893.166286466823
 21
-832.6706418765171
 31
0.0
  0
LINE
  5
2419
330
23E4
100
AcDbEntity
  8
0
 62
     0
370
    -2
100
AcDbLine
 10
1553.212199359763
 20
-1334.59607268202
 30
0.0
 11
1893.166286466823
 21
-1334.59607268202
 31
0.0
  0
LINE
  5
241A
330
23E4
100
AcDbEntity
  8
0
 62
     0
370
    -2
100
AcDbLine
 10
1891.916286466823
 20
-835.1706418765171
 30
0.0
 11
1891.916286466823
 21
-1332.096072682019
 31
0.0
  0
SOLID
  5
241B
330
23E4
100
AcDbEntity
  8
0
 62
     0
100
AcDbTrace
 10
1891.499619800156
 20
-835.1706418765171
 30
0.0
 11
1892.33295313349
 21
-835.1706418765171
 31
0.0
 12
1891.916286466823
 22
-832.6706418765171
 32
0.0
 13
1891.916286466823
 23
-832.6706418765171
 33
0.0
  0
SOLID
  5
241C
330
23E4
100
AcDbEntity
  8
0
 62
     0
100
AcDbTrace
 10
1891.499619800156
 20
-1332.096072682019
 30
0.0
 11
1892.33295313349
 21
-1332.096072682019
 31
0.0
 12
1891.916286466823
 22
-1334.59607268202
 32
0.0
 13
1891.916286466823
 23
-1334.59607268202
 33
0.0
  0
MTEXT
  5
241D
330
23E4
100
AcDbEntity
  8
0
 62
     0
100
AcDbMText
 10
1855.233987694654
 20
-1083.633357279268
 30
0.0
 40
60.0
 41
0.0
 71
     5
 72
     1
  1
501,93
 11
0.0000000000000001
 21
1.0
 31
0.0
 73
     1
 44
1.0
1001
ACAD
1000
MTEXTBEGIN
1070
    73
1070
     1
1070
    44
1040
1.0
1070
    74
1070
     0
1000
MTEXTEND
  0
POINT
  5
241E
330
23E4
100
AcDbEntity
  8
Defpoints
 62
     0
100
AcDbPoint
 10
1552.545213717718
 20
-832.6706418765169
 30
0.0
  0
POINT
  5
241F
330
23E4
100
AcDbEntity
  8
Defpoints
 62
     0
100
AcDbPoint
 10
1552.587199359763
 20
-1334.59607268202
 30
0.0
  0
POINT
  5
2420
330
23E4
100
AcDbEntity
  8
Defpoints
 62
     0
100
AcDbPoint
 10
1891.916286466823
 20
-1334.59607268202
 30
0.0
  0
ENDBLK
  5
23E6
330
23E4
100
AcDbEntity
  8
0
100
AcDbBlockEnd
  0
BLOCK
  5
2558
330
2557
100
AcDbEntity
  8
0
100
AcDbBlockBegin
  2
*D17
 70
     1
 10
0.0
 20
0.0
 30
0.0
  3
*D17
  1

  0
LINE
  5
2565
330
2557
100
AcDbEntity
  8
0
 62
     0
370
    -2
100
AcDbLine
 10
352.0507967397664
 20
849.7542678186226
 30
0.0
 11
352.0507967397664
 21
850.3792678186226
 31
0.0
  0
LINE
  5
2566
330
2557
100
AcDbEntity
  8
0
 62
     0
370
    -2
100
AcDbLine
 10
368.0051464143551
 20
849.7542678186226
 30
0.0
 11
368.0051464143551
 21
850.3792678186226
 31
0.0
  0
LINE
  5
2567
330
2557
100
AcDbEntity
  8
0
 62
     0
370
    -2
100
AcDbLine
 10
354.5507967397664
 20
849.1292678186225
 30
0.0
 11
365.505146414355
 21
849.1292678186225
 31
0.0
  0
LINE
  5
2568
330
2557
100
AcDbEntity
  8
0
 62
     0
370
    -2
100
AcDbLine
 10
368.0051464143551
 20
849.1292678186225
 30
0.0
 11
569.0266334539185
 21
849.1292678186225
 31
0.0
  0
SOLID
  5
2569
330
2557
100
AcDbEntity
  8
0
 62
     0
100
AcDbTrace
 10
354.5507967397664
 20
849.5459344852891
 30
0.0
 11
354.5507967397664
 21
848.712601151956
 31
0.0
 12
352.0507967397664
 22
849.1292678186225
 32
0.0
 13
352.0507967397664
 23
849.1292678186225
 33
0.0
  0
SOLID
  5
256A
330
2557
100
AcDbEntity
  8
0
 62
     0
100
AcDbTrace
 10
365.505146414355
 20
849.5459344852891
 30
0.0
 11
365.505146414355
 21
848.712601151956
 31
0.0
 12
368.0051464143551
 22
849.1292678186225
 32
0.0
 13
368.0051464143551
 23
849.1292678186225
 33
0.0
  0
MTEXT
  5
256B
330
2557
100
AcDbEntity
  8
0
 62
     0
100
AcDbMText
 10
469.7658899341368
 20
885.8115665907915
 30
0.0
 40
60.0
 41
0.0
 71
     5
 72
     1
  1
15,95
 73
     1
 44
1.0
1001
ACAD
1000
MTEXTBEGIN
1070
    73
1070
     1
1070
    44
1040
1.0
1070
    74
1070
     0
1000
MTEXTEND
  0
POINT
  5
256C
330
2557
100
AcDbEntity
  8
Defpoints
 62
     0
100
AcDbPoint
 10
352.0507967397664
 20
849.1292678186225
 30
0.0
  0
POINT
  5
256D
330
2557
100
AcDbEntity
  8
Defpoints
 62
     0
100
AcDbPoint
 10
368.0051464143551
 20
849.1292678186225
 30
0.0
  0
POINT
  5
256E
330
2557
100
AcDbEntity
  8
Defpoints
 62
     0
100
AcDbPoint
 10
368.0051464143551
 20
849.1292678186225
 30
0.0
  0
ENDBLK
  5
2559
330
2557
100
AcDbEntity
  8
0
100
AcDbBlockEnd
  0
ENDSEC
  0
SECTION
  2
ENTITIES
  0
ARC
  5
25B7
330
1F
100
AcDbEntity
  8
0
100
AcDbCircle
 10
360.0279715770607
 20
862.0641878449253
 30
0.0
 40
6.00880750339536
100
AcDbArc
 50
22.23048855038088
 51
90.0
  0
ARC
  5
25B8
330
1F
100
AcDbEntity
  8
0
100
AcDbCircle
 10
318.9114303187018
 20
849.1292678186225
 30
0.0
 40
49.09371609565329
100
AcDbArc
 50
331.3742136500971
 51
18.04597437373603
  0
ARC
  5
25B9
330
1F
100
AcDbEntity
  8
0
100
AcDbCircle
 10
359.9759731653468
 20
826.6920875819609
 30
0.0
 40
2.299334015216203
100
AcDbArc
 50
271.2958289291866
 51
331.9009912491607
  0
ARC
  5
25BA
330
1F
100
AcDbEntity
  8
0
100
AcDbCircle
 10
360.0799699887747
 20
826.6920875819609
 30
0.0
 40
2.299334015216152
100
AcDbArc
 50
208.0990087508399
 51
268.7041710708134
  0
ARC
  5
25BB
330
1F
100
AcDbEntity
  8
0
100
AcDbCircle
 10
401.1445128354196
 20
849.1292678186225
 30
0.0
 40
49.09371609565329
100
AcDbArc
 50
161.954025626264
 51
208.6257863499029
  0
ARC
  5
25BC
330
1F
100
AcDbEntity
  8
0
100
AcDbCircle
 10
360.0279715770607
 20
862.0641878449253
 30
0.0
 40
6.008807503395386
100
AcDbArc
 50
90.0
 51
157.7695114496191
  0
ARC
  5
25BD
330
1F
100
AcDbEntity
  8
0
100
AcDbCircle
 10
347.3467549472383
 20
65.95978927165955
 30
0.0
 40
3.650399509735014
100
AcDbArc
 50
352.6060113176805
 51
118.5415081987016
  0
ARC
  5
25BE
330
1F
100
AcDbEntity
  8
0
100
AcDbCircle
 10
322.8418628740414
 20
68.29104141715902
 30
0.0
 40
28.26407356993641
100
AcDbArc
 50
299.0812449918309
 51
354.3125349295039
  0
ARC
  5
25BF
330
1F
100
AcDbEntity
  8
0
100
AcDbCircle
 10
338.2828264519508
 20
41.32279681030451
 30
0.0
 40
2.835845656955499
100
AcDbArc
 50
126.9133987181078
 51
224.0002538048599
  0
ARC
  5
25C0
330
1F
100
AcDbEntity
  8
0
100
AcDbCircle
 10
296.0492271221473
 20
-6.32259463998135
 30
0.0
 40
60.84222959883735
100
AcDbArc
 50
10.32230859817424
 51
48.65272787460296
  0
ARC
  5
25C1
330
1F
100
AcDbEntity
  8
0
100
AcDbCircle
 10
359.2598116723989
 20
5.222913071596493
 30
0.0
 40
3.414250787082756
100
AcDbArc
 50
190.8633647531995
 51
283.0020769092239
  0
ARC
  5
25C2
330
1F
100
AcDbEntity
  8
0
100
AcDbCircle
 10
360.7961314817255
 20
5.222913071592815
 30
0.0
 40
3.414250787080679
100
AcDbArc
 50
256.9979230906525
 51
349.1366352456521
  0
ARC
  5
25C3
330
1F
100
AcDbEntity
  8
0
100
AcDbCircle
 10
424.0067160319678
 20
-6.322594639974351
 30
0.0
 40
60.84222959882899
100
AcDbArc
 50
131.347272125397
 51
169.6776914018985
  0
ARC
  5
25C4
330
1F
100
AcDbEntity
  8
0
100
AcDbCircle
 10
381.7731167021741
 20
41.32279681030584
 30
0.0
 40
2.835845656952903
100
AcDbArc
 50
315.999746195072
 51
53.08660128193625
  0
ARC
  5
25C5
330
1F
100
AcDbEntity
  8
0
100
AcDbCircle
 10
397.2140802800684
 20
68.29104141714907
 30
0.0
 40
28.26407356992154
100
AcDbArc
 50
185.68746507049
 51
240.9187550081794
  0
ARC
  5
25C6
330
1F
100
AcDbEntity
  8
0
100
AcDbCircle
 10
372.7091882068821
 20
65.95978927166203
 30
0.0
 40
3.650399509732072
100
AcDbArc
 50
61.45849180130568
 51
187.3939886824531
  0
ARC
  5
25C7
330
1F
100
AcDbEntity
  8
0
100
AcDbCircle
 10
328.9297374537011
 20
-21.68281375120088
 30
0.0
 40
101.6169591469435
100
AcDbArc
 50
23.47492225708149
 51
63.3850683121525
  0
ARC
  5
25C8
330
1F
100
AcDbEntity
  8
0
100
AcDbCircle
 10
452.8622720957123
 20
34.48975085829245
 30
0.0
 40
34.50182616174723
100
AcDbArc
 50
207.0562768467697
 51
282.9375037039067
  0
ARC
  5
25C9
330
1F
100
AcDbEntity
  8
0
100
AcDbCircle
 10
460.0993976574848
 20
13.34674249501647
 30
0.0
 40
12.49249648888151
100
AcDbArc
 50
272.2360925434337
 51
5.820227265911852
  0
ARC
  5
25CA
330
1F
100
AcDbEntity
  8
0
100
AcDbCircle
 10
472.0300724754264
 20
14.56287177449089
 30
0.0
 40
0.4999999999988742
100
AcDbArc
 50
5.820227265879098
 51
111.1265796643882
  0
ARC
  5
25CB
330
1F
100
AcDbEntity
  8
0
100
AcDbCircle
 10
466.7035014512152
 20
28.34795935443369
 30
0.0
 40
14.27839634272583
100
AcDbArc
 50
168.0232330106335
 51
291.1265796644236
  0
ARC
  5
25CC
330
1F
100
AcDbEntity
  8
0
100
AcDbCircle
 10
461.9469981368332
 20
91.21699082742644
 30
0.0
 40
60.6100546683257
100
AcDbArc
 50
261.2587306835666
 51
288.894149836113
  0
ARC
  5
25CD
330
1F
100
AcDbEntity
  8
0
100
AcDbCircle
 10
475.4426790815527
 20
62.10731964600718
 30
0.0
 40
28.89263343214911
100
AcDbArc
 50
282.2515113209193
 51
358.3735246380293
  0
ARC
  5
25CE
330
1F
100
AcDbEntity
  8
0
100
AcDbCircle
 10
487.5461116323626
 20
64.20502674214882
 30
0.0
 40
17.02938578362516
100
AcDbArc
 50
350.134373083494
 51
98.16969201086468
  0
ARC
  5
25CF
330
1F
100
AcDbEntity
  8
0
100
AcDbCircle
 10
485.197197518558
 20
80.56666470629854
 30
0.0
 40
0.4999999999991864
100
AcDbArc
 50
98.16969201085193
 51
189.1177697702836
  0
ARC
  5
25D0
330
1F
100
AcDbEntity
  8
0
100
AcDbCircle
 10
465.5762499095727
 20
77.41765639442189
 30
0.0
 40
19.372036594744
100
AcDbArc
 50
301.8757793347372
 51
9.117769770293891
  0
ARC
  5
25D1
330
1F
100
AcDbEntity
  8
0
100
AcDbCircle
 10
449.0260528028216
 20
99.45526050219323
 30
0.0
 40
46.88840164911836
100
AcDbArc
 50
251.9167176383969
 51
304.8302493212312
  0
ARC
  5
25D2
330
1F
100
AcDbEntity
  8
0
100
AcDbCircle
 10
456.9896262542327
 20
135.0721152212053
 30
0.0
 40
83.29084487572957
100
AcDbArc
 50
204.915782409523
 51
254.3148978146586
  0
ARC
  5
25D3
330
1F
100
AcDbEntity
  8
0
100
AcDbCircle
 10
396.170888597535
 20
173.3493066412563
 30
0.0
 40
74.82855815860228
100
AcDbArc
 50
258.6549467866184
 51
301.4152741862433
  0
ARC
  5
25D4
330
1F
100
AcDbEntity
  8
0
100
AcDbCircle
 10
440.9664076155709
 20
100.0142329279321
 30
0.0
 40
11.10555422894386
100
AcDbArc
 50
358.2266907965928
 51
121.4362333597765
  0
ARC
  5
25D5
330
1F
100
AcDbEntity
  8
0
100
AcDbCircle
 10
439.635369577532
 20
95.06838675907237
 30
0.0
 40
13.25581587931339
100
AcDbArc
 50
253.0184168888076
 51
20.31506187173547
  0
ARC
  5
25D6
330
1F
100
AcDbEntity
  8
0
100
AcDbCircle
 10
426.6995323273396
 20
82.46220301432783
 30
0.0
 40
9.06456993908193
100
AcDbArc
 50
359.5470360678702
 51
120.2815452687211
  0
ARC
  5
25D7
330
1F
100
AcDbEntity
  8
0
100
AcDbCircle
 10
426.808370308568
 20
81.193934825277
 30
0.0
 40
10.2292319472518
100
AcDbArc
 50
117.2244507903132
 51
213.9647257933588
  0
ARC
  5
25D8
330
1F
100
AcDbEntity
  8
0
100
AcDbCircle
 10
439.450582177559
 20
89.78032165929702
 30
0.0
 40
25.51158097442378
100
AcDbArc
 50
214.0959089418897
 51
277.202514119625
  0
ARC
  5
25D9
330
1F
100
AcDbEntity
  8
0
100
AcDbCircle
 10
438.768196218814
 20
94.93407952025838
 30
0.0
 40
30.71024239734129
100
AcDbArc
 50
277.2600517893235
 51
17.21639176352867
  0
ARC
  5
25DA
330
1F
100
AcDbEntity
  8
0
100
AcDbCircle
 10
484.3510333055955
 20
53.84108962426147
 30
0.0
 40
52.74765783354272
100
AcDbArc
 50
61.32696302318841
 51
107.9414000604368
  0
ARC
  5
25DB
330
1F
100
AcDbEntity
  8
0
100
AcDbCircle
 10
500.2006424790125
 20
75.85005665521302
 30
0.0
 40
26.04857105961403
100
AcDbArc
 50
1.033877020011211
 51
68.7068365576455
  0
ARC
  5
25DC
330
1F
100
AcDbEntity
  8
0
100
AcDbCircle
 10
526.7448914678854
 20
76.32908789020482
 30
0.0
 40
0.5000000000000369
100
AcDbArc
 50
181.0338770200223
 51
269.2487124466985
  0
ARC
  5
25DD
330
1F
100
AcDbEntity
  8
0
100
AcDbCircle
 10
526.9550000293644
 20
92.3517729589844
 30
0.0
 40
16.52406260662077
100
AcDbArc
 50
269.2487124466809
 51
39.02743461039405
  0
ARC
  5
25DE
330
1F
100
AcDbEntity
  8
0
100
AcDbCircle
 10
538.5872792546024
 20
86.83640078728387
 30
0.0
 40
15.96593762961323
100
AcDbArc
 50
348.2970193172429
 51
85.6739341647061
  0
ARC
  5
25DF
330
1F
100
AcDbEntity
  8
0
100
AcDbCircle
 10
554.7109272497732
 20
83.496479029191
 30
0.0
 40
0.5000000000014477
100
AcDbArc
 50
168.2970193172363
 51
287.0485787260412
  0
ARC
  5
25E0
330
1F
100
AcDbEntity
  8
0
100
AcDbCircle
 10
549.2634697768246
 20
101.2604275281852
 30
0.0
 40
19.08043754044975
100
AcDbArc
 50
287.0485787260528
 51
69.81531379969661
  0
ARC
  5
25E1
330
1F
100
AcDbEntity
  8
0
100
AcDbCircle
 10
492.9573877112519
 20
212.9752922205725
 30
0.0
 40
112.9368447855798
100
AcDbArc
 50
303.8387548420982
 51
317.9588113523976
  0
ARC
  5
25E2
330
1F
100
AcDbEntity
  8
0
100
AcDbCircle
 10
542.2216731907329
 20
173.5089368482703
 30
0.0
 40
50.05630797857158
100
AcDbArc
 50
313.7424087781339
 51
27.93257888541722
  0
ARC
  5
25E3
330
1F
100
AcDbEntity
  8
0
100
AcDbCircle
 10
593.1136436862593
 20
250.1940433242106
 30
0.0
 40
53.65298587598847
100
AcDbArc
 50
262.8616195004227
 51
323.7018343251298
  0
ARC
  5
25E4
330
1F
100
AcDbEntity
  8
0
100
AcDbCircle
 10
561.2124818988537
 20
269.401908988061
 30
0.0
 40
90.79830387356977
100
AcDbArc
 50
325.8506915479704
 51
31.87815218834009
  0
ARC
  5
25E5
330
1F
100
AcDbEntity
  8
0
100
AcDbCircle
 10
699.7834926284491
 20
369.1573929483553
 30
0.0
 40
80.38574461008748
100
AcDbArc
 50
220.1235035210472
 51
247.2790771923455
  0
ARC
  5
25E6
330
1F
100
AcDbEntity
  8
0
100
AcDbCircle
 10
680.8266636298128
 20
316.2163037025414
 30
0.0
 40
24.4115100818252
100
AcDbArc
 50
240.308916447007
 51
0.2687708683557792
  0
ARC
  5
25E7
330
1F
100
AcDbEntity
  8
0
100
AcDbCircle
 10
702.9173353955846
 20
333.317810846756
 30
0.0
 40
17.14476694028757
100
AcDbArc
 50
277.7789452664947
 51
50.80274399217392
  0
ARC
  5
25E8
330
1F
100
AcDbEntity
  8
0
100
AcDbCircle
 10
700.4374986644688
 20
358.9000768955723
 30
0.0
 40
18.12384786467376
100
AcDbArc
 50
317.2800294849277
 51
52.6906522295627
  0
ARC
  5
25E9
330
1F
100
AcDbEntity
  8
0
100
AcDbCircle
 10
711.1196331369394
 20
372.9176379055778
 30
0.0
 40
0.4999999999999067
100
AcDbArc
 50
52.69065222956962
 51
131.3193426596142
  0
ARC
  5
25EA
330
1F
100
AcDbEntity
  8
0
100
AcDbCircle
 10
695.7104375007952
 20
390.4456196373587
 30
0.0
 40
22.8382401595025
100
AcDbArc
 50
268.561629763101
 51
311.319342659615
  0
ARC
  5
25EB
330
1F
100
AcDbEntity
  8
0
100
AcDbCircle
 10
701.4040610083022
 20
416.0681561731593
 30
0.0
 40
48.8571745969891
100
AcDbArc
 50
205.1171592653425
 51
262.6303764522711
  0
ARC
  5
25EC
330
1F
100
AcDbEntity
  8
0
100
AcDbCircle
 10
832.9717455919833
 20
477.7787592706989
 30
0.0
 40
194.1783841761733
100
AcDbArc
 50
180.2028590139225
 51
205.1256392950209
  0
ARC
  5
25ED
330
1F
100
AcDbEntity
  8
0
100
AcDbCircle
 10
721.5047524332712
 20
477.8410002056166
 30
0.0
 40
82.71357194691741
100
AcDbArc
 50
145.23797497717
 51
180.519352306614
  0
ARC
  5
25EE
330
1F
100
AcDbEntity
  8
0
100
AcDbCircle
 10
667.0653171757099
 20
528.3035562937097
 30
0.0
 40
13.90959289365376
100
AcDbArc
 50
193.7318141970283
 51
354.6940928543683
  0
ARC
  5
25EF
330
1F
100
AcDbEntity
  8
0
100
AcDbCircle
 10
656.9278456168209
 20
530.9390172473904
 30
0.0
 40
24.30593291782102
100
AcDbArc
 50
350.7148225608343
 51
124.328165844927
  0
ARC
  5
25F0
330
1F
100
AcDbEntity
  8
0
100
AcDbCircle
 10
537.4675810591258
 20
562.0877883130971
 30
0.0
 40
106.3318490548555
100
AcDbArc
 50
354.0207441857348
 51
63.0962646180254
  0
ARC
  5
25F1
330
1F
100
AcDbEntity
  8
0
100
AcDbCircle
 10
577.0133234080967
 20
671.2882302791733
 30
0.0
 40
16.73687159289507
100
AcDbArc
 50
300.794672709968
 51
53.32780610423313
  0
ARC
  5
25F2
330
1F
100
AcDbEntity
  8
0
100
AcDbCircle
 10
586.7105671380235
 20
684.3112661451527
 30
0.0
 40
0.4999999999992195
100
AcDbArc
 50
53.32780610425001
 51
163.0119371090018
  0
ARC
  5
25F3
330
1F
100
AcDbEntity
  8
0
100
AcDbCircle
 10
563.8901288144205
 20
691.2829757790022
 30
0.0
 40
23.36162485037672
100
AcDbArc
 50
242.3070891307756
 51
343.0119371089863
  0
ARC
  5
25F4
330
1F
100
AcDbEntity
  8
0
100
AcDbCircle
 10
547.4697084839967
 20
685.3674428932868
 30
0.0
 40
15.78312069301372
100
AcDbArc
 50
290.6401635295836
 51
55.27342833947187
  0
ARC
  5
25F5
330
1F
100
AcDbEntity
  8
0
100
AcDbCircle
 10
556.175902360424
 20
697.9283332400387
 30
0.0
 40
0.500000000005298
100
AcDbArc
 50
55.27342833949163
 51
125.1302787337895
  0
ARC
  5
25F6
330
1F
100
AcDbEntity
  8
0
100
AcDbCircle
 10
517.6960018303922
 20
752.6182354865413
 30
0.0
 40
66.37068230945783
100
AcDbArc
 50
231.3850218903623
 51
305.1302787337805
  0
ARC
  5
25F7
330
1F
100
AcDbEntity
  8
0
100
AcDbCircle
 10
530.1697784886999
 20
619.215366532603
 30
0.0
 40
97.74456417034883
100
AcDbArc
 50
105.0406549503996
 51
123.4619151854746
  0
ARC
  5
25F8
330
1F
100
AcDbEntity
  8
0
100
AcDbCircle
 10
511.5502303984154
 20
691.6127652731887
 30
0.0
 40
23.00961886605922
100
AcDbArc
 50
41.0357353282385
 51
107.0474781111872
  0
ARC
  5
25F9
330
1F
100
AcDbEntity
  8
0
100
AcDbCircle
 10
529.2835417866725
 20
707.0475262507514
 30
0.0
 40
0.50000000000031
100
AcDbArc
 50
221.0357353282955
 51
309.0570629682542
  0
ARC
  5
25FA
330
1F
100
AcDbEntity
  8
0
100
AcDbCircle
 10
521.9838062241869
 20
716.0436147562205
 30
0.0
 40
12.08515203527601
100
AcDbArc
 50
309.0570629682333
 51
87.21068306750407
  0
ARC
  5
25FB
330
1F
100
AcDbEntity
  8
0
100
AcDbCircle
 10
507.0248757925408
 20
745.0281380508719
 30
0.0
 40
22.97353343825413
100
AcDbArc
 50
312.5891723159018
 51
77.385209270031
  0
ARC
  5
25FC
330
1F
100
AcDbEntity
  8
0
100
AcDbCircle
 10
511.9329868145224
 20
766.9591697501832
 30
0.0
 40
0.500000000000847
100
AcDbArc
 50
77.38520927001991
 51
208.7336277012755
  0
ARC
  5
25FD
330
1F
100
AcDbEntity
  8
0
100
AcDbCircle
 10
489.6585660404158
 20
754.7472834140578
 30
0.0
 40
24.90236187263604
100
AcDbArc
 50
346.1718923756723
 51
28.73362770126814
  0
ARC
  5
25FE
330
1F
100
AcDbEntity
  8
0
100
AcDbCircle
 10
509.6659685215025
 20
749.4246610129309
 30
0.0
 40
4.220396850194662
100
AcDbArc
 50
181.9499462232741
 51
351.4248702143823
  0
ARC
  5
25FF
330
1F
100
AcDbEntity
  8
0
100
AcDbCircle
 10
487.6093675837204
 20
745.6206202132626
 30
0.0
 40
18.21033091737419
100
AcDbArc
 50
11.59595411773336
 51
108.2231261742901
  0
ARC
  5
2600
330
1F
100
AcDbEntity
  8
0
100
AcDbCircle
 10
482.07102250614
 20
762.4427055478619
 30
0.0
 40
0.499999999999931
100
AcDbArc
 50
108.2231261742617
 51
226.8795062766974
  0
ARC
  5
2601
330
1F
100
AcDbEntity
  8
0
100
AcDbCircle
 10
465.5011498888888
 20
744.7484435573819
 30
0.0
 40
23.74144356138227
100
AcDbArc
 50
284.1293436298915
 51
46.87950627671383
  0
ARC
  5
2602
330
1F
100
AcDbEntity
  8
0
100
AcDbCircle
 10
470.2751712056053
 20
725.5642736881355
 30
0.0
 40
3.972615695056873
100
AcDbArc
 50
129.8933409001396
 51
284.9007894182252
  0
ARC
  5
2603
330
1F
100
AcDbEntity
  8
0
100
AcDbCircle
 10
448.3478252265667
 20
741.1659048698048
 30
0.0
 40
23.09022961619874
100
AcDbArc
 50
327.0655338556686
 51
37.75366328517241
  0
ARC
  5
2604
330
1F
100
AcDbEntity
  8
0
100
AcDbCircle
 10
453.5508653983492
 20
744.8613637546247
 30
0.0
 40
16.71591536086426
100
AcDbArc
 50
38.658036745304
 51
125.0464874572043
  0
ARC
  5
2605
330
1F
100
AcDbEntity
  8
0
100
AcDbCircle
 10
444.2390239884466
 20
758.1371130949653
 30
0.0
 40
0.499999999999522
100
AcDbArc
 50
125.0464874571759
 51
239.3565719334783
  0
ARC
  5
2606
330
1F
100
AcDbEntity
  8
0
100
AcDbCircle
 10
437.1222818298328
 20
746.1241498785427
 30
0.0
 40
13.46278282404064
100
AcDbArc
 50
328.2584626342197
 51
59.35657193351664
  0
ARC
  5
2607
330
1F
100
AcDbEntity
  8
0
100
AcDbCircle
 10
434.7747247257014
 20
750.7076485464039
 30
0.0
 40
18.06785493628463
100
AcDbArc
 50
256.1188234485356
 51
319.7830767275702
  0
ARC
  5
2608
330
1F
100
AcDbEntity
  8
0
100
AcDbCircle
 10
434.5745823349167
 20
753.2105195374979
 30
0.0
 40
20.46505250093514
100
AcDbArc
 50
161.6597536390925
 51
258.344460695087
  0
ARC
  5
2609
330
1F
100
AcDbEntity
  8
0
100
AcDbCircle
 10
431.544728725572
 20
752.8595516776364
 30
0.0
 40
17.74623078721423
100
AcDbArc
 50
84.91093453911748
 51
157.5024527385072
  0
ARC
  5
260A
330
1F
100
AcDbEntity
  8
0
100
AcDbCircle
 10
433.1632461596913
 20
771.0338560455012
 30
0.0
 40
0.5000000000014646
100
AcDbArc
 50
264.9109345391145
 51
4.566101896232079
  0
ARC
  5
260B
330
1F
100
AcDbEntity
  8
0
100
AcDbCircle
 10
419.815573871895
 20
769.9678755061917
 30
0.0
 40
13.89017064912284
100
AcDbArc
 50
4.566101896226386
 51
69.40712647318557
  0
ARC
  5
260C
330
1F
100
AcDbEntity
  8
0
100
AcDbCircle
 10
419.6141727656732
 20
768.2123325276127
 30
0.0
 40
15.6102722925245
100
AcDbArc
 50
70.98168867801843
 51
139.6328482824062
  0
ARC
  5
260D
330
1F
100
AcDbEntity
  8
0
100
AcDbCircle
 10
405.6940634052542
 20
779.8964143960043
 30
0.0
 40
2.565694691746145
100
AcDbArc
 50
173.6666000016783
 51
322.1706456867027
  0
ARC
  5
260E
330
1F
100
AcDbEntity
  8
0
100
AcDbCircle
 10
432.0652012750124
 20
780.2483250572846
 30
0.0
 40
28.92125568224608
100
AcDbArc
 50
143.5676352871547
 51
180.1364567352784
  0
ARC
  5
260F
330
1F
100
AcDbEntity
  8
0
100
AcDbCircle
 10
418.3113676164962
 20
791.2521255749924
 30
0.0
 40
11.34134271001142
100
AcDbArc
 50
47.48100194110405
 51
147.0311522907327
  0
ARC
  5
2610
330
1F
100
AcDbEntity
  8
0
100
AcDbCircle
 10
444.5216637232081
 20
823.0232998017083
 30
0.0
 40
29.86728153630392
100
AcDbArc
 50
231.6160847023531
 51
253.6741830493366
  0
ARC
  5
2611
330
1F
100
AcDbEntity
  8
0
100
AcDbCircle
 10
438.2939849718348
 20
803.9808160403909
 30
0.0
 40
9.861764976062659
100
AcDbArc
 50
257.3004919497585
 51
340.6608845319599
  0
ARC
  5
2612
330
1F
100
AcDbEntity
  8
0
100
AcDbCircle
 10
431.5179625529249
 20
808.4208815957097
 30
0.0
 40
17.83227233661389
100
AcDbArc
 50
334.3971372183381
 51
42.28741652439475
  0
ARC
  5
2613
330
1F
100
AcDbEntity
  8
0
100
AcDbCircle
 10
423.0772991727337
 20
800.1953547700766
 30
0.0
 40
29.61382315981901
100
AcDbArc
 50
43.07251101741353
 51
105.0629043837114
  0
ARC
  5
2614
330
1F
100
AcDbEntity
  8
0
100
AcDbCircle
 10
400.6485513833029
 20
838.3363590009462
 30
0.0
 40
17.55431945438181
100
AcDbArc
 50
327.0625880108472
 51
92.89803675701213
  0
ARC
  5
2615
330
1F
100
AcDbEntity
  8
0
100
AcDbCircle
 10
378.7306486595525
 20
857.4354313037177
 30
0.0
 40
21.08869268989238
100
AcDbArc
 50
355.7381431989185
 51
89.94826330574184
  0
ARC
  5
2616
330
1F
100
AcDbEntity
  8
0
100
AcDbCircle
 10
328.7355551436465
 20
858.2355113687686
 30
0.0
 40
53.97259732639503
100
AcDbArc
 50
22.08029830711094
 51
54.18254602760917
  0
ARC
  5
2617
330
1F
100
AcDbEntity
  8
0
100
AcDbCircle
 10
360.0279715770609
 20
901.5956697931601
 30
0.0
 40
0.5000000000022719
100
AcDbArc
 50
54.18254602762029
 51
125.8174539723797
  0
ARC
  5
2618
330
1F
100
AcDbEntity
  8
0
100
AcDbCircle
 10
391.3203880104518
 20
858.2355113687693
 30
0.0
 40
53.9725973263808
100
AcDbArc
 50
125.8174539723711
 51
157.9197016928747
  0
ARC
  5
2619
330
1F
100
AcDbEntity
  8
0
100
AcDbCircle
 10
341.3252944945747
 20
857.4354313037243
 30
0.0
 40
21.08869268989371
100
AcDbArc
 50
90.05173669428673
 51
184.2618568011029
  0
ARC
  5
261A
330
1F
100
AcDbEntity
  8
0
100
AcDbCircle
 10
319.4073917708323
 20
838.336359000948
 30
0.0
 40
17.55431945437824
100
AcDbArc
 50
87.10196324301648
 51
212.9374119892019
  0
ARC
  5
261B
330
1F
100
AcDbEntity
  8
0
100
AcDbCircle
 10
296.9786439813852
 20
800.1953547700784
 30
0.0
 40
29.61382315981566
100
AcDbArc
 50
74.93709561623183
 51
136.9274889831191
  0
ARC
  5
261C
330
1F
100
AcDbEntity
  8
0
100
AcDbCircle
 10
288.5379806011818
 20
808.4208815957115
 30
0.0
 40
17.83227233660526
100
AcDbArc
 50
137.7125834764631
 51
205.6028627818417
  0
ARC
  5
261D
330
1F
100
AcDbEntity
  8
0
100
AcDbCircle
 10
281.7619581822808
 20
803.9808160403712
 30
0.0
 40
9.861764976049219
100
AcDbArc
 50
199.3391154682235
 51
282.6995080498264
  0
ARC
  5
261E
330
1F
100
AcDbEntity
  8
0
100
AcDbCircle
 10
275.5342794309277
 20
823.023299801677
 30
0.0
 40
29.8672815362692
100
AcDbArc
 50
286.3258169504973
 51
308.3839152976622
  0
ARC
  5
261F
330
1F
100
AcDbEntity
  8
0
100
AcDbCircle
 10
301.7445755376258
 20
791.2521255749973
 30
0.0
 40
11.34134271000959
100
AcDbArc
 50
32.96884770913782
 51
132.5189980589152
  0
ARC
  5
2620
330
1F
100
AcDbEntity
  8
0
100
AcDbCircle
 10
287.9907418791047
 20
780.248325057285
 30
0.0
 40
28.92125568224938
100
AcDbArc
 50
359.8635432648216
 51
36.43236471279614
  0
ARC
  5
2621
330
1F
100
AcDbEntity
  8
0
100
AcDbCircle
 10
314.3618797488691
 20
779.8964143960485
 30
0.0
 40
2.565694691744109
100
AcDbArc
 50
217.8293543299863
 51
6.333399998477531
  0
ARC
  5
2622
330
1F
100
AcDbEntity
  8
0
100
AcDbCircle
 10
300.4417703884485
 20
768.2123325276239
 30
0.0
 40
15.610272292516
100
AcDbArc
 50
40.36715171494106
 51
109.0183113218193
  0
ARC
  5
2623
330
1F
100
AcDbEntity
  8
0
100
AcDbCircle
 10
300.240369282226
 20
769.9678755062023
 30
0.0
 40
13.89017064911352
100
AcDbArc
 50
110.5928735266292
 51
175.4338981038181
  0
ARC
  5
2624
330
1F
100
AcDbEntity
  8
0
100
AcDbCircle
 10
286.8926969944362
 20
771.0338560455007
 30
0.0
 40
0.4999999999996212
100
AcDbArc
 50
175.4338981038032
 51
275.0890654608379
  0
ARC
  5
2625
330
1F
100
AcDbEntity
  8
0
100
AcDbCircle
 10
288.5112144285485
 20
752.8595516776386
 30
0.0
 40
17.74623078721275
100
AcDbArc
 50
22.49754726149082
 51
95.08906546086196
  0
ARC
  5
2626
330
1F
100
AcDbEntity
  8
0
100
AcDbCircle
 10
285.4813608191925
 20
753.2105195375031
 30
0.0
 40
20.46505250094336
100
AcDbArc
 50
281.6555393049313
 51
18.34024636088749
  0
ARC
  5
2627
330
1F
100
AcDbEntity
  8
0
100
AcDbCircle
 10
285.2812184284176
 20
750.7076485463917
 30
0.0
 40
18.06785493627378
100
AcDbArc
 50
220.2169232724229
 51
283.8811765514669
  0
ARC
  5
2628
330
1F
100
AcDbEntity
  8
0
100
AcDbCircle
 10
282.9336613242901
 20
746.1241498785375
 30
0.0
 40
13.46278282403701
100
AcDbArc
 50
120.6434280664816
 51
211.741537365781
  0
ARC
  5
2629
330
1F
100
AcDbEntity
  8
0
100
AcDbCircle
 10
275.8169191656786
 20
758.1371130949578
 30
0.0
 40
0.5000000000000995
100
AcDbArc
 50
300.6434280664706
 51
54.95351254273028
  0
ARC
  5
262A
330
1F
100
AcDbEntity
  8
0
100
AcDbCircle
 10
266.5050777557683
 20
744.8613637546263
 30
0.0
 40
16.71591536086197
100
AcDbArc
 50
54.95351254275342
 51
141.3419632546028
  0
ARC
  5
262B
330
1F
100
AcDbEntity
  8
0
100
AcDbCircle
 10
271.7081179275385
 20
741.1659048698054
 30
0.0
 40
23.0902296161869
100
AcDbArc
 50
142.2463367147394
 51
212.9344661443588
  0
ARC
  5
262C
330
1F
100
AcDbEntity
  8
0
100
AcDbCircle
 10
249.7807719485125
 20
725.564273688135
 30
0.0
 40
3.972615695057714
100
AcDbArc
 50
255.099210579932
 51
50.10665909980751
  0
ARC
  5
262D
330
1F
100
AcDbEntity
  8
0
100
AcDbCircle
 10
254.5547932652301
 20
744.7484435573738
 30
0.0
 40
23.74144356137439
100
AcDbArc
 50
133.1204937232586
 51
255.8706563697931
  0
ARC
  5
262E
330
1F
100
AcDbEntity
  8
0
100
AcDbCircle
 10
237.9849206479921
 20
762.4427055478569
 30
0.0
 40
0.5000000000009985
100
AcDbArc
 50
313.1204937232581
 51
71.77687382569668
  0
ARC
  5
262F
330
1F
100
AcDbEntity
  8
0
100
AcDbCircle
 10
232.4465755703998
 20
745.6206202132602
 30
0.0
 40
18.21033091737648
100
AcDbArc
 50
71.77687382567066
 51
168.4040458823681
  0
ARC
  5
2630
330
1F
100
AcDbEntity
  8
0
100
AcDbCircle
 10
210.3899746326128
 20
749.4246610129481
 30
0.0
 40
4.220396850192634
100
AcDbArc
 50
188.5751297859403
 51
358.0500537760347
  0
ARC
  5
2631
330
1F
100
AcDbEntity
  8
0
100
AcDbCircle
 10
230.3973771136977
 20
754.7472834140717
 30
0.0
 40
24.90236187263368
100
AcDbArc
 50
151.2663722987662
 51
193.8281076243759
  0
ARC
  5
2632
330
1F
100
AcDbEntity
  8
0
100
AcDbCircle
 10
208.1229563395865
 20
766.959169750182
 30
0.0
 40
0.4999999999999795
100
AcDbArc
 50
331.2663722987892
 51
102.6147907300187
  0
ARC
  5
2633
330
1F
100
AcDbEntity
  8
0
100
AcDbCircle
 10
213.0310673615867
 20
745.0281380508687
 30
0.0
 40
22.97353343825939
100
AcDbArc
 50
102.6147907300139
 51
227.4108276840615
  0
ARC
  5
2634
330
1F
100
AcDbEntity
  8
0
100
AcDbCircle
 10
198.0721369299273
 20
716.0436147562221
 30
0.0
 40
12.0851520352774
100
AcDbArc
 50
92.7893169325017
 51
230.9429370317956
  0
ARC
  5
2635
330
1F
100
AcDbEntity
  8
0
100
AcDbCircle
 10
190.7724013674453
 20
707.0475262507484
 30
0.0
 40
0.5000000000005839
100
AcDbArc
 50
230.9429370317989
 51
318.9642646718362
  0
ARC
  5
2636
330
1F
100
AcDbEntity
  8
0
100
AcDbCircle
 10
208.5057127556924
 20
691.6127652732275
 30
0.0
 40
23.00961886602394
100
AcDbArc
 50
72.95252188890323
 51
138.9642646718205
  0
ARC
  5
2637
330
1F
100
AcDbEntity
  8
0
100
AcDbCircle
 10
189.8861646652935
 20
619.2153665325774
 30
0.0
 40
97.74456417040667
100
AcDbArc
 50
56.53808481448039
 51
74.95934504956744
  0
ARC
  5
2638
330
1F
100
AcDbEntity
  8
0
100
AcDbCircle
 10
202.359941323733
 20
752.6182354865351
 30
0.0
 40
66.37068230944603
100
AcDbArc
 50
234.8697212662128
 51
308.6149781096064
  0
ARC
  5
2639
330
1F
100
AcDbEntity
  8
0
100
AcDbCircle
 10
163.8800407937044
 20
697.9283332400509
 30
0.0
 40
0.5000000000001893
100
AcDbArc
 50
54.86972126619201
 51
124.7265716604395
  0
ARC
  5
263A
330
1F
100
AcDbEntity
  8
0
100
AcDbCircle
 10
172.586234670115
 20
685.3674428932868
 30
0.0
 40
15.78312069300927
100
AcDbArc
 50
124.7265716604511
 51
249.3598364704564
  0
ARC
  5
263B
330
1F
100
AcDbEntity
  8
0
100
AcDbCircle
 10
156.1658143396983
 20
691.2829757789993
 30
0.0
 40
23.36162485037609
100
AcDbArc
 50
196.9880628910135
 51
297.6929108692385
  0
ARC
  5
263C
330
1F
100
AcDbEntity
  8
0
100
AcDbCircle
 10
133.3453760160959
 20
684.3112661451499
 30
0.0
 40
0.4999999999992088
100
AcDbArc
 50
16.98806289102306
 51
126.6721938958307
  0
ARC
  5
263D
330
1F
100
AcDbEntity
  8
0
100
AcDbCircle
 10
143.0426197460366
 20
671.2882302791773
 30
0.0
 40
16.73687159289794
100
AcDbArc
 50
126.6721938958215
 51
239.2053272900155
  0
ARC
  5
263E
330
1F
100
AcDbEntity
  8
0
100
AcDbCircle
 10
182.5883620950055
 20
562.0877883130972
 30
0.0
 40
106.3318490548606
100
AcDbArc
 50
116.9037353819754
 51
185.9792558142656
  0
ARC
  5
263F
330
1F
100
AcDbEntity
  8
0
100
AcDbCircle
 10
63.12809753730292
 20
530.9390172473875
 30
0.0
 40
24.30593291782391
100
AcDbArc
 50
55.67183415506968
 51
189.2851774391698
  0
ARC
  5
2640
330
1F
100
AcDbEntity
  8
0
100
AcDbCircle
 10
52.99062597841412
 20
528.3035562937126
 30
0.0
 40
13.90959289365729
100
AcDbArc
 50
185.3059071456628
 51
346.2681858029386
  0
ARC
  5
2641
330
1F
100
AcDbEntity
  8
0
100
AcDbCircle
 10
-1.448809279151461
 20
477.8410002056186
 30
0.0
 40
82.71357194691779
100
AcDbArc
 50
359.4806476933952
 51
34.76202502282325
  0
ARC
  5
2642
330
1F
100
AcDbEntity
  8
0
100
AcDbCircle
 10
-112.9158024378158
 20
477.7787592706857
 30
0.0
 40
194.178384176126
100
AcDbArc
 50
334.8743607058026
 51
359.7971409860857
  0
ARC
  5
2643
330
1F
100
AcDbEntity
  8
0
100
AcDbCircle
 10
18.65188214578144
 20
416.0681561732164
 30
0.0
 40
48.85717459704789
100
AcDbArc
 50
277.3696235477292
 51
334.882840737898
  0
ARC
  5
2644
330
1F
100
AcDbEntity
  8
0
100
AcDbCircle
 10
24.34550565331862
 20
390.4456196373597
 30
0.0
 40
22.83824015950412
100
AcDbArc
 50
228.6806573403984
 51
271.4383702368427
  0
ARC
  5
2645
330
1F
100
AcDbEntity
  8
0
100
AcDbCircle
 10
8.936310017177524
 20
372.9176379055742
 30
0.0
 40
0.4999999999996993
100
AcDbArc
 50
48.68065734038936
 51
127.3093477704102
  0
ARC
  5
2646
330
1F
100
AcDbEntity
  8
0
100
AcDbCircle
 10
19.61844448964012
 20
358.9000768955666
 30
0.0
 40
18.1238478646704
100
AcDbArc
 50
127.3093477704126
 51
222.7199705150763
  0
ARC
  5
2647
330
1F
100
AcDbEntity
  8
0
100
AcDbCircle
 10
17.13860775853925
 20
333.317810846757
 30
0.0
 40
17.14476694029072
100
AcDbArc
 50
129.1972560078677
 51
262.2210547334999
  0
ARC
  5
2648
330
1F
100
AcDbEntity
  8
0
100
AcDbCircle
 10
39.22927952429893
 20
316.2163037025274
 30
0.0
 40
24.41151008181522
100
AcDbArc
 50
179.7312291316161
 51
299.6910835529896
  0
ARC
  5
2649
330
1F
100
AcDbEntity
  8
0
100
AcDbCircle
 10
20.27245052574426
 20
369.1573929482636
 30
0.0
 40
80.3857446099745
100
AcDbArc
 50
292.7209228076204
 51
319.8764964789578
  0
ARC
  5
264A
330
1F
100
AcDbEntity
  8
0
100
AcDbCircle
 10
158.8434612553349
 20
269.401908988063
 30
0.0
 40
90.79830387362715
100
AcDbArc
 50
148.1218478116939
 51
214.1493084520053
  0
ARC
  5
264B
330
1F
100
AcDbEntity
  8
0
100
AcDbCircle
 10
126.9422994678555
 20
250.1940433242423
 30
0.0
 40
53.65298587600242
100
AcDbArc
 50
216.2981656748991
 51
277.1383804995991
  0
ARC
  5
264C
330
1F
100
AcDbEntity
  8
0
100
AcDbCircle
 10
177.8342699633506
 20
173.508936848261
 30
0.0
 40
50.05630797853835
100
AcDbArc
 50
152.0674211145242
 51
226.2575912218823
  0
ARC
  5
264D
330
1F
100
AcDbEntity
  8
0
100
AcDbCircle
 10
227.0985554429172
 20
212.97529222072
 30
0.0
 40
112.9368447857143
100
AcDbArc
 50
222.0411886476382
 51
236.1612451579298
  0
ARC
  5
264E
330
1F
100
AcDbEntity
  8
0
100
AcDbCircle
 10
170.7924733772984
 20
101.2604275281847
 30
0.0
 40
19.080437540449
100
AcDbArc
 50
110.1846862002495
 51
252.9514212739379
  0
ARC
  5
264F
330
1F
100
AcDbEntity
  8
0
100
AcDbCircle
 10
165.3450159043469
 20
83.49647902919096
 30
0.0
 40
0.5000000000002255
100
AcDbArc
 50
252.9514212739326
 51
11.70298068273906
  0
ARC
  5
2650
330
1F
100
AcDbEntity
  8
0
100
AcDbCircle
 10
181.4686638995211
 20
86.83640078728185
 30
0.0
 40
15.96593762961726
100
AcDbArc
 50
94.32606583529054
 51
191.7029806827483
  0
ARC
  5
2651
330
1F
100
AcDbEntity
  8
0
100
AcDbCircle
 10
193.1009431247582
 20
92.35177295898447
 30
0.0
 40
16.52406260662082
100
AcDbArc
 50
140.9725653895971
 51
270.7512875533104
  0
ARC
  5
2652
330
1F
100
AcDbEntity
  8
0
100
AcDbCircle
 10
193.3110516862347
 20
76.32908789020473
 30
0.0
 40
0.5000000000000168
100
AcDbArc
 50
270.7512875533048
 51
358.9661229799988
  0
ARC
  5
2653
330
1F
100
AcDbEntity
  8
0
100
AcDbCircle
 10
219.8553006750894
 20
75.85005665522122
 30
0.0
 40
26.04857105959577
100
AcDbArc
 50
111.2931634423811
 51
178.9661229800058
  0
ARC
  5
2654
330
1F
100
AcDbEntity
  8
0
100
AcDbCircle
 10
235.7049098485302
 20
53.84108962428701
 30
0.0
 40
52.74765783352232
100
AcDbArc
 50
72.05859993955222
 51
118.6730369768588
  0
ARC
  5
2655
330
1F
100
AcDbEntity
  8
0
100
AcDbCircle
 10
281.287746935302
 20
94.93407952024965
 30
0.0
 40
30.71024239733229
100
AcDbArc
 50
162.7836082364432
 51
262.7399482106548
  0
ARC
  5
2656
330
1F
100
AcDbEntity
  8
0
100
AcDbCircle
 10
280.6053609765578
 20
89.78032165930894
 30
0.0
 40
25.51158097443537
100
AcDbArc
 50
262.7974858803526
 51
325.904091058026
  0
ARC
  5
2657
330
1F
100
AcDbEntity
  8
0
100
AcDbCircle
 10
293.2475728455559
 20
81.19393482527568
 30
0.0
 40
10.22923194725009
100
AcDbArc
 50
326.0352742064701
 51
62.77554920971596
  0
ARC
  5
2658
330
1F
100
AcDbEntity
  8
0
100
AcDbCircle
 10
293.356410826779
 20
82.46220301432661
 30
0.0
 40
9.064569939082508
100
AcDbArc
 50
59.71845473128201
 51
180.4529639321336
  0
ARC
  5
2659
330
1F
100
AcDbEntity
  8
0
100
AcDbCircle
 10
280.4205735765874
 20
95.06838675907017
 30
0.0
 40
13.25581587931261
100
AcDbArc
 50
159.6849381282567
 51
286.9815831111866
  0
ARC
  5
265A
330
1F
100
AcDbEntity
  8
0
100
AcDbCircle
 10
279.0895355385615
 20
100.0142329279116
 30
0.0
 40
11.10555422895481
100
AcDbArc
 50
58.56376664005686
 51
181.7733092033037
  0
ARC
  5
265B
330
1F
100
AcDbEntity
  8
0
100
AcDbCircle
 10
323.8850545565367
 20
173.3493066412223
 30
0.0
 40
74.82855815854822
100
AcDbArc
 50
238.5847258138158
 51
281.345053213446
  0
ARC
  5
265C
330
1F
100
AcDbEntity
  8
0
100
AcDbCircle
 10
263.0663168999023
 20
135.072115221205
 30
0.0
 40
83.29084487572213
100
AcDbArc
 50
285.6851021853725
 51
335.0842175905018
  0
ARC
  5
265D
330
1F
100
AcDbEntity
  8
0
100
AcDbCircle
 10
271.0298903512982
 20
99.45526050220038
 30
0.0
 40
46.88840164912462
100
AcDbArc
 50
235.1697506787842
 51
288.0832823616735
  0
ARC
  5
265E
330
1F
100
AcDbEntity
  8
0
100
AcDbCircle
 10
254.4796932445461
 20
77.4176563944155
 30
0.0
 40
19.37203659473889
100
AcDbArc
 50
170.8822302296928
 51
238.1242206652805
  0
ARC
  5
265F
330
1F
100
AcDbEntity
  8
0
100
AcDbCircle
 10
234.8587456355667
 20
80.56666470629597
 30
0.0
 40
0.4999999999991358
100
AcDbArc
 50
350.8822302296924
 51
81.83030798910756
  0
ARC
  5
2660
330
1F
100
AcDbEntity
  8
0
100
AcDbCircle
 10
232.5098315217549
 20
64.2050267421497
 30
0.0
 40
17.02938578362268
100
AcDbArc
 50
81.83030798910854
 51
189.8656269165
  0
ARC
  5
2661
330
1F
100
AcDbEntity
  8
0
100
AcDbCircle
 10
244.6132640725742
 20
62.10731964601349
 30
0.0
 40
28.89263343215641
100
AcDbArc
 50
181.6264753619766
 51
257.7484886790486
  0
ARC
  5
2662
330
1F
100
AcDbEntity
  8
0
100
AcDbCircle
 10
258.1089450172773
 20
91.21699082736139
 30
0.0
 40
60.61005466826202
100
AcDbArc
 50
251.1058501638654
 51
278.7412693164615
  0
ARC
  5
2663
330
1F
100
AcDbEntity
  8
0
100
AcDbCircle
 10
253.352441702911
 20
28.34795935443586
 30
0.0
 40
14.27839634272981
100
AcDbArc
 50
248.8734203355633
 51
11.976766989364
  0
ARC
  5
2664
330
1F
100
AcDbEntity
  8
0
100
AcDbCircle
 10
248.0258706786945
 20
14.56287177448989
 30
0.0
 40
0.4999999999997927
100
AcDbArc
 50
68.87342033555384
 51
174.1797727341084
  0
ARC
  5
2665
330
1F
100
AcDbEntity
  8
0
100
AcDbCircle
 10
259.9565454966441
 20
13.34674249502112
 30
0.0
 40
12.49249648888977
100
AcDbArc
 50
174.1797727341171
 51
267.7639074565965
  0
ARC
  5
2666
330
1F
100
AcDbEntity
  8
0
100
AcDbCircle
 10
267.1936710584113
 20
34.48975085828488
 30
0.0
 40
34.50182616174106
100
AcDbArc
 50
257.0624962961105
 51
332.9437231531987
  0
ARC
  5
2667
330
1F
100
AcDbEntity
  8
0
100
AcDbCircle
 10
391.1262057003706
 20
-21.68281375115592
 30
0.0
 40
101.6169591468822
100
AcDbArc
 50
116.6149316878353
 51
156.5250777429445
  0
ARC
  5
2668
330
1F
100
AcDbEntity
  8
0
100
AcDbCircle
 10
196.0933430927477
 20
348.7514970969382
 30
0.0
 40
229.8374327061213
100
AcDbArc
 50
275.3239683686389
 51
282.8646859405607
  0
ARC
  5
2669
330
1F
100
AcDbEntity
  8
0
100
AcDbCircle
 10
218.569187958136
 20
141.9458192594093
 30
0.0
 40
22.07020521119589
100
AcDbArc
 50
219.4101198951518
 51
267.0134487969077
  0
ARC
  5
266A
330
1F
100
AcDbEntity
  8
0
100
AcDbCircle
 10
213.3524072957154
 20
140.5222818992875
 30
0.0
 40
17.27804466335944
100
AcDbArc
 50
104.5512433507979
 51
226.7658824365357
  0
ARC
  5
266B
330
1F
100
AcDbEntity
  8
0
100
AcDbCircle
 10
196.4937048334724
 20
141.6338710579327
 30
0.0
 40
20.01084216899008
100
AcDbArc
 50
51.27785718296669
 51
182.3078411839915
  0
ARC
  5
266C
330
1F
100
AcDbEntity
  8
0
100
AcDbCircle
 10
207.1523972736581
 20
190.8997422830932
 30
0.0
 40
58.70943722931745
100
AcDbArc
 50
220.6578293939763
 51
238.5255128070093
  0
ARC
  5
266D
330
1F
100
AcDbEntity
  8
0
100
AcDbCircle
 10
176.0803092923153
 20
165.1154994927602
 30
0.0
 40
18.35100990845612
100
AcDbArc
 50
143.4986173995024
 51
222.7952480714498
  0
ARC
  5
266E
330
1F
100
AcDbEntity
  8
0
100
AcDbCircle
 10
170.4113683735819
 20
188.4807666734275
 30
0.0
 40
15.41022455535868
100
AcDbArc
 50
233.8874241712654
 51
5.311301697507123
  0
ARC
  5
266F
330
1F
100
AcDbEntity
  8
0
100
AcDbCircle
 10
188.2118837286199
 20
188.5165905815815
 30
0.0
 40
2.822780827640007
100
AcDbArc
 50
34.40663832388298
 51
150.484829108773
  0
ARC
  5
2670
330
1F
100
AcDbEntity
  8
0
100
AcDbCircle
 10
351.5644456532839
 20
312.8340698108484
 30
0.0
 40
202.4584038011548
100
AcDbArc
 50
217.3124481634519
 51
243.4691298736203
  0
ARC
  5
2671
330
1F
100
AcDbEntity
  8
0
100
AcDbCircle
 10
260.3243605726612
 20
129.2158069410046
 30
0.0
 40
2.607661599448855
100
AcDbArc
 50
262.2968722909576
 51
71.99610632981019
  0
ARC
  5
2672
330
1F
100
AcDbEntity
  8
0
100
AcDbCircle
 10
259.521283383883
 20
87.17040261356087
 30
0.0
 40
39.46388087969203
100
AcDbArc
 50
89.34150382384052
 51
108.0912985668017
  0
ARC
  5
2673
330
1F
100
AcDbEntity
  8
0
100
AcDbCircle
 10
387.7703858836391
 20
351.9719772953259
 30
0.0
 40
218.8157438829258
100
AcDbArc
 50
214.1921815417298
 51
239.7680236479009
  0
ARC
  5
2674
330
1F
100
AcDbEntity
  8
0
100
AcDbCircle
 10
489.3041982076434
 20
415.633800175302
 30
0.0
 40
338.6048395507387
100
AcDbArc
 50
192.6693150907064
 51
213.447517475567
  0
ARC
  5
2675
330
1F
100
AcDbEntity
  8
0
100
AcDbCircle
 10
475.0799977166574
 20
407.1580229890767
 30
0.0
 40
322.9090948256603
100
AcDbArc
 50
165.5841334467971
 51
191.7555318978453
  0
ARC
  5
2676
330
1F
100
AcDbEntity
  8
0
100
AcDbCircle
 10
405.6578068073392
 20
439.1036840733767
 30
0.0
 40
248.0957363692482
100
AcDbArc
 50
146.4531509832595
 51
168.7396164613135
  0
ARC
  5
2677
330
1F
100
AcDbEntity
  8
0
100
AcDbCircle
 10
392.0928455641377
 20
459.5468832320412
 30
0.0
 40
225.6947324319633
100
AcDbArc
 50
127.0628329289565
 51
148.8761961590145
  0
ARC
  5
2678
330
1F
100
AcDbEntity
  8
0
100
AcDbCircle
 10
360.9098112266353
 20
509.7265931838635
 30
0.0
 40
166.9449106503891
100
AcDbArc
 50
104.1026718717116
 51
128.9025557329783
  0
ARC
  5
2679
330
1F
100
AcDbEntity
  8
0
100
AcDbCircle
 10
353.3301843956999
 20
567.4246466591206
 30
0.0
 40
109.3449091500512
100
AcDbArc
 50
86.48821949828464
 51
107.6195722342657
  0
ARC
  5
267A
330
1F
100
AcDbEntity
  8
0
100
AcDbCircle
 10
366.7257587584474
 20
567.4246466592681
 30
0.0
 40
109.3449091499011
100
AcDbArc
 50
72.38042776571451
 51
93.51178050169483
  0
ARC
  5
267B
330
1F
100
AcDbEntity
  8
0
100
AcDbCircle
 10
359.1461319276641
 20
509.7265931842194
 30
0.0
 40
166.9449106499977
100
AcDbArc
 50
51.09744426703941
 51
75.89732812831186
  0
ARC
  5
267C
330
1F
100
AcDbEntity
  8
0
100
AcDbCircle
 10
327.9630975899077
 20
459.5468832319727
 30
0.0
 40
225.6947324320654
100
AcDbArc
 50
31.12380384096261
 51
52.93716707107326
  0
ARC
  5
267D
330
1F
100
AcDbEntity
  8
0
100
AcDbCircle
 10
314.3981363466583
 20
439.1036840733185
 30
0.0
 40
248.0957363693807
100
AcDbArc
 50
11.26038353869204
 51
33.54684901671053
  0
ARC
  5
267E
330
1F
100
AcDbEntity
  8
0
100
AcDbCircle
 10
244.9759454373968
 20
407.1580229890717
 30
0.0
 40
322.9090948257257
100
AcDbArc
 50
348.2444681021648
 51
14.41586655319931
  0
ARC
  5
267F
330
1F
100
AcDbEntity
  8
0
100
AcDbCircle
 10
230.7517449463894
 20
415.6338001753401
 30
0.0
 40
338.6048395508336
100
AcDbArc
 50
326.5524825244374
 51
347.3306849092971
  0
ARC
  5
2680
330
1F
100
AcDbEntity
  8
0
100
AcDbCircle
 10
332.2855572709005
 20
351.9719772948575
 30
0.0
 40
218.8157438823166
100
AcDbArc
 50
300.2319763520991
 51
325.8078184583126
  0
ARC
  5
2681
330
1F
100
AcDbEntity
  8
0
100
AcDbCircle
 10
353.7526945113674
 20
332.2318167450662
 30
0.0
 40
191.1455491728617
100
AcDbArc
 50
271.8813491108605
 51
297.6507812970019
  0
ARC
  5
2682
330
1F
100
AcDbEntity
  8
0
100
AcDbCircle
 10
366.3032486426995
 20
332.2318167448703
 30
0.0
 40
191.1455491726624
100
AcDbArc
 50
242.3492187030229
 51
268.1186508891684
  0
ARC
  5
2683
330
1F
100
AcDbEntity
  8
0
100
AcDbCircle
 10
368.4914975008223
 20
312.8340698108658
 30
0.0
 40
202.4584038011763
100
AcDbArc
 50
296.5308701263741
 51
322.6875518365296
  0
ARC
  5
2684
330
1F
100
AcDbEntity
  8
0
100
AcDbCircle
 10
531.8440594254965
 20
188.5165905815735
 30
0.0
 40
2.822780827644621
100
AcDbArc
 50
29.51517089134546
 51
145.5933616771565
  0
ARC
  5
2685
330
1F
100
AcDbEntity
  8
0
100
AcDbCircle
 10
549.6445747805374
 20
188.4807666734264
 30
0.0
 40
15.41022455536048
100
AcDbArc
 50
174.688698302492
 51
306.1125758287322
  0
ARC
  5
2686
330
1F
100
AcDbEntity
  8
0
100
AcDbCircle
 10
543.9756338617861
 20
165.1154994927594
 30
0.0
 40
18.35100990846971
100
AcDbArc
 50
317.2047519285738
 51
36.50138260045858
  0
ARC
  5
2687
330
1F
100
AcDbEntity
  8
0
100
AcDbCircle
 10
512.9035458804072
 20
190.8997422831694
 30
0.0
 40
58.70943722940904
100
AcDbArc
 50
301.4744871929974
 51
319.3421706059965
  0
ARC
  5
2688
330
1F
100
AcDbEntity
  8
0
100
AcDbCircle
 10
523.5622383206453
 20
141.6338710579316
 30
0.0
 40
20.01084216899123
100
AcDbArc
 50
357.6921588160164
 51
128.7221428170566
  0
ARC
  5
2689
330
1F
100
AcDbEntity
  8
0
100
AcDbCircle
 10
506.7035358583972
 20
140.5222818992814
 30
0.0
 40
17.27804466335982
100
AcDbArc
 50
313.2341175634936
 51
75.44875664920893
  0
ARC
  5
268A
330
1F
100
AcDbEntity
  8
0
100
AcDbCircle
 10
501.4867551959858
 20
141.9458192593964
 30
0.0
 40
22.07020521118593
100
AcDbArc
 50
272.9865512031602
 51
320.5898801048686
  0
ARC
  5
268B
330
1F
100
AcDbEntity
  8
0
100
AcDbCircle
 10
523.9626000614373
 20
348.7514970973809
 30
0.0
 40
229.837432706567
100
AcDbArc
 50
257.1353140594344
 51
264.6760316313621
  0
ARC
  5
268C
330
1F
100
AcDbEntity
  8
0
100
AcDbCircle
 10
460.534659770233
 20
87.17040261363576
 30
0.0
 40
39.46388087961739
100
AcDbArc
 50
71.9087014332389
 51
90.65849617604033
  0
ARC
  5
268D
330
1F
100
AcDbEntity
  8
0
100
AcDbCircle
 10
459.7315825815054
 20
129.2158069410086
 30
0.0
 40
2.607661599455956
100
AcDbArc
 50
108.0038936717333
 51
277.7031277097357
  0
ARC
  5
268E
330
1F
100
AcDbEntity
  8
0
100
AcDbCircle
 10
161.8072054016035
 20
184.3287699005319
 30
0.0
 40
25.62021609815151
100
AcDbArc
 50
61.7773180714209
 51
108.185846045303
  0
ARC
  5
268F
330
1F
100
AcDbEntity
  8
0
100
AcDbCircle
 10
153.2540727991496
 20
210.2561693510237
 30
0.0
 40
1.681865843381943
100
AcDbArc
 50
131.8032855380663
 51
289.3424638650147
  0
ARC
  5
2690
330
1F
100
AcDbEntity
  8
0
100
AcDbCircle
 10
136.3920313750646
 20
227.7027253481449
 30
0.0
 40
22.58285370231953
100
AcDbArc
 50
314.1892913296711
 51
5.884418454092481
  0
ARC
  5
2691
330
1F
100
AcDbEntity
  8
0
100
AcDbCircle
 10
161.1394918899371
 20
230.3850528114379
 30
0.0
 40
2.312918233056315
100
AcDbArc
 50
16.22526595676798
 51
189.1321367106458
  0
ARC
  5
2692
330
1F
100
AcDbEntity
  8
0
100
AcDbCircle
 10
291.3366551896806
 20
298.1954282958207
 30
0.0
 40
144.5301649922932
100
AcDbArc
 50
207.6912312948075
 51
217.412177645954
  0
ARC
  5
2693
330
1F
100
AcDbEntity
  8
0
100
AcDbCircle
 10
175.0745660273253
 20
208.7622604626968
 30
0.0
 40
2.18686257687697
100
AcDbArc
 50
238.2249534948988
 51
47.97967065905685
  0
ARC
  5
2694
330
1F
100
AcDbEntity
  8
0
100
AcDbCircle
 10
141.5703668883318
 20
238.8023359268976
 30
0.0
 40
15.35014922577425
100
AcDbArc
 50
77.56692595919727
 51
142.2891663473967
  0
ARC
  5
2695
330
1F
100
AcDbEntity
  8
0
100
AcDbCircle
 10
131.0464851573232
 20
261.9571825143285
 30
0.0
 40
13.86048618788454
100
AcDbArc
 50
175.866642672569
 51
263.2890563272996
  0
ARC
  5
2696
330
1F
100
AcDbEntity
  8
0
100
AcDbCircle
 10
222.9740852131639
 20
271.4119937720413
 30
0.0
 40
106.089551789113
100
AcDbArc
 50
158.473903732195
 51
184.5715581365619
  0
ARC
  5
2697
330
1F
100
AcDbEntity
  8
0
100
AcDbCircle
 10
126.2529262347388
 20
308.3567744326145
 30
0.0
 40
2.793673566770969
100
AcDbArc
 50
9.801656918729928
 51
134.8053815846421
  0
ARC
  5
2698
330
1F
100
AcDbEntity
  8
0
100
AcDbCircle
 10
336.1068845553635
 20
355.7655666033089
 30
0.0
 40
212.3524811819009
100
AcDbArc
 50
192.7686887771705
 51
207.4449921643091
  0
ARC
  5
2699
330
1F
100
AcDbEntity
  8
0
100
AcDbCircle
 10
145.8548077663497
 20
256.1204044997865
 30
0.0
 40
2.525611168007474
100
AcDbArc
 50
247.1789767057336
 51
44.57500536740973
  0
ARC
  5
269A
330
1F
100
AcDbEntity
  8
0
100
AcDbCircle
 10
428.7192879648292
 20
298.1954282955795
 30
0.0
 40
144.5301649918366
100
AcDbArc
 50
322.5878223540274
 51
332.3087687052053
  0
ARC
  5
269B
330
1F
100
AcDbEntity
  8
0
100
AcDbCircle
 10
558.9164512641808
 20
230.3850528114363
 30
0.0
 40
2.312918233054186
100
AcDbArc
 50
350.8678632901655
 51
163.774734043181
  0
ARC
  5
269C
330
1F
100
AcDbEntity
  8
0
100
AcDbCircle
 10
583.6639117790514
 20
227.7027253481463
 30
0.0
 40
22.5828537023176
100
AcDbArc
 50
174.1155815458313
 51
225.810708670354
  0
ARC
  5
269D
330
1F
100
AcDbEntity
  8
0
100
AcDbCircle
 10
566.8018703549712
 20
210.2561693510228
 30
0.0
 40
1.681865843382064
100
AcDbArc
 50
250.6575361338988
 51
48.1967144617703
  0
ARC
  5
269E
330
1F
100
AcDbEntity
  8
0
100
AcDbCircle
 10
558.2487377525147
 20
184.328769900548
 30
0.0
 40
25.62021609813675
100
AcDbArc
 50
71.8141539547511
 51
118.2226819286206
  0
ARC
  5
269F
330
1F
100
AcDbEntity
  8
0
100
AcDbCircle
 10
544.9813771267677
 20
208.7622604626772
 30
0.0
 40
2.186862576873499
100
AcDbArc
 50
132.0203293401223
 51
301.7750465056479
  0
ARC
  5
26A0
330
1F
100
AcDbEntity
  8
0
100
AcDbCircle
 10
383.9490585985486
 20
355.7655666033688
 30
0.0
 40
212.3524811821138
100
AcDbArc
 50
332.5550078357052
 51
347.2313112228121
  0
ARC
  5
26A1
330
1F
100
AcDbEntity
  8
0
100
AcDbCircle
 10
593.8030169193841
 20
308.3567744326026
 30
0.0
 40
2.79367356678166
100
AcDbArc
 50
45.19461841575957
 51
170.1983430820995
  0
ARC
  5
26A2
330
1F
100
AcDbEntity
  8
0
100
AcDbCircle
 10
497.0818579409198
 20
271.4119937720312
 30
0.0
 40
106.0895517891509
100
AcDbArc
 50
355.4284418634508
 51
21.52609626780825
  0
ARC
  5
26A3
330
1F
100
AcDbEntity
  8
0
100
AcDbCircle
 10
589.0094579967941
 20
261.9571825143352
 30
0.0
 40
13.86048618789076
100
AcDbArc
 50
276.7109436727305
 51
4.133357327444484
  0
ARC
  5
26A4
330
1F
100
AcDbEntity
  8
0
100
AcDbCircle
 10
578.4855762657936
 20
238.8023359268986
 30
0.0
 40
15.3501492257745
100
AcDbArc
 50
37.71083365260482
 51
102.4330740407525
  0
ARC
  5
26A5
330
1F
100
AcDbEntity
  8
0
100
AcDbCircle
 10
574.2011353877647
 20
256.1204044997822
 30
0.0
 40
2.525611168008963
100
AcDbArc
 50
135.4249946322016
 51
292.8210232948418
  0
ARC
  5
26A6
330
1F
100
AcDbEntity
  8
0
100
AcDbCircle
 10
-42.09068426730604
 20
451.8537473700215
 30
0.0
 40
156.8355520360795
100
AcDbArc
 50
4.936625319707703
 51
29.70111722735382
  0
ARC
  5
26A7
330
1F
100
AcDbEntity
  8
0
100
AcDbCircle
 10
96.49880136248238
 20
531.3237286818524
 30
0.0
 40
2.944038576851793
100
AcDbArc
 50
53.3064134856562
 51
216.7572970537926
  0
ARC
  5
26A8
330
1F
100
AcDbEntity
  8
0
100
AcDbCircle
 10
115.459077293616
 20
562.8004653928891
 30
0.0
 40
33.81751518290778
100
AcDbArc
 50
239.4263866717583
 51
299.3466595326254
  0
ARC
  5
26A9
330
1F
100
AcDbEntity
  8
0
100
AcDbCircle
 10
132.4581799928787
 20
529.1088291693714
 30
0.0
 40
4.235324845285008
100
AcDbArc
 50
325.9950342385053
 51
95.76446917227931
  0
ARC
  5
26AA
330
1F
100
AcDbEntity
  8
0
100
AcDbCircle
 10
298.5454148550622
 20
449.2941949731966
 30
0.0
 40
180.0802527531559
100
AcDbArc
 50
154.5284019873352
 51
174.9384141913757
  0
ARC
  5
26AB
330
1F
100
AcDbEntity
  8
0
100
AcDbCircle
 10
116.6558595450502
 20
464.9866150769478
 30
0.0
 40
2.519127832042558
100
AcDbArc
 50
171.705146586773
 51
4.449300837573977
  0
ARC
  5
26AC
330
1F
100
AcDbEntity
  8
0
100
AcDbCircle
 10
421.5105282990736
 20
449.2941949731985
 30
0.0
 40
180.0802527531393
100
AcDbArc
 50
5.061585808604379
 51
25.47159801265406
  0
ARC
  5
26AD
330
1F
100
AcDbEntity
  8
0
100
AcDbCircle
 10
587.5977631612409
 20
529.1088291693666
 30
0.0
 40
4.235324845289221
100
AcDbArc
 50
84.2355308276619
 51
214.0049657619586
  0
ARC
  5
26AE
330
1F
100
AcDbEntity
  8
0
100
AcDbCircle
 10
604.5968658605073
 20
562.8004653929062
 30
0.0
 40
33.81751518292317
100
AcDbArc
 50
240.653340467391
 51
300.5736133279928
  0
ARC
  5
26AF
330
1F
100
AcDbEntity
  8
0
100
AcDbCircle
 10
623.5571417916411
 20
531.3237286818682
 30
0.0
 40
2.944038576853413
100
AcDbArc
 50
323.2427029466785
 51
126.6935865172049
  0
ARC
  5
26B0
330
1F
100
AcDbEntity
  8
0
100
AcDbCircle
 10
762.1466274214371
 20
451.8537473700188
 30
0.0
 40
156.8355520360907
100
AcDbArc
 50
150.298882772633
 51
175.0633746802763
  0
ARC
  5
26B1
330
1F
100
AcDbEntity
  8
0
100
AcDbCircle
 10
603.4000836090801
 20
464.986615076924
 30
0.0
 40
2.519127832045395
100
AcDbArc
 50
175.5506991632984
 51
8.294853414727942
  0
ARC
  5
26B2
330
1F
100
AcDbEntity
  8
0
100
AcDbCircle
 10
128.2387671028783
 20
552.9019655587482
 30
0.0
 40
14.99663311556022
100
AcDbArc
 50
23.44750566444787
 51
122.2542156816837
  0
ARC
  5
26B3
330
1F
100
AcDbEntity
  8
0
100
AcDbCircle
 10
118.3612395455321
 20
567.4566100619436
 30
0.0
 40
2.649060500275425
100
AcDbArc
 50
154.8503158443679
 51
315.0307373776001
  0
ARC
  5
26B4
330
1F
100
AcDbEntity
  8
0
100
AcDbCircle
 10
159.7383452556879
 20
552.2629283459328
 30
0.0
 40
46.71808703879029
100
AcDbArc
 50
79.25270865481931
 51
159.5543636378608
  0
ARC
  5
26B5
330
1F
100
AcDbEntity
  8
0
100
AcDbCircle
 10
265.1688018709518
 20
520.3442228283855
 30
0.0
 40
124.1370982623301
100
AcDbArc
 50
141.180725001677
 51
161.734353205689
  0
ARC
  5
26B6
330
1F
100
AcDbEntity
  8
0
100
AcDbCircle
 10
144.5882252309823
 20
559.8013884144961
 30
0.0
 40
2.753732180556383
100
AcDbArc
 50
199.7853761429612
 51
348.4847166516324
  0
ARC
  5
26B7
330
1F
100
AcDbEntity
  8
0
100
AcDbCircle
 10
454.8871412831609
 20
520.3442228284143
 30
0.0
 40
124.1370982623243
100
AcDbArc
 50
18.26564679429993
 51
38.81927499828466
  0
ARC
  5
26B8
330
1F
100
AcDbEntity
  8
0
100
AcDbCircle
 10
560.3175978984665
 20
552.2629283459195
 30
0.0
 40
46.71808703876334
100
AcDbArc
 50
20.44563636194777
 51
100.7472913451796
  0
ARC
  5
26B9
330
1F
100
AcDbEntity
  8
0
100
AcDbCircle
 10
601.6947036085601
 20
567.4566100619728
 30
0.0
 40
2.649060500274027
100
AcDbArc
 50
224.969262623134
 51
25.14968415091139
  0
ARC
  5
26BA
330
1F
100
AcDbEntity
  8
0
100
AcDbCircle
 10
591.817176051243
 20
552.9019655587473
 30
0.0
 40
14.99663311556403
100
AcDbArc
 50
57.74578431834466
 51
156.5524943357032
  0
ARC
  5
26BB
330
1F
100
AcDbEntity
  8
0
100
AcDbCircle
 10
575.4677179231345
 20
559.8013884145152
 30
0.0
 40
2.753732180561216
100
AcDbArc
 50
191.5152833486626
 51
340.2146238558612
  0
ARC
  5
26BC
330
1F
100
AcDbEntity
  8
0
 62
     1
100
AcDbCircle
 10
26.60792587131128
 20
377.2891359294923
 30
0.0
 40
62.57169857154517
100
AcDbArc
 50
270.1512410086713
 51
322.9500789287273
  0
ARC
  5
26BD
330
1F
100
AcDbEntity
  8
0
 62
     1
100
AcDbCircle
 10
-65.79386461452561
 20
453.2976226032485
 30
0.0
 40
182.1828468071335
100
AcDbArc
 50
321.3805045238134
 51
347.6085629509928
  0
ARC
  5
26BE
330
1F
100
AcDbEntity
  8
0
 62
     1
100
AcDbCircle
 10
24.9435057173831
 20
392.4083319946629
 30
0.0
 40
53.50943854810931
100
AcDbArc
 50
260.7879703137556
 51
336.5630176632408
  0
ARC
  5
26BF
330
1F
100
AcDbEntity
  8
0
 62
     1
100
AcDbCircle
 10
-41.00106227802429
 20
437.7150690479273
 30
0.0
 40
132.9219003318966
100
AcDbArc
 50
329.9359506529397
 51
356.5539258324502
  0
ARC
  5
26C0
330
1F
100
AcDbEntity
  8
0
 62
     1
100
AcDbCircle
 10
-44.27869236786293
 20
448.7685668838143
 30
0.0
 40
137.2863690968304
100
AcDbArc
 50
352.0266590298109
 51
13.59645695507126
  0
ARC
  5
26C1
330
1F
100
AcDbEntity
  8
0
 62
     1
100
AcDbCircle
 10
255.7139599810418
 20
776.2098217589731
 30
0.0
 40
82.8034714149008
100
AcDbArc
 50
313.6289194088984
 51
1.72380985078619
  0
ARC
  5
26C2
330
1F
100
AcDbEntity
  8
0
 62
     1
100
AcDbCircle
 10
294.2982377975565
 20
780.7389156273607
 30
0.0
 40
44.22871031736848
100
AcDbArc
 50
357.3586516316133
 51
53.43030320830124
  0
ARC
  5
26C3
330
1F
100
AcDbEntity
  8
0
 62
     1
100
AcDbCircle
 10
338.7008862501817
 20
846.3453312799357
 30
0.0
 40
17.61376888097587
100
AcDbArc
 50
188.8995901723065
 51
220.1246143598731
  0
ARC
  5
26C4
330
1F
100
AcDbEntity
  8
0
 62
     1
100
AcDbCircle
 10
225.5876475080423
 20
742.311737644384
 30
0.0
 40
136.0850443497695
100
AcDbArc
 50
17.89933818690835
 51
42.92669270245865
  0
ARC
  5
26C5
330
1F
100
AcDbEntity
  8
0
 62
     1
100
AcDbCircle
 10
692.6387187825971
 20
353.8979287473752
 30
0.0
 40
93.08881226413847
100
AcDbArc
 50
182.4315898491928
 51
197.2476860258747
  0
ARC
  5
26C6
330
1F
100
AcDbEntity
  8
0
 62
     1
100
AcDbCircle
 10
1116.885753586673
 20
491.5177312882895
 30
0.0
 40
539.0924693475076
100
AcDbArc
 50
197.8472102465089
 51
201.9833325352737
  0
ARC
  5
26C7
330
1F
100
AcDbEntity
  8
0
 62
     1
100
AcDbCircle
 10
525.3187096294498
 20
234.8929765401619
 30
0.0
 40
106.8128845326198
100
AcDbArc
 50
4.375975751450545
 51
30.88109209396443
  0
ARC
  5
26C8
330
1F
100
AcDbEntity
  8
0
 62
     1
100
AcDbCircle
 10
785.8498077686656
 20
453.2976226032548
 30
0.0
 40
182.1828468071545
100
AcDbArc
 50
192.3914370490114
 51
218.6194954761909
  0
ARC
  5
26C9
330
1F
100
AcDbEntity
  8
0
 62
     1
100
AcDbCircle
 10
693.4480172828102
 20
377.2891359294981
 30
0.0
 40
62.57169857155066
100
AcDbArc
 50
217.0499210712956
 51
269.8487589912734
  0
ARC
  5
26CA
330
1F
100
AcDbEntity
  8
0
 62
     1
100
AcDbCircle
 10
764.3346355220661
 20
448.7685668838043
 30
0.0
 40
137.2863690969142
100
AcDbArc
 50
166.4035430449304
 51
187.9733409701779
  0
ARC
  5
26CB
330
1F
100
AcDbEntity
  8
0
 62
     1
100
AcDbCircle
 10
761.0570054320326
 20
437.7150690479049
 30
0.0
 40
132.9219003317872
100
AcDbArc
 50
183.4460741675409
 51
210.0640493470756
  0
ARC
  5
26CC
330
1F
100
AcDbEntity
  8
0
 62
     1
100
AcDbCircle
 10
695.1124374367395
 20
392.408331994664
 30
0.0
 40
53.50943854811068
100
AcDbArc
 50
203.436982336758
 51
279.2120296862174
  0
ARC
  5
26CD
330
1F
100
AcDbEntity
  8
0
 62
     1
100
AcDbCircle
 10
650.6025852488976
 20
899.9170483160806
 30
0.0
 40
292.1963663434503
100
AcDbArc
 50
243.5580934999887
 51
255.0088741885794
  0
ARC
  5
26CE
330
1F
100
AcDbEntity
  8
0
 62
     1
100
AcDbCircle
 10
563.4326981700403
 20
571.282892473152
 30
0.0
 40
47.80797678241317
100
AcDbArc
 50
17.00073183008179
 51
75.97304567999336
  0
ARC
  5
26CF
330
1F
100
AcDbEntity
  8
0
 62
     1
100
AcDbCircle
 10
786.0905937876063
 20
1299.297815812591
 30
0.0
 40
694.6224066406647
100
AcDbArc
 50
242.2549850070583
 51
251.7885810339564
  0
ARC
  5
26D0
330
1F
100
AcDbEntity
  8
0
 62
     1
100
AcDbCircle
 10
544.7560138965853
 20
556.6973832876165
 30
0.0
 40
86.25050700249424
100
AcDbArc
 50
42.92952406386281
 51
73.67190231479091
  0
ARC
  5
26D1
330
1F
100
AcDbEntity
  8
0
 62
     1
100
AcDbCircle
 10
573.6475994734529
 20
584.3006156169398
 30
0.0
 40
46.2988714351928
100
AcDbArc
 50
346.5569733768581
 51
42.27008668123097
  0
ARC
  5
26D2
330
1F
100
AcDbEntity
  8
0
 62
     1
100
AcDbCircle
 10
425.7577053565618
 20
780.7389156273643
 30
0.0
 40
44.22871031736427
100
AcDbArc
 50
126.5696967917272
 51
182.6413483683863
  0
ARC
  5
26D3
330
1F
100
AcDbEntity
  8
0
 62
     1
100
AcDbCircle
 10
464.3419831730849
 20
776.2098217589748
 30
0.0
 40
82.80347141490507
100
AcDbArc
 50
178.2761901492122
 51
226.3710805911278
  0
ARC
  5
26D4
330
1F
100
AcDbEntity
  8
0
 62
     1
100
AcDbCircle
 10
381.3550569039374
 20
846.3453312799368
 30
0.0
 40
17.61376888097624
100
AcDbArc
 50
319.8753856401086
 51
351.1004098276989
  0
ARC
  5
26D5
330
1F
100
AcDbEntity
  8
0
 62
     1
100
AcDbCircle
 10
494.4682956461124
 20
742.3117376443599
 30
0.0
 40
136.0850443498121
100
AcDbArc
 50
137.0733072975462
 51
162.1006618130994
  0
ARC
  5
26D6
330
1F
100
AcDbEntity
  8
0
 62
     1
100
AcDbCircle
 10
194.7372335245385
 20
234.892976540204
 30
0.0
 40
106.8128845324858
100
AcDbArc
 50
149.1189079060168
 51
175.6240242485668
  0
ARC
  5
26D7
330
1F
100
AcDbEntity
  8
0
 62
     1
100
AcDbCircle
 10
-396.8298104298394
 20
491.517731287301
 30
0.0
 40
539.0924693446205
100
AcDbArc
 50
338.0166674647161
 51
342.1527897535008
  0
ARC
  5
26D8
330
1F
100
AcDbEntity
  8
0
 62
     1
100
AcDbCircle
 10
27.4172243715223
 20
353.8979287473816
 30
0.0
 40
93.0888122641403
100
AcDbArc
 50
342.7523139741111
 51
357.5684101508056
  0
ARC
  5
26D9
330
1F
100
AcDbEntity
  8
0
 62
     1
100
AcDbCircle
 10
156.623244983953
 20
571.28289247328
 30
0.0
 40
47.80797678225652
100
AcDbArc
 50
104.026954320053
 51
162.9992681700185
  0
ARC
  5
26DA
330
1F
100
AcDbEntity
  8
0
 62
     1
100
AcDbCircle
 10
69.45335790525415
 20
899.9170483160014
 30
0.0
 40
292.1963663433652
100
AcDbArc
 50
284.991125811393
 51
296.4419064999799
  0
ARC
  5
26DB
330
1F
100
AcDbEntity
  8
0
 62
     1
100
AcDbCircle
 10
146.4083436806581
 20
584.3006156169438
 30
0.0
 40
46.29887143518458
100
AcDbArc
 50
137.7299133187736
 51
193.4430266231466
  0
ARC
  5
26DC
330
1F
100
AcDbEntity
  8
0
 62
     1
100
AcDbCircle
 10
175.2999292569054
 20
556.6973832885562
 30
0.0
 40
86.25050700139432
100
AcDbArc
 50
106.3280976854109
 51
137.070475936314
  0
ARC
  5
26DD
330
1F
100
AcDbEntity
  8
0
 62
     1
100
AcDbCircle
 10
-66.03465063341554
 20
1299.297815812432
 30
0.0
 40
694.6224066404913
100
AcDbArc
 50
288.2114189659891
 51
297.745014992914
  0
ENDSEC
  0
SECTION
  2
OBJECTS
  0
DICTIONARY
  5
C
330
0
100
AcDbDictionary
281
     1
  3
ACAD_ASSOCPERSSUBENTMANAGER
350
23DC
  3
ACAD_BACKGROUND
350
6B1
  3
ACAD_CIP_PREVIOUS_PRODUCT_INFO
350
216
  3
ACAD_COLOR
350
6B
  3
ACAD_DETAILVIEWSTYLE
350
21B
  3
ACAD_GROUP
350
D
  3
ACAD_IMAGE_DICT
350
23E
  3
ACAD_IMAGE_VARS
350
240
  3
ACAD_LAYOUT
350
1A
  3
ACAD_MATERIAL
350
6A
  3
ACAD_MLEADERSTYLE
350
12D
  3
ACAD_MLINESTYLE
350
17
  3
ACAD_PLOTSETTINGS
350
19
  3
ACAD_PLOTSTYLENAME
350
E
  3
ACAD_SCALELIST
350
10C
  3
ACAD_SECTIONVIEWSTYLE
350
219
  3
ACAD_TABLESTYLE
350
7E
  3
ACAD_VISUALSTYLE
350
EF
  3
ACDB_RECOMPOSE_DATA
350
26E3
  3
AcDbVariableDictionary
350
5E
  3
ASE_INDEX_DICTIONARY
350
2ED
  3
DWGPROPS
350
26E4
  0
DICTIONARY
  5
1FF
330
2
100
AcDbDictionary
280
     1
281
     1
  3
ACAD_LAYERSTATES
360
200
  0
DICTIONARY
  5
13C
330
10
100
AcDbDictionary
280
     1
281
     1
  0
DICTIONARY
  5
1874
330
1873
100
AcDbDictionary
280
     1
281
     1
  0
DICTIONARY
  5
1CE
330
1F
100
AcDbDictionary
280
     1
281
     1
  3
ACAD_SORTENTS
360
26A
  0
ACDBASSOCPERSSUBENTMANAGER
  5
23DC
102
{ACAD_REACTORS
330
C
102
}
330
C
100
AcDbAssocPersSubentManager
 90
        1
 90
        3
 90
        0
 90
        2
 90
        5
 90
        4
 90
        4
 90
        0
 90
       11
 90
        2
 90
        1
 90
        1
 90
        0
 90
        1
 90
        1
 90
        1
 90
        0
 90
        1
 90
        1
 90
        1
 90
       54
 90
        0
 90
        0
 90
        1
 90
1000000000
 90
   251001
 90
        0
 90
        0
 90
        1
 90
        1
 90
1000000000
 90
     1001
 90
        0
 90
        0
 90
        0
 90
        0
 90
        1
 90
        3
 90
        1
 90
1000000000
 90
     1001
 90
        1
 90
1000000000
 90
   251001
 90
        1
 90
1000000000
 90
   151001
 90
        0
 90
        0
 90
        0
 90
      900
 90
        0
 90
      900
 90
        0
 90
        0
 90
        0
 90
        0
 90
        1
 90
        3
 90
        1
 90
1000000000
 90
     1001
 90
        1
 90
1000000000
 90
   351001
 90
        1
 90
1000000000
 90
   251001
 90
        0
 90
        0
 90
        0
 90
      900
 90
        0
 90
      900
 90
        0
 90
        0
 90
        4
 90
        0
 90
       11
 90
        3
 90
        1
 90
        1
 90
        0
 90
        1
 90
        1
 90
        1
 90
        0
 90
        1
 90
        1
 90
        1
 90
       54
 90
        0
 90
        0
 90
        1
 90
1000000000
 90
   551001
 90
        0
 90
        0
 90
        1
 90
        1
 90
1000000000
 90
     1001
 90
        0
 90
        0
 90
        0
 90
        0
 90
        1
 90
        3
 90
        1
 90
1000000000
 90
     1001
 90
        1
 90
1000000000
 90
   551001
 90
        1
 90
1000000000
 90
   451001
 90
        0
 90
        0
 90
        0
 90
      900
 90
        0
 90
      900
 90
        0
 90
        0
 90
        0
 90
        0
 90
        1
 90
        3
 90
        1
 90
1000000000
 90
     1001
 90
        1
 90
1000000000
 90
    51001
 90
        1
 90
1000000000
 90
   551001
 90
        0
 90
        0
 90
        0
 90
      900
 90
        0
 90
      900
 90
        0
 90
        0
 90
        4
 90
        0
 90
       11
 90
        4
 90
        1
 90
        1
 90
        0
 90
        1
 90
        1
 90
        1
 90
        0
 90
        1
 90
        1
 90
        1
 90
       54
 90
        0
 90
        0
 90
        1
 90
1000000000
 90
   251001
 90
        0
 90
        0
 90
        1
 90
        1
 90
1000000000
 90
     1001
 90
        0
 90
        0
 90
        0
 90
        0
 90
        1
 90
        3
 90
        1
 90
1000000000
 90
     1001
 90
        1
 90
1000000000
 90
   251001
 90
        1
 90
1000000000
 90
   151001
 90
        0
 90
        0
 90
        0
 90
      900
 90
        0
 90
      900
 90
        0
 90
        0
 90
        0
 90
        0
 90
        1
 90
        3
 90
        1
 90
1000000000
 90
     1001
 90
        1
 90
1000000000
 90
   351001
 90
        1
 90
1000000000
 90
   251001
 90
        0
 90
        0
 90
        0
 90
      900
 90
        0
 90
      900
 90
        0
 90
        0
 90
        4
 90
        0
 90
       11
 90
        5
 90
        1
 90
        1
 90
        0
 90
        1
 90
        1
 90
        1
 90
        0
 90
        1
 90
        1
 90
        1
 90
       54
 90
        0
 90
        0
 90
        1
 90
1000000000
 90
   551001
 90
        0
 90
        0
 90
        1
 90
        1
 90
1000000000
 90
     1001
 90
        0
 90
        0
 90
        0
 90
        0
 90
        1
 90
        3
 90
        1
 90
1000000000
 90
     1001
 90
        1
 90
1000000000
 90
   551001
 90
        1
 90
1000000000
 90
   451001
 90
        0
 90
        0
 90
        0
 90
      900
 90
        0
 90
      900
 90
        0
 90
        0
 90
        0
 90
        0
 90
        1
 90
        3
 90
        1
 90
1000000000
 90
     1001
 90
        1
 90
1000000000
 90
    51001
 90
        1
 90
1000000000
 90
   551001
 90
        0
 90
        0
 90
        0
 90
      900
 90
        0
 90
      900
 90
        0
 90
        0
 90
        5
 90
        1
 90
        2
 90
        3
 90
        4
 90
        5
 90
        0
290
     0
  0
DICTIONARY
  5
6B1
102
{ACAD_REACTORS
330
C
102
}
330
C
100
AcDbDictionary
281
     1
  0
XRECORD
  5
216
102
{ACAD_REACTORS
330
C
102
}
330
C
100
AcDbXrecord
280
     1
300
ACD
300
2015
300
ACD_F_S
  0
DICTIONARY
  5
6B
102
{ACAD_REACTORS
330
C
102
}
330
C
100
AcDbDictionary
281
     1
  0
DICTIONARY
  5
21B
102
{ACAD_REACTORS
330
C
102
}
330
C
100
AcDbDictionary
281
     1
  3
Metric50
350
21C
  0
DICTIONARY
  5
D
102
{ACAD_REACTORS
330
C
102
}
330
C
100
AcDbDictionary
281
     1
  0
DICTIONARY
  5
23E
102
{ACAD_REACTORS
330
C
102
}
330
C
100
AcDbDictionary
281
     1
  3
658949_3
350
299
  3
can-stock-photo_csp17971836
350
6B5
  3
creativemarketcanvas-f
350
155F
  3
dekoratif-ayna-modelleri-2013-6
350
23F
  3
images
350
F95
  3
stock-vector-vector-illustration-of-vintage-frame-179479043
350
139A
  3
woodland-frame
350
139D
  0
RASTERVARIABLES
  5
240
102
{ACAD_REACTORS
330
C
102
}
330
C
100
AcDbRasterVariables
 90
        0
 70
     1
 71
     1
 72
     1
  0
DICTIONARY
  5
1A
102
{ACAD_REACTORS
330
C
102
}
330
C
100
AcDbDictionary
281
     1
  3
Layout1
350
D3
  3
Layout2
350
D7
  3
Model
350
22
  0
DICTIONARY
  5
6A
102
{ACAD_REACTORS
330
C
102
}
330
C
100
AcDbDictionary
281
     1
  3
ByBlock
350
ED
  3
ByLayer
350
EC
  3
Global
350
EE
  0
DICTIONARY
  5
12D
102
{ACAD_REACTORS
330
C
102
}
330
C
100
AcDbDictionary
281
     1
  3
Annotative
350
13B
  3
Standard
350
12E
  0
DICTIONARY
  5
17
102
{ACAD_REACTORS
330
C
102
}
330
C
100
AcDbDictionary
281
     1
  3
Standard
350
18
  0
DICTIONARY
  5
19
102
{ACAD_REACTORS
330
C
102
}
330
C
100
AcDbDictionary
281
     1
  0
ACDBDICTIONARYWDFLT
  5
E
102
{ACAD_REACTORS
330
C
102
}
330
C
100
AcDbDictionary
281
     1
  3
Normal
350
F
100
AcDbDictionaryWithDefault
340
F
  0
DICTIONARY
  5
10C
102
{ACAD_REACTORS
330
C
102
}
330
C
100
AcDbDictionary
281
     1
  3
A0
350
10D
  3
A1
350
1BE
  3
A2
350
1BF
  3
A3
350
1C0
  3
A4
350
1C1
  3
A5
350
1C2
  3
A6
350
1C3
  3
A7
350
1C4
  3
A8
350
1C5
  3
A9
350
1C6
  3
B0
350
1C7
  3
B1
350
1C8
  3
B2
350
1C9
  3
B3
350
1CA
  3
B4
350
1CB
  3
B5
350
1CC
  3
B6
350
1CD
  0
DICTIONARY
  5
219
102
{ACAD_REACTORS
330
C
102
}
330
C
100
AcDbDictionary
281
     1
  3
Metric50
350
21A
  0
DICTIONARY
  5
7E
102
{ACAD_REACTORS
330
C
102
}
330
C
100
AcDbDictionary
281
     1
  3
Standard
350
7F
  0
DICTIONARY
  5
EF
102
{ACAD_REACTORS
330
C
102
}
330
C
100
AcDbDictionary
281
     1
  3
2dWireframe
350
F5
  3
3dWireframe
350
1891
  3
Basic
350
F4
  3
Brighten
350
FB
  3
ColorChange
350
FF
  3
Conceptual
350
F8
  3
Dim
350
FA
  3
EdgeColorOff
350
1E6
  3
Facepattern
350
FE
  3
Flat
350
F0
  3
FlatWithEdges
350
F1
  3
Gouraud
350
F2
  3
GouraudWithEdges
350
F3
  3
Hidden
350
F7
  3
JitterOff
350
1E4
  3
Linepattern
350
FD
  3
OverhangOff
350
1E5
  3
Realistic
350
F9
  3
Shaded
350
1F3
  3
Shaded with edges
350
1F2
  3
Shades of Gray
350
1EF
  3
Sketchy
350
1F0
  3
Thicken
350
FC
  3
Wireframe
350
F6
  3
X-Ray
350
1F1
  0
XRECORD
  5
26E3
102
{ACAD_REACTORS
330
C
102
}
330
C
100
AcDbXrecord
280
     1
 90
        1
330
7F
  0
DICTIONARY
  5
5E
102
{ACAD_REACTORS
330
C
102
}
330
C
100
AcDbDictionary
281
     1
  3
CANNOSCALE
350
146
  3
CMLEADERSTYLE
350
145
  3
CTABLESTYLE
350
84
  3
CVIEWDETAILSTYLE
350
227
  3
CVIEWSECTIONSTYLE
350
228
  3
DIMASSOC
350
5F
  3
HIDETEXT
350
63
  3
INDEXCTL
350
2FF
  3
LAYEREVAL
350
1AE
  3
LAYERNOTIFY
350
1AF
  3
LIGHTINGUNITS
350
2FD
  3
MSLTSCALE
350
2FC
  3
PSOLHEIGHT
350
26DF
  3
PSOLWIDTH
350
26DE
  3
SORTENTS
350
2FE
  3
XCLIPFRAME
350
26E0
  0
DICTIONARY
  5
2ED
102
{ACAD_REACTORS
330
C
102
}
330
C
100
AcDbDictionary
281
     1
  3
ASEBlockHierarchyIndexRecord
350
2EF
1001
DCO15
1040
1837078055.415
  0
XRECORD
  5
26E4
102
{ACAD_REACTORS
330
C
102
}
330
C
100
AcDbXrecord
280
     1
  1
DWGPROPS COOKIE
  2

  3

  4

  6

  7

  8
TREND
  9

300
=
301
=
302
=
303
=
304
=
305
=
306
=
307
=
308
=
309
=
 40
0.4040261805555556
 41
2457065.634501782
 42
2457119.733489838
  1

 90
        0
  0
DICTIONARY
  5
200
102
{ACAD_REACTORS
330
1FF
102
}
330
1FF
100
AcDbDictionary
281
     1
  0
SORTENTSTABLE
  5
26A
102
{ACAD_REACTORS
330
1CE
102
}
330
1CE
100
AcDbSortentsTable
330
1F
331
2651
  5
26C1
331
26C8
  5
25CB
331
2662
  5
26D2
331
26D9
  5
25BA
331
2684
  5
2608
331
2673
  5
2612
331
2695
  5
25FC
331
26A6
  5
25E9
331
25FB
  5
266B
331
25EA
  5
265A
331
26B7
  5
25D9
331
260C
  5
267C
331
25D4
  5
2644
331
263F
  5
26AF
331
262E
  5
269E
331
261D
  5
268D
331
25BD
  5
262D
331
2640
  5
26B0
331
26B8
  5
25DA
331
2652
  5
26C2
331
26C9
  5
25CC
331
2663
  5
26D3
331
26DA
  5
25BB
331
2685
  5
2609
331
2674
  5
2613
331
2696
  5
25FD
331
25FC
  5
266C
331
25EB
  5
265B
331
26A7
  5
25EA
331
260D
  5
267D
331
25D5
  5
2645
331
262F
  5
269F
331
261E
  5
268E
331
25BE
  5
262E
331
2630
  5
26A0
331
2641
  5
26B1
331
26B9
  5
25DB
331
2653
  5
26C3
331
26CA
  5
25C8
331
2664
  5
26D4
331
2675
  5
2614
331
26DB
  5
25B7
331
2686
  5
260A
331
2697
  5
25FE
331
25FD
  5
266D
331
25EC
  5
265C
331
26A8
  5
25EB
331
260E
  5
267E
331
25D6
  5
2646
331
261F
  5
268F
331
25BF
  5
262F
331
2631
  5
26A1
331
2620
  5
2690
331
25C0
  5
2630
331
2642
  5
26B2
331
26BA
  5
25DC
331
2654
  5
26C4
331
26CB
  5
25C9
331
2665
  5
26D5
331
2676
  5
2615
331
26DC
  5
25B8
331
2687
  5
260B
331
2698
  5
25FF
331
25FE
  5
266E
331
25ED
  5
265D
331
26A9
  5
25EC
331
260F
  5
267F
331
25D7
  5
2647
331
2610
  5
2680
331
25D8
  5
2648
331
2632
  5
26A2
331
2621
  5
2691
331
25C1
  5
2631
331
2643
  5
26B3
331
26BB
  5
25DD
331
2655
  5
26C5
331
26CC
  5
25CA
331
2666
  5
26D6
331
2677
  5
2616
331
26DD
  5
25B9
331
2688
  5
260C
331
2699
  5
2600
331
25FF
  5
266F
331
25EE
  5
265E
331
26AA
  5
25ED
331
2600
  5
2670
331
25C8
  5
2638
331
2611
  5
2681
331
25D9
  5
2649
331
2633
  5
26A3
331
2622
  5
2692
331
25C2
  5
2632
331
2644
  5
26B4
331
26BC
  5
25D7
331
2667
  5
26D7
331
2656
  5
26C6
331
26CD
  5
25C6
331
2678
  5
2617
331
2689
  5
260D
331
269A
  5
25F5
331
25EF
  5
265F
331
26AB
  5
25EE
331
25F0
  5
2660
331
2601
  5
2671
331
25C9
  5
2639
331
2612
  5
2682
331
25DA
  5
264A
331
2634
  5
26A4
331
2623
  5
2693
331
25C3
  5
2633
331
2645
  5
26B5
331
26BD
  5
25D8
331
2657
  5
26C7
331
26CE
  5
25C7
331
2668
  5
2622
331
2679
  5
2618
331
268A
  5
260E
331
269B
  5
25F6
331
26AC
  5
25E3
331
25F1
  5
2661
331
25E0
  5
2650
331
2602
  5
2672
331
25CA
  5
263A
331
2613
  5
2683
331
25DB
  5
264B
331
2635
  5
26A5
331
2624
  5
2694
331
25C4
  5
2634
331
25B7
  5
26D8
331
2646
  5
26B6
331
26BE
  5
25D4
331
2658
  5
26C8
331
26CF
  5
25C3
331
2669
  5
2623
331
267A
  5
2619
331
268B
  5
260F
331
269C
  5
25F7
331
26AD
  5
25E4
331
25F2
  5
2662
331
25E1
  5
2651
331
2603
  5
2673
331
25CB
  5
263B
331
2614
  5
2684
331
25DC
  5
264C
331
2636
  5
26A6
331
2625
  5
2695
331
25C5
  5
2635
331
2648
  5
26B8
331
2647
  5
26B7
331
26BF
  5
25D5
331
2659
  5
26C9
331
26D0
  5
25C4
331
266A
  5
2624
331
267B
  5
261A
331
268C
  5
2610
331
269D
  5
25F8
331
26AE
  5
25E5
331
25F3
  5
2663
331
25E2
  5
2652
331
2604
  5
2674
331
25CC
  5
263C
331
2615
  5
2685
331
25DD
  5
264D
331
2637
  5
26A7
331
2626
  5
2696
331
25C6
  5
2636
331
2649
  5
26B9
331
26C0
  5
25D6
331
26D1
  5
25C5
331
265A
  5
26CA
331
266B
  5
2625
331
267C
  5
261B
331
268D
  5
2611
331
269E
  5
25F9
331
26AF
  5
25E6
331
25F4
  5
2664
331
25E3
  5
2653
331
26B0
  5
25E7
331
2605
  5
2675
331
25CD
  5
263D
331
2616
  5
2686
331
25DE
  5
264E
331
2638
  5
26A8
331
2627
  5
2697
331
25C7
  5
2637
331
264A
  5
26BA
331
26C1
  5
25D2
331
265B
  5
26CB
331
26D2
  5
25C1
331
267D
  5
261C
331
268E
  5
2601
331
269F
  5
25FA
331
266C
  5
2626
331
26A0
  5
25EF
331
25F5
  5
2665
331
25E4
  5
2654
331
26B1
  5
25E8
331
2606
  5
2676
331
25CE
  5
263E
331
2639
  5
26A9
331
2628
  5
2698
331
2617
  5
2687
331
25DF
  5
264F
331
264B
  5
26BB
331
26C2
  5
25D3
331
265C
  5
26CC
331
26D3
  5
25C2
331
266D
  5
2627
331
268F
  5
2602
331
267E
  5
261D
331
2690
  5
2603
331
26A1
  5
25F0
331
25F6
  5
2666
331
25E5
  5
2655
331
26B2
  5
25DE
331
25B8
  5
26D9
331
2607
  5
2677
331
25CF
  5
263F
331
263A
  5
26AA
331
2629
  5
2699
331
2618
  5
2688
331
264C
  5
26BC
331
26C3
  5
25D0
331
265D
  5
26CD
331
26D4
  5
25BF
331
266E
  5
2628
331
267F
  5
261E
331
2680
  5
261F
331
2691
  5
2604
331
26A2
  5
25F1
331
25F7
  5
2667
331
25E6
  5
2656
331
26B3
  5
25DF
331
25B9
  5
26DA
331
2608
  5
2678
331
25D0
  5
2640
331
263B
  5
26AB
331
262A
  5
269A
331
2619
  5
2689
331
264D
  5
26BD
331
26C4
  5
25D1
331
265E
  5
26CE
331
26D5
  5
25C0
331
266F
  5
2629
331
2670
  5
262A
331
2681
  5
2620
331
2692
  5
2605
331
26A3
  5
25F2
331
25F8
  5
2668
331
25E7
  5
2657
331
26B4
  5
25E0
331
25BA
  5
26DB
331
2609
  5
2679
331
25D1
  5
2641
331
263C
  5
26AC
331
262B
  5
269B
331
261A
  5
268A
331
264E
  5
26BE
331
26C5
  5
25CD
331
265F
  5
26CF
331
26D6
  5
25BC
331
2660
  5
26D0
331
2671
  5
262B
331
2682
  5
2621
331
2693
  5
2606
331
26A4
  5
25F3
331
25F9
  5
2669
331
25E8
  5
2658
331
26B5
  5
25E1
331
25BB
  5
26DC
331
260A
  5
267A
331
25D2
  5
2642
331
263D
  5
26AD
331
262C
  5
269C
331
261B
  5
268B
331
264F
  5
26BF
331
26C6
  5
25CE
331
26D7
  5
25BD
331
2650
  5
26C0
331
2661
  5
26D1
331
26D8
  5
25BE
331
2672
  5
262C
331
2683
  5
2607
331
2694
  5
25FB
331
26A5
  5
25F4
331
25FA
  5
266A
331
25E9
  5
2659
331
26B6
  5
25E2
331
25BC
  5
26DD
331
260B
  5
267B
331
25D3
  5
2643
331
263E
  5
26AE
331
262D
  5
269D
331
26C7
  5
25CF
331
261C
  5
268C
  0
ACDBDETAILVIEWSTYLE
  5
21C
102
{ACAD_XDICTIONARY
360
271E
102
}
102
{ACAD_REACTORS
330
21B
102
}
330
21B
100
AcDbModelDocViewStyle
 70
     0
  3
Metric50
290
     0
100
AcDbDetailViewStyle
 70
     0
 71
     0
 90
        3
 71
     1
340
11
 40
5.0
340
0
 40
5.0
300

 40
0.0
280
     1
 71
     2
340
16
 90
       25
 71
     3
340
11
 40
5.0
 90
        0
 40
15.0
 90
        1
300
%<\\AcVar ViewDetailId>% (%<\\AcVar ViewScale \\f \"%sn\">%)
 71
     4
340
16
 90
       25
340
16
 90
       25
280
     0
  0
IMAGEDEF
  5
299
102
{ACAD_REACTORS
330
23E
102
}
330
23E
100
AcDbRasterImageDef
 90
        0
  1
C:\\Users\\Trend\\Desktop\\M�kremin Erba�\\resim\\658949_3.jpg
 10
800.0
 20
800.0
 11
0.00125
 21
0.00125
280
     1
281
     0
  0
IMAGEDEF
  5
6B5
102
{ACAD_REACTORS
330
23E
102
}
330
23E
100
AcDbRasterImageDef
 90
        0
  1
C:\\Users\\Trend\\Desktop\\M�kremin Erba�\\resim\\can-stock-photo_csp17971836.jpg
 10
450.0
 20
470.0
 11
0.0846666666666667
 21
0.0846666666666667
280
     1
281
     5
  0
IMAGEDEF
  5
155F
102
{ACAD_REACTORS
330
23E
102
}
330
23E
100
AcDbRasterImageDef
 90
        0
  1
C:\\Users\\Trend\\Desktop\\creativemarketcanvas-f.png
 10
580.0
 20
386.0
 11
0.0138888888888889
 21
0.0138888888888889
280
     1
281
     0
  0
IMAGEDEF
  5
23F
102
{ACAD_REACTORS
330
23E
102
}
330
23E
100
AcDbRasterImageDef
 90
        0
  1
C:\\Users\\Trend\\Desktop\\M�kremin Erba�\\resim\\dekoratif-ayna-modelleri-2013-6.jpg
 10
375.0
 20
375.0
 11
0.0026666666666667
 21
0.0026666666666667
280
     1
281
     0
  0
IMAGEDEF
  5
F95
102
{ACAD_REACTORS
330
23E
102
}
330
23E
100
AcDbRasterImageDef
 90
        0
  1
C:\\Users\\Trend\\Desktop\\M�kremin Erba�\\resim\\images.png
 10
270.0
 20
186.0
 11
0.0037037037037037
 21
0.0037037037037037
280
     1
281
     0
  0
IMAGEDEF
  5
139A
102
{ACAD_REACTORS
330
23E
102
}
330
23E
100
AcDbRasterImageDef
 90
        0
  1
C:\\Users\\Trend\\Desktop\\stock-vector-vector-illustration-of-vintage-frame-179479043.jpg
 10
450.0
 20
470.0
 11
0.0846666666666667
 21
0.0846666666666667
280
     1
281
     5
  0
IMAGEDEF
  5
139D
102
{ACAD_REACTORS
330
23E
102
}
330
23E
100
AcDbRasterImageDef
 90
        0
  1
C:\\Users\\Trend\\Desktop\\woodland-frame.jpg
 10
2160.0
 20
3000.0
 11
0.3527777777777778
 21
0.3527777777777778
280
     1
281
     5
  0
LAYOUT
  5
D3
102
{ACAD_XDICTIONARY
360
26E8
102
}
102
{ACAD_REACTORS
330
1A
102
}
330
1A
100
AcDbPlotSettings
  1

  2
C:\\Documents and Settings\\basas\\Application Data\\Autodesk\\AutoCAD 2005\\R16.1\\enu\\plotters\\Default Windows System Printer.pc3
  4

  6

 40
0.0
 41
0.0
 42
0.0
 43
0.0
 44
0.0
 45
0.0
 46
0.0
 47
0.0
 48
0.0
 49
0.0
140
0.0
141
0.0
142
1.0
143
1.0
 70
   688
 72
     0
 73
     0
 74
     5
  7

 75
    16
147
1.0
148
0.0
149
0.0
100
AcDbLayout
  1
Layout1
 70
     1
 71
     1
 10
0.0
 20
0.0
 11
12.0
 21
9.0
 12
0.0
 22
0.0
 32
0.0
 14
0.0
 24
0.0
 34
0.0
 15
0.0
 25
0.0
 35
0.0
146
0.0
 13
0.0
 23
0.0
 33
0.0
 16
1.0
 26
0.0
 36
0.0
 17
0.0
 27
1.0
 37
0.0
 76
     0
330
D2
  0
LAYOUT
  5
D7
102
{ACAD_XDICTIONARY
360
26EA
102
}
102
{ACAD_REACTORS
330
1A
102
}
330
1A
100
AcDbPlotSettings
  1

  2
C:\\Documents and Settings\\basas\\Application Data\\Autodesk\\AutoCAD 2005\\R16.1\\enu\\plotters\\Default Windows System Printer.pc3
  4

  6

 40
0.0
 41
0.0
 42
0.0
 43
0.0
 44
0.0
 45
0.0
 46
0.0
 47
0.0
 48
0.0
 49
0.0
140
0.0
141
0.0
142
1.0
143
1.0
 70
   688
 72
     0
 73
     0
 74
     5
  7

 75
    16
147
1.0
148
0.0
149
0.0
100
AcDbLayout
  1
Layout2
 70
     1
 71
     2
 10
0.0
 20
0.0
 11
12.0
 21
9.0
 12
0.0
 22
0.0
 32
0.0
 14
0.0
 24
0.0
 34
0.0
 15
0.0
 25
0.0
 35
0.0
146
0.0
 13
0.0
 23
0.0
 33
0.0
 16
1.0
 26
0.0
 36
0.0
 17
0.0
 27
1.0
 37
0.0
 76
     0
330
D6
  0
LAYOUT
  5
22
102
{ACAD_XDICTIONARY
360
26E5
102
}
102
{ACAD_REACTORS
330
1A
102
}
330
1A
100
AcDbPlotSettings
  1

  2
none_device
  4
ISO_A4_(210.00_x_297.00_MM)
  6

 40
7.5
 41
20.0
 42
7.5
 43
20.0
 44
210.0
 45
297.0
 46
11.54999923706054
 47
-13.65000009536743
 48
0.0
 49
0.0
140
0.0
141
0.0
142
1.0
143
8.704084754739808
 70
 11952
 72
     1
 73
     0
 74
     0
  7

 75
     0
147
0.1148885871608098
148
0.0
149
0.0
100
AcDbLayout
  1
Model
 70
     1
 71
     0
 10
0.0
 20
0.0
 11
12.0
 21
9.0
 12
0.0
 22
0.0
 32
0.0
 14
0.0
 24
0.0
 34
0.0
 15
0.0
 25
0.0
 35
0.0
146
0.0
 13
0.0
 23
0.0
 33
0.0
 16
1.0
 26
0.0
 36
0.0
 17
0.0
 27
1.0
 37
0.0
 76
     0
330
1F
331
EA
1001
ACAD_PSEXT
1000
None
1000
None
1000
Not applicable
1000
The layout will not be plotted unless a new plotter configuration name is selected.
1070
     0
  0
MATERIAL
  5
ED
102
{ACAD_XDICTIONARY
360
1F9
102
}
102
{ACAD_REACTORS
330
6A
102
}
330
6A
100
AcDbMaterial
  1
ByBlock
  0
MATERIAL
  5
EC
102
{ACAD_XDICTIONARY
360
1F7
102
}
102
{ACAD_REACTORS
330
6A
102
}
330
6A
100
AcDbMaterial
  1
ByLayer
  0
MATERIAL
  5
EE
102
{ACAD_XDICTIONARY
360
173
102
}
102
{ACAD_REACTORS
330
6A
102
}
330
6A
100
AcDbMaterial
  1
Global
 43
0.0007999999797903
 43
0.0
 43
0.0
 43
0.0
 43
0.0
 43
0.0007999999797903
 43
0.0
 43
0.0
 43
0.0
 43
0.0
 43
1.0
 43
0.0
 43
0.0
 43
0.0
 43
0.0
 43
1.0
 49
0.0007999999797903
 49
0.0
 49
0.0
 49
0.0
 49
0.0
 49
0.0007999999797903
 49
0.0
 49
0.0
 49
0.0
 49
0.0
 49
1.0
 49
0.0
 49
0.0
 49
0.0
 49
0.0
 49
1.0
142
0.0007999999797903
142
0.0
142
0.0
142
0.0
142
0.0
142
0.0007999999797903
142
0.0
142
0.0
142
0.0
142
0.0
142
1.0
142
0.0
142
0.0
142
0.0
142
0.0
142
1.0
144
0.0007999999797903
144
0.0
144
0.0
144
0.0
144
0.0
144
0.0007999999797903
144
0.0
144
0.0
144
0.0
144
0.0
144
1.0
144
0.0
144
0.0
144
0.0
144
0.0
144
1.0
1001
ACAD
1070
    -1
1070
     3
1070
     0
1000

1071
        0
1070
     0
  0
MLEADERSTYLE
  5
13B
102
{ACAD_REACTORS
330
12D
102
}
330
12D
100
AcDbMLeaderStyle
170
     2
171
     1
172
     0
 90
        2
 40
0.0
 41
0.0
173
     1
 91
-1056964608
340
14
 92
       -2
290
     1
 42
2.0
291
     1
 43
8.0
  3
Standard
 44
4.0
300

342
11
174
     1
178
     1
175
     1
176
     0
 93
-1056964608
 45
4.0
292
     0
297
     0
 46
4.0
 94
-1056964608
 47
1.0
 49
1.0
140
1.0
293
     1
141
0.0
294
     1
177
     0
142
1.0
295
     0
296
     1
143
3.75
1001
ACAD_MLEADERVER
1070
     2
  0
MLEADERSTYLE
  5
12E
102
{ACAD_REACTORS
330
12D
102
}
330
12D
100
AcDbMLeaderStyle
170
     2
171
     1
172
     0
 90
        2
 40
0.0
 41
0.0
173
     1
 91
-1056964608
340
14
 92
       -2
290
     1
 42
2.0
291
     1
 43
8.0
  3
Standard
 44
4.0
300

342
11
174
     1
178
     1
175
     1
176
     0
 93
-1056964608
 45
4.0
292
     0
297
     0
 46
4.0
 94
-1056964608
 47
1.0
 49
1.0
140
1.0
293
     1
141
0.0
294
     1
177
     0
142
1.0
295
     0
296
     0
143
3.75
1001
ACAD_MLEADERVER
1070
     2
  0
MLINESTYLE
  5
18
102
{ACAD_REACTORS
330
17
102
}
330
17
100
AcDbMlineStyle
  2
STANDARD
 70
     0
  3

 62
   256
 51
90.0
 52
90.0
 71
     2
 49
0.5
 62
   256
  6
BYLAYER
 49
-0.5
 62
   256
  6
BYLAYER
  0
ACDBPLACEHOLDER
  5
F
102
{ACAD_REACTORS
330
E
102
}
330
E
  0
SCALE
  5
10D
102
{ACAD_REACTORS
330
10C
102
}
330
10C
100
AcDbScale
 70
     0
300
1:1
140
1.0
141
1.0
290
     1
  0
SCALE
  5
1BE
102
{ACAD_REACTORS
330
10C
102
}
330
10C
100
AcDbScale
 70
     0
300
1:2
140
1.0
141
2.0
290
     0
  0
SCALE
  5
1BF
102
{ACAD_REACTORS
330
10C
102
}
330
10C
100
AcDbScale
 70
     0
300
1:4
140
1.0
141
4.0
290
     0
  0
SCALE
  5
1C0
102
{ACAD_REACTORS
330
10C
102
}
330
10C
100
AcDbScale
 70
     0
300
1:5
140
1.0
141
5.0
290
     0
  0
SCALE
  5
1C1
102
{ACAD_REACTORS
330
10C
102
}
330
10C
100
AcDbScale
 70
     0
300
1:8
140
1.0
141
8.0
290
     0
  0
SCALE
  5
1C2
102
{ACAD_REACTORS
330
10C
102
}
330
10C
100
AcDbScale
 70
     0
300
1:10
140
1.0
141
10.0
290
     0
  0
SCALE
  5
1C3
102
{ACAD_REACTORS
330
10C
102
}
330
10C
100
AcDbScale
 70
     0
300
1:16
140
1.0
141
16.0
290
     0
  0
SCALE
  5
1C4
102
{ACAD_REACTORS
330
10C
102
}
330
10C
100
AcDbScale
 70
     0
300
1:20
140
1.0
141
20.0
290
     0
  0
SCALE
  5
1C5
102
{ACAD_REACTORS
330
10C
102
}
330
10C
100
AcDbScale
 70
     0
300
1:30
140
1.0
141
30.0
290
     0
  0
SCALE
  5
1C6
102
{ACAD_REACTORS
330
10C
102
}
330
10C
100
AcDbScale
 70
     0
300
1:40
140
1.0
141
40.0
290
     0
  0
SCALE
  5
1C7
102
{ACAD_REACTORS
330
10C
102
}
330
10C
100
AcDbScale
 70
     0
300
1:50
140
1.0
141
50.0
290
     0
  0
SCALE
  5
1C8
102
{ACAD_REACTORS
330
10C
102
}
330
10C
100
AcDbScale
 70
     0
300
1:100
140
1.0
141
100.0
290
     0
  0
SCALE
  5
1C9
102
{ACAD_REACTORS
330
10C
102
}
330
10C
100
AcDbScale
 70
     0
300
2:1
140
2.0
141
1.0
290
     0
  0
SCALE
  5
1CA
102
{ACAD_REACTORS
330
10C
102
}
330
10C
100
AcDbScale
 70
     0
300
4:1
140
4.0
141
1.0
290
     0
  0
SCALE
  5
1CB
102
{ACAD_REACTORS
330
10C
102
}
330
10C
100
AcDbScale
 70
     0
300
8:1
140
8.0
141
1.0
290
     0
  0
SCALE
  5
1CC
102
{ACAD_REACTORS
330
10C
102
}
330
10C
100
AcDbScale
 70
     0
300
10:1
140
10.0
141
1.0
290
     0
  0
SCALE
  5
1CD
102
{ACAD_REACTORS
330
10C
102
}
330
10C
100
AcDbScale
 70
     0
300
100:1
140
100.0
141
1.0
290
     0
  0
ACDBSECTIONVIEWSTYLE
  5
21A
102
{ACAD_XDICTIONARY
360
271C
102
}
102
{ACAD_REACTORS
330
219
102
}
330
219
100
AcDbModelDocViewStyle
 70
     0
  3
Metric50
290
     0
100
AcDbSectionViewStyle
 70
     0
 71
     0
 90
      102
 71
     1
340
11
 40
5.0
340
0
340
0
 40
5.0
300
I, O, Q, S, X, Z
 40
10.0
 90
        0
 40
2.5
 90
        0
 71
     2
340
16
 90
       25
340
16
 90
       50
 40
5.0
 40
2.5
 40
5.0
 71
     3
340
11
 40
5.0
 90
        0
 40
15.0
 90
        1
300
%<\\AcVar ViewSectionStartId>%-%<\\AcVar ViewSectionEndId>% (%<\\AcVar ViewScale \\f \"%sn\">%)
 71
     4
300
ANSI31
 40
1.0
 90
        0
290
     0
290
     0
 90
        6
 40
0.0
 40
1.570796326794896
 40
0.2617993877991494
 40
1.308996938995747
 40
-0.2617993877991494
 40
1.832595714594044
  0
TABLESTYLE
  5
7F
102
{ACAD_XDICTIONARY
360
162
102
}
102
{ACAD_REACTORS
330
7E
102
}
330
7E
100
AcDbTableStyle
  3
Standard
 70
     0
 71
     0
 40
1.5
 41
1.5
280
     0
281
     0
  7
Standard
140
4.5
170
     2
 62
     0
 63
     7
283
     0
274
    -2
284
     1
 64
     0
275
    -2
285
     1
 65
     0
276
    -2
286
     1
 66
     0
277
    -2
287
     1
 67
     0
278
    -2
288
     1
 68
     0
279
    -2
289
     1
 69
     0
  7
Standard
140
6.0
170
     5
 62
     0
 63
     7
283
     0
274
    -2
284
     1
 64
     0
275
    -2
285
     1
 65
     0
276
    -2
286
     1
 66
     0
277
    -2
287
     1
 67
     0
278
    -2
288
     1
 68
     0
279
    -2
289
     1
 69
     0
  7
Standard
140
4.5
170
     5
 62
     0
 63
     7
283
     0
274
    -2
284
     1
 64
     0
275
    -2
285
     1
 65
     0
276
    -2
286
     1
 66
     0
277
    -2
287
     1
 67
     0
278
    -2
288
     1
 68
     0
279
    -2
289
     1
 69
     0
  0
VISUALSTYLE
  5
F5
102
{ACAD_XDICTIONARY
360
26F6
102
}
102
{ACAD_REACTORS
330
EF
102
}
330
EF
100
AcDbVisualStyle
  2

 70
     4
 71
     0
 72
     2
 73
     1
 90
        0
 40
-0.6
 41
-30.0
 62
     5
 63
     7
 74
     1
 91
        4
 64
     7
 65
   257
 75
     1
175
     1
 42
1.0
 92
        0
 66
   257
 43
1.0
 76
     1
 77
     6
 78
     2
 67
     7
 79
     5
170
     0
171
     0
290
     0
174
     0
 93
        1
 44
0.0
173
     0
291
     0
 45
0.0
1001
ACAD
1000
AcDbSavedByObjectVersion
1070
     0
  0
VISUALSTYLE
  5
1891
102
{ACAD_XDICTIONARY
360
2720
102
}
102
{ACAD_REACTORS
330
EF
102
}
330
EF
100
AcDbVisualStyle
  2

 70
     5
 71
     0
 72
     2
 73
     1
 90
        0
 40
-0.6
 41
-30.0
 62
     5
 63
     7
 74
     1
 91
        4
 64
     7
 65
   257
 75
     1
175
     1
 42
1.0
 92
        0
 66
   257
 43
1.0
 76
     1
 77
     6
 78
     2
 67
     7
 79
     5
170
     0
171
     0
290
     0
174
     0
 93
        1
 44
0.0
173
     0
291
     0
 45
0.0
1001
ACAD
1000
AcDbSavedByObjectVersion
1070
     0
  0
VISUALSTYLE
  5
F4
102
{ACAD_XDICTIONARY
360
26F4
102
}
102
{ACAD_REACTORS
330
EF
102
}
330
EF
100
AcDbVisualStyle
  2

 70
     7
 71
     1
 72
     0
 73
     1
 90
        0
 40
-0.6
 41
-30.0
 62
     5
 63
     7
 74
     0
 91
        4
 64
     7
 65
   257
 75
     1
175
     1
 42
1.0
 92
        8
 66
     7
 43
1.0
 76
     1
 77
     6
 78
     2
 67
     7
 79
     5
170
     0
171
     0
290
     0
174
     0
 93
        1
 44
0.0
173
     0
291
     1
 45
0.0
1001
ACAD
1000
AcDbSavedByObjectVersion
1070
     0
  0
VISUALSTYLE
  5
FB
102
{ACAD_XDICTIONARY
360
2702
102
}
102
{ACAD_REACTORS
330
EF
102
}
330
EF
100
AcDbVisualStyle
  2

 70
    12
 71
     2
 72
     2
 73
     1
 90
        0
 40
-0.6
 41
-30.0
 62
     5
 63
     7
 74
     1
 91
        4
 64
     7
 65
   257
 75
     1
175
     1
 42
1.0
 92
        8
 66
     7
 43
1.0
 76
     1
 77
     6
 78
     2
 67
     7
 79
     5
170
     0
171
     0
290
     0
174
     0
 93
        1
 44
50.0
173
     0
291
     1
 45
0.0
1001
ACAD
1000
AcDbSavedByObjectVersion
1070
     0
  0
VISUALSTYLE
  5
FF
102
{ACAD_XDICTIONARY
360
270A
102
}
102
{ACAD_REACTORS
330
EF
102
}
330
EF
100
AcDbVisualStyle
  2

 70
    16
 71
     2
 72
     2
 73
     3
 90
        0
 40
-0.6
 41
-30.0
 62
     5
 63
     8
 74
     1
 91
        4
 64
     7
 65
   257
 75
     1
175
     1
 42
1.0
 92
        8
 66
     8
 43
1.0
 76
     1
 77
     6
 78
     2
 67
     7
 79
     5
170
     0
171
     0
290
     0
174
     0
 93
        1
 44
0.0
173
     0
291
     1
 45
0.0
1001
ACAD
1000
AcDbSavedByObjectVersion
1070
     0
  0
VISUALSTYLE
  5
F8
102
{ACAD_XDICTIONARY
360
26FC
102
}
102
{ACAD_REACTORS
330
EF
102
}
330
EF
100
AcDbVisualStyle
  2

 70
     9
 71
     3
 72
     2
 73
     1
 90
        0
 40
-0.6
 41
-30.0
 62
     5
 63
     7
 74
     2
 91
        2
 64
     7
 65
   257
 75
     1
175
     1
 42
40.0
 92
        8
 66
     7
 43
1.0
 76
     1
 77
     6
 78
     2
 67
     7
 79
     3
170
     0
171
     0
290
     0
174
     0
 93
        1
 44
0.0
173
     0
291
     0
 45
0.0
1001
ACAD
1000
AcDbSavedByObjectVersion
1070
     0
  0
VISUALSTYLE
  5
FA
102
{ACAD_XDICTIONARY
360
2700
102
}
102
{ACAD_REACTORS
330
EF
102
}
330
EF
100
AcDbVisualStyle
  2

 70
    11
 71
     2
 72
     2
 73
     1
 90
        0
 40
-0.6
 41
-30.0
 62
     5
 63
     7
 74
     1
 91
        4
 64
     7
 65
   257
 75
     1
175
     1
 42
1.0
 92
        8
 66
     7
 43
1.0
 76
     1
 77
     6
 78
     2
 67
     7
 79
     5
170
     0
171
     0
290
     0
174
     0
 93
        1
 44
-50.0
173
     0
291
     1
 45
0.0
1001
ACAD
1000
AcDbSavedByObjectVersion
1070
     0
  0
VISUALSTYLE
  5
1E6
102
{ACAD_XDICTIONARY
360
2710
102
}
102
{ACAD_REACTORS
330
EF
102
}
330
EF
100
AcDbVisualStyle
  2

 70
    22
 71
     2
 72
     2
 73
     0
 90
        0
 40
-0.6
 41
-30.0
 62
     5
 63
     7
 74
     1
 91
        4
 64
     7
 65
   257
 75
     1
175
     1
 42
1.0
 92
        8
 66
     7
 43
1.0
 76
     1
 77
     6
 78
     2
 67
     7
 79
     5
170
     0
171
     0
290
     0
174
     0
 93
        1
 44
0.0
173
     0
291
     1
 45
0.0
1001
ACAD
1000
AcDbSavedByObjectVersion
1070
     0
  0
VISUALSTYLE
  5
FE
102
{ACAD_XDICTIONARY
360
2708
102
}
102
{ACAD_REACTORS
330
EF
102
}
330
EF
100
AcDbVisualStyle
  2

 70
    15
 71
     2
 72
     2
 73
     1
 90
        0
 40
-0.6
 41
-30.0
 62
     5
 63
     7
 74
     1
 91
        4
 64
     7
 65
   257
 75
     1
175
     1
 42
1.0
 92
        8
 66
     7
 43
1.0
 76
     1
 77
     6
 78
     2
 67
     7
 79
     5
170
     0
171
     0
290
     0
174
     0
 93
        1
 44
0.0
173
     0
291
     1
 45
0.0
1001
ACAD
1000
AcDbSavedByObjectVersion
1070
     0
  0
VISUALSTYLE
  5
F0
102
{ACAD_XDICTIONARY
360
26EC
102
}
102
{ACAD_REACTORS
330
EF
102
}
330
EF
100
AcDbVisualStyle
  2

 70
     0
 71
     2
 72
     1
 73
     1
 90
        2
 40
-0.6
 41
30.0
 62
     5
 63
     7
 74
     0
 91
        0
 64
     7
 65
   257
 75
     1
175
     1
 42
1.0
 92
        8
 66
     7
 43
1.0
 76
     1
 77
     6
 78
     2
 67
     7
 79
     5
170
     0
171
     0
290
     0
174
     0
 93
       13
 44
0.0
173
     0
291
     1
 45
0.0
1001
ACAD
1000
AcDbSavedByObjectVersion
1070
     0
  0
VISUALSTYLE
  5
F1
102
{ACAD_XDICTIONARY
360
26EE
102
}
102
{ACAD_REACTORS
330
EF
102
}
330
EF
100
AcDbVisualStyle
  2

 70
     1
 71
     2
 72
     1
 73
     1
 90
        2
 40
-0.6
 41
30.0
 62
     5
 63
     7
 74
     1
 91
        0
 64
     7
 65
   257
 75
     1
175
     1
 42
1.0
 92
        0
 66
   257
 43
1.0
 76
     1
 77
     6
 78
     2
 67
     7
 79
     5
170
     0
171
     0
290
     0
174
     0
 93
       13
 44
0.0
173
     0
291
     1
 45
0.0
1001
ACAD
1000
AcDbSavedByObjectVersion
1070
     0
  0
VISUALSTYLE
  5
F2
102
{ACAD_XDICTIONARY
360
26F0
102
}
102
{ACAD_REACTORS
330
EF
102
}
330
EF
100
AcDbVisualStyle
  2

 70
     2
 71
     2
 72
     2
 73
     1
 90
        2
 40
-0.6
 41
30.0
 62
     5
 63
     7
 74
     0
 91
        0
 64
     7
 65
   257
 75
     1
175
     1
 42
1.0
 92
        0
 66
     7
 43
1.0
 76
     1
 77
     6
 78
     2
 67
     7
 79
     5
170
     0
171
     0
290
     0
174
     0
 93
       13
 44
0.0
173
     0
291
     1
 45
0.0
1001
ACAD
1000
AcDbSavedByObjectVersion
1070
     0
  0
VISUALSTYLE
  5
F3
102
{ACAD_XDICTIONARY
360
26F2
102
}
102
{ACAD_REACTORS
330
EF
102
}
330
EF
100
AcDbVisualStyle
  2

 70
     3
 71
     2
 72
     2
 73
     1
 90
        2
 40
-0.6
 41
30.0
 62
     5
 63
     7
 74
     1
 91
        0
 64
     7
 65
   257
 75
     1
175
     1
 42
1.0
 92
        0
 66
   257
 43
1.0
 76
     1
 77
     6
 78
     2
 67
     7
 79
     5
170
     0
171
     0
290
     0
174
     0
 93
       13
 44
0.0
173
     0
291
     1
 45
0.0
1001
ACAD
1000
AcDbSavedByObjectVersion
1070
     0
  0
VISUALSTYLE
  5
F7
102
{ACAD_XDICTIONARY
360
26FA
102
}
102
{ACAD_REACTORS
330
EF
102
}
330
EF
100
AcDbVisualStyle
  2

 70
     6
 71
     1
 72
     2
 73
     2
 90
        0
 40
-0.6
 41
-30.0
 62
     5
 63
     7
 74
     2
 91
        2
 64
     7
 65
   257
 75
     2
175
     1
 42
40.0
 92
        0
 66
   257
 43
1.0
 76
     1
 77
     6
 78
     2
 67
     7
 79
     3
170
     0
171
     0
290
     0
174
     0
 93
        1
 44
0.0
173
     0
291
     0
 45
0.0
1001
ACAD
1000
AcDbSavedByObjectVersion
1070
     0
  0
VISUALSTYLE
  5
1E4
102
{ACAD_XDICTIONARY
360
270C
102
}
102
{ACAD_REACTORS
330
EF
102
}
330
EF
100
AcDbVisualStyle
  2

 70
    20
 71
     2
 72
     2
 73
     0
 90
        0
 40
-0.6
 41
-30.0
 62
     5
 63
     7
 74
     1
 91
        4
 64
     7
 65
   257
 75
     1
175
     1
 42
1.0
 92
       10
 66
     7
 43
1.0
 76
     1
 77
     6
 78
     2
 67
     7
 79
     5
170
     0
171
     0
290
     0
174
     0
 93
        1
 44
0.0
173
     0
291
     1
 45
0.0
1001
ACAD
1000
AcDbSavedByObjectVersion
1070
     0
  0
VISUALSTYLE
  5
FD
102
{ACAD_XDICTIONARY
360
2706
102
}
102
{ACAD_REACTORS
330
EF
102
}
330
EF
100
AcDbVisualStyle
  2

 70
    14
 71
     2
 72
     2
 73
     1
 90
        0
 40
-0.6
 41
-30.0
 62
     5
 63
     7
 74
     1
 91
        4
 64
     7
 65
   257
 75
     7
175
     7
 42
1.0
 92
        8
 66
     7
 43
1.0
 76
     1
 77
     6
 78
     2
 67
     7
 79
     5
170
     0
171
     0
290
     0
174
     0
 93
        1
 44
0.0
173
     0
291
     1
 45
0.0
1001
ACAD
1000
AcDbSavedByObjectVersion
1070
     0
  0
VISUALSTYLE
  5
1E5
102
{ACAD_XDICTIONARY
360
270E
102
}
102
{ACAD_REACTORS
330
EF
102
}
330
EF
100
AcDbVisualStyle
  2

 70
    21
 71
     2
 72
     2
 73
     0
 90
        0
 40
-0.6
 41
-30.0
 62
     5
 63
     7
 74
     1
 91
        4
 64
     7
 65
   257
 75
     1
175
     1
 42
1.0
 92
        9
 66
     7
 43
1.0
 76
     1
 77
     6
 78
     2
 67
     7
 79
     5
170
     0
171
     0
290
     0
174
     0
 93
        1
 44
0.0
173
     0
291
     1
 45
0.0
1001
ACAD
1000
AcDbSavedByObjectVersion
1070
     0
  0
VISUALSTYLE
  5
F9
102
{ACAD_XDICTIONARY
360
26FE
102
}
102
{ACAD_REACTORS
330
EF
102
}
330
EF
100
AcDbVisualStyle
  2

 70
     8
 71
     2
 72
     3
 73
     0
 90
        2
 40
-0.6
 41
30.0
 62
     5
 63
     7
 74
     0
 91
        0
 64
     7
 65
   257
 75
     1
175
     1
 42
1.0
 92
        8
 66
   257
 43
1.0
 76
     1
 77
     6
 78
     2
 67
     7
 79
     3
170
     0
171
     0
290
     0
174
     0
 93
       13
 44
0.0
173
     0
291
     0
 45
0.0
1001
ACAD
1000
AcDbSavedByObjectVersion
1070
     0
  0
VISUALSTYLE
  5
1F3
102
{ACAD_XDICTIONARY
360
271A
102
}
102
{ACAD_REACTORS
330
EF
102
}
330
EF
100
AcDbVisualStyle
  2

 70
    27
 71
     2
 72
     2
 73
     1
 90
        2
 40
-0.6
 41
30.0
 62
     5
 63
     7
 74
     0
 91
        4
 64
     7
 65
   257
 75
     1
175
     1
 42
1.0
 92
        8
 66
   257
 43
1.0
 76
     1
 77
     6
 78
     2
 67
     8
 79
     3
170
     0
171
     0
290
     0
174
     0
 93
        5
 44
0.0
173
     0
291
     0
 45
0.0
1001
ACAD
1000
AcDbSavedByObjectVersion
1070
     0
  0
VISUALSTYLE
  5
1F2
102
{ACAD_XDICTIONARY
360
2718
102
}
102
{ACAD_REACTORS
330
EF
102
}
330
EF
100
AcDbVisualStyle
  2

 70
    26
 71
     2
 72
     2
 73
     1
 90
        2
 40
-0.6
 41
30.0
 62
     5
 63
     7
 74
     1
 91
       10
 64
     7
 65
   257
 75
     2
175
     1
 42
1.0
 92
        8
 66
   257
 43
1.0
 76
     1
 77
     6
 78
     2
 67
     7
 79
     3
170
     0
171
     0
290
     0
174
     0
 93
        5
 44
0.0
173
     0
291
     0
 45
0.0
1001
ACAD
1000
AcDbSavedByObjectVersion
1070
     0
  0
VISUALSTYLE
  5
1EF
102
{ACAD_XDICTIONARY
360
2712
102
}
102
{ACAD_REACTORS
330
EF
102
}
330
EF
100
AcDbVisualStyle
  2

 70
    23
 71
     2
 72
     2
 73
     3
 90
        0
 40
-0.6
 41
-30.0
 62
     5
 63
     7
 74
     2
 91
        2
 64
     7
 65
     7
 75
     1
175
     1
 42
40.0
 92
        8
 66
     7
 43
1.0
 76
     1
 77
     6
 78
     2
 67
     7
 79
     3
170
     0
171
     0
290
     0
174
     0
 93
        1
 44
0.0
173
     0
291
     0
 45
0.0
1001
ACAD
1000
AcDbSavedByObjectVersion
1070
     0
  0
VISUALSTYLE
  5
1F0
102
{ACAD_XDICTIONARY
360
2714
102
}
102
{ACAD_REACTORS
330
EF
102
}
330
EF
100
AcDbVisualStyle
  2

 70
    24
 71
     1
 72
     2
 73
     2
 90
        0
 40
-0.6
 41
-30.0
 62
     5
 63
     7
 74
     2
 91
        2
 64
     7
 65
     7
 75
     1
175
     1
 42
40.0
 92
       11
 66
     7
 43
1.0
 76
     1
 77
     6
 78
     2
 67
     7
 79
     6
170
     0
171
     0
290
     0
174
     0
 93
        1
 44
0.0
173
     0
291
     0
 45
0.0
1001
ACAD
1000
AcDbSavedByObjectVersion
1070
     0
  0
VISUALSTYLE
  5
FC
102
{ACAD_XDICTIONARY
360
2704
102
}
102
{ACAD_REACTORS
330
EF
102
}
330
EF
100
AcDbVisualStyle
  2

 70
    13
 71
     2
 72
     2
 73
     1
 90
        0
 40
-0.6
 41
-30.0
 62
     5
 63
     7
 74
     1
 91
        4
 64
     7
 65
   257
 75
     1
175
     1
 42
1.0
 92
       12
 66
     7
 43
1.0
 76
     1
 77
     6
 78
     2
 67
     7
 79
     5
170
     0
171
     0
290
     0
174
     0
 93
        1
 44
0.0
173
     0
291
     1
 45
0.0
1001
ACAD
1000
AcDbSavedByObjectVersion
1070
     0
  0
VISUALSTYLE
  5
F6
102
{ACAD_XDICTIONARY
360
26F8
102
}
102
{ACAD_REACTORS
330
EF
102
}
330
EF
100
AcDbVisualStyle
  2

 70
     5
 71
     0
 72
     2
 73
     0
 90
        0
 40
-0.6
 41
-30.0
 62
     5
 63
     7
 74
     1
 91
        4
 64
     7
 65
   257
 75
     1
175
     1
 42
1.0
 92
        0
 66
   257
 43
1.0
 76
     1
 77
     6
 78
     2
 67
     7
 79
     3
170
     0
171
     0
290
     0
174
     0
 93
        1
 44
0.0
173
     0
291
     0
 45
0.0
1001
ACAD
1000
AcDbSavedByObjectVersion
1070
     0
  0
VISUALSTYLE
  5
1F1
102
{ACAD_XDICTIONARY
360
2716
102
}
102
{ACAD_REACTORS
330
EF
102
}
330
EF
100
AcDbVisualStyle
  2

 70
    25
 71
     2
 72
     2
 73
     1
 90
        1
 40
0.5
 41
-30.0
 62
     5
 63
     7
 74
     1
 91
        0
 64
     7
 65
   257
 75
     1
175
     1
 42
1.0
 92
        8
 66
     7
 43
1.0
 76
     1
 77
     6
 78
     2
 67
     7
 79
     3
170
     0
171
     0
290
     0
174
     0
 93
       13
 44
0.0
173
     0
291
     0
 45
0.0
1001
ACAD
1000
AcDbSavedByObjectVersion
1070
     0
  0
DICTIONARYVAR
  5
146
102
{ACAD_REACTORS
330
5E
102
}
330
5E
100
DictionaryVariables
280
     0
  1
1:1
  0
DICTIONARYVAR
  5
145
102
{ACAD_REACTORS
330
5E
102
}
330
5E
100
DictionaryVariables
280
     0
  1
STANDARD
  0
DICTIONARYVAR
  5
84
102
{ACAD_REACTORS
330
5E
102
}
330
5E
100
DictionaryVariables
280
     0
  1
STANDARD
  0
DICTIONARYVAR
  5
227
102
{ACAD_REACTORS
330
5E
102
}
330
5E
100
DictionaryVariables
280
     0
  1
Metric50
  0
DICTIONARYVAR
  5
228
102
{ACAD_REACTORS
330
5E
102
}
330
5E
100
DictionaryVariables
280
     0
  1
Metric50
  0
DICTIONARYVAR
  5
5F
102
{ACAD_REACTORS
330
5E
102
}
330
5E
100
DictionaryVariables
280
     0
  1
2
  0
DICTIONARYVAR
  5
63
102
{ACAD_REACTORS
330
5E
102
}
330
5E
100
DictionaryVariables
280
     0
  1
1
  0
DICTIONARYVAR
  5
2FF
102
{ACAD_REACTORS
330
5E
102
}
330
5E
100
DictionaryVariables
280
     0
  1
0
  0
DICTIONARYVAR
  5
1AE
102
{ACAD_REACTORS
330
5E
102
}
330
5E
100
DictionaryVariables
280
     0
  1
0
  0
DICTIONARYVAR
  5
1AF
102
{ACAD_REACTORS
330
5E
102
}
330
5E
100
DictionaryVariables
280
     0
  1
0
  0
DICTIONARYVAR
  5
2FD
102
{ACAD_REACTORS
330
5E
102
}
330
5E
100
DictionaryVariables
280
     0
  1
2
  0
DICTIONARYVAR
  5
2FC
102
{ACAD_REACTORS
330
5E
102
}
330
5E
100
DictionaryVariables
280
     0
  1
1
  0
DICTIONARYVAR
  5
26DF
102
{ACAD_REACTORS
330
5E
102
}
330
5E
100
DictionaryVariables
280
     0
  1
80.000000
  0
DICTIONARYVAR
  5
26DE
102
{ACAD_REACTORS
330
5E
102
}
330
5E
100
DictionaryVariables
280
     0
  1
5.000000
  0
DICTIONARYVAR
  5
2FE
102
{ACAD_REACTORS
330
5E
102
}
330
5E
100
DictionaryVariables
280
     0
  1
127
  0
DICTIONARYVAR
  5
26E0
102
{ACAD_REACTORS
330
5E
102
}
330
5E
100
DictionaryVariables
280
     0
  1
2
  0
XRECORD
  5
2EF
102
{ACAD_REACTORS
330
2ED
102
}
330
2ED
100
AcDbXrecord
280
     1
  0
DICTIONARY
  5
271E
330
21C
100
AcDbDictionary
280
     1
281
     1
  3
ACAD_XREC_ROUNDTRIP
360
271F
  0
DICTIONARY
  5
26E8
330
D3
100
AcDbDictionary
280
     1
281
     1
  3
ACAD_XREC_ROUNDTRIP
360
26E9
  0
DICTIONARY
  5
26EA
330
D7
100
AcDbDictionary
280
     1
281
     1
  3
ACAD_XREC_ROUNDTRIP
360
26EB
  0
DICTIONARY
  5
26E5
330
22
100
AcDbDictionary
280
     1
281
     1
  3
ACAD_XREC_ROUNDTRIP
360
26E6
  0
DICTIONARY
  5
1F9
330
ED
100
AcDbDictionary
280
     1
281
     1
  3
ACAD_XREC_ROUNDTRIP
360
778
  3
FBXASSET
360
1FA
  0
DICTIONARY
  5
1F7
330
EC
100
AcDbDictionary
280
     1
281
     1
  3
ACAD_XREC_ROUNDTRIP
360
777
  3
FBXASSET
360
1F8
  0
DICTIONARY
  5
173
330
EE
100
AcDbDictionary
280
     1
281
     1
  3
ACAD_XREC_ROUNDTRIP
360
779
  3
BUMPTILE
360
175
  3
DIFFUSETILE
360
174
  3
FBXASSET
360
1FB
  3
OPACITYTILE
360
176
  3
REFLECTIONTILE
360
177
  0
DICTIONARY
  5
271C
330
21A
100
AcDbDictionary
280
     1
281
     1
  3
ACAD_XREC_ROUNDTRIP
360
271D
  0
DICTIONARY
  5
162
330
7F
100
AcDbDictionary
280
     1
281
     1
  3
ACAD_ROUNDTRIP_2008_TABLESTYLE_CELLSTYLEMAP
360
26E1
  3
ACAD_XREC_ROUNDTRIP
360
26E7
  0
DICTIONARY
  5
26F6
330
F5
100
AcDbDictionary
280
     1
281
     1
  3
ACAD_XREC_ROUNDTRIP
360
26F7
  0
DICTIONARY
  5
2720
330
1891
100
AcDbDictionary
280
     1
281
     1
  3
ACAD_XREC_ROUNDTRIP
360
2721
  0
DICTIONARY
  5
26F4
330
F4
100
AcDbDictionary
280
     1
281
     1
  3
ACAD_XREC_ROUNDTRIP
360
26F5
  0
DICTIONARY
  5
2702
330
FB
100
AcDbDictionary
280
     1
281
     1
  3
ACAD_XREC_ROUNDTRIP
360
2703
  0
DICTIONARY
  5
270A
330
FF
100
AcDbDictionary
280
     1
281
     1
  3
ACAD_XREC_ROUNDTRIP
360
270B
  0
DICTIONARY
  5
26FC
330
F8
100
AcDbDictionary
280
     1
281
     1
  3
ACAD_XREC_ROUNDTRIP
360
26FD
  0
DICTIONARY
  5
2700
330
FA
100
AcDbDictionary
280
     1
281
     1
  3
ACAD_XREC_ROUNDTRIP
360
2701
  0
DICTIONARY
  5
2710
330
1E6
100
AcDbDictionary
280
     1
281
     1
  3
ACAD_XREC_ROUNDTRIP
360
2711
  0
DICTIONARY
  5
2708
330
FE
100
AcDbDictionary
280
     1
281
     1
  3
ACAD_XREC_ROUNDTRIP
360
2709
  0
DICTIONARY
  5
26EC
330
F0
100
AcDbDictionary
280
     1
281
     1
  3
ACAD_XREC_ROUNDTRIP
360
26ED
  0
DICTIONARY
  5
26EE
330
F1
100
AcDbDictionary
280
     1
281
     1
  3
ACAD_XREC_ROUNDTRIP
360
26EF
  0
DICTIONARY
  5
26F0
330
F2
100
AcDbDictionary
280
     1
281
     1
  3
ACAD_XREC_ROUNDTRIP
360
26F1
  0
DICTIONARY
  5
26F2
330
F3
100
AcDbDictionary
280
     1
281
     1
  3
ACAD_XREC_ROUNDTRIP
360
26F3
  0
DICTIONARY
  5
26FA
330
F7
100
AcDbDictionary
280
     1
281
     1
  3
ACAD_XREC_ROUNDTRIP
360
26FB
  0
DICTIONARY
  5
270C
330
1E4
100
AcDbDictionary
280
     1
281
     1
  3
ACAD_XREC_ROUNDTRIP
360
270D
  0
DICTIONARY
  5
2706
330
FD
100
AcDbDictionary
280
     1
281
     1
  3
ACAD_XREC_ROUNDTRIP
360
2707
  0
DICTIONARY
  5
270E
330
1E5
100
AcDbDictionary
280
     1
281
     1
  3
ACAD_XREC_ROUNDTRIP
360
270F
  0
DICTIONARY
  5
26FE
330
F9
100
AcDbDictionary
280
     1
281
     1
  3
ACAD_XREC_ROUNDTRIP
360
26FF
  0
DICTIONARY
  5
271A
330
1F3
100
AcDbDictionary
280
     1
281
     1
  3
ACAD_XREC_ROUNDTRIP
360
271B
  0
DICTIONARY
  5
2718
330
1F2
100
AcDbDictionary
280
     1
281
     1
  3
ACAD_XREC_ROUNDTRIP
360
2719
  0
DICTIONARY
  5
2712
330
1EF
100
AcDbDictionary
280
     1
281
     1
  3
ACAD_XREC_ROUNDTRIP
360
2713
  0
DICTIONARY
  5
2714
330
1F0
100
AcDbDictionary
280
     1
281
     1
  3
ACAD_XREC_ROUNDTRIP
360
2715
  0
DICTIONARY
  5
2704
330
FC
100
AcDbDictionary
280
     1
281
     1
  3
ACAD_XREC_ROUNDTRIP
360
2705
  0
DICTIONARY
  5
26F8
330
F6
100
AcDbDictionary
280
     1
281
     1
  3
ACAD_XREC_ROUNDTRIP
360
26F9
  0
DICTIONARY
  5
2716
330
1F1
100
AcDbDictionary
280
     1
281
     1
  3
ACAD_XREC_ROUNDTRIP
360
2717
  0
XRECORD
  5
271F
102
{ACAD_REACTORS
330
271E
102
}
330
271E
100
AcDbXrecord
280
     1
102
DISPLAYNAME
  1
Metric50
102
FLAGS
 90
        0
  0
XRECORD
  5
26E9
102
{ACAD_REACTORS
330
26E8
102
}
330
26E8
100
AcDbXrecord
280
     1
102
SHADEPLOT
 70
     0
102
SHADEPLOTRESLEVEL
 70
     2
102
SHADEPLOTCUSTOMDPI
 70
   300
  0
XRECORD
  5
26EB
102
{ACAD_REACTORS
330
26EA
102
}
330
26EA
100
AcDbXrecord
280
     1
102
SHADEPLOT
 70
     0
102
SHADEPLOTRESLEVEL
 70
     2
102
SHADEPLOTCUSTOMDPI
 70
   300
  0
XRECORD
  5
26E6
102
{ACAD_REACTORS
330
26E5
102
}
330
26E5
100
AcDbXrecord
280
     1
102
SHADEPLOT
 70
     0
102
SHADEPLOTRESLEVEL
 70
     2
102
SHADEPLOTCUSTOMDPI
 70
   300
  0
XRECORD
  5
778
102
{ACAD_REACTORS
330
1F9
102
}
330
1F9
100
AcDbXrecord
280
     1
102
MATERIAL
148
0.0
149
0.0
149
0.0
 93
        0
 94
      127
282
     0
 72
     1
 77
     1
171
     1
175
     1
179
     1
273
     0
  0
XRECORD
  5
1FA
102
{ACAD_REACTORS
330
1F9
102
}
330
1F9
100
AcDbXrecord
280
     1
 70
     1
 90
429727718
  1
D62C5603-E3A1-4AEA-B7FB-FE5D8D0755AF
310
504B03040A0000080000CC70623B3DEE336E79000000790000001B0000006175746F6465736B2D64657369676E2D7061636B6167652E786D6C3C3F786D6C2076657273696F6E3D22312E302220656E636F64696E673D227574662D3822203F3E3C666F726D6174733E3C666F726D61743E687474703A2F2F736368656D612E
310
6175746F6465736B2E636F6D2F64657369676E2D7061636B6167652F323030393C2F666F726D61743E3C2F666F726D6174733E504B0304140006080800CC70623BD486FD9CA0000000F4000000130000005B436F6E74656E745F54797065735D2E786D6C7D8EC10E82300C865F65E91D8A1E8C310C0EEA1BF002731658846E
310
D98AC1B77784ABF1D8FE5FBFBF75BBCE937A534CCEB38643598122B6FEE978D0B0485F9C41B54DDD7D022595594E1A469170414C76A4D9A4D207E29CF43ECE46F218070CC6BECC4078ACAA135ACF422C856C0E68EA1BF5669944DDD7BCDE7B1F8E415D77AECB980613C2E4AC91FC167A2B244592486606FC29C8FD7F045B9A
310
EF7053A7E60B504B0304140006080800CC70623B853B8169EB0000007C01000008000000636F72652E786D6C8D90416EC3201045AF62CDB6C206821CC7C244919D9CA01740401C94182C03558F5F9C3852BBEB6A467FFE9B197D7EFC9E1EC5975982F5AE035262288C535E5B377690E21535501C055FBC8FBF6C503839990E
310
5619041F179FE64D52DE45E362569DD7661365082642A11EB9E920A89B99642953CC8E702F67A9EE7234257977194EC9EAE275C4EABCCF5EAD5940D4AC6F0E35A568B8F43562CD7046CD199FD07E60174276A7BE677B5EADB0E0D14EEFFB6A31321A0D82627C4084204C3F096B71DD52F6819B16635EADF63F509AF53FA164
310
5DDCD1EDDD17164090FCC8732078B56691CB33A85CD7DCC40F504B0304140006080800CC70623B55019EA25F0000007C00000007000000636E782E786D6C4DCB3B0E80201045D1AD90E915ED2CF8AC45050C11660C8261F98AB1B07AC9C97D42D718D865D3E909258CFD00CCE24AC6E326A164D74DC0B4128928FF32603847
310
2BA13128B1252AC747C6BAB984FC68F0B87FE8960A5C09FE86CFB69FBA01504B0304140006080800CC70623BDBABAAF470010000D40300000C0000006662782F636F72652E786D6CC553D16E823014FD95A6AF4B694182CC941A83FA05FB810A9511A125A5257EFE2E82712ECEB8A7F100CD39F7F69E734AF9FADC366850B6
310
AF8DCE7018308C942E4C59EB2AC3DE1D498AD15A706B8CFB56869196ADCAF00863C12B6B7C374385D14E6907A836A59A41D9F7CA615434B0C8705F7CAA5606D23BA8E84F41278B93AC54100640439DE0BDB320004D43C63716C7C399D30917DCFBBA9CD9BA8469F5B156168B24CED3F7248AC8769F27244EB73B92EED8862C
310
B7F13E0C179B3C8F979C8ECD82BBBABDAA2BAC924E9558448CBD9330242CFA08E3154B5651FCC6D215639C8EE5774DBE2B5F6CF2B5768B68963BB5F5588420E442FC700B1139D4CB01F450C1E918227C2E09DF070D8140C84E1E9AAB8F1340832A9CB13130A5F1376A908D57309505ECF2A0DF179C4E9D30F5B239B87E3823
310
7A79C6F31DE1A8A5AEC08474B03C7837EAE4938639B44E5932B833D2C6B6B279CDC613877FA26EE21F4A2A4C63EC7F29A2F301D1F9F7A0E37D145F504B0304140006080800CC70623B9C113CC27E0000009D0000000B0000006662782F636E782E786D6C4DCCDF0A83201C86E15B91DFB94BFB330DD428C8FB886521330DA7
310
6397BF1A1DECE883878F57749FCDA1B7892F1BBC047A23808C7F84D9FA55424E0BE6803A256208E9EF06C84F9B91703228B1C690F78B66B34CD9A5439DF5CF0BFBF65E35BCA1B8D6A5C6F540381E886698B5741C695F9503EBA150A2F8958E3DC3EA0B504B0304140006080800CC70623B7DF2F77C2A010000120200003100
310
00006662782F41393633353835312D344632462D344230382D423046372D3739314545314133324237412F636F72652E786D6C8D51DB8EC22014FC15C2939B0D2DB4B45643319AE817EC0F6041255A68B86CFCFC856D4D76DF7CE190393373060EDB3DC707F856CE6B6B7A480A0C81328395DA5C7B18C3057510EC3873D686
310
3F34088C18550F330C39BB3A1BA7051AAC09CA84841A2BD5020AEF55806078A44B0FFD7053A328440C89E1EFC52486BBB8AA8214A99D789CF9E05200300FC927E4FB4D5B375D43103D5527440FB843077C5AA3F5861C8F645F5787F59E95B390B318B55CE45AA638FAA2957BD7248B390B7A7CC51F9C124149C82B8C378810
310
84AB2F42B7B8DD56F413775B8C5999E9FF4471926F8AA236A1AE96B8B3CC434E5839373893369E1FAF30EA395917409EB7F26AF8801C171837A4A6AC9C89E9F9C9B1A58BA30FD6A5EF5DDDCF894B9AD9B6A59C957943A9FCAE2FD5BC4DFE03504B0304140006080800CC70623BAD7543B64E01000033030000300000006662
310
782F41393633353835312D344632462D344230382D423046372D3739314545314133324237412F636E782E786D6CD593CD6EC32010845F0571AD6CE3D48AD20813A9873E410FBD12D82434182C7EAAE6EDBB2424CD25871E7B41D6EC30B3FA84F9E67BB2E40B4234DE8DB46F1925E094D7C6ED479AD3AE5951B2113C789FEE
310
6C943839C1488B4C05DF079FE72A69D8C96C13AAD6B8631503449F83828872B949AC57D26200B826A308D316B4064D6E46FCDA41C05550DC9E483A00797BFD207EFB092A45DE9514C1BBD22178396BD39D891265658C238DEA00936C654E5E433CB65A26D9F6EDB5EBC14EBF49A45CB856E66048291F6939A9A81BB5C89177
310
38143CA680F4AA299D66A042CEB3354A2684DC9D8D178FE0D9B8B41CAAD720F880EE7EF93C0C18769E099ECC04D5A102C8049A8A05632F4DDF376CF1DE0F6BB65C2F8627B65A33C6BB62177CEBBDAD973006829F89F22E814B54F4BC2BE347F8AA8F681390B50FA73F804400B5F542E796F19FF974E7F78DB802FE05E20750
310
4B0304140006080800CC70623BE75B7789680500003C100000340000006662782F41393633353835312D344632462D344230382D423046372D3739314545314133324237412F6F626A656374732E786D6CAD575B8F9B3818FD2B887D06C22499CB8AA1CA655245D5B455A356FB305264C061D8018C6C3393D95FBFC7600890
310
A4CD5EF210B0B1BFEBF98E3F7B1FF6596ABC522E1296DF9BAE3D320D9A872C4AF2F8DE2CE5CEBA358D0FBEC719939D65A691938CDE9B6ADAF4BD98B3B2D05311DD91329583D9D5FC0F438434A7A611A644887B5384CF34233629258BA878B12322891DEFF6B66BD70BFB62634E8AE781D082709A4B588AF91C528CDA28B73F
310
1C998EEF39EABBEFA97FBD6A7C7E9553F9D3D79FE442923C3C523610337627CB87ABE99D359D4CC6D6E4FACAB5E6ABF9D2726FC6A3C5F56271377BB88362213924694B38DD99FE47C48627A1E7D49F5A8BB5E1A74C0A599ED3B0F21F1E56366B89112D681E218F0915D0D6F17AD41FBA2A369DCF6335D62ABBD39779D5DDD1
310
11D4D8DE3CBB96B2E04FB8202E41051754A1AA8E8F76B4C6DFE810B580B1547F4B84911149794252234D024EF8BBE963A95AE27B3D310A9D5C215C7960FAEE415ED75694C6AFB17BCACA5D99A60A9AA65F217B0BFC53292ACB92BF283FAD0D3621576592CB5BED907C2FA8E9DF794E35E97BEA31BED21FEB401ABB94C44839
310
DCACBF0E1C5DA8DA5B2F4DFFD32AD86F543D9E565E7056502E157C00AD2671CD534549AB752FCA9CDA00677A313F04E51B22FF19E57B300579E3C97EB29F682D92935CEC18CF901B7B54FD8C51F362B56FC72FE0B3C1EAE335EDCCBF5AEC39ADB17DC238973F804BA5E6F6BFE7AF1FB32E523BE9F3BD571418E3631DCA4D48
310
5250CF639223210A9446CA30052EDF057BD35F8329C1ECD84552BF0DC8D18BE7BCE23BFE6BD960AB4A7DE79923A103BEBD80F911CBAA2C60DB19B01CF164A5583B772EE6D3FFA56666CBCDA74DC97724A48F9A58967497E489C4D979006FD7A05E227A1EBDD0F737C623387A9C844D3709995625106D157315F8B8392CD4E0
310
A0B9A720C4BE9829CEF37EA1E13111214D53925356365ADA634861B52519DD27A00AEB808EAF0628E6F435519D446F45CF2C9CF5214F0A15B2F6D06B79DA3EE3CBF7F56780D2F4E7EF73A0F5E5B02A38D07DC852C6B7C1FBB6664213E0C39E3EBA7FF4E1AD23EA2829407C85E586727488B751B2DB9502BC7B228A3FD68B6E
310
A65A22397E690AA8D158D7E404EC8CDA235CC3B7D1898680131CEC2CDF2638C65196279577750F15884AEE19F94199155B92B13297978469D4F8D358DF0AEF7631E28DC8F0D9F437D5D39A83B2231A1D52D543813A824EF8D44BCFF2FA6A31BD1E8DAD87F1CCB526B3879935BF59CDADD5C37479BB1CDD4CA7B3556B516589
310
EF352754B706114D9C885EC9131DE6EFEB43D99AFE2391C2F958179413D7CFEF6B1B6DB1E7600F00DE6E5C67454A339A4BA2E0FBA85ED26F045D454F463DBFCE484C2F90F2E5E3666003662ED8F755951A7D1BECD5B30B550B2785C8E7320B7292A4838DDA71BBC863ED7613CAF659337A3354231D4FF4A182A54904C2898C
310
98B28C4AD0CE056CCF332A80986E571EE9DBC305BB5FEB7E509220A58D25CF042D712A806AC0AD0C657FDEF80D2D9CEAA2EE4D1C76F60BFE74219A06527D6F82DF6412526107381E55E353090704D085B52408A8913C4ED159D79BDA71BB4BC506F4831350EB6F975CD22D69BF7AC49B91A2C0A9DDA3D5CA36AD20FC478E37
310
E61844E2352865EBCB61A275A65283CAAA9DD27703B4102F5AF51EF5F573B75CBB5AD38BC845F7A49F82A0966A49C2E3EA5EA0ECD326CD965F1DB402C6FA8B51A4658C5C5E2EC9E214602E55810345408596591009A82E7E7FFACA19EEA299B14A0081A705CB3296EBC14CDF658DCD336EA6D1136881AAEB87B81AB9EE53D5
310
F5EB8BC8362082DA24122F98680A4E7930C01A0079749CEA14382A0783E5EBA5A10F8C098456A03D6A4AEB6BB881E2513747552A5DB22C7EDAF83BD5528081A365F7FF06504B0304140006080000CC70623B000000000000000000000000350000006662782F41393633353835312D344632462D344230382D423046372D37
310
39314545314133324237412F76657274696365732E62696E504B0304140006080800CC70623BF270F1330600000004000000360000006662782F41393633353835312D344632462D344230382D423046372D3739314545314133324237412F747269616E676C65732E62696E636660600000504B0304140006080000CC7062
310
3B000000000000000000000000370000006662782F41393633353835312D344632462D344230382D423046372D3739314545314133324237412F617474726962757465732E62696E504B0304140006080800CC70623B08DA0BD19000000041010000360000006662782F41393633353835312D344632462D344230382D4230
310
46372D3739314545314133324237412F6469726563746F72792E786D6C858F410AC3201045AF22B36F53E9A60B35CBEEBAE80D244E44489C6234F4F835464A48035D0DF398FF9F8AF63D0E6CC63039F212F8F9020C7D47C6792B21C5FE7403D62A1188E2E60C98D7234A5830286103A55745067B9D86B8A3CF9C7F90C11DE6
310
07FB144396D7B6A82D282E9A152AD114D5EF2CB866EEE831B8EEA07A7BB5A8D7D61A2BAAEB7FD5F70921FF497D00504B0304140006080800CC70623BEDD1DC58FD000000A00100003B0000006662782F41393633353835312D344632462D344230382D423046372D3739314545314133324237412F7265736F75726365732F
310
636F72652E786D6C8D504B6E833010BD0A9A6D65B00922041947112427E8052C33A156828DFCA97AFC9A40A576D7CDCCE87D344F8F9FBFE667F689CE6B6B3A6039850C8DB2A336530731DC4903D95970676DF82583CCC8193B5861107C72362E3BA4AC096842428D1D7107A5F7182053CF7474E0D507CE32973124857FE48B
310
540F3961CEF244279DE03EB81420DB9EAC1384436FA353E879B1B182C7A8C75DA3C7F453DF353A1075D537A7BA6464B8F535A99AE14A9A2BBD90E350DD183B5CFABE3AF262350B1EF4FC9351399401471025A527C218A1E53BAB5A5AB765F5469B96525EACF23FA6B88CFF34456DC2A1DCE36E360F82A5202F42F062ED2BAD
310
579969AFDD8A6F504B010214000A0000080000CC70623B3DEE336E79000000790000001B00000000000000000000000000000000006175746F6465736B2D64657369676E2D7061636B6167652E786D6C504B01021400140006080800CC70623BD486FD9CA0000000F40000001300000000000000000000000000B20000005B
310
436F6E74656E745F54797065735D2E786D6C504B01021400140006080800CC70623B853B8169EB0000007C010000080000000000000000000000000083010000636F72652E786D6C504B01021400140006080800CC70623B55019EA25F0000007C000000070000000000000000000000000094020000636E782E786D6C504B
310
01021400140006080800CC70623BDBABAAF470010000D40300000C00000000000000000000000000180300006662782F636F72652E786D6C504B01021400140006080800CC70623B9C113CC27E0000009D0000000B00000000000000000000000000B20400006662782F636E782E786D6C504B01021400140006080800CC70
310
623B7DF2F77C2A010000120200003100000000000000000000000000590500006662782F41393633353835312D344632462D344230382D423046372D3739314545314133324237412F636F72652E786D6C504B01021400140006080800CC70623BAD7543B64E010000330300003000000000000000000000000000D2060000
310
6662782F41393633353835312D344632462D344230382D423046372D3739314545314133324237412F636E782E786D6C504B01021400140006080800CC70623BE75B7789680500003C10000034000000000000000000000000006E0800006662782F41393633353835312D344632462D344230382D423046372D3739314545
310
314133324237412F6F626A656374732E786D6C504B01021400140006080000CC70623B0000000000000000000000003500000000000000000000000000280E00006662782F41393633353835312D344632462D344230382D423046372D3739314545314133324237412F76657274696365732E62696E504B01021400140006
310
080800CC70623BF270F133060000000400000036000000000000000000000000007B0E00006662782F41393633353835312D344632462D344230382D423046372D3739314545314133324237412F747269616E676C65732E62696E504B01021400140006080000CC70623B0000000000000000000000003700000000000000
310
000000000000D50E00006662782F41393633353835312D344632462D344230382D423046372D3739314545314133324237412F617474726962757465732E62696E504B01021400140006080800CC70623B08DA0BD1900000004101000036000000000000000000000000002A0F00006662782F41393633353835312D344632
310
462D344230382D423046372D3739314545314133324237412F6469726563746F72792E786D6C504B01021400140006080800CC70623BEDD1DC58FD000000A00100003B000000000000000000000000000E1000006662782F41393633353835312D344632462D344230382D423046372D3739314545314133324237412F7265
310
736F75726365732F636F72652E786D6C504B0506000000000E000E0080040000641100000000
  0
XRECORD
  5
777
102
{ACAD_REACTORS
330
1F7
102
}
330
1F7
100
AcDbXrecord
280
     1
102
MATERIAL
148
0.0
149
0.0
149
0.0
 93
        0
 94
      127
282
     0
 72
     1
 77
     1
171
     1
175
     1
179
     1
273
     0
  0
XRECORD
  5
1F8
102
{ACAD_REACTORS
330
1F7
102
}
330
1F7
100
AcDbXrecord
280
     1
 70
     1
 90
429727718
  1
30362254-06B7-45E0-A893-8CFA70E3D6BC
310
504B03040A0000080000CC70623B3DEE336E79000000790000001B0000006175746F6465736B2D64657369676E2D7061636B6167652E786D6C3C3F786D6C2076657273696F6E3D22312E302220656E636F64696E673D227574662D3822203F3E3C666F726D6174733E3C666F726D61743E687474703A2F2F736368656D612E
310
6175746F6465736B2E636F6D2F64657369676E2D7061636B6167652F323030393C2F666F726D61743E3C2F666F726D6174733E504B0304140006080800CC70623BD486FD9CA0000000F4000000130000005B436F6E74656E745F54797065735D2E786D6C7D8EC10E82300C865F65E91D8A1E8C310C0EEA1BF002731658846E
310
D98AC1B77784ABF1D8FE5FBFBF75BBCE937A534CCEB38643598122B6FEE978D0B0485F9C41B54DDD7D022595594E1A469170414C76A4D9A4D207E29CF43ECE46F218070CC6BECC4078ACAA135ACF422C856C0E68EA1BF5669944DDD7BCDE7B1F8E415D77AECB980613C2E4AC91FC167A2B244592486606FC29C8FD7F045B9A
310
EF7053A7E60B504B0304140006080800CC70623B1EC5D7A3EB0000007C01000008000000636F72652E786D6C8D90416EC3201045AF82665B6103C6756C6122AB4D4ED00B204C5C94182C03558F5F9C3852BBEB6A467FFE9B197D71FC9E6FE8CBACC17AD7032D0820E3B41FAD9B7A48F1820F808E52ACDEC75F36404ECDA687
310
4D0629A6D5A76597B477D1B89855E747B38B2A041301E95B6E7A08FAD3CCAA50296647B8168BD2573599823EBB0CA76447F43862C7BCCF5EAC59410E4DDD9C7973C2755553CCCFA4C603E3040F1565ED3B1FDE4E432BCA0D9622DAF9795FAF464533826484B498524CD807E51D79ED187F21878E10516EF63F505AC67F42C9
310
BA58B1FDDD071640D2FCC87D2045B96591CB3DA85CB7DCE40F504B0304140006080800CC70623B55019EA25F0000007C00000007000000636E782E786D6C4DCB3B0E80201045D1AD90E915ED2CF8AC45050C11660C8261F98AB1B07AC9C97D42D718D865D3E909258CFD00CCE24AC6E326A164D74DC0B4128928FF32603847
310
2BA13128B1252AC747C6BAB984FC68F0B87FE8960A5C09FE86CFB69FBA01504B0304140006080800CC70623B8C9102E971010000D40300000C0000006662782F636F72652E786D6CC5535B6E833010BC8AE5DF0A6C08340F1947A84D4ED00B38C6A128602363A31CBFCB234A53A551FA553EC09AD9F5CE8C31DB9E9B1AF5CA
310
7695D1198E428A91D2D214952E33ECDD315861B4E5CC1AE3BE9561A445A3323CC098B3D21ADFCE9034DA29ED00D5A6503328BA4E398C640D8B0C77F253352214DE4145770A5B214FA2546114020D759C75CE8200340D19DE981F0F6746269C33EFAB6266AB02A655C74A59CCF365BADC27CB5D902ED22848F6340DF238A141
310
BE88E2F57B92BFEDF23523433367AE6A2EEAA455C2A902F398D2751045018D3FA264435F3771F242571B4A1919CA6F9A7C5B3CD9E42BED16F12C776AEB308F40C848FC700B1139D4891EF410CEC810227CC6846F8386402064270EF5C5C709A05E49676C024C61FC95EA45ED154CA5211D1FF4FB8291A913A68E9B83EBBB33
310
E2A7673CDE118E5AE8124C0807CB8377834E366998436B950D7A7746DAD846D4CFD978E0F04FD455FC5D49D2D4C6FE9722321F10997F0F32DC47FE05504B0304140006080800CC70623BFFEA85907E0000009D0000000B0000006662782F636E782E786D6C4DCCD10A83201886E15B91FFDC95D95A811AB6F23E625948A6C3
310
E9D8E5AF46073BFAE0E1E365ED67B3E8ADC3CB78C7815C7240DA3DFC64DCC221C519D7805AC182F7F1EF06C88D9BE6703008B6049F9E274D7A1E938DBB5AE3D6131B2589BA0D3D965551E0B2EA732C9B9A624AAEB41E3A557677029960D9AFB4EF11165F504B0304140006080800CC70623B4FEEA4082C0100001202000031
310
0000006662782F39464131463745442D413632322D343644302D413938332D3331353338454246344243312F636F72652E786D6C8D515B6EC32010BC0AE2AB55850DD871ED0813254D72825EC00192A2C460F1A872FC42ED48ED5F7E00CDCECCCEB26C731F6FE05B39AFADE921293004CA082BB5B9F43086336A21D870E6AC
310
0D7F68109861543DCC30E4ECE26C9C164858139409093556AA051CBC570102714B8F1E7AF1A5C6A11862480C7F2DA6415C878B2A4891CA89C7990F2E050073937C42DE1DB7E4F87ED8A36D4329AA9B3D46DBAEAD504556557BD81DEBDD0761E52CE42C462D17B996298E3E6BE59E35C962CE821E1FF18553435012728A7187
310
0841987E927A8D9B35ADDF70BBC6989599FE4F1427F9A4286A132ABAC49D651EF234CD5CE04CDA78BA3DC2A8FB645D00B9DF8B57E215725C60BCA2A463E54C4CE327C7A65E1C7DB02E7DEFCBF594B864C5CA6CDBD49C957943E9FA5D5FBAF336F90F504B0304140006080800CC70623BAD7543B64E01000033030000300000
310
006662782F39464131463745442D413632322D343644302D413938332D3331353338454246344243312F636E782E786D6CD593CD6EC32010845F0571AD6CE3D48AD20813A9873E410FBD12D82434182C7EAAE6EDBB2424CD25871E7B41D6EC30B3FA84F9E67BB2E40B4234DE8DB46F1925E094D7C6ED479AD3AE5951B2113C
310
789FEE6C943839C1488B4C05DF079FE72A69D8C96C13AAD6B8631503449F83828872B949AC57D26200B826A308D316B4064D6E46FCDA41C05550DC9E483A00797BFD207EFB092A45DE9514C1BBD22178396BD39D891265658C238DEA00936C654E5E433CB65A26D9F6EDB5EBC14EBF49A45CB856E66048291F6939A9A81BB5
310
C8917738143CA680F4AA299D66A042CEB3354A2684DC9D8D178FE0D9B8B41CAAD720F880EE7EF93C0C18769E099ECC04D5A102C8049A8A05632F4DDF376CF1DE0F6BB65C2F8627B65A33C6BB62177CEBBDAD973006829F89F22E814B54F4BC2BE347F8AA8F681390B50FA73F804400B5F542E796F19FF974E7F78DB802FE05
310
E207504B0304140006080800CC70623B16AB87BA640500003C100000340000006662782F39464131463745442D413632322D343644302D413938332D3331353338454246344243312F6F626A656374732E786D6CAD575B6FA33818FD2B887DE6924B3BED8A326A92B68A663B534DD4D13E548A0C38942D60649B369D5FBFC7
310
600890A493BDE42160637FD7F31D7FF63E6FB3D478A55C242CBF3247B66B1A340F5994E4F19559CA8D75611A9F7D8F33263BCB4C232719BD32D5B4E97B316765A1A722BA21652A07B3B7B33F0D11D29C9A46981221AE4C113ED38CD8A4942CA2E2C58E882476BCD9DA23BB5ED8171B73523C0F841684D35CC252CCE79062D4
310
468DFA43D7747CCF51DF7D4FFDEB5593E3AB9CCA9FBEFE241792E4E19EB28198C968BAB8199F5D5A67D3E9C49A9E8F47D6EC76B6B0469F26EEFC7C3EBFBCBEB98462213924694B38DD98FE1D62C393D073EA4FADC5DAF04326852CCF6958F90F0F2B9BB5C48816348F90C7840A68EB78EDF68723159BCEE7891A6B95DDE9D3
310
BCEAEEE8086A6C6F9E5D4B59F0175C10A7A0820BAA5055C7473B5AE3CFDD452D602CD5DF12616444529E90D448938013FE6EFA58AA96F85E4F8C42275708571E98FE6827AF6B2B4AE3D7D83D64E5A64C53054DD3AF90BD06FEA9149565C94FCA0F6B834DC85599E4F2423B24DF0B6AFA979E534DFA9E7A4CC6FA631D486393
310
921829879BF5D781A373557BCB85E97FB90DB62B558F8795179C15944B051F40AB495CF35451D26A4727654E6D8033BD98EF82F21D91FF8AF2DD9982BCF1643BDD4EB516C9492E368C67C88DED563FC36D5EACF66DFF057C3658BDBFA69DF9578B3DA735B64F18C7F20770A9D45CFCF7FCF563D6456A277DBEF78A02637CA2
310
43B90A490AEAB94F72244481D24819A6C0E59B606BFA4B3025981DBB48EAB701D97BF19C577CC77F2D1B6C55A9EF3C732474C0B727303F625995056C3B02963D9EAC146BE78EC5FCEC7FA999EBC5EACBAAE41B12D27B4D2C0BBA49F244E2ECDC81B76B502F113D8F5EE8FB1BE3111CDD4FC2AA9B844CAB1288B68AB90A7CDC
310
1C166AB0D3DC5310625FCC14E779BFD0709F8890A629C9292B1B2DED31A4B0DA928CEE135085754027E3018A397D4D5427D15BD1330B677DC8934285AC3DF45A9EB68FF8F2B8FC0A509AFEECFD0FF2DE25CC6047F7214B195F07EFEB9A094D800F7BFAE8FED187B78EA8A3A400F115961BCAD1215E47C966530AF0EE8128FE
310
58CEBB996A8964FFA529A046635D9353B0336A8F700DDF46271A024E70B0B37C9DE01847591E54DED53D54202AB947E4076556AC49C6CA5C9E1226B7F1A7B1BE15DEED62C41B91E1B3E9AFAAA735036547343A925075041DF0A9979E893B391F8FCFA6967B3EFB644DCF6E5CEBFAE272625DCC6FAF3FB93793C5F90CE1EF57
310
407342756B10D1C489E8953CD1617E5CEECAD6F4EF8914CE5D5D504E5C3F1F9736DA62CFC11E00BCDDB8CC8A9466349744C1F75EBDA4DF09BA8A9E8C7A7E9991989E20E5DBDD6A6003664ED8F7A04A8DBE0DF6EAD9B9AA858342E47399053949D2C146EDB85DE4B176BB0965FBAC19BD19AA918E27FA50C1D22402E144464C
310
59462568E704B6E71915404CB72B8FF4EDE184DDAF753F284990D2C6926782963815403548A70C657FDEF80D2D9CEAA2AE4C1C76F60BFE74219A06527D6582DF6412526107381E55E353090704D085B52408D0933C4ED159D79BDA71BB4BC506F4831350EB6F979CD22D69BF7AC49B91A2C0A9DDA3D5CA36AD20FC478E37E6
310
1844E2352865EBCB6EA275A652E3836BE04EFB400BF1A2556F515F1FBB35B2AB35BD889C744FFA1004B5544B121E57F70215746DD2F5E2C1412B602CBF19455AC6C8E5E9922C4E01E65215385004546899059180EAFCF7A707CE7017CD8CDB0410789AB32C63B91E5CEBBBACB17AC6CD347A022D5075FD106377347AAABA7E
310
7D11590744509B44E205134DC1290F06580320F78E537D3D73540E06CB970B431F185308AD40BBD794D6D77003C5A36E8EAA54BA64597CD8F83BD552A080A365F7FF06504B0304140006080000CC70623B000000000000000000000000350000006662782F39464131463745442D413632322D343644302D413938332D3331
310
353338454246344243312F76657274696365732E62696E504B0304140006080800CC70623BF270F1330600000004000000360000006662782F39464131463745442D413632322D343644302D413938332D3331353338454246344243312F747269616E676C65732E62696E636660600000504B0304140006080000CC70623B
310
000000000000000000000000370000006662782F39464131463745442D413632322D343644302D413938332D3331353338454246344243312F617474726962757465732E62696E504B0304140006080800CC70623B08DA0BD19000000041010000360000006662782F39464131463745442D413632322D343644302D413938
310
332D3331353338454246344243312F6469726563746F72792E786D6C858F410AC3201045AF22B36F53E9A60B35CBEEBAE80D244E44489C6234F4F835464A48035D0DF398FF9F8AF63D0E6CC63039F212F8F9020C7D47C6792B21C5FE7403D62A1188E2E60C98D7234A5830286103A55745067B9D86B8A3CF9C7F90C11DE607
310
FB144396D7B6A82D282E9A152AD114D5EF2CB866EEE831B8EEA07A7BB5A8D7D61A2BAAEB7FD5F70921FF497D00504B0304140006080800CC70623B0D6EF93BFE000000A00100003B0000006662782F39464131463745442D413632322D343644302D413938332D3331353338454246344243312F7265736F75726365732F63
310
6F72652E786D6C8D50596E833010BD0A9ADFCA60B334011947A8694ED00B586642AC041B79A97AFC9A40A5F6AF3F33A3B7689E1E3F7DCD8FEC139DD7D6F4C0720A191A65476DA61E62B892236427C19DB5E1970C322367EC618541F0C9D9B8EC90B226A009093576C41D94DE63804C3DD2D18357379C652E63480A7FCF17A9
310
EE72C29CE5894E3AC17D702940B63D59270887DE46A7D0F36263058F518FBB468FE9A7BE6A7420864373B8D4873369AA8691FA421B3294352543C5CAF65C0F6FEF43CB8BD52C78D0F34F46E550061C419494B6843142CB0F5677F4B52BEB177AEC28E5C52AFF638ACBF84F53D42654E51E77B379102C05791282176B5F693D
310
CB4C7BED567C03504B010214000A0000080000CC70623B3DEE336E79000000790000001B00000000000000000000000000000000006175746F6465736B2D64657369676E2D7061636B6167652E786D6C504B01021400140006080800CC70623BD486FD9CA0000000F40000001300000000000000000000000000B20000005B
310
436F6E74656E745F54797065735D2E786D6C504B01021400140006080800CC70623B1EC5D7A3EB0000007C010000080000000000000000000000000083010000636F72652E786D6C504B01021400140006080800CC70623B55019EA25F0000007C000000070000000000000000000000000094020000636E782E786D6C504B
310
01021400140006080800CC70623B8C9102E971010000D40300000C00000000000000000000000000180300006662782F636F72652E786D6C504B01021400140006080800CC70623BFFEA85907E0000009D0000000B00000000000000000000000000B30400006662782F636E782E786D6C504B01021400140006080800CC70
310
623B4FEEA4082C0100001202000031000000000000000000000000005A0500006662782F39464131463745442D413632322D343644302D413938332D3331353338454246344243312F636F72652E786D6C504B01021400140006080800CC70623BAD7543B64E010000330300003000000000000000000000000000D5060000
310
6662782F39464131463745442D413632322D343644302D413938332D3331353338454246344243312F636E782E786D6C504B01021400140006080800CC70623B16AB87BA640500003C1000003400000000000000000000000000710800006662782F39464131463745442D413632322D343644302D413938332D3331353338
310
454246344243312F6F626A656374732E786D6C504B01021400140006080000CC70623B0000000000000000000000003500000000000000000000000000270E00006662782F39464131463745442D413632322D343644302D413938332D3331353338454246344243312F76657274696365732E62696E504B01021400140006
310
080800CC70623BF270F133060000000400000036000000000000000000000000007A0E00006662782F39464131463745442D413632322D343644302D413938332D3331353338454246344243312F747269616E676C65732E62696E504B01021400140006080000CC70623B0000000000000000000000003700000000000000
310
000000000000D40E00006662782F39464131463745442D413632322D343644302D413938332D3331353338454246344243312F617474726962757465732E62696E504B01021400140006080800CC70623B08DA0BD190000000410100003600000000000000000000000000290F00006662782F39464131463745442D413632
310
322D343644302D413938332D3331353338454246344243312F6469726563746F72792E786D6C504B01021400140006080800CC70623B0D6EF93BFE000000A00100003B000000000000000000000000000D1000006662782F39464131463745442D413632322D343644302D413938332D3331353338454246344243312F7265
310
736F75726365732F636F72652E786D6C504B0506000000000E000E0080040000641100000000
  0
XRECORD
  5
779
102
{ACAD_REACTORS
330
173
102
}
330
173
100
AcDbXrecord
280
     1
102
MATERIAL
148
0.0
149
0.0
149
0.0
 93
        0
 94
      127
282
     0
 72
     1
 77
     1
171
     1
175
     1
179
     1
273
     0
  0
XRECORD
  5
175
102
{ACAD_REACTORS
330
173
102
}
330
173
100
AcDbXrecord
280
     1
270
     1
271
     1
  0
XRECORD
  5
174
102
{ACAD_REACTORS
330
173
102
}
330
173
100
AcDbXrecord
280
     1
270
     1
271
     1
  0
XRECORD
  5
1FB
102
{ACAD_REACTORS
330
173
102
}
330
173
100
AcDbXrecord
280
     1
 70
     0
 90
1673772943
  1
ECE7A1D2-D628-4531-984C-D00F80459256
310
504B03040A0000080000CC70623B3DEE336E79000000790000001B0000006175746F6465736B2D64657369676E2D7061636B6167652E786D6C3C3F786D6C2076657273696F6E3D22312E302220656E636F64696E673D227574662D3822203F3E3C666F726D6174733E3C666F726D61743E687474703A2F2F736368656D612E
310
6175746F6465736B2E636F6D2F64657369676E2D7061636B6167652F323030393C2F666F726D61743E3C2F666F726D6174733E504B0304140006080800CC70623BD486FD9CA0000000F4000000130000005B436F6E74656E745F54797065735D2E786D6C7D8EC10E82300C865F65E91D8A1E8C310C0EEA1BF002731658846E
310
D98AC1B77784ABF1D8FE5FBFBF75BBCE937A534CCEB38643598122B6FEE978D0B0485F9C41B54DDD7D022595594E1A469170414C76A4D9A4D207E29CF43ECE46F218070CC6BECC4078ACAA135ACF422C856C0E68EA1BF5669944DDD7BCDE7B1F8E415D77AECB980613C2E4AC91FC167A2B244592486606FC29C8FD7F045B9A
310
EF7053A7E60B504B0304140006080800CC70623BD9DDAED0EC0000007C01000008000000636F72652E786D6C8D90416EC3201045AF82665B61836D9CD8C2444DD39CA01740405C94182C03558F5F9C3852BBEB6A467FFE9B197D7EF89E6EE8CB2CC17A37002D0820E394D7D68D03A478C17B4007C117EFE32F1B20272733C0
310
2A83E0E3E2D3BC49CABB685CCCAAF3DA6CA20CC14440EA969B0182FA34932C648AD911AEC52CD5558EA6A0CF2EC329598D1E47ACCEFBECC59A050463A7EA5833865FEBDD0E37353BE3EE8DBDE3F6786A48D375FBF6CC78B9C282473B3DEFABC5C86834888A900E538A49F5419B9EB47DD5BC907D4F082F57FB1F28CDFA9F50
310
B22ED6D5F6EE030B20687EE43E10BC5CB3C8E51E54AE6B6EE207504B0304140006080800CC70623B55019EA25F0000007C00000007000000636E782E786D6C4DCB3B0E80201045D1AD90E915ED2CF8AC45050C11660C8261F98AB1B07AC9C97D42D718D865D3E909258CFD00CCE24AC6E326A164D74DC0B4128928FF326038
310
472BA13128B1252AC747C6BAB984FC68F0B87FE8960A5C09FE86CFB69FBA01504B0304140006080800CC70623BA24EB22D72010000D40300000C0000006662782F636F72652E786D6CC5535B6E833010BC8AE5DF0A6C5E49888CA3A6694ED00B38E05014B091B1518EDFE511A5A9D228FD2A1F60CDEC7A67C6986DCE4D8D7A
310
69BA4AAB0C073EC548AA5C17952A33ECECD15B61B4E1CC686DBF9561A44423333CC098B3D268D7CE50AE9595CA02AA74216750749DB418E5352C32DCE59FB211BE70162ABA93DF8AFC244AE9073ED050C759670D0840D390E18DF9F1706664C23973AE2A66B62A605A75ACA4C13C4976E1364A12EF355A2EBD384AF65EFA96
310
BC7B8BED2EA6719AAE16FB8491A199335B351775B991C2CA02F390D2D40B028F861F41BCA68B7518BFD0D59A524686F29B26D7164F36B94AD9289CE54E6D1DE6010819891F6E21228B3AD1831EC219194284CF98F06DD01008846CC5A1BEF83801D4CBDC6A1303536877A57A513B0953A94FC707FDBE6064EA84A9E3E6E0FA
310
EE8CF0E9198F7784A316AA0413C2C2F2E0ECA0934D1AE6D05A69BCDE9E91D2A611F573361E38FC1375157F5752AE6B6DFE4B11990F88CCBF0719EE23FF02504B0304140006080800CC70623B408A7D3B7C0000009D0000000B0000006662782F636E782E786D6C4DCCD10A83201886E15B91FFDC552A92A0064DBC8F581632
310
D3703A76F9ABD1C18E3E78F878E5F0D9027ABBFCF2292AE86E2D20171F69F6715550CB827B40839639A5F2770314A7CD293819B45C73AAFB45B35BA61ACAA1C1C7E7855C58C15BC331339661262CC762340413D68D77DA5B42298546CBE6573AF60CEB2F504B0304140006080800CC70623B449FB9BD290100001202000031
310
0000006662782F36394639363044362D344446342D343946362D394244322D3234314243333846323333332F636F72652E786D6C8D515B6EC32010BC0AE22B55850D98B871848994463E412FE002495162B07854397EA176A4F62F3F2C9A9D991D587EB84F37F0AD7D30CEF6905418026DA553C65E7A98E219ED203808EE9D
310
8B7F6810D871D23D2C3014FCE25D9A57483A1BB58D19B54EE9151C43D0110279CB971E06F9A5A7B11A53CC8C70ADE6515EC78BAE4895DB992778883E0700CB907242D17643D7E2538BD869608875438BBAE38922CAC8F1BDD90DB4691A5E2F42C153326A951B95E398B3D1FE599322163C9AE9115F7A3D46ADA0A018778810
310
84E907617BDCEE297BC5BB3DC6BC2EF47FA234AB2745C9D8D8D035EE220B50105E2F0DC1954B9FB747187D9F9D8FA0CCDB042D5FA0C015C65B42DF78BD10F3F3B363CB56C7109DCFDFBBB97E662ED92EB62D13BC2E1BCAE5777DB9966D8A1F504B0304140006080800CC70623BAD7543B64E01000033030000300000006662
310
782F36394639363044362D344446342D343946362D394244322D3234314243333846323333332F636E782E786D6CD593CD6EC32010845F0571AD6CE3D48AD20813A9873E410FBD12D82434182C7EAAE6EDBB2424CD25871E7B41D6EC30B3FA84F9E67BB2E40B4234DE8DB46F1925E094D7C6ED479AD3AE5951B2113C789FEE
310
6C943839C1488B4C05DF079FE72A69D8C96C13AAD6B8631503449F83828872B949AC57D26200B826A308D316B4064D6E46FCDA41C05550DC9E483A00797BFD207EFB092A45DE9514C1BBD22178396BD39D891265658C238DEA00936C654E5E433CB65A26D9F6EDB5EBC14EBF49A45CB856E66048291F6939A9A81BB5C89177
310
38143CA680F4AA299D66A042CEB3354A2684DC9D8D178FE0D9B8B41CAAD720F880EE7EF93C0C18769E099ECC04D5A102C8049A8A05632F4DDF376CF1DE0F6BB65C2F8627B65A33C6BB62177CEBBDAD973006829F89F22E814B54F4BC2BE347F8AA8F681390B50FA73F804400B5F542E796F19FF974E7F78DB802FE05E20750
310
4B0304140006080800CC70623B8D05915C650500003B100000340000006662782F36394639363044362D344446342D343946362D394244322D3234314243333846323333332F6F626A656374732E786D6CAD575B6FA33814FE2B887D06429276DA1565D4266D158D3A339A6846FB502932E050B66023DB74D2FDF5FB190C01
310
9276B2973C046C8ECFF53B17071F77456EBD502133CEAE6CDF9DD81665314F32965ED995DA3A17B6F5310C04E7AA47665B8C14F4CAD6DB7618A48257A5D94AE89654B91AEDDEDDFC61C998326A5B714EA4BCB265FC440BE2924AF184CA6737218AB8E976E7FA6E4338649B0A523E8D98964450A6A029F619B8588D52FE7039
310
B1BD30F0F4F730D0FF866AF6369557DB33949F31A9088B0F848DD8CCFCF9F2767A76E99CCDE733677E3EF59D9BBB9BA5E37F984D16E78BC5E5F5ED25044B25C0C96822E8D60EEFE11B91C581D77CEA34368A1F5329E68CD1B8B61F16D63A1B8E092D294B10C78C4A48EB593D192E7DED9BDEE7995E1B91FDEDD3ACEA9FE831
310
6A756F9F7D4D79F4274C90A7A04248AA51D5F8C718DAE06FB2F75AC4796EBE65D22A88A22223B995679120E2D50E41AA49C260C046A35368846B0BECD0DFF3EBEB8AD4F835768F69B9ADF25C43D30E6B646F807FAA64AD59F61715C7A54127C4AACA98BA3006A9D792DAE165E0D59B61A01FB3A9F9D838D2DAE62445C86166
310
F37564E842E7DE6A69879FEEA2DD5AE7E371E1A5E025154AC307D06A03D73EB5978C58FFA4C8E9033066E0F3BD53BEC1F39F91BE7B55103791EDE6BBB991A2046172CB4581D8B893FA674DDA17A77B3B7C413D1B511FD2743BFF8A38F03A658705E3ADF8015C3A3417FF3D7E439FF591DA0B5F18BC20C1B8981957AE6392A3
310
F43C640C01D1A0B4728E2DD4F26DB4B3C3152A252A3B4E913CEC1C72F012782FF88EFF8637AA552DBEF76408E8A8DE9E50F9E1CB3A2DA0DB1B6039A893B56063DC5B3E3FFB5F72E67AB9FEB4AEC496C4F4C1149625DD662C53E89D7BF0F6151A046260D1337DFDC94502430F83B0EE07A130A224BCAD7DAE1D9FB6CD422FF6
310
920702629C4BB9AE79C12F243C6432A6794E18E5552BA56B431AAB5D91317302B2B071E86C3A42B1A02F999E24061403B5D0EB639195DA655DD3EBEAB4FB862DDF579F014AD0E73C22F99E28DA57FB98E75C6CA2D74D53086D600F4786E0FE3144B771A8A7B900F03594DB8A633CBC49B2EDB69228BB479CF863B5E807AAAB
310
23872F6DFEB4129B949CA33823F58830E86D65621E10047D9DB34D862E8EAC3C2ABC2F7B2C40D67CDFE01F5545B92105AF983AC54D93D69E56FB8E797F88913F898A9FEC705D3F9D1B54EC8426FB500D40A03BD0119B06E1B95DDC7EB8F6975367793EBD70E66733DFB9BC982F9CE564727731999F5D4ECFCE3B8D6A4DC2A0
310
6D50FD148437D110834A64C6CDDF57FBACB5C307A2A477DFE4939736CFEF2B175371E0E10CF0DD1D5C15654E0BCA14D1E87DD02FF93782A162C0A3D95F1524A52770F972BF1EE9809D13CE7DD599467F8ECE9ADD85CE85A34CD45355448C64F9E8A031DC2D596ACC6E5DD93D9B82DE2EF5CAF81363A8E47996A0DE24564A79
310
4115AACE09C55E14540231FDA13C319787134EBF34E3A022514E5B4D9E0826E25C02D5805B15ABE1BEF51B26383D445DD9E875EE33FE4C22DA16427D65A3BCA92CA6D28DD01DF5DC53330704308475351050232CCD31583787BA75774AFB06E5070DD0C8EF484E19968C5D83BA5B90B244D31E54D55A372320FE4786B7EA58
310
44E135AA5467CB7EA333A61683CC6A8C3257034C10CF46F40EF9F5BE59BE5BD30C3C72D235E95D10345C1D45445A5F0BB47E46A5EBE5570F9380B5FA629579952296A773720405982B9DE04011506178964401AA8BDF1FBF0A8EAB6861DD6580C0E38217056766716DAEB2D6FA0917D3E4116581EADB879C4E7CFFB11EFACD
310
3D641311495D92C8676CB409A72D18610D803CE8A626049E8EC1887CB5B44CC39883690DDA8399B4B9855B481E7D71D4A9D22F96E5BB73BF5793020C02137BF837504B0304140006080000CC70623B000000000000000000000000350000006662782F36394639363044362D344446342D343946362D394244322D32343142
310
43333846323333332F76657274696365732E62696E504B0304140006080800CC70623BF270F1330600000004000000360000006662782F36394639363044362D344446342D343946362D394244322D3234314243333846323333332F747269616E676C65732E62696E636660600000504B0304140006080000CC70623B0000
310
00000000000000000000370000006662782F36394639363044362D344446342D343946362D394244322D3234314243333846323333332F617474726962757465732E62696E504B0304140006080800CC70623B08DA0BD19000000041010000360000006662782F36394639363044362D344446342D343946362D394244322D
310
3234314243333846323333332F6469726563746F72792E786D6C858F410AC3201045AF22B36F53E9A60B35CBEEBAE80D244E44489C6234F4F835464A48035D0DF398FF9F8AF63D0E6CC63039F212F8F9020C7D47C6792B21C5FE7403D62A1188E2E60C98D7234A5830286103A55745067B9D86B8A3CF9C7F90C11DE607FB14
310
4396D7B6A82D282E9A152AD114D5EF2CB866EEE831B8EEA07A7BB5A8D7D61A2BAAEB7FD5F70921FF497D00504B0304140006080800CC70623BCA768048FE000000A00100003B0000006662782F36394639363044362D344446342D343946362D394244322D3234314243333846323333332F7265736F75726365732F636F72
310
652E786D6C8D50596E833010BD0A9ADFCA60D600328E9AA639412F609909B1126CE4A5EAF16B0295DABFFECC8CDEA2797AECF8353F924FB44E193D409E5248504B332A3D0D10FC95B4901C39B3C6F85F3248B49871801506CE266BC2B243D2688FDA47549B11775038871E12F988C7004EDE7016A9083E2ADC3D5D84BC8B09
310
D33C8D74D471E6BC8D0192EDC93A815B742658898E651BCB59086ADC356A8C3FD555A1055ED7E7E254D615792D0F075295F585746FF53B694EE78A565DD736979A65AB9933AFE69F8CD2A2F038022F28ED489E135A7CE4554F9BBEA85E68DB53CAB255FEC71496F19FA6A0B42F8B3DEE6673C0F318E4497096AD7DC5F52C33
310
EEB55BFE0D504B010214000A0000080000CC70623B3DEE336E79000000790000001B00000000000000000000000000000000006175746F6465736B2D64657369676E2D7061636B6167652E786D6C504B01021400140006080800CC70623BD486FD9CA0000000F40000001300000000000000000000000000B20000005B436F
310
6E74656E745F54797065735D2E786D6C504B01021400140006080800CC70623BD9DDAED0EC0000007C010000080000000000000000000000000083010000636F72652E786D6C504B01021400140006080800CC70623B55019EA25F0000007C000000070000000000000000000000000095020000636E782E786D6C504B0102
310
1400140006080800CC70623BA24EB22D72010000D40300000C00000000000000000000000000190300006662782F636F72652E786D6C504B01021400140006080800CC70623B408A7D3B7C0000009D0000000B00000000000000000000000000B50400006662782F636E782E786D6C504B01021400140006080800CC70623B
310
449FB9BD290100001202000031000000000000000000000000005A0500006662782F36394639363044362D344446342D343946362D394244322D3234314243333846323333332F636F72652E786D6C504B01021400140006080800CC70623BAD7543B64E010000330300003000000000000000000000000000D20600006662
310
782F36394639363044362D344446342D343946362D394244322D3234314243333846323333332F636E782E786D6C504B01021400140006080800CC70623B8D05915C650500003B10000034000000000000000000000000006E0800006662782F36394639363044362D344446342D343946362D394244322D32343142433338
310
46323333332F6F626A656374732E786D6C504B01021400140006080000CC70623B0000000000000000000000003500000000000000000000000000250E00006662782F36394639363044362D344446342D343946362D394244322D3234314243333846323333332F76657274696365732E62696E504B010214001400060808
310
00CC70623BF270F13306000000040000003600000000000000000000000000780E00006662782F36394639363044362D344446342D343946362D394244322D3234314243333846323333332F747269616E676C65732E62696E504B01021400140006080000CC70623B00000000000000000000000037000000000000000000
310
00000000D20E00006662782F36394639363044362D344446342D343946362D394244322D3234314243333846323333332F617474726962757465732E62696E504B01021400140006080800CC70623B08DA0BD190000000410100003600000000000000000000000000270F00006662782F36394639363044362D344446342D
310
343946362D394244322D3234314243333846323333332F6469726563746F72792E786D6C504B01021400140006080800CC70623BCA768048FE000000A00100003B000000000000000000000000000B1000006662782F36394639363044362D344446342D343946362D394244322D3234314243333846323333332F7265736F
310
75726365732F636F72652E786D6C504B0506000000000E000E0080040000621100000000
  0
XRECORD
  5
176
102
{ACAD_REACTORS
330
173
102
}
330
173
100
AcDbXrecord
280
     1
270
     1
271
     1
  0
XRECORD
  5
177
102
{ACAD_REACTORS
330
173
102
}
330
173
100
AcDbXrecord
280
     1
270
     1
271
     1
  0
XRECORD
  5
271D
102
{ACAD_REACTORS
330
271C
102
}
330
271C
100
AcDbXrecord
280
     1
102
DISPLAYNAME
  1
Metric50
102
FLAGS
 90
        0
  0
CELLSTYLEMAP
  5
26E1
102
{ACAD_REACTORS
330
162
102
}
330
162
100
AcDbCellStyleMap
 90
        3
300
CELLSTYLE
  1
TABLEFORMAT_BEGIN
 90
        5
170
     1
 91
        0
 92
    32768
 62
   257
 93
        1
300
CONTENTFORMAT
  1
CONTENTFORMAT_BEGIN
 90
        0
 91
        0
 92
      512
 93
        0
300

 40
0.0
140
1.0
 94
        5
 62
     0
340
11
144
6.0
309
CONTENTFORMAT_END
171
     1
301
MARGIN
  1
CELLMARGIN_BEGIN
 40
1.5
 40
1.5
 40
1.5
 40
1.5
 40
0.18
 40
0.18
309
CELLMARGIN_END
 94
        6
 95
        1
302
GRIDFORMAT
  1
GRIDFORMAT_BEGIN
 90
        0
 91
        1
 62
     0
 92
       -2
340
14
 93
        0
 40
1.125
309
GRIDFORMAT_END
 95
        2
302
GRIDFORMAT
  1
GRIDFORMAT_BEGIN
 90
        0
 91
        1
 62
     0
 92
       -2
340
14
 93
        0
 40
1.125
309
GRIDFORMAT_END
 95
        4
302
GRIDFORMAT
  1
GRIDFORMAT_BEGIN
 90
        0
 91
        1
 62
     0
 92
       -2
340
14
 93
        0
 40
1.125
309
GRIDFORMAT_END
 95
        8
302
GRIDFORMAT
  1
GRIDFORMAT_BEGIN
 90
        0
 91
        1
 62
     0
 92
       -2
340
14
 93
        0
 40
1.125
309
GRIDFORMAT_END
 95
       16
302
GRIDFORMAT
  1
GRIDFORMAT_BEGIN
 90
        0
 91
        1
 62
     0
 92
       -2
340
14
 93
        0
 40
1.125
309
GRIDFORMAT_END
 95
       32
302
GRIDFORMAT
  1
GRIDFORMAT_BEGIN
 90
        0
 91
        1
 62
     0
 92
       -2
340
14
 93
        0
 40
1.125
309
GRIDFORMAT_END
309
TABLEFORMAT_END
  1
CELLSTYLE_BEGIN
 90
        1
 91
        1
300
_TITLE
309
CELLSTYLE_END
300
CELLSTYLE
  1
TABLEFORMAT_BEGIN
 90
        5
170
     1
 91
        0
 92
        0
 62
   257
 93
        1
300
CONTENTFORMAT
  1
CONTENTFORMAT_BEGIN
 90
        0
 91
        0
 92
      512
 93
        0
300

 40
0.0
140
1.0
 94
        5
 62
     0
340
11
144
4.5
309
CONTENTFORMAT_END
171
     1
301
MARGIN
  1
CELLMARGIN_BEGIN
 40
1.5
 40
1.5
 40
1.5
 40
1.5
 40
0.18
 40
0.18
309
CELLMARGIN_END
 94
        6
 95
        1
302
GRIDFORMAT
  1
GRIDFORMAT_BEGIN
 90
        0
 91
        1
 62
     0
 92
       -2
340
14
 93
        0
 40
1.125
309
GRIDFORMAT_END
 95
        2
302
GRIDFORMAT
  1
GRIDFORMAT_BEGIN
 90
        0
 91
        1
 62
     0
 92
       -2
340
14
 93
        0
 40
1.125
309
GRIDFORMAT_END
 95
        4
302
GRIDFORMAT
  1
GRIDFORMAT_BEGIN
 90
        0
 91
        1
 62
     0
 92
       -2
340
14
 93
        0
 40
1.125
309
GRIDFORMAT_END
 95
        8
302
GRIDFORMAT
  1
GRIDFORMAT_BEGIN
 90
        0
 91
        1
 62
     0
 92
       -2
340
14
 93
        0
 40
1.125
309
GRIDFORMAT_END
 95
       16
302
GRIDFORMAT
  1
GRIDFORMAT_BEGIN
 90
        0
 91
        1
 62
     0
 92
       -2
340
14
 93
        0
 40
1.125
309
GRIDFORMAT_END
 95
       32
302
GRIDFORMAT
  1
GRIDFORMAT_BEGIN
 90
        0
 91
        1
 62
     0
 92
       -2
340
14
 93
        0
 40
1.125
309
GRIDFORMAT_END
309
TABLEFORMAT_END
  1
CELLSTYLE_BEGIN
 90
        2
 91
        1
300
_HEADER
309
CELLSTYLE_END
300
CELLSTYLE
  1
TABLEFORMAT_BEGIN
 90
        5
170
     1
 91
        0
 92
        0
 62
   257
 93
        1
300
CONTENTFORMAT
  1
CONTENTFORMAT_BEGIN
 90
        0
 91
        0
 92
      512
 93
        0
300

 40
0.0
140
1.0
 94
        2
 62
     0
340
11
144
4.5
309
CONTENTFORMAT_END
171
     1
301
MARGIN
  1
CELLMARGIN_BEGIN
 40
1.5
 40
1.5
 40
1.5
 40
1.5
 40
0.18
 40
0.18
309
CELLMARGIN_END
 94
        6
 95
        1
302
GRIDFORMAT
  1
GRIDFORMAT_BEGIN
 90
        0
 91
        1
 62
     0
 92
       -2
340
14
 93
        0
 40
1.125
309
GRIDFORMAT_END
 95
        2
302
GRIDFORMAT
  1
GRIDFORMAT_BEGIN
 90
        0
 91
        1
 62
     0
 92
       -2
340
14
 93
        0
 40
1.125
309
GRIDFORMAT_END
 95
        4
302
GRIDFORMAT
  1
GRIDFORMAT_BEGIN
 90
        0
 91
        1
 62
     0
 92
       -2
340
14
 93
        0
 40
1.125
309
GRIDFORMAT_END
 95
        8
302
GRIDFORMAT
  1
GRIDFORMAT_BEGIN
 90
        0
 91
        1
 62
     0
 92
       -2
340
14
 93
        0
 40
1.125
309
GRIDFORMAT_END
 95
       16
302
GRIDFORMAT
  1
GRIDFORMAT_BEGIN
 90
        0
 91
        1
 62
     0
 92
       -2
340
14
 93
        0
 40
1.125
309
GRIDFORMAT_END
 95
       32
302
GRIDFORMAT
  1
GRIDFORMAT_BEGIN
 90
        0
 91
        1
 62
     0
 92
       -2
340
14
 93
        0
 40
1.125
309
GRIDFORMAT_END
309
TABLEFORMAT_END
  1
CELLSTYLE_BEGIN
 90
        3
 91
        2
300
_DATA
309
CELLSTYLE_END
  0
XRECORD
  5
26E7
102
{ACAD_REACTORS
330
162
102
}
330
162
100
AcDbXrecord
280
     1
102
ACAD_ROUNDTRIP_PRE2007_TABLESTYLE
 90
      512
 91
        0
  1

 92
      512
 93
        0
  2

 94
      512
 95
        0
  3

  0
XRECORD
  5
26F7
102
{ACAD_REACTORS
330
26F6
102
}
330
26F6
100
AcDbXrecord
280
     1
102
RTVSPost2010Prop28
280
     1
102
RTVSPost2010PropOp28
 70
     1
102
RTVSPost2010Prop29
280
     1
102
RTVSPost2010PropOp29
 70
     1
102
RTVSPost2010Prop30
280
     0
102
RTVSPost2010PropOp30
 70
     1
102
RTVSPost2010Prop31
280
     0
102
RTVSPost2010PropOp31
 70
     1
102
RTVSPost2010Prop32
280
     0
102
RTVSPost2010PropOp32
 70
     1
102
RTVSPost2010Prop33
280
     0
102
RTVSPost2010PropOp33
 70
     1
102
RTVSPost2010Prop34
280
     0
102
RTVSPost2010PropOp34
 70
     1
102
RTVSPost2010Prop35
280
     0
102
RTVSPost2010PropOp35
 70
     1
102
RTVSPost2010Prop36
280
     0
102
RTVSPost2010PropOp36
 70
     1
102
RTVSPost2010Prop37
 90
       50
102
RTVSPost2010PropOp37
 70
     1
102
RTVSPost2010Prop38
140
0.0
102
RTVSPost2010PropOp38
 70
     1
102
RTVSPost2010Prop39
140
1.0
102
RTVSPost2010PropOp39
 70
     1
102
RTVSPost2010Prop40
 90
        0
102
RTVSPost2010PropOp40
 70
     1
102
RTVSPost2010Prop41ColorIndex
 90
       18
102
RTVSPost2010Prop41ColorRGB
 90
        0
102
RTVSPost2010PropOp41
 70
     1
102
RTVSPost2010Prop42
 90
       50
102
RTVSPost2010PropOp42
 70
     1
102
RTVSPost2010Prop43
 90
        3
102
RTVSPost2010PropOp43
 70
     1
102
RTVSPost2010Prop44ColorIndex
 90
        5
102
RTVSPost2010Prop44ColorRGB
 90
      255
102
RTVSPost2010PropOp44
 70
     1
102
RTVSPost2010Prop45
280
     0
102
RTVSPost2010PropOp45
 70
     1
102
RTVSPost2010Prop46
 90
       50
102
RTVSPost2010PropOp46
 70
     1
102
RTVSPost2010Prop47
 90
       50
102
RTVSPost2010PropOp47
 70
     1
102
RTVSPost2010Prop48
 90
       50
102
RTVSPost2010PropOp48
 70
     1
102
RTVSPost2010Prop49
280
     0
102
RTVSPost2010PropOp49
 70
     1
102
RTVSPost2010Prop50
 90
       50
102
RTVSPost2010PropOp50
 70
     1
102
RTVSPost2010Prop51ColorIndex
 90
      256
102
RTVSPost2010Prop51ColorRGB
 90
-16777216
102
RTVSPost2010PropOp51
 70
     0
102
RTVSPost2010Prop52
140
1.0
102
RTVSPost2010PropOp52
 70
     0
102
RTVSPost2010Prop53
 90
        2
102
RTVSPost2010PropOp53
 70
     1
102
RTVSPost2010Prop54
  1
strokes_ogs.tif
102
RTVSPost2010PropOp54
 70
     1
102
RTVSPost2010Prop55
280
     0
102
RTVSPost2010PropOp55
 70
     1
102
RTVSPost2010Prop56
140
1.0
102
RTVSPost2010PropOp56
 70
     1
102
RTVSPost2010Prop57
140
1.0
102
RTVSPost2010PropOp57
 70
     1
102
RTVSPropertyOp0
 70
     1
102
RTVSPropertyOp1
 70
     1
102
RTVSPropertyOp2
 70
     1
102
RTVSPropertyOp3
 70
     1
102
RTVSPropertyOp4
 70
     1
102
RTVSPropertyOp5
 70
     1
102
RTVSPropertyOp6
 70
     1
102
RTVSPropertyOp7
 70
     1
102
RTVSPropertyOp8
 70
     1
102
RTVSPropertyOp9
 70
     1
102
RTVSPropertyOp10
 70
     1
102
RTVSPropertyOp11
 70
     1
102
RTVSPropertyOp12
 70
     1
102
RTVSPropertyOp13
 70
     1
102
RTVSPropertyOp14
 70
     1
102
RTVSPropertyOp15
 70
     1
102
RTVSPropertyOp16
 70
     1
102
RTVSPropertyOp17
 70
     1
102
RTVSPropertyOp18
 70
     1
102
RTVSPropertyOp19
 70
     1
102
RTVSPropertyOp20
 70
     1
102
RTVSPropertyOp21
 70
     1
102
RTVSPropertyOp22
 70
     1
102
RTVSPropertyOp23
 70
     1
102
RTVSPropertyOp24
 70
     1
102
RTVSPropertyOp25
 70
     1
102
RTVSPropertyOp26
 70
     1
102
RTVSPropertyOp27
 70
     1
102
RTVSPropertyOp28
 70
     1
102
RTVSPropertyOp29
 70
     1
102
RTVSPropertyOp30
 70
     1
102
RTVSPropertyOp31
 70
     1
102
RTVSPropertyOp32
 70
     1
102
RTVSPropertyOp33
 70
     1
102
RTVSPropertyOp34
 70
     1
102
RTVSPropertyOp35
 70
     1
102
RTVSPropertyOp36
 70
     1
102
RTVSPropertyOp37
 70
     1
102
RTVSPropertyOp38
 70
     1
102
RTVSPropertyOp39
 70
     1
102
RTVSPropertyOp40
 70
     1
102
RTVSPropertyOp41
 70
     1
102
RTVSPropertyOp42
 70
     1
102
RTVSPropertyOp43
 70
     1
102
RTVSPropertyOp44
 70
     1
102
RTVSPropertyOp45
 70
     1
102
RTVSPropertyOp46
 70
     1
102
RTVSPropertyOp47
 70
     1
102
RTVSPropertyOp48
 70
     1
102
RTVSPropertyOp49
 70
     1
102
RTVSPropertyOp50
 70
     1
102
RTVSPropertyOp51
 70
     0
102
RTVSPropertyOp52
 70
     0
102
RTVSPropertyOp53
 70
     1
102
RTVSPropertyOp54
 70
     1
102
RTVSPropertyOp55
 70
     1
102
RTVSPropertyOp56
 70
     1
102
RTVSPropertyOp57
 70
     1
102
RTVSPropertyOp58
 70
     1
102
RTVSPropertyOp59
 70
     1
102
RTVSPropertyOp60
 70
     1
102
RTVSPropertyOp61
 70
     1
102
RTVSPropertyOp62
 70
     1
  0
XRECORD
  5
2721
102
{ACAD_REACTORS
330
2720
102
}
330
2720
100
AcDbXrecord
280
     1
102
RTVSPost2010Prop28
280
     0
102
RTVSPost2010PropOp28
 70
     1
102
RTVSPost2010Prop29
280
     1
102
RTVSPost2010PropOp29
 70
     1
102
RTVSPost2010Prop30
280
     1
102
RTVSPost2010PropOp30
 70
     1
102
RTVSPost2010Prop31
280
     0
102
RTVSPost2010PropOp31
 70
     1
102
RTVSPost2010Prop32
280
     0
102
RTVSPost2010PropOp32
 70
     1
102
RTVSPost2010Prop33
280
     0
102
RTVSPost2010PropOp33
 70
     1
102
RTVSPost2010Prop34
280
     0
102
RTVSPost2010PropOp34
 70
     1
102
RTVSPost2010Prop35
280
     0
102
RTVSPost2010PropOp35
 70
     1
102
RTVSPost2010Prop36
280
     0
102
RTVSPost2010PropOp36
 70
     1
102
RTVSPost2010Prop37
 90
       50
102
RTVSPost2010PropOp37
 70
     1
102
RTVSPost2010Prop38
140
0.0
102
RTVSPost2010PropOp38
 70
     1
102
RTVSPost2010Prop39
140
1.0
102
RTVSPost2010PropOp39
 70
     1
102
RTVSPost2010Prop40
 90
        0
102
RTVSPost2010PropOp40
 70
     1
102
RTVSPost2010Prop41ColorIndex
 90
       18
102
RTVSPost2010Prop41ColorRGB
 90
        0
102
RTVSPost2010PropOp41
 70
     1
102
RTVSPost2010Prop42
 90
       50
102
RTVSPost2010PropOp42
 70
     1
102
RTVSPost2010Prop43
 90
        3
102
RTVSPost2010PropOp43
 70
     1
102
RTVSPost2010Prop44ColorIndex
 90
        5
102
RTVSPost2010Prop44ColorRGB
 90
      255
102
RTVSPost2010PropOp44
 70
     1
102
RTVSPost2010Prop45
280
     0
102
RTVSPost2010PropOp45
 70
     1
102
RTVSPost2010Prop46
 90
       50
102
RTVSPost2010PropOp46
 70
     1
102
RTVSPost2010Prop47
 90
       50
102
RTVSPost2010PropOp47
 70
     1
102
RTVSPost2010Prop48
 90
       50
102
RTVSPost2010PropOp48
 70
     1
102
RTVSPost2010Prop49
280
     0
102
RTVSPost2010PropOp49
 70
     1
102
RTVSPost2010Prop50
 90
       50
102
RTVSPost2010PropOp50
 70
     1
102
RTVSPost2010Prop51ColorIndex
 90
      256
102
RTVSPost2010Prop51ColorRGB
 90
-16777216
102
RTVSPost2010PropOp51
 70
     0
102
RTVSPost2010Prop52
140
1.0
102
RTVSPost2010PropOp52
 70
     0
102
RTVSPost2010Prop53
 90
        2
102
RTVSPost2010PropOp53
 70
     1
102
RTVSPost2010Prop54
  1
strokes_ogs.tif
102
RTVSPost2010PropOp54
 70
     1
102
RTVSPost2010Prop55
280
     0
102
RTVSPost2010PropOp55
 70
     1
102
RTVSPost2010Prop56
140
1.0
102
RTVSPost2010PropOp56
 70
     1
102
RTVSPost2010Prop57
140
1.0
102
RTVSPost2010PropOp57
 70
     1
102
RTVSPropertyOp0
 70
     1
102
RTVSPropertyOp1
 70
     1
102
RTVSPropertyOp2
 70
     1
102
RTVSPropertyOp3
 70
     1
102
RTVSPropertyOp4
 70
     1
102
RTVSPropertyOp5
 70
     1
102
RTVSPropertyOp6
 70
     1
102
RTVSPropertyOp7
 70
     1
102
RTVSPropertyOp8
 70
     1
102
RTVSPropertyOp9
 70
     1
102
RTVSPropertyOp10
 70
     1
102
RTVSPropertyOp11
 70
     1
102
RTVSPropertyOp12
 70
     1
102
RTVSPropertyOp13
 70
     1
102
RTVSPropertyOp14
 70
     1
102
RTVSPropertyOp15
 70
     1
102
RTVSPropertyOp16
 70
     1
102
RTVSPropertyOp17
 70
     1
102
RTVSPropertyOp18
 70
     1
102
RTVSPropertyOp19
 70
     1
102
RTVSPropertyOp20
 70
     1
102
RTVSPropertyOp21
 70
     1
102
RTVSPropertyOp22
 70
     1
102
RTVSPropertyOp23
 70
     1
102
RTVSPropertyOp24
 70
     1
102
RTVSPropertyOp25
 70
     1
102
RTVSPropertyOp26
 70
     1
102
RTVSPropertyOp27
 70
     1
102
RTVSPropertyOp28
 70
     1
102
RTVSPropertyOp29
 70
     1
102
RTVSPropertyOp30
 70
     1
102
RTVSPropertyOp31
 70
     1
102
RTVSPropertyOp32
 70
     1
102
RTVSPropertyOp33
 70
     1
102
RTVSPropertyOp34
 70
     1
102
RTVSPropertyOp35
 70
     1
102
RTVSPropertyOp36
 70
     1
102
RTVSPropertyOp37
 70
     1
102
RTVSPropertyOp38
 70
     1
102
RTVSPropertyOp39
 70
     1
102
RTVSPropertyOp40
 70
     1
102
RTVSPropertyOp41
 70
     1
102
RTVSPropertyOp42
 70
     1
102
RTVSPropertyOp43
 70
     1
102
RTVSPropertyOp44
 70
     1
102
RTVSPropertyOp45
 70
     1
102
RTVSPropertyOp46
 70
     1
102
RTVSPropertyOp47
 70
     1
102
RTVSPropertyOp48
 70
     1
102
RTVSPropertyOp49
 70
     1
102
RTVSPropertyOp50
 70
     1
102
RTVSPropertyOp51
 70
     0
102
RTVSPropertyOp52
 70
     0
102
RTVSPropertyOp53
 70
     1
102
RTVSPropertyOp54
 70
     1
102
RTVSPropertyOp55
 70
     1
102
RTVSPropertyOp56
 70
     1
102
RTVSPropertyOp57
 70
     1
102
RTVSPropertyOp58
 70
     1
102
RTVSPropertyOp59
 70
     1
102
RTVSPropertyOp60
 70
     1
102
RTVSPropertyOp61
 70
     1
102
RTVSPropertyOp62
 70
     1
  0
XRECORD
  5
26F5
102
{ACAD_REACTORS
330
26F4
102
}
330
26F4
100
AcDbXrecord
280
     1
102
RTVSPost2010Prop28
280
     0
102
RTVSPost2010PropOp28
 70
     1
102
RTVSPost2010Prop29
280
     1
102
RTVSPost2010PropOp29
 70
     1
102
RTVSPost2010Prop30
280
     1
102
RTVSPost2010PropOp30
 70
     1
102
RTVSPost2010Prop31
280
     0
102
RTVSPost2010PropOp31
 70
     1
102
RTVSPost2010Prop32
280
     0
102
RTVSPost2010PropOp32
 70
     1
102
RTVSPost2010Prop33
280
     0
102
RTVSPost2010PropOp33
 70
     1
102
RTVSPost2010Prop34
280
     0
102
RTVSPost2010PropOp34
 70
     1
102
RTVSPost2010Prop35
280
     0
102
RTVSPost2010PropOp35
 70
     1
102
RTVSPost2010Prop36
280
     0
102
RTVSPost2010PropOp36
 70
     1
102
RTVSPost2010Prop37
 90
       50
102
RTVSPost2010PropOp37
 70
     1
102
RTVSPost2010Prop38
140
0.0
102
RTVSPost2010PropOp38
 70
     1
102
RTVSPost2010Prop39
140
1.0
102
RTVSPost2010PropOp39
 70
     1
102
RTVSPost2010Prop40
 90
        0
102
RTVSPost2010PropOp40
 70
     1
102
RTVSPost2010Prop41ColorIndex
 90
       18
102
RTVSPost2010Prop41ColorRGB
 90
        0
102
RTVSPost2010PropOp41
 70
     1
102
RTVSPost2010Prop42
 90
       50
102
RTVSPost2010PropOp42
 70
     1
102
RTVSPost2010Prop43
 90
        3
102
RTVSPost2010PropOp43
 70
     1
102
RTVSPost2010Prop44ColorIndex
 90
        5
102
RTVSPost2010Prop44ColorRGB
 90
      255
102
RTVSPost2010PropOp44
 70
     1
102
RTVSPost2010Prop45
280
     0
102
RTVSPost2010PropOp45
 70
     1
102
RTVSPost2010Prop46
 90
       50
102
RTVSPost2010PropOp46
 70
     1
102
RTVSPost2010Prop47
 90
       50
102
RTVSPost2010PropOp47
 70
     1
102
RTVSPost2010Prop48
 90
       50
102
RTVSPost2010PropOp48
 70
     1
102
RTVSPost2010Prop49
280
     0
102
RTVSPost2010PropOp49
 70
     1
102
RTVSPost2010Prop50
 90
       50
102
RTVSPost2010PropOp50
 70
     1
102
RTVSPost2010Prop51ColorIndex
 90
      256
102
RTVSPost2010Prop51ColorRGB
 90
-16777216
102
RTVSPost2010PropOp51
 70
     0
102
RTVSPost2010Prop52
140
1.0
102
RTVSPost2010PropOp52
 70
     0
102
RTVSPost2010Prop53
 90
        2
102
RTVSPost2010PropOp53
 70
     1
102
RTVSPost2010Prop54
  1
strokes_ogs.tif
102
RTVSPost2010PropOp54
 70
     1
102
RTVSPost2010Prop55
280
     0
102
RTVSPost2010PropOp55
 70
     1
102
RTVSPost2010Prop56
140
1.0
102
RTVSPost2010PropOp56
 70
     1
102
RTVSPost2010Prop57
140
1.0
102
RTVSPost2010PropOp57
 70
     1
102
RTVSPropertyOp0
 70
     1
102
RTVSPropertyOp1
 70
     1
102
RTVSPropertyOp2
 70
     1
102
RTVSPropertyOp3
 70
     1
102
RTVSPropertyOp4
 70
     1
102
RTVSPropertyOp5
 70
     1
102
RTVSPropertyOp6
 70
     1
102
RTVSPropertyOp7
 70
     1
102
RTVSPropertyOp8
 70
     1
102
RTVSPropertyOp9
 70
     1
102
RTVSPropertyOp10
 70
     1
102
RTVSPropertyOp11
 70
     1
102
RTVSPropertyOp12
 70
     1
102
RTVSPropertyOp13
 70
     1
102
RTVSPropertyOp14
 70
     1
102
RTVSPropertyOp15
 70
     1
102
RTVSPropertyOp16
 70
     1
102
RTVSPropertyOp17
 70
     1
102
RTVSPropertyOp18
 70
     1
102
RTVSPropertyOp19
 70
     1
102
RTVSPropertyOp20
 70
     1
102
RTVSPropertyOp21
 70
     1
102
RTVSPropertyOp22
 70
     1
102
RTVSPropertyOp23
 70
     1
102
RTVSPropertyOp24
 70
     1
102
RTVSPropertyOp25
 70
     1
102
RTVSPropertyOp26
 70
     1
102
RTVSPropertyOp27
 70
     1
102
RTVSPropertyOp28
 70
     1
102
RTVSPropertyOp29
 70
     1
102
RTVSPropertyOp30
 70
     1
102
RTVSPropertyOp31
 70
     1
102
RTVSPropertyOp32
 70
     1
102
RTVSPropertyOp33
 70
     1
102
RTVSPropertyOp34
 70
     1
102
RTVSPropertyOp35
 70
     1
102
RTVSPropertyOp36
 70
     1
102
RTVSPropertyOp37
 70
     1
102
RTVSPropertyOp38
 70
     1
102
RTVSPropertyOp39
 70
     1
102
RTVSPropertyOp40
 70
     1
102
RTVSPropertyOp41
 70
     1
102
RTVSPropertyOp42
 70
     1
102
RTVSPropertyOp43
 70
     1
102
RTVSPropertyOp44
 70
     1
102
RTVSPropertyOp45
 70
     1
102
RTVSPropertyOp46
 70
     1
102
RTVSPropertyOp47
 70
     1
102
RTVSPropertyOp48
 70
     1
102
RTVSPropertyOp49
 70
     1
102
RTVSPropertyOp50
 70
     1
102
RTVSPropertyOp51
 70
     0
102
RTVSPropertyOp52
 70
     0
102
RTVSPropertyOp53
 70
     1
102
RTVSPropertyOp54
 70
     1
102
RTVSPropertyOp55
 70
     1
102
RTVSPropertyOp56
 70
     1
102
RTVSPropertyOp57
 70
     1
102
RTVSPropertyOp58
 70
     1
102
RTVSPropertyOp59
 70
     1
102
RTVSPropertyOp60
 70
     1
102
RTVSPropertyOp61
 70
     1
102
RTVSPropertyOp62
 70
     1
  0
XRECORD
  5
2703
102
{ACAD_REACTORS
330
2702
102
}
330
2702
100
AcDbXrecord
280
     1
102
RTVSPost2010Prop28
280
     0
102
RTVSPost2010PropOp28
 70
     1
102
RTVSPost2010Prop29
280
     1
102
RTVSPost2010PropOp29
 70
     1
102
RTVSPost2010Prop30
280
     1
102
RTVSPost2010PropOp30
 70
     1
102
RTVSPost2010Prop31
280
     0
102
RTVSPost2010PropOp31
 70
     1
102
RTVSPost2010Prop32
280
     0
102
RTVSPost2010PropOp32
 70
     1
102
RTVSPost2010Prop33
280
     0
102
RTVSPost2010PropOp33
 70
     1
102
RTVSPost2010Prop34
280
     0
102
RTVSPost2010PropOp34
 70
     1
102
RTVSPost2010Prop35
280
     0
102
RTVSPost2010PropOp35
 70
     1
102
RTVSPost2010Prop36
280
     0
102
RTVSPost2010PropOp36
 70
     1
102
RTVSPost2010Prop37
 90
       50
102
RTVSPost2010PropOp37
 70
     1
102
RTVSPost2010Prop38
140
0.0
102
RTVSPost2010PropOp38
 70
     1
102
RTVSPost2010Prop39
140
1.0
102
RTVSPost2010PropOp39
 70
     1
102
RTVSPost2010Prop40
 90
        0
102
RTVSPost2010PropOp40
 70
     1
102
RTVSPost2010Prop41ColorIndex
 90
       18
102
RTVSPost2010Prop41ColorRGB
 90
        0
102
RTVSPost2010PropOp41
 70
     1
102
RTVSPost2010Prop42
 90
       50
102
RTVSPost2010PropOp42
 70
     1
102
RTVSPost2010Prop43
 90
        3
102
RTVSPost2010PropOp43
 70
     1
102
RTVSPost2010Prop44ColorIndex
 90
        5
102
RTVSPost2010Prop44ColorRGB
 90
      255
102
RTVSPost2010PropOp44
 70
     1
102
RTVSPost2010Prop45
280
     0
102
RTVSPost2010PropOp45
 70
     1
102
RTVSPost2010Prop46
 90
       50
102
RTVSPost2010PropOp46
 70
     1
102
RTVSPost2010Prop47
 90
       50
102
RTVSPost2010PropOp47
 70
     1
102
RTVSPost2010Prop48
 90
       50
102
RTVSPost2010PropOp48
 70
     1
102
RTVSPost2010Prop49
280
     0
102
RTVSPost2010PropOp49
 70
     1
102
RTVSPost2010Prop50
 90
       50
102
RTVSPost2010PropOp50
 70
     1
102
RTVSPost2010Prop51ColorIndex
 90
      256
102
RTVSPost2010Prop51ColorRGB
 90
-16777216
102
RTVSPost2010PropOp51
 70
     0
102
RTVSPost2010Prop52
140
1.0
102
RTVSPost2010PropOp52
 70
     0
102
RTVSPost2010Prop53
 90
        2
102
RTVSPost2010PropOp53
 70
     1
102
RTVSPost2010Prop54
  1
strokes_ogs.tif
102
RTVSPost2010PropOp54
 70
     1
102
RTVSPost2010Prop55
280
     0
102
RTVSPost2010PropOp55
 70
     1
102
RTVSPost2010Prop56
140
1.0
102
RTVSPost2010PropOp56
 70
     1
102
RTVSPost2010Prop57
140
1.0
102
RTVSPost2010PropOp57
 70
     1
102
RTVSPropertyOp0
 70
     1
102
RTVSPropertyOp1
 70
     1
102
RTVSPropertyOp2
 70
     1
102
RTVSPropertyOp3
 70
     1
102
RTVSPropertyOp4
 70
     1
102
RTVSPropertyOp5
 70
     1
102
RTVSPropertyOp6
 70
     1
102
RTVSPropertyOp7
 70
     1
102
RTVSPropertyOp8
 70
     1
102
RTVSPropertyOp9
 70
     1
102
RTVSPropertyOp10
 70
     1
102
RTVSPropertyOp11
 70
     1
102
RTVSPropertyOp12
 70
     1
102
RTVSPropertyOp13
 70
     1
102
RTVSPropertyOp14
 70
     1
102
RTVSPropertyOp15
 70
     1
102
RTVSPropertyOp16
 70
     1
102
RTVSPropertyOp17
 70
     1
102
RTVSPropertyOp18
 70
     1
102
RTVSPropertyOp19
 70
     1
102
RTVSPropertyOp20
 70
     1
102
RTVSPropertyOp21
 70
     1
102
RTVSPropertyOp22
 70
     1
102
RTVSPropertyOp23
 70
     1
102
RTVSPropertyOp24
 70
     1
102
RTVSPropertyOp25
 70
     1
102
RTVSPropertyOp26
 70
     1
102
RTVSPropertyOp27
 70
     1
102
RTVSPropertyOp28
 70
     1
102
RTVSPropertyOp29
 70
     1
102
RTVSPropertyOp30
 70
     1
102
RTVSPropertyOp31
 70
     1
102
RTVSPropertyOp32
 70
     1
102
RTVSPropertyOp33
 70
     1
102
RTVSPropertyOp34
 70
     1
102
RTVSPropertyOp35
 70
     1
102
RTVSPropertyOp36
 70
     1
102
RTVSPropertyOp37
 70
     1
102
RTVSPropertyOp38
 70
     1
102
RTVSPropertyOp39
 70
     1
102
RTVSPropertyOp40
 70
     1
102
RTVSPropertyOp41
 70
     1
102
RTVSPropertyOp42
 70
     1
102
RTVSPropertyOp43
 70
     1
102
RTVSPropertyOp44
 70
     1
102
RTVSPropertyOp45
 70
     1
102
RTVSPropertyOp46
 70
     1
102
RTVSPropertyOp47
 70
     1
102
RTVSPropertyOp48
 70
     1
102
RTVSPropertyOp49
 70
     1
102
RTVSPropertyOp50
 70
     1
102
RTVSPropertyOp51
 70
     0
102
RTVSPropertyOp52
 70
     0
102
RTVSPropertyOp53
 70
     1
102
RTVSPropertyOp54
 70
     1
102
RTVSPropertyOp55
 70
     1
102
RTVSPropertyOp56
 70
     1
102
RTVSPropertyOp57
 70
     1
102
RTVSPropertyOp58
 70
     1
102
RTVSPropertyOp59
 70
     1
102
RTVSPropertyOp60
 70
     1
102
RTVSPropertyOp61
 70
     1
102
RTVSPropertyOp62
 70
     1
  0
XRECORD
  5
270B
102
{ACAD_REACTORS
330
270A
102
}
330
270A
100
AcDbXrecord
280
     1
102
RTVSPost2010Prop28
280
     0
102
RTVSPost2010PropOp28
 70
     1
102
RTVSPost2010Prop29
280
     1
102
RTVSPost2010PropOp29
 70
     1
102
RTVSPost2010Prop30
280
     1
102
RTVSPost2010PropOp30
 70
     1
102
RTVSPost2010Prop31
280
     0
102
RTVSPost2010PropOp31
 70
     1
102
RTVSPost2010Prop32
280
     0
102
RTVSPost2010PropOp32
 70
     1
102
RTVSPost2010Prop33
280
     0
102
RTVSPost2010PropOp33
 70
     1
102
RTVSPost2010Prop34
280
     0
102
RTVSPost2010PropOp34
 70
     1
102
RTVSPost2010Prop35
280
     0
102
RTVSPost2010PropOp35
 70
     1
102
RTVSPost2010Prop36
280
     0
102
RTVSPost2010PropOp36
 70
     1
102
RTVSPost2010Prop37
 90
       50
102
RTVSPost2010PropOp37
 70
     1
102
RTVSPost2010Prop38
140
0.0
102
RTVSPost2010PropOp38
 70
     1
102
RTVSPost2010Prop39
140
1.0
102
RTVSPost2010PropOp39
 70
     1
102
RTVSPost2010Prop40
 90
        0
102
RTVSPost2010PropOp40
 70
     1
102
RTVSPost2010Prop41ColorIndex
 90
       18
102
RTVSPost2010Prop41ColorRGB
 90
        0
102
RTVSPost2010PropOp41
 70
     1
102
RTVSPost2010Prop42
 90
       50
102
RTVSPost2010PropOp42
 70
     1
102
RTVSPost2010Prop43
 90
        3
102
RTVSPost2010PropOp43
 70
     1
102
RTVSPost2010Prop44ColorIndex
 90
        5
102
RTVSPost2010Prop44ColorRGB
 90
      255
102
RTVSPost2010PropOp44
 70
     1
102
RTVSPost2010Prop45
280
     0
102
RTVSPost2010PropOp45
 70
     1
102
RTVSPost2010Prop46
 90
       50
102
RTVSPost2010PropOp46
 70
     1
102
RTVSPost2010Prop47
 90
       50
102
RTVSPost2010PropOp47
 70
     1
102
RTVSPost2010Prop48
 90
       50
102
RTVSPost2010PropOp48
 70
     1
102
RTVSPost2010Prop49
280
     0
102
RTVSPost2010PropOp49
 70
     1
102
RTVSPost2010Prop50
 90
       50
102
RTVSPost2010PropOp50
 70
     1
102
RTVSPost2010Prop51ColorIndex
 90
      256
102
RTVSPost2010Prop51ColorRGB
 90
-16777216
102
RTVSPost2010PropOp51
 70
     0
102
RTVSPost2010Prop52
140
1.0
102
RTVSPost2010PropOp52
 70
     0
102
RTVSPost2010Prop53
 90
        2
102
RTVSPost2010PropOp53
 70
     1
102
RTVSPost2010Prop54
  1
strokes_ogs.tif
102
RTVSPost2010PropOp54
 70
     1
102
RTVSPost2010Prop55
280
     0
102
RTVSPost2010PropOp55
 70
     1
102
RTVSPost2010Prop56
140
1.0
102
RTVSPost2010PropOp56
 70
     1
102
RTVSPost2010Prop57
140
1.0
102
RTVSPost2010PropOp57
 70
     1
102
RTVSPropertyOp0
 70
     1
102
RTVSPropertyOp1
 70
     1
102
RTVSPropertyOp2
 70
     1
102
RTVSPropertyOp3
 70
     1
102
RTVSPropertyOp4
 70
     1
102
RTVSPropertyOp5
 70
     1
102
RTVSPropertyOp6
 70
     1
102
RTVSPropertyOp7
 70
     1
102
RTVSPropertyOp8
 70
     1
102
RTVSPropertyOp9
 70
     1
102
RTVSPropertyOp10
 70
     1
102
RTVSPropertyOp11
 70
     1
102
RTVSPropertyOp12
 70
     1
102
RTVSPropertyOp13
 70
     1
102
RTVSPropertyOp14
 70
     1
102
RTVSPropertyOp15
 70
     1
102
RTVSPropertyOp16
 70
     1
102
RTVSPropertyOp17
 70
     1
102
RTVSPropertyOp18
 70
     1
102
RTVSPropertyOp19
 70
     1
102
RTVSPropertyOp20
 70
     1
102
RTVSPropertyOp21
 70
     1
102
RTVSPropertyOp22
 70
     1
102
RTVSPropertyOp23
 70
     1
102
RTVSPropertyOp24
 70
     1
102
RTVSPropertyOp25
 70
     1
102
RTVSPropertyOp26
 70
     1
102
RTVSPropertyOp27
 70
     1
102
RTVSPropertyOp28
 70
     1
102
RTVSPropertyOp29
 70
     1
102
RTVSPropertyOp30
 70
     1
102
RTVSPropertyOp31
 70
     1
102
RTVSPropertyOp32
 70
     1
102
RTVSPropertyOp33
 70
     1
102
RTVSPropertyOp34
 70
     1
102
RTVSPropertyOp35
 70
     1
102
RTVSPropertyOp36
 70
     1
102
RTVSPropertyOp37
 70
     1
102
RTVSPropertyOp38
 70
     1
102
RTVSPropertyOp39
 70
     1
102
RTVSPropertyOp40
 70
     1
102
RTVSPropertyOp41
 70
     1
102
RTVSPropertyOp42
 70
     1
102
RTVSPropertyOp43
 70
     1
102
RTVSPropertyOp44
 70
     1
102
RTVSPropertyOp45
 70
     1
102
RTVSPropertyOp46
 70
     1
102
RTVSPropertyOp47
 70
     1
102
RTVSPropertyOp48
 70
     1
102
RTVSPropertyOp49
 70
     1
102
RTVSPropertyOp50
 70
     1
102
RTVSPropertyOp51
 70
     0
102
RTVSPropertyOp52
 70
     0
102
RTVSPropertyOp53
 70
     1
102
RTVSPropertyOp54
 70
     1
102
RTVSPropertyOp55
 70
     1
102
RTVSPropertyOp56
 70
     1
102
RTVSPropertyOp57
 70
     1
102
RTVSPropertyOp58
 70
     1
102
RTVSPropertyOp59
 70
     1
102
RTVSPropertyOp60
 70
     1
102
RTVSPropertyOp61
 70
     1
102
RTVSPropertyOp62
 70
     1
  0
XRECORD
  5
26FD
102
{ACAD_REACTORS
330
26FC
102
}
330
26FC
100
AcDbXrecord
280
     1
102
RTVSPost2010Prop28
280
     0
102
RTVSPost2010PropOp28
 70
     1
102
RTVSPost2010Prop29
280
     1
102
RTVSPost2010PropOp29
 70
     1
102
RTVSPost2010Prop30
280
     1
102
RTVSPost2010PropOp30
 70
     1
102
RTVSPost2010Prop31
280
     0
102
RTVSPost2010PropOp31
 70
     1
102
RTVSPost2010Prop32
280
     0
102
RTVSPost2010PropOp32
 70
     1
102
RTVSPost2010Prop33
280
     0
102
RTVSPost2010PropOp33
 70
     1
102
RTVSPost2010Prop34
280
     0
102
RTVSPost2010PropOp34
 70
     1
102
RTVSPost2010Prop35
280
     0
102
RTVSPost2010PropOp35
 70
     1
102
RTVSPost2010Prop36
280
     0
102
RTVSPost2010PropOp36
 70
     1
102
RTVSPost2010Prop37
 90
       50
102
RTVSPost2010PropOp37
 70
     1
102
RTVSPost2010Prop38
140
0.0
102
RTVSPost2010PropOp38
 70
     1
102
RTVSPost2010Prop39
140
1.0
102
RTVSPost2010PropOp39
 70
     1
102
RTVSPost2010Prop40
 90
        0
102
RTVSPost2010PropOp40
 70
     1
102
RTVSPost2010Prop41ColorIndex
 90
       18
102
RTVSPost2010Prop41ColorRGB
 90
        0
102
RTVSPost2010PropOp41
 70
     1
102
RTVSPost2010Prop42
 90
       50
102
RTVSPost2010PropOp42
 70
     1
102
RTVSPost2010Prop43
 90
        3
102
RTVSPost2010PropOp43
 70
     1
102
RTVSPost2010Prop44ColorIndex
 90
        5
102
RTVSPost2010Prop44ColorRGB
 90
      255
102
RTVSPost2010PropOp44
 70
     1
102
RTVSPost2010Prop45
280
     0
102
RTVSPost2010PropOp45
 70
     1
102
RTVSPost2010Prop46
 90
       50
102
RTVSPost2010PropOp46
 70
     1
102
RTVSPost2010Prop47
 90
       50
102
RTVSPost2010PropOp47
 70
     1
102
RTVSPost2010Prop48
 90
       50
102
RTVSPost2010PropOp48
 70
     1
102
RTVSPost2010Prop49
280
     0
102
RTVSPost2010PropOp49
 70
     1
102
RTVSPost2010Prop50
 90
       50
102
RTVSPost2010PropOp50
 70
     1
102
RTVSPost2010Prop51ColorIndex
 90
      256
102
RTVSPost2010Prop51ColorRGB
 90
-16777216
102
RTVSPost2010PropOp51
 70
     0
102
RTVSPost2010Prop52
140
1.0
102
RTVSPost2010PropOp52
 70
     0
102
RTVSPost2010Prop53
 90
        2
102
RTVSPost2010PropOp53
 70
     1
102
RTVSPost2010Prop54
  1
strokes_ogs.tif
102
RTVSPost2010PropOp54
 70
     1
102
RTVSPost2010Prop55
280
     0
102
RTVSPost2010PropOp55
 70
     1
102
RTVSPost2010Prop56
140
1.0
102
RTVSPost2010PropOp56
 70
     1
102
RTVSPost2010Prop57
140
1.0
102
RTVSPost2010PropOp57
 70
     1
102
RTVSPropertyOp0
 70
     1
102
RTVSPropertyOp1
 70
     1
102
RTVSPropertyOp2
 70
     1
102
RTVSPropertyOp3
 70
     1
102
RTVSPropertyOp4
 70
     1
102
RTVSPropertyOp5
 70
     1
102
RTVSPropertyOp6
 70
     1
102
RTVSPropertyOp7
 70
     1
102
RTVSPropertyOp8
 70
     1
102
RTVSPropertyOp9
 70
     1
102
RTVSPropertyOp10
 70
     1
102
RTVSPropertyOp11
 70
     1
102
RTVSPropertyOp12
 70
     1
102
RTVSPropertyOp13
 70
     1
102
RTVSPropertyOp14
 70
     1
102
RTVSPropertyOp15
 70
     1
102
RTVSPropertyOp16
 70
     1
102
RTVSPropertyOp17
 70
     1
102
RTVSPropertyOp18
 70
     1
102
RTVSPropertyOp19
 70
     1
102
RTVSPropertyOp20
 70
     1
102
RTVSPropertyOp21
 70
     1
102
RTVSPropertyOp22
 70
     1
102
RTVSPropertyOp23
 70
     1
102
RTVSPropertyOp24
 70
     1
102
RTVSPropertyOp25
 70
     1
102
RTVSPropertyOp26
 70
     1
102
RTVSPropertyOp27
 70
     1
102
RTVSPropertyOp28
 70
     1
102
RTVSPropertyOp29
 70
     1
102
RTVSPropertyOp30
 70
     1
102
RTVSPropertyOp31
 70
     1
102
RTVSPropertyOp32
 70
     1
102
RTVSPropertyOp33
 70
     1
102
RTVSPropertyOp34
 70
     1
102
RTVSPropertyOp35
 70
     1
102
RTVSPropertyOp36
 70
     1
102
RTVSPropertyOp37
 70
     1
102
RTVSPropertyOp38
 70
     1
102
RTVSPropertyOp39
 70
     1
102
RTVSPropertyOp40
 70
     1
102
RTVSPropertyOp41
 70
     1
102
RTVSPropertyOp42
 70
     1
102
RTVSPropertyOp43
 70
     1
102
RTVSPropertyOp44
 70
     1
102
RTVSPropertyOp45
 70
     1
102
RTVSPropertyOp46
 70
     1
102
RTVSPropertyOp47
 70
     1
102
RTVSPropertyOp48
 70
     1
102
RTVSPropertyOp49
 70
     1
102
RTVSPropertyOp50
 70
     1
102
RTVSPropertyOp51
 70
     0
102
RTVSPropertyOp52
 70
     0
102
RTVSPropertyOp53
 70
     1
102
RTVSPropertyOp54
 70
     1
102
RTVSPropertyOp55
 70
     1
102
RTVSPropertyOp56
 70
     1
102
RTVSPropertyOp57
 70
     1
102
RTVSPropertyOp58
 70
     1
102
RTVSPropertyOp59
 70
     1
102
RTVSPropertyOp60
 70
     1
102
RTVSPropertyOp61
 70
     1
102
RTVSPropertyOp62
 70
     1
  0
XRECORD
  5
2701
102
{ACAD_REACTORS
330
2700
102
}
330
2700
100
AcDbXrecord
280
     1
102
RTVSPost2010Prop28
280
     0
102
RTVSPost2010PropOp28
 70
     1
102
RTVSPost2010Prop29
280
     1
102
RTVSPost2010PropOp29
 70
     1
102
RTVSPost2010Prop30
280
     1
102
RTVSPost2010PropOp30
 70
     1
102
RTVSPost2010Prop31
280
     0
102
RTVSPost2010PropOp31
 70
     1
102
RTVSPost2010Prop32
280
     0
102
RTVSPost2010PropOp32
 70
     1
102
RTVSPost2010Prop33
280
     0
102
RTVSPost2010PropOp33
 70
     1
102
RTVSPost2010Prop34
280
     0
102
RTVSPost2010PropOp34
 70
     1
102
RTVSPost2010Prop35
280
     0
102
RTVSPost2010PropOp35
 70
     1
102
RTVSPost2010Prop36
280
     0
102
RTVSPost2010PropOp36
 70
     1
102
RTVSPost2010Prop37
 90
       50
102
RTVSPost2010PropOp37
 70
     1
102
RTVSPost2010Prop38
140
0.0
102
RTVSPost2010PropOp38
 70
     1
102
RTVSPost2010Prop39
140
1.0
102
RTVSPost2010PropOp39
 70
     1
102
RTVSPost2010Prop40
 90
        0
102
RTVSPost2010PropOp40
 70
     1
102
RTVSPost2010Prop41ColorIndex
 90
       18
102
RTVSPost2010Prop41ColorRGB
 90
        0
102
RTVSPost2010PropOp41
 70
     1
102
RTVSPost2010Prop42
 90
       50
102
RTVSPost2010PropOp42
 70
     1
102
RTVSPost2010Prop43
 90
        3
102
RTVSPost2010PropOp43
 70
     1
102
RTVSPost2010Prop44ColorIndex
 90
        5
102
RTVSPost2010Prop44ColorRGB
 90
      255
102
RTVSPost2010PropOp44
 70
     1
102
RTVSPost2010Prop45
280
     0
102
RTVSPost2010PropOp45
 70
     1
102
RTVSPost2010Prop46
 90
       50
102
RTVSPost2010PropOp46
 70
     1
102
RTVSPost2010Prop47
 90
       50
102
RTVSPost2010PropOp47
 70
     1
102
RTVSPost2010Prop48
 90
       50
102
RTVSPost2010PropOp48
 70
     1
102
RTVSPost2010Prop49
280
     0
102
RTVSPost2010PropOp49
 70
     1
102
RTVSPost2010Prop50
 90
       50
102
RTVSPost2010PropOp50
 70
     1
102
RTVSPost2010Prop51ColorIndex
 90
      256
102
RTVSPost2010Prop51ColorRGB
 90
-16777216
102
RTVSPost2010PropOp51
 70
     0
102
RTVSPost2010Prop52
140
1.0
102
RTVSPost2010PropOp52
 70
     0
102
RTVSPost2010Prop53
 90
        2
102
RTVSPost2010PropOp53
 70
     1
102
RTVSPost2010Prop54
  1
strokes_ogs.tif
102
RTVSPost2010PropOp54
 70
     1
102
RTVSPost2010Prop55
280
     0
102
RTVSPost2010PropOp55
 70
     1
102
RTVSPost2010Prop56
140
1.0
102
RTVSPost2010PropOp56
 70
     1
102
RTVSPost2010Prop57
140
1.0
102
RTVSPost2010PropOp57
 70
     1
102
RTVSPropertyOp0
 70
     1
102
RTVSPropertyOp1
 70
     1
102
RTVSPropertyOp2
 70
     1
102
RTVSPropertyOp3
 70
     1
102
RTVSPropertyOp4
 70
     1
102
RTVSPropertyOp5
 70
     1
102
RTVSPropertyOp6
 70
     1
102
RTVSPropertyOp7
 70
     1
102
RTVSPropertyOp8
 70
     1
102
RTVSPropertyOp9
 70
     1
102
RTVSPropertyOp10
 70
     1
102
RTVSPropertyOp11
 70
     1
102
RTVSPropertyOp12
 70
     1
102
RTVSPropertyOp13
 70
     1
102
RTVSPropertyOp14
 70
     1
102
RTVSPropertyOp15
 70
     1
102
RTVSPropertyOp16
 70
     1
102
RTVSPropertyOp17
 70
     1
102
RTVSPropertyOp18
 70
     1
102
RTVSPropertyOp19
 70
     1
102
RTVSPropertyOp20
 70
     1
102
RTVSPropertyOp21
 70
     1
102
RTVSPropertyOp22
 70
     1
102
RTVSPropertyOp23
 70
     1
102
RTVSPropertyOp24
 70
     1
102
RTVSPropertyOp25
 70
     1
102
RTVSPropertyOp26
 70
     1
102
RTVSPropertyOp27
 70
     1
102
RTVSPropertyOp28
 70
     1
102
RTVSPropertyOp29
 70
     1
102
RTVSPropertyOp30
 70
     1
102
RTVSPropertyOp31
 70
     1
102
RTVSPropertyOp32
 70
     1
102
RTVSPropertyOp33
 70
     1
102
RTVSPropertyOp34
 70
     1
102
RTVSPropertyOp35
 70
     1
102
RTVSPropertyOp36
 70
     1
102
RTVSPropertyOp37
 70
     1
102
RTVSPropertyOp38
 70
     1
102
RTVSPropertyOp39
 70
     1
102
RTVSPropertyOp40
 70
     1
102
RTVSPropertyOp41
 70
     1
102
RTVSPropertyOp42
 70
     1
102
RTVSPropertyOp43
 70
     1
102
RTVSPropertyOp44
 70
     1
102
RTVSPropertyOp45
 70
     1
102
RTVSPropertyOp46
 70
     1
102
RTVSPropertyOp47
 70
     1
102
RTVSPropertyOp48
 70
     1
102
RTVSPropertyOp49
 70
     1
102
RTVSPropertyOp50
 70
     1
102
RTVSPropertyOp51
 70
     0
102
RTVSPropertyOp52
 70
     0
102
RTVSPropertyOp53
 70
     1
102
RTVSPropertyOp54
 70
     1
102
RTVSPropertyOp55
 70
     1
102
RTVSPropertyOp56
 70
     1
102
RTVSPropertyOp57
 70
     1
102
RTVSPropertyOp58
 70
     1
102
RTVSPropertyOp59
 70
     1
102
RTVSPropertyOp60
 70
     1
102
RTVSPropertyOp61
 70
     1
102
RTVSPropertyOp62
 70
     1
  0
XRECORD
  5
2711
102
{ACAD_REACTORS
330
2710
102
}
330
2710
100
AcDbXrecord
280
     1
102
RTVSPost2010Prop28
280
     0
102
RTVSPost2010PropOp28
 70
     1
102
RTVSPost2010Prop29
280
     1
102
RTVSPost2010PropOp29
 70
     1
102
RTVSPost2010Prop30
280
     1
102
RTVSPost2010PropOp30
 70
     1
102
RTVSPost2010Prop31
280
     0
102
RTVSPost2010PropOp31
 70
     1
102
RTVSPost2010Prop32
280
     0
102
RTVSPost2010PropOp32
 70
     1
102
RTVSPost2010Prop33
280
     0
102
RTVSPost2010PropOp33
 70
     1
102
RTVSPost2010Prop34
280
     0
102
RTVSPost2010PropOp34
 70
     1
102
RTVSPost2010Prop35
280
     0
102
RTVSPost2010PropOp35
 70
     1
102
RTVSPost2010Prop36
280
     0
102
RTVSPost2010PropOp36
 70
     1
102
RTVSPost2010Prop37
 90
       50
102
RTVSPost2010PropOp37
 70
     1
102
RTVSPost2010Prop38
140
0.0
102
RTVSPost2010PropOp38
 70
     1
102
RTVSPost2010Prop39
140
1.0
102
RTVSPost2010PropOp39
 70
     1
102
RTVSPost2010Prop40
 90
        0
102
RTVSPost2010PropOp40
 70
     1
102
RTVSPost2010Prop41ColorIndex
 90
       18
102
RTVSPost2010Prop41ColorRGB
 90
        0
102
RTVSPost2010PropOp41
 70
     1
102
RTVSPost2010Prop42
 90
       50
102
RTVSPost2010PropOp42
 70
     1
102
RTVSPost2010Prop43
 90
        3
102
RTVSPost2010PropOp43
 70
     1
102
RTVSPost2010Prop44ColorIndex
 90
        5
102
RTVSPost2010Prop44ColorRGB
 90
      255
102
RTVSPost2010PropOp44
 70
     1
102
RTVSPost2010Prop45
280
     0
102
RTVSPost2010PropOp45
 70
     1
102
RTVSPost2010Prop46
 90
       50
102
RTVSPost2010PropOp46
 70
     1
102
RTVSPost2010Prop47
 90
       50
102
RTVSPost2010PropOp47
 70
     1
102
RTVSPost2010Prop48
 90
       50
102
RTVSPost2010PropOp48
 70
     1
102
RTVSPost2010Prop49
280
     0
102
RTVSPost2010PropOp49
 70
     1
102
RTVSPost2010Prop50
 90
       50
102
RTVSPost2010PropOp50
 70
     1
102
RTVSPost2010Prop51ColorIndex
 90
      256
102
RTVSPost2010Prop51ColorRGB
 90
-16777216
102
RTVSPost2010PropOp51
 70
     0
102
RTVSPost2010Prop52
140
1.0
102
RTVSPost2010PropOp52
 70
     0
102
RTVSPost2010Prop53
 90
        2
102
RTVSPost2010PropOp53
 70
     1
102
RTVSPost2010Prop54
  1
strokes_ogs.tif
102
RTVSPost2010PropOp54
 70
     1
102
RTVSPost2010Prop55
280
     0
102
RTVSPost2010PropOp55
 70
     1
102
RTVSPost2010Prop56
140
1.0
102
RTVSPost2010PropOp56
 70
     1
102
RTVSPost2010Prop57
140
1.0
102
RTVSPost2010PropOp57
 70
     1
102
RTVSPropertyOp0
 70
     0
102
RTVSPropertyOp1
 70
     0
102
RTVSPropertyOp2
 70
     0
102
RTVSPropertyOp3
 70
     0
102
RTVSPropertyOp4
 70
     0
102
RTVSPropertyOp5
 70
     0
102
RTVSPropertyOp6
 70
     0
102
RTVSPropertyOp7
 70
     0
102
RTVSPropertyOp8
 70
     0
102
RTVSPropertyOp9
 70
     0
102
RTVSPropertyOp10
 70
     0
102
RTVSPropertyOp11
 70
     0
102
RTVSPropertyOp12
 70
     0
102
RTVSPropertyOp13
 70
     0
102
RTVSPropertyOp14
 70
     2
102
RTVSPropertyOp15
 70
     0
102
RTVSPropertyOp16
 70
     0
102
RTVSPropertyOp17
 70
     0
102
RTVSPropertyOp18
 70
     0
102
RTVSPropertyOp19
 70
     0
102
RTVSPropertyOp20
 70
     0
102
RTVSPropertyOp21
 70
     0
102
RTVSPropertyOp22
 70
     0
102
RTVSPropertyOp23
 70
     0
102
RTVSPropertyOp24
 70
     0
102
RTVSPropertyOp25
 70
     0
102
RTVSPropertyOp26
 70
     0
102
RTVSPropertyOp27
 70
     0
102
RTVSPropertyOp28
 70
     1
102
RTVSPropertyOp29
 70
     1
102
RTVSPropertyOp30
 70
     1
102
RTVSPropertyOp31
 70
     1
102
RTVSPropertyOp32
 70
     1
102
RTVSPropertyOp33
 70
     1
102
RTVSPropertyOp34
 70
     1
102
RTVSPropertyOp35
 70
     1
102
RTVSPropertyOp36
 70
     1
102
RTVSPropertyOp37
 70
     1
102
RTVSPropertyOp38
 70
     1
102
RTVSPropertyOp39
 70
     1
102
RTVSPropertyOp40
 70
     1
102
RTVSPropertyOp41
 70
     1
102
RTVSPropertyOp42
 70
     1
102
RTVSPropertyOp43
 70
     1
102
RTVSPropertyOp44
 70
     1
102
RTVSPropertyOp45
 70
     1
102
RTVSPropertyOp46
 70
     1
102
RTVSPropertyOp47
 70
     1
102
RTVSPropertyOp48
 70
     1
102
RTVSPropertyOp49
 70
     1
102
RTVSPropertyOp50
 70
     1
102
RTVSPropertyOp51
 70
     0
102
RTVSPropertyOp52
 70
     0
102
RTVSPropertyOp53
 70
     1
102
RTVSPropertyOp54
 70
     1
102
RTVSPropertyOp55
 70
     1
102
RTVSPropertyOp56
 70
     1
102
RTVSPropertyOp57
 70
     1
102
RTVSPropertyOp58
 70
     1
102
RTVSPropertyOp59
 70
     1
102
RTVSPropertyOp60
 70
     1
102
RTVSPropertyOp61
 70
     1
102
RTVSPropertyOp62
 70
     1
  0
XRECORD
  5
2709
102
{ACAD_REACTORS
330
2708
102
}
330
2708
100
AcDbXrecord
280
     1
102
RTVSPost2010Prop28
280
     0
102
RTVSPost2010PropOp28
 70
     1
102
RTVSPost2010Prop29
280
     1
102
RTVSPost2010PropOp29
 70
     1
102
RTVSPost2010Prop30
280
     1
102
RTVSPost2010PropOp30
 70
     1
102
RTVSPost2010Prop31
280
     0
102
RTVSPost2010PropOp31
 70
     1
102
RTVSPost2010Prop32
280
     0
102
RTVSPost2010PropOp32
 70
     1
102
RTVSPost2010Prop33
280
     0
102
RTVSPost2010PropOp33
 70
     1
102
RTVSPost2010Prop34
280
     0
102
RTVSPost2010PropOp34
 70
     1
102
RTVSPost2010Prop35
280
     0
102
RTVSPost2010PropOp35
 70
     1
102
RTVSPost2010Prop36
280
     0
102
RTVSPost2010PropOp36
 70
     1
102
RTVSPost2010Prop37
 90
       50
102
RTVSPost2010PropOp37
 70
     1
102
RTVSPost2010Prop38
140
0.0
102
RTVSPost2010PropOp38
 70
     1
102
RTVSPost2010Prop39
140
1.0
102
RTVSPost2010PropOp39
 70
     1
102
RTVSPost2010Prop40
 90
        0
102
RTVSPost2010PropOp40
 70
     1
102
RTVSPost2010Prop41ColorIndex
 90
       18
102
RTVSPost2010Prop41ColorRGB
 90
        0
102
RTVSPost2010PropOp41
 70
     1
102
RTVSPost2010Prop42
 90
       50
102
RTVSPost2010PropOp42
 70
     1
102
RTVSPost2010Prop43
 90
        3
102
RTVSPost2010PropOp43
 70
     1
102
RTVSPost2010Prop44ColorIndex
 90
        5
102
RTVSPost2010Prop44ColorRGB
 90
      255
102
RTVSPost2010PropOp44
 70
     1
102
RTVSPost2010Prop45
280
     0
102
RTVSPost2010PropOp45
 70
     1
102
RTVSPost2010Prop46
 90
       50
102
RTVSPost2010PropOp46
 70
     1
102
RTVSPost2010Prop47
 90
       50
102
RTVSPost2010PropOp47
 70
     1
102
RTVSPost2010Prop48
 90
       50
102
RTVSPost2010PropOp48
 70
     1
102
RTVSPost2010Prop49
280
     0
102
RTVSPost2010PropOp49
 70
     1
102
RTVSPost2010Prop50
 90
       50
102
RTVSPost2010PropOp50
 70
     1
102
RTVSPost2010Prop51ColorIndex
 90
      256
102
RTVSPost2010Prop51ColorRGB
 90
-16777216
102
RTVSPost2010PropOp51
 70
     0
102
RTVSPost2010Prop52
140
1.0
102
RTVSPost2010PropOp52
 70
     0
102
RTVSPost2010Prop53
 90
        2
102
RTVSPost2010PropOp53
 70
     1
102
RTVSPost2010Prop54
  1
strokes_ogs.tif
102
RTVSPost2010PropOp54
 70
     1
102
RTVSPost2010Prop55
280
     0
102
RTVSPost2010PropOp55
 70
     1
102
RTVSPost2010Prop56
140
1.0
102
RTVSPost2010PropOp56
 70
     1
102
RTVSPost2010Prop57
140
1.0
102
RTVSPost2010PropOp57
 70
     1
102
RTVSPropertyOp0
 70
     1
102
RTVSPropertyOp1
 70
     1
102
RTVSPropertyOp2
 70
     1
102
RTVSPropertyOp3
 70
     1
102
RTVSPropertyOp4
 70
     1
102
RTVSPropertyOp5
 70
     1
102
RTVSPropertyOp6
 70
     1
102
RTVSPropertyOp7
 70
     1
102
RTVSPropertyOp8
 70
     1
102
RTVSPropertyOp9
 70
     1
102
RTVSPropertyOp10
 70
     1
102
RTVSPropertyOp11
 70
     1
102
RTVSPropertyOp12
 70
     1
102
RTVSPropertyOp13
 70
     1
102
RTVSPropertyOp14
 70
     1
102
RTVSPropertyOp15
 70
     1
102
RTVSPropertyOp16
 70
     1
102
RTVSPropertyOp17
 70
     1
102
RTVSPropertyOp18
 70
     1
102
RTVSPropertyOp19
 70
     1
102
RTVSPropertyOp20
 70
     1
102
RTVSPropertyOp21
 70
     1
102
RTVSPropertyOp22
 70
     1
102
RTVSPropertyOp23
 70
     1
102
RTVSPropertyOp24
 70
     1
102
RTVSPropertyOp25
 70
     1
102
RTVSPropertyOp26
 70
     1
102
RTVSPropertyOp27
 70
     1
102
RTVSPropertyOp28
 70
     1
102
RTVSPropertyOp29
 70
     1
102
RTVSPropertyOp30
 70
     1
102
RTVSPropertyOp31
 70
     1
102
RTVSPropertyOp32
 70
     1
102
RTVSPropertyOp33
 70
     1
102
RTVSPropertyOp34
 70
     1
102
RTVSPropertyOp35
 70
     1
102
RTVSPropertyOp36
 70
     1
102
RTVSPropertyOp37
 70
     1
102
RTVSPropertyOp38
 70
     1
102
RTVSPropertyOp39
 70
     1
102
RTVSPropertyOp40
 70
     1
102
RTVSPropertyOp41
 70
     1
102
RTVSPropertyOp42
 70
     1
102
RTVSPropertyOp43
 70
     1
102
RTVSPropertyOp44
 70
     1
102
RTVSPropertyOp45
 70
     1
102
RTVSPropertyOp46
 70
     1
102
RTVSPropertyOp47
 70
     1
102
RTVSPropertyOp48
 70
     1
102
RTVSPropertyOp49
 70
     1
102
RTVSPropertyOp50
 70
     1
102
RTVSPropertyOp51
 70
     0
102
RTVSPropertyOp52
 70
     0
102
RTVSPropertyOp53
 70
     1
102
RTVSPropertyOp54
 70
     1
102
RTVSPropertyOp55
 70
     1
102
RTVSPropertyOp56
 70
     1
102
RTVSPropertyOp57
 70
     1
102
RTVSPropertyOp58
 70
     1
102
RTVSPropertyOp59
 70
     1
102
RTVSPropertyOp60
 70
     1
102
RTVSPropertyOp61
 70
     1
102
RTVSPropertyOp62
 70
     1
  0
XRECORD
  5
26ED
102
{ACAD_REACTORS
330
26EC
102
}
330
26EC
100
AcDbXrecord
280
     1
102
RTVSPost2010Prop28
280
     0
102
RTVSPost2010PropOp28
 70
     1
102
RTVSPost2010Prop29
280
     1
102
RTVSPost2010PropOp29
 70
     1
102
RTVSPost2010Prop30
280
     1
102
RTVSPost2010PropOp30
 70
     1
102
RTVSPost2010Prop31
280
     0
102
RTVSPost2010PropOp31
 70
     1
102
RTVSPost2010Prop32
280
     0
102
RTVSPost2010PropOp32
 70
     1
102
RTVSPost2010Prop33
280
     0
102
RTVSPost2010PropOp33
 70
     1
102
RTVSPost2010Prop34
280
     0
102
RTVSPost2010PropOp34
 70
     1
102
RTVSPost2010Prop35
280
     0
102
RTVSPost2010PropOp35
 70
     1
102
RTVSPost2010Prop36
280
     0
102
RTVSPost2010PropOp36
 70
     1
102
RTVSPost2010Prop37
 90
       50
102
RTVSPost2010PropOp37
 70
     1
102
RTVSPost2010Prop38
140
0.0
102
RTVSPost2010PropOp38
 70
     1
102
RTVSPost2010Prop39
140
1.0
102
RTVSPost2010PropOp39
 70
     1
102
RTVSPost2010Prop40
 90
        0
102
RTVSPost2010PropOp40
 70
     1
102
RTVSPost2010Prop41ColorIndex
 90
       18
102
RTVSPost2010Prop41ColorRGB
 90
        0
102
RTVSPost2010PropOp41
 70
     1
102
RTVSPost2010Prop42
 90
       50
102
RTVSPost2010PropOp42
 70
     1
102
RTVSPost2010Prop43
 90
        3
102
RTVSPost2010PropOp43
 70
     1
102
RTVSPost2010Prop44ColorIndex
 90
        5
102
RTVSPost2010Prop44ColorRGB
 90
      255
102
RTVSPost2010PropOp44
 70
     1
102
RTVSPost2010Prop45
280
     0
102
RTVSPost2010PropOp45
 70
     1
102
RTVSPost2010Prop46
 90
       50
102
RTVSPost2010PropOp46
 70
     1
102
RTVSPost2010Prop47
 90
       50
102
RTVSPost2010PropOp47
 70
     1
102
RTVSPost2010Prop48
 90
       50
102
RTVSPost2010PropOp48
 70
     1
102
RTVSPost2010Prop49
280
     0
102
RTVSPost2010PropOp49
 70
     1
102
RTVSPost2010Prop50
 90
       50
102
RTVSPost2010PropOp50
 70
     1
102
RTVSPost2010Prop51ColorIndex
 90
      256
102
RTVSPost2010Prop51ColorRGB
 90
-16777216
102
RTVSPost2010PropOp51
 70
     0
102
RTVSPost2010Prop52
140
1.0
102
RTVSPost2010PropOp52
 70
     0
102
RTVSPost2010Prop53
 90
        2
102
RTVSPost2010PropOp53
 70
     1
102
RTVSPost2010Prop54
  1
strokes_ogs.tif
102
RTVSPost2010PropOp54
 70
     1
102
RTVSPost2010Prop55
280
     0
102
RTVSPost2010PropOp55
 70
     1
102
RTVSPost2010Prop56
140
1.0
102
RTVSPost2010PropOp56
 70
     1
102
RTVSPost2010Prop57
140
1.0
102
RTVSPost2010PropOp57
 70
     1
102
RTVSPropertyOp0
 70
     1
102
RTVSPropertyOp1
 70
     1
102
RTVSPropertyOp2
 70
     1
102
RTVSPropertyOp3
 70
     1
102
RTVSPropertyOp4
 70
     1
102
RTVSPropertyOp5
 70
     1
102
RTVSPropertyOp6
 70
     1
102
RTVSPropertyOp7
 70
     1
102
RTVSPropertyOp8
 70
     1
102
RTVSPropertyOp9
 70
     1
102
RTVSPropertyOp10
 70
     1
102
RTVSPropertyOp11
 70
     1
102
RTVSPropertyOp12
 70
     1
102
RTVSPropertyOp13
 70
     1
102
RTVSPropertyOp14
 70
     1
102
RTVSPropertyOp15
 70
     1
102
RTVSPropertyOp16
 70
     1
102
RTVSPropertyOp17
 70
     1
102
RTVSPropertyOp18
 70
     1
102
RTVSPropertyOp19
 70
     1
102
RTVSPropertyOp20
 70
     1
102
RTVSPropertyOp21
 70
     1
102
RTVSPropertyOp22
 70
     1
102
RTVSPropertyOp23
 70
     1
102
RTVSPropertyOp24
 70
     1
102
RTVSPropertyOp25
 70
     1
102
RTVSPropertyOp26
 70
     1
102
RTVSPropertyOp27
 70
     1
102
RTVSPropertyOp28
 70
     1
102
RTVSPropertyOp29
 70
     1
102
RTVSPropertyOp30
 70
     1
102
RTVSPropertyOp31
 70
     1
102
RTVSPropertyOp32
 70
     1
102
RTVSPropertyOp33
 70
     1
102
RTVSPropertyOp34
 70
     1
102
RTVSPropertyOp35
 70
     1
102
RTVSPropertyOp36
 70
     1
102
RTVSPropertyOp37
 70
     1
102
RTVSPropertyOp38
 70
     1
102
RTVSPropertyOp39
 70
     1
102
RTVSPropertyOp40
 70
     1
102
RTVSPropertyOp41
 70
     1
102
RTVSPropertyOp42
 70
     1
102
RTVSPropertyOp43
 70
     1
102
RTVSPropertyOp44
 70
     1
102
RTVSPropertyOp45
 70
     1
102
RTVSPropertyOp46
 70
     1
102
RTVSPropertyOp47
 70
     1
102
RTVSPropertyOp48
 70
     1
102
RTVSPropertyOp49
 70
     1
102
RTVSPropertyOp50
 70
     1
102
RTVSPropertyOp51
 70
     0
102
RTVSPropertyOp52
 70
     0
102
RTVSPropertyOp53
 70
     1
102
RTVSPropertyOp54
 70
     1
102
RTVSPropertyOp55
 70
     1
102
RTVSPropertyOp56
 70
     1
102
RTVSPropertyOp57
 70
     1
102
RTVSPropertyOp58
 70
     1
102
RTVSPropertyOp59
 70
     1
102
RTVSPropertyOp60
 70
     1
102
RTVSPropertyOp61
 70
     1
102
RTVSPropertyOp62
 70
     1
  0
XRECORD
  5
26EF
102
{ACAD_REACTORS
330
26EE
102
}
330
26EE
100
AcDbXrecord
280
     1
102
RTVSPost2010Prop28
280
     0
102
RTVSPost2010PropOp28
 70
     1
102
RTVSPost2010Prop29
280
     1
102
RTVSPost2010PropOp29
 70
     1
102
RTVSPost2010Prop30
280
     1
102
RTVSPost2010PropOp30
 70
     1
102
RTVSPost2010Prop31
280
     0
102
RTVSPost2010PropOp31
 70
     1
102
RTVSPost2010Prop32
280
     0
102
RTVSPost2010PropOp32
 70
     1
102
RTVSPost2010Prop33
280
     0
102
RTVSPost2010PropOp33
 70
     1
102
RTVSPost2010Prop34
280
     0
102
RTVSPost2010PropOp34
 70
     1
102
RTVSPost2010Prop35
280
     0
102
RTVSPost2010PropOp35
 70
     1
102
RTVSPost2010Prop36
280
     0
102
RTVSPost2010PropOp36
 70
     1
102
RTVSPost2010Prop37
 90
       50
102
RTVSPost2010PropOp37
 70
     1
102
RTVSPost2010Prop38
140
0.0
102
RTVSPost2010PropOp38
 70
     1
102
RTVSPost2010Prop39
140
1.0
102
RTVSPost2010PropOp39
 70
     1
102
RTVSPost2010Prop40
 90
        0
102
RTVSPost2010PropOp40
 70
     1
102
RTVSPost2010Prop41ColorIndex
 90
       18
102
RTVSPost2010Prop41ColorRGB
 90
        0
102
RTVSPost2010PropOp41
 70
     1
102
RTVSPost2010Prop42
 90
       50
102
RTVSPost2010PropOp42
 70
     1
102
RTVSPost2010Prop43
 90
        3
102
RTVSPost2010PropOp43
 70
     1
102
RTVSPost2010Prop44ColorIndex
 90
        5
102
RTVSPost2010Prop44ColorRGB
 90
      255
102
RTVSPost2010PropOp44
 70
     1
102
RTVSPost2010Prop45
280
     0
102
RTVSPost2010PropOp45
 70
     1
102
RTVSPost2010Prop46
 90
       50
102
RTVSPost2010PropOp46
 70
     1
102
RTVSPost2010Prop47
 90
       50
102
RTVSPost2010PropOp47
 70
     1
102
RTVSPost2010Prop48
 90
       50
102
RTVSPost2010PropOp48
 70
     1
102
RTVSPost2010Prop49
280
     0
102
RTVSPost2010PropOp49
 70
     1
102
RTVSPost2010Prop50
 90
       50
102
RTVSPost2010PropOp50
 70
     1
102
RTVSPost2010Prop51ColorIndex
 90
      256
102
RTVSPost2010Prop51ColorRGB
 90
-16777216
102
RTVSPost2010PropOp51
 70
     0
102
RTVSPost2010Prop52
140
1.0
102
RTVSPost2010PropOp52
 70
     0
102
RTVSPost2010Prop53
 90
        2
102
RTVSPost2010PropOp53
 70
     1
102
RTVSPost2010Prop54
  1
strokes_ogs.tif
102
RTVSPost2010PropOp54
 70
     1
102
RTVSPost2010Prop55
280
     0
102
RTVSPost2010PropOp55
 70
     1
102
RTVSPost2010Prop56
140
1.0
102
RTVSPost2010PropOp56
 70
     1
102
RTVSPost2010Prop57
140
1.0
102
RTVSPost2010PropOp57
 70
     1
102
RTVSPropertyOp0
 70
     1
102
RTVSPropertyOp1
 70
     1
102
RTVSPropertyOp2
 70
     1
102
RTVSPropertyOp3
 70
     1
102
RTVSPropertyOp4
 70
     1
102
RTVSPropertyOp5
 70
     1
102
RTVSPropertyOp6
 70
     1
102
RTVSPropertyOp7
 70
     1
102
RTVSPropertyOp8
 70
     1
102
RTVSPropertyOp9
 70
     1
102
RTVSPropertyOp10
 70
     1
102
RTVSPropertyOp11
 70
     1
102
RTVSPropertyOp12
 70
     1
102
RTVSPropertyOp13
 70
     1
102
RTVSPropertyOp14
 70
     1
102
RTVSPropertyOp15
 70
     1
102
RTVSPropertyOp16
 70
     1
102
RTVSPropertyOp17
 70
     1
102
RTVSPropertyOp18
 70
     1
102
RTVSPropertyOp19
 70
     1
102
RTVSPropertyOp20
 70
     1
102
RTVSPropertyOp21
 70
     1
102
RTVSPropertyOp22
 70
     1
102
RTVSPropertyOp23
 70
     1
102
RTVSPropertyOp24
 70
     1
102
RTVSPropertyOp25
 70
     1
102
RTVSPropertyOp26
 70
     1
102
RTVSPropertyOp27
 70
     1
102
RTVSPropertyOp28
 70
     1
102
RTVSPropertyOp29
 70
     1
102
RTVSPropertyOp30
 70
     1
102
RTVSPropertyOp31
 70
     1
102
RTVSPropertyOp32
 70
     1
102
RTVSPropertyOp33
 70
     1
102
RTVSPropertyOp34
 70
     1
102
RTVSPropertyOp35
 70
     1
102
RTVSPropertyOp36
 70
     1
102
RTVSPropertyOp37
 70
     1
102
RTVSPropertyOp38
 70
     1
102
RTVSPropertyOp39
 70
     1
102
RTVSPropertyOp40
 70
     1
102
RTVSPropertyOp41
 70
     1
102
RTVSPropertyOp42
 70
     1
102
RTVSPropertyOp43
 70
     1
102
RTVSPropertyOp44
 70
     1
102
RTVSPropertyOp45
 70
     1
102
RTVSPropertyOp46
 70
     1
102
RTVSPropertyOp47
 70
     1
102
RTVSPropertyOp48
 70
     1
102
RTVSPropertyOp49
 70
     1
102
RTVSPropertyOp50
 70
     1
102
RTVSPropertyOp51
 70
     0
102
RTVSPropertyOp52
 70
     0
102
RTVSPropertyOp53
 70
     1
102
RTVSPropertyOp54
 70
     1
102
RTVSPropertyOp55
 70
     1
102
RTVSPropertyOp56
 70
     1
102
RTVSPropertyOp57
 70
     1
102
RTVSPropertyOp58
 70
     1
102
RTVSPropertyOp59
 70
     1
102
RTVSPropertyOp60
 70
     1
102
RTVSPropertyOp61
 70
     1
102
RTVSPropertyOp62
 70
     1
  0
XRECORD
  5
26F1
102
{ACAD_REACTORS
330
26F0
102
}
330
26F0
100
AcDbXrecord
280
     1
102
RTVSPost2010Prop28
280
     0
102
RTVSPost2010PropOp28
 70
     1
102
RTVSPost2010Prop29
280
     1
102
RTVSPost2010PropOp29
 70
     1
102
RTVSPost2010Prop30
280
     1
102
RTVSPost2010PropOp30
 70
     1
102
RTVSPost2010Prop31
280
     0
102
RTVSPost2010PropOp31
 70
     1
102
RTVSPost2010Prop32
280
     0
102
RTVSPost2010PropOp32
 70
     1
102
RTVSPost2010Prop33
280
     0
102
RTVSPost2010PropOp33
 70
     1
102
RTVSPost2010Prop34
280
     0
102
RTVSPost2010PropOp34
 70
     1
102
RTVSPost2010Prop35
280
     0
102
RTVSPost2010PropOp35
 70
     1
102
RTVSPost2010Prop36
280
     0
102
RTVSPost2010PropOp36
 70
     1
102
RTVSPost2010Prop37
 90
       50
102
RTVSPost2010PropOp37
 70
     1
102
RTVSPost2010Prop38
140
0.0
102
RTVSPost2010PropOp38
 70
     1
102
RTVSPost2010Prop39
140
1.0
102
RTVSPost2010PropOp39
 70
     1
102
RTVSPost2010Prop40
 90
        0
102
RTVSPost2010PropOp40
 70
     1
102
RTVSPost2010Prop41ColorIndex
 90
       18
102
RTVSPost2010Prop41ColorRGB
 90
        0
102
RTVSPost2010PropOp41
 70
     1
102
RTVSPost2010Prop42
 90
       50
102
RTVSPost2010PropOp42
 70
     1
102
RTVSPost2010Prop43
 90
        3
102
RTVSPost2010PropOp43
 70
     1
102
RTVSPost2010Prop44ColorIndex
 90
        5
102
RTVSPost2010Prop44ColorRGB
 90
      255
102
RTVSPost2010PropOp44
 70
     1
102
RTVSPost2010Prop45
280
     0
102
RTVSPost2010PropOp45
 70
     1
102
RTVSPost2010Prop46
 90
       50
102
RTVSPost2010PropOp46
 70
     1
102
RTVSPost2010Prop47
 90
       50
102
RTVSPost2010PropOp47
 70
     1
102
RTVSPost2010Prop48
 90
       50
102
RTVSPost2010PropOp48
 70
     1
102
RTVSPost2010Prop49
280
     0
102
RTVSPost2010PropOp49
 70
     1
102
RTVSPost2010Prop50
 90
       50
102
RTVSPost2010PropOp50
 70
     1
102
RTVSPost2010Prop51ColorIndex
 90
      256
102
RTVSPost2010Prop51ColorRGB
 90
-16777216
102
RTVSPost2010PropOp51
 70
     0
102
RTVSPost2010Prop52
140
1.0
102
RTVSPost2010PropOp52
 70
     0
102
RTVSPost2010Prop53
 90
        2
102
RTVSPost2010PropOp53
 70
     1
102
RTVSPost2010Prop54
  1
strokes_ogs.tif
102
RTVSPost2010PropOp54
 70
     1
102
RTVSPost2010Prop55
280
     0
102
RTVSPost2010PropOp55
 70
     1
102
RTVSPost2010Prop56
140
1.0
102
RTVSPost2010PropOp56
 70
     1
102
RTVSPost2010Prop57
140
1.0
102
RTVSPost2010PropOp57
 70
     1
102
RTVSPropertyOp0
 70
     1
102
RTVSPropertyOp1
 70
     1
102
RTVSPropertyOp2
 70
     1
102
RTVSPropertyOp3
 70
     1
102
RTVSPropertyOp4
 70
     1
102
RTVSPropertyOp5
 70
     1
102
RTVSPropertyOp6
 70
     1
102
RTVSPropertyOp7
 70
     1
102
RTVSPropertyOp8
 70
     1
102
RTVSPropertyOp9
 70
     1
102
RTVSPropertyOp10
 70
     1
102
RTVSPropertyOp11
 70
     1
102
RTVSPropertyOp12
 70
     1
102
RTVSPropertyOp13
 70
     1
102
RTVSPropertyOp14
 70
     1
102
RTVSPropertyOp15
 70
     1
102
RTVSPropertyOp16
 70
     1
102
RTVSPropertyOp17
 70
     1
102
RTVSPropertyOp18
 70
     1
102
RTVSPropertyOp19
 70
     1
102
RTVSPropertyOp20
 70
     1
102
RTVSPropertyOp21
 70
     1
102
RTVSPropertyOp22
 70
     1
102
RTVSPropertyOp23
 70
     1
102
RTVSPropertyOp24
 70
     1
102
RTVSPropertyOp25
 70
     1
102
RTVSPropertyOp26
 70
     1
102
RTVSPropertyOp27
 70
     1
102
RTVSPropertyOp28
 70
     1
102
RTVSPropertyOp29
 70
     1
102
RTVSPropertyOp30
 70
     1
102
RTVSPropertyOp31
 70
     1
102
RTVSPropertyOp32
 70
     1
102
RTVSPropertyOp33
 70
     1
102
RTVSPropertyOp34
 70
     1
102
RTVSPropertyOp35
 70
     1
102
RTVSPropertyOp36
 70
     1
102
RTVSPropertyOp37
 70
     1
102
RTVSPropertyOp38
 70
     1
102
RTVSPropertyOp39
 70
     1
102
RTVSPropertyOp40
 70
     1
102
RTVSPropertyOp41
 70
     1
102
RTVSPropertyOp42
 70
     1
102
RTVSPropertyOp43
 70
     1
102
RTVSPropertyOp44
 70
     1
102
RTVSPropertyOp45
 70
     1
102
RTVSPropertyOp46
 70
     1
102
RTVSPropertyOp47
 70
     1
102
RTVSPropertyOp48
 70
     1
102
RTVSPropertyOp49
 70
     1
102
RTVSPropertyOp50
 70
     1
102
RTVSPropertyOp51
 70
     0
102
RTVSPropertyOp52
 70
     0
102
RTVSPropertyOp53
 70
     1
102
RTVSPropertyOp54
 70
     1
102
RTVSPropertyOp55
 70
     1
102
RTVSPropertyOp56
 70
     1
102
RTVSPropertyOp57
 70
     1
102
RTVSPropertyOp58
 70
     1
102
RTVSPropertyOp59
 70
     1
102
RTVSPropertyOp60
 70
     1
102
RTVSPropertyOp61
 70
     1
102
RTVSPropertyOp62
 70
     1
  0
XRECORD
  5
26F3
102
{ACAD_REACTORS
330
26F2
102
}
330
26F2
100
AcDbXrecord
280
     1
102
RTVSPost2010Prop28
280
     0
102
RTVSPost2010PropOp28
 70
     1
102
RTVSPost2010Prop29
280
     1
102
RTVSPost2010PropOp29
 70
     1
102
RTVSPost2010Prop30
280
     1
102
RTVSPost2010PropOp30
 70
     1
102
RTVSPost2010Prop31
280
     0
102
RTVSPost2010PropOp31
 70
     1
102
RTVSPost2010Prop32
280
     0
102
RTVSPost2010PropOp32
 70
     1
102
RTVSPost2010Prop33
280
     0
102
RTVSPost2010PropOp33
 70
     1
102
RTVSPost2010Prop34
280
     0
102
RTVSPost2010PropOp34
 70
     1
102
RTVSPost2010Prop35
280
     0
102
RTVSPost2010PropOp35
 70
     1
102
RTVSPost2010Prop36
280
     0
102
RTVSPost2010PropOp36
 70
     1
102
RTVSPost2010Prop37
 90
       50
102
RTVSPost2010PropOp37
 70
     1
102
RTVSPost2010Prop38
140
0.0
102
RTVSPost2010PropOp38
 70
     1
102
RTVSPost2010Prop39
140
1.0
102
RTVSPost2010PropOp39
 70
     1
102
RTVSPost2010Prop40
 90
        0
102
RTVSPost2010PropOp40
 70
     1
102
RTVSPost2010Prop41ColorIndex
 90
       18
102
RTVSPost2010Prop41ColorRGB
 90
        0
102
RTVSPost2010PropOp41
 70
     1
102
RTVSPost2010Prop42
 90
       50
102
RTVSPost2010PropOp42
 70
     1
102
RTVSPost2010Prop43
 90
        3
102
RTVSPost2010PropOp43
 70
     1
102
RTVSPost2010Prop44ColorIndex
 90
        5
102
RTVSPost2010Prop44ColorRGB
 90
      255
102
RTVSPost2010PropOp44
 70
     1
102
RTVSPost2010Prop45
280
     0
102
RTVSPost2010PropOp45
 70
     1
102
RTVSPost2010Prop46
 90
       50
102
RTVSPost2010PropOp46
 70
     1
102
RTVSPost2010Prop47
 90
       50
102
RTVSPost2010PropOp47
 70
     1
102
RTVSPost2010Prop48
 90
       50
102
RTVSPost2010PropOp48
 70
     1
102
RTVSPost2010Prop49
280
     0
102
RTVSPost2010PropOp49
 70
     1
102
RTVSPost2010Prop50
 90
       50
102
RTVSPost2010PropOp50
 70
     1
102
RTVSPost2010Prop51ColorIndex
 90
      256
102
RTVSPost2010Prop51ColorRGB
 90
-16777216
102
RTVSPost2010PropOp51
 70
     0
102
RTVSPost2010Prop52
140
1.0
102
RTVSPost2010PropOp52
 70
     0
102
RTVSPost2010Prop53
 90
        2
102
RTVSPost2010PropOp53
 70
     1
102
RTVSPost2010Prop54
  1
strokes_ogs.tif
102
RTVSPost2010PropOp54
 70
     1
102
RTVSPost2010Prop55
280
     0
102
RTVSPost2010PropOp55
 70
     1
102
RTVSPost2010Prop56
140
1.0
102
RTVSPost2010PropOp56
 70
     1
102
RTVSPost2010Prop57
140
1.0
102
RTVSPost2010PropOp57
 70
     1
102
RTVSPropertyOp0
 70
     1
102
RTVSPropertyOp1
 70
     1
102
RTVSPropertyOp2
 70
     1
102
RTVSPropertyOp3
 70
     1
102
RTVSPropertyOp4
 70
     1
102
RTVSPropertyOp5
 70
     1
102
RTVSPropertyOp6
 70
     1
102
RTVSPropertyOp7
 70
     1
102
RTVSPropertyOp8
 70
     1
102
RTVSPropertyOp9
 70
     1
102
RTVSPropertyOp10
 70
     1
102
RTVSPropertyOp11
 70
     1
102
RTVSPropertyOp12
 70
     1
102
RTVSPropertyOp13
 70
     1
102
RTVSPropertyOp14
 70
     1
102
RTVSPropertyOp15
 70
     1
102
RTVSPropertyOp16
 70
     1
102
RTVSPropertyOp17
 70
     1
102
RTVSPropertyOp18
 70
     1
102
RTVSPropertyOp19
 70
     1
102
RTVSPropertyOp20
 70
     1
102
RTVSPropertyOp21
 70
     1
102
RTVSPropertyOp22
 70
     1
102
RTVSPropertyOp23
 70
     1
102
RTVSPropertyOp24
 70
     1
102
RTVSPropertyOp25
 70
     1
102
RTVSPropertyOp26
 70
     1
102
RTVSPropertyOp27
 70
     1
102
RTVSPropertyOp28
 70
     1
102
RTVSPropertyOp29
 70
     1
102
RTVSPropertyOp30
 70
     1
102
RTVSPropertyOp31
 70
     1
102
RTVSPropertyOp32
 70
     1
102
RTVSPropertyOp33
 70
     1
102
RTVSPropertyOp34
 70
     1
102
RTVSPropertyOp35
 70
     1
102
RTVSPropertyOp36
 70
     1
102
RTVSPropertyOp37
 70
     1
102
RTVSPropertyOp38
 70
     1
102
RTVSPropertyOp39
 70
     1
102
RTVSPropertyOp40
 70
     1
102
RTVSPropertyOp41
 70
     1
102
RTVSPropertyOp42
 70
     1
102
RTVSPropertyOp43
 70
     1
102
RTVSPropertyOp44
 70
     1
102
RTVSPropertyOp45
 70
     1
102
RTVSPropertyOp46
 70
     1
102
RTVSPropertyOp47
 70
     1
102
RTVSPropertyOp48
 70
     1
102
RTVSPropertyOp49
 70
     1
102
RTVSPropertyOp50
 70
     1
102
RTVSPropertyOp51
 70
     0
102
RTVSPropertyOp52
 70
     0
102
RTVSPropertyOp53
 70
     1
102
RTVSPropertyOp54
 70
     1
102
RTVSPropertyOp55
 70
     1
102
RTVSPropertyOp56
 70
     1
102
RTVSPropertyOp57
 70
     1
102
RTVSPropertyOp58
 70
     1
102
RTVSPropertyOp59
 70
     1
102
RTVSPropertyOp60
 70
     1
102
RTVSPropertyOp61
 70
     1
102
RTVSPropertyOp62
 70
     1
  0
XRECORD
  5
26FB
102
{ACAD_REACTORS
330
26FA
102
}
330
26FA
100
AcDbXrecord
280
     1
102
RTVSPost2010Prop28
280
     0
102
RTVSPost2010PropOp28
 70
     1
102
RTVSPost2010Prop29
280
     1
102
RTVSPost2010PropOp29
 70
     1
102
RTVSPost2010Prop30
280
     1
102
RTVSPost2010PropOp30
 70
     1
102
RTVSPost2010Prop31
280
     0
102
RTVSPost2010PropOp31
 70
     1
102
RTVSPost2010Prop32
280
     0
102
RTVSPost2010PropOp32
 70
     1
102
RTVSPost2010Prop33
280
     0
102
RTVSPost2010PropOp33
 70
     1
102
RTVSPost2010Prop34
280
     0
102
RTVSPost2010PropOp34
 70
     1
102
RTVSPost2010Prop35
280
     0
102
RTVSPost2010PropOp35
 70
     1
102
RTVSPost2010Prop36
280
     0
102
RTVSPost2010PropOp36
 70
     1
102
RTVSPost2010Prop37
 90
       50
102
RTVSPost2010PropOp37
 70
     1
102
RTVSPost2010Prop38
140
0.0
102
RTVSPost2010PropOp38
 70
     1
102
RTVSPost2010Prop39
140
1.0
102
RTVSPost2010PropOp39
 70
     1
102
RTVSPost2010Prop40
 90
        0
102
RTVSPost2010PropOp40
 70
     1
102
RTVSPost2010Prop41ColorIndex
 90
       18
102
RTVSPost2010Prop41ColorRGB
 90
        0
102
RTVSPost2010PropOp41
 70
     1
102
RTVSPost2010Prop42
 90
       50
102
RTVSPost2010PropOp42
 70
     1
102
RTVSPost2010Prop43
 90
        3
102
RTVSPost2010PropOp43
 70
     1
102
RTVSPost2010Prop44ColorIndex
 90
        5
102
RTVSPost2010Prop44ColorRGB
 90
      255
102
RTVSPost2010PropOp44
 70
     1
102
RTVSPost2010Prop45
280
     0
102
RTVSPost2010PropOp45
 70
     1
102
RTVSPost2010Prop46
 90
       50
102
RTVSPost2010PropOp46
 70
     1
102
RTVSPost2010Prop47
 90
       50
102
RTVSPost2010PropOp47
 70
     1
102
RTVSPost2010Prop48
 90
       50
102
RTVSPost2010PropOp48
 70
     1
102
RTVSPost2010Prop49
280
     0
102
RTVSPost2010PropOp49
 70
     1
102
RTVSPost2010Prop50
 90
       50
102
RTVSPost2010PropOp50
 70
     1
102
RTVSPost2010Prop51ColorIndex
 90
      256
102
RTVSPost2010Prop51ColorRGB
 90
-16777216
102
RTVSPost2010PropOp51
 70
     0
102
RTVSPost2010Prop52
140
1.0
102
RTVSPost2010PropOp52
 70
     0
102
RTVSPost2010Prop53
 90
        2
102
RTVSPost2010PropOp53
 70
     1
102
RTVSPost2010Prop54
  1
strokes_ogs.tif
102
RTVSPost2010PropOp54
 70
     1
102
RTVSPost2010Prop55
280
     0
102
RTVSPost2010PropOp55
 70
     1
102
RTVSPost2010Prop56
140
1.0
102
RTVSPost2010PropOp56
 70
     1
102
RTVSPost2010Prop57
140
1.0
102
RTVSPost2010PropOp57
 70
     1
102
RTVSPropertyOp0
 70
     1
102
RTVSPropertyOp1
 70
     1
102
RTVSPropertyOp2
 70
     1
102
RTVSPropertyOp3
 70
     1
102
RTVSPropertyOp4
 70
     1
102
RTVSPropertyOp5
 70
     1
102
RTVSPropertyOp6
 70
     1
102
RTVSPropertyOp7
 70
     1
102
RTVSPropertyOp8
 70
     1
102
RTVSPropertyOp9
 70
     1
102
RTVSPropertyOp10
 70
     1
102
RTVSPropertyOp11
 70
     1
102
RTVSPropertyOp12
 70
     1
102
RTVSPropertyOp13
 70
     1
102
RTVSPropertyOp14
 70
     1
102
RTVSPropertyOp15
 70
     1
102
RTVSPropertyOp16
 70
     1
102
RTVSPropertyOp17
 70
     1
102
RTVSPropertyOp18
 70
     1
102
RTVSPropertyOp19
 70
     1
102
RTVSPropertyOp20
 70
     1
102
RTVSPropertyOp21
 70
     1
102
RTVSPropertyOp22
 70
     1
102
RTVSPropertyOp23
 70
     1
102
RTVSPropertyOp24
 70
     1
102
RTVSPropertyOp25
 70
     1
102
RTVSPropertyOp26
 70
     1
102
RTVSPropertyOp27
 70
     1
102
RTVSPropertyOp28
 70
     1
102
RTVSPropertyOp29
 70
     1
102
RTVSPropertyOp30
 70
     1
102
RTVSPropertyOp31
 70
     1
102
RTVSPropertyOp32
 70
     1
102
RTVSPropertyOp33
 70
     1
102
RTVSPropertyOp34
 70
     1
102
RTVSPropertyOp35
 70
     1
102
RTVSPropertyOp36
 70
     1
102
RTVSPropertyOp37
 70
     1
102
RTVSPropertyOp38
 70
     1
102
RTVSPropertyOp39
 70
     1
102
RTVSPropertyOp40
 70
     1
102
RTVSPropertyOp41
 70
     1
102
RTVSPropertyOp42
 70
     1
102
RTVSPropertyOp43
 70
     1
102
RTVSPropertyOp44
 70
     1
102
RTVSPropertyOp45
 70
     1
102
RTVSPropertyOp46
 70
     1
102
RTVSPropertyOp47
 70
     1
102
RTVSPropertyOp48
 70
     1
102
RTVSPropertyOp49
 70
     1
102
RTVSPropertyOp50
 70
     1
102
RTVSPropertyOp51
 70
     0
102
RTVSPropertyOp52
 70
     0
102
RTVSPropertyOp53
 70
     1
102
RTVSPropertyOp54
 70
     1
102
RTVSPropertyOp55
 70
     1
102
RTVSPropertyOp56
 70
     1
102
RTVSPropertyOp57
 70
     1
102
RTVSPropertyOp58
 70
     1
102
RTVSPropertyOp59
 70
     1
102
RTVSPropertyOp60
 70
     1
102
RTVSPropertyOp61
 70
     1
102
RTVSPropertyOp62
 70
     1
  0
XRECORD
  5
270D
102
{ACAD_REACTORS
330
270C
102
}
330
270C
100
AcDbXrecord
280
     1
102
RTVSPost2010Prop28
280
     0
102
RTVSPost2010PropOp28
 70
     1
102
RTVSPost2010Prop29
280
     1
102
RTVSPost2010PropOp29
 70
     1
102
RTVSPost2010Prop30
280
     1
102
RTVSPost2010PropOp30
 70
     1
102
RTVSPost2010Prop31
280
     0
102
RTVSPost2010PropOp31
 70
     1
102
RTVSPost2010Prop32
280
     0
102
RTVSPost2010PropOp32
 70
     1
102
RTVSPost2010Prop33
280
     0
102
RTVSPost2010PropOp33
 70
     1
102
RTVSPost2010Prop34
280
     0
102
RTVSPost2010PropOp34
 70
     1
102
RTVSPost2010Prop35
280
     0
102
RTVSPost2010PropOp35
 70
     1
102
RTVSPost2010Prop36
280
     0
102
RTVSPost2010PropOp36
 70
     1
102
RTVSPost2010Prop37
 90
       50
102
RTVSPost2010PropOp37
 70
     1
102
RTVSPost2010Prop38
140
0.0
102
RTVSPost2010PropOp38
 70
     1
102
RTVSPost2010Prop39
140
1.0
102
RTVSPost2010PropOp39
 70
     1
102
RTVSPost2010Prop40
 90
        0
102
RTVSPost2010PropOp40
 70
     1
102
RTVSPost2010Prop41ColorIndex
 90
       18
102
RTVSPost2010Prop41ColorRGB
 90
        0
102
RTVSPost2010PropOp41
 70
     1
102
RTVSPost2010Prop42
 90
       50
102
RTVSPost2010PropOp42
 70
     1
102
RTVSPost2010Prop43
 90
        3
102
RTVSPost2010PropOp43
 70
     1
102
RTVSPost2010Prop44ColorIndex
 90
        5
102
RTVSPost2010Prop44ColorRGB
 90
      255
102
RTVSPost2010PropOp44
 70
     1
102
RTVSPost2010Prop45
280
     0
102
RTVSPost2010PropOp45
 70
     1
102
RTVSPost2010Prop46
 90
       50
102
RTVSPost2010PropOp46
 70
     1
102
RTVSPost2010Prop47
 90
       50
102
RTVSPost2010PropOp47
 70
     1
102
RTVSPost2010Prop48
 90
       50
102
RTVSPost2010PropOp48
 70
     1
102
RTVSPost2010Prop49
280
     0
102
RTVSPost2010PropOp49
 70
     1
102
RTVSPost2010Prop50
 90
       50
102
RTVSPost2010PropOp50
 70
     1
102
RTVSPost2010Prop51ColorIndex
 90
      256
102
RTVSPost2010Prop51ColorRGB
 90
-16777216
102
RTVSPost2010PropOp51
 70
     0
102
RTVSPost2010Prop52
140
1.0
102
RTVSPost2010PropOp52
 70
     0
102
RTVSPost2010Prop53
 90
        2
102
RTVSPost2010PropOp53
 70
     1
102
RTVSPost2010Prop54
  1
strokes_ogs.tif
102
RTVSPost2010PropOp54
 70
     1
102
RTVSPost2010Prop55
280
     0
102
RTVSPost2010PropOp55
 70
     1
102
RTVSPost2010Prop56
140
1.0
102
RTVSPost2010PropOp56
 70
     1
102
RTVSPost2010Prop57
140
1.0
102
RTVSPost2010PropOp57
 70
     1
102
RTVSPropertyOp0
 70
     0
102
RTVSPropertyOp1
 70
     0
102
RTVSPropertyOp2
 70
     0
102
RTVSPropertyOp3
 70
     0
102
RTVSPropertyOp4
 70
     0
102
RTVSPropertyOp5
 70
     0
102
RTVSPropertyOp6
 70
     0
102
RTVSPropertyOp7
 70
     0
102
RTVSPropertyOp8
 70
     0
102
RTVSPropertyOp9
 70
     0
102
RTVSPropertyOp10
 70
     0
102
RTVSPropertyOp11
 70
     0
102
RTVSPropertyOp12
 70
     0
102
RTVSPropertyOp13
 70
     0
102
RTVSPropertyOp14
 70
     2
102
RTVSPropertyOp15
 70
     0
102
RTVSPropertyOp16
 70
     0
102
RTVSPropertyOp17
 70
     0
102
RTVSPropertyOp18
 70
     0
102
RTVSPropertyOp19
 70
     0
102
RTVSPropertyOp20
 70
     0
102
RTVSPropertyOp21
 70
     0
102
RTVSPropertyOp22
 70
     0
102
RTVSPropertyOp23
 70
     0
102
RTVSPropertyOp24
 70
     0
102
RTVSPropertyOp25
 70
     0
102
RTVSPropertyOp26
 70
     0
102
RTVSPropertyOp27
 70
     0
102
RTVSPropertyOp28
 70
     1
102
RTVSPropertyOp29
 70
     1
102
RTVSPropertyOp30
 70
     1
102
RTVSPropertyOp31
 70
     1
102
RTVSPropertyOp32
 70
     1
102
RTVSPropertyOp33
 70
     1
102
RTVSPropertyOp34
 70
     1
102
RTVSPropertyOp35
 70
     1
102
RTVSPropertyOp36
 70
     1
102
RTVSPropertyOp37
 70
     1
102
RTVSPropertyOp38
 70
     1
102
RTVSPropertyOp39
 70
     1
102
RTVSPropertyOp40
 70
     1
102
RTVSPropertyOp41
 70
     1
102
RTVSPropertyOp42
 70
     1
102
RTVSPropertyOp43
 70
     1
102
RTVSPropertyOp44
 70
     1
102
RTVSPropertyOp45
 70
     1
102
RTVSPropertyOp46
 70
     1
102
RTVSPropertyOp47
 70
     1
102
RTVSPropertyOp48
 70
     1
102
RTVSPropertyOp49
 70
     1
102
RTVSPropertyOp50
 70
     1
102
RTVSPropertyOp51
 70
     0
102
RTVSPropertyOp52
 70
     0
102
RTVSPropertyOp53
 70
     1
102
RTVSPropertyOp54
 70
     1
102
RTVSPropertyOp55
 70
     1
102
RTVSPropertyOp56
 70
     1
102
RTVSPropertyOp57
 70
     1
102
RTVSPropertyOp58
 70
     1
102
RTVSPropertyOp59
 70
     1
102
RTVSPropertyOp60
 70
     1
102
RTVSPropertyOp61
 70
     1
102
RTVSPropertyOp62
 70
     1
  0
XRECORD
  5
2707
102
{ACAD_REACTORS
330
2706
102
}
330
2706
100
AcDbXrecord
280
     1
102
RTVSPost2010Prop28
280
     0
102
RTVSPost2010PropOp28
 70
     1
102
RTVSPost2010Prop29
280
     1
102
RTVSPost2010PropOp29
 70
     1
102
RTVSPost2010Prop30
280
     1
102
RTVSPost2010PropOp30
 70
     1
102
RTVSPost2010Prop31
280
     0
102
RTVSPost2010PropOp31
 70
     1
102
RTVSPost2010Prop32
280
     0
102
RTVSPost2010PropOp32
 70
     1
102
RTVSPost2010Prop33
280
     0
102
RTVSPost2010PropOp33
 70
     1
102
RTVSPost2010Prop34
280
     0
102
RTVSPost2010PropOp34
 70
     1
102
RTVSPost2010Prop35
280
     0
102
RTVSPost2010PropOp35
 70
     1
102
RTVSPost2010Prop36
280
     0
102
RTVSPost2010PropOp36
 70
     1
102
RTVSPost2010Prop37
 90
       50
102
RTVSPost2010PropOp37
 70
     1
102
RTVSPost2010Prop38
140
0.0
102
RTVSPost2010PropOp38
 70
     1
102
RTVSPost2010Prop39
140
1.0
102
RTVSPost2010PropOp39
 70
     1
102
RTVSPost2010Prop40
 90
        0
102
RTVSPost2010PropOp40
 70
     1
102
RTVSPost2010Prop41ColorIndex
 90
       18
102
RTVSPost2010Prop41ColorRGB
 90
        0
102
RTVSPost2010PropOp41
 70
     1
102
RTVSPost2010Prop42
 90
       50
102
RTVSPost2010PropOp42
 70
     1
102
RTVSPost2010Prop43
 90
        3
102
RTVSPost2010PropOp43
 70
     1
102
RTVSPost2010Prop44ColorIndex
 90
        5
102
RTVSPost2010Prop44ColorRGB
 90
      255
102
RTVSPost2010PropOp44
 70
     1
102
RTVSPost2010Prop45
280
     0
102
RTVSPost2010PropOp45
 70
     1
102
RTVSPost2010Prop46
 90
       50
102
RTVSPost2010PropOp46
 70
     1
102
RTVSPost2010Prop47
 90
       50
102
RTVSPost2010PropOp47
 70
     1
102
RTVSPost2010Prop48
 90
       50
102
RTVSPost2010PropOp48
 70
     1
102
RTVSPost2010Prop49
280
     0
102
RTVSPost2010PropOp49
 70
     1
102
RTVSPost2010Prop50
 90
       50
102
RTVSPost2010PropOp50
 70
     1
102
RTVSPost2010Prop51ColorIndex
 90
      256
102
RTVSPost2010Prop51ColorRGB
 90
-16777216
102
RTVSPost2010PropOp51
 70
     0
102
RTVSPost2010Prop52
140
1.0
102
RTVSPost2010PropOp52
 70
     0
102
RTVSPost2010Prop53
 90
        2
102
RTVSPost2010PropOp53
 70
     1
102
RTVSPost2010Prop54
  1
strokes_ogs.tif
102
RTVSPost2010PropOp54
 70
     1
102
RTVSPost2010Prop55
280
     0
102
RTVSPost2010PropOp55
 70
     1
102
RTVSPost2010Prop56
140
1.0
102
RTVSPost2010PropOp56
 70
     1
102
RTVSPost2010Prop57
140
1.0
102
RTVSPost2010PropOp57
 70
     1
102
RTVSPropertyOp0
 70
     1
102
RTVSPropertyOp1
 70
     1
102
RTVSPropertyOp2
 70
     1
102
RTVSPropertyOp3
 70
     1
102
RTVSPropertyOp4
 70
     1
102
RTVSPropertyOp5
 70
     1
102
RTVSPropertyOp6
 70
     1
102
RTVSPropertyOp7
 70
     1
102
RTVSPropertyOp8
 70
     1
102
RTVSPropertyOp9
 70
     1
102
RTVSPropertyOp10
 70
     1
102
RTVSPropertyOp11
 70
     1
102
RTVSPropertyOp12
 70
     1
102
RTVSPropertyOp13
 70
     1
102
RTVSPropertyOp14
 70
     1
102
RTVSPropertyOp15
 70
     1
102
RTVSPropertyOp16
 70
     1
102
RTVSPropertyOp17
 70
     1
102
RTVSPropertyOp18
 70
     1
102
RTVSPropertyOp19
 70
     1
102
RTVSPropertyOp20
 70
     1
102
RTVSPropertyOp21
 70
     1
102
RTVSPropertyOp22
 70
     1
102
RTVSPropertyOp23
 70
     1
102
RTVSPropertyOp24
 70
     1
102
RTVSPropertyOp25
 70
     1
102
RTVSPropertyOp26
 70
     1
102
RTVSPropertyOp27
 70
     1
102
RTVSPropertyOp28
 70
     1
102
RTVSPropertyOp29
 70
     1
102
RTVSPropertyOp30
 70
     1
102
RTVSPropertyOp31
 70
     1
102
RTVSPropertyOp32
 70
     1
102
RTVSPropertyOp33
 70
     1
102
RTVSPropertyOp34
 70
     1
102
RTVSPropertyOp35
 70
     1
102
RTVSPropertyOp36
 70
     1
102
RTVSPropertyOp37
 70
     1
102
RTVSPropertyOp38
 70
     1
102
RTVSPropertyOp39
 70
     1
102
RTVSPropertyOp40
 70
     1
102
RTVSPropertyOp41
 70
     1
102
RTVSPropertyOp42
 70
     1
102
RTVSPropertyOp43
 70
     1
102
RTVSPropertyOp44
 70
     1
102
RTVSPropertyOp45
 70
     1
102
RTVSPropertyOp46
 70
     1
102
RTVSPropertyOp47
 70
     1
102
RTVSPropertyOp48
 70
     1
102
RTVSPropertyOp49
 70
     1
102
RTVSPropertyOp50
 70
     1
102
RTVSPropertyOp51
 70
     0
102
RTVSPropertyOp52
 70
     0
102
RTVSPropertyOp53
 70
     1
102
RTVSPropertyOp54
 70
     1
102
RTVSPropertyOp55
 70
     1
102
RTVSPropertyOp56
 70
     1
102
RTVSPropertyOp57
 70
     1
102
RTVSPropertyOp58
 70
     1
102
RTVSPropertyOp59
 70
     1
102
RTVSPropertyOp60
 70
     1
102
RTVSPropertyOp61
 70
     1
102
RTVSPropertyOp62
 70
     1
  0
XRECORD
  5
270F
102
{ACAD_REACTORS
330
270E
102
}
330
270E
100
AcDbXrecord
280
     1
102
RTVSPost2010Prop28
280
     0
102
RTVSPost2010PropOp28
 70
     1
102
RTVSPost2010Prop29
280
     1
102
RTVSPost2010PropOp29
 70
     1
102
RTVSPost2010Prop30
280
     1
102
RTVSPost2010PropOp30
 70
     1
102
RTVSPost2010Prop31
280
     0
102
RTVSPost2010PropOp31
 70
     1
102
RTVSPost2010Prop32
280
     0
102
RTVSPost2010PropOp32
 70
     1
102
RTVSPost2010Prop33
280
     0
102
RTVSPost2010PropOp33
 70
     1
102
RTVSPost2010Prop34
280
     0
102
RTVSPost2010PropOp34
 70
     1
102
RTVSPost2010Prop35
280
     0
102
RTVSPost2010PropOp35
 70
     1
102
RTVSPost2010Prop36
280
     0
102
RTVSPost2010PropOp36
 70
     1
102
RTVSPost2010Prop37
 90
       50
102
RTVSPost2010PropOp37
 70
     1
102
RTVSPost2010Prop38
140
0.0
102
RTVSPost2010PropOp38
 70
     1
102
RTVSPost2010Prop39
140
1.0
102
RTVSPost2010PropOp39
 70
     1
102
RTVSPost2010Prop40
 90
        0
102
RTVSPost2010PropOp40
 70
     1
102
RTVSPost2010Prop41ColorIndex
 90
       18
102
RTVSPost2010Prop41ColorRGB
 90
        0
102
RTVSPost2010PropOp41
 70
     1
102
RTVSPost2010Prop42
 90
       50
102
RTVSPost2010PropOp42
 70
     1
102
RTVSPost2010Prop43
 90
        3
102
RTVSPost2010PropOp43
 70
     1
102
RTVSPost2010Prop44ColorIndex
 90
        5
102
RTVSPost2010Prop44ColorRGB
 90
      255
102
RTVSPost2010PropOp44
 70
     1
102
RTVSPost2010Prop45
280
     0
102
RTVSPost2010PropOp45
 70
     1
102
RTVSPost2010Prop46
 90
       50
102
RTVSPost2010PropOp46
 70
     1
102
RTVSPost2010Prop47
 90
       50
102
RTVSPost2010PropOp47
 70
     1
102
RTVSPost2010Prop48
 90
       50
102
RTVSPost2010PropOp48
 70
     1
102
RTVSPost2010Prop49
280
     0
102
RTVSPost2010PropOp49
 70
     1
102
RTVSPost2010Prop50
 90
       50
102
RTVSPost2010PropOp50
 70
     1
102
RTVSPost2010Prop51ColorIndex
 90
      256
102
RTVSPost2010Prop51ColorRGB
 90
-16777216
102
RTVSPost2010PropOp51
 70
     0
102
RTVSPost2010Prop52
140
1.0
102
RTVSPost2010PropOp52
 70
     0
102
RTVSPost2010Prop53
 90
        2
102
RTVSPost2010PropOp53
 70
     1
102
RTVSPost2010Prop54
  1
strokes_ogs.tif
102
RTVSPost2010PropOp54
 70
     1
102
RTVSPost2010Prop55
280
     0
102
RTVSPost2010PropOp55
 70
     1
102
RTVSPost2010Prop56
140
1.0
102
RTVSPost2010PropOp56
 70
     1
102
RTVSPost2010Prop57
140
1.0
102
RTVSPost2010PropOp57
 70
     1
102
RTVSPropertyOp0
 70
     0
102
RTVSPropertyOp1
 70
     0
102
RTVSPropertyOp2
 70
     0
102
RTVSPropertyOp3
 70
     0
102
RTVSPropertyOp4
 70
     0
102
RTVSPropertyOp5
 70
     0
102
RTVSPropertyOp6
 70
     0
102
RTVSPropertyOp7
 70
     0
102
RTVSPropertyOp8
 70
     0
102
RTVSPropertyOp9
 70
     0
102
RTVSPropertyOp10
 70
     0
102
RTVSPropertyOp11
 70
     0
102
RTVSPropertyOp12
 70
     0
102
RTVSPropertyOp13
 70
     0
102
RTVSPropertyOp14
 70
     2
102
RTVSPropertyOp15
 70
     0
102
RTVSPropertyOp16
 70
     0
102
RTVSPropertyOp17
 70
     0
102
RTVSPropertyOp18
 70
     0
102
RTVSPropertyOp19
 70
     0
102
RTVSPropertyOp20
 70
     0
102
RTVSPropertyOp21
 70
     0
102
RTVSPropertyOp22
 70
     0
102
RTVSPropertyOp23
 70
     0
102
RTVSPropertyOp24
 70
     0
102
RTVSPropertyOp25
 70
     0
102
RTVSPropertyOp26
 70
     0
102
RTVSPropertyOp27
 70
     0
102
RTVSPropertyOp28
 70
     1
102
RTVSPropertyOp29
 70
     1
102
RTVSPropertyOp30
 70
     1
102
RTVSPropertyOp31
 70
     1
102
RTVSPropertyOp32
 70
     1
102
RTVSPropertyOp33
 70
     1
102
RTVSPropertyOp34
 70
     1
102
RTVSPropertyOp35
 70
     1
102
RTVSPropertyOp36
 70
     1
102
RTVSPropertyOp37
 70
     1
102
RTVSPropertyOp38
 70
     1
102
RTVSPropertyOp39
 70
     1
102
RTVSPropertyOp40
 70
     1
102
RTVSPropertyOp41
 70
     1
102
RTVSPropertyOp42
 70
     1
102
RTVSPropertyOp43
 70
     1
102
RTVSPropertyOp44
 70
     1
102
RTVSPropertyOp45
 70
     1
102
RTVSPropertyOp46
 70
     1
102
RTVSPropertyOp47
 70
     1
102
RTVSPropertyOp48
 70
     1
102
RTVSPropertyOp49
 70
     1
102
RTVSPropertyOp50
 70
     1
102
RTVSPropertyOp51
 70
     0
102
RTVSPropertyOp52
 70
     0
102
RTVSPropertyOp53
 70
     1
102
RTVSPropertyOp54
 70
     1
102
RTVSPropertyOp55
 70
     1
102
RTVSPropertyOp56
 70
     1
102
RTVSPropertyOp57
 70
     1
102
RTVSPropertyOp58
 70
     1
102
RTVSPropertyOp59
 70
     1
102
RTVSPropertyOp60
 70
     1
102
RTVSPropertyOp61
 70
     1
102
RTVSPropertyOp62
 70
     1
  0
XRECORD
  5
26FF
102
{ACAD_REACTORS
330
26FE
102
}
330
26FE
100
AcDbXrecord
280
     1
102
RTVSPost2010Prop28
280
     0
102
RTVSPost2010PropOp28
 70
     1
102
RTVSPost2010Prop29
280
     1
102
RTVSPost2010PropOp29
 70
     1
102
RTVSPost2010Prop30
280
     1
102
RTVSPost2010PropOp30
 70
     1
102
RTVSPost2010Prop31
280
     0
102
RTVSPost2010PropOp31
 70
     1
102
RTVSPost2010Prop32
280
     0
102
RTVSPost2010PropOp32
 70
     1
102
RTVSPost2010Prop33
280
     0
102
RTVSPost2010PropOp33
 70
     1
102
RTVSPost2010Prop34
280
     0
102
RTVSPost2010PropOp34
 70
     1
102
RTVSPost2010Prop35
280
     0
102
RTVSPost2010PropOp35
 70
     1
102
RTVSPost2010Prop36
280
     0
102
RTVSPost2010PropOp36
 70
     1
102
RTVSPost2010Prop37
 90
       50
102
RTVSPost2010PropOp37
 70
     1
102
RTVSPost2010Prop38
140
0.0
102
RTVSPost2010PropOp38
 70
     1
102
RTVSPost2010Prop39
140
1.0
102
RTVSPost2010PropOp39
 70
     1
102
RTVSPost2010Prop40
 90
        0
102
RTVSPost2010PropOp40
 70
     1
102
RTVSPost2010Prop41ColorIndex
 90
       18
102
RTVSPost2010Prop41ColorRGB
 90
        0
102
RTVSPost2010PropOp41
 70
     1
102
RTVSPost2010Prop42
 90
       50
102
RTVSPost2010PropOp42
 70
     1
102
RTVSPost2010Prop43
 90
        3
102
RTVSPost2010PropOp43
 70
     1
102
RTVSPost2010Prop44ColorIndex
 90
        5
102
RTVSPost2010Prop44ColorRGB
 90
      255
102
RTVSPost2010PropOp44
 70
     1
102
RTVSPost2010Prop45
280
     0
102
RTVSPost2010PropOp45
 70
     1
102
RTVSPost2010Prop46
 90
       50
102
RTVSPost2010PropOp46
 70
     1
102
RTVSPost2010Prop47
 90
       50
102
RTVSPost2010PropOp47
 70
     1
102
RTVSPost2010Prop48
 90
       50
102
RTVSPost2010PropOp48
 70
     1
102
RTVSPost2010Prop49
280
     0
102
RTVSPost2010PropOp49
 70
     1
102
RTVSPost2010Prop50
 90
       50
102
RTVSPost2010PropOp50
 70
     1
102
RTVSPost2010Prop51ColorIndex
 90
      256
102
RTVSPost2010Prop51ColorRGB
 90
-16777216
102
RTVSPost2010PropOp51
 70
     0
102
RTVSPost2010Prop52
140
1.0
102
RTVSPost2010PropOp52
 70
     0
102
RTVSPost2010Prop53
 90
        2
102
RTVSPost2010PropOp53
 70
     1
102
RTVSPost2010Prop54
  1
strokes_ogs.tif
102
RTVSPost2010PropOp54
 70
     1
102
RTVSPost2010Prop55
280
     0
102
RTVSPost2010PropOp55
 70
     1
102
RTVSPost2010Prop56
140
1.0
102
RTVSPost2010PropOp56
 70
     1
102
RTVSPost2010Prop57
140
1.0
102
RTVSPost2010PropOp57
 70
     1
102
RTVSPropertyOp0
 70
     1
102
RTVSPropertyOp1
 70
     1
102
RTVSPropertyOp2
 70
     1
102
RTVSPropertyOp3
 70
     1
102
RTVSPropertyOp4
 70
     1
102
RTVSPropertyOp5
 70
     1
102
RTVSPropertyOp6
 70
     1
102
RTVSPropertyOp7
 70
     1
102
RTVSPropertyOp8
 70
     1
102
RTVSPropertyOp9
 70
     1
102
RTVSPropertyOp10
 70
     1
102
RTVSPropertyOp11
 70
     1
102
RTVSPropertyOp12
 70
     1
102
RTVSPropertyOp13
 70
     1
102
RTVSPropertyOp14
 70
     1
102
RTVSPropertyOp15
 70
     1
102
RTVSPropertyOp16
 70
     1
102
RTVSPropertyOp17
 70
     1
102
RTVSPropertyOp18
 70
     1
102
RTVSPropertyOp19
 70
     1
102
RTVSPropertyOp20
 70
     1
102
RTVSPropertyOp21
 70
     1
102
RTVSPropertyOp22
 70
     1
102
RTVSPropertyOp23
 70
     1
102
RTVSPropertyOp24
 70
     1
102
RTVSPropertyOp25
 70
     1
102
RTVSPropertyOp26
 70
     1
102
RTVSPropertyOp27
 70
     1
102
RTVSPropertyOp28
 70
     1
102
RTVSPropertyOp29
 70
     1
102
RTVSPropertyOp30
 70
     1
102
RTVSPropertyOp31
 70
     1
102
RTVSPropertyOp32
 70
     1
102
RTVSPropertyOp33
 70
     1
102
RTVSPropertyOp34
 70
     1
102
RTVSPropertyOp35
 70
     1
102
RTVSPropertyOp36
 70
     1
102
RTVSPropertyOp37
 70
     1
102
RTVSPropertyOp38
 70
     1
102
RTVSPropertyOp39
 70
     1
102
RTVSPropertyOp40
 70
     1
102
RTVSPropertyOp41
 70
     1
102
RTVSPropertyOp42
 70
     1
102
RTVSPropertyOp43
 70
     1
102
RTVSPropertyOp44
 70
     1
102
RTVSPropertyOp45
 70
     1
102
RTVSPropertyOp46
 70
     1
102
RTVSPropertyOp47
 70
     1
102
RTVSPropertyOp48
 70
     1
102
RTVSPropertyOp49
 70
     1
102
RTVSPropertyOp50
 70
     1
102
RTVSPropertyOp51
 70
     0
102
RTVSPropertyOp52
 70
     0
102
RTVSPropertyOp53
 70
     1
102
RTVSPropertyOp54
 70
     1
102
RTVSPropertyOp55
 70
     1
102
RTVSPropertyOp56
 70
     1
102
RTVSPropertyOp57
 70
     1
102
RTVSPropertyOp58
 70
     1
102
RTVSPropertyOp59
 70
     1
102
RTVSPropertyOp60
 70
     1
102
RTVSPropertyOp61
 70
     1
102
RTVSPropertyOp62
 70
     1
  0
XRECORD
  5
271B
102
{ACAD_REACTORS
330
271A
102
}
330
271A
100
AcDbXrecord
280
     1
102
RTVSPost2010Prop28
280
     0
102
RTVSPost2010PropOp28
 70
     1
102
RTVSPost2010Prop29
280
     1
102
RTVSPost2010PropOp29
 70
     1
102
RTVSPost2010Prop30
280
     1
102
RTVSPost2010PropOp30
 70
     1
102
RTVSPost2010Prop31
280
     0
102
RTVSPost2010PropOp31
 70
     1
102
RTVSPost2010Prop32
280
     0
102
RTVSPost2010PropOp32
 70
     1
102
RTVSPost2010Prop33
280
     0
102
RTVSPost2010PropOp33
 70
     1
102
RTVSPost2010Prop34
280
     0
102
RTVSPost2010PropOp34
 70
     1
102
RTVSPost2010Prop35
280
     0
102
RTVSPost2010PropOp35
 70
     1
102
RTVSPost2010Prop36
280
     0
102
RTVSPost2010PropOp36
 70
     1
102
RTVSPost2010Prop37
 90
       50
102
RTVSPost2010PropOp37
 70
     1
102
RTVSPost2010Prop38
140
0.0
102
RTVSPost2010PropOp38
 70
     1
102
RTVSPost2010Prop39
140
1.0
102
RTVSPost2010PropOp39
 70
     1
102
RTVSPost2010Prop40
 90
        0
102
RTVSPost2010PropOp40
 70
     1
102
RTVSPost2010Prop41ColorIndex
 90
       18
102
RTVSPost2010Prop41ColorRGB
 90
        0
102
RTVSPost2010PropOp41
 70
     1
102
RTVSPost2010Prop42
 90
       50
102
RTVSPost2010PropOp42
 70
     1
102
RTVSPost2010Prop43
 90
        3
102
RTVSPost2010PropOp43
 70
     1
102
RTVSPost2010Prop44ColorIndex
 90
        5
102
RTVSPost2010Prop44ColorRGB
 90
      255
102
RTVSPost2010PropOp44
 70
     1
102
RTVSPost2010Prop45
280
     0
102
RTVSPost2010PropOp45
 70
     1
102
RTVSPost2010Prop46
 90
       50
102
RTVSPost2010PropOp46
 70
     1
102
RTVSPost2010Prop47
 90
       50
102
RTVSPost2010PropOp47
 70
     1
102
RTVSPost2010Prop48
 90
       50
102
RTVSPost2010PropOp48
 70
     1
102
RTVSPost2010Prop49
280
     0
102
RTVSPost2010PropOp49
 70
     1
102
RTVSPost2010Prop50
 90
       50
102
RTVSPost2010PropOp50
 70
     1
102
RTVSPost2010Prop51ColorIndex
 90
      256
102
RTVSPost2010Prop51ColorRGB
 90
-16777216
102
RTVSPost2010PropOp51
 70
     0
102
RTVSPost2010Prop52
140
1.0
102
RTVSPost2010PropOp52
 70
     0
102
RTVSPost2010Prop53
 90
        2
102
RTVSPost2010PropOp53
 70
     1
102
RTVSPost2010Prop54
  1
strokes_ogs.tif
102
RTVSPost2010PropOp54
 70
     1
102
RTVSPost2010Prop55
280
     0
102
RTVSPost2010PropOp55
 70
     1
102
RTVSPost2010Prop56
140
1.0
102
RTVSPost2010PropOp56
 70
     1
102
RTVSPost2010Prop57
140
1.0
102
RTVSPost2010PropOp57
 70
     1
102
RTVSPropertyOp0
 70
     1
102
RTVSPropertyOp1
 70
     1
102
RTVSPropertyOp2
 70
     1
102
RTVSPropertyOp3
 70
     1
102
RTVSPropertyOp4
 70
     1
102
RTVSPropertyOp5
 70
     1
102
RTVSPropertyOp6
 70
     1
102
RTVSPropertyOp7
 70
     1
102
RTVSPropertyOp8
 70
     1
102
RTVSPropertyOp9
 70
     1
102
RTVSPropertyOp10
 70
     1
102
RTVSPropertyOp11
 70
     1
102
RTVSPropertyOp12
 70
     1
102
RTVSPropertyOp13
 70
     1
102
RTVSPropertyOp14
 70
     1
102
RTVSPropertyOp15
 70
     1
102
RTVSPropertyOp16
 70
     1
102
RTVSPropertyOp17
 70
     1
102
RTVSPropertyOp18
 70
     1
102
RTVSPropertyOp19
 70
     1
102
RTVSPropertyOp20
 70
     1
102
RTVSPropertyOp21
 70
     1
102
RTVSPropertyOp22
 70
     1
102
RTVSPropertyOp23
 70
     1
102
RTVSPropertyOp24
 70
     1
102
RTVSPropertyOp25
 70
     1
102
RTVSPropertyOp26
 70
     1
102
RTVSPropertyOp27
 70
     1
102
RTVSPropertyOp28
 70
     1
102
RTVSPropertyOp29
 70
     1
102
RTVSPropertyOp30
 70
     1
102
RTVSPropertyOp31
 70
     1
102
RTVSPropertyOp32
 70
     1
102
RTVSPropertyOp33
 70
     1
102
RTVSPropertyOp34
 70
     1
102
RTVSPropertyOp35
 70
     1
102
RTVSPropertyOp36
 70
     1
102
RTVSPropertyOp37
 70
     1
102
RTVSPropertyOp38
 70
     1
102
RTVSPropertyOp39
 70
     1
102
RTVSPropertyOp40
 70
     1
102
RTVSPropertyOp41
 70
     1
102
RTVSPropertyOp42
 70
     1
102
RTVSPropertyOp43
 70
     1
102
RTVSPropertyOp44
 70
     1
102
RTVSPropertyOp45
 70
     1
102
RTVSPropertyOp46
 70
     1
102
RTVSPropertyOp47
 70
     1
102
RTVSPropertyOp48
 70
     1
102
RTVSPropertyOp49
 70
     1
102
RTVSPropertyOp50
 70
     1
102
RTVSPropertyOp51
 70
     0
102
RTVSPropertyOp52
 70
     0
102
RTVSPropertyOp53
 70
     1
102
RTVSPropertyOp54
 70
     1
102
RTVSPropertyOp55
 70
     1
102
RTVSPropertyOp56
 70
     1
102
RTVSPropertyOp57
 70
     1
102
RTVSPropertyOp58
 70
     1
102
RTVSPropertyOp59
 70
     1
102
RTVSPropertyOp60
 70
     1
102
RTVSPropertyOp61
 70
     1
102
RTVSPropertyOp62
 70
     1
  0
XRECORD
  5
2719
102
{ACAD_REACTORS
330
2718
102
}
330
2718
100
AcDbXrecord
280
     1
102
RTVSPost2010Prop28
280
     0
102
RTVSPost2010PropOp28
 70
     1
102
RTVSPost2010Prop29
280
     1
102
RTVSPost2010PropOp29
 70
     1
102
RTVSPost2010Prop30
280
     1
102
RTVSPost2010PropOp30
 70
     1
102
RTVSPost2010Prop31
280
     0
102
RTVSPost2010PropOp31
 70
     1
102
RTVSPost2010Prop32
280
     0
102
RTVSPost2010PropOp32
 70
     1
102
RTVSPost2010Prop33
280
     0
102
RTVSPost2010PropOp33
 70
     1
102
RTVSPost2010Prop34
280
     0
102
RTVSPost2010PropOp34
 70
     1
102
RTVSPost2010Prop35
280
     0
102
RTVSPost2010PropOp35
 70
     1
102
RTVSPost2010Prop36
280
     0
102
RTVSPost2010PropOp36
 70
     1
102
RTVSPost2010Prop37
 90
       50
102
RTVSPost2010PropOp37
 70
     1
102
RTVSPost2010Prop38
140
0.0
102
RTVSPost2010PropOp38
 70
     1
102
RTVSPost2010Prop39
140
1.0
102
RTVSPost2010PropOp39
 70
     1
102
RTVSPost2010Prop40
 90
        0
102
RTVSPost2010PropOp40
 70
     1
102
RTVSPost2010Prop41ColorIndex
 90
       18
102
RTVSPost2010Prop41ColorRGB
 90
        0
102
RTVSPost2010PropOp41
 70
     1
102
RTVSPost2010Prop42
 90
       50
102
RTVSPost2010PropOp42
 70
     1
102
RTVSPost2010Prop43
 90
        3
102
RTVSPost2010PropOp43
 70
     1
102
RTVSPost2010Prop44ColorIndex
 90
        5
102
RTVSPost2010Prop44ColorRGB
 90
      255
102
RTVSPost2010PropOp44
 70
     1
102
RTVSPost2010Prop45
280
     0
102
RTVSPost2010PropOp45
 70
     1
102
RTVSPost2010Prop46
 90
       50
102
RTVSPost2010PropOp46
 70
     1
102
RTVSPost2010Prop47
 90
       50
102
RTVSPost2010PropOp47
 70
     1
102
RTVSPost2010Prop48
 90
       50
102
RTVSPost2010PropOp48
 70
     1
102
RTVSPost2010Prop49
280
     0
102
RTVSPost2010PropOp49
 70
     1
102
RTVSPost2010Prop50
 90
       50
102
RTVSPost2010PropOp50
 70
     1
102
RTVSPost2010Prop51ColorIndex
 90
      256
102
RTVSPost2010Prop51ColorRGB
 90
-16777216
102
RTVSPost2010PropOp51
 70
     0
102
RTVSPost2010Prop52
140
1.0
102
RTVSPost2010PropOp52
 70
     0
102
RTVSPost2010Prop53
 90
        2
102
RTVSPost2010PropOp53
 70
     1
102
RTVSPost2010Prop54
  1
strokes_ogs.tif
102
RTVSPost2010PropOp54
 70
     1
102
RTVSPost2010Prop55
280
     0
102
RTVSPost2010PropOp55
 70
     1
102
RTVSPost2010Prop56
140
1.0
102
RTVSPost2010PropOp56
 70
     1
102
RTVSPost2010Prop57
140
1.0
102
RTVSPost2010PropOp57
 70
     1
102
RTVSPropertyOp0
 70
     1
102
RTVSPropertyOp1
 70
     1
102
RTVSPropertyOp2
 70
     1
102
RTVSPropertyOp3
 70
     1
102
RTVSPropertyOp4
 70
     1
102
RTVSPropertyOp5
 70
     1
102
RTVSPropertyOp6
 70
     1
102
RTVSPropertyOp7
 70
     1
102
RTVSPropertyOp8
 70
     1
102
RTVSPropertyOp9
 70
     1
102
RTVSPropertyOp10
 70
     1
102
RTVSPropertyOp11
 70
     1
102
RTVSPropertyOp12
 70
     1
102
RTVSPropertyOp13
 70
     1
102
RTVSPropertyOp14
 70
     1
102
RTVSPropertyOp15
 70
     1
102
RTVSPropertyOp16
 70
     1
102
RTVSPropertyOp17
 70
     1
102
RTVSPropertyOp18
 70
     1
102
RTVSPropertyOp19
 70
     1
102
RTVSPropertyOp20
 70
     1
102
RTVSPropertyOp21
 70
     1
102
RTVSPropertyOp22
 70
     1
102
RTVSPropertyOp23
 70
     1
102
RTVSPropertyOp24
 70
     1
102
RTVSPropertyOp25
 70
     1
102
RTVSPropertyOp26
 70
     1
102
RTVSPropertyOp27
 70
     1
102
RTVSPropertyOp28
 70
     1
102
RTVSPropertyOp29
 70
     1
102
RTVSPropertyOp30
 70
     1
102
RTVSPropertyOp31
 70
     1
102
RTVSPropertyOp32
 70
     1
102
RTVSPropertyOp33
 70
     1
102
RTVSPropertyOp34
 70
     1
102
RTVSPropertyOp35
 70
     1
102
RTVSPropertyOp36
 70
     1
102
RTVSPropertyOp37
 70
     1
102
RTVSPropertyOp38
 70
     1
102
RTVSPropertyOp39
 70
     1
102
RTVSPropertyOp40
 70
     1
102
RTVSPropertyOp41
 70
     1
102
RTVSPropertyOp42
 70
     1
102
RTVSPropertyOp43
 70
     1
102
RTVSPropertyOp44
 70
     1
102
RTVSPropertyOp45
 70
     1
102
RTVSPropertyOp46
 70
     1
102
RTVSPropertyOp47
 70
     1
102
RTVSPropertyOp48
 70
     1
102
RTVSPropertyOp49
 70
     1
102
RTVSPropertyOp50
 70
     1
102
RTVSPropertyOp51
 70
     0
102
RTVSPropertyOp52
 70
     0
102
RTVSPropertyOp53
 70
     1
102
RTVSPropertyOp54
 70
     1
102
RTVSPropertyOp55
 70
     1
102
RTVSPropertyOp56
 70
     1
102
RTVSPropertyOp57
 70
     1
102
RTVSPropertyOp58
 70
     1
102
RTVSPropertyOp59
 70
     1
102
RTVSPropertyOp60
 70
     1
102
RTVSPropertyOp61
 70
     1
102
RTVSPropertyOp62
 70
     1
  0
XRECORD
  5
2713
102
{ACAD_REACTORS
330
2712
102
}
330
2712
100
AcDbXrecord
280
     1
102
RTVSPost2010Prop28
280
     0
102
RTVSPost2010PropOp28
 70
     1
102
RTVSPost2010Prop29
280
     1
102
RTVSPost2010PropOp29
 70
     1
102
RTVSPost2010Prop30
280
     1
102
RTVSPost2010PropOp30
 70
     1
102
RTVSPost2010Prop31
280
     0
102
RTVSPost2010PropOp31
 70
     1
102
RTVSPost2010Prop32
280
     0
102
RTVSPost2010PropOp32
 70
     1
102
RTVSPost2010Prop33
280
     0
102
RTVSPost2010PropOp33
 70
     1
102
RTVSPost2010Prop34
280
     0
102
RTVSPost2010PropOp34
 70
     1
102
RTVSPost2010Prop35
280
     0
102
RTVSPost2010PropOp35
 70
     1
102
RTVSPost2010Prop36
280
     0
102
RTVSPost2010PropOp36
 70
     1
102
RTVSPost2010Prop37
 90
       50
102
RTVSPost2010PropOp37
 70
     1
102
RTVSPost2010Prop38
140
0.0
102
RTVSPost2010PropOp38
 70
     1
102
RTVSPost2010Prop39
140
1.0
102
RTVSPost2010PropOp39
 70
     1
102
RTVSPost2010Prop40
 90
        0
102
RTVSPost2010PropOp40
 70
     1
102
RTVSPost2010Prop41ColorIndex
 90
       18
102
RTVSPost2010Prop41ColorRGB
 90
        0
102
RTVSPost2010PropOp41
 70
     1
102
RTVSPost2010Prop42
 90
       50
102
RTVSPost2010PropOp42
 70
     1
102
RTVSPost2010Prop43
 90
        3
102
RTVSPost2010PropOp43
 70
     1
102
RTVSPost2010Prop44ColorIndex
 90
        5
102
RTVSPost2010Prop44ColorRGB
 90
      255
102
RTVSPost2010PropOp44
 70
     1
102
RTVSPost2010Prop45
280
     0
102
RTVSPost2010PropOp45
 70
     1
102
RTVSPost2010Prop46
 90
       50
102
RTVSPost2010PropOp46
 70
     1
102
RTVSPost2010Prop47
 90
       50
102
RTVSPost2010PropOp47
 70
     1
102
RTVSPost2010Prop48
 90
       50
102
RTVSPost2010PropOp48
 70
     1
102
RTVSPost2010Prop49
280
     0
102
RTVSPost2010PropOp49
 70
     1
102
RTVSPost2010Prop50
 90
       50
102
RTVSPost2010PropOp50
 70
     1
102
RTVSPost2010Prop51ColorIndex
 90
      256
102
RTVSPost2010Prop51ColorRGB
 90
-16777216
102
RTVSPost2010PropOp51
 70
     0
102
RTVSPost2010Prop52
140
1.0
102
RTVSPost2010PropOp52
 70
     0
102
RTVSPost2010Prop53
 90
        2
102
RTVSPost2010PropOp53
 70
     1
102
RTVSPost2010Prop54
  1
strokes_ogs.tif
102
RTVSPost2010PropOp54
 70
     1
102
RTVSPost2010Prop55
280
     0
102
RTVSPost2010PropOp55
 70
     1
102
RTVSPost2010Prop56
140
1.0
102
RTVSPost2010PropOp56
 70
     1
102
RTVSPost2010Prop57
140
1.0
102
RTVSPost2010PropOp57
 70
     1
102
RTVSPropertyOp0
 70
     1
102
RTVSPropertyOp1
 70
     1
102
RTVSPropertyOp2
 70
     1
102
RTVSPropertyOp3
 70
     1
102
RTVSPropertyOp4
 70
     1
102
RTVSPropertyOp5
 70
     1
102
RTVSPropertyOp6
 70
     1
102
RTVSPropertyOp7
 70
     1
102
RTVSPropertyOp8
 70
     1
102
RTVSPropertyOp9
 70
     1
102
RTVSPropertyOp10
 70
     1
102
RTVSPropertyOp11
 70
     1
102
RTVSPropertyOp12
 70
     1
102
RTVSPropertyOp13
 70
     1
102
RTVSPropertyOp14
 70
     1
102
RTVSPropertyOp15
 70
     1
102
RTVSPropertyOp16
 70
     1
102
RTVSPropertyOp17
 70
     1
102
RTVSPropertyOp18
 70
     1
102
RTVSPropertyOp19
 70
     1
102
RTVSPropertyOp20
 70
     1
102
RTVSPropertyOp21
 70
     1
102
RTVSPropertyOp22
 70
     1
102
RTVSPropertyOp23
 70
     1
102
RTVSPropertyOp24
 70
     1
102
RTVSPropertyOp25
 70
     1
102
RTVSPropertyOp26
 70
     1
102
RTVSPropertyOp27
 70
     1
102
RTVSPropertyOp28
 70
     1
102
RTVSPropertyOp29
 70
     1
102
RTVSPropertyOp30
 70
     1
102
RTVSPropertyOp31
 70
     1
102
RTVSPropertyOp32
 70
     1
102
RTVSPropertyOp33
 70
     1
102
RTVSPropertyOp34
 70
     1
102
RTVSPropertyOp35
 70
     1
102
RTVSPropertyOp36
 70
     1
102
RTVSPropertyOp37
 70
     1
102
RTVSPropertyOp38
 70
     1
102
RTVSPropertyOp39
 70
     1
102
RTVSPropertyOp40
 70
     1
102
RTVSPropertyOp41
 70
     1
102
RTVSPropertyOp42
 70
     1
102
RTVSPropertyOp43
 70
     1
102
RTVSPropertyOp44
 70
     1
102
RTVSPropertyOp45
 70
     1
102
RTVSPropertyOp46
 70
     1
102
RTVSPropertyOp47
 70
     1
102
RTVSPropertyOp48
 70
     1
102
RTVSPropertyOp49
 70
     1
102
RTVSPropertyOp50
 70
     1
102
RTVSPropertyOp51
 70
     0
102
RTVSPropertyOp52
 70
     0
102
RTVSPropertyOp53
 70
     1
102
RTVSPropertyOp54
 70
     1
102
RTVSPropertyOp55
 70
     1
102
RTVSPropertyOp56
 70
     1
102
RTVSPropertyOp57
 70
     1
102
RTVSPropertyOp58
 70
     1
102
RTVSPropertyOp59
 70
     1
102
RTVSPropertyOp60
 70
     1
102
RTVSPropertyOp61
 70
     1
102
RTVSPropertyOp62
 70
     1
  0
XRECORD
  5
2715
102
{ACAD_REACTORS
330
2714
102
}
330
2714
100
AcDbXrecord
280
     1
102
RTVSPost2010Prop28
280
     0
102
RTVSPost2010PropOp28
 70
     1
102
RTVSPost2010Prop29
280
     1
102
RTVSPost2010PropOp29
 70
     1
102
RTVSPost2010Prop30
280
     1
102
RTVSPost2010PropOp30
 70
     1
102
RTVSPost2010Prop31
280
     0
102
RTVSPost2010PropOp31
 70
     1
102
RTVSPost2010Prop32
280
     0
102
RTVSPost2010PropOp32
 70
     1
102
RTVSPost2010Prop33
280
     0
102
RTVSPost2010PropOp33
 70
     1
102
RTVSPost2010Prop34
280
     0
102
RTVSPost2010PropOp34
 70
     1
102
RTVSPost2010Prop35
280
     0
102
RTVSPost2010PropOp35
 70
     1
102
RTVSPost2010Prop36
280
     0
102
RTVSPost2010PropOp36
 70
     1
102
RTVSPost2010Prop37
 90
       50
102
RTVSPost2010PropOp37
 70
     1
102
RTVSPost2010Prop38
140
0.0
102
RTVSPost2010PropOp38
 70
     1
102
RTVSPost2010Prop39
140
1.0
102
RTVSPost2010PropOp39
 70
     1
102
RTVSPost2010Prop40
 90
        0
102
RTVSPost2010PropOp40
 70
     1
102
RTVSPost2010Prop41ColorIndex
 90
       18
102
RTVSPost2010Prop41ColorRGB
 90
        0
102
RTVSPost2010PropOp41
 70
     1
102
RTVSPost2010Prop42
 90
       50
102
RTVSPost2010PropOp42
 70
     1
102
RTVSPost2010Prop43
 90
        3
102
RTVSPost2010PropOp43
 70
     1
102
RTVSPost2010Prop44ColorIndex
 90
        5
102
RTVSPost2010Prop44ColorRGB
 90
      255
102
RTVSPost2010PropOp44
 70
     1
102
RTVSPost2010Prop45
280
     0
102
RTVSPost2010PropOp45
 70
     1
102
RTVSPost2010Prop46
 90
       50
102
RTVSPost2010PropOp46
 70
     1
102
RTVSPost2010Prop47
 90
       50
102
RTVSPost2010PropOp47
 70
     1
102
RTVSPost2010Prop48
 90
       50
102
RTVSPost2010PropOp48
 70
     1
102
RTVSPost2010Prop49
280
     0
102
RTVSPost2010PropOp49
 70
     1
102
RTVSPost2010Prop50
 90
       50
102
RTVSPost2010PropOp50
 70
     1
102
RTVSPost2010Prop51ColorIndex
 90
      256
102
RTVSPost2010Prop51ColorRGB
 90
-16777216
102
RTVSPost2010PropOp51
 70
     0
102
RTVSPost2010Prop52
140
1.0
102
RTVSPost2010PropOp52
 70
     0
102
RTVSPost2010Prop53
 90
        2
102
RTVSPost2010PropOp53
 70
     1
102
RTVSPost2010Prop54
  1
strokes_ogs.tif
102
RTVSPost2010PropOp54
 70
     1
102
RTVSPost2010Prop55
280
     0
102
RTVSPost2010PropOp55
 70
     1
102
RTVSPost2010Prop56
140
1.0
102
RTVSPost2010PropOp56
 70
     1
102
RTVSPost2010Prop57
140
1.0
102
RTVSPost2010PropOp57
 70
     1
102
RTVSPropertyOp0
 70
     1
102
RTVSPropertyOp1
 70
     1
102
RTVSPropertyOp2
 70
     1
102
RTVSPropertyOp3
 70
     1
102
RTVSPropertyOp4
 70
     1
102
RTVSPropertyOp5
 70
     1
102
RTVSPropertyOp6
 70
     1
102
RTVSPropertyOp7
 70
     1
102
RTVSPropertyOp8
 70
     1
102
RTVSPropertyOp9
 70
     1
102
RTVSPropertyOp10
 70
     1
102
RTVSPropertyOp11
 70
     1
102
RTVSPropertyOp12
 70
     1
102
RTVSPropertyOp13
 70
     1
102
RTVSPropertyOp14
 70
     1
102
RTVSPropertyOp15
 70
     1
102
RTVSPropertyOp16
 70
     1
102
RTVSPropertyOp17
 70
     1
102
RTVSPropertyOp18
 70
     1
102
RTVSPropertyOp19
 70
     1
102
RTVSPropertyOp20
 70
     1
102
RTVSPropertyOp21
 70
     1
102
RTVSPropertyOp22
 70
     1
102
RTVSPropertyOp23
 70
     1
102
RTVSPropertyOp24
 70
     1
102
RTVSPropertyOp25
 70
     1
102
RTVSPropertyOp26
 70
     1
102
RTVSPropertyOp27
 70
     1
102
RTVSPropertyOp28
 70
     1
102
RTVSPropertyOp29
 70
     1
102
RTVSPropertyOp30
 70
     1
102
RTVSPropertyOp31
 70
     1
102
RTVSPropertyOp32
 70
     1
102
RTVSPropertyOp33
 70
     1
102
RTVSPropertyOp34
 70
     1
102
RTVSPropertyOp35
 70
     1
102
RTVSPropertyOp36
 70
     1
102
RTVSPropertyOp37
 70
     1
102
RTVSPropertyOp38
 70
     1
102
RTVSPropertyOp39
 70
     1
102
RTVSPropertyOp40
 70
     1
102
RTVSPropertyOp41
 70
     1
102
RTVSPropertyOp42
 70
     1
102
RTVSPropertyOp43
 70
     1
102
RTVSPropertyOp44
 70
     1
102
RTVSPropertyOp45
 70
     1
102
RTVSPropertyOp46
 70
     1
102
RTVSPropertyOp47
 70
     1
102
RTVSPropertyOp48
 70
     1
102
RTVSPropertyOp49
 70
     1
102
RTVSPropertyOp50
 70
     1
102
RTVSPropertyOp51
 70
     0
102
RTVSPropertyOp52
 70
     0
102
RTVSPropertyOp53
 70
     1
102
RTVSPropertyOp54
 70
     1
102
RTVSPropertyOp55
 70
     1
102
RTVSPropertyOp56
 70
     1
102
RTVSPropertyOp57
 70
     1
102
RTVSPropertyOp58
 70
     1
102
RTVSPropertyOp59
 70
     1
102
RTVSPropertyOp60
 70
     1
102
RTVSPropertyOp61
 70
     1
102
RTVSPropertyOp62
 70
     1
  0
XRECORD
  5
2705
102
{ACAD_REACTORS
330
2704
102
}
330
2704
100
AcDbXrecord
280
     1
102
RTVSPost2010Prop28
280
     0
102
RTVSPost2010PropOp28
 70
     1
102
RTVSPost2010Prop29
280
     1
102
RTVSPost2010PropOp29
 70
     1
102
RTVSPost2010Prop30
280
     1
102
RTVSPost2010PropOp30
 70
     1
102
RTVSPost2010Prop31
280
     0
102
RTVSPost2010PropOp31
 70
     1
102
RTVSPost2010Prop32
280
     0
102
RTVSPost2010PropOp32
 70
     1
102
RTVSPost2010Prop33
280
     0
102
RTVSPost2010PropOp33
 70
     1
102
RTVSPost2010Prop34
280
     0
102
RTVSPost2010PropOp34
 70
     1
102
RTVSPost2010Prop35
280
     0
102
RTVSPost2010PropOp35
 70
     1
102
RTVSPost2010Prop36
280
     0
102
RTVSPost2010PropOp36
 70
     1
102
RTVSPost2010Prop37
 90
       50
102
RTVSPost2010PropOp37
 70
     1
102
RTVSPost2010Prop38
140
0.0
102
RTVSPost2010PropOp38
 70
     1
102
RTVSPost2010Prop39
140
1.0
102
RTVSPost2010PropOp39
 70
     1
102
RTVSPost2010Prop40
 90
        0
102
RTVSPost2010PropOp40
 70
     1
102
RTVSPost2010Prop41ColorIndex
 90
       18
102
RTVSPost2010Prop41ColorRGB
 90
        0
102
RTVSPost2010PropOp41
 70
     1
102
RTVSPost2010Prop42
 90
       50
102
RTVSPost2010PropOp42
 70
     1
102
RTVSPost2010Prop43
 90
        3
102
RTVSPost2010PropOp43
 70
     1
102
RTVSPost2010Prop44ColorIndex
 90
        5
102
RTVSPost2010Prop44ColorRGB
 90
      255
102
RTVSPost2010PropOp44
 70
     1
102
RTVSPost2010Prop45
280
     0
102
RTVSPost2010PropOp45
 70
     1
102
RTVSPost2010Prop46
 90
       50
102
RTVSPost2010PropOp46
 70
     1
102
RTVSPost2010Prop47
 90
       50
102
RTVSPost2010PropOp47
 70
     1
102
RTVSPost2010Prop48
 90
       50
102
RTVSPost2010PropOp48
 70
     1
102
RTVSPost2010Prop49
280
     0
102
RTVSPost2010PropOp49
 70
     1
102
RTVSPost2010Prop50
 90
       50
102
RTVSPost2010PropOp50
 70
     1
102
RTVSPost2010Prop51ColorIndex
 90
      256
102
RTVSPost2010Prop51ColorRGB
 90
-16777216
102
RTVSPost2010PropOp51
 70
     0
102
RTVSPost2010Prop52
140
1.0
102
RTVSPost2010PropOp52
 70
     0
102
RTVSPost2010Prop53
 90
        2
102
RTVSPost2010PropOp53
 70
     1
102
RTVSPost2010Prop54
  1
strokes_ogs.tif
102
RTVSPost2010PropOp54
 70
     1
102
RTVSPost2010Prop55
280
     0
102
RTVSPost2010PropOp55
 70
     1
102
RTVSPost2010Prop56
140
1.0
102
RTVSPost2010PropOp56
 70
     1
102
RTVSPost2010Prop57
140
1.0
102
RTVSPost2010PropOp57
 70
     1
102
RTVSPropertyOp0
 70
     1
102
RTVSPropertyOp1
 70
     1
102
RTVSPropertyOp2
 70
     1
102
RTVSPropertyOp3
 70
     1
102
RTVSPropertyOp4
 70
     1
102
RTVSPropertyOp5
 70
     1
102
RTVSPropertyOp6
 70
     1
102
RTVSPropertyOp7
 70
     1
102
RTVSPropertyOp8
 70
     1
102
RTVSPropertyOp9
 70
     1
102
RTVSPropertyOp10
 70
     1
102
RTVSPropertyOp11
 70
     1
102
RTVSPropertyOp12
 70
     1
102
RTVSPropertyOp13
 70
     1
102
RTVSPropertyOp14
 70
     1
102
RTVSPropertyOp15
 70
     1
102
RTVSPropertyOp16
 70
     1
102
RTVSPropertyOp17
 70
     1
102
RTVSPropertyOp18
 70
     1
102
RTVSPropertyOp19
 70
     1
102
RTVSPropertyOp20
 70
     1
102
RTVSPropertyOp21
 70
     1
102
RTVSPropertyOp22
 70
     1
102
RTVSPropertyOp23
 70
     1
102
RTVSPropertyOp24
 70
     1
102
RTVSPropertyOp25
 70
     1
102
RTVSPropertyOp26
 70
     1
102
RTVSPropertyOp27
 70
     1
102
RTVSPropertyOp28
 70
     1
102
RTVSPropertyOp29
 70
     1
102
RTVSPropertyOp30
 70
     1
102
RTVSPropertyOp31
 70
     1
102
RTVSPropertyOp32
 70
     1
102
RTVSPropertyOp33
 70
     1
102
RTVSPropertyOp34
 70
     1
102
RTVSPropertyOp35
 70
     1
102
RTVSPropertyOp36
 70
     1
102
RTVSPropertyOp37
 70
     1
102
RTVSPropertyOp38
 70
     1
102
RTVSPropertyOp39
 70
     1
102
RTVSPropertyOp40
 70
     1
102
RTVSPropertyOp41
 70
     1
102
RTVSPropertyOp42
 70
     1
102
RTVSPropertyOp43
 70
     1
102
RTVSPropertyOp44
 70
     1
102
RTVSPropertyOp45
 70
     1
102
RTVSPropertyOp46
 70
     1
102
RTVSPropertyOp47
 70
     1
102
RTVSPropertyOp48
 70
     1
102
RTVSPropertyOp49
 70
     1
102
RTVSPropertyOp50
 70
     1
102
RTVSPropertyOp51
 70
     0
102
RTVSPropertyOp52
 70
     0
102
RTVSPropertyOp53
 70
     1
102
RTVSPropertyOp54
 70
     1
102
RTVSPropertyOp55
 70
     1
102
RTVSPropertyOp56
 70
     1
102
RTVSPropertyOp57
 70
     1
102
RTVSPropertyOp58
 70
     1
102
RTVSPropertyOp59
 70
     1
102
RTVSPropertyOp60
 70
     1
102
RTVSPropertyOp61
 70
     1
102
RTVSPropertyOp62
 70
     1
  0
XRECORD
  5
26F9
102
{ACAD_REACTORS
330
26F8
102
}
330
26F8
100
AcDbXrecord
280
     1
102
RTVSPost2010Prop28
280
     0
102
RTVSPost2010PropOp28
 70
     1
102
RTVSPost2010Prop29
280
     1
102
RTVSPost2010PropOp29
 70
     1
102
RTVSPost2010Prop30
280
     1
102
RTVSPost2010PropOp30
 70
     1
102
RTVSPost2010Prop31
280
     0
102
RTVSPost2010PropOp31
 70
     1
102
RTVSPost2010Prop32
280
     0
102
RTVSPost2010PropOp32
 70
     1
102
RTVSPost2010Prop33
280
     0
102
RTVSPost2010PropOp33
 70
     1
102
RTVSPost2010Prop34
280
     0
102
RTVSPost2010PropOp34
 70
     1
102
RTVSPost2010Prop35
280
     0
102
RTVSPost2010PropOp35
 70
     1
102
RTVSPost2010Prop36
280
     0
102
RTVSPost2010PropOp36
 70
     1
102
RTVSPost2010Prop37
 90
       50
102
RTVSPost2010PropOp37
 70
     1
102
RTVSPost2010Prop38
140
0.0
102
RTVSPost2010PropOp38
 70
     1
102
RTVSPost2010Prop39
140
1.0
102
RTVSPost2010PropOp39
 70
     1
102
RTVSPost2010Prop40
 90
        0
102
RTVSPost2010PropOp40
 70
     1
102
RTVSPost2010Prop41ColorIndex
 90
       18
102
RTVSPost2010Prop41ColorRGB
 90
        0
102
RTVSPost2010PropOp41
 70
     1
102
RTVSPost2010Prop42
 90
       50
102
RTVSPost2010PropOp42
 70
     1
102
RTVSPost2010Prop43
 90
        3
102
RTVSPost2010PropOp43
 70
     1
102
RTVSPost2010Prop44ColorIndex
 90
        5
102
RTVSPost2010Prop44ColorRGB
 90
      255
102
RTVSPost2010PropOp44
 70
     1
102
RTVSPost2010Prop45
280
     0
102
RTVSPost2010PropOp45
 70
     1
102
RTVSPost2010Prop46
 90
       50
102
RTVSPost2010PropOp46
 70
     1
102
RTVSPost2010Prop47
 90
       50
102
RTVSPost2010PropOp47
 70
     1
102
RTVSPost2010Prop48
 90
       50
102
RTVSPost2010PropOp48
 70
     1
102
RTVSPost2010Prop49
280
     0
102
RTVSPost2010PropOp49
 70
     1
102
RTVSPost2010Prop50
 90
       50
102
RTVSPost2010PropOp50
 70
     1
102
RTVSPost2010Prop51ColorIndex
 90
      256
102
RTVSPost2010Prop51ColorRGB
 90
-16777216
102
RTVSPost2010PropOp51
 70
     0
102
RTVSPost2010Prop52
140
1.0
102
RTVSPost2010PropOp52
 70
     0
102
RTVSPost2010Prop53
 90
        2
102
RTVSPost2010PropOp53
 70
     1
102
RTVSPost2010Prop54
  1
strokes_ogs.tif
102
RTVSPost2010PropOp54
 70
     1
102
RTVSPost2010Prop55
280
     0
102
RTVSPost2010PropOp55
 70
     1
102
RTVSPost2010Prop56
140
1.0
102
RTVSPost2010PropOp56
 70
     1
102
RTVSPost2010Prop57
140
1.0
102
RTVSPost2010PropOp57
 70
     1
102
RTVSPropertyOp0
 70
     1
102
RTVSPropertyOp1
 70
     1
102
RTVSPropertyOp2
 70
     1
102
RTVSPropertyOp3
 70
     1
102
RTVSPropertyOp4
 70
     1
102
RTVSPropertyOp5
 70
     1
102
RTVSPropertyOp6
 70
     1
102
RTVSPropertyOp7
 70
     1
102
RTVSPropertyOp8
 70
     1
102
RTVSPropertyOp9
 70
     1
102
RTVSPropertyOp10
 70
     1
102
RTVSPropertyOp11
 70
     1
102
RTVSPropertyOp12
 70
     1
102
RTVSPropertyOp13
 70
     1
102
RTVSPropertyOp14
 70
     1
102
RTVSPropertyOp15
 70
     1
102
RTVSPropertyOp16
 70
     1
102
RTVSPropertyOp17
 70
     1
102
RTVSPropertyOp18
 70
     1
102
RTVSPropertyOp19
 70
     1
102
RTVSPropertyOp20
 70
     1
102
RTVSPropertyOp21
 70
     1
102
RTVSPropertyOp22
 70
     1
102
RTVSPropertyOp23
 70
     1
102
RTVSPropertyOp24
 70
     1
102
RTVSPropertyOp25
 70
     1
102
RTVSPropertyOp26
 70
     1
102
RTVSPropertyOp27
 70
     1
102
RTVSPropertyOp28
 70
     1
102
RTVSPropertyOp29
 70
     1
102
RTVSPropertyOp30
 70
     1
102
RTVSPropertyOp31
 70
     1
102
RTVSPropertyOp32
 70
     1
102
RTVSPropertyOp33
 70
     1
102
RTVSPropertyOp34
 70
     1
102
RTVSPropertyOp35
 70
     1
102
RTVSPropertyOp36
 70
     1
102
RTVSPropertyOp37
 70
     1
102
RTVSPropertyOp38
 70
     1
102
RTVSPropertyOp39
 70
     1
102
RTVSPropertyOp40
 70
     1
102
RTVSPropertyOp41
 70
     1
102
RTVSPropertyOp42
 70
     1
102
RTVSPropertyOp43
 70
     1
102
RTVSPropertyOp44
 70
     1
102
RTVSPropertyOp45
 70
     1
102
RTVSPropertyOp46
 70
     1
102
RTVSPropertyOp47
 70
     1
102
RTVSPropertyOp48
 70
     1
102
RTVSPropertyOp49
 70
     1
102
RTVSPropertyOp50
 70
     1
102
RTVSPropertyOp51
 70
     0
102
RTVSPropertyOp52
 70
     0
102
RTVSPropertyOp53
 70
     1
102
RTVSPropertyOp54
 70
     1
102
RTVSPropertyOp55
 70
     1
102
RTVSPropertyOp56
 70
     1
102
RTVSPropertyOp57
 70
     1
102
RTVSPropertyOp58
 70
     1
102
RTVSPropertyOp59
 70
     1
102
RTVSPropertyOp60
 70
     1
102
RTVSPropertyOp61
 70
     1
102
RTVSPropertyOp62
 70
     1
  0
XRECORD
  5
2717
102
{ACAD_REACTORS
330
2716
102
}
330
2716
100
AcDbXrecord
280
     1
102
RTVSPost2010Prop28
280
     0
102
RTVSPost2010PropOp28
 70
     1
102
RTVSPost2010Prop29
280
     1
102
RTVSPost2010PropOp29
 70
     1
102
RTVSPost2010Prop30
280
     1
102
RTVSPost2010PropOp30
 70
     1
102
RTVSPost2010Prop31
280
     0
102
RTVSPost2010PropOp31
 70
     1
102
RTVSPost2010Prop32
280
     0
102
RTVSPost2010PropOp32
 70
     1
102
RTVSPost2010Prop33
280
     0
102
RTVSPost2010PropOp33
 70
     1
102
RTVSPost2010Prop34
280
     0
102
RTVSPost2010PropOp34
 70
     1
102
RTVSPost2010Prop35
280
     0
102
RTVSPost2010PropOp35
 70
     1
102
RTVSPost2010Prop36
280
     0
102
RTVSPost2010PropOp36
 70
     1
102
RTVSPost2010Prop37
 90
       50
102
RTVSPost2010PropOp37
 70
     1
102
RTVSPost2010Prop38
140
0.0
102
RTVSPost2010PropOp38
 70
     1
102
RTVSPost2010Prop39
140
1.0
102
RTVSPost2010PropOp39
 70
     1
102
RTVSPost2010Prop40
 90
        0
102
RTVSPost2010PropOp40
 70
     1
102
RTVSPost2010Prop41ColorIndex
 90
       18
102
RTVSPost2010Prop41ColorRGB
 90
        0
102
RTVSPost2010PropOp41
 70
     1
102
RTVSPost2010Prop42
 90
       50
102
RTVSPost2010PropOp42
 70
     1
102
RTVSPost2010Prop43
 90
        3
102
RTVSPost2010PropOp43
 70
     1
102
RTVSPost2010Prop44ColorIndex
 90
        5
102
RTVSPost2010Prop44ColorRGB
 90
      255
102
RTVSPost2010PropOp44
 70
     1
102
RTVSPost2010Prop45
280
     0
102
RTVSPost2010PropOp45
 70
     1
102
RTVSPost2010Prop46
 90
       50
102
RTVSPost2010PropOp46
 70
     1
102
RTVSPost2010Prop47
 90
       50
102
RTVSPost2010PropOp47
 70
     1
102
RTVSPost2010Prop48
 90
       50
102
RTVSPost2010PropOp48
 70
     1
102
RTVSPost2010Prop49
280
     0
102
RTVSPost2010PropOp49
 70
     1
102
RTVSPost2010Prop50
 90
       50
102
RTVSPost2010PropOp50
 70
     1
102
RTVSPost2010Prop51ColorIndex
 90
      256
102
RTVSPost2010Prop51ColorRGB
 90
-16777216
102
RTVSPost2010PropOp51
 70
     0
102
RTVSPost2010Prop52
140
1.0
102
RTVSPost2010PropOp52
 70
     0
102
RTVSPost2010Prop53
 90
        2
102
RTVSPost2010PropOp53
 70
     1
102
RTVSPost2010Prop54
  1
strokes_ogs.tif
102
RTVSPost2010PropOp54
 70
     1
102
RTVSPost2010Prop55
280
     0
102
RTVSPost2010PropOp55
 70
     1
102
RTVSPost2010Prop56
140
1.0
102
RTVSPost2010PropOp56
 70
     1
102
RTVSPost2010Prop57
140
1.0
102
RTVSPost2010PropOp57
 70
     1
102
RTVSPropertyOp0
 70
     1
102
RTVSPropertyOp1
 70
     1
102
RTVSPropertyOp2
 70
     1
102
RTVSPropertyOp3
 70
     1
102
RTVSPropertyOp4
 70
     1
102
RTVSPropertyOp5
 70
     1
102
RTVSPropertyOp6
 70
     1
102
RTVSPropertyOp7
 70
     1
102
RTVSPropertyOp8
 70
     1
102
RTVSPropertyOp9
 70
     1
102
RTVSPropertyOp10
 70
     1
102
RTVSPropertyOp11
 70
     1
102
RTVSPropertyOp12
 70
     1
102
RTVSPropertyOp13
 70
     1
102
RTVSPropertyOp14
 70
     1
102
RTVSPropertyOp15
 70
     1
102
RTVSPropertyOp16
 70
     1
102
RTVSPropertyOp17
 70
     1
102
RTVSPropertyOp18
 70
     1
102
RTVSPropertyOp19
 70
     1
102
RTVSPropertyOp20
 70
     1
102
RTVSPropertyOp21
 70
     1
102
RTVSPropertyOp22
 70
     1
102
RTVSPropertyOp23
 70
     1
102
RTVSPropertyOp24
 70
     1
102
RTVSPropertyOp25
 70
     1
102
RTVSPropertyOp26
 70
     1
102
RTVSPropertyOp27
 70
     1
102
RTVSPropertyOp28
 70
     1
102
RTVSPropertyOp29
 70
     1
102
RTVSPropertyOp30
 70
     1
102
RTVSPropertyOp31
 70
     1
102
RTVSPropertyOp32
 70
     1
102
RTVSPropertyOp33
 70
     1
102
RTVSPropertyOp34
 70
     1
102
RTVSPropertyOp35
 70
     1
102
RTVSPropertyOp36
 70
     1
102
RTVSPropertyOp37
 70
     1
102
RTVSPropertyOp38
 70
     1
102
RTVSPropertyOp39
 70
     1
102
RTVSPropertyOp40
 70
     1
102
RTVSPropertyOp41
 70
     1
102
RTVSPropertyOp42
 70
     1
102
RTVSPropertyOp43
 70
     1
102
RTVSPropertyOp44
 70
     1
102
RTVSPropertyOp45
 70
     1
102
RTVSPropertyOp46
 70
     1
102
RTVSPropertyOp47
 70
     1
102
RTVSPropertyOp48
 70
     1
102
RTVSPropertyOp49
 70
     1
102
RTVSPropertyOp50
 70
     1
102
RTVSPropertyOp51
 70
     0
102
RTVSPropertyOp52
 70
     0
102
RTVSPropertyOp53
 70
     1
102
RTVSPropertyOp54
 70
     1
102
RTVSPropertyOp55
 70
     1
102
RTVSPropertyOp56
 70
     1
102
RTVSPropertyOp57
 70
     1
102
RTVSPropertyOp58
 70
     1
102
RTVSPropertyOp59
 70
     1
102
RTVSPropertyOp60
 70
     1
102
RTVSPropertyOp61
 70
     1
102
RTVSPropertyOp62
 70
     1
  0
ENDSEC
  0
EOF
