  0
SECTION
  2
HEADER
  9
$ACADVER
  1
AC1021
  9
$ACADMAINTVER
 70
    25
  9
$DWGCODEPAGE
  3
ANSI_1252
  9
$INSBASE
 10
0.0
 20
0.0
 30
0.0
  9
$EXTMIN
 10
-91.83444094488189
 20
24.09316141732284
 30
0.0
  9
$EXTMAX
 10
-68.34584251968504
 20
40.09616141732283
 30
0.0
  9
$LIMMIN
 10
0.0
 20
0.0
  9
$LIMMAX
 10
12.0
 20
9.0
  9
$ORTHOMODE
 70
     0
  9
$REGENMODE
 70
     1
  9
$FILLMODE
 70
     1
  9
$QTEXTMODE
 70
     0
  9
$MIRRTEXT
 70
     1
  9
$LTSCALE
 40
1.0
  9
$ATTMODE
 70
     1
  9
$TEXTSIZE
 40
0.2
  9
$TRACEWID
 40
0.05
  9
$TEXTSTYLE
  7
Standard
  9
$CLAYER
  8
0
  9
$CELTYPE
  6
ByLayer
  9
$CECOLOR
 62
   256
  9
$CELTSCALE
 40
1.0
  9
$DISPSILH
 70
     0
  9
$DIMSCALE
 40
1.0
  9
$DIMASZ
 40
0.18
  9
$DIMEXO
 40
0.0625
  9
$DIMDLI
 40
0.38
  9
$DIMRND
 40
0.0
  9
$DIMDLE
 40
0.0
  9
$DIMEXE
 40
0.18
  9
$DIMTP
 40
0.0
  9
$DIMTM
 40
0.0
  9
$DIMTXT
 40
0.18
  9
$DIMCEN
 40
0.09
  9
$DIMTSZ
 40
0.0
  9
$DIMTOL
 70
     0
  9
$DIMLIM
 70
     0
  9
$DIMTIH
 70
     1
  9
$DIMTOH
 70
     1
  9
$DIMSE1
 70
     0
  9
$DIMSE2
 70
     0
  9
$DIMTAD
 70
     0
  9
$DIMZIN
 70
     0
  9
$DIMBLK
  1

  9
$DIMASO
 70
     1
  9
$DIMSHO
 70
     1
  9
$DIMPOST
  1

  9
$DIMAPOST
  1

  9
$DIMALT
 70
     0
  9
$DIMALTD
 70
     2
  9
$DIMALTF
 40
25.4
  9
$DIMLFAC
 40
1.0
  9
$DIMTOFL
 70
     0
  9
$DIMTVP
 40
0.0
  9
$DIMTIX
 70
     0
  9
$DIMSOXD
 70
     0
  9
$DIMSAH
 70
     0
  9
$DIMBLK1
  1

  9
$DIMBLK2
  1

  9
$DIMSTYLE
  2
Standard
  9
$DIMCLRD
 70
     0
  9
$DIMCLRE
 70
     0
  9
$DIMCLRT
 70
     0
  9
$DIMTFAC
 40
1.0
  9
$DIMGAP
 40
0.09
  9
$DIMJUST
 70
     0
  9
$DIMSD1
 70
     0
  9
$DIMSD2
 70
     0
  9
$DIMTOLJ
 70
     1
  9
$DIMTZIN
 70
     0
  9
$DIMALTZ
 70
     0
  9
$DIMALTTZ
 70
     0
  9
$DIMUPT
 70
     0
  9
$DIMDEC
 70
     4
  9
$DIMTDEC
 70
     4
  9
$DIMALTU
 70
     2
  9
$DIMALTTD
 70
     2
  9
$DIMTXSTY
  7
Standard
  9
$DIMAUNIT
 70
     0
  9
$DIMADEC
 70
     0
  9
$DIMALTRND
 40
0.0
  9
$DIMAZIN
 70
     0
  9
$DIMDSEP
 70
    46
  9
$DIMATFIT
 70
     3
  9
$DIMFRAC
 70
     0
  9
$DIMLDRBLK
  1

  9
$DIMLUNIT
 70
     2
  9
$DIMLWD
 70
    -2
  9
$DIMLWE
 70
    -2
  9
$DIMTMOVE
 70
     0
  9
$DIMFXL
 40
1.0
  9
$DIMFXLON
 70
     0
  9
$DIMJOGANG
 40
0.7853981633974483
  9
$DIMTFILL
 70
     0
  9
$DIMTFILLCLR
 70
     0
  9
$DIMARCSYM
 70
     0
  9
$DIMLTYPE
  6

  9
$DIMLTEX1
  6

  9
$DIMLTEX2
  6

  9
$LUNITS
 70
     2
  9
$LUPREC
 70
     4
  9
$SKETCHINC
 40
0.1
  9
$FILLETRAD
 40
0.5
  9
$AUNITS
 70
     0
  9
$AUPREC
 70
     0
  9
$MENU
  1
.
  9
$ELEVATION
 40
0.0
  9
$PELEVATION
 40
0.0
  9
$THICKNESS
 40
0.0
  9
$LIMCHECK
 70
     0
  9
$CHAMFERA
 40
0.0
  9
$CHAMFERB
 40
0.0
  9
$CHAMFERC
 40
0.0
  9
$CHAMFERD
 40
0.0
  9
$SKPOLY
 70
     0
  9
$TDCREATE
 40
2457926.312380463
  9
$TDUCREATE
 40
2457926.60404713
  9
$TDUPDATE
 40
2457926.312380637
  9
$TDUUPDATE
 40
2457926.604047303
  9
$TDINDWG
 40
0.0000000116
  9
$TDUSRTIMER
 40
0.0000000116
  9
$USRTIMER
 70
     1
  9
$ANGBASE
 50
0.0
  9
$ANGDIR
 70
     0
  9
$PDMODE
 70
     0
  9
$PDSIZE
 40
0.0
  9
$PLINEWID
 40
0.0
  9
$SPLFRAME
 70
     0
  9
$SPLINETYPE
 70
     6
  9
$SPLINESEGS
 70
     8
  9
$HANDSEED
  5
FD
  9
$SURFTAB1
 70
     6
  9
$SURFTAB2
 70
     6
  9
$SURFTYPE
 70
     6
  9
$SURFU
 70
     6
  9
$SURFV
 70
     6
  9
$UCSBASE
  2

  9
$UCSNAME
  2

  9
$UCSORG
 10
0.0
 20
0.0
 30
0.0
  9
$UCSXDIR
 10
1.0
 20
0.0
 30
0.0
  9
$UCSYDIR
 10
0.0
 20
1.0
 30
0.0
  9
$UCSORTHOREF
  2

  9
$UCSORTHOVIEW
 70
     0
  9
$UCSORGTOP
 10
0.0
 20
0.0
 30
0.0
  9
$UCSORGBOTTOM
 10
0.0
 20
0.0
 30
0.0
  9
$UCSORGLEFT
 10
0.0
 20
0.0
 30
0.0
  9
$UCSORGRIGHT
 10
0.0
 20
0.0
 30
0.0
  9
$UCSORGFRONT
 10
0.0
 20
0.0
 30
0.0
  9
$UCSORGBACK
 10
0.0
 20
0.0
 30
0.0
  9
$PUCSBASE
  2

  9
$PUCSNAME
  2

  9
$PUCSORG
 10
0.0
 20
0.0
 30
0.0
  9
$PUCSXDIR
 10
1.0
 20
0.0
 30
0.0
  9
$PUCSYDIR
 10
0.0
 20
1.0
 30
0.0
  9
$PUCSORTHOREF
  2

  9
$PUCSORTHOVIEW
 70
     0
  9
$PUCSORGTOP
 10
0.0
 20
0.0
 30
0.0
  9
$PUCSORGBOTTOM
 10
0.0
 20
0.0
 30
0.0
  9
$PUCSORGLEFT
 10
0.0
 20
0.0
 30
0.0
  9
$PUCSORGRIGHT
 10
0.0
 20
0.0
 30
0.0
  9
$PUCSORGFRONT
 10
0.0
 20
0.0
 30
0.0
  9
$PUCSORGBACK
 10
0.0
 20
0.0
 30
0.0
  9
$USERI1
 70
     0
  9
$USERI2
 70
     0
  9
$USERI3
 70
     0
  9
$USERI4
 70
     0
  9
$USERI5
 70
     0
  9
$USERR1
 40
0.0
  9
$USERR2
 40
0.0
  9
$USERR3
 40
0.0
  9
$USERR4
 40
0.0
  9
$USERR5
 40
0.0
  9
$WORLDVIEW
 70
     1
  9
$SHADEDGE
 70
     3
  9
$SHADEDIF
 70
    70
  9
$TILEMODE
 70
     1
  9
$MAXACTVP
 70
    64
  9
$PINSBASE
 10
0.0
 20
0.0
 30
0.0
  9
$PLIMCHECK
 70
     0
  9
$PEXTMIN
 10
1.000000000000000E+20
 20
1.000000000000000E+20
 30
1.000000000000000E+20
  9
$PEXTMAX
 10
-1.000000000000000E+20
 20
-1.000000000000000E+20
 30
-1.000000000000000E+20
  9
$PLIMMIN
 10
0.0
 20
0.0
  9
$PLIMMAX
 10
12.0
 20
9.0
  9
$UNITMODE
 70
     0
  9
$VISRETAIN
 70
     1
  9
$PLINEGEN
 70
     0
  9
$PSLTSCALE
 70
     1
  9
$TREEDEPTH
 70
  3020
  9
$CMLSTYLE
  2
Standard
  9
$CMLJUST
 70
     0
  9
$CMLSCALE
 40
1.0
  9
$PROXYGRAPHICS
 70
     1
  9
$MEASUREMENT
 70
     0
  9
$CELWEIGHT
370
    -1
  9
$ENDCAPS
280
     0
  9
$JOINSTYLE
280
     0
  9
$LWDISPLAY
290
     0
  9
$INSUNITS
 70
     1
  9
$HYPERLINKBASE
  1

  9
$STYLESHEET
  1

  9
$XEDIT
290
     1
  9
$CEPSNTYPE
380
     0
  9
$PSTYLEMODE
290
     1
  9
$FINGERPRINTGUID
  2
{055DCA2A-87BA-4F65-9C71-56AB4F038C6A}
  9
$VERSIONGUID
  2
{FAEB1C32-E019-11D5-929B-00C0DF256EC4}
  9
$EXTNAMES
290
     1
  9
$PSVPSCALE
 40
0.0
  9
$OLESTARTUP
290
     0
  9
$SORTENTS
280
   127
  9
$INDEXCTL
280
     0
  9
$HIDETEXT
280
     1
  9
$XCLIPFRAME
290
     0
  9
$HALOGAP
280
     0
  9
$OBSCOLOR
 70
   257
  9
$OBSLTYPE
280
     0
  9
$INTERSECTIONDISPLAY
280
     0
  9
$INTERSECTIONCOLOR
 70
   257
  9
$DIMASSOC
280
     2
  9
$PROJECTNAME
  1

  9
$CAMERADISPLAY
290
     0
  9
$LENSLENGTH
 40
50.0
  9
$CAMERAHEIGHT
 40
0.0
  9
$STEPSPERSEC
 40
2.0
  9
$STEPSIZE
 40
6.0
  9
$3DDWFPREC
 40
2.0
  9
$PSOLWIDTH
 40
0.25
  9
$PSOLHEIGHT
 40
4.0
  9
$LOFTANG1
 40
1.570796326794897
  9
$LOFTANG2
 40
1.570796326794897
  9
$LOFTMAG1
 40
0.0
  9
$LOFTMAG2
 40
0.0
  9
$LOFTPARAM
 70
     7
  9
$LOFTNORMALS
280
     1
  9
$LATITUDE
 40
37.795
  9
$LONGITUDE
 40
-122.394
  9
$NORTHDIRECTION
 40
0.0
  9
$TIMEZONE
 70
 -8000
  9
$LIGHTGLYPHDISPLAY
280
     1
  9
$TILEMODELIGHTSYNCH
280
     1
  9
$CMATERIAL
347
44
  9
$SOLIDHIST
280
     0
  9
$SHOWHIST
280
     1
  9
$DWFFRAME
280
     2
  9
$DGNFRAME
280
     2
  9
$REALWORLDSCALE
290
     1
  9
$INTERFERECOLOR
 62
   256
  9
$CSHADOW
280
     0
  9
$SHADOWPLANELOCATION
 40
0.0
  0
ENDSEC
  0
SECTION
  2
CLASSES
  0
CLASS
  1
ACDBDICTIONARYWDFLT
  2
AcDbDictionaryWithDefault
  3
ObjectDBX Classes
 90
        0
 91
        4
280
     0
281
     0
  0
CLASS
  1
VISUALSTYLE
  2
AcDbVisualStyle
  3
ObjectDBX Classes
 90
     4095
 91
        4
280
     0
281
     0
  0
CLASS
  1
MATERIAL
  2
AcDbMaterial
  3
ObjectDBX Classes
 90
     1153
 91
        4
280
     0
281
     0
  0
CLASS
  1
SCALE
  2
AcDbScale
  3
ObjectDBX Classes
 90
     1153
 91
        4
280
     0
281
     0
  0
CLASS
  1
TABLESTYLE
  2
AcDbTableStyle
  3
ObjectDBX Classes
 90
     4095
 91
        4
280
     0
281
     0
  0
CLASS
  1
MLEADERSTYLE
  2
AcDbMLeaderStyle
  3
ACDB_MLEADERSTYLE_CLASS
 90
     4095
 91
        4
280
     0
281
     0
  0
CLASS
  1
SUN
  2
AcDbSun
  3
SCENEOE
 90
     1153
 91
        4
280
     0
281
     0
  0
CLASS
  1
DICTIONARYVAR
  2
AcDbDictionaryVar
  3
ObjectDBX Classes
 90
        0
 91
        4
280
     0
281
     0
  0
CLASS
  1
CELLSTYLEMAP
  2
AcDbCellStyleMap
  3
ObjectDBX Classes
 90
     1152
 91
        4
280
     0
281
     0
  0
ENDSEC
  0
SECTION
  2
TABLES
  0
TABLE
  2
VPORT
  5
8
330
0
100
AcDbSymbolTable
 70
     1
  0
VPORT
  5
29
330
8
100
AcDbSymbolTableRecord
100
AcDbViewportTableRecord
  2
*Active
 70
     0
 10
0.0
 20
0.0
 11
1.0
 21
1.0
 12
10.42990654205607
 22
4.5
 13
0.0
 23
0.0
 14
0.5
 24
0.5
 15
0.5
 25
0.5
 16
0.0
 26
0.0
 36
1.0
 17
0.0
 27
0.0
 37
0.0
 40
9.0
 41
1.972972972850329
 42
50.0
 43
0.0
 44
0.0
 50
0.0
 51
0.0
 71
     0
 72
   100
 73
     1
 74
     3
 75
     0
 76
     0
 77
     0
 78
     0
281
     0
 65
     1
110
0.0
120
0.0
130
0.0
111
1.0
121
0.0
131
0.0
112
0.0
122
1.0
132
0.0
 79
     0
146
0.0
348
2F
 60
     3
 61
     5
292
     1
282
     1
141
0.0
142
0.0
 63
   250
361
6D
  0
ENDTAB
  0
TABLE
  2
LTYPE
  5
5
330
0
100
AcDbSymbolTable
 70
     1
  0
LTYPE
  5
14
330
5
100
AcDbSymbolTableRecord
100
AcDbLinetypeTableRecord
  2
ByBlock
 70
     0
  3

 72
    65
 73
     0
 40
0.0
  0
LTYPE
  5
15
330
5
100
AcDbSymbolTableRecord
100
AcDbLinetypeTableRecord
  2
ByLayer
 70
     0
  3

 72
    65
 73
     0
 40
0.0
  0
LTYPE
  5
16
330
5
100
AcDbSymbolTableRecord
100
AcDbLinetypeTableRecord
  2
Continuous
 70
     0
  3
Solid line
 72
    65
 73
     0
 40
0.0
  0
ENDTAB
  0
TABLE
  2
LAYER
  5
2
330
0
100
AcDbSymbolTable
 70
     2
  0
LAYER
  5
10
330
2
100
AcDbSymbolTableRecord
100
AcDbLayerTableRecord
  2
0
 70
     0
 62
     7
  6
Continuous
370
    -3
390
F
347
46
  0
LAYER
  5
6F
330
2
100
AcDbSymbolTableRecord
100
AcDbLayerTableRecord
  2
Layer 1
 70
     0
 62
     7
  6
Continuous
370
    -3
390
F
347
46
  0
ENDTAB
  0
TABLE
  2
STYLE
  5
3
330
0
100
AcDbSymbolTable
 70
     1
  0
STYLE
  5
11
330
3
100
AcDbSymbolTableRecord
100
AcDbTextStyleTableRecord
  2
Standard
 70
     0
 40
0.0
 41
1.0
 50
0.0
 71
     0
 42
0.2
  3
txt
  4

  0
ENDTAB
  0
TABLE
  2
VIEW
  5
6
330
0
100
AcDbSymbolTable
 70
     0
  0
ENDTAB
  0
TABLE
  2
UCS
  5
7
330
0
100
AcDbSymbolTable
 70
     0
  0
ENDTAB
  0
TABLE
  2
APPID
  5
9
330
0
100
AcDbSymbolTable
 70
     3
  0
APPID
  5
12
330
9
100
AcDbSymbolTableRecord
100
AcDbRegAppTableRecord
  2
ACAD
 70
     0
  0
APPID
  5
6E
330
9
100
AcDbSymbolTableRecord
100
AcDbRegAppTableRecord
  2
ODA
 70
     0
  0
APPID
  5
F5
330
9
100
AcDbSymbolTableRecord
100
AcDbRegAppTableRecord
  2
ACAD_MLEADERVER
 70
     0
  0
ENDTAB
  0
TABLE
  2
DIMSTYLE
  5
A
330
0
100
AcDbSymbolTable
 70
     1
100
AcDbDimStyleTable
  0
DIMSTYLE
105
27
330
A
100
AcDbSymbolTableRecord
100
AcDbDimStyleTableRecord
  2
Standard
 70
     0
178
     0
340
11
  0
ENDTAB
  0
TABLE
  2
BLOCK_RECORD
  5
1
330
0
100
AcDbSymbolTable
 70
     1
  0
BLOCK_RECORD
  5
1F
330
1
100
AcDbSymbolTableRecord
100
AcDbBlockTableRecord
  2
*Model_Space
340
22
 70
     0
280
     1
281
     0
  0
BLOCK_RECORD
  5
1B
330
1
100
AcDbSymbolTableRecord
100
AcDbBlockTableRecord
  2
*Paper_Space
340
1E
 70
     0
280
     1
281
     0
  0
BLOCK_RECORD
  5
23
330
1
100
AcDbSymbolTableRecord
100
AcDbBlockTableRecord
  2
*Paper_Space0
340
26
 70
     0
280
     1
281
     0
  0
ENDTAB
  0
ENDSEC
  0
SECTION
  2
BLOCKS
  0
BLOCK
  5
20
330
1F
100
AcDbEntity
  8
0
100
AcDbBlockBegin
  2
*Model_Space
 70
     0
 10
0.0
 20
0.0
 30
0.0
  3
*Model_Space
  1

  0
ENDBLK
  5
21
330
1F
100
AcDbEntity
  8
0
100
AcDbBlockEnd
  0
BLOCK
  5
1C
330
1B
100
AcDbEntity
 67
     1
  8
0
100
AcDbBlockBegin
  2
*Paper_Space
 70
     0
 10
0.0
 20
0.0
 30
0.0
  3
*Paper_Space
  1

  0
ENDBLK
  5
1D
330
1B
100
AcDbEntity
 67
     1
  8
0
100
AcDbBlockEnd
  0
BLOCK
  5
24
330
23
100
AcDbEntity
  8
0
100
AcDbBlockBegin
  2
*Paper_Space0
 70
     0
 10
0.0
 20
0.0
 30
0.0
  3
*Paper_Space0
  1

  0
ENDBLK
  5
25
330
23
100
AcDbEntity
  8
0
100
AcDbBlockEnd
  0
ENDSEC
  0
SECTION
  2
ENTITIES
  0
SPLINE
  5
70
330
1F
100
AcDbEntity
  8
Layer 1
 62
   250
370
     9
100
AcDbSpline
210
0.0
220
0.0
230
1.0
 70
    11
 71
     3
 72
    32
 73
    28
 74
     0
 42
0.000000001
 43
0.0000000001
 40
0.0
 40
0.0
 40
0.0
 40
0.0
 40
0.125
 40
0.125
 40
0.125
 40
0.125
 40
0.25
 40
0.25
 40
0.25
 40
0.25
 40
0.375
 40
0.375
 40
0.375
 40
0.375
 40
0.5
 40
0.5
 40
0.5
 40
0.5
 40
0.625
 40
0.625
 40
0.625
 40
0.625
 40
0.75
 40
0.75
 40
0.75
 40
0.75
 40
1.0
 40
1.0
 40
1.0
 40
1.0
 10
-85.96643307086615
 20
33.64293307086614
 30
0.0
 10
-85.98643700787402
 20
33.70064960629922
 30
0.0
 10
-86.04013779527558
 20
33.79483070866142
 30
0.0
 10
-86.19484645669291
 20
33.90405118110236
 30
0.0
 10
-86.19484645669291
 20
33.90405118110236
 30
0.0
 10
-86.19484645669291
 20
33.90405118110236
 30
0.0
 10
-86.58969685039371
 20
34.21668897637795
 30
0.0
 10
-86.58969685039371
 20
34.21668897637795
 30
0.0
 10
-86.58969685039371
 20
34.21668897637795
 30
0.0
 10
-86.60464566929134
 20
34.22795275590551
 30
0.0
 10
-86.6258031496063
 20
34.24353149606299
 30
0.0
 10
-86.64096062992127
 20
34.25458661417323
 30
0.0
 10
-86.64096062992127
 20
34.25458661417323
 30
0.0
 10
-86.64096062992127
 20
34.25458661417323
 30
0.0
 10
-86.85054330708661
 20
34.22932283464567
 30
0.0
 10
-86.85054330708661
 20
34.22932283464567
 30
0.0
 10
-86.85054330708661
 20
34.22932283464567
 30
0.0
 10
-86.83444094488189
 20
34.21679527559055
 30
0.0
 10
-86.81475590551182
 20
34.19942913385827
 30
0.0
 10
-86.7982283464567
 20
34.18679527559055
 30
0.0
 10
-86.7982283464567
 20
34.18679527559055
 30
0.0
 10
-86.78117716535434
 20
34.17374409448819
 30
0.0
 10
-86.76064960629921
 20
34.15679527559055
 30
0.0
 10
-86.74327952755905
 20
34.14384645669291
 30
0.0
 10
-86.74327952755905
 20
34.14384645669291
 30
0.0
 10
-86.74327952755905
 20
34.14384645669291
 30
0.0
 10
-85.96643307086615
 20
33.64293307086614
 30
0.0
 10
-85.96643307086615
 20
33.64293307086614
 30
0.0
  0
SPLINE
  5
71
330
1F
100
AcDbEntity
  8
Layer 1
 62
   250
370
     9
100
AcDbSpline
210
0.0
220
0.0
230
1.0
 70
    11
 71
     3
 72
    44
 73
    40
 74
     0
 42
0.000000001
 43
0.0000000001
 40
0.0
 40
0.0
 40
0.0
 40
0.0
 40
0.0909090909090909
 40
0.0909090909090909
 40
0.0909090909090909
 40
0.0909090909090909
 40
0.1818181818181818
 40
0.1818181818181818
 40
0.1818181818181818
 40
0.1818181818181818
 40
0.2727272727272727
 40
0.2727272727272727
 40
0.2727272727272727
 40
0.2727272727272727
 40
0.3636363636363636
 40
0.3636363636363636
 40
0.3636363636363636
 40
0.3636363636363636
 40
0.4545454545454545
 40
0.4545454545454545
 40
0.4545454545454545
 40
0.4545454545454545
 40
0.5454545454545454
 40
0.5454545454545454
 40
0.5454545454545454
 40
0.5454545454545454
 40
0.6363636363636364
 40
0.6363636363636364
 40
0.6363636363636364
 40
0.6363636363636364
 40
0.7272727272727273
 40
0.7272727272727273
 40
0.7272727272727273
 40
0.7272727272727273
 40
0.8181818181818182
 40
0.8181818181818182
 40
0.8181818181818182
 40
0.8181818181818182
 40
1.0
 40
1.0
 40
1.0
 40
1.0
 10
-89.12046456692913
 20
38.58968897637795
 30
0.0
 10
-89.12046456692913
 20
38.58968897637795
 30
0.0
 10
-88.90126377952755
 20
37.92297637795276
 30
0.0
 10
-88.90126377952755
 20
37.92297637795276
 30
0.0
 10
-88.90126377952755
 20
37.92297637795276
 30
0.0
 10
-88.90126377952755
 20
37.92297637795276
 30
0.0
 10
-88.18770078740158
 20
37.9243188976378
 30
0.0
 10
-88.18770078740158
 20
37.9243188976378
 30
0.0
 10
-88.18770078740158
 20
37.9243188976378
 30
0.0
 10
-88.18770078740158
 20
37.9243188976378
 30
0.0
 10
-88.76579133858267
 20
37.51361417322835
 30
0.0
 10
-88.76579133858267
 20
37.51361417322835
 30
0.0
 10
-88.76579133858267
 20
37.51361417322835
 30
0.0
 10
-88.76579133858267
 20
37.51361417322835
 30
0.0
 10
-88.54398425196851
 20
36.84773622047244
 30
0.0
 10
-88.54398425196851
 20
36.84773622047244
 30
0.0
 10
-88.54398425196851
 20
36.84773622047244
 30
0.0
 10
-88.54398425196851
 20
36.84773622047244
 30
0.0
 10
-89.12046456692913
 20
37.26061811023622
 30
0.0
 10
-89.12046456692913
 20
37.26061811023622
 30
0.0
 10
-89.12046456692913
 20
37.26061811023622
 30
0.0
 10
-89.12046456692913
 20
37.26061811023622
 30
0.0
 10
-89.69694094488189
 20
36.84773622047244
 30
0.0
 10
-89.69694094488189
 20
36.84773622047244
 30
0.0
 10
-89.69694094488189
 20
36.84773622047244
 30
0.0
 10
-89.69694094488189
 20
36.84773622047244
 30
0.0
 10
-89.47513385826771
 20
37.51361417322835
 30
0.0
 10
-89.47513385826771
 20
37.51361417322835
 30
0.0
 10
-89.47513385826771
 20
37.51361417322835
 30
0.0
 10
-89.47513385826771
 20
37.51361417322835
 30
0.0
 10
-90.05322440944882
 20
37.9243188976378
 30
0.0
 10
-90.05322440944882
 20
37.9243188976378
 30
0.0
 10
-90.05322440944882
 20
37.9243188976378
 30
0.0
 10
-90.05322440944882
 20
37.9243188976378
 30
0.0
 10
-89.33966141732283
 20
37.92297637795276
 30
0.0
 10
-89.33966141732283
 20
37.92297637795276
 30
0.0
 10
-89.33966141732283
 20
37.92297637795276
 30
0.0
 10
-89.33966141732283
 20
37.92297637795276
 30
0.0
 10
-89.12046456692913
 20
38.58968897637795
 30
0.0
 10
-89.12046456692913
 20
38.58968897637795
 30
0.0
  0
SPLINE
  5
72
330
1F
100
AcDbEntity
  8
Layer 1
 62
   250
370
     9
100
AcDbSpline
210
0.0
220
0.0
230
1.0
 70
    11
 71
     3
 72
    44
 73
    40
 74
     0
 42
0.000000001
 43
0.0000000001
 40
0.0
 40
0.0
 40
0.0
 40
0.0
 40
0.0909090909090909
 40
0.0909090909090909
 40
0.0909090909090909
 40
0.0909090909090909
 40
0.1818181818181818
 40
0.1818181818181818
 40
0.1818181818181818
 40
0.1818181818181818
 40
0.2727272727272727
 40
0.2727272727272727
 40
0.2727272727272727
 40
0.2727272727272727
 40
0.3636363636363636
 40
0.3636363636363636
 40
0.3636363636363636
 40
0.3636363636363636
 40
0.4545454545454545
 40
0.4545454545454545
 40
0.4545454545454545
 40
0.4545454545454545
 40
0.5454545454545454
 40
0.5454545454545454
 40
0.5454545454545454
 40
0.5454545454545454
 40
0.6363636363636364
 40
0.6363636363636364
 40
0.6363636363636364
 40
0.6363636363636364
 40
0.7272727272727273
 40
0.7272727272727273
 40
0.7272727272727273
 40
0.7272727272727273
 40
0.8181818181818182
 40
0.8181818181818182
 40
0.8181818181818182
 40
0.8181818181818182
 40
1.0
 40
1.0
 40
1.0
 40
1.0
 10
-87.03774015748031
 20
37.16306299212599
 30
0.0
 10
-87.03774015748031
 20
37.16306299212599
 30
0.0
 10
-86.81854330708661
 20
36.49634645669291
 30
0.0
 10
-86.81854330708661
 20
36.49634645669291
 30
0.0
 10
-86.81854330708661
 20
36.49634645669291
 30
0.0
 10
-86.81854330708661
 20
36.49634645669291
 30
0.0
 10
-86.10498031496063
 20
36.49769291338583
 30
0.0
 10
-86.10498031496063
 20
36.49769291338583
 30
0.0
 10
-86.10498031496063
 20
36.49769291338583
 30
0.0
 10
-86.10498031496063
 20
36.49769291338583
 30
0.0
 10
-86.68306692913386
 20
36.08698818897638
 30
0.0
 10
-86.68306692913386
 20
36.08698818897638
 30
0.0
 10
-86.68306692913386
 20
36.08698818897638
 30
0.0
 10
-86.68306692913386
 20
36.08698818897638
 30
0.0
 10
-86.46125984251968
 20
35.4211062992126
 30
0.0
 10
-86.46125984251968
 20
35.4211062992126
 30
0.0
 10
-86.46125984251968
 20
35.4211062992126
 30
0.0
 10
-86.46125984251968
 20
35.4211062992126
 30
0.0
 10
-87.03774015748031
 20
35.83398818897638
 30
0.0
 10
-87.03774015748031
 20
35.83398818897638
 30
0.0
 10
-87.03774015748031
 20
35.83398818897638
 30
0.0
 10
-87.03774015748031
 20
35.83398818897638
 30
0.0
 10
-87.61421653543307
 20
35.4211062992126
 30
0.0
 10
-87.61421653543307
 20
35.4211062992126
 30
0.0
 10
-87.61421653543307
 20
35.4211062992126
 30
0.0
 10
-87.61421653543307
 20
35.4211062992126
 30
0.0
 10
-87.39241338582677
 20
36.08698818897638
 30
0.0
 10
-87.39241338582677
 20
36.08698818897638
 30
0.0
 10
-87.39241338582677
 20
36.08698818897638
 30
0.0
 10
-87.39241338582677
 20
36.08698818897638
 30
0.0
 10
-87.9705
 20
36.49769291338583
 30
0.0
 10
-87.9705
 20
36.49769291338583
 30
0.0
 10
-87.9705
 20
36.49769291338583
 30
0.0
 10
-87.9705
 20
36.49769291338583
 30
0.0
 10
-87.25693700787401
 20
36.49634645669291
 30
0.0
 10
-87.25693700787401
 20
36.49634645669291
 30
0.0
 10
-87.25693700787401
 20
36.49634645669291
 30
0.0
 10
-87.25693700787401
 20
36.49634645669291
 30
0.0
 10
-87.03774015748031
 20
37.16306299212599
 30
0.0
 10
-87.03774015748031
 20
37.16306299212599
 30
0.0
  0
SPLINE
  5
73
330
1F
100
AcDbEntity
  8
Layer 1
 62
   250
370
     9
100
AcDbSpline
210
0.0
220
0.0
230
1.0
 70
    11
 71
     3
 72
    44
 73
    40
 74
     0
 42
0.000000001
 43
0.0000000001
 40
0.0
 40
0.0
 40
0.0
 40
0.0
 40
0.0909090909090909
 40
0.0909090909090909
 40
0.0909090909090909
 40
0.0909090909090909
 40
0.1818181818181818
 40
0.1818181818181818
 40
0.1818181818181818
 40
0.1818181818181818
 40
0.2727272727272727
 40
0.2727272727272727
 40
0.2727272727272727
 40
0.2727272727272727
 40
0.3636363636363636
 40
0.3636363636363636
 40
0.3636363636363636
 40
0.3636363636363636
 40
0.4545454545454545
 40
0.4545454545454545
 40
0.4545454545454545
 40
0.4545454545454545
 40
0.5454545454545454
 40
0.5454545454545454
 40
0.5454545454545454
 40
0.5454545454545454
 40
0.6363636363636364
 40
0.6363636363636364
 40
0.6363636363636364
 40
0.6363636363636364
 40
0.7272727272727273
 40
0.7272727272727273
 40
0.7272727272727273
 40
0.7272727272727273
 40
0.8181818181818182
 40
0.8181818181818182
 40
0.8181818181818182
 40
0.8181818181818182
 40
1.0
 40
1.0
 40
1.0
 40
1.0
 10
-84.90525590551181
 20
35.45894881889764
 30
0.0
 10
-84.90525590551181
 20
35.45894881889764
 30
0.0
 10
-84.68605905511811
 20
34.79223228346456
 30
0.0
 10
-84.68605905511811
 20
34.79223228346456
 30
0.0
 10
-84.68605905511811
 20
34.79223228346456
 30
0.0
 10
-84.68605905511811
 20
34.79223228346456
 30
0.0
 10
-83.97249606299212
 20
34.79357874015748
 30
0.0
 10
-83.97249606299212
 20
34.79357874015748
 30
0.0
 10
-83.97249606299212
 20
34.79357874015748
 30
0.0
 10
-83.97249606299212
 20
34.79357874015748
 30
0.0
 10
-84.55058661417323
 20
34.38287401574803
 30
0.0
 10
-84.55058661417323
 20
34.38287401574803
 30
0.0
 10
-84.55058661417323
 20
34.38287401574803
 30
0.0
 10
-84.55058661417323
 20
34.38287401574803
 30
0.0
 10
-84.32877952755905
 20
33.71699212598426
 30
0.0
 10
-84.32877952755905
 20
33.71699212598426
 30
0.0
 10
-84.32877952755905
 20
33.71699212598426
 30
0.0
 10
-84.32877952755905
 20
33.71699212598426
 30
0.0
 10
-84.90525590551181
 20
34.1298779527559
 30
0.0
 10
-84.90525590551181
 20
34.1298779527559
 30
0.0
 10
-84.90525590551181
 20
34.1298779527559
 30
0.0
 10
-84.90525590551181
 20
34.1298779527559
 30
0.0
 10
-85.48173622047244
 20
33.71699212598426
 30
0.0
 10
-85.48173622047244
 20
33.71699212598426
 30
0.0
 10
-85.48173622047244
 20
33.71699212598426
 30
0.0
 10
-85.48173622047244
 20
33.71699212598426
 30
0.0
 10
-85.25992913385826
 20
34.38287401574803
 30
0.0
 10
-85.25992913385826
 20
34.38287401574803
 30
0.0
 10
-85.25992913385826
 20
34.38287401574803
 30
0.0
 10
-85.25992913385826
 20
34.38287401574803
 30
0.0
 10
-85.83801968503937
 20
34.79357874015748
 30
0.0
 10
-85.83801968503937
 20
34.79357874015748
 30
0.0
 10
-85.83801968503937
 20
34.79357874015748
 30
0.0
 10
-85.83801968503937
 20
34.79357874015748
 30
0.0
 10
-85.12445669291338
 20
34.79223228346456
 30
0.0
 10
-85.12445669291338
 20
34.79223228346456
 30
0.0
 10
-85.12445669291338
 20
34.79223228346456
 30
0.0
 10
-85.12445669291338
 20
34.79223228346456
 30
0.0
 10
-84.90525590551181
 20
35.45894881889764
 30
0.0
 10
-84.90525590551181
 20
35.45894881889764
 30
0.0
  0
SPLINE
  5
74
330
1F
100
AcDbEntity
  8
Layer 1
 62
   250
370
     9
100
AcDbSpline
210
0.0
220
0.0
230
1.0
 70
    11
 71
     3
 72
    44
 73
    40
 74
     0
 42
0.000000001
 43
0.0000000001
 40
0.0
 40
0.0
 40
0.0
 40
0.0
 40
0.0909090909090909
 40
0.0909090909090909
 40
0.0909090909090909
 40
0.0909090909090909
 40
0.1818181818181818
 40
0.1818181818181818
 40
0.1818181818181818
 40
0.1818181818181818
 40
0.2727272727272727
 40
0.2727272727272727
 40
0.2727272727272727
 40
0.2727272727272727
 40
0.3636363636363636
 40
0.3636363636363636
 40
0.3636363636363636
 40
0.3636363636363636
 40
0.4545454545454545
 40
0.4545454545454545
 40
0.4545454545454545
 40
0.4545454545454545
 40
0.5454545454545454
 40
0.5454545454545454
 40
0.5454545454545454
 40
0.5454545454545454
 40
0.6363636363636364
 40
0.6363636363636364
 40
0.6363636363636364
 40
0.6363636363636364
 40
0.7272727272727273
 40
0.7272727272727273
 40
0.7272727272727273
 40
0.7272727272727273
 40
0.8181818181818182
 40
0.8181818181818182
 40
0.8181818181818182
 40
0.8181818181818182
 40
1.0
 40
1.0
 40
1.0
 40
1.0
 10
-82.36758661417323
 20
33.6343937007874
 30
0.0
 10
-82.36758661417323
 20
33.6343937007874
 30
0.0
 10
-82.14838976377953
 20
32.96767716535433
 30
0.0
 10
-82.14838976377953
 20
32.96767716535433
 30
0.0
 10
-82.14838976377953
 20
32.96767716535433
 30
0.0
 10
-82.14838976377953
 20
32.96767716535433
 30
0.0
 10
-81.43482677165355
 20
32.96902362204725
 30
0.0
 10
-81.43482677165355
 20
32.96902362204725
 30
0.0
 10
-81.43482677165355
 20
32.96902362204725
 30
0.0
 10
-81.43482677165355
 20
32.96902362204725
 30
0.0
 10
-82.01291338582678
 20
32.5583188976378
 30
0.0
 10
-82.01291338582678
 20
32.5583188976378
 30
0.0
 10
-82.01291338582678
 20
32.5583188976378
 30
0.0
 10
-82.01291338582678
 20
32.5583188976378
 30
0.0
 10
-81.79111023622048
 20
31.89243700787402
 30
0.0
 10
-81.79111023622048
 20
31.89243700787402
 30
0.0
 10
-81.79111023622048
 20
31.89243700787402
 30
0.0
 10
-81.79111023622048
 20
31.89243700787402
 30
0.0
 10
-82.36758661417323
 20
32.3053188976378
 30
0.0
 10
-82.36758661417323
 20
32.3053188976378
 30
0.0
 10
-82.36758661417323
 20
32.3053188976378
 30
0.0
 10
-82.36758661417323
 20
32.3053188976378
 30
0.0
 10
-82.94406692913385
 20
31.89243700787402
 30
0.0
 10
-82.94406692913385
 20
31.89243700787402
 30
0.0
 10
-82.94406692913385
 20
31.89243700787402
 30
0.0
 10
-82.94406692913385
 20
31.89243700787402
 30
0.0
 10
-82.72225984251969
 20
32.5583188976378
 30
0.0
 10
-82.72225984251969
 20
32.5583188976378
 30
0.0
 10
-82.72225984251969
 20
32.5583188976378
 30
0.0
 10
-82.72225984251969
 20
32.5583188976378
 30
0.0
 10
-83.3003464566929
 20
32.96902362204725
 30
0.0
 10
-83.3003464566929
 20
32.96902362204725
 30
0.0
 10
-83.3003464566929
 20
32.96902362204725
 30
0.0
 10
-83.3003464566929
 20
32.96902362204725
 30
0.0
 10
-82.58678346456693
 20
32.96767716535433
 30
0.0
 10
-82.58678346456693
 20
32.96767716535433
 30
0.0
 10
-82.58678346456693
 20
32.96767716535433
 30
0.0
 10
-82.58678346456693
 20
32.96767716535433
 30
0.0
 10
-82.36758661417323
 20
33.6343937007874
 30
0.0
 10
-82.36758661417323
 20
33.6343937007874
 30
0.0
  0
SPLINE
  5
75
330
1F
100
AcDbEntity
  8
Layer 1
 62
   250
370
     9
100
AcDbSpline
210
0.0
220
0.0
230
1.0
 70
    11
 71
     3
 72
    44
 73
    40
 74
     0
 42
0.000000001
 43
0.0000000001
 40
0.0
 40
0.0
 40
0.0
 40
0.0
 40
0.0909090909090909
 40
0.0909090909090909
 40
0.0909090909090909
 40
0.0909090909090909
 40
0.1818181818181818
 40
0.1818181818181818
 40
0.1818181818181818
 40
0.1818181818181818
 40
0.2727272727272727
 40
0.2727272727272727
 40
0.2727272727272727
 40
0.2727272727272727
 40
0.3636363636363636
 40
0.3636363636363636
 40
0.3636363636363636
 40
0.3636363636363636
 40
0.4545454545454545
 40
0.4545454545454545
 40
0.4545454545454545
 40
0.4545454545454545
 40
0.5454545454545454
 40
0.5454545454545454
 40
0.5454545454545454
 40
0.5454545454545454
 40
0.6363636363636364
 40
0.6363636363636364
 40
0.6363636363636364
 40
0.6363636363636364
 40
0.7272727272727273
 40
0.7272727272727273
 40
0.7272727272727273
 40
0.7272727272727273
 40
0.8181818181818182
 40
0.8181818181818182
 40
0.8181818181818182
 40
0.8181818181818182
 40
1.0
 40
1.0
 40
1.0
 40
1.0
 10
-79.93688976377953
 20
35.2984842519685
 30
0.0
 10
-79.93688976377953
 20
35.2984842519685
 30
0.0
 10
-79.71769291338583
 20
34.6317716535433
 30
0.0
 10
-79.71769291338583
 20
34.6317716535433
 30
0.0
 10
-79.71769291338583
 20
34.6317716535433
 30
0.0
 10
-79.71769291338583
 20
34.6317716535433
 30
0.0
 10
-79.00412992125985
 20
34.63311417322835
 30
0.0
 10
-79.00412992125985
 20
34.63311417322835
 30
0.0
 10
-79.00412992125985
 20
34.63311417322835
 30
0.0
 10
-79.00412992125985
 20
34.63311417322835
 30
0.0
 10
-79.58221653543308
 20
34.2224094488189
 30
0.0
 10
-79.58221653543308
 20
34.2224094488189
 30
0.0
 10
-79.58221653543308
 20
34.2224094488189
 30
0.0
 10
-79.58221653543308
 20
34.2224094488189
 30
0.0
 10
-79.3604094488189
 20
33.55653149606299
 30
0.0
 10
-79.3604094488189
 20
33.55653149606299
 30
0.0
 10
-79.3604094488189
 20
33.55653149606299
 30
0.0
 10
-79.3604094488189
 20
33.55653149606299
 30
0.0
 10
-79.93688976377953
 20
33.96941338582677
 30
0.0
 10
-79.93688976377953
 20
33.96941338582677
 30
0.0
 10
-79.93688976377953
 20
33.96941338582677
 30
0.0
 10
-79.93688976377953
 20
33.96941338582677
 30
0.0
 10
-80.51336614173228
 20
33.55653149606299
 30
0.0
 10
-80.51336614173228
 20
33.55653149606299
 30
0.0
 10
-80.51336614173228
 20
33.55653149606299
 30
0.0
 10
-80.51336614173228
 20
33.55653149606299
 30
0.0
 10
-80.29156299212599
 20
34.2224094488189
 30
0.0
 10
-80.29156299212599
 20
34.2224094488189
 30
0.0
 10
-80.29156299212599
 20
34.2224094488189
 30
0.0
 10
-80.29156299212599
 20
34.2224094488189
 30
0.0
 10
-80.86964960629922
 20
34.63311417322835
 30
0.0
 10
-80.86964960629922
 20
34.63311417322835
 30
0.0
 10
-80.86964960629922
 20
34.63311417322835
 30
0.0
 10
-80.86964960629922
 20
34.63311417322835
 30
0.0
 10
-80.15608661417323
 20
34.6317716535433
 30
0.0
 10
-80.15608661417323
 20
34.6317716535433
 30
0.0
 10
-80.15608661417323
 20
34.6317716535433
 30
0.0
 10
-80.15608661417323
 20
34.6317716535433
 30
0.0
 10
-79.93688976377953
 20
35.2984842519685
 30
0.0
 10
-79.93688976377953
 20
35.2984842519685
 30
0.0
  0
SPLINE
  5
76
330
1F
100
AcDbEntity
  8
Layer 1
 62
   250
370
     9
100
AcDbSpline
210
0.0
220
0.0
230
1.0
 70
    11
 71
     3
 72
    44
 73
    40
 74
     0
 42
0.000000001
 43
0.0000000001
 40
0.0
 40
0.0
 40
0.0
 40
0.0
 40
0.0909090909090909
 40
0.0909090909090909
 40
0.0909090909090909
 40
0.0909090909090909
 40
0.1818181818181818
 40
0.1818181818181818
 40
0.1818181818181818
 40
0.1818181818181818
 40
0.2727272727272727
 40
0.2727272727272727
 40
0.2727272727272727
 40
0.2727272727272727
 40
0.3636363636363636
 40
0.3636363636363636
 40
0.3636363636363636
 40
0.3636363636363636
 40
0.4545454545454545
 40
0.4545454545454545
 40
0.4545454545454545
 40
0.4545454545454545
 40
0.5454545454545454
 40
0.5454545454545454
 40
0.5454545454545454
 40
0.5454545454545454
 40
0.6363636363636364
 40
0.6363636363636364
 40
0.6363636363636364
 40
0.6363636363636364
 40
0.7272727272727273
 40
0.7272727272727273
 40
0.7272727272727273
 40
0.7272727272727273
 40
0.8181818181818182
 40
0.8181818181818182
 40
0.8181818181818182
 40
0.8181818181818182
 40
1.0
 40
1.0
 40
1.0
 40
1.0
 10
-77.5809842519685
 20
36.98127559055118
 30
0.0
 10
-77.5809842519685
 20
36.98127559055118
 30
0.0
 10
-77.3617874015748
 20
36.31455905511811
 30
0.0
 10
-77.3617874015748
 20
36.31455905511811
 30
0.0
 10
-77.3617874015748
 20
36.31455905511811
 30
0.0
 10
-77.3617874015748
 20
36.31455905511811
 30
0.0
 10
-76.64822440944882
 20
36.31590551181102
 30
0.0
 10
-76.64822440944882
 20
36.31590551181102
 30
0.0
 10
-76.64822440944882
 20
36.31590551181102
 30
0.0
 10
-76.64822440944882
 20
36.31590551181102
 30
0.0
 10
-77.22631496062992
 20
35.90520078740158
 30
0.0
 10
-77.22631496062992
 20
35.90520078740158
 30
0.0
 10
-77.22631496062992
 20
35.90520078740158
 30
0.0
 10
-77.22631496062992
 20
35.90520078740158
 30
0.0
 10
-77.00450787401574
 20
35.23931889763779
 30
0.0
 10
-77.00450787401574
 20
35.23931889763779
 30
0.0
 10
-77.00450787401574
 20
35.23931889763779
 30
0.0
 10
-77.00450787401574
 20
35.23931889763779
 30
0.0
 10
-77.5809842519685
 20
35.65220078740158
 30
0.0
 10
-77.5809842519685
 20
35.65220078740158
 30
0.0
 10
-77.5809842519685
 20
35.65220078740158
 30
0.0
 10
-77.5809842519685
 20
35.65220078740158
 30
0.0
 10
-78.15746456692914
 20
35.23931889763779
 30
0.0
 10
-78.15746456692914
 20
35.23931889763779
 30
0.0
 10
-78.15746456692914
 20
35.23931889763779
 30
0.0
 10
-78.15746456692914
 20
35.23931889763779
 30
0.0
 10
-77.93565748031496
 20
35.90520078740158
 30
0.0
 10
-77.93565748031496
 20
35.90520078740158
 30
0.0
 10
-77.93565748031496
 20
35.90520078740158
 30
0.0
 10
-77.93565748031496
 20
35.90520078740158
 30
0.0
 10
-78.51374803149606
 20
36.31590551181102
 30
0.0
 10
-78.51374803149606
 20
36.31590551181102
 30
0.0
 10
-78.51374803149606
 20
36.31590551181102
 30
0.0
 10
-78.51374803149606
 20
36.31590551181102
 30
0.0
 10
-77.80018503937008
 20
36.31455905511811
 30
0.0
 10
-77.80018503937008
 20
36.31455905511811
 30
0.0
 10
-77.80018503937008
 20
36.31455905511811
 30
0.0
 10
-77.80018503937008
 20
36.31455905511811
 30
0.0
 10
-77.5809842519685
 20
36.98127559055118
 30
0.0
 10
-77.5809842519685
 20
36.98127559055118
 30
0.0
  0
SPLINE
  5
77
330
1F
100
AcDbEntity
  8
Layer 1
 62
   250
370
     9
100
AcDbSpline
210
0.0
220
0.0
230
1.0
 70
     8
 71
     3
 72
    36
 73
    32
 74
     0
 42
0.000000001
 43
0.0000000001
 40
0.0
 40
0.0
 40
0.0
 40
0.0
 40
0.1111111111111111
 40
0.1111111111111111
 40
0.1111111111111111
 40
0.1111111111111111
 40
0.2222222222222222
 40
0.2222222222222222
 40
0.2222222222222222
 40
0.2222222222222222
 40
0.3333333333333333
 40
0.3333333333333333
 40
0.3333333333333333
 40
0.3333333333333333
 40
0.4444444444444444
 40
0.4444444444444444
 40
0.4444444444444444
 40
0.4444444444444444
 40
0.5555555555555556
 40
0.5555555555555556
 40
0.5555555555555556
 40
0.5555555555555556
 40
0.6666666666666666
 40
0.6666666666666666
 40
0.6666666666666666
 40
0.6666666666666666
 40
0.7777777777777778
 40
0.7777777777777778
 40
0.7777777777777778
 40
0.7777777777777778
 40
1.0
 40
1.0
 40
1.0
 40
1.0
 10
-75.31568503937008
 20
37.41103543307086
 30
0.0
 10
-75.31568503937008
 20
37.41103543307086
 30
0.0
 10
-75.3791062992126
 20
37.36597637795276
 30
0.0
 10
-75.3791062992126
 20
37.36597637795276
 30
0.0
 10
-75.3791062992126
 20
37.36597637795276
 30
0.0
 10
-75.3791062992126
 20
37.36597637795276
 30
0.0
 10
-75.15729527559056
 20
36.70009448818897
 30
0.0
 10
-75.15729527559056
 20
36.70009448818897
 30
0.0
 10
-75.15729527559056
 20
36.70009448818897
 30
0.0
 10
-75.15729527559056
 20
36.70009448818897
 30
0.0
 10
-75.73377952755905
 20
37.11297637795276
 30
0.0
 10
-75.73377952755905
 20
37.11297637795276
 30
0.0
 10
-75.73377952755905
 20
37.11297637795276
 30
0.0
 10
-75.73377952755905
 20
37.11297637795276
 30
0.0
 10
-76.31025590551181
 20
36.70009448818897
 30
0.0
 10
-76.31025590551181
 20
36.70009448818897
 30
0.0
 10
-76.31025590551181
 20
36.70009448818897
 30
0.0
 10
-76.31025590551181
 20
36.70009448818897
 30
0.0
 10
-76.08844881889763
 20
37.36597637795276
 30
0.0
 10
-76.08844881889763
 20
37.36597637795276
 30
0.0
 10
-76.08844881889763
 20
37.36597637795276
 30
0.0
 10
-76.08844881889763
 20
37.36597637795276
 30
0.0
 10
-76.66653543307086
 20
37.7766811023622
 30
0.0
 10
-76.66653543307086
 20
37.7766811023622
 30
0.0
 10
-76.66653543307086
 20
37.7766811023622
 30
0.0
 10
-76.66653543307086
 20
37.7766811023622
 30
0.0
 10
-75.95297637795275
 20
37.77533464566929
 30
0.0
 10
-75.95297637795275
 20
37.77533464566929
 30
0.0
 10
-75.95297637795275
 20
37.77533464566929
 30
0.0
 10
-75.95297637795275
 20
37.77533464566929
 30
0.0
 10
-75.89134251968504
 20
37.96279921259843
 30
0.0
 10
-75.89134251968504
 20
37.96279921259843
 30
0.0
  0
SPLINE
  5
78
330
1F
100
AcDbEntity
  8
Layer 1
 62
   250
370
     9
100
AcDbSpline
210
0.0
220
0.0
230
1.0
 70
    11
 71
     3
 72
    44
 73
    40
 74
     0
 42
0.000000001
 43
0.0000000001
 40
0.0
 40
0.0
 40
0.0
 40
0.0
 40
0.0909090909090909
 40
0.0909090909090909
 40
0.0909090909090909
 40
0.0909090909090909
 40
0.1818181818181818
 40
0.1818181818181818
 40
0.1818181818181818
 40
0.1818181818181818
 40
0.2727272727272727
 40
0.2727272727272727
 40
0.2727272727272727
 40
0.2727272727272727
 40
0.3636363636363636
 40
0.3636363636363636
 40
0.3636363636363636
 40
0.3636363636363636
 40
0.4545454545454545
 40
0.4545454545454545
 40
0.4545454545454545
 40
0.4545454545454545
 40
0.5454545454545454
 40
0.5454545454545454
 40
0.5454545454545454
 40
0.5454545454545454
 40
0.6363636363636364
 40
0.6363636363636364
 40
0.6363636363636364
 40
0.6363636363636364
 40
0.7272727272727273
 40
0.7272727272727273
 40
0.7272727272727273
 40
0.7272727272727273
 40
0.8181818181818182
 40
0.8181818181818182
 40
0.8181818181818182
 40
0.8181818181818182
 40
1.0
 40
1.0
 40
1.0
 40
1.0
 10
-79.8755905511811
 20
31.77202362204724
 30
0.0
 10
-79.8755905511811
 20
31.77202362204724
 30
0.0
 10
-79.65638976377953
 20
31.10530708661417
 30
0.0
 10
-79.65638976377953
 20
31.10530708661417
 30
0.0
 10
-79.65638976377953
 20
31.10530708661417
 30
0.0
 10
-79.65638976377953
 20
31.10530708661417
 30
0.0
 10
-78.94282677165354
 20
31.10665354330709
 30
0.0
 10
-78.94282677165354
 20
31.10665354330709
 30
0.0
 10
-78.94282677165354
 20
31.10665354330709
 30
0.0
 10
-78.94282677165354
 20
31.10665354330709
 30
0.0
 10
-79.52091732283465
 20
30.69594881889764
 30
0.0
 10
-79.52091732283465
 20
30.69594881889764
 30
0.0
 10
-79.52091732283465
 20
30.69594881889764
 30
0.0
 10
-79.52091732283465
 20
30.69594881889764
 30
0.0
 10
-79.29911023622047
 20
30.03006692913386
 30
0.0
 10
-79.29911023622047
 20
30.03006692913386
 30
0.0
 10
-79.29911023622047
 20
30.03006692913386
 30
0.0
 10
-79.29911023622047
 20
30.03006692913386
 30
0.0
 10
-79.8755905511811
 20
30.44294881889764
 30
0.0
 10
-79.8755905511811
 20
30.44294881889764
 30
0.0
 10
-79.8755905511811
 20
30.44294881889764
 30
0.0
 10
-79.8755905511811
 20
30.44294881889764
 30
0.0
 10
-80.45206692913386
 20
30.03006692913386
 30
0.0
 10
-80.45206692913386
 20
30.03006692913386
 30
0.0
 10
-80.45206692913386
 20
30.03006692913386
 30
0.0
 10
-80.45206692913386
 20
30.03006692913386
 30
0.0
 10
-80.23025984251969
 20
30.69594881889764
 30
0.0
 10
-80.23025984251969
 20
30.69594881889764
 30
0.0
 10
-80.23025984251969
 20
30.69594881889764
 30
0.0
 10
-80.23025984251969
 20
30.69594881889764
 30
0.0
 10
-80.80835039370079
 20
31.10665354330709
 30
0.0
 10
-80.80835039370079
 20
31.10665354330709
 30
0.0
 10
-80.80835039370079
 20
31.10665354330709
 30
0.0
 10
-80.80835039370079
 20
31.10665354330709
 30
0.0
 10
-80.0947874015748
 20
31.10530708661417
 30
0.0
 10
-80.0947874015748
 20
31.10530708661417
 30
0.0
 10
-80.0947874015748
 20
31.10530708661417
 30
0.0
 10
-80.0947874015748
 20
31.10530708661417
 30
0.0
 10
-79.8755905511811
 20
31.77202362204724
 30
0.0
 10
-79.8755905511811
 20
31.77202362204724
 30
0.0
  0
SPLINE
  5
79
330
1F
100
AcDbEntity
  8
Layer 1
 62
   250
370
     9
100
AcDbSpline
210
0.0
220
0.0
230
1.0
 70
     8
 71
     3
 72
    12
 73
     8
 74
     0
 42
0.000000001
 43
0.0000000001
 40
0.0
 40
0.0
 40
0.0
 40
0.0
 40
0.3333333333333333
 40
0.3333333333333333
 40
0.3333333333333333
 40
0.3333333333333333
 40
1.0
 40
1.0
 40
1.0
 40
1.0
 10
-77.3923937007874
 20
28.53366141732284
 30
0.0
 10
-77.3923937007874
 20
28.53366141732284
 30
0.0
 10
-77.64461417322835
 20
28.71430708661417
 30
0.0
 10
-77.64461417322835
 20
28.71430708661417
 30
0.0
 10
-77.64461417322835
 20
28.71430708661417
 30
0.0
 10
-77.64461417322835
 20
28.71430708661417
 30
0.0
 10
-78.09818503937008
 20
28.38944881889764
 30
0.0
 10
-78.09818503937008
 20
28.38944881889764
 30
0.0
  0
SPLINE
  5
7A
330
1F
100
AcDbEntity
  8
Layer 1
 62
   250
370
     9
100
AcDbSpline
210
0.0
220
0.0
230
1.0
 70
     8
 71
     3
 72
    36
 73
    32
 74
     0
 42
0.000000001
 43
0.0000000001
 40
0.0
 40
0.0
 40
0.0
 40
0.0
 40
0.1111111111111111
 40
0.1111111111111111
 40
0.1111111111111111
 40
0.1111111111111111
 40
0.2222222222222222
 40
0.2222222222222222
 40
0.2222222222222222
 40
0.2222222222222222
 40
0.3333333333333333
 40
0.3333333333333333
 40
0.3333333333333333
 40
0.3333333333333333
 40
0.4444444444444444
 40
0.4444444444444444
 40
0.4444444444444444
 40
0.4444444444444444
 40
0.5555555555555556
 40
0.5555555555555556
 40
0.5555555555555556
 40
0.5555555555555556
 40
0.6666666666666666
 40
0.6666666666666666
 40
0.6666666666666666
 40
0.6666666666666666
 40
0.7777777777777778
 40
0.7777777777777778
 40
0.7777777777777778
 40
0.7777777777777778
 40
1.0
 40
1.0
 40
1.0
 40
1.0
 10
-78.19932283464567
 20
28.36677559055118
 30
0.0
 10
-78.19932283464567
 20
28.36677559055118
 30
0.0
 10
-77.99928346456693
 20
28.9673031496063
 30
0.0
 10
-77.99928346456693
 20
28.9673031496063
 30
0.0
 10
-77.99928346456693
 20
28.9673031496063
 30
0.0
 10
-77.99928346456693
 20
28.9673031496063
 30
0.0
 10
-78.57737795275591
 20
29.37801181102362
 30
0.0
 10
-78.57737795275591
 20
29.37801181102362
 30
0.0
 10
-78.57737795275591
 20
29.37801181102362
 30
0.0
 10
-78.57737795275591
 20
29.37801181102362
 30
0.0
 10
-77.86380708661417
 20
29.37666535433071
 30
0.0
 10
-77.86380708661417
 20
29.37666535433071
 30
0.0
 10
-77.86380708661417
 20
29.37666535433071
 30
0.0
 10
-77.86380708661417
 20
29.37666535433071
 30
0.0
 10
-77.64461417322835
 20
30.0433779527559
 30
0.0
 10
-77.64461417322835
 20
30.0433779527559
 30
0.0
 10
-77.64461417322835
 20
30.0433779527559
 30
0.0
 10
-77.64461417322835
 20
30.0433779527559
 30
0.0
 10
-77.42541338582677
 20
29.37666535433071
 30
0.0
 10
-77.42541338582677
 20
29.37666535433071
 30
0.0
 10
-77.42541338582677
 20
29.37666535433071
 30
0.0
 10
-77.42541338582677
 20
29.37666535433071
 30
0.0
 10
-76.71184645669291
 20
29.37801181102362
 30
0.0
 10
-76.71184645669291
 20
29.37801181102362
 30
0.0
 10
-76.71184645669291
 20
29.37801181102362
 30
0.0
 10
-76.71184645669291
 20
29.37801181102362
 30
0.0
 10
-77.28993700787402
 20
28.9673031496063
 30
0.0
 10
-77.28993700787402
 20
28.9673031496063
 30
0.0
 10
-77.28993700787402
 20
28.9673031496063
 30
0.0
 10
-77.28993700787402
 20
28.9673031496063
 30
0.0
 10
-77.15780708661417
 20
28.57063385826772
 30
0.0
 10
-77.15780708661417
 20
28.57063385826772
 30
0.0
  0
SPLINE
  5
7B
330
1F
100
AcDbEntity
  8
Layer 1
 62
   250
370
     9
100
AcDbSpline
210
0.0
220
0.0
230
1.0
 70
    11
 71
     3
 72
    44
 73
    40
 74
     0
 42
0.000000001
 43
0.0000000001
 40
0.0
 40
0.0
 40
0.0
 40
0.0
 40
0.0909090909090909
 40
0.0909090909090909
 40
0.0909090909090909
 40
0.0909090909090909
 40
0.1818181818181818
 40
0.1818181818181818
 40
0.1818181818181818
 40
0.1818181818181818
 40
0.2727272727272727
 40
0.2727272727272727
 40
0.2727272727272727
 40
0.2727272727272727
 40
0.3636363636363636
 40
0.3636363636363636
 40
0.3636363636363636
 40
0.3636363636363636
 40
0.4545454545454545
 40
0.4545454545454545
 40
0.4545454545454545
 40
0.4545454545454545
 40
0.5454545454545454
 40
0.5454545454545454
 40
0.5454545454545454
 40
0.5454545454545454
 40
0.6363636363636364
 40
0.6363636363636364
 40
0.6363636363636364
 40
0.6363636363636364
 40
0.7272727272727273
 40
0.7272727272727273
 40
0.7272727272727273
 40
0.7272727272727273
 40
0.8181818181818182
 40
0.8181818181818182
 40
0.8181818181818182
 40
0.8181818181818182
 40
1.0
 40
1.0
 40
1.0
 40
1.0
 10
-84.68609448818897
 20
31.65244488188976
 30
0.0
 10
-84.68609448818897
 20
31.65244488188976
 30
0.0
 10
-84.46689763779527
 20
30.98572834645669
 30
0.0
 10
-84.46689763779527
 20
30.98572834645669
 30
0.0
 10
-84.46689763779527
 20
30.98572834645669
 30
0.0
 10
-84.46689763779527
 20
30.98572834645669
 30
0.0
 10
-83.7533346456693
 20
30.98707480314961
 30
0.0
 10
-83.7533346456693
 20
30.98707480314961
 30
0.0
 10
-83.7533346456693
 20
30.98707480314961
 30
0.0
 10
-83.7533346456693
 20
30.98707480314961
 30
0.0
 10
-84.33142125984251
 20
30.57636614173228
 30
0.0
 10
-84.33142125984251
 20
30.57636614173228
 30
0.0
 10
-84.33142125984251
 20
30.57636614173228
 30
0.0
 10
-84.33142125984251
 20
30.57636614173228
 30
0.0
 10
-84.10961811023623
 20
29.91048818897638
 30
0.0
 10
-84.10961811023623
 20
29.91048818897638
 30
0.0
 10
-84.10961811023623
 20
29.91048818897638
 30
0.0
 10
-84.10961811023623
 20
29.91048818897638
 30
0.0
 10
-84.68609448818897
 20
30.32337007874016
 30
0.0
 10
-84.68609448818897
 20
30.32337007874016
 30
0.0
 10
-84.68609448818897
 20
30.32337007874016
 30
0.0
 10
-84.68609448818897
 20
30.32337007874016
 30
0.0
 10
-85.2625748031496
 20
29.91048818897638
 30
0.0
 10
-85.2625748031496
 20
29.91048818897638
 30
0.0
 10
-85.2625748031496
 20
29.91048818897638
 30
0.0
 10
-85.2625748031496
 20
29.91048818897638
 30
0.0
 10
-85.04076771653543
 20
30.57636614173228
 30
0.0
 10
-85.04076771653543
 20
30.57636614173228
 30
0.0
 10
-85.04076771653543
 20
30.57636614173228
 30
0.0
 10
-85.04076771653543
 20
30.57636614173228
 30
0.0
 10
-85.61885433070866
 20
30.98707480314961
 30
0.0
 10
-85.61885433070866
 20
30.98707480314961
 30
0.0
 10
-85.61885433070866
 20
30.98707480314961
 30
0.0
 10
-85.61885433070866
 20
30.98707480314961
 30
0.0
 10
-84.90529133858267
 20
30.98572834645669
 30
0.0
 10
-84.90529133858267
 20
30.98572834645669
 30
0.0
 10
-84.90529133858267
 20
30.98572834645669
 30
0.0
 10
-84.90529133858267
 20
30.98572834645669
 30
0.0
 10
-84.68609448818897
 20
31.65244488188976
 30
0.0
 10
-84.68609448818897
 20
31.65244488188976
 30
0.0
  0
SPLINE
  5
7C
330
1F
100
AcDbEntity
  8
Layer 1
 62
   250
370
     9
100
AcDbSpline
210
0.0
220
0.0
230
1.0
 70
    11
 71
     3
 72
    44
 73
    40
 74
     0
 42
0.000000001
 43
0.0000000001
 40
0.0
 40
0.0
 40
0.0
 40
0.0
 40
0.0909090909090909
 40
0.0909090909090909
 40
0.0909090909090909
 40
0.0909090909090909
 40
0.1818181818181818
 40
0.1818181818181818
 40
0.1818181818181818
 40
0.1818181818181818
 40
0.2727272727272727
 40
0.2727272727272727
 40
0.2727272727272727
 40
0.2727272727272727
 40
0.3636363636363636
 40
0.3636363636363636
 40
0.3636363636363636
 40
0.3636363636363636
 40
0.4545454545454545
 40
0.4545454545454545
 40
0.4545454545454545
 40
0.4545454545454545
 40
0.5454545454545454
 40
0.5454545454545454
 40
0.5454545454545454
 40
0.5454545454545454
 40
0.6363636363636364
 40
0.6363636363636364
 40
0.6363636363636364
 40
0.6363636363636364
 40
0.7272727272727273
 40
0.7272727272727273
 40
0.7272727272727273
 40
0.7272727272727273
 40
0.8181818181818182
 40
0.8181818181818182
 40
0.8181818181818182
 40
0.8181818181818182
 40
1.0
 40
1.0
 40
1.0
 40
1.0
 10
-87.45335039370079
 20
29.74528346456693
 30
0.0
 10
-87.45335039370079
 20
29.74528346456693
 30
0.0
 10
-87.23414960629921
 20
29.07856692913386
 30
0.0
 10
-87.23414960629921
 20
29.07856692913386
 30
0.0
 10
-87.23414960629921
 20
29.07856692913386
 30
0.0
 10
-87.23414960629921
 20
29.07856692913386
 30
0.0
 10
-86.52058661417323
 20
29.07991338582677
 30
0.0
 10
-86.52058661417323
 20
29.07991338582677
 30
0.0
 10
-86.52058661417323
 20
29.07991338582677
 30
0.0
 10
-86.52058661417323
 20
29.07991338582677
 30
0.0
 10
-87.09867716535433
 20
28.66920866141732
 30
0.0
 10
-87.09867716535433
 20
28.66920866141732
 30
0.0
 10
-87.09867716535433
 20
28.66920866141732
 30
0.0
 10
-87.09867716535433
 20
28.66920866141732
 30
0.0
 10
-86.87687007874015
 20
28.00332677165354
 30
0.0
 10
-86.87687007874015
 20
28.00332677165354
 30
0.0
 10
-86.87687007874015
 20
28.00332677165354
 30
0.0
 10
-86.87687007874015
 20
28.00332677165354
 30
0.0
 10
-87.45335039370079
 20
28.41620866141732
 30
0.0
 10
-87.45335039370079
 20
28.41620866141732
 30
0.0
 10
-87.45335039370079
 20
28.41620866141732
 30
0.0
 10
-87.45335039370079
 20
28.41620866141732
 30
0.0
 10
-88.02982677165355
 20
28.00332677165354
 30
0.0
 10
-88.02982677165355
 20
28.00332677165354
 30
0.0
 10
-88.02982677165355
 20
28.00332677165354
 30
0.0
 10
-88.02982677165355
 20
28.00332677165354
 30
0.0
 10
-87.80801968503937
 20
28.66920866141732
 30
0.0
 10
-87.80801968503937
 20
28.66920866141732
 30
0.0
 10
-87.80801968503937
 20
28.66920866141732
 30
0.0
 10
-87.80801968503937
 20
28.66920866141732
 30
0.0
 10
-88.38611023622047
 20
29.07991338582677
 30
0.0
 10
-88.38611023622047
 20
29.07991338582677
 30
0.0
 10
-88.38611023622047
 20
29.07991338582677
 30
0.0
 10
-88.38611023622047
 20
29.07991338582677
 30
0.0
 10
-87.67254724409449
 20
29.07856692913386
 30
0.0
 10
-87.67254724409449
 20
29.07856692913386
 30
0.0
 10
-87.67254724409449
 20
29.07856692913386
 30
0.0
 10
-87.67254724409449
 20
29.07856692913386
 30
0.0
 10
-87.45335039370079
 20
29.74528346456693
 30
0.0
 10
-87.45335039370079
 20
29.74528346456693
 30
0.0
  0
SPLINE
  5
7D
330
1F
100
AcDbEntity
  8
Layer 1
 62
   250
370
     9
100
AcDbSpline
210
0.0
220
0.0
230
1.0
 70
    11
 71
     3
 72
    44
 73
    40
 74
     0
 42
0.000000001
 43
0.0000000001
 40
0.0
 40
0.0
 40
0.0
 40
0.0
 40
0.0909090909090909
 40
0.0909090909090909
 40
0.0909090909090909
 40
0.0909090909090909
 40
0.1818181818181818
 40
0.1818181818181818
 40
0.1818181818181818
 40
0.1818181818181818
 40
0.2727272727272727
 40
0.2727272727272727
 40
0.2727272727272727
 40
0.2727272727272727
 40
0.3636363636363636
 40
0.3636363636363636
 40
0.3636363636363636
 40
0.3636363636363636
 40
0.4545454545454545
 40
0.4545454545454545
 40
0.4545454545454545
 40
0.4545454545454545
 40
0.5454545454545454
 40
0.5454545454545454
 40
0.5454545454545454
 40
0.5454545454545454
 40
0.6363636363636364
 40
0.6363636363636364
 40
0.6363636363636364
 40
0.6363636363636364
 40
0.7272727272727273
 40
0.7272727272727273
 40
0.7272727272727273
 40
0.7272727272727273
 40
0.8181818181818182
 40
0.8181818181818182
 40
0.8181818181818182
 40
0.8181818181818182
 40
1.0
 40
1.0
 40
1.0
 40
1.0
 10
-89.72407086614173
 20
28.03681102362205
 30
0.0
 10
-89.72407086614173
 20
28.03681102362205
 30
0.0
 10
-89.50487401574803
 20
27.37009448818898
 30
0.0
 10
-89.50487401574803
 20
27.37009448818898
 30
0.0
 10
-89.50487401574803
 20
27.37009448818898
 30
0.0
 10
-89.50487401574803
 20
27.37009448818898
 30
0.0
 10
-88.79131102362204
 20
27.37144094488189
 30
0.0
 10
-88.79131102362204
 20
27.37144094488189
 30
0.0
 10
-88.79131102362204
 20
27.37144094488189
 30
0.0
 10
-88.79131102362204
 20
27.37144094488189
 30
0.0
 10
-89.36939763779527
 20
26.96073622047244
 30
0.0
 10
-89.36939763779527
 20
26.96073622047244
 30
0.0
 10
-89.36939763779527
 20
26.96073622047244
 30
0.0
 10
-89.36939763779527
 20
26.96073622047244
 30
0.0
 10
-89.1475905511811
 20
26.29485433070866
 30
0.0
 10
-89.1475905511811
 20
26.29485433070866
 30
0.0
 10
-89.1475905511811
 20
26.29485433070866
 30
0.0
 10
-89.1475905511811
 20
26.29485433070866
 30
0.0
 10
-89.72407086614173
 20
26.70774015748032
 30
0.0
 10
-89.72407086614173
 20
26.70774015748032
 30
0.0
 10
-89.72407086614173
 20
26.70774015748032
 30
0.0
 10
-89.72407086614173
 20
26.70774015748032
 30
0.0
 10
-90.30054724409449
 20
26.29485433070866
 30
0.0
 10
-90.30054724409449
 20
26.29485433070866
 30
0.0
 10
-90.30054724409449
 20
26.29485433070866
 30
0.0
 10
-90.30054724409449
 20
26.29485433070866
 30
0.0
 10
-90.07874015748031
 20
26.96073622047244
 30
0.0
 10
-90.07874015748031
 20
26.96073622047244
 30
0.0
 10
-90.07874015748031
 20
26.96073622047244
 30
0.0
 10
-90.07874015748031
 20
26.96073622047244
 30
0.0
 10
-90.65683070866142
 20
27.37144094488189
 30
0.0
 10
-90.65683070866142
 20
27.37144094488189
 30
0.0
 10
-90.65683070866142
 20
27.37144094488189
 30
0.0
 10
-90.65683070866142
 20
27.37144094488189
 30
0.0
 10
-89.94326771653543
 20
27.37009448818898
 30
0.0
 10
-89.94326771653543
 20
27.37009448818898
 30
0.0
 10
-89.94326771653543
 20
27.37009448818898
 30
0.0
 10
-89.94326771653543
 20
27.37009448818898
 30
0.0
 10
-89.72407086614173
 20
28.03681102362205
 30
0.0
 10
-89.72407086614173
 20
28.03681102362205
 30
0.0
  0
SPLINE
  5
7E
330
1F
100
AcDbEntity
  8
Layer 1
 62
   250
370
     9
100
AcDbSpline
210
0.0
220
0.0
230
1.0
 70
    24
 71
     3
 72
     8
 73
     4
 74
     0
 42
0.000000001
 43
0.0000000001
 40
0.0
 40
0.0
 40
0.0
 40
0.0
 40
1.0
 40
1.0
 40
1.0
 40
1.0
 10
-89.1225905511811
 20
25.68722834645669
 30
0.0
 10
-89.1225905511811
 20
25.68722834645669
 30
0.0
 10
-82.4184409448819
 20
30.41931496062992
 30
0.0
 10
-82.4184409448819
 20
30.41931496062992
 30
0.0
  0
SPLINE
  5
7F
330
1F
100
AcDbEntity
  8
Layer 1
 62
   250
370
     9
100
AcDbSpline
210
0.0
220
0.0
230
1.0
 70
    24
 71
     3
 72
     8
 73
     4
 74
     0
 42
0.000000001
 43
0.0000000001
 40
0.0
 40
0.0
 40
0.0
 40
0.0
 40
1.0
 40
1.0
 40
1.0
 40
1.0
 10
-82.47944881889764
 20
30.12529921259842
 30
0.0
 10
-82.47944881889764
 20
30.12529921259842
 30
0.0
 10
-89.0602283464567
 20
25.48029921259842
 30
0.0
 10
-89.0602283464567
 20
25.48029921259842
 30
0.0
  0
SPLINE
  5
80
330
1F
100
AcDbEntity
  8
Layer 1
 62
   250
370
     9
100
AcDbSpline
210
0.0
220
0.0
230
1.0
 70
    24
 71
     3
 72
     8
 73
     4
 74
     0
 42
0.000000001
 43
0.0000000001
 40
0.0
 40
0.0
 40
0.0
 40
0.0
 40
1.0
 40
1.0
 40
1.0
 40
1.0
 10
-77.73429527559055
 20
37.95941338582677
 30
0.0
 10
-77.73429527559055
 20
37.95941338582677
 30
0.0
 10
-82.28397637795275
 20
34.39620866141733
 30
0.0
 10
-82.28397637795275
 20
34.39620866141733
 30
0.0
  0
SPLINE
  5
81
330
1F
100
AcDbEntity
  8
Layer 1
 62
   250
370
     9
100
AcDbSpline
210
0.0
220
0.0
230
1.0
 70
    24
 71
     3
 72
     8
 73
     4
 74
     0
 42
0.000000001
 43
0.0000000001
 40
0.0
 40
0.0
 40
0.0
 40
0.0
 40
1.0
 40
1.0
 40
1.0
 40
1.0
 10
-82.29025590551181
 20
34.61800787401575
 30
0.0
 10
-82.29025590551181
 20
34.61800787401575
 30
0.0
 10
-77.88233464566929
 20
38.07018897637796
 30
0.0
 10
-77.88233464566929
 20
38.07018897637796
 30
0.0
  0
SPLINE
  5
82
330
1F
100
AcDbEntity
  8
Layer 1
 62
   250
370
     9
100
AcDbSpline
210
0.0
220
0.0
230
1.0
 70
    24
 71
     3
 72
     8
 73
     4
 74
     0
 42
0.000000001
 43
0.0000000001
 40
0.0
 40
0.0
 40
0.0
 40
0.0
 40
1.0
 40
1.0
 40
1.0
 40
1.0
 10
-89.08992913385826
 20
39.22056299212598
 30
0.0
 10
-89.08992913385826
 20
39.22056299212598
 30
0.0
 10
-82.53393700787402
 20
34.59305511811024
 30
0.0
 10
-82.53393700787402
 20
34.59305511811024
 30
0.0
  0
SPLINE
  5
83
330
1F
100
AcDbEntity
  8
Layer 1
 62
   250
370
     9
100
AcDbSpline
210
0.0
220
0.0
230
1.0
 70
    24
 71
     3
 72
     8
 73
     4
 74
     0
 42
0.000000001
 43
0.0000000001
 40
0.0
 40
0.0
 40
0.0
 40
0.0
 40
1.0
 40
1.0
 40
1.0
 40
1.0
 10
-82.5631220472441
 20
34.8646062992126
 30
0.0
 10
-82.5631220472441
 20
34.8646062992126
 30
0.0
 10
-88.89243307086615
 20
39.33211023622047
 30
0.0
 10
-88.89243307086615
 20
39.33211023622047
 30
0.0
  0
SPLINE
  5
84
330
1F
100
AcDbEntity
  8
Layer 1
 62
   250
370
     9
100
AcDbSpline
210
0.0
220
0.0
230
1.0
 70
    24
 71
     3
 72
     8
 73
     4
 74
     0
 42
0.000000001
 43
0.0000000001
 40
0.0
 40
0.0
 40
0.0
 40
0.0
 40
1.0
 40
1.0
 40
1.0
 40
1.0
 10
-90.12906692913386
 20
29.02690551181102
 30
0.0
 10
-90.12906692913386
 20
29.02690551181102
 30
0.0
 10
-85.06279921259842
 20
32.225
 30
0.0
 10
-85.06279921259842
 20
32.225
 30
0.0
  0
SPLINE
  5
85
330
1F
100
AcDbEntity
  8
Layer 1
 62
   250
370
     9
100
AcDbSpline
210
0.0
220
0.0
230
1.0
 70
    24
 71
     3
 72
     8
 73
     4
 74
     0
 42
0.000000001
 43
0.0000000001
 40
0.0
 40
0.0
 40
0.0
 40
0.0
 40
1.0
 40
1.0
 40
1.0
 40
1.0
 10
-85.01583070866141
 20
32.49710236220472
 30
0.0
 10
-85.01583070866141
 20
32.49710236220472
 30
0.0
 10
-90.19045275590551
 20
29.2306062992126
 30
0.0
 10
-90.19045275590551
 20
29.2306062992126
 30
0.0
  0
SPLINE
  5
86
330
1F
100
AcDbEntity
  8
Layer 1
 62
   250
370
     9
100
AcDbSpline
210
0.0
220
0.0
230
1.0
 70
    24
 71
     3
 72
     8
 73
     4
 74
     0
 42
0.000000001
 43
0.0000000001
 40
0.0
 40
0.0
 40
0.0
 40
0.0
 40
1.0
 40
1.0
 40
1.0
 40
1.0
 10
-91.17475984251969
 20
37.12261811023622
 30
0.0
 10
-91.17475984251969
 20
37.12261811023622
 30
0.0
 10
-84.99537401574803
 20
32.67131496062992
 30
0.0
 10
-84.99537401574803
 20
32.67131496062992
 30
0.0
  0
SPLINE
  5
87
330
1F
100
AcDbEntity
  8
Layer 1
 62
   250
370
     9
100
AcDbSpline
210
0.0
220
0.0
230
1.0
 70
    24
 71
     3
 72
     8
 73
     4
 74
     0
 42
0.000000001
 43
0.0000000001
 40
0.0
 40
0.0
 40
0.0
 40
0.0
 40
1.0
 40
1.0
 40
1.0
 40
1.0
 10
-85.28144488188977
 20
32.62470866141732
 30
0.0
 10
-85.28144488188977
 20
32.62470866141732
 30
0.0
 10
-91.3244094488189
 20
36.97774409448819
 30
0.0
 10
-91.3244094488189
 20
36.97774409448819
 30
0.0
  0
SPLINE
  5
88
330
1F
100
AcDbEntity
  8
Layer 1
 62
   250
370
     9
100
AcDbSpline
210
0.0
220
0.0
230
1.0
 70
     8
 71
     3
 72
    12
 73
     8
 74
     0
 42
0.000000001
 43
0.0000000001
 40
0.0
 40
0.0
 40
0.0
 40
0.0
 40
0.3333333333333333
 40
0.3333333333333333
 40
0.3333333333333333
 40
0.3333333333333333
 40
1.0
 40
1.0
 40
1.0
 40
1.0
 10
-89.08992913385826
 20
39.22056299212598
 30
0.0
 10
-89.08992913385826
 20
39.22056299212598
 30
0.0
 10
-89.00636614173229
 20
39.32735039370079
 30
0.0
 10
-89.00636614173229
 20
39.32735039370079
 30
0.0
 10
-89.00636614173229
 20
39.32735039370079
 30
0.0
 10
-89.00636614173229
 20
39.32735039370079
 30
0.0
 10
-88.89243307086615
 20
39.33211023622047
 30
0.0
 10
-88.89243307086615
 20
39.33211023622047
 30
0.0
  0
SPLINE
  5
89
330
1F
100
AcDbEntity
  8
Layer 1
 62
   250
370
     9
100
AcDbSpline
210
0.0
220
0.0
230
1.0
 70
     8
 71
     3
 72
    12
 73
     8
 74
     0
 42
0.000000001
 43
0.0000000001
 40
0.0
 40
0.0
 40
0.0
 40
0.0
 40
0.3333333333333333
 40
0.3333333333333333
 40
0.3333333333333333
 40
0.3333333333333333
 40
1.0
 40
1.0
 40
1.0
 40
1.0
 10
-91.17475984251969
 20
37.12261811023622
 30
0.0
 10
-91.17475984251969
 20
37.12261811023622
 30
0.0
 10
-91.29733070866142
 20
37.10257874015748
 30
0.0
 10
-91.29733070866142
 20
37.10257874015748
 30
0.0
 10
-91.29733070866142
 20
37.10257874015748
 30
0.0
 10
-91.29733070866142
 20
37.10257874015748
 30
0.0
 10
-91.3244094488189
 20
36.97774409448819
 30
0.0
 10
-91.3244094488189
 20
36.97774409448819
 30
0.0
  0
SPLINE
  5
8A
330
1F
100
AcDbEntity
  8
Layer 1
 62
   250
370
     9
100
AcDbSpline
210
0.0
220
0.0
230
1.0
 70
     8
 71
     3
 72
    12
 73
     8
 74
     0
 42
0.000000001
 43
0.0000000001
 40
0.0
 40
0.0
 40
0.0
 40
0.0
 40
0.3333333333333333
 40
0.3333333333333333
 40
0.3333333333333333
 40
0.3333333333333333
 40
1.0
 40
1.0
 40
1.0
 40
1.0
 10
-90.19045275590551
 20
29.2306062992126
 30
0.0
 10
-90.19045275590551
 20
29.2306062992126
 30
0.0
 10
-90.23887401574804
 20
29.09909448818898
 30
0.0
 10
-90.23887401574804
 20
29.09909448818898
 30
0.0
 10
-90.23887401574804
 20
29.09909448818898
 30
0.0
 10
-90.23887401574804
 20
29.09909448818898
 30
0.0
 10
-90.12906692913386
 20
29.02690551181102
 30
0.0
 10
-90.12906692913386
 20
29.02690551181102
 30
0.0
  0
SPLINE
  5
8B
330
1F
100
AcDbEntity
  8
Layer 1
 62
   250
370
     9
100
AcDbSpline
210
0.0
220
0.0
230
1.0
 70
     8
 71
     3
 72
    12
 73
     8
 74
     0
 42
0.000000001
 43
0.0000000001
 40
0.0
 40
0.0
 40
0.0
 40
0.0
 40
0.3333333333333333
 40
0.3333333333333333
 40
0.3333333333333333
 40
0.3333333333333333
 40
1.0
 40
1.0
 40
1.0
 40
1.0
 10
-89.1225905511811
 20
25.68722834645669
 30
0.0
 10
-89.1225905511811
 20
25.68722834645669
 30
0.0
 10
-89.16985826771653
 20
25.55664173228346
 30
0.0
 10
-89.16985826771653
 20
25.55664173228346
 30
0.0
 10
-89.16985826771653
 20
25.55664173228346
 30
0.0
 10
-89.16985826771653
 20
25.55664173228346
 30
0.0
 10
-89.0602283464567
 20
25.48029921259842
 30
0.0
 10
-89.0602283464567
 20
25.48029921259842
 30
0.0
  0
SPLINE
  5
8C
330
1F
100
AcDbEntity
  8
Layer 1
 62
   250
370
     9
100
AcDbSpline
210
0.0
220
0.0
230
1.0
 70
     8
 71
     3
 72
    12
 73
     8
 74
     0
 42
0.000000001
 43
0.0000000001
 40
0.0
 40
0.0
 40
0.0
 40
0.0
 40
0.3333333333333333
 40
0.3333333333333333
 40
0.3333333333333333
 40
0.3333333333333333
 40
1.0
 40
1.0
 40
1.0
 40
1.0
 10
-77.88233464566929
 20
38.07018897637796
 30
0.0
 10
-77.88233464566929
 20
38.07018897637796
 30
0.0
 10
-77.76185039370078
 20
38.06771653543307
 30
0.0
 10
-77.76185039370078
 20
38.06771653543307
 30
0.0
 10
-77.76185039370078
 20
38.06771653543307
 30
0.0
 10
-77.76185039370078
 20
38.06771653543307
 30
0.0
 10
-77.73429527559055
 20
37.95941338582677
 30
0.0
 10
-77.73429527559055
 20
37.95941338582677
 30
0.0
  0
SPLINE
  5
8D
330
1F
100
AcDbEntity
  8
Layer 1
 62
   250
370
     9
100
AcDbSpline
210
0.0
220
0.0
230
1.0
 70
    24
 71
     3
 72
     8
 73
     4
 74
     0
 42
0.000000001
 43
0.0000000001
 40
0.0
 40
0.0
 40
0.0
 40
0.0
 40
1.0
 40
1.0
 40
1.0
 40
1.0
 10
-85.2814409448819
 20
32.6247125984252
 30
0.0
 10
-85.2814409448819
 20
32.6247125984252
 30
0.0
 10
-84.99537401574803
 20
32.67131496062992
 30
0.0
 10
-84.99537401574803
 20
32.67131496062992
 30
0.0
  0
SPLINE
  5
8E
330
1F
100
AcDbEntity
  8
Layer 1
 62
   250
370
     9
100
AcDbSpline
210
0.0
220
0.0
230
1.0
 70
    24
 71
     3
 72
     8
 73
     4
 74
     0
 42
0.000000001
 43
0.0000000001
 40
0.0
 40
0.0
 40
0.0
 40
0.0
 40
1.0
 40
1.0
 40
1.0
 40
1.0
 10
-85.01583070866141
 20
32.49710236220472
 30
0.0
 10
-85.01583070866141
 20
32.49710236220472
 30
0.0
 10
-85.06279921259842
 20
32.225
 30
0.0
 10
-85.06279921259842
 20
32.225
 30
0.0
  0
SPLINE
  5
8F
330
1F
100
AcDbEntity
  8
Layer 1
 62
   250
370
     9
100
AcDbSpline
210
0.0
220
0.0
230
1.0
 70
    24
 71
     3
 72
     8
 73
     4
 74
     0
 42
0.000000001
 43
0.0000000001
 40
0.0
 40
0.0
 40
0.0
 40
0.0
 40
1.0
 40
1.0
 40
1.0
 40
1.0
 10
-82.4184409448819
 20
30.41931496062992
 30
0.0
 10
-82.4184409448819
 20
30.41931496062992
 30
0.0
 10
-82.47944881889764
 20
30.12529921259842
 30
0.0
 10
-82.47944881889764
 20
30.12529921259842
 30
0.0
  0
SPLINE
  5
90
330
1F
100
AcDbEntity
  8
Layer 1
 62
   250
370
     9
100
AcDbSpline
210
0.0
220
0.0
230
1.0
 70
    24
 71
     3
 72
     8
 73
     4
 74
     0
 42
0.000000001
 43
0.0000000001
 40
0.0
 40
0.0
 40
0.0
 40
0.0
 40
1.0
 40
1.0
 40
1.0
 40
1.0
 10
-82.17990157480315
 20
30.25570866141732
 30
0.0
 10
-82.17990157480315
 20
30.25570866141732
 30
0.0
 10
-79.89530708661417
 20
28.46645669291339
 30
0.0
 10
-79.89530708661417
 20
28.46645669291339
 30
0.0
  0
SPLINE
  5
91
330
1F
100
AcDbEntity
  8
Layer 1
 62
   250
370
     9
100
AcDbSpline
210
0.0
220
0.0
230
1.0
 70
     8
 71
     3
 72
    12
 73
     8
 74
     0
 42
0.000000001
 43
0.0000000001
 40
0.0
 40
0.0
 40
0.0
 40
0.0
 40
0.3333333333333333
 40
0.3333333333333333
 40
0.3333333333333333
 40
0.3333333333333333
 40
1.0
 40
1.0
 40
1.0
 40
1.0
 10
-79.89530708661417
 20
28.46645669291339
 30
0.0
 10
-79.89530708661417
 20
28.46645669291339
 30
0.0
 10
-79.65226771653543
 20
28.41036220472441
 30
0.0
 10
-79.65226771653543
 20
28.41036220472441
 30
0.0
 10
-79.65226771653543
 20
28.41036220472441
 30
0.0
 10
-79.65226771653543
 20
28.41036220472441
 30
0.0
 10
-79.58593700787402
 20
28.47847244094488
 30
0.0
 10
-79.58593700787402
 20
28.47847244094488
 30
0.0
  0
SPLINE
  5
92
330
1F
100
AcDbEntity
  8
Layer 1
 62
   250
370
     9
100
AcDbSpline
210
0.0
220
0.0
230
1.0
 70
    24
 71
     3
 72
     8
 73
     4
 74
     0
 42
0.000000001
 43
0.0000000001
 40
0.0
 40
0.0
 40
0.0
 40
0.0
 40
1.0
 40
1.0
 40
1.0
 40
1.0
 10
-82.16660236220473
 20
30.52550787401575
 30
0.0
 10
-82.16660236220473
 20
30.52550787401575
 30
0.0
 10
-82.17990157480315
 20
30.25571653543307
 30
0.0
 10
-82.17990157480315
 20
30.25571653543307
 30
0.0
  0
SPLINE
  5
93
330
1F
100
AcDbEntity
  8
Layer 1
 62
   250
370
     9
100
AcDbSpline
210
0.0
220
0.0
230
1.0
 70
    24
 71
     3
 72
     8
 73
     4
 74
     0
 42
0.000000001
 43
0.0000000001
 40
0.0
 40
0.0
 40
0.0
 40
0.0
 40
1.0
 40
1.0
 40
1.0
 40
1.0
 10
-74.72205118110236
 20
35.53544488188977
 30
0.0
 10
-74.72205118110236
 20
35.53544488188977
 30
0.0
 10
-78.81127952755905
 20
32.58977952755905
 30
0.0
 10
-78.81127952755905
 20
32.58977952755905
 30
0.0
  0
SPLINE
  5
94
330
1F
100
AcDbEntity
  8
Layer 1
 62
   250
370
     9
100
AcDbSpline
210
0.0
220
0.0
230
1.0
 70
    24
 71
     3
 72
     8
 73
     4
 74
     0
 42
0.000000001
 43
0.0000000001
 40
0.0
 40
0.0
 40
0.0
 40
0.0
 40
1.0
 40
1.0
 40
1.0
 40
1.0
 10
-78.59366929133859
 20
32.53581102362205
 30
0.0
 10
-78.59366929133859
 20
32.53581102362205
 30
0.0
 10
-74.57856299212598
 20
35.42808267716536
 30
0.0
 10
-74.57856299212598
 20
35.42808267716536
 30
0.0
  0
SPLINE
  5
95
330
1F
100
AcDbEntity
  8
Layer 1
 62
   250
370
     9
100
AcDbSpline
210
0.0
220
0.0
230
1.0
 70
     8
 71
     3
 72
    12
 73
     8
 74
     0
 42
0.000000001
 43
0.0000000001
 40
0.0
 40
0.0
 40
0.0
 40
0.0
 40
0.3333333333333333
 40
0.3333333333333333
 40
0.3333333333333333
 40
0.3333333333333333
 40
1.0
 40
1.0
 40
1.0
 40
1.0
 10
-74.72205118110236
 20
35.53544488188977
 30
0.0
 10
-74.72205118110236
 20
35.53544488188977
 30
0.0
 10
-74.61273228346457
 20
35.5278937007874
 30
0.0
 10
-74.61273228346457
 20
35.5278937007874
 30
0.0
 10
-74.61273228346457
 20
35.5278937007874
 30
0.0
 10
-74.61273228346457
 20
35.5278937007874
 30
0.0
 10
-74.57856299212598
 20
35.42808267716536
 30
0.0
 10
-74.57856299212598
 20
35.42808267716536
 30
0.0
  0
SPLINE
  5
96
330
1F
100
AcDbEntity
  8
Layer 1
 62
   250
370
     9
100
AcDbSpline
210
0.0
220
0.0
230
1.0
 70
    24
 71
     3
 72
     8
 73
     4
 74
     0
 42
0.000000001
 43
0.0000000001
 40
0.0
 40
0.0
 40
0.0
 40
0.0
 40
1.0
 40
1.0
 40
1.0
 40
1.0
 10
-78.81127952755905
 20
32.58977952755905
 30
0.0
 10
-78.81127952755905
 20
32.58977952755905
 30
0.0
 10
-78.59366929133859
 20
32.53581102362205
 30
0.0
 10
-78.59366929133859
 20
32.53581102362205
 30
0.0
  0
SPLINE
  5
97
330
1F
100
AcDbEntity
  8
Layer 1
 62
   250
370
     9
100
AcDbSpline
210
0.0
220
0.0
230
1.0
 70
    24
 71
     3
 72
     8
 73
     4
 74
     0
 42
0.000000001
 43
0.0000000001
 40
0.0
 40
0.0
 40
0.0
 40
0.0
 40
1.0
 40
1.0
 40
1.0
 40
1.0
 10
-74.13992125984252
 20
29.13083464566929
 30
0.0
 10
-74.13992125984252
 20
29.13083464566929
 30
0.0
 10
-78.90026377952756
 20
32.13580708661417
 30
0.0
 10
-78.90026377952756
 20
32.13580708661417
 30
0.0
  0
SPLINE
  5
98
330
1F
100
AcDbEntity
  8
Layer 1
 62
   250
370
     9
100
AcDbSpline
210
0.0
220
0.0
230
1.0
 70
     8
 71
     3
 72
    12
 73
     8
 74
     0
 42
0.000000001
 43
0.0000000001
 40
0.0
 40
0.0
 40
0.0
 40
0.0
 40
0.3333333333333333
 40
0.3333333333333333
 40
0.3333333333333333
 40
0.3333333333333333
 40
1.0
 40
1.0
 40
1.0
 40
1.0
 10
-74.13992125984252
 20
29.13083464566929
 30
0.0
 10
-74.13992125984252
 20
29.13083464566929
 30
0.0
 10
-73.86578346456693
 20
29.03188582677165
 30
0.0
 10
-73.86578346456693
 20
29.03188582677165
 30
0.0
 10
-73.86578346456693
 20
29.03188582677165
 30
0.0
 10
-73.86578346456693
 20
29.03188582677165
 30
0.0
 10
-73.75779527559055
 20
29.17440157480315
 30
0.0
 10
-73.75779527559055
 20
29.17440157480315
 30
0.0
  0
SPLINE
  5
99
330
1F
100
AcDbEntity
  8
Layer 1
 62
   250
370
     9
100
AcDbSpline
210
0.0
220
0.0
230
1.0
 70
    24
 71
     3
 72
     8
 73
     4
 74
     0
 42
0.000000001
 43
0.0000000001
 40
0.0
 40
0.0
 40
0.0
 40
0.0
 40
1.0
 40
1.0
 40
1.0
 40
1.0
 10
-78.90026377952756
 20
32.13580708661417
 30
0.0
 10
-78.90026377952756
 20
32.13580708661417
 30
0.0
 10
-78.63307480314961
 20
32.24158267716535
 30
0.0
 10
-78.63307480314961
 20
32.24158267716535
 30
0.0
  0
SPLINE
  5
9A
330
1F
100
AcDbEntity
  8
Layer 1
 62
   250
370
     9
100
AcDbSpline
210
0.0
220
0.0
230
1.0
 70
    24
 71
     3
 72
     8
 73
     4
 74
     0
 42
0.000000001
 43
0.0000000001
 40
0.0
 40
0.0
 40
0.0
 40
0.0
 40
1.0
 40
1.0
 40
1.0
 40
1.0
 10
-82.53393700787402
 20
34.59305511811024
 30
0.0
 10
-82.53393700787402
 20
34.59305511811024
 30
0.0
 10
-82.5631220472441
 20
34.8646062992126
 30
0.0
 10
-82.5631220472441
 20
34.8646062992126
 30
0.0
  0
SPLINE
  5
9B
330
1F
100
AcDbEntity
  8
Layer 1
 62
   250
370
     9
100
AcDbSpline
210
0.0
220
0.0
230
1.0
 70
    24
 71
     3
 72
     8
 73
     4
 74
     0
 42
0.000000001
 43
0.0000000001
 40
0.0
 40
0.0
 40
0.0
 40
0.0
 40
1.0
 40
1.0
 40
1.0
 40
1.0
 10
-82.28397637795275
 20
34.39620866141733
 30
0.0
 10
-82.28397637795275
 20
34.39620866141733
 30
0.0
 10
-82.29025590551181
 20
34.61800787401575
 30
0.0
 10
-82.29025590551181
 20
34.61800787401575
 30
0.0
  0
SPLINE
  5
9C
330
1F
100
AcDbEntity
  8
Layer 1
 62
   250
370
     9
100
AcDbSpline
210
0.0
220
0.0
230
1.0
 70
    24
 71
     3
 72
     8
 73
     4
 74
     0
 42
0.000000001
 43
0.0000000001
 40
0.0
 40
0.0
 40
0.0
 40
0.0
 40
1.0
 40
1.0
 40
1.0
 40
1.0
 10
-91.36295275590551
 20
37.77986614173228
 30
0.0
 10
-91.36295275590551
 20
37.77986614173228
 30
0.0
 10
-91.4887125984252
 20
38.14879133858268
 30
0.0
 10
-91.4887125984252
 20
38.14879133858268
 30
0.0
  0
SPLINE
  5
9D
330
1F
100
AcDbEntity
  8
Layer 1
 62
   250
370
     9
100
AcDbSpline
210
0.0
220
0.0
230
1.0
 70
    24
 71
     3
 72
     8
 73
     4
 74
     0
 42
0.000000001
 43
0.0000000001
 40
0.0
 40
0.0
 40
0.0
 40
0.0
 40
1.0
 40
1.0
 40
1.0
 40
1.0
 10
-89.36409448818898
 20
39.7493031496063
 30
0.0
 10
-89.36409448818898
 20
39.7493031496063
 30
0.0
 10
-89.06801181102362
 20
39.69972834645669
 30
0.0
 10
-89.06801181102362
 20
39.69972834645669
 30
0.0
  0
SPLINE
  5
9E
330
1F
100
AcDbEntity
  8
Layer 1
 62
   250
370
     9
100
AcDbSpline
210
0.0
220
0.0
230
1.0
 70
    24
 71
     3
 72
     8
 73
     4
 74
     0
 42
0.000000001
 43
0.0000000001
 40
0.0
 40
0.0
 40
0.0
 40
0.0
 40
1.0
 40
1.0
 40
1.0
 40
1.0
 10
-85.1149251968504
 20
39.99726377952756
 30
0.0
 10
-85.1149251968504
 20
39.99726377952756
 30
0.0
 10
-84.89526377952755
 20
39.93105511811024
 30
0.0
 10
-84.89526377952755
 20
39.93105511811024
 30
0.0
  0
SPLINE
  5
9F
330
1F
100
AcDbEntity
  8
Layer 1
 62
   250
370
     9
100
AcDbSpline
210
0.0
220
0.0
230
1.0
 70
    24
 71
     3
 72
     8
 73
     4
 74
     0
 42
0.000000001
 43
0.0000000001
 40
0.0
 40
0.0
 40
0.0
 40
0.0
 40
1.0
 40
1.0
 40
1.0
 40
1.0
 10
-91.50157874015748
 20
36.36201181102362
 30
0.0
 10
-91.50157874015748
 20
36.36201181102362
 30
0.0
 10
-91.44560236220472
 20
37.43244094488189
 30
0.0
 10
-91.44560236220472
 20
37.43244094488189
 30
0.0
  0
SPLINE
  5
A0
330
1F
100
AcDbEntity
  8
Layer 1
 62
   250
370
     9
100
AcDbSpline
210
0.0
220
0.0
230
1.0
 70
    24
 71
     3
 72
     8
 73
     4
 74
     0
 42
0.000000001
 43
0.0000000001
 40
0.0
 40
0.0
 40
0.0
 40
0.0
 40
1.0
 40
1.0
 40
1.0
 40
1.0
 10
-91.09942125984252
 20
34.45386614173228
 30
0.0
 10
-91.09942125984252
 20
34.45386614173228
 30
0.0
 10
-90.52516141732283
 20
33.91121259842519
 30
0.0
 10
-90.52516141732283
 20
33.91121259842519
 30
0.0
  0
SPLINE
  5
A1
330
1F
100
AcDbEntity
  8
Layer 1
 62
   250
370
     9
100
AcDbSpline
210
0.0
220
0.0
230
1.0
 70
     8
 71
     3
 72
    36
 73
    32
 74
     0
 42
0.000000001
 43
0.0000000001
 40
0.0
 40
0.0
 40
0.0
 40
0.0
 40
0.1111111111111111
 40
0.1111111111111111
 40
0.1111111111111111
 40
0.1111111111111111
 40
0.2222222222222222
 40
0.2222222222222222
 40
0.2222222222222222
 40
0.2222222222222222
 40
0.3333333333333333
 40
0.3333333333333333
 40
0.3333333333333333
 40
0.3333333333333333
 40
0.4444444444444444
 40
0.4444444444444444
 40
0.4444444444444444
 40
0.4444444444444444
 40
0.5555555555555556
 40
0.5555555555555556
 40
0.5555555555555556
 40
0.5555555555555556
 40
0.6666666666666666
 40
0.6666666666666666
 40
0.6666666666666666
 40
0.6666666666666666
 40
0.7777777777777778
 40
0.7777777777777778
 40
0.7777777777777778
 40
0.7777777777777778
 40
1.0
 40
1.0
 40
1.0
 40
1.0
 10
-85.1149251968504
 20
39.99726377952756
 30
0.0
 10
-85.64482677165354
 20
39.78956299212599
 30
0.0
 10
-86.12260236220473
 20
40.07744094488189
 30
0.0
 10
-86.49412598425197
 20
39.70541338582677
 30
0.0
 10
-86.49412598425197
 20
39.70541338582677
 30
0.0
 10
-86.49412598425197
 20
39.70541338582677
 30
0.0
 10
-86.43911417322835
 20
39.39764173228347
 30
0.0
 10
-86.43911417322835
 20
39.39764173228347
 30
0.0
 10
-86.43911417322835
 20
39.39764173228347
 30
0.0
 10
-86.43911417322835
 20
39.39764173228347
 30
0.0
 10
-86.91047244094489
 20
39.51797637795276
 30
0.0
 10
-86.91047244094489
 20
39.51797637795276
 30
0.0
 10
-86.91047244094489
 20
39.51797637795276
 30
0.0
 10
-86.91047244094489
 20
39.51797637795276
 30
0.0
 10
-86.89350787401575
 20
39.86303149606299
 30
0.0
 10
-86.89350787401575
 20
39.86303149606299
 30
0.0
 10
-86.89350787401575
 20
39.86303149606299
 30
0.0
 10
-87.43814566929134
 20
39.82383070866142
 30
0.0
 10
-87.54407480314961
 20
39.82472047244094
 30
0.0
 10
-88.09382283464566
 20
39.91523622047244
 30
0.0
 10
-88.09382283464566
 20
39.91523622047244
 30
0.0
 10
-88.26473622047244
 20
39.9433779527559
 30
0.0
 10
-88.55668503937008
 20
40.00044881889764
 30
0.0
 10
-88.72002755905511
 20
40.00109842519685
 30
0.0
 10
-88.72002755905511
 20
40.00109842519685
 30
0.0
 10
-88.97568897637795
 20
40.00209055118111
 30
0.0
 10
-88.6876968503937
 20
39.96683070866142
 30
0.0
 10
-88.82581496062993
 20
39.86405905511811
 30
0.0
 10
-88.82581496062993
 20
39.86405905511811
 30
0.0
 10
-88.93948425196851
 20
39.77942913385827
 30
0.0
 10
-89.04726377952755
 20
39.92283858267717
 30
0.0
 10
-89.06800787401575
 20
39.69972834645669
 30
0.0
  0
SPLINE
  5
A2
330
1F
100
AcDbEntity
  8
Layer 1
 62
   250
370
     9
100
AcDbSpline
210
0.0
220
0.0
230
1.0
 70
     8
 71
     3
 72
   176
 73
   172
 74
     0
 42
0.000000001
 43
0.0000000001
 40
0.0
 40
0.0
 40
0.0
 40
0.0
 40
0.0227272727272727
 40
0.0227272727272727
 40
0.0227272727272727
 40
0.0227272727272727
 40
0.0454545454545455
 40
0.0454545454545455
 40
0.0454545454545455
 40
0.0454545454545455
 40
0.0681818181818182
 40
0.0681818181818182
 40
0.0681818181818182
 40
0.0681818181818182
 40
0.0909090909090909
 40
0.0909090909090909
 40
0.0909090909090909
 40
0.0909090909090909
 40
0.1136363636363636
 40
0.1136363636363636
 40
0.1136363636363636
 40
0.1136363636363636
 40
0.1363636363636364
 40
0.1363636363636364
 40
0.1363636363636364
 40
0.1363636363636364
 40
0.1590909090909091
 40
0.1590909090909091
 40
0.1590909090909091
 40
0.1590909090909091
 40
0.1818181818181818
 40
0.1818181818181818
 40
0.1818181818181818
 40
0.1818181818181818
 40
0.2045454545454546
 40
0.2045454545454546
 40
0.2045454545454546
 40
0.2045454545454546
 40
0.2272727272727273
 40
0.2272727272727273
 40
0.2272727272727273
 40
0.2272727272727273
 40
0.25
 40
0.25
 40
0.25
 40
0.25
 40
0.2727272727272727
 40
0.2727272727272727
 40
0.2727272727272727
 40
0.2727272727272727
 40
0.2954545454545455
 40
0.2954545454545455
 40
0.2954545454545455
 40
0.2954545454545455
 40
0.3181818181818182
 40
0.3181818181818182
 40
0.3181818181818182
 40
0.3181818181818182
 40
0.3409090909090909
 40
0.3409090909090909
 40
0.3409090909090909
 40
0.3409090909090909
 40
0.3636363636363636
 40
0.3636363636363636
 40
0.3636363636363636
 40
0.3636363636363636
 40
0.3863636363636364
 40
0.3863636363636364
 40
0.3863636363636364
 40
0.3863636363636364
 40
0.4090909090909091
 40
0.4090909090909091
 40
0.4090909090909091
 40
0.4090909090909091
 40
0.4318181818181818
 40
0.4318181818181818
 40
0.4318181818181818
 40
0.4318181818181818
 40
0.4545454545454545
 40
0.4545454545454545
 40
0.4545454545454545
 40
0.4545454545454545
 40
0.4772727272727273
 40
0.4772727272727273
 40
0.4772727272727273
 40
0.4772727272727273
 40
0.5
 40
0.5
 40
0.5
 40
0.5
 40
0.5227272727272727
 40
0.5227272727272727
 40
0.5227272727272727
 40
0.5227272727272727
 40
0.5454545454545454
 40
0.5454545454545454
 40
0.5454545454545454
 40
0.5454545454545454
 40
0.5681818181818182
 40
0.5681818181818182
 40
0.5681818181818182
 40
0.5681818181818182
 40
0.5909090909090909
 40
0.5909090909090909
 40
0.5909090909090909
 40
0.5909090909090909
 40
0.6136363636363636
 40
0.6136363636363636
 40
0.6136363636363636
 40
0.6136363636363636
 40
0.6363636363636364
 40
0.6363636363636364
 40
0.6363636363636364
 40
0.6363636363636364
 40
0.6590909090909091
 40
0.6590909090909091
 40
0.6590909090909091
 40
0.6590909090909091
 40
0.6818181818181818
 40
0.6818181818181818
 40
0.6818181818181818
 40
0.6818181818181818
 40
0.7045454545454546
 40
0.7045454545454546
 40
0.7045454545454546
 40
0.7045454545454546
 40
0.7272727272727273
 40
0.7272727272727273
 40
0.7272727272727273
 40
0.7272727272727273
 40
0.75
 40
0.75
 40
0.75
 40
0.75
 40
0.7727272727272727
 40
0.7727272727272727
 40
0.7727272727272727
 40
0.7727272727272727
 40
0.7954545454545454
 40
0.7954545454545454
 40
0.7954545454545454
 40
0.7954545454545454
 40
0.8181818181818182
 40
0.8181818181818182
 40
0.8181818181818182
 40
0.8181818181818182
 40
0.8409090909090909
 40
0.8409090909090909
 40
0.8409090909090909
 40
0.8409090909090909
 40
0.8636363636363636
 40
0.8636363636363636
 40
0.8636363636363636
 40
0.8636363636363636
 40
0.8863636363636364
 40
0.8863636363636364
 40
0.8863636363636364
 40
0.8863636363636364
 40
0.9090909090909091
 40
0.9090909090909091
 40
0.9090909090909091
 40
0.9090909090909091
 40
0.9318181818181818
 40
0.9318181818181818
 40
0.9318181818181818
 40
0.9318181818181818
 40
0.9545454545454546
 40
0.9545454545454546
 40
0.9545454545454546
 40
0.9545454545454546
 40
1.0
 40
1.0
 40
1.0
 40
1.0
 10
-90.52516535433071
 20
33.91121259842519
 30
0.0
 10
-90.52516535433071
 20
33.91121259842519
 30
0.0
 10
-90.67310629921259
 20
33.12483858267716
 30
0.0
 10
-90.67310629921259
 20
33.12483858267716
 30
0.0
 10
-90.67310629921259
 20
33.12483858267716
 30
0.0
 10
-90.67310629921259
 20
33.12483858267716
 30
0.0
 10
-90.27092125984252
 20
32.8703031496063
 30
0.0
 10
-90.27092125984252
 20
32.8703031496063
 30
0.0
 10
-90.27092125984252
 20
32.8703031496063
 30
0.0
 10
-90.41568503937008
 20
32.60820078740157
 30
0.0
 10
-90.78507480314961
 20
32.84579133858268
 30
0.0
 10
-90.73826377952756
 20
32.21121653543307
 30
0.0
 10
-90.73826377952756
 20
32.21121653543307
 30
0.0
 10
-90.69416929133858
 20
31.61313385826772
 30
0.0
 10
-90.5077716535433
 20
31.66653937007874
 30
0.0
 10
-90.43270472440945
 20
31.45568897637795
 30
0.0
 10
-90.43270472440945
 20
31.45568897637795
 30
0.0
 10
-90.60612992125984
 20
31.40108267716536
 30
0.0
 10
-90.74730708661417
 20
31.34223228346457
 30
0.0
 10
-90.85861023622047
 20
31.17129921259842
 30
0.0
 10
-90.85861023622047
 20
31.17129921259842
 30
0.0
 10
-91.0548937007874
 20
30.86986220472441
 30
0.0
 10
-90.83283858267717
 20
30.77174409448819
 30
0.0
 10
-90.78048031496063
 20
30.64962992125984
 30
0.0
 10
-90.78048031496063
 20
30.64962992125984
 30
0.0
 10
-90.78048031496063
 20
30.64962992125984
 30
0.0
 10
-90.97549212598425
 20
30.38722047244094
 30
0.0
 10
-90.97549212598425
 20
30.38722047244094
 30
0.0
 10
-90.97549212598425
 20
30.38722047244094
 30
0.0
 10
-90.85699606299212
 20
30.27492913385827
 30
0.0
 10
-90.91307874015747
 20
30.45445669291339
 30
0.0
 10
-90.73049212598426
 20
30.2711968503937
 30
0.0
 10
-90.73049212598426
 20
30.2711968503937
 30
0.0
 10
-90.64002362204724
 20
30.18044094488189
 30
0.0
 10
-90.62549212598425
 20
30.16466141732283
 30
0.0
 10
-90.48919291338582
 20
30.17376771653543
 30
0.0
 10
-90.48919291338582
 20
30.17376771653543
 30
0.0
 10
-90.3171220472441
 20
30.18526771653543
 30
0.0
 10
-90.13760236220473
 20
30.30659842519685
 30
0.0
 10
-89.98284251968504
 20
30.31433464566929
 30
0.0
 10
-89.98284251968504
 20
30.31433464566929
 30
0.0
 10
-89.98284251968504
 20
30.31433464566929
 30
0.0
 10
-89.95394881889764
 20
29.89341732283465
 30
0.0
 10
-89.95394881889764
 20
29.89341732283465
 30
0.0
 10
-89.95394881889764
 20
29.89341732283465
 30
0.0
 10
-89.95394881889764
 20
29.89341732283465
 30
0.0
 10
-90.62999606299212
 20
29.95007480314961
 30
0.0
 10
-90.62999606299212
 20
29.95007480314961
 30
0.0
 10
-90.62999606299212
 20
29.95007480314961
 30
0.0
 10
-90.8537874015748
 20
29.67311811023622
 30
0.0
 10
-90.8095748031496
 20
29.5592874015748
 30
0.0
 10
-90.85534645669291
 20
29.20077952755906
 30
0.0
 10
-90.85534645669291
 20
29.20077952755906
 30
0.0
 10
-90.87294488188977
 20
29.06264173228346
 30
0.0
 10
-90.95688188976378
 20
28.89581496062992
 30
0.0
 10
-90.9626062992126
 20
28.80937401574803
 30
0.0
 10
-90.9626062992126
 20
28.80937401574803
 30
0.0
 10
-90.97456299212598
 20
28.62895669291338
 30
0.0
 10
-90.86271259842519
 20
28.66507480314961
 30
0.0
 10
-90.80529921259843
 20
28.53491338582677
 30
0.0
 10
-90.80529921259843
 20
28.53491338582677
 30
0.0
 10
-90.80529921259843
 20
28.53491338582677
 30
0.0
 10
-91.04697637795276
 20
28.05535039370079
 30
0.0
 10
-91.04697637795276
 20
28.05535039370079
 30
0.0
 10
-91.04697637795276
 20
28.05535039370079
 30
0.0
 10
-91.04697637795276
 20
28.05535039370079
 30
0.0
 10
-90.99077559055118
 20
27.98462204724409
 30
0.0
 10
-90.99077559055118
 20
27.98462204724409
 30
0.0
 10
-90.99077559055118
 20
27.98462204724409
 30
0.0
 10
-90.99077559055118
 20
27.98462204724409
 30
0.0
 10
-90.66256299212598
 20
27.97565354330709
 30
0.0
 10
-90.66256299212598
 20
27.97565354330709
 30
0.0
 10
-90.66256299212598
 20
27.97565354330709
 30
0.0
 10
-90.57481102362205
 20
27.71978346456693
 30
0.0
 10
-91.15891338582678
 20
27.6524094488189
 30
0.0
 10
-91.0200157480315
 20
27.28106299212599
 30
0.0
 10
-91.0200157480315
 20
27.28106299212599
 30
0.0
 10
-90.77253543307087
 20
27.09201968503937
 30
0.0
 10
-90.79542125984251
 20
27.42885826771654
 30
0.0
 10
-90.69004330708661
 20
27.14833464566929
 30
0.0
 10
-90.69004330708661
 20
27.14833464566929
 30
0.0
 10
-90.69004330708661
 20
27.14833464566929
 30
0.0
 10
-90.9482716535433
 20
27.07305511811024
 30
0.0
 10
-90.9482716535433
 20
27.07305511811024
 30
0.0
 10
-90.9482716535433
 20
27.07305511811024
 30
0.0
 10
-91.06457086614174
 20
26.68822047244095
 30
0.0
 10
-91.16602362204725
 20
26.83926377952756
 30
0.0
 10
-91.08029133858268
 20
26.4982874015748
 30
0.0
 10
-91.08029133858268
 20
26.4982874015748
 30
0.0
 10
-91.0016968503937
 20
26.18565354330709
 30
0.0
 10
-91.12285039370079
 20
26.07606692913386
 30
0.0
 10
-91.25669291338583
 20
25.83751968503937
 30
0.0
 10
-91.25669291338583
 20
25.83751968503937
 30
0.0
 10
-91.25669291338583
 20
25.83751968503937
 30
0.0
 10
-90.93055905511811
 20
25.6399842519685
 30
0.0
 10
-90.93055905511811
 20
25.6399842519685
 30
0.0
 10
-90.93055905511811
 20
25.6399842519685
 30
0.0
 10
-91.1388031496063
 20
25.51722047244094
 30
0.0
 10
-91.30575590551182
 20
25.39729527559055
 30
0.0
 10
-91.22245669291338
 20
25.11413779527559
 30
0.0
 10
-91.22245669291338
 20
25.11413779527559
 30
0.0
 10
-91.08306299212599
 20
24.64029527559055
 30
0.0
 10
-91.27824803149606
 20
24.77196456692914
 30
0.0
 10
-91.29205905511812
 20
24.3528937007874
 30
0.0
 10
-91.29205905511812
 20
24.3528937007874
 30
0.0
 10
-90.96031889763779
 20
24.1369094488189
 30
0.0
 10
-90.47769291338582
 20
24.21143700787401
 30
0.0
 10
-90.08131496062992
 20
24.14505511811024
 30
0.0
 10
-90.08131496062992
 20
24.14505511811024
 30
0.0
 10
-89.6355
 20
24.07038976377953
 30
0.0
 10
-89.26550393700788
 20
24.07617716535433
 30
0.0
 10
-88.87343307086614
 20
24.33961023622047
 30
0.0
 10
-88.87343307086614
 20
24.33961023622047
 30
0.0
 10
-88.87343307086614
 20
24.33961023622047
 30
0.0
 10
-88.90050393700787
 20
24.27045669291338
 30
0.0
 10
-88.90050393700787
 20
24.27045669291338
 30
0.0
 10
-88.90050393700787
 20
24.27045669291338
 30
0.0
 10
-88.90050393700787
 20
24.27045669291338
 30
0.0
 10
-88.51166929133858
 20
24.09466141732284
 30
0.0
 10
-88.51166929133858
 20
24.09466141732284
 30
0.0
 10
-88.51166929133858
 20
24.09466141732284
 30
0.0
 10
-88.51166929133858
 20
24.09466141732284
 30
0.0
 10
-87.97630708661417
 20
24.09466141732284
 30
0.0
 10
-87.97630708661417
 20
24.09466141732284
 30
0.0
 10
-87.97630708661417
 20
24.09466141732284
 30
0.0
 10
-87.57672440944881
 20
24.29044881889764
 30
0.0
 10
-87.20450393700787
 20
24.00701968503937
 30
0.0
 10
-86.96115354330709
 20
24.5914094488189
 30
0.0
 10
-86.96115354330709
 20
24.5914094488189
 30
0.0
 10
-86.56616141732283
 20
24.62811023622047
 30
0.0
 10
-86.27811023622047
 20
24.47497637795276
 30
0.0
 10
-85.91825590551181
 20
24.56217322834646
 30
0.0
 10
-85.91825590551181
 20
24.56217322834646
 30
0.0
 10
-85.67464566929134
 20
24.62119291338583
 30
0.0
 10
-85.2491968503937
 20
24.88582677165354
 30
0.0
 10
-85.36073228346457
 20
25.24132283464567
 30
0.0
 10
-85.36073228346457
 20
25.24132283464567
 30
0.0
 10
-85.4565748031496
 20
25.34881889763779
 30
0.0
 10
-85.76329133858268
 20
25.32954330708661
 30
0.0
 10
-85.59512598425196
 20
25.60201968503937
 30
0.0
 10
-85.59512598425196
 20
25.60201968503937
 30
0.0
 10
-85.39454330708661
 20
25.7313937007874
 30
0.0
 10
-85.06314566929134
 20
25.36713385826772
 30
0.0
 10
-85.12012992125985
 20
25.93888976377953
 30
0.0
 10
-85.12012992125985
 20
25.93888976377953
 30
0.0
 10
-84.70687401574803
 20
25.97616929133858
 30
0.0
 10
-84.32497244094488
 20
25.94357874015748
 30
0.0
 10
-83.9308779527559
 20
26.18116929133858
 30
0.0
 10
-83.9308779527559
 20
26.18116929133858
 30
0.0
 10
-83.59226377952756
 20
26.38531102362205
 30
0.0
 10
-83.47362204724409
 20
26.78079133858268
 30
0.0
 10
-82.9964251968504
 20
26.67863385826772
 30
0.0
 10
-82.9964251968504
 20
26.67863385826772
 30
0.0
 10
-82.61828346456693
 20
26.59763385826772
 30
0.0
 10
-82.39440551181103
 20
26.99944881889764
 30
0.0
 10
-82.10811811023622
 20
27.21365748031496
 30
0.0
 10
-82.10811811023622
 20
27.21365748031496
 30
0.0
 10
-82.06544094488189
 20
27.24552755905512
 30
0.0
 10
-81.18264960629921
 20
27.41735433070866
 30
0.0
 10
-81.14771653543308
 20
27.65727165354331
 30
0.0
 10
-81.14771653543308
 20
27.65727165354331
 30
0.0
 10
-81.14771653543308
 20
27.65727165354331
 30
0.0
 10
-81.40493700787401
 20
27.70865748031496
 30
0.0
 10
-81.40493700787401
 20
27.70865748031496
 30
0.0
 10
-81.40493700787401
 20
27.70865748031496
 30
0.0
 10
-80.57883858267716
 20
27.95384645669292
 30
0.0
 10
-80.03220866141733
 20
28.03529133858268
 30
0.0
 10
-79.19723622047245
 20
28.16479921259842
 30
0.0
 10
-79.19723622047245
 20
28.16479921259842
 30
0.0
 10
-78.8657559055118
 20
28.21620472440945
 30
0.0
 10
-78.53313385826772
 20
28.29177165354331
 30
0.0
 10
-78.19932283464567
 20
28.36677559055118
 30
0.0
  0
SPLINE
  5
A3
330
1F
100
AcDbEntity
  8
Layer 1
 62
   250
370
     9
100
AcDbSpline
210
0.0
220
0.0
230
1.0
 70
     8
 71
     3
 72
     8
 73
     4
 74
     0
 42
0.000000001
 43
0.0000000001
 40
0.0
 40
0.0
 40
0.0
 40
0.0
 40
1.0
 40
1.0
 40
1.0
 40
1.0
 10
-78.09818503937008
 20
28.38944881889764
 30
0.0
 10
-77.8635157480315
 20
28.44188188976378
 30
0.0
 10
-77.62825984251968
 20
28.49281496062992
 30
0.0
 10
-77.3923937007874
 20
28.53366535433071
 30
0.0
  0
SPLINE
  5
A4
330
1F
100
AcDbEntity
  8
Layer 1
 62
   250
370
     9
100
AcDbSpline
210
0.0
220
0.0
230
1.0
 70
     8
 71
     3
 72
   296
 73
   292
 74
     0
 42
0.000000001
 43
0.0000000001
 40
0.0
 40
0.0
 40
0.0
 40
0.0
 40
0.0135135135135135
 40
0.0135135135135135
 40
0.0135135135135135
 40
0.0135135135135135
 40
0.027027027027027
 40
0.027027027027027
 40
0.027027027027027
 40
0.027027027027027
 40
0.0405405405405405
 40
0.0405405405405405
 40
0.0405405405405405
 40
0.0405405405405405
 40
0.0540540540540541
 40
0.0540540540540541
 40
0.0540540540540541
 40
0.0540540540540541
 40
0.0675675675675676
 40
0.0675675675675676
 40
0.0675675675675676
 40
0.0675675675675676
 40
0.0810810810810811
 40
0.0810810810810811
 40
0.0810810810810811
 40
0.0810810810810811
 40
0.0945945945945946
 40
0.0945945945945946
 40
0.0945945945945946
 40
0.0945945945945946
 40
0.1081081081081081
 40
0.1081081081081081
 40
0.1081081081081081
 40
0.1081081081081081
 40
0.1216216216216216
 40
0.1216216216216216
 40
0.1216216216216216
 40
0.1216216216216216
 40
0.1351351351351351
 40
0.1351351351351351
 40
0.1351351351351351
 40
0.1351351351351351
 40
0.1486486486486487
 40
0.1486486486486487
 40
0.1486486486486487
 40
0.1486486486486487
 40
0.1621621621621622
 40
0.1621621621621622
 40
0.1621621621621622
 40
0.1621621621621622
 40
0.1756756756756757
 40
0.1756756756756757
 40
0.1756756756756757
 40
0.1756756756756757
 40
0.1891891891891892
 40
0.1891891891891892
 40
0.1891891891891892
 40
0.1891891891891892
 40
0.2027027027027027
 40
0.2027027027027027
 40
0.2027027027027027
 40
0.2027027027027027
 40
0.2162162162162162
 40
0.2162162162162162
 40
0.2162162162162162
 40
0.2162162162162162
 40
0.2297297297297297
 40
0.2297297297297297
 40
0.2297297297297297
 40
0.2297297297297297
 40
0.2432432432432433
 40
0.2432432432432433
 40
0.2432432432432433
 40
0.2432432432432433
 40
0.2567567567567567
 40
0.2567567567567567
 40
0.2567567567567567
 40
0.2567567567567567
 40
0.2702702702702703
 40
0.2702702702702703
 40
0.2702702702702703
 40
0.2702702702702703
 40
0.2837837837837838
 40
0.2837837837837838
 40
0.2837837837837838
 40
0.2837837837837838
 40
0.2972972972972973
 40
0.2972972972972973
 40
0.2972972972972973
 40
0.2972972972972973
 40
0.3108108108108108
 40
0.3108108108108108
 40
0.3108108108108108
 40
0.3108108108108108
 40
0.3243243243243243
 40
0.3243243243243243
 40
0.3243243243243243
 40
0.3243243243243243
 40
0.3378378378378378
 40
0.3378378378378378
 40
0.3378378378378378
 40
0.3378378378378378
 40
0.3513513513513514
 40
0.3513513513513514
 40
0.3513513513513514
 40
0.3513513513513514
 40
0.3648648648648649
 40
0.3648648648648649
 40
0.3648648648648649
 40
0.3648648648648649
 40
0.3783783783783784
 40
0.3783783783783784
 40
0.3783783783783784
 40
0.3783783783783784
 40
0.3918918918918919
 40
0.3918918918918919
 40
0.3918918918918919
 40
0.3918918918918919
 40
0.4054054054054054
 40
0.4054054054054054
 40
0.4054054054054054
 40
0.4054054054054054
 40
0.4189189189189189
 40
0.4189189189189189
 40
0.4189189189189189
 40
0.4189189189189189
 40
0.4324324324324325
 40
0.4324324324324325
 40
0.4324324324324325
 40
0.4324324324324325
 40
0.4459459459459459
 40
0.4459459459459459
 40
0.4459459459459459
 40
0.4459459459459459
 40
0.4594594594594595
 40
0.4594594594594595
 40
0.4594594594594595
 40
0.4594594594594595
 40
0.472972972972973
 40
0.472972972972973
 40
0.472972972972973
 40
0.472972972972973
 40
0.4864864864864865
 40
0.4864864864864865
 40
0.4864864864864865
 40
0.4864864864864865
 40
0.5
 40
0.5
 40
0.5
 40
0.5
 40
0.5135135135135135
 40
0.5135135135135135
 40
0.5135135135135135
 40
0.5135135135135135
 40
0.527027027027027
 40
0.527027027027027
 40
0.527027027027027
 40
0.527027027027027
 40
0.5405405405405406
 40
0.5405405405405406
 40
0.5405405405405406
 40
0.5405405405405406
 40
0.5540540540540541
 40
0.5540540540540541
 40
0.5540540540540541
 40
0.5540540540540541
 40
0.5675675675675675
 40
0.5675675675675675
 40
0.5675675675675675
 40
0.5675675675675675
 40
0.581081081081081
 40
0.581081081081081
 40
0.581081081081081
 40
0.581081081081081
 40
0.5945945945945946
 40
0.5945945945945946
 40
0.5945945945945946
 40
0.5945945945945946
 40
0.6081081081081081
 40
0.6081081081081081
 40
0.6081081081081081
 40
0.6081081081081081
 40
0.6216216216216216
 40
0.6216216216216216
 40
0.6216216216216216
 40
0.6216216216216216
 40
0.6351351351351351
 40
0.6351351351351351
 40
0.6351351351351351
 40
0.6351351351351351
 40
0.6486486486486487
 40
0.6486486486486487
 40
0.6486486486486487
 40
0.6486486486486487
 40
0.6621621621621622
 40
0.6621621621621622
 40
0.6621621621621622
 40
0.6621621621621622
 40
0.6756756756756757
 40
0.6756756756756757
 40
0.6756756756756757
 40
0.6756756756756757
 40
0.6891891891891891
 40
0.6891891891891891
 40
0.6891891891891891
 40
0.6891891891891891
 40
0.7027027027027027
 40
0.7027027027027027
 40
0.7027027027027027
 40
0.7027027027027027
 40
0.7162162162162162
 40
0.7162162162162162
 40
0.7162162162162162
 40
0.7162162162162162
 40
0.7297297297297297
 40
0.7297297297297297
 40
0.7297297297297297
 40
0.7297297297297297
 40
0.7432432432432432
 40
0.7432432432432432
 40
0.7432432432432432
 40
0.7432432432432432
 40
0.7567567567567568
 40
0.7567567567567568
 40
0.7567567567567568
 40
0.7567567567567568
 40
0.7702702702702703
 40
0.7702702702702703
 40
0.7702702702702703
 40
0.7702702702702703
 40
0.7837837837837838
 40
0.7837837837837838
 40
0.7837837837837838
 40
0.7837837837837838
 40
0.7972972972972973
 40
0.7972972972972973
 40
0.7972972972972973
 40
0.7972972972972973
 40
0.8108108108108109
 40
0.8108108108108109
 40
0.8108108108108109
 40
0.8108108108108109
 40
0.8243243243243243
 40
0.8243243243243243
 40
0.8243243243243243
 40
0.8243243243243243
 40
0.8378378378378378
 40
0.8378378378378378
 40
0.8378378378378378
 40
0.8378378378378378
 40
0.8513513513513513
 40
0.8513513513513513
 40
0.8513513513513513
 40
0.8513513513513513
 40
0.8648648648648649
 40
0.8648648648648649
 40
0.8648648648648649
 40
0.8648648648648649
 40
0.8783783783783784
 40
0.8783783783783784
 40
0.8783783783783784
 40
0.8783783783783784
 40
0.8918918918918919
 40
0.8918918918918919
 40
0.8918918918918919
 40
0.8918918918918919
 40
0.9054054054054054
 40
0.9054054054054054
 40
0.9054054054054054
 40
0.9054054054054054
 40
0.918918918918919
 40
0.918918918918919
 40
0.918918918918919
 40
0.918918918918919
 40
0.9324324324324325
 40
0.9324324324324325
 40
0.9324324324324325
 40
0.9324324324324325
 40
0.9459459459459459
 40
0.9459459459459459
 40
0.9459459459459459
 40
0.9459459459459459
 40
0.9594594594594594
 40
0.9594594594594594
 40
0.9594594594594594
 40
0.9594594594594594
 40
0.972972972972973
 40
0.972972972972973
 40
0.972972972972973
 40
0.972972972972973
 40
1.0
 40
1.0
 40
1.0
 40
1.0
 10
-77.15780708661417
 20
28.57063385826772
 30
0.0
 10
-76.68948818897638
 20
28.6365157480315
 30
0.0
 10
-76.21875984251969
 20
28.65165748031496
 30
0.0
 10
-75.74550787401574
 20
28.54932677165354
 30
0.0
 10
-75.74550787401574
 20
28.54932677165354
 30
0.0
 10
-75.56240157480315
 20
28.50978346456693
 30
0.0
 10
-74.79149212598425
 20
28.60064173228346
 30
0.0
 10
-74.51228346456693
 20
28.59835039370079
 30
0.0
 10
-74.51228346456693
 20
28.59835039370079
 30
0.0
 10
-74.07987401574803
 20
28.59479133858268
 30
0.0
 10
-73.64683070866141
 20
28.61146062992126
 30
0.0
 10
-73.2152874015748
 20
28.58592125984252
 30
0.0
 10
-73.2152874015748
 20
28.58592125984252
 30
0.0
 10
-72.89450393700787
 20
28.56685433070866
 30
0.0
 10
-72.23757874015747
 20
28.47927952755905
 30
0.0
 10
-71.96412204724409
 20
28.49865748031496
 30
0.0
 10
-71.96412204724409
 20
28.49865748031496
 30
0.0
 10
-71.96412204724409
 20
28.49865748031496
 30
0.0
 10
-71.80546062992126
 20
28.70434251968504
 30
0.0
 10
-71.80546062992126
 20
28.70434251968504
 30
0.0
 10
-71.80546062992126
 20
28.70434251968504
 30
0.0
 10
-71.80546062992126
 20
28.70434251968504
 30
0.0
 10
-70.3603188976378
 20
28.43957086614173
 30
0.0
 10
-70.3603188976378
 20
28.43957086614173
 30
0.0
 10
-70.3603188976378
 20
28.43957086614173
 30
0.0
 10
-70.3603188976378
 20
28.43957086614173
 30
0.0
 10
-70.34200393700787
 20
28.57832283464567
 30
0.0
 10
-70.34200393700787
 20
28.57832283464567
 30
0.0
 10
-70.34200393700787
 20
28.57832283464567
 30
0.0
 10
-70.34200393700787
 20
28.57832283464567
 30
0.0
 10
-72.40967716535432
 20
28.98349212598425
 30
0.0
 10
-72.40967716535432
 20
28.98349212598425
 30
0.0
 10
-72.40967716535432
 20
28.98349212598425
 30
0.0
 10
-72.40967716535432
 20
28.98349212598425
 30
0.0
 10
-72.4011811023622
 20
29.05374015748032
 30
0.0
 10
-72.4011811023622
 20
29.05374015748032
 30
0.0
 10
-72.4011811023622
 20
29.05374015748032
 30
0.0
 10
-72.4011811023622
 20
29.05374015748032
 30
0.0
 10
-70.57370866141733
 20
28.75192519685039
 30
0.0
 10
-70.57370866141733
 20
28.75192519685039
 30
0.0
 10
-70.57370866141733
 20
28.75192519685039
 30
0.0
 10
-70.57370866141733
 20
28.75192519685039
 30
0.0
 10
-70.56579133858267
 20
28.81929921259843
 30
0.0
 10
-70.56579133858267
 20
28.81929921259843
 30
0.0
 10
-70.56579133858267
 20
28.81929921259843
 30
0.0
 10
-70.62057480314961
 20
29.08366141732283
 30
0.0
 10
-72.38525984251969
 20
29.38153937007874
 30
0.0
 10
-72.44079527559055
 20
29.38112992125984
 30
0.0
 10
-72.44079527559055
 20
29.38112992125984
 30
0.0
 10
-72.44079527559055
 20
29.38112992125984
 30
0.0
 10
-70.2842125984252
 20
29.30766141732283
 30
0.0
 10
-70.2842125984252
 20
29.30766141732283
 30
0.0
 10
-70.2842125984252
 20
29.30766141732283
 30
0.0
 10
-70.2842125984252
 20
29.30766141732283
 30
0.0
 10
-71.46363385826771
 20
29.59424015748031
 30
0.0
 10
-71.46363385826771
 20
29.59424015748031
 30
0.0
 10
-71.46363385826771
 20
29.59424015748031
 30
0.0
 10
-71.46363385826771
 20
29.59424015748031
 30
0.0
 10
-70.33972047244094
 20
29.60156692913386
 30
0.0
 10
-70.33972047244094
 20
29.60156692913386
 30
0.0
 10
-70.33972047244094
 20
29.60156692913386
 30
0.0
 10
-70.33972047244094
 20
29.60156692913386
 30
0.0
 10
-70.34038188976378
 20
29.67185039370079
 30
0.0
 10
-70.34038188976378
 20
29.67185039370079
 30
0.0
 10
-70.34038188976378
 20
29.67185039370079
 30
0.0
 10
-70.6930157480315
 20
30.04562598425197
 30
0.0
 10
-71.79684645669292
 20
29.96760236220473
 30
0.0
 10
-72.11801181102362
 20
30.20498818897638
 30
0.0
 10
-72.11801181102362
 20
30.20498818897638
 30
0.0
 10
-72.11801181102362
 20
30.20498818897638
 30
0.0
 10
-72.10966535433072
 20
30.26291338582677
 30
0.0
 10
-72.10966535433072
 20
30.26291338582677
 30
0.0
 10
-72.10966535433072
 20
30.26291338582677
 30
0.0
 10
-72.10966535433072
 20
30.26291338582677
 30
0.0
 10
-69.49397244094489
 20
29.73730708661417
 30
0.0
 10
-69.49397244094489
 20
29.73730708661417
 30
0.0
 10
-69.49397244094489
 20
29.73730708661417
 30
0.0
 10
-69.49397244094489
 20
29.73730708661417
 30
0.0
 10
-69.48261811023622
 20
29.81638976377953
 30
0.0
 10
-69.48261811023622
 20
29.81638976377953
 30
0.0
 10
-69.48261811023622
 20
29.81638976377953
 30
0.0
 10
-69.53930708661417
 20
30.10057086614173
 30
0.0
 10
-72.19181102362205
 20
30.43415748031496
 30
0.0
 10
-72.5818031496063
 20
30.52675984251968
 30
0.0
 10
-72.5818031496063
 20
30.52675984251968
 30
0.0
 10
-72.5818031496063
 20
30.52675984251968
 30
0.0
 10
-70.55599606299212
 20
30.42833464566929
 30
0.0
 10
-70.55599606299212
 20
30.42833464566929
 30
0.0
 10
-70.55599606299212
 20
30.42833464566929
 30
0.0
 10
-70.55599606299212
 20
30.42833464566929
 30
0.0
 10
-70.54831102362205
 20
30.54209842519685
 30
0.0
 10
-70.54831102362205
 20
30.54209842519685
 30
0.0
 10
-70.54831102362205
 20
30.54209842519685
 30
0.0
 10
-70.54831102362205
 20
30.54209842519685
 30
0.0
 10
-73.04082283464567
 20
30.81351181102362
 30
0.0
 10
-73.04082283464567
 20
30.81351181102362
 30
0.0
 10
-73.04082283464567
 20
30.81351181102362
 30
0.0
 10
-73.01663779527559
 20
31.12538976377953
 30
0.0
 10
-70.88406299212599
 20
30.71231496062992
 30
0.0
 10
-70.80688582677165
 20
30.87729133858268
 30
0.0
 10
-70.80688582677165
 20
30.87729133858268
 30
0.0
 10
-70.80688582677165
 20
30.87729133858268
 30
0.0
 10
-72.99681496062992
 20
31.25168110236221
 30
0.0
 10
-72.99681496062992
 20
31.25168110236221
 30
0.0
 10
-72.99681496062992
 20
31.25168110236221
 30
0.0
 10
-72.99681496062992
 20
31.25168110236221
 30
0.0
 10
-72.98606692913386
 20
31.34675196850394
 30
0.0
 10
-72.98606692913386
 20
31.34675196850394
 30
0.0
 10
-72.98606692913386
 20
31.34675196850394
 30
0.0
 10
-72.98606692913386
 20
31.34675196850394
 30
0.0
 10
-69.3612283464567
 20
30.76192125984252
 30
0.0
 10
-69.3612283464567
 20
30.76192125984252
 30
0.0
 10
-69.3612283464567
 20
30.76192125984252
 30
0.0
 10
-69.3612283464567
 20
30.76192125984252
 30
0.0
 10
-69.33218897637795
 20
30.87835039370079
 30
0.0
 10
-69.33218897637795
 20
30.87835039370079
 30
0.0
 10
-69.33218897637795
 20
30.87835039370079
 30
0.0
 10
-69.33218897637795
 20
30.87835039370079
 30
0.0
 10
-70.38554724409448
 20
31.35609842519685
 30
0.0
 10
-70.38554724409448
 20
31.35609842519685
 30
0.0
 10
-70.38554724409448
 20
31.35609842519685
 30
0.0
 10
-70.38554724409448
 20
31.35609842519685
 30
0.0
 10
-70.33295669291338
 20
31.59899212598425
 30
0.0
 10
-70.33295669291338
 20
31.59899212598425
 30
0.0
 10
-70.33295669291338
 20
31.59899212598425
 30
0.0
 10
-70.33295669291338
 20
31.59899212598425
 30
0.0
 10
-70.90856692913385
 20
31.84753937007874
 30
0.0
 10
-70.90856692913385
 20
31.84753937007874
 30
0.0
 10
-70.90856692913385
 20
31.84753937007874
 30
0.0
 10
-70.90856692913385
 20
31.84753937007874
 30
0.0
 10
-69.59807874015748
 20
31.83377559055118
 30
0.0
 10
-69.59807874015748
 20
31.83377559055118
 30
0.0
 10
-69.59807874015748
 20
31.83377559055118
 30
0.0
 10
-69.7803188976378
 20
32.01525590551181
 30
0.0
 10
-70.45252755905511
 20
31.97448031496063
 30
0.0
 10
-70.6936811023622
 20
31.98136220472441
 30
0.0
 10
-70.6936811023622
 20
31.98136220472441
 30
0.0
 10
-71.31742913385827
 20
31.99923228346457
 30
0.0
 10
-71.23649606299213
 20
32.16547637795276
 30
0.0
 10
-71.63937401574803
 20
32.34240157480315
 30
0.0
 10
-71.63937401574803
 20
32.34240157480315
 30
0.0
 10
-72.0309842519685
 20
32.51433070866142
 30
0.0
 10
-73.96553937007874
 20
32.55934645669291
 30
0.0
 10
-74.01310236220472
 20
32.59057086614173
 30
0.0
 10
-74.01310236220472
 20
32.59057086614173
 30
0.0
 10
-73.8942283464567
 20
32.94558661417323
 30
0.0
 10
-71.78705118110236
 20
32.49539763779528
 30
0.0
 10
-71.42318503937008
 20
32.39170078740158
 30
0.0
 10
-71.42318503937008
 20
32.39170078740158
 30
0.0
 10
-71.42318503937008
 20
32.39170078740158
 30
0.0
 10
-69.7051062992126
 20
32.19002362204724
 30
0.0
 10
-69.7051062992126
 20
32.19002362204724
 30
0.0
 10
-69.7051062992126
 20
32.19002362204724
 30
0.0
 10
-69.43291732283464
 20
32.17701574803149
 30
0.0
 10
-69.6491653543307
 20
32.29488582677165
 30
0.0
 10
-69.43259842519684
 20
32.2794094488189
 30
0.0
 10
-69.43259842519684
 20
32.2794094488189
 30
0.0
 10
-69.24383070866142
 20
32.26595669291338
 30
0.0
 10
-68.96063385826771
 20
32.10806692913386
 30
0.0
 10
-68.77879921259843
 20
32.24983070866142
 30
0.0
 10
-68.77879921259843
 20
32.24983070866142
 30
0.0
 10
-68.86250787401575
 20
32.54086220472441
 30
0.0
 10
-71.75974803149606
 20
32.90529133858268
 30
0.0
 10
-72.16713385826772
 20
32.95548031496063
 30
0.0
 10
-72.16713385826772
 20
32.95548031496063
 30
0.0
 10
-72.47876377952755
 20
32.99385433070866
 30
0.0
 10
-72.74727952755906
 20
33.11833464566929
 30
0.0
 10
-73.02314173228346
 20
33.13325984251968
 30
0.0
 10
-73.02314173228346
 20
33.13325984251968
 30
0.0
 10
-73.40376771653543
 20
33.15390157480315
 30
0.0
 10
-73.31225984251968
 20
33.45458661417323
 30
0.0
 10
-73.54538188976377
 20
33.70460236220472
 30
0.0
 10
-73.54538188976377
 20
33.70460236220472
 30
0.0
 10
-73.67644488188976
 20
33.84517322834645
 30
0.0
 10
-74.22614173228347
 20
33.85684645669291
 30
0.0
 10
-74.41438976377952
 20
33.85407480314961
 30
0.0
 10
-74.41438976377952
 20
33.85407480314961
 30
0.0
 10
-74.54351968503937
 20
33.85215748031496
 30
0.0
 10
-74.79678346456693
 20
33.80994488188976
 30
0.0
 10
-74.90100393700787
 20
33.8292874015748
 30
0.0
 10
-74.90100393700787
 20
33.8292874015748
 30
0.0
 10
-75.04261811023622
 20
33.85554330708661
 30
0.0
 10
-74.94983464566928
 20
33.88543307086614
 30
0.0
 10
-75.06937401574802
 20
33.89707086614173
 30
0.0
 10
-75.06937401574802
 20
33.89707086614173
 30
0.0
 10
-75.15834251968504
 20
33.90576771653544
 30
0.0
 10
-75.18007086614173
 20
33.83702362204724
 30
0.0
 10
-75.26794094488189
 20
33.87588188976378
 30
0.0
 10
-75.26794094488189
 20
33.87588188976378
 30
0.0
 10
-75.25629527559055
 20
33.92254330708661
 30
0.0
 10
-74.60446062992126
 20
34.10487795275591
 30
0.0
 10
-74.51491338582677
 20
34.09912598425197
 30
0.0
 10
-74.51491338582677
 20
34.09912598425197
 30
0.0
 10
-74.27927952755905
 20
34.08399212598425
 30
0.0
 10
-73.8425905511811
 20
33.92678740157481
 30
0.0
 10
-73.6352125984252
 20
33.94633464566929
 30
0.0
 10
-73.6352125984252
 20
33.94633464566929
 30
0.0
 10
-73.47901181102363
 20
34.27622047244095
 30
0.0
 10
-73.65304330708662
 20
34.29850787401575
 30
0.0
 10
-73.22355511811024
 20
34.17498818897638
 30
0.0
 10
-73.22355511811024
 20
34.17498818897638
 30
0.0
 10
-73.03738582677165
 20
34.12148031496063
 30
0.0
 10
-72.72829921259843
 20
34.1218937007874
 30
0.0
 10
-72.51540551181103
 20
34.08724803149606
 30
0.0
 10
-72.51540551181103
 20
34.08724803149606
 30
0.0
 10
-72.05716141732283
 20
34.01264960629921
 30
0.0
 10
-71.60756299212598
 20
33.9752283464567
 30
0.0
 10
-71.14951968503937
 20
33.87697637795276
 30
0.0
 10
-71.14951968503937
 20
33.87697637795276
 30
0.0
 10
-70.688968503937
 20
33.77807086614173
 30
0.0
 10
-68.68827559055119
 20
33.42542125984252
 30
0.0
 10
-68.34734251968504
 20
33.52706299212598
 30
0.0
 10
-68.34734251968504
 20
33.52706299212598
 30
0.0
 10
-68.34734251968504
 20
33.52706299212598
 30
0.0
 10
-68.34734251968504
 20
33.60333858267717
 30
0.0
 10
-68.34734251968504
 20
33.60333858267717
 30
0.0
 10
-68.34734251968504
 20
33.60333858267717
 30
0.0
 10
-69.21886614173228
 20
34.09837401574803
 30
0.0
 10
-71.65763385826772
 20
33.87718110236221
 30
0.0
 10
-72.86370078740157
 20
34.56091732283465
 30
0.0
 10
-72.86370078740157
 20
34.56091732283465
 30
0.0
 10
-72.8423188976378
 20
34.90381496062992
 30
0.0
 10
-72.62306299212598
 20
34.73531102362205
 30
0.0
 10
-72.30964173228347
 20
34.70936220472441
 30
0.0
 10
-72.30964173228347
 20
34.70936220472441
 30
0.0
 10
-72.09570866141732
 20
34.69162598425197
 30
0.0
 10
-71.83955511811024
 20
34.68238188976378
 30
0.0
 10
-71.63599212598425
 20
34.66721653543307
 30
0.0
 10
-71.63599212598425
 20
34.66721653543307
 30
0.0
 10
-71.63599212598425
 20
34.66721653543307
 30
0.0
 10
-73.29385433070865
 20
35.04650393700788
 30
0.0
 10
-73.29385433070865
 20
35.04650393700788
 30
0.0
 10
-73.29385433070865
 20
35.04650393700788
 30
0.0
 10
-73.29385433070865
 20
35.04650393700788
 30
0.0
 10
-72.57579133858268
 20
35.01357086614173
 30
0.0
 10
-72.57579133858268
 20
35.01357086614173
 30
0.0
 10
-72.57579133858268
 20
35.01357086614173
 30
0.0
 10
-72.65782283464567
 20
35.20686220472441
 30
0.0
 10
-72.95133464566929
 20
35.23335826771653
 30
0.0
 10
-73.14022047244094
 20
35.28381889763779
 30
0.0
 10
-73.14022047244094
 20
35.28381889763779
 30
0.0
 10
-73.57107086614174
 20
35.39877952755906
 30
0.0
 10
-73.42327165354331
 20
35.41637795275591
 30
0.0
 10
-73.52870866141733
 20
35.72175196850394
 30
0.0
 10
-73.52870866141733
 20
35.72175196850394
 30
0.0
 10
-73.52870866141733
 20
35.72175196850394
 30
0.0
 10
-73.7497559055118
 20
35.98559842519685
 30
0.0
 10
-73.7497559055118
 20
35.98559842519685
 30
0.0
 10
-73.7497559055118
 20
35.98559842519685
 30
0.0
 10
-73.7497559055118
 20
35.98559842519685
 30
0.0
 10
-76.03970472440945
 20
36.25585039370079
 30
0.0
 10
-76.03970472440945
 20
36.25585039370079
 30
0.0
 10
-76.03970472440945
 20
36.25585039370079
 30
0.0
 10
-75.28327165354331
 20
36.30929133858267
 30
0.0
 10
-76.02486220472441
 20
36.37779133858267
 30
0.0
 10
-75.22231496062992
 20
36.32633858267717
 30
0.0
 10
-75.22231496062992
 20
36.32633858267717
 30
0.0
 10
-74.68770472440944
 20
36.29206692913386
 30
0.0
 10
-74.43557086614173
 20
36.32353149606299
 30
0.0
 10
-73.92205118110236
 20
36.12757086614173
 30
0.0
 10
-73.92205118110236
 20
36.12757086614173
 30
0.0
 10
-73.76506692913385
 20
36.06772834645669
 30
0.0
 10
-72.7281811023622
 20
35.9053188976378
 30
0.0
 10
-72.61919291338583
 20
35.96290157480315
 30
0.0
 10
-72.61919291338583
 20
35.96290157480315
 30
0.0
 10
-72.64392519685039
 20
36.34242913385827
 30
0.0
 10
-75.00335039370079
 20
36.38248425196851
 30
0.0
 10
-74.92828346456693
 20
36.78155905511811
 30
0.0
 10
-74.92828346456693
 20
36.78155905511811
 30
0.0
 10
-74.92828346456693
 20
36.78155905511811
 30
0.0
 10
-72.72563779527559
 20
36.20946062992126
 30
0.0
 10
-72.72563779527559
 20
36.20946062992126
 30
0.0
 10
-72.72563779527559
 20
36.20946062992126
 30
0.0
 10
-72.89967322834646
 20
36.34968503937008
 30
0.0
 10
-73.64864960629922
 20
36.45879133858268
 30
0.0
 10
-73.6125905511811
 20
36.73999606299213
 30
0.0
 10
-73.6125905511811
 20
36.73999606299213
 30
0.0
 10
-73.6125905511811
 20
36.73999606299213
 30
0.0
 10
-72.32917716535432
 20
36.51240551181102
 30
0.0
 10
-72.32917716535432
 20
36.51240551181102
 30
0.0
 10
-72.32917716535432
 20
36.51240551181102
 30
0.0
 10
-72.32917716535432
 20
36.51240551181102
 30
0.0
 10
-74.53681496062993
 20
37.13092519685039
 30
0.0
 10
-74.53681496062993
 20
37.13092519685039
 30
0.0
 10
-74.53681496062993
 20
37.13092519685039
 30
0.0
 10
-74.53681496062993
 20
37.13092519685039
 30
0.0
 10
-74.52594881889763
 20
37.19131496062992
 30
0.0
 10
-74.52594881889763
 20
37.19131496062992
 30
0.0
 10
-74.52594881889763
 20
37.19131496062992
 30
0.0
 10
-74.52594881889763
 20
37.19131496062992
 30
0.0
 10
-75.15583070866141
 20
37.36655905511811
 30
0.0
 10
-75.31568503937008
 20
37.41103543307086
 30
0.0
  0
SPLINE
  5
A5
330
1F
100
AcDbEntity
  8
Layer 1
 62
   250
370
     9
100
AcDbSpline
210
0.0
220
0.0
230
1.0
 70
     8
 71
     3
 72
    56
 73
    52
 74
     0
 42
0.000000001
 43
0.0000000001
 40
0.0
 40
0.0
 40
0.0
 40
0.0
 40
0.0714285714285714
 40
0.0714285714285714
 40
0.0714285714285714
 40
0.0714285714285714
 40
0.1428571428571428
 40
0.1428571428571428
 40
0.1428571428571428
 40
0.1428571428571428
 40
0.2142857142857143
 40
0.2142857142857143
 40
0.2142857142857143
 40
0.2142857142857143
 40
0.2857142857142857
 40
0.2857142857142857
 40
0.2857142857142857
 40
0.2857142857142857
 40
0.3571428571428572
 40
0.3571428571428572
 40
0.3571428571428572
 40
0.3571428571428572
 40
0.4285714285714285
 40
0.4285714285714285
 40
0.4285714285714285
 40
0.4285714285714285
 40
0.5
 40
0.5
 40
0.5
 40
0.5
 40
0.5714285714285714
 40
0.5714285714285714
 40
0.5714285714285714
 40
0.5714285714285714
 40
0.6428571428571429
 40
0.6428571428571429
 40
0.6428571428571429
 40
0.6428571428571429
 40
0.7142857142857143
 40
0.7142857142857143
 40
0.7142857142857143
 40
0.7142857142857143
 40
0.7857142857142857
 40
0.7857142857142857
 40
0.7857142857142857
 40
0.7857142857142857
 40
0.8571428571428571
 40
0.8571428571428571
 40
0.8571428571428571
 40
0.8571428571428571
 40
1.0
 40
1.0
 40
1.0
 40
1.0
 10
-75.89134251968504
 20
37.96279921259843
 30
0.0
 10
-76.25531102362204
 20
38.03268897637795
 30
0.0
 10
-77.04143700787401
 20
38.18364173228346
 30
0.0
 10
-77.04143700787401
 20
38.18364173228346
 30
0.0
 10
-77.04143700787401
 20
38.18364173228346
 30
0.0
 10
-77.04143700787401
 20
38.18364173228346
 30
0.0
 10
-76.91727559055118
 20
38.29935826771653
 30
0.0
 10
-76.91727559055118
 20
38.29935826771653
 30
0.0
 10
-76.91727559055118
 20
38.29935826771653
 30
0.0
 10
-76.91727559055118
 20
38.29935826771653
 30
0.0
 10
-77.25184645669292
 20
38.32325196850394
 30
0.0
 10
-77.25184645669292
 20
38.32325196850394
 30
0.0
 10
-77.25184645669292
 20
38.32325196850394
 30
0.0
 10
-77.26872047244095
 20
38.33276771653544
 30
0.0
 10
-77.32431496062992
 20
38.5525905511811
 30
0.0
 10
-77.67353543307087
 20
38.60877165354331
 30
0.0
 10
-77.67353543307087
 20
38.60877165354331
 30
0.0
 10
-77.83132677165354
 20
38.63413779527559
 30
0.0
 10
-78.18727952755906
 20
38.68141732283465
 30
0.0
 10
-78.31257086614173
 20
38.76173228346457
 30
0.0
 10
-78.31257086614173
 20
38.76173228346457
 30
0.0
 10
-78.31257086614173
 20
38.76173228346457
 30
0.0
 10
-78.08843307086615
 20
38.83677559055118
 30
0.0
 10
-78.08843307086615
 20
38.83677559055118
 30
0.0
 10
-78.08843307086615
 20
38.83677559055118
 30
0.0
 10
-78.54109842519685
 20
39.08764566929134
 30
0.0
 10
-78.39099212598425
 20
38.85420078740157
 30
0.0
 10
-78.76893307086614
 20
38.96392125984252
 30
0.0
 10
-78.76893307086614
 20
38.96392125984252
 30
0.0
 10
-79.0000905511811
 20
39.03095275590551
 30
0.0
 10
-79.18371653543308
 20
39.14183858267717
 30
0.0
 10
-79.40068897637795
 20
39.23026771653543
 30
0.0
 10
-79.40068897637795
 20
39.23026771653543
 30
0.0
 10
-79.9165157480315
 20
39.4406062992126
 30
0.0
 10
-80.46432677165355
 20
39.35824015748032
 30
0.0
 10
-80.93464566929134
 20
39.47217322834646
 30
0.0
 10
-80.93464566929134
 20
39.47217322834646
 30
0.0
 10
-81.24520472440945
 20
39.54735039370079
 30
0.0
 10
-82.24276771653544
 20
39.69110236220472
 30
0.0
 10
-82.49747244094488
 20
39.64642519685039
 30
0.0
 10
-82.49747244094488
 20
39.64642519685039
 30
0.0
 10
-82.5291968503937
 20
39.64084645669291
 30
0.0
 10
-83.6340157480315
 20
40.03536614173228
 30
0.0
 10
-83.76476377952756
 20
40.09466141732283
 30
0.0
 10
-83.76476377952756
 20
40.09466141732283
 30
0.0
 10
-83.76476377952756
 20
40.09466141732283
 30
0.0
 10
-84.29816141732283
 20
40.09466141732283
 30
0.0
 10
-84.29816141732283
 20
40.09466141732283
 30
0.0
 10
-84.29816141732283
 20
40.09466141732283
 30
0.0
 10
-84.29816141732283
 20
40.09466141732283
 30
0.0
 10
-84.7269094488189
 20
39.97718503937008
 30
0.0
 10
-84.89526771653543
 20
39.93105511811024
 30
0.0
  0
SPLINE
  5
A6
330
1F
100
AcDbEntity
  8
Layer 1
 62
   250
370
     9
100
AcDbSpline
210
0.0
220
0.0
230
1.0
 70
     8
 71
     3
 72
    36
 73
    32
 74
     0
 42
0.000000001
 43
0.0000000001
 40
0.0
 40
0.0
 40
0.0
 40
0.0
 40
0.1111111111111111
 40
0.1111111111111111
 40
0.1111111111111111
 40
0.1111111111111111
 40
0.2222222222222222
 40
0.2222222222222222
 40
0.2222222222222222
 40
0.2222222222222222
 40
0.3333333333333333
 40
0.3333333333333333
 40
0.3333333333333333
 40
0.3333333333333333
 40
0.4444444444444444
 40
0.4444444444444444
 40
0.4444444444444444
 40
0.4444444444444444
 40
0.5555555555555556
 40
0.5555555555555556
 40
0.5555555555555556
 40
0.5555555555555556
 40
0.6666666666666666
 40
0.6666666666666666
 40
0.6666666666666666
 40
0.6666666666666666
 40
0.7777777777777778
 40
0.7777777777777778
 40
0.7777777777777778
 40
0.7777777777777778
 40
1.0
 40
1.0
 40
1.0
 40
1.0
 10
-91.50157480314961
 20
36.36201181102362
 30
0.0
 10
-91.47363385826772
 20
36.26094881889764
 30
0.0
 10
-91.14914566929134
 20
35.94595669291338
 30
0.0
 10
-91.06347244094488
 20
35.85204724409449
 30
0.0
 10
-91.06347244094488
 20
35.85204724409449
 30
0.0
 10
-91.06347244094488
 20
35.85204724409449
 30
0.0
 10
-91.15850787401575
 20
35.83801181102362
 30
0.0
 10
-91.15850787401575
 20
35.83801181102362
 30
0.0
 10
-91.15850787401575
 20
35.83801181102362
 30
0.0
 10
-91.15850787401575
 20
35.83801181102362
 30
0.0
 10
-91.30494881889764
 20
35.38395669291339
 30
0.0
 10
-91.30494881889764
 20
35.38395669291339
 30
0.0
 10
-91.30494881889764
 20
35.38395669291339
 30
0.0
 10
-91.30494881889764
 20
35.38395669291339
 30
0.0
 10
-91.45823228346457
 20
35.53068897637795
 30
0.0
 10
-91.45823228346457
 20
35.53068897637795
 30
0.0
 10
-91.45823228346457
 20
35.53068897637795
 30
0.0
 10
-91.45823228346457
 20
35.53068897637795
 30
0.0
 10
-91.44517322834646
 20
34.87926771653543
 30
0.0
 10
-91.44517322834646
 20
34.87926771653543
 30
0.0
 10
-91.44517322834646
 20
34.87926771653543
 30
0.0
 10
-91.44517322834646
 20
34.87926771653543
 30
0.0
 10
-91.51096456692913
 20
34.87738582677165
 30
0.0
 10
-91.51096456692913
 20
34.87738582677165
 30
0.0
 10
-91.51096456692913
 20
34.87738582677165
 30
0.0
 10
-91.51082283464567
 20
34.8768031496063
 30
0.0
 10
-91.28417322834646
 20
34.54756692913386
 30
0.0
 10
-91.28111023622047
 20
34.54489763779527
 30
0.0
 10
-91.28111023622047
 20
34.54489763779527
 30
0.0
 10
-91.22703937007874
 20
34.49761023622047
 30
0.0
 10
-91.16321653543307
 20
34.46453149606299
 30
0.0
 10
-91.09942519685039
 20
34.45386614173228
 30
0.0
  0
SPLINE
  5
A7
330
1F
100
AcDbEntity
  8
Layer 1
 62
   250
370
     9
100
AcDbSpline
210
0.0
220
0.0
230
1.0
 70
     8
 71
     3
 72
    12
 73
     8
 74
     0
 42
0.000000001
 43
0.0000000001
 40
0.0
 40
0.0
 40
0.0
 40
0.0
 40
0.3333333333333333
 40
0.3333333333333333
 40
0.3333333333333333
 40
0.3333333333333333
 40
1.0
 40
1.0
 40
1.0
 40
1.0
 10
-91.36295669291339
 20
37.77986614173228
 30
0.0
 10
-91.44270078740158
 20
37.68917322834645
 30
0.0
 10
-91.38196062992127
 20
37.64903543307086
 30
0.0
 10
-91.38357086614174
 20
37.51606299212598
 30
0.0
 10
-91.38357086614174
 20
37.51606299212598
 30
0.0
 10
-91.38501574803149
 20
37.39333070866142
 30
0.0
 10
-91.44552362204725
 20
37.4343779527559
 30
0.0
 10
-91.44559842519685
 20
37.43244094488189
 30
0.0
  0
SPLINE
  5
A8
330
1F
100
AcDbEntity
  8
Layer 1
 62
   250
370
     9
100
AcDbSpline
210
0.0
220
0.0
230
1.0
 70
     8
 71
     3
 72
    28
 73
    24
 74
     0
 42
0.000000001
 43
0.0000000001
 40
0.0
 40
0.0
 40
0.0
 40
0.0
 40
0.1428571428571428
 40
0.1428571428571428
 40
0.1428571428571428
 40
0.1428571428571428
 40
0.2857142857142857
 40
0.2857142857142857
 40
0.2857142857142857
 40
0.2857142857142857
 40
0.4285714285714285
 40
0.4285714285714285
 40
0.4285714285714285
 40
0.4285714285714285
 40
0.5714285714285714
 40
0.5714285714285714
 40
0.5714285714285714
 40
0.5714285714285714
 40
0.7142857142857143
 40
0.7142857142857143
 40
0.7142857142857143
 40
0.7142857142857143
 40
1.0
 40
1.0
 40
1.0
 40
1.0
 10
-89.36409448818898
 20
39.7493031496063
 30
0.0
 10
-89.80953149606299
 20
40.0376968503937
 30
0.0
 10
-90.31868503937008
 20
39.81236220472441
 30
0.0
 10
-90.81252362204724
 20
39.72437795275591
 30
0.0
 10
-90.81252362204724
 20
39.72437795275591
 30
0.0
 10
-91.23115354330709
 20
39.6497125984252
 30
0.0
 10
-91.58615354330709
 20
39.35574015748031
 30
0.0
 10
-91.83294094488188
 20
38.97087007874016
 30
0.0
 10
-91.83294094488188
 20
38.97087007874016
 30
0.0
 10
-91.83294094488188
 20
38.97087007874016
 30
0.0
 10
-91.83294094488188
 20
38.93512992125984
 30
0.0
 10
-91.83294094488188
 20
38.93512992125984
 30
0.0
 10
-91.83294094488188
 20
38.93512992125984
 30
0.0
 10
-91.72461417322835
 20
38.89103543307087
 30
0.0
 10
-91.44370078740157
 20
38.79829527559055
 30
0.0
 10
-91.36652362204724
 20
38.7273937007874
 30
0.0
 10
-91.36652362204724
 20
38.7273937007874
 30
0.0
 10
-91.36652362204724
 20
38.7273937007874
 30
0.0
 10
-91.55823622047244
 20
38.46727952755906
 30
0.0
 10
-91.55823622047244
 20
38.46727952755906
 30
0.0
 10
-91.55823622047244
 20
38.46727952755906
 30
0.0
 10
-91.55823622047244
 20
38.46727952755906
 30
0.0
 10
-91.48871653543307
 20
38.14879133858268
 30
0.0
 10
-91.48871653543307
 20
38.14879133858268
 30
0.0
  0
SPLINE
  5
A9
330
1F
100
AcDbEntity
  8
Layer 1
 62
   250
370
     9
100
AcDbSpline
210
0.0
220
0.0
230
1.0
 70
    11
 71
     3
 72
    20
 73
    16
 74
     0
 42
0.000000001
 43
0.0000000001
 40
0.0
 40
0.0
 40
0.0
 40
0.0
 40
0.2
 40
0.2
 40
0.2
 40
0.2
 40
0.4
 40
0.4
 40
0.4
 40
0.4
 40
0.6
 40
0.6
 40
0.6
 40
0.6
 40
1.0
 40
1.0
 40
1.0
 40
1.0
 10
-83.2621062992126
 20
28.52015748031496
 30
0.0
 10
-83.16054330708661
 20
28.55415354330709
 30
0.0
 10
-83.19752755905512
 20
28.53621653543307
 30
0.0
 10
-83.13199606299213
 20
28.65446062992126
 30
0.0
 10
-83.13199606299213
 20
28.65446062992126
 30
0.0
 10
-83.03574803149607
 20
28.82820472440945
 30
0.0
 10
-82.73602362204724
 20
28.85357086614173
 30
0.0
 10
-82.68863385826772
 20
28.99735826771654
 30
0.0
 10
-82.68863385826772
 20
28.99735826771654
 30
0.0
 10
-82.76049606299213
 20
29.04504724409449
 30
0.0
 10
-82.85396850393701
 20
28.95326377952756
 30
0.0
 10
-83.01193700787401
 20
28.86035039370079
 30
0.0
 10
-83.01193700787401
 20
28.86035039370079
 30
0.0
 10
-83.1549094488189
 20
28.77620078740157
 30
0.0
 10
-83.2207874015748
 20
28.71841338582677
 30
0.0
 10
-83.2621062992126
 20
28.52015748031496
 30
0.0
  0
SPLINE
  5
AA
330
1F
100
AcDbEntity
  8
Layer 1
 62
   250
370
     9
100
AcDbSpline
210
0.0
220
0.0
230
1.0
 70
    11
 71
     3
 72
    20
 73
    16
 74
     0
 42
0.000000001
 43
0.0000000001
 40
0.0
 40
0.0
 40
0.0
 40
0.0
 40
0.2
 40
0.2
 40
0.2
 40
0.2
 40
0.4
 40
0.4
 40
0.4
 40
0.4
 40
0.6
 40
0.6
 40
0.6
 40
0.6
 40
1.0
 40
1.0
 40
1.0
 40
1.0
 10
-85.51825590551181
 20
26.65813779527559
 30
0.0
 10
-85.41669291338583
 20
26.69213385826772
 30
0.0
 10
-85.45367716535434
 20
26.6741968503937
 30
0.0
 10
-85.38814566929133
 20
26.79244094488189
 30
0.0
 10
-85.38814566929133
 20
26.79244094488189
 30
0.0
 10
-85.29189763779527
 20
26.96618503937008
 30
0.0
 10
-84.99217322834646
 20
26.99155118110236
 30
0.0
 10
-84.94478346456692
 20
27.13533858267716
 30
0.0
 10
-84.94478346456692
 20
27.13533858267716
 30
0.0
 10
-85.01664566929134
 20
27.18302755905512
 30
0.0
 10
-85.11011811023621
 20
27.09124409448819
 30
0.0
 10
-85.26808661417323
 20
26.99833070866142
 30
0.0
 10
-85.26808661417323
 20
26.99833070866142
 30
0.0
 10
-85.41105905511812
 20
26.9141811023622
 30
0.0
 10
-85.47693700787401
 20
26.8563937007874
 30
0.0
 10
-85.51825590551181
 20
26.65813779527559
 30
0.0
  0
SPLINE
  5
AB
330
1F
100
AcDbEntity
  8
Layer 1
 62
   250
370
     9
100
AcDbSpline
210
0.0
220
0.0
230
1.0
 70
    11
 71
     3
 72
    24
 73
    20
 74
     0
 42
0.000000001
 43
0.0000000001
 40
0.0
 40
0.0
 40
0.0
 40
0.0
 40
0.1666666666666667
 40
0.1666666666666667
 40
0.1666666666666667
 40
0.1666666666666667
 40
0.3333333333333333
 40
0.3333333333333333
 40
0.3333333333333333
 40
0.3333333333333333
 40
0.5
 40
0.5
 40
0.5
 40
0.5
 40
0.6666666666666666
 40
0.6666666666666666
 40
0.6666666666666666
 40
0.6666666666666666
 40
1.0
 40
1.0
 40
1.0
 40
1.0
 10
-82.30089763779527
 20
28.48366535433071
 30
0.0
 10
-82.42944881889764
 20
28.44987401574803
 30
0.0
 10
-82.76621653543307
 20
28.48705511811024
 30
0.0
 10
-82.75584251968505
 20
28.25473622047244
 30
0.0
 10
-82.75584251968505
 20
28.25473622047244
 30
0.0
 10
-82.64375984251969
 20
28.27397637795276
 30
0.0
 10
-82.6594527559055
 20
28.35038976377953
 30
0.0
 10
-82.55733858267716
 20
28.3746968503937
 30
0.0
 10
-82.55733858267716
 20
28.3746968503937
 30
0.0
 10
-82.48293307086614
 20
28.3923937007874
 30
0.0
 10
-82.34059842519684
 20
28.38496456692913
 30
0.0
 10
-82.25206692913386
 20
28.39869291338583
 30
0.0
 10
-82.25206692913386
 20
28.39869291338583
 30
0.0
 10
-82.209531496063
 20
28.49735826771654
 30
0.0
 10
-82.19410236220473
 20
28.53888582677165
 30
0.0
 10
-82.19522834645669
 20
28.64816141732284
 30
0.0
 10
-82.19522834645669
 20
28.64816141732284
 30
0.0
 10
-82.2891062992126
 20
28.61403149606299
 30
0.0
 10
-82.25388582677165
 20
28.60684251968504
 30
0.0
 10
-82.30089763779527
 20
28.48366535433071
 30
0.0
  0
SPLINE
  5
AC
330
1F
100
AcDbEntity
  8
Layer 1
 62
   250
370
     9
100
AcDbSpline
210
0.0
220
0.0
230
1.0
 70
    11
 71
     3
 72
    16
 73
    12
 74
     0
 42
0.000000001
 43
0.0000000001
 40
0.0
 40
0.0
 40
0.0
 40
0.0
 40
0.25
 40
0.25
 40
0.25
 40
0.25
 40
0.5
 40
0.5
 40
0.5
 40
0.5
 40
1.0
 40
1.0
 40
1.0
 40
1.0
 10
-90.67122047244095
 20
24.81865748031496
 30
0.0
 10
-90.63076771653543
 20
24.69941732283464
 30
0.0
 10
-90.58271653543306
 20
24.68188976377953
 30
0.0
 10
-90.4767874015748
 20
24.67346850393701
 30
0.0
 10
-90.4767874015748
 20
24.67346850393701
 30
0.0
 10
-90.4767874015748
 20
24.67346850393701
 30
0.0
 10
-90.36565748031497
 20
24.90650393700787
 30
0.0
 10
-90.36565748031497
 20
24.90650393700787
 30
0.0
 10
-90.36565748031497
 20
24.90650393700787
 30
0.0
 10
-90.46072440944882
 20
24.9123937007874
 30
0.0
 10
-90.58855118110236
 20
24.87935433070866
 30
0.0
 10
-90.67122047244095
 20
24.81865748031496
 30
0.0
  0
SPLINE
  5
AD
330
1F
100
AcDbEntity
  8
Layer 1
 62
   250
370
     9
100
AcDbSpline
210
0.0
220
0.0
230
1.0
 70
    11
 71
     3
 72
    16
 73
    12
 74
     0
 42
0.000000001
 43
0.0000000001
 40
0.0
 40
0.0
 40
0.0
 40
0.0
 40
0.25
 40
0.25
 40
0.25
 40
0.25
 40
0.5
 40
0.5
 40
0.5
 40
0.5
 40
1.0
 40
1.0
 40
1.0
 40
1.0
 10
-90.54463385826772
 20
30.5521968503937
 30
0.0
 10
-90.54463385826772
 20
30.5521968503937
 30
0.0
 10
-90.43295669291338
 20
30.54973228346457
 30
0.0
 10
-90.43295669291338
 20
30.54973228346457
 30
0.0
 10
-90.43295669291338
 20
30.54973228346457
 30
0.0
 10
-90.4318031496063
 20
30.67191732283464
 30
0.0
 10
-90.4311653543307
 20
30.64377559055118
 30
0.0
 10
-90.49820078740157
 20
30.72816535433071
 30
0.0
 10
-90.49820078740157
 20
30.72816535433071
 30
0.0
 10
-90.56951181102362
 20
30.66311811023622
 30
0.0
 10
-90.58023228346457
 20
30.67140157480315
 30
0.0
 10
-90.54463385826772
 20
30.5521968503937
 30
0.0
  0
SPLINE
  5
AE
330
1F
100
AcDbEntity
  8
Layer 1
 62
   250
370
     9
100
AcDbSpline
210
0.0
220
0.0
230
1.0
 70
    24
 71
     3
 72
     8
 73
     4
 74
     0
 42
0.000000001
 43
0.0000000001
 40
0.0
 40
0.0
 40
0.0
 40
0.0
 40
1.0
 40
1.0
 40
1.0
 40
1.0
 10
-78.63307480314961
 20
32.24158267716535
 30
0.0
 10
-78.63307480314961
 20
32.24158267716535
 30
0.0
 10
-73.75779527559055
 20
29.17440157480315
 30
0.0
 10
-73.75779527559055
 20
29.17440157480315
 30
0.0
  0
SPLINE
  5
AF
330
1F
100
AcDbEntity
  8
Layer 1
 62
   250
370
     9
100
AcDbSpline
210
0.0
220
0.0
230
1.0
 70
    24
 71
     3
 72
     8
 73
     4
 74
     0
 42
0.000000001
 43
0.0000000001
 40
0.0
 40
0.0
 40
0.0
 40
0.0
 40
1.0
 40
1.0
 40
1.0
 40
1.0
 10
-82.16660236220473
 20
30.52550787401575
 30
0.0
 10
-82.16660236220473
 20
30.52550787401575
 30
0.0
 10
-79.58593700787402
 20
28.47847244094488
 30
0.0
 10
-79.58593700787402
 20
28.47847244094488
 30
0.0
  0
SPLINE
  5
B0
330
1F
100
AcDbEntity
  8
Layer 1
 62
   250
370
     9
100
AcDbSpline
210
0.0
220
0.0
230
1.0
 70
    11
 71
     3
 72
   108
 73
   104
 74
     0
 42
0.000000001
 43
0.0000000001
 40
0.0
 40
0.0
 40
0.0
 40
0.0
 40
0.037037037037037
 40
0.037037037037037
 40
0.037037037037037
 40
0.037037037037037
 40
0.0740740740740741
 40
0.0740740740740741
 40
0.0740740740740741
 40
0.0740740740740741
 40
0.1111111111111111
 40
0.1111111111111111
 40
0.1111111111111111
 40
0.1111111111111111
 40
0.1481481481481481
 40
0.1481481481481481
 40
0.1481481481481481
 40
0.1481481481481481
 40
0.1851851851851852
 40
0.1851851851851852
 40
0.1851851851851852
 40
0.1851851851851852
 40
0.2222222222222222
 40
0.2222222222222222
 40
0.2222222222222222
 40
0.2222222222222222
 40
0.2592592592592592
 40
0.2592592592592592
 40
0.2592592592592592
 40
0.2592592592592592
 40
0.2962962962962963
 40
0.2962962962962963
 40
0.2962962962962963
 40
0.2962962962962963
 40
0.3333333333333333
 40
0.3333333333333333
 40
0.3333333333333333
 40
0.3333333333333333
 40
0.3703703703703703
 40
0.3703703703703703
 40
0.3703703703703703
 40
0.3703703703703703
 40
0.4074074074074074
 40
0.4074074074074074
 40
0.4074074074074074
 40
0.4074074074074074
 40
0.4444444444444444
 40
0.4444444444444444
 40
0.4444444444444444
 40
0.4444444444444444
 40
0.4814814814814815
 40
0.4814814814814815
 40
0.4814814814814815
 40
0.4814814814814815
 40
0.5185185185185185
 40
0.5185185185185185
 40
0.5185185185185185
 40
0.5185185185185185
 40
0.5555555555555556
 40
0.5555555555555556
 40
0.5555555555555556
 40
0.5555555555555556
 40
0.5925925925925926
 40
0.5925925925925926
 40
0.5925925925925926
 40
0.5925925925925926
 40
0.6296296296296297
 40
0.6296296296296297
 40
0.6296296296296297
 40
0.6296296296296297
 40
0.6666666666666666
 40
0.6666666666666666
 40
0.6666666666666666
 40
0.6666666666666666
 40
0.7037037037037037
 40
0.7037037037037037
 40
0.7037037037037037
 40
0.7037037037037037
 40
0.7407407407407407
 40
0.7407407407407407
 40
0.7407407407407407
 40
0.7407407407407407
 40
0.7777777777777778
 40
0.7777777777777778
 40
0.7777777777777778
 40
0.7777777777777778
 40
0.8148148148148148
 40
0.8148148148148148
 40
0.8148148148148148
 40
0.8148148148148148
 40
0.8518518518518519
 40
0.8518518518518519
 40
0.8518518518518519
 40
0.8518518518518519
 40
0.8888888888888888
 40
0.8888888888888888
 40
0.8888888888888888
 40
0.8888888888888888
 40
0.9259259259259259
 40
0.9259259259259259
 40
0.9259259259259259
 40
0.9259259259259259
 40
1.0
 40
1.0
 40
1.0
 40
1.0
 10
-77.21655118110236
 20
32.48523622047244
 30
0.0
 10
-77.17888976377952
 20
32.36920866141732
 30
0.0
 10
-76.85431102362205
 20
32.40634251968504
 30
0.0
 10
-76.73948818897638
 20
32.38314960629921
 30
0.0
 10
-76.73948818897638
 20
32.38314960629921
 30
0.0
 10
-76.67212992125984
 20
32.36956692913386
 30
0.0
 10
-76.53969291338582
 20
32.3008031496063
 30
0.0
 10
-76.5008031496063
 20
32.29873228346457
 30
0.0
 10
-76.5008031496063
 20
32.29873228346457
 30
0.0
 10
-76.37612598425197
 20
32.29207086614174
 30
0.0
 10
-76.47014960629922
 20
32.37944488188976
 30
0.0
 10
-76.29694488188976
 20
32.36733858267716
 30
0.0
 10
-76.29694488188976
 20
32.36733858267716
 30
0.0
 10
-76.29694488188976
 20
32.36733858267716
 30
0.0
 10
-76.24267716535434
 20
32.20118503937008
 30
0.0
 10
-76.24267716535434
 20
32.20118503937008
 30
0.0
 10
-76.24267716535434
 20
32.20118503937008
 30
0.0
 10
-76.24267716535434
 20
32.20118503937008
 30
0.0
 10
-76.14311023622047
 20
32.28582283464567
 30
0.0
 10
-76.14311023622047
 20
32.28582283464567
 30
0.0
 10
-76.14311023622047
 20
32.28582283464567
 30
0.0
 10
-76.04733858267717
 20
32.17103937007874
 30
0.0
 10
-76.08493700787402
 20
32.19264173228346
 30
0.0
 10
-75.94423228346457
 20
32.1511811023622
 30
0.0
 10
-75.94423228346457
 20
32.1511811023622
 30
0.0
 10
-75.94423228346457
 20
32.1511811023622
 30
0.0
 10
-75.84497637795276
 20
32.26570078740158
 30
0.0
 10
-75.84497637795276
 20
32.26570078740158
 30
0.0
 10
-75.84497637795276
 20
32.26570078740158
 30
0.0
 10
-75.70456692913386
 20
32.1940748031496
 30
0.0
 10
-75.59511811023621
 20
32.15354724409449
 30
0.0
 10
-75.4501496062992
 20
32.13387007874016
 30
0.0
 10
-75.4501496062992
 20
32.13387007874016
 30
0.0
 10
-75.17433858267717
 20
32.0965
 30
0.0
 10
-75.29995669291338
 20
32.04001181102362
 30
0.0
 10
-75.10282677165354
 20
31.95310236220472
 30
0.0
 10
-75.10282677165354
 20
31.95310236220472
 30
0.0
 10
-74.98754330708661
 20
31.96944881889764
 30
0.0
 10
-75.04107874015747
 20
31.99555118110236
 30
0.0
 10
-74.9427716535433
 20
32.00817716535433
 30
0.0
 10
-74.9427716535433
 20
32.00817716535433
 30
0.0
 10
-74.88743307086614
 20
32.0152874015748
 30
0.0
 10
-74.77096062992126
 20
31.99262204724409
 30
0.0
 10
-74.71415354330709
 20
31.98221653543307
 30
0.0
 10
-74.71415354330709
 20
31.98221653543307
 30
0.0
 10
-74.71415354330709
 20
31.98221653543307
 30
0.0
 10
-74.70813385826771
 20
31.83392125984252
 30
0.0
 10
-74.70813385826771
 20
31.83392125984252
 30
0.0
 10
-74.70813385826771
 20
31.83392125984252
 30
0.0
 10
-74.18964173228346
 20
31.8168937007874
 30
0.0
 10
-74.51762992125984
 20
31.84129527559055
 30
0.0
 10
-74.0409094488189
 20
31.7107874015748
 30
0.0
 10
-74.0409094488189
 20
31.7107874015748
 30
0.0
 10
-73.91045275590551
 20
31.6750905511811
 30
0.0
 10
-73.48485433070866
 20
31.49596062992126
 30
0.0
 10
-73.40753543307086
 20
31.59903543307087
 30
0.0
 10
-73.40753543307086
 20
31.59903543307087
 30
0.0
 10
-73.48143700787402
 20
31.68635433070866
 30
0.0
 10
-73.89685039370079
 20
31.75945275590551
 30
0.0
 10
-74.02920078740158
 20
31.79313385826772
 30
0.0
 10
-74.02920078740158
 20
31.79313385826772
 30
0.0
 10
-74.16917322834645
 20
31.82875196850394
 30
0.0
 10
-74.1894409448819
 20
31.8193937007874
 30
0.0
 10
-74.3130748031496
 20
31.89966141732284
 30
0.0
 10
-74.3130748031496
 20
31.89966141732284
 30
0.0
 10
-74.38872834645669
 20
31.94879921259842
 30
0.0
 10
-74.50603937007874
 20
31.9153031496063
 30
0.0
 10
-74.6078779527559
 20
31.92024803149606
 30
0.0
 10
-74.6078779527559
 20
31.92024803149606
 30
0.0
 10
-74.64955118110237
 20
32.11244488188976
 30
0.0
 10
-74.62596062992127
 20
32.05684645669292
 30
0.0
 10
-74.83323622047244
 20
32.08331496062992
 30
0.0
 10
-74.83323622047244
 20
32.08331496062992
 30
0.0
 10
-75.06707480314961
 20
32.11321653543307
 30
0.0
 10
-74.9680590551181
 20
32.06554330708661
 30
0.0
 10
-75.11364566929134
 20
32.04474015748031
 30
0.0
 10
-75.11364566929134
 20
32.04474015748031
 30
0.0
 10
-75.31272440944882
 20
32.20376771653543
 30
0.0
 10
-75.18507874015748
 20
32.17588188976378
 30
0.0
 10
-75.46225984251969
 20
32.21704330708661
 30
0.0
 10
-75.46225984251969
 20
32.21704330708661
 30
0.0
 10
-75.61326377952756
 20
32.23947637795276
 30
0.0
 10
-75.7468031496063
 20
32.31036220472441
 30
0.0
 10
-75.8898937007874
 20
32.36518503937008
 30
0.0
 10
-75.8898937007874
 20
32.36518503937008
 30
0.0
 10
-75.99590157480316
 20
32.28860236220473
 30
0.0
 10
-75.87109842519685
 20
32.31158267716535
 30
0.0
 10
-76.00540551181102
 20
32.25064566929134
 30
0.0
 10
-76.00540551181102
 20
32.25064566929134
 30
0.0
 10
-76.12515354330709
 20
32.38053937007874
 30
0.0
 10
-76.03447244094488
 20
32.4231968503937
 30
0.0
 10
-76.20442125984252
 20
32.36647637795276
 30
0.0
 10
-76.20442125984252
 20
32.36647637795276
 30
0.0
 10
-76.20442125984252
 20
32.36647637795276
 30
0.0
 10
-76.23958267716536
 20
32.47276377952756
 30
0.0
 10
-76.23958267716536
 20
32.47276377952756
 30
0.0
 10
-76.23958267716536
 20
32.47276377952756
 30
0.0
 10
-76.34605118110237
 20
32.45456692913386
 30
0.0
 10
-76.37354330708662
 20
32.44538188976378
 30
0.0
 10
-76.46666141732284
 20
32.40863779527559
 30
0.0
 10
-76.46666141732284
 20
32.40863779527559
 30
0.0
 10
-76.56103543307087
 20
32.37147244094488
 30
0.0
 10
-77.0557874015748
 20
32.60332677165354
 30
0.0
 10
-77.21655118110236
 20
32.48523622047244
 30
0.0
  0
SPLINE
  5
B1
330
1F
100
AcDbEntity
  8
Layer 1
 62
   250
370
     9
100
AcDbSpline
210
0.0
220
0.0
230
1.0
 70
    11
 71
     3
 72
    32
 73
    28
 74
     0
 42
0.000000001
 43
0.0000000001
 40
0.0
 40
0.0
 40
0.0
 40
0.0
 40
0.125
 40
0.125
 40
0.125
 40
0.125
 40
0.25
 40
0.25
 40
0.25
 40
0.25
 40
0.375
 40
0.375
 40
0.375
 40
0.375
 40
0.5
 40
0.5
 40
0.5
 40
0.5
 40
0.625
 40
0.625
 40
0.625
 40
0.625
 40
0.75
 40
0.75
 40
0.75
 40
0.75
 40
1.0
 40
1.0
 40
1.0
 40
1.0
 10
-84.9513779527559
 20
37.70455118110236
 30
0.0
 10
-84.83748818897638
 20
37.62149606299213
 30
0.0
 10
-84.57133070866142
 20
37.6381062992126
 30
0.0
 10
-84.41096062992126
 20
37.62000393700787
 30
0.0
 10
-84.41096062992126
 20
37.62000393700787
 30
0.0
 10
-84.18776771653543
 20
37.59479921259842
 30
0.0
 10
-84.05226771653544
 20
37.52224409448819
 30
0.0
 10
-83.84398031496063
 20
37.47987795275591
 30
0.0
 10
-83.84398031496063
 20
37.47987795275591
 30
0.0
 10
-83.65465354330709
 20
37.44134645669291
 30
0.0
 10
-83.4836811023622
 20
37.45609055118111
 30
0.0
 10
-83.30876771653543
 20
37.3883937007874
 30
0.0
 10
-83.30876771653543
 20
37.3883937007874
 30
0.0
 10
-83.16579921259843
 20
37.3330905511811
 30
0.0
 10
-82.94451181102362
 20
37.17546456692914
 30
0.0
 10
-82.8841535433071
 20
37.42708661417323
 30
0.0
 10
-82.8841535433071
 20
37.42708661417323
 30
0.0
 10
-83.12664173228346
 20
37.67445669291339
 30
0.0
 10
-83.57192913385826
 20
37.62449212598425
 30
0.0
 10
-83.89388582677165
 20
37.68566535433071
 30
0.0
 10
-83.89388582677165
 20
37.68566535433071
 30
0.0
 10
-83.89388582677165
 20
37.68566535433071
 30
0.0
 10
-84.7227874015748
 20
37.78321653543307
 30
0.0
 10
-84.7227874015748
 20
37.78321653543307
 30
0.0
 10
-84.7227874015748
 20
37.78321653543307
 30
0.0
 10
-84.8460590551181
 20
37.79308661417323
 30
0.0
 10
-84.89416929133859
 20
37.81826377952756
 30
0.0
 10
-84.9513779527559
 20
37.70455118110236
 30
0.0
  0
SPLINE
  5
B2
330
1F
100
AcDbEntity
  8
Layer 1
 62
   250
370
     9
100
AcDbSpline
210
0.0
220
0.0
230
1.0
 70
    11
 71
     3
 72
    28
 73
    24
 74
     0
 42
0.000000001
 43
0.0000000001
 40
0.0
 40
0.0
 40
0.0
 40
0.0
 40
0.1428571428571428
 40
0.1428571428571428
 40
0.1428571428571428
 40
0.1428571428571428
 40
0.2857142857142857
 40
0.2857142857142857
 40
0.2857142857142857
 40
0.2857142857142857
 40
0.4285714285714285
 40
0.4285714285714285
 40
0.4285714285714285
 40
0.4285714285714285
 40
0.5714285714285714
 40
0.5714285714285714
 40
0.5714285714285714
 40
0.5714285714285714
 40
0.7142857142857143
 40
0.7142857142857143
 40
0.7142857142857143
 40
0.7142857142857143
 40
1.0
 40
1.0
 40
1.0
 40
1.0
 10
-83.69965748031495
 20
38.11699212598425
 30
0.0
 10
-83.65787401574804
 20
38.03715748031496
 30
0.0
 10
-83.65676377952757
 20
38.06136220472441
 30
0.0
 10
-83.54894094488189
 20
38.05451181102362
 30
0.0
 10
-83.54894094488189
 20
38.05451181102362
 30
0.0
 10
-83.54894094488189
 20
38.05451181102362
 30
0.0
 10
-83.0024094488189
 20
38.00963385826772
 30
0.0
 10
-83.0024094488189
 20
38.00963385826772
 30
0.0
 10
-83.0024094488189
 20
38.00963385826772
 30
0.0
 10
-82.7640905511811
 20
37.97731496062992
 30
0.0
 10
-82.53059448818898
 20
37.94194881889764
 30
0.0
 10
-82.29329921259843
 20
37.90100393700787
 30
0.0
 10
-82.29329921259843
 20
37.90100393700787
 30
0.0
 10
-82.04648031496063
 20
37.85841732283465
 30
0.0
 10
-81.05641732283465
 20
37.61497244094488
 30
0.0
 10
-80.8952125984252
 20
37.74020472440945
 30
0.0
 10
-80.8952125984252
 20
37.74020472440945
 30
0.0
 10
-80.94009448818898
 20
37.81315748031496
 30
0.0
 10
-80.94403937007874
 20
37.79022047244094
 30
0.0
 10
-81.04654330708661
 20
37.7933031496063
 30
0.0
 10
-81.04654330708661
 20
37.7933031496063
 30
0.0
 10
-81.63082283464567
 20
37.8105905511811
 30
0.0
 10
-83.44792913385827
 20
38.27608267716536
 30
0.0
 10
-83.69965748031495
 20
38.11699212598425
 30
0.0
  0
SPLINE
  5
B3
330
1F
100
AcDbEntity
  8
Layer 1
 62
   250
370
     9
100
AcDbSpline
210
0.0
220
0.0
230
1.0
 70
    11
 71
     3
 72
    20
 73
    16
 74
     0
 42
0.000000001
 43
0.0000000001
 40
0.0
 40
0.0
 40
0.0
 40
0.0
 40
0.2
 40
0.2
 40
0.2
 40
0.2
 40
0.4
 40
0.4
 40
0.4
 40
0.4
 40
0.6
 40
0.6
 40
0.6
 40
0.6
 40
1.0
 40
1.0
 40
1.0
 40
1.0
 10
-83.50913779527559
 20
36.87627952755906
 30
0.0
 10
-83.47951968503936
 20
36.77044881889764
 30
0.0
 10
-83.40801181102363
 20
36.85135039370078
 30
0.0
 10
-83.0740748031496
 20
36.75396850393701
 30
0.0
 10
-83.0740748031496
 20
36.75396850393701
 30
0.0
 10
-82.91422047244095
 20
36.70733070866142
 30
0.0
 10
-81.75494488188977
 20
36.36375984251968
 30
0.0
 10
-81.62237795275591
 20
36.44268110236221
 30
0.0
 10
-81.62237795275591
 20
36.44268110236221
 30
0.0
 10
-81.91764566929133
 20
36.60861023622047
 30
0.0
 10
-83.06114566929134
 20
36.9143937007874
 30
0.0
 10
-83.39943307086614
 20
36.92437007874016
 30
0.0
 10
-83.39943307086614
 20
36.92437007874016
 30
0.0
 10
-83.54418503937008
 20
36.92859842519685
 30
0.0
 10
-83.45481102362204
 20
36.96016929133858
 30
0.0
 10
-83.50913779527559
 20
36.87627952755906
 30
0.0
  0
SPLINE
  5
B4
330
1F
100
AcDbEntity
  8
Layer 1
 62
   250
370
     9
100
AcDbSpline
210
0.0
220
0.0
230
1.0
 70
    11
 71
     3
 72
    32
 73
    28
 74
     0
 42
0.000000001
 43
0.0000000001
 40
0.0
 40
0.0
 40
0.0
 40
0.0
 40
0.125
 40
0.125
 40
0.125
 40
0.125
 40
0.25
 40
0.25
 40
0.25
 40
0.25
 40
0.375
 40
0.375
 40
0.375
 40
0.375
 40
0.5
 40
0.5
 40
0.5
 40
0.5
 40
0.625
 40
0.625
 40
0.625
 40
0.625
 40
0.75
 40
0.75
 40
0.75
 40
0.75
 40
1.0
 40
1.0
 40
1.0
 40
1.0
 10
-87.8593779527559
 20
32.58161811023622
 30
0.0
 10
-87.71465354330708
 20
32.54135826771653
 30
0.0
 10
-87.77177952755906
 20
32.66511417322835
 30
0.0
 10
-87.71091338582677
 20
32.75943307086614
 30
0.0
 10
-87.71091338582677
 20
32.75943307086614
 30
0.0
 10
-87.53422047244095
 20
32.77274803149606
 30
0.0
 10
-87.56995669291338
 20
32.62574409448819
 30
0.0
 10
-87.42677952755905
 20
32.71557874015748
 30
0.0
 10
-87.42677952755905
 20
32.71557874015748
 30
0.0
 10
-86.82423228346457
 20
33.09346062992126
 30
0.0
 10
-86.73999212598426
 20
32.60931102362205
 30
0.0
 10
-86.5100590551181
 20
32.7106811023622
 30
0.0
 10
-86.5100590551181
 20
32.7106811023622
 30
0.0
 10
-86.51099606299212
 20
32.88733464566929
 30
0.0
 10
-86.50769291338582
 20
32.78414960629921
 30
0.0
 10
-86.62521653543307
 20
32.84505511811024
 30
0.0
 10
-86.62521653543307
 20
32.84505511811024
 30
0.0
 10
-86.62521653543307
 20
32.84505511811024
 30
0.0
 10
-86.66317322834645
 20
32.99859448818898
 30
0.0
 10
-86.66317322834645
 20
32.99859448818898
 30
0.0
 10
-86.66317322834645
 20
32.99859448818898
 30
0.0
 10
-86.80328346456693
 20
33.0193779527559
 30
0.0
 10
-87.70337401574803
 20
32.88651181102362
 30
0.0
 10
-87.75114960629921
 20
32.8664842519685
 30
0.0
 10
-87.75114960629921
 20
32.8664842519685
 30
0.0
 10
-87.83579921259843
 20
32.83105118110236
 30
0.0
 10
-87.89155118110236
 20
32.676
 30
0.0
 10
-87.8593779527559
 20
32.58161811023622
 30
0.0
  0
SPLINE
  5
B5
330
1F
100
AcDbEntity
  8
Layer 1
 62
   250
370
     9
100
AcDbSpline
210
0.0
220
0.0
230
1.0
 70
    11
 71
     3
 72
    28
 73
    24
 74
     0
 42
0.000000001
 43
0.0000000001
 40
0.0
 40
0.0
 40
0.0
 40
0.0
 40
0.1428571428571428
 40
0.1428571428571428
 40
0.1428571428571428
 40
0.1428571428571428
 40
0.2857142857142857
 40
0.2857142857142857
 40
0.2857142857142857
 40
0.2857142857142857
 40
0.4285714285714285
 40
0.4285714285714285
 40
0.4285714285714285
 40
0.4285714285714285
 40
0.5714285714285714
 40
0.5714285714285714
 40
0.5714285714285714
 40
0.5714285714285714
 40
0.7142857142857143
 40
0.7142857142857143
 40
0.7142857142857143
 40
0.7142857142857143
 40
1.0
 40
1.0
 40
1.0
 40
1.0
 10
-81.24456692913385
 20
37.10251181102362
 30
0.0
 10
-81.21637007874016
 20
37.0338031496063
 30
0.0
 10
-81.27124409448818
 20
37.04455511811024
 30
0.0
 10
-80.99926377952755
 20
37.0308937007874
 30
0.0
 10
-80.99926377952755
 20
37.0308937007874
 30
0.0
 10
-80.90719291338583
 20
37.0262716535433
 30
0.0
 10
-80.81789370078741
 20
37.01918503937008
 30
0.0
 10
-80.72602755905511
 20
37.01213385826772
 30
0.0
 10
-80.72602755905511
 20
37.01213385826772
 30
0.0
 10
-80.60853543307087
 20
37.00312992125984
 30
0.0
 10
-80.27481496062993
 20
36.94564960629921
 30
0.0
 10
-80.19101181102363
 20
36.98659448818898
 30
0.0
 10
-80.19101181102363
 20
36.98659448818898
 30
0.0
 10
-80.22215748031496
 20
37.0838188976378
 30
0.0
 10
-80.30973228346457
 20
37.05776771653543
 30
0.0
 10
-80.41173622047243
 20
37.06752362204725
 30
0.0
 10
-80.41173622047243
 20
37.06752362204725
 30
0.0
 10
-80.50062598425197
 20
37.07608267716535
 30
0.0
 10
-80.5873779527559
 20
37.08399212598425
 30
0.0
 10
-80.67641338582678
 20
37.09097637795276
 30
0.0
 10
-80.67641338582678
 20
37.09097637795276
 30
0.0
 10
-80.80921653543307
 20
37.10141732283464
 30
0.0
 10
-81.14384251968504
 20
37.16502755905512
 30
0.0
 10
-81.24456692913385
 20
37.10251181102362
 30
0.0
  0
SPLINE
  5
B6
330
1F
100
AcDbEntity
  8
Layer 1
 62
   250
370
     9
100
AcDbSpline
210
0.0
220
0.0
230
1.0
 70
    11
 71
     3
 72
    32
 73
    28
 74
     0
 42
0.000000001
 43
0.0000000001
 40
0.0
 40
0.0
 40
0.0
 40
0.0
 40
0.125
 40
0.125
 40
0.125
 40
0.125
 40
0.25
 40
0.25
 40
0.25
 40
0.25
 40
0.375
 40
0.375
 40
0.375
 40
0.375
 40
0.5
 40
0.5
 40
0.5
 40
0.5
 40
0.625
 40
0.625
 40
0.625
 40
0.625
 40
0.75
 40
0.75
 40
0.75
 40
0.75
 40
1.0
 40
1.0
 40
1.0
 40
1.0
 10
-88.4962874015748
 20
32.3730157480315
 30
0.0
 10
-88.43428346456693
 20
32.29749606299212
 30
0.0
 10
-88.37470472440945
 20
32.2635
 30
0.0
 10
-88.31179133858268
 20
32.2125905511811
 30
0.0
 10
-88.31179133858268
 20
32.2125905511811
 30
0.0
 10
-88.20882283464567
 20
32.12933464566929
 30
0.0
 10
-88.29773622047244
 20
32.0689094488189
 30
0.0
 10
-88.14327952755906
 20
32.09099212598425
 30
0.0
 10
-88.14327952755906
 20
32.09099212598425
 30
0.0
 10
-88.11873622047244
 20
32.21355118110236
 30
0.0
 10
-88.13597637795276
 20
32.18229527559055
 30
0.0
 10
-88.18129527559056
 20
32.2819842519685
 30
0.0
 10
-88.18129527559056
 20
32.2819842519685
 30
0.0
 10
-88.10406692913386
 20
32.37287795275591
 30
0.0
 10
-88.08405118110237
 20
32.33388582677166
 30
0.0
 10
-88.09226377952756
 20
32.47123622047244
 30
0.0
 10
-88.09226377952756
 20
32.47123622047244
 30
0.0
 10
-88.19020866141732
 20
32.47729527559055
 30
0.0
 10
-88.15342125984252
 20
32.44662204724409
 30
0.0
 10
-88.23503149606299
 20
32.43029133858268
 30
0.0
 10
-88.23503149606299
 20
32.43029133858268
 30
0.0
 10
-88.38311811023623
 20
32.40061023622047
 30
0.0
 10
-88.29735826771653
 20
32.44401968503937
 30
0.0
 10
-88.39606299212599
 20
32.47414566929134
 30
0.0
 10
-88.39606299212599
 20
32.47414566929134
 30
0.0
 10
-88.39606299212599
 20
32.47414566929134
 30
0.0
 10
-88.4962874015748
 20
32.3730157480315
 30
0.0
 10
-88.4962874015748
 20
32.3730157480315
 30
0.0
  0
SPLINE
  5
B7
330
1F
100
AcDbEntity
  8
Layer 1
 62
   250
370
     9
100
AcDbSpline
210
0.0
220
0.0
230
1.0
 70
    11
 71
     3
 72
    16
 73
    12
 74
     0
 42
0.000000001
 43
0.0000000001
 40
0.0
 40
0.0
 40
0.0
 40
0.0
 40
0.25
 40
0.25
 40
0.25
 40
0.25
 40
0.5
 40
0.5
 40
0.5
 40
0.5
 40
1.0
 40
1.0
 40
1.0
 40
1.0
 10
-89.17468503937008
 20
33.35177952755905
 30
0.0
 10
-89.17676771653544
 20
33.24518503937008
 30
0.0
 10
-88.43583070866141
 20
32.99255118110236
 30
0.0
 10
-88.38303937007873
 20
32.98312204724409
 30
0.0
 10
-88.38303937007873
 20
32.98312204724409
 30
0.0
 10
-88.39184251968504
 20
33.08453543307087
 30
0.0
 10
-88.4535472440945
 20
33.07024409448819
 30
0.0
 10
-88.72976771653543
 20
33.18727559055118
 30
0.0
 10
-88.72976771653543
 20
33.18727559055118
 30
0.0
 10
-88.83826771653543
 20
33.2332125984252
 30
0.0
 10
-89.07456692913385
 20
33.35820866141732
 30
0.0
 10
-89.17468503937008
 20
33.35177952755905
 30
0.0
  0
SPLINE
  5
B8
330
1F
100
AcDbEntity
  8
Layer 1
 62
   250
370
     9
100
AcDbSpline
210
0.0
220
0.0
230
1.0
 70
    11
 71
     3
 72
    16
 73
    12
 74
     0
 42
0.000000001
 43
0.0000000001
 40
0.0
 40
0.0
 40
0.0
 40
0.0
 40
0.25
 40
0.25
 40
0.25
 40
0.25
 40
0.5
 40
0.5
 40
0.5
 40
0.5
 40
1.0
 40
1.0
 40
1.0
 40
1.0
 10
-90.1902874015748
 20
31.78465748031496
 30
0.0
 10
-90.11457874015748
 20
31.68013779527559
 30
0.0
 10
-89.97636614173229
 20
31.73734645669292
 30
0.0
 10
-89.88151968503936
 20
31.78164566929134
 30
0.0
 10
-89.88151968503936
 20
31.78164566929134
 30
0.0
 10
-89.88151968503936
 20
31.78164566929134
 30
0.0
 10
-89.90057086614173
 20
31.9109842519685
 30
0.0
 10
-89.90057086614173
 20
31.9109842519685
 30
0.0
 10
-89.90057086614173
 20
31.9109842519685
 30
0.0
 10
-89.93370472440945
 20
31.92005511811024
 30
0.0
 10
-90.15104330708661
 20
31.91755511811024
 30
0.0
 10
-90.1902874015748
 20
31.78465748031496
 30
0.0
  0
SPLINE
  5
B9
330
1F
100
AcDbEntity
  8
Layer 1
 62
   250
370
     9
100
AcDbSpline
210
0.0
220
0.0
230
1.0
 70
    11
 71
     3
 72
    16
 73
    12
 74
     0
 42
0.000000001
 43
0.0000000001
 40
0.0
 40
0.0
 40
0.0
 40
0.0
 40
0.25
 40
0.25
 40
0.25
 40
0.25
 40
0.5
 40
0.5
 40
0.5
 40
0.5
 40
1.0
 40
1.0
 40
1.0
 40
1.0
 10
-82.9861062992126
 20
38.36567322834646
 30
0.0
 10
-82.98303937007874
 20
38.21134251968504
 30
0.0
 10
-82.88582283464567
 20
38.28511811023622
 30
0.0
 10
-82.80447244094488
 20
38.28559842519685
 30
0.0
 10
-82.80447244094488
 20
38.28559842519685
 30
0.0
 10
-82.71047244094488
 20
38.28618110236221
 30
0.0
 10
-82.62380708661418
 20
38.19498031496063
 30
0.0
 10
-82.61974409448818
 20
38.36817322834646
 30
0.0
 10
-82.61974409448818
 20
38.36817322834646
 30
0.0
 10
-82.69256299212599
 20
38.38422834645669
 30
0.0
 10
-82.94224803149606
 20
38.41705905511811
 30
0.0
 10
-82.9861062992126
 20
38.36567322834646
 30
0.0
  0
SPLINE
  5
BA
330
1F
100
AcDbEntity
  8
Layer 1
 62
   250
370
     9
100
AcDbSpline
210
0.0
220
0.0
230
1.0
 70
    11
 71
     3
 72
    20
 73
    16
 74
     0
 42
0.000000001
 43
0.0000000001
 40
0.0
 40
0.0
 40
0.0
 40
0.0
 40
0.2
 40
0.2
 40
0.2
 40
0.2
 40
0.4
 40
0.4
 40
0.4
 40
0.4
 40
0.6
 40
0.6
 40
0.6
 40
0.6
 40
1.0
 40
1.0
 40
1.0
 40
1.0
 10
-87.03210236220472
 20
32.1836968503937
 30
0.0
 10
-87.03210236220472
 20
32.1836968503937
 30
0.0
 10
-86.85129133858268
 20
32.15973228346456
 30
0.0
 10
-86.85129133858268
 20
32.15973228346456
 30
0.0
 10
-86.85129133858268
 20
32.15973228346456
 30
0.0
 10
-86.85129133858268
 20
32.15973228346456
 30
0.0
 10
-86.82443700787401
 20
32.32655905511811
 30
0.0
 10
-86.82443700787401
 20
32.32655905511811
 30
0.0
 10
-86.82443700787401
 20
32.32655905511811
 30
0.0
 10
-86.82443700787401
 20
32.32655905511811
 30
0.0
 10
-87.03619291338583
 20
32.32929921259843
 30
0.0
 10
-87.03619291338583
 20
32.32929921259843
 30
0.0
 10
-87.03619291338583
 20
32.32929921259843
 30
0.0
 10
-87.03619291338583
 20
32.32929921259843
 30
0.0
 10
-87.03210236220472
 20
32.1836968503937
 30
0.0
 10
-87.03210236220472
 20
32.1836968503937
 30
0.0
  0
SPLINE
  5
BB
330
1F
100
AcDbEntity
  8
Layer 1
 62
   250
370
     9
100
AcDbSpline
210
0.0
220
0.0
230
1.0
 70
    11
 71
     3
 72
    16
 73
    12
 74
     0
 42
0.000000001
 43
0.0000000001
 40
0.0
 40
0.0
 40
0.0
 40
0.0
 40
0.25
 40
0.25
 40
0.25
 40
0.25
 40
0.5
 40
0.5
 40
0.5
 40
0.5
 40
1.0
 40
1.0
 40
1.0
 40
1.0
 10
-87.33420866141732
 20
32.21635826771654
 30
0.0
 10
-87.29359448818897
 20
32.09657086614173
 30
0.0
 10
-87.26279527559055
 20
32.11286614173228
 30
0.0
 10
-87.15211023622047
 20
32.1193031496063
 30
0.0
 10
-87.15211023622047
 20
32.1193031496063
 30
0.0
 10
-87.15211023622047
 20
32.1193031496063
 30
0.0
 10
-87.15307480314961
 20
32.2891062992126
 30
0.0
 10
-87.15307480314961
 20
32.2891062992126
 30
0.0
 10
-87.15307480314961
 20
32.2891062992126
 30
0.0
 10
-87.24599212598426
 20
32.29626377952756
 30
0.0
 10
-87.27600393700787
 20
32.2931811023622
 30
0.0
 10
-87.33420866141732
 20
32.21635826771654
 30
0.0
  0
SPLINE
  5
BC
330
1F
100
AcDbEntity
  8
Layer 1
 62
   250
370
     9
100
AcDbSpline
210
0.0
220
0.0
230
1.0
 70
    11
 71
     3
 72
    16
 73
    12
 74
     0
 42
0.000000001
 43
0.0000000001
 40
0.0
 40
0.0
 40
0.0
 40
0.0
 40
0.25
 40
0.25
 40
0.25
 40
0.25
 40
0.5
 40
0.5
 40
0.5
 40
0.5
 40
1.0
 40
1.0
 40
1.0
 40
1.0
 10
-83.64454724409448
 20
38.35064566929134
 30
0.0
 10
-83.64454724409448
 20
38.35064566929134
 30
0.0
 10
-83.48354724409448
 20
38.32592519685039
 30
0.0
 10
-83.48354724409448
 20
38.32592519685039
 30
0.0
 10
-83.48354724409448
 20
38.32592519685039
 30
0.0
 10
-83.47571653543307
 20
38.46440551181102
 30
0.0
 10
-83.53324803149606
 20
38.48922834645669
 30
0.0
 10
-83.63814960629921
 20
38.45725196850394
 30
0.0
 10
-83.63814960629921
 20
38.45725196850394
 30
0.0
 10
-83.63814960629921
 20
38.45725196850394
 30
0.0
 10
-83.64454724409448
 20
38.35064566929134
 30
0.0
 10
-83.64454724409448
 20
38.35064566929134
 30
0.0
  0
SPLINE
  5
BD
330
1F
100
AcDbEntity
  8
Layer 1
 62
   250
370
     9
100
AcDbSpline
210
0.0
220
0.0
230
1.0
 70
    11
 71
     3
 72
    12
 73
     8
 74
     0
 42
0.000000001
 43
0.0000000001
 40
0.0
 40
0.0
 40
0.0
 40
0.0
 40
0.3333333333333333
 40
0.3333333333333333
 40
0.3333333333333333
 40
0.3333333333333333
 40
1.0
 40
1.0
 40
1.0
 40
1.0
 10
-88.89379527559055
 20
32.22084251968504
 30
0.0
 10
-88.8110157480315
 20
32.22498425196851
 30
0.0
 10
-88.73849212598425
 20
32.2536062992126
 30
0.0
 10
-88.70506299212599
 20
32.34052755905512
 30
0.0
 10
-88.70506299212599
 20
32.34052755905512
 30
0.0
 10
-88.79725196850394
 20
32.40882677165354
 30
0.0
 10
-88.88424015748032
 20
32.34631496062992
 30
0.0
 10
-88.89379527559055
 20
32.22084251968504
 30
0.0
  0
SPLINE
  5
BE
330
1F
100
AcDbEntity
  8
Layer 1
 62
   250
370
     9
100
AcDbSpline
210
0.0
220
0.0
230
1.0
 70
    11
 71
     3
 72
    16
 73
    12
 74
     0
 42
0.000000001
 43
0.0000000001
 40
0.0
 40
0.0
 40
0.0
 40
0.0
 40
0.25
 40
0.25
 40
0.25
 40
0.25
 40
0.5
 40
0.5
 40
0.5
 40
0.5
 40
1.0
 40
1.0
 40
1.0
 40
1.0
 10
-89.11215748031496
 20
32.11944094488189
 30
0.0
 10
-89.11215748031496
 20
32.11944094488189
 30
0.0
 10
-89.02587007874016
 20
32.13179921259842
 30
0.0
 10
-89.02587007874016
 20
32.13179921259842
 30
0.0
 10
-89.02587007874016
 20
32.13179921259842
 30
0.0
 10
-89.01143700787402
 20
32.25843307086614
 30
0.0
 10
-89.00617716535433
 20
32.25363779527559
 30
0.0
 10
-89.11905118110236
 20
32.27777559055118
 30
0.0
 10
-89.11905118110236
 20
32.27777559055118
 30
0.0
 10
-89.16168503937008
 20
32.18838976377953
 30
0.0
 10
-89.16744094488189
 20
32.21735039370079
 30
0.0
 10
-89.11215748031496
 20
32.11944094488189
 30
0.0
  0
SPLINE
  5
BF
330
1F
100
AcDbEntity
  8
Layer 1
 62
   250
370
     9
100
AcDbSpline
210
0.0
220
0.0
230
1.0
 70
    11
 71
     3
 72
    12
 73
     8
 74
     0
 42
0.000000001
 43
0.0000000001
 40
0.0
 40
0.0
 40
0.0
 40
0.0
 40
0.3333333333333333
 40
0.3333333333333333
 40
0.3333333333333333
 40
0.3333333333333333
 40
1.0
 40
1.0
 40
1.0
 40
1.0
 10
-82.30148031496063
 20
38.43849212598425
 30
0.0
 10
-82.20821259842519
 20
38.36533070866142
 30
0.0
 10
-82.22848818897637
 20
38.41366929133859
 30
0.0
 10
-82.20669291338582
 20
38.46803543307087
 30
0.0
 10
-82.20669291338582
 20
38.46803543307087
 30
0.0
 10
-82.23389763779528
 20
38.4853937007874
 30
0.0
 10
-82.25759448818897
 20
38.55875590551181
 30
0.0
 10
-82.30148031496063
 20
38.43849212598425
 30
0.0
  0
ENDSEC
  0
SECTION
  2
OBJECTS
  0
DICTIONARY
  5
C
330
0
100
AcDbDictionary
281
     1
  3
ACAD_DETAILVIEWSTYLE
350
FB
  3
ACAD_GROUP
350
D
  3
ACAD_LAYOUT
350
1A
  3
ACAD_MATERIAL
350
43
  3
ACAD_MLEADERSTYLE
350
6B
  3
ACAD_MLINESTYLE
350
17
  3
ACAD_PLOTSETTINGS
350
19
  3
ACAD_PLOTSTYLENAME
350
E
  3
ACAD_SCALELIST
350
47
  3
ACAD_SECTIONVIEWSTYLE
350
FC
  3
ACAD_TABLESTYLE
350
69
  3
ACAD_VISUALSTYLE
350
2A
  3
ACDB_RECOMPOSE_DATA
350
F8
  3
AcDbVariableDictionary
350
C0
  0
SUN
  5
6D
330
29
100
AcDbSun
 90
        1
290
     0
 63
     7
421
 16777215
 40
1.0
291
     1
 91
  2455826
 92
 54000000
292
     0
 70
     2
 71
   256
280
     1
  0
DICTIONARY
  5
FB
102
{ACAD_REACTORS
330
C
102
}
330
C
100
AcDbDictionary
281
     1
  0
DICTIONARY
  5
D
102
{ACAD_REACTORS
330
C
102
}
330
C
100
AcDbDictionary
281
     1
  0
DICTIONARY
  5
1A
102
{ACAD_REACTORS
330
C
102
}
330
C
100
AcDbDictionary
281
     1
  3
Layout1
350
1E
  3
Layout2
350
26
  3
Model
350
22
  0
DICTIONARY
  5
43
102
{ACAD_REACTORS
330
C
102
}
330
C
100
AcDbDictionary
281
     1
  3
ByBlock
350
45
  3
ByLayer
350
44
  3
Global
350
46
  0
DICTIONARY
  5
6B
102
{ACAD_REACTORS
330
C
102
}
330
C
100
AcDbDictionary
281
     1
  3
Standard
350
6C
  0
DICTIONARY
  5
17
102
{ACAD_REACTORS
330
C
102
}
330
C
100
AcDbDictionary
281
     1
  3
Standard
350
18
  0
DICTIONARY
  5
19
102
{ACAD_REACTORS
330
C
102
}
330
C
100
AcDbDictionary
281
     1
  0
ACDBDICTIONARYWDFLT
  5
E
102
{ACAD_REACTORS
330
C
102
}
330
C
100
AcDbDictionary
281
     1
  3
Normal
350
F
100
AcDbDictionaryWithDefault
340
F
  0
DICTIONARY
  5
47
102
{ACAD_REACTORS
330
C
102
}
330
C
100
AcDbDictionary
281
     1
  3
A0
350
48
  3
A1
350
49
  3
A2
350
4A
  3
A3
350
4B
  3
A4
350
4C
  3
A5
350
4D
  3
A6
350
4E
  3
A7
350
4F
  3
A8
350
50
  3
A9
350
51
  3
B0
350
52
  3
B1
350
53
  3
B2
350
54
  3
B3
350
55
  3
B4
350
56
  3
B5
350
57
  3
B6
350
58
  3
B7
350
59
  3
B8
350
5A
  3
B9
350
5B
  3
C0
350
5C
  3
C1
350
5D
  3
C2
350
5E
  3
C3
350
5F
  3
C4
350
60
  3
C5
350
61
  3
C6
350
62
  3
C7
350
63
  3
C8
350
64
  3
C9
350
65
  3
D0
350
66
  3
D1
350
67
  3
D2
350
68
  0
DICTIONARY
  5
FC
102
{ACAD_REACTORS
330
C
102
}
330
C
100
AcDbDictionary
281
     1
  0
DICTIONARY
  5
69
102
{ACAD_REACTORS
330
C
102
}
330
C
100
AcDbDictionary
281
     1
  3
Standard
350
6A
  0
DICTIONARY
  5
2A
102
{ACAD_REACTORS
330
C
102
}
330
C
100
AcDbDictionary
281
     1
  3
2dWireframe
350
2F
  3
Basic
350
32
  3
Brighten
350
36
  3
ColorChange
350
3A
  3
Conceptual
350
34
  3
Dim
350
35
  3
EdgeColorOff
350
3D
  3
Facepattern
350
39
  3
Flat
350
2B
  3
FlatWithEdges
350
2C
  3
Gouraud
350
2D
  3
GouraudWithEdges
350
2E
  3
Hidden
350
31
  3
JitterOff
350
3B
  3
Linepattern
350
38
  3
OverhangOff
350
3C
  3
Realistic
350
33
  3
Shaded
350
42
  3
Shaded with edges
350
41
  3
Shades of Gray
350
3E
  3
Sketchy
350
3F
  3
Thicken
350
37
  3
Wireframe
350
30
  3
X-Ray
350
40
  0
XRECORD
  5
F8
102
{ACAD_REACTORS
330
C
102
}
330
C
100
AcDbXrecord
280
     1
 90
        1
330
6A
  0
DICTIONARY
  5
C0
102
{ACAD_REACTORS
330
C
102
}
330
C
100
AcDbDictionary
281
     1
  3
CANNOSCALE
350
C1
  3
CMLEADERSTYLE
350
FA
  3
CTABLESTYLE
350
F9
  3
XCLIPFRAME
350
C2
  0
LAYOUT
  5
1E
102
{ACAD_REACTORS
330
1A
102
}
330
1A
100
AcDbPlotSettings
  1

  2
none_device
  4

  6

 40
0.0
 41
0.0
 42
0.0
 43
0.0
 44
0.0
 45
0.0
 46
0.0
 47
0.0
 48
0.0
 49
0.0
140
0.0
141
0.0
142
1.0
143
1.0
 70
   688
 72
     0
 73
     0
 74
     5
  7

 75
    16
 76
     0
 77
     2
 78
   300
147
1.0
148
0.0
149
0.0
100
AcDbLayout
  1
Layout1
 70
     1
 71
     1
 10
0.0
 20
0.0
 11
12.0
 21
9.0
 12
0.0
 22
0.0
 32
0.0
 14
1.000000000000000E+20
 24
1.000000000000000E+20
 34
1.000000000000000E+20
 15
-1.000000000000000E+20
 25
-1.000000000000000E+20
 35
-1.000000000000000E+20
146
0.0
 13
0.0
 23
0.0
 33
0.0
 16
1.0
 26
0.0
 36
0.0
 17
0.0
 27
1.0
 37
0.0
 76
     0
330
1B
  0
LAYOUT
  5
26
102
{ACAD_REACTORS
330
1A
102
}
330
1A
100
AcDbPlotSettings
  1

  2
none_device
  4

  6

 40
0.0
 41
0.0
 42
0.0
 43
0.0
 44
0.0
 45
0.0
 46
0.0
 47
0.0
 48
0.0
 49
0.0
140
0.0
141
0.0
142
1.0
143
1.0
 70
   688
 72
     0
 73
     0
 74
     5
  7

 75
    16
 76
     0
 77
     2
 78
   300
147
1.0
148
0.0
149
0.0
100
AcDbLayout
  1
Layout2
 70
     1
 71
     2
 10
0.0
 20
0.0
 11
0.0
 21
0.0
 12
0.0
 22
0.0
 32
0.0
 14
0.0
 24
0.0
 34
0.0
 15
0.0
 25
0.0
 35
0.0
146
0.0
 13
0.0
 23
0.0
 33
0.0
 16
1.0
 26
0.0
 36
0.0
 17
0.0
 27
1.0
 37
0.0
 76
     0
330
23
  0
LAYOUT
  5
22
102
{ACAD_REACTORS
330
1A
102
}
330
1A
100
AcDbPlotSettings
  1

  2
none_device
  4
Letter_(8.50_x_11.00_Inches)
  6

 40
6.35
 41
6.35
 42
6.35000508
 43
6.35000508
 44
215.9
 45
279.4
 46
0.0
 47
0.0
 48
0.0
 49
0.0
140
0.0
141
0.0
142
1.0
143
1.0
 70
  1712
 72
     0
 73
     0
 74
     0
  7

 75
     0
 76
     0
 77
     2
 78
   300
147
1.0
148
0.0
149
0.0
100
AcDbLayout
  1
Model
 70
     1
 71
     0
 10
0.0
 20
0.0
 11
12.0
 21
9.0
 12
0.0
 22
0.0
 32
0.0
 14
-91.83444094488189
 24
24.09316141732284
 34
0.0
 15
-68.34584251968504
 25
40.09616141732283
 35
0.0
146
0.0
 13
0.0
 23
0.0
 33
0.0
 16
1.0
 26
0.0
 36
0.0
 17
0.0
 27
1.0
 37
0.0
 76
     0
330
1F
331
29
  0
MATERIAL
  5
45
102
{ACAD_REACTORS
330
43
102
}
330
43
100
AcDbMaterial
  1
ByBlock
 72
     1
 94
      127
  0
MATERIAL
  5
44
102
{ACAD_REACTORS
330
43
102
}
330
43
100
AcDbMaterial
  1
ByLayer
 72
     1
 94
      127
  0
MATERIAL
  5
46
102
{ACAD_REACTORS
330
43
102
}
330
43
100
AcDbMaterial
  1
Global
 72
     1
 94
      127
  0
MLEADERSTYLE
  5
6C
102
{ACAD_REACTORS
330
6B
102
}
102
{ACAD_XDICTIONARY
360
F6
102
}
330
6B
100
AcDbMLeaderStyle
170
     2
171
     1
172
     0
 90
        2
 40
0.0
 41
0.0
173
     1
 91
-1056964608
340
14
 92
       -2
290
     1
 42
0.09
291
     1
 43
0.36
  3
Standard
341
0
 44
0.18
300

342
11
174
     1
178
     6
175
     1
176
     0
 93
-1056964608
 45
0.18
292
     0
297
     0
 46
0.18
343
0
 94
-1056964608
 47
1.0
 49
1.0
140
1.0
293
     1
141
0.0
294
     1
177
     0
142
1.0
295
     0
296
     0
143
0.125
1001
ACAD_MLEADERVER
1070
     2
  0
MLINESTYLE
  5
18
102
{ACAD_REACTORS
330
17
102
}
330
17
100
AcDbMlineStyle
  2
Standard
 70
     0
  3

 62
   256
 51
90.0
 52
90.0
 71
     2
 49
0.5
 62
   256
  6
BYLAYER
 49
-0.5
 62
   256
  6
BYLAYER
  0
ACDBPLACEHOLDER
  5
F
102
{ACAD_REACTORS
330
E
102
}
330
E
  0
SCALE
  5
48
102
{ACAD_REACTORS
330
47
102
}
330
47
100
AcDbScale
 70
     0
300
1:1
140
1.0
141
1.0
290
     1
  0
SCALE
  5
49
102
{ACAD_REACTORS
330
47
102
}
330
47
100
AcDbScale
 70
     0
300
1:2
140
1.0
141
2.0
290
     0
  0
SCALE
  5
4A
102
{ACAD_REACTORS
330
47
102
}
330
47
100
AcDbScale
 70
     0
300
1:4
140
1.0
141
4.0
290
     0
  0
SCALE
  5
4B
102
{ACAD_REACTORS
330
47
102
}
330
47
100
AcDbScale
 70
     0
300
1:5
140
1.0
141
5.0
290
     0
  0
SCALE
  5
4C
102
{ACAD_REACTORS
330
47
102
}
330
47
100
AcDbScale
 70
     0
300
1:8
140
1.0
141
8.0
290
     0
  0
SCALE
  5
4D
102
{ACAD_REACTORS
330
47
102
}
330
47
100
AcDbScale
 70
     0
300
1:10
140
1.0
141
10.0
290
     0
  0
SCALE
  5
4E
102
{ACAD_REACTORS
330
47
102
}
330
47
100
AcDbScale
 70
     0
300
1:16
140
1.0
141
16.0
290
     0
  0
SCALE
  5
4F
102
{ACAD_REACTORS
330
47
102
}
330
47
100
AcDbScale
 70
     0
300
1:20
140
1.0
141
20.0
290
     0
  0
SCALE
  5
50
102
{ACAD_REACTORS
330
47
102
}
330
47
100
AcDbScale
 70
     0
300
1:30
140
1.0
141
30.0
290
     0
  0
SCALE
  5
51
102
{ACAD_REACTORS
330
47
102
}
330
47
100
AcDbScale
 70
     0
300
1:40
140
1.0
141
40.0
290
     0
  0
SCALE
  5
52
102
{ACAD_REACTORS
330
47
102
}
330
47
100
AcDbScale
 70
     0
300
1:50
140
1.0
141
50.0
290
     0
  0
SCALE
  5
53
102
{ACAD_REACTORS
330
47
102
}
330
47
100
AcDbScale
 70
     0
300
1:100
140
1.0
141
100.0
290
     0
  0
SCALE
  5
54
102
{ACAD_REACTORS
330
47
102
}
330
47
100
AcDbScale
 70
     0
300
2:1
140
2.0
141
1.0
290
     0
  0
SCALE
  5
55
102
{ACAD_REACTORS
330
47
102
}
330
47
100
AcDbScale
 70
     0
300
4:1
140
4.0
141
1.0
290
     0
  0
SCALE
  5
56
102
{ACAD_REACTORS
330
47
102
}
330
47
100
AcDbScale
 70
     0
300
8:1
140
8.0
141
1.0
290
     0
  0
SCALE
  5
57
102
{ACAD_REACTORS
330
47
102
}
330
47
100
AcDbScale
 70
     0
300
10:1
140
10.0
141
1.0
290
     0
  0
SCALE
  5
58
102
{ACAD_REACTORS
330
47
102
}
330
47
100
AcDbScale
 70
     0
300
100:1
140
100.0
141
1.0
290
     0
  0
SCALE
  5
59
102
{ACAD_REACTORS
330
47
102
}
330
47
100
AcDbScale
 70
     0
300
1/128\" = 1\'-0\"
140
0.0078125
141
12.0
290
     0
  0
SCALE
  5
5A
102
{ACAD_REACTORS
330
47
102
}
330
47
100
AcDbScale
 70
     0
300
1/64\" = 1\'-0\"
140
0.015625
141
12.0
290
     0
  0
SCALE
  5
5B
102
{ACAD_REACTORS
330
47
102
}
330
47
100
AcDbScale
 70
     0
300
1/32\" = 1\'-0\"
140
0.03125
141
12.0
290
     0
  0
SCALE
  5
5C
102
{ACAD_REACTORS
330
47
102
}
330
47
100
AcDbScale
 70
     0
300
1/16\" = 1\'-0\"
140
0.0625
141
12.0
290
     0
  0
SCALE
  5
5D
102
{ACAD_REACTORS
330
47
102
}
330
47
100
AcDbScale
 70
     0
300
3/32\" = 1\'-0\"
140
0.09375
141
12.0
290
     0
  0
SCALE
  5
5E
102
{ACAD_REACTORS
330
47
102
}
330
47
100
AcDbScale
 70
     0
300
1/8\" = 1\'-0\"
140
0.125
141
12.0
290
     0
  0
SCALE
  5
5F
102
{ACAD_REACTORS
330
47
102
}
330
47
100
AcDbScale
 70
     0
300
3/16\" = 1\'-0\"
140
0.1875
141
12.0
290
     0
  0
SCALE
  5
60
102
{ACAD_REACTORS
330
47
102
}
330
47
100
AcDbScale
 70
     0
300
1/4\" = 1\'-0\"
140
0.25
141
12.0
290
     0
  0
SCALE
  5
61
102
{ACAD_REACTORS
330
47
102
}
330
47
100
AcDbScale
 70
     0
300
3/8\" = 1\'-0\"
140
0.375
141
12.0
290
     0
  0
SCALE
  5
62
102
{ACAD_REACTORS
330
47
102
}
330
47
100
AcDbScale
 70
     0
300
1/2\" = 1\'-0\"
140
0.5
141
12.0
290
     0
  0
SCALE
  5
63
102
{ACAD_REACTORS
330
47
102
}
330
47
100
AcDbScale
 70
     0
300
3/4\" = 1\'-0\"
140
0.75
141
12.0
290
     0
  0
SCALE
  5
64
102
{ACAD_REACTORS
330
47
102
}
330
47
100
AcDbScale
 70
     0
300
1\" = 1\'-0\"
140
1.0
141
12.0
290
     0
  0
SCALE
  5
65
102
{ACAD_REACTORS
330
47
102
}
330
47
100
AcDbScale
 70
     0
300
1-1/2\" = 1\'-0\"
140
1.5
141
12.0
290
     0
  0
SCALE
  5
66
102
{ACAD_REACTORS
330
47
102
}
330
47
100
AcDbScale
 70
     0
300
3\" = 1\'-0\"
140
3.0
141
12.0
290
     0
  0
SCALE
  5
67
102
{ACAD_REACTORS
330
47
102
}
330
47
100
AcDbScale
 70
     0
300
6\" = 1\'-0\"
140
6.0
141
12.0
290
     0
  0
SCALE
  5
68
102
{ACAD_REACTORS
330
47
102
}
330
47
100
AcDbScale
 70
     0
300
1\'-0\" = 1\'-0\"
140
12.0
141
12.0
290
     0
  0
TABLESTYLE
  5
6A
102
{ACAD_REACTORS
330
69
102
}
102
{ACAD_XDICTIONARY
360
F3
102
}
330
69
100
AcDbTableStyle
  3
Standard
 70
     0
 71
     0
 40
0.06
 41
0.06
280
     0
281
     0
  7
Standard
140
0.18
170
     2
 62
     0
 63
   257
283
     0
 90
        4
 91
        0
  1

274
    -2
284
     1
 64
     0
275
    -2
285
     1
 65
     0
276
    -2
286
     1
 66
     0
277
    -2
287
     1
 67
     0
278
    -2
288
     1
 68
     0
279
    -2
289
     1
 69
     0
  7
Standard
140
0.25
170
     5
 62
     0
 63
   257
283
     0
 90
        4
 91
        0
  1

274
    -2
284
     1
 64
     0
275
    -2
285
     1
 65
     0
276
    -2
286
     1
 66
     0
277
    -2
287
     1
 67
     0
278
    -2
288
     1
 68
     0
279
    -2
289
     1
 69
     0
  7
Standard
140
0.18
170
     5
 62
     0
 63
   257
283
     0
 90
        4
 91
        0
  1

274
    -2
284
     1
 64
     0
275
    -2
285
     1
 65
     0
276
    -2
286
     1
 66
     0
277
    -2
287
     1
 67
     0
278
    -2
288
     1
 68
     0
279
    -2
289
     1
 69
     0
  0
VISUALSTYLE
  5
2F
102
{ACAD_REACTORS
330
2A
102
}
102
{ACAD_XDICTIONARY
360
CB
102
}
330
2A
100
AcDbVisualStyle
  2
2dWireframe
 70
     4
 71
     0
 72
     2
 73
     0
 90
        0
 40
0.6
 41
30.0
 62
     5
 63
     7
421
 16777215
 74
     1
 91
        4
 64
     7
 65
   257
 75
     1
175
     1
 42
1.0
 92
        0
 66
   257
 43
1.0
 76
     1
 77
     6
 78
     2
 67
     7
 79
     5
170
     0
171
     0
290
     0
174
     0
 93
        1
 44
0.0
173
     0
291
     0
 45
0.0
  0
VISUALSTYLE
  5
32
102
{ACAD_REACTORS
330
2A
102
}
102
{ACAD_XDICTIONARY
360
D1
102
}
330
2A
100
AcDbVisualStyle
  2
Basic
 70
     7
 71
     1
 72
     0
 73
     1
 90
        0
 40
0.6
 41
30.0
 62
     5
 63
     7
421
 16777215
 74
     0
 91
        4
 64
     7
 65
   257
 75
     1
175
     1
 42
1.0
 92
        8
 66
     7
 43
1.0
 76
     1
 77
     6
 78
     2
 67
     7
 79
     5
170
     0
171
     0
290
     0
174
     0
 93
        1
 44
0.0
173
     0
291
     1
 45
0.0
  0
VISUALSTYLE
  5
36
102
{ACAD_REACTORS
330
2A
102
}
102
{ACAD_XDICTIONARY
360
D9
102
}
330
2A
100
AcDbVisualStyle
  2
Brighten
 70
    12
 71
     2
 72
     2
 73
     0
 90
        0
 40
0.6
 41
30.0
 62
     5
 63
     7
421
 16777215
 74
     1
 91
        4
 64
     7
 65
   257
 75
     1
175
     1
 42
1.0
 92
        8
 66
     7
 43
1.0
 76
     1
 77
     6
 78
     2
 67
     7
 79
     5
170
     0
171
     0
290
     0
174
     0
 93
        1
 44
50.0
173
     0
291
     1
 45
0.0
  0
VISUALSTYLE
  5
3A
102
{ACAD_REACTORS
330
2A
102
}
102
{ACAD_XDICTIONARY
360
E1
102
}
330
2A
100
AcDbVisualStyle
  2
ColorChange
 70
    16
 71
     2
 72
     2
 73
     3
 90
        0
 40
0.6
 41
30.0
 62
     5
 63
     8
421
  8421504
 74
     1
 91
        4
 64
     7
 65
   257
 75
     1
175
     1
 42
1.0
 92
        8
 66
     8
424
  8421504
 43
1.0
 76
     1
 77
     6
 78
     2
 67
     7
 79
     5
170
     0
171
     0
290
     0
174
     0
 93
        1
 44
0.0
173
     0
291
     1
 45
0.0
  0
VISUALSTYLE
  5
34
102
{ACAD_REACTORS
330
2A
102
}
102
{ACAD_XDICTIONARY
360
D5
102
}
330
2A
100
AcDbVisualStyle
  2
Conceptual
 70
     9
 71
     3
 72
     2
 73
     0
 90
        0
 40
0.6
 41
30.0
 62
     5
 63
     7
421
 16777215
 74
     2
 91
        2
 64
     7
 65
   257
 75
     1
175
     1
 42
179.0
 92
        8
 66
     7
 43
1.0
 76
     1
 77
     6
 78
     2
 67
     7
 79
     3
170
     0
171
     0
290
     0
174
     0
 93
        1
 44
0.0
173
     0
291
     0
 45
0.0
  0
VISUALSTYLE
  5
35
102
{ACAD_REACTORS
330
2A
102
}
102
{ACAD_XDICTIONARY
360
D7
102
}
330
2A
100
AcDbVisualStyle
  2
Dim
 70
    11
 71
     2
 72
     2
 73
     0
 90
        0
 40
0.6
 41
30.0
 62
     5
 63
     7
421
 16777215
 74
     1
 91
        4
 64
     7
 65
   257
 75
     1
175
     1
 42
1.0
 92
        8
 66
     7
 43
1.0
 76
     1
 77
     6
 78
     2
 67
     7
 79
     5
170
     0
171
     0
290
     0
174
     0
 93
        1
 44
-50.0
173
     0
291
     1
 45
0.0
  0
VISUALSTYLE
  5
3D
102
{ACAD_REACTORS
330
2A
102
}
102
{ACAD_XDICTIONARY
360
E7
102
}
330
2A
100
AcDbVisualStyle
  2
EdgeColorOff
 70
    22
 71
     2
 72
     2
 73
     0
 90
        0
 40
0.6
 41
30.0
 62
     5
 63
     7
421
 16777215
 74
     1
 91
        4
 64
     7
 65
   257
 75
     1
175
     1
 42
1.0
 92
        8
 66
     7
 43
1.0
 76
     1
 77
     6
 78
     2
 67
     7
 79
     5
170
     0
171
     0
290
     0
174
     0
 93
        1
 44
0.0
173
     0
291
     1
 45
0.0
  0
VISUALSTYLE
  5
39
102
{ACAD_REACTORS
330
2A
102
}
102
{ACAD_XDICTIONARY
360
DF
102
}
330
2A
100
AcDbVisualStyle
  2
Facepattern
 70
    15
 71
     2
 72
     2
 73
     0
 90
        0
 40
0.6
 41
30.0
 62
     5
 63
     7
421
 16777215
 74
     1
 91
        4
 64
     7
 65
   257
 75
     1
175
     1
 42
1.0
 92
        8
 66
     7
 43
1.0
 76
     1
 77
     6
 78
     2
 67
     7
 79
     5
170
     0
171
     0
290
     0
174
     0
 93
        1
 44
0.0
173
     0
291
     1
 45
0.0
  0
VISUALSTYLE
  5
2B
102
{ACAD_REACTORS
330
2A
102
}
102
{ACAD_XDICTIONARY
360
C3
102
}
330
2A
100
AcDbVisualStyle
  2
Flat
 70
     0
 71
     2
 72
     1
 73
     1
 90
        2
 40
0.6
 41
30.0
 62
     5
 63
     7
421
 16777215
 74
     0
 91
        0
 64
     7
 65
   257
 75
     1
175
     1
 42
1.0
 92
        8
 66
     7
 43
1.0
 76
     1
 77
     6
 78
     2
 67
     7
 79
     5
170
     0
171
     0
290
     0
174
     0
 93
       13
 44
0.0
173
     0
291
     1
 45
0.0
  0
VISUALSTYLE
  5
2C
102
{ACAD_REACTORS
330
2A
102
}
102
{ACAD_XDICTIONARY
360
C5
102
}
330
2A
100
AcDbVisualStyle
  2
FlatWithEdges
 70
     1
 71
     2
 72
     1
 73
     1
 90
        2
 40
0.6
 41
30.0
 62
     5
 63
     7
421
 16777215
 74
     1
 91
        0
 64
     7
 65
   257
 75
     1
175
     1
 42
1.0
 92
        0
 66
   257
 43
1.0
 76
     1
 77
     6
 78
     2
 67
     7
 79
     5
170
     0
171
     0
290
     0
174
     0
 93
       13
 44
0.0
173
     0
291
     1
 45
0.0
  0
VISUALSTYLE
  5
2D
102
{ACAD_REACTORS
330
2A
102
}
102
{ACAD_XDICTIONARY
360
C7
102
}
330
2A
100
AcDbVisualStyle
  2
Gouraud
 70
     2
 71
     2
 72
     2
 73
     1
 90
        2
 40
0.6
 41
30.0
 62
     5
 63
     7
421
 16777215
 74
     0
 91
        0
 64
     7
 65
   257
 75
     1
175
     1
 42
1.0
 92
        0
 66
     7
 43
1.0
 76
     1
 77
     6
 78
     2
 67
     7
 79
     5
170
     0
171
     0
290
     0
174
     0
 93
       13
 44
0.0
173
     0
291
     1
 45
0.0
  0
VISUALSTYLE
  5
2E
102
{ACAD_REACTORS
330
2A
102
}
102
{ACAD_XDICTIONARY
360
C9
102
}
330
2A
100
AcDbVisualStyle
  2
GouraudWithEdges
 70
     3
 71
     2
 72
     2
 73
     1
 90
        2
 40
0.6
 41
30.0
 62
     5
 63
     7
421
 16777215
 74
     1
 91
        0
 64
     7
 65
   257
 75
     1
175
     1
 42
1.0
 92
        0
 66
   257
 43
1.0
 76
     1
 77
     6
 78
     2
 67
     7
 79
     5
170
     0
171
     0
290
     0
174
     0
 93
       13
 44
0.0
173
     0
291
     1
 45
0.0
  0
VISUALSTYLE
  5
31
102
{ACAD_REACTORS
330
2A
102
}
102
{ACAD_XDICTIONARY
360
CF
102
}
330
2A
100
AcDbVisualStyle
  2
Hidden
 70
     6
 71
     1
 72
     2
 73
     2
 90
        0
 40
0.6
 41
30.0
 62
     5
 63
     7
421
 16777215
 74
     2
 91
        2
 64
     7
 65
   257
 75
     2
175
     1
 42
40.0
 92
        0
 66
   257
 43
1.0
 76
     1
 77
     6
 78
     2
 67
     7
 79
     3
170
     0
171
     0
290
     0
174
     0
 93
        1
 44
0.0
173
     0
291
     0
 45
0.0
  0
VISUALSTYLE
  5
3B
102
{ACAD_REACTORS
330
2A
102
}
102
{ACAD_XDICTIONARY
360
E3
102
}
330
2A
100
AcDbVisualStyle
  2
JitterOff
 70
    20
 71
     2
 72
     2
 73
     0
 90
        0
 40
0.6
 41
30.0
 62
     5
 63
     7
421
 16777215
 74
     1
 91
        4
 64
     7
 65
   257
 75
     1
175
     1
 42
1.0
 92
       10
 66
     7
 43
1.0
 76
     1
 77
     6
 78
     2
 67
     7
 79
     5
170
     0
171
     0
290
     0
174
     0
 93
        1
 44
0.0
173
     0
291
     1
 45
0.0
  0
VISUALSTYLE
  5
38
102
{ACAD_REACTORS
330
2A
102
}
102
{ACAD_XDICTIONARY
360
DD
102
}
330
2A
100
AcDbVisualStyle
  2
Linepattern
 70
    14
 71
     2
 72
     2
 73
     0
 90
        0
 40
0.6
 41
30.0
 62
     5
 63
     7
421
 16777215
 74
     1
 91
        4
 64
     7
 65
   257
 75
     7
175
     7
 42
1.0
 92
        8
 66
     7
 43
1.0
 76
     1
 77
     6
 78
     2
 67
     7
 79
     5
170
     0
171
     0
290
     0
174
     0
 93
        1
 44
0.0
173
     0
291
     1
 45
0.0
  0
VISUALSTYLE
  5
3C
102
{ACAD_REACTORS
330
2A
102
}
102
{ACAD_XDICTIONARY
360
E5
102
}
330
2A
100
AcDbVisualStyle
  2
OverhangOff
 70
    21
 71
     2
 72
     2
 73
     0
 90
        0
 40
0.6
 41
30.0
 62
     5
 63
     7
421
 16777215
 74
     1
 91
        4
 64
     7
 65
   257
 75
     1
175
     1
 42
1.0
 92
        9
 66
     7
 43
1.0
 76
     1
 77
     6
 78
     2
 67
     7
 79
     5
170
     0
171
     0
290
     0
174
     0
 93
        1
 44
0.0
173
     0
291
     1
 45
0.0
  0
VISUALSTYLE
  5
33
102
{ACAD_REACTORS
330
2A
102
}
102
{ACAD_XDICTIONARY
360
D3
102
}
330
2A
100
AcDbVisualStyle
  2
Realistic
 70
     8
 71
     2
 72
     3
 73
     0
 90
        2
 40
0.6
 41
30.0
 62
     5
 63
     7
421
 16777215
 74
     0
 91
        0
 64
     7
 65
   257
 75
     1
175
     1
 42
1.0
 92
        8
 66
   257
 43
1.0
 76
     1
 77
     6
 78
     2
 67
     7
 79
     3
170
     0
171
     0
290
     0
174
     0
 93
       13
 44
0.0
173
     0
291
     0
 45
0.0
  0
VISUALSTYLE
  5
42
102
{ACAD_REACTORS
330
2A
102
}
102
{ACAD_XDICTIONARY
360
F1
102
}
330
2A
100
AcDbVisualStyle
  2
Shaded
 70
    27
 71
     2
 72
     2
 73
     1
 90
        2
 40
0.6
 41
30.0
 62
     5
 63
     7
421
 16777215
 74
     0
 91
        4
 64
     7
 65
   257
 75
     1
175
     1
 42
1.0
 92
        8
 66
   257
 43
1.0
 76
     1
 77
     6
 78
     2
 67
     8
425
  7895160
 79
     3
170
     0
171
     0
290
     0
174
     0
 93
        5
 44
0.0
173
     0
291
     0
 45
0.0
  0
VISUALSTYLE
  5
41
102
{ACAD_REACTORS
330
2A
102
}
102
{ACAD_XDICTIONARY
360
EF
102
}
330
2A
100
AcDbVisualStyle
  2
Shaded with edges
 70
    26
 71
     2
 72
     2
 73
     1
 90
        2
 40
0.6
 41
30.0
 62
     5
 63
     7
421
 16777215
 74
     1
 91
       10
 64
     7
 65
   257
 75
     2
175
     1
 42
1.0
 92
        8
 66
   257
 43
1.0
 76
     1
 77
     6
 78
     2
 67
     7
 79
     3
170
     0
171
     0
290
     0
174
     0
 93
        5
 44
0.0
173
     0
291
     0
 45
0.0
  0
VISUALSTYLE
  5
3E
102
{ACAD_REACTORS
330
2A
102
}
102
{ACAD_XDICTIONARY
360
E9
102
}
330
2A
100
AcDbVisualStyle
  2
Shades of Gray
 70
    23
 71
     2
 72
     2
 73
     3
 90
        0
 40
0.6
 41
30.0
 62
     5
 63
     7
421
 16777215
 74
     2
 91
        2
 64
     7
 65
     7
 75
     1
175
     1
 42
40.0
 92
        8
 66
     7
 43
1.0
 76
     1
 77
     6
 78
     2
 67
     7
 79
     3
170
     0
171
     0
290
     0
174
     0
 93
        1
 44
0.0
173
     0
291
     0
 45
0.0
  0
VISUALSTYLE
  5
3F
102
{ACAD_REACTORS
330
2A
102
}
102
{ACAD_XDICTIONARY
360
EB
102
}
330
2A
100
AcDbVisualStyle
  2
Sketchy
 70
    24
 71
     1
 72
     2
 73
     2
 90
        0
 40
0.6
 41
30.0
 62
     5
 63
     7
421
 16777215
 74
     2
 91
        2
 64
     7
 65
     7
 75
     1
175
     1
 42
40.0
 92
       11
 66
     7
 43
1.0
 76
     1
 77
     6
 78
     2
 67
     7
 79
     6
170
     0
171
     0
290
     0
174
     0
 93
        1
 44
0.0
173
     0
291
     0
 45
0.0
  0
VISUALSTYLE
  5
37
102
{ACAD_REACTORS
330
2A
102
}
102
{ACAD_XDICTIONARY
360
DB
102
}
330
2A
100
AcDbVisualStyle
  2
Thicken
 70
    13
 71
     2
 72
     2
 73
     0
 90
        0
 40
0.6
 41
30.0
 62
     5
 63
     7
421
 16777215
 74
     1
 91
        4
 64
     7
 65
   257
 75
     1
175
     1
 42
1.0
 92
       12
 66
     7
 43
1.0
 76
     1
 77
     6
 78
     2
 67
     7
 79
     5
170
     0
171
     0
290
     0
174
     0
 93
        1
 44
0.0
173
     0
291
     1
 45
0.0
  0
VISUALSTYLE
  5
30
102
{ACAD_REACTORS
330
2A
102
}
102
{ACAD_XDICTIONARY
360
CD
102
}
330
2A
100
AcDbVisualStyle
  2
Wireframe
 70
     5
 71
     0
 72
     2
 73
     0
 90
        0
 40
0.6
 41
30.0
 62
     5
 63
     7
421
 16777215
 74
     1
 91
        4
 64
     7
 65
   257
 75
     1
175
     1
 42
1.0
 92
        0
 66
   257
 43
1.0
 76
     1
 77
     6
 78
     2
 67
     7
 79
     3
170
     0
171
     0
290
     0
174
     0
 93
        1
 44
0.0
173
     0
291
     0
 45
0.0
  0
VISUALSTYLE
  5
40
102
{ACAD_REACTORS
330
2A
102
}
102
{ACAD_XDICTIONARY
360
ED
102
}
330
2A
100
AcDbVisualStyle
  2
X-Ray
 70
    25
 71
     2
 72
     2
 73
     1
 90
        1
 40
0.5
 41
30.0
 62
     5
 63
     7
421
 16777215
 74
     1
 91
        0
 64
     7
 65
   257
 75
     1
175
     1
 42
1.0
 92
        8
 66
     7
 43
1.0
 76
     1
 77
     6
 78
     2
 67
     7
 79
     3
170
     0
171
     0
290
     0
174
     0
 93
       13
 44
0.0
173
     0
291
     0
 45
0.0
  0
DICTIONARYVAR
  5
C1
102
{ACAD_REACTORS
330
C0
102
}
330
C0
100
DictionaryVariables
280
     0
  1
1:1
  0
DICTIONARYVAR
  5
FA
102
{ACAD_REACTORS
330
C0
102
}
330
C0
100
DictionaryVariables
280
     0
  1
Standard
  0
DICTIONARYVAR
  5
F9
102
{ACAD_REACTORS
330
C0
102
}
330
C0
100
DictionaryVariables
280
     0
  1
Standard
  0
DICTIONARYVAR
  5
C2
102
{ACAD_REACTORS
330
C0
102
}
330
C0
100
DictionaryVariables
280
     0
  1
2
  0
DICTIONARY
  5
F6
330
6C
100
AcDbDictionary
280
     1
281
     1
  3
ACAD_XREC_ROUNDTRIP
360
F7
  0
DICTIONARY
  5
F3
330
6A
100
AcDbDictionary
280
     1
281
     1
  3
ACAD_ROUNDTRIP_2008_TABLESTYLE_CELLSTYLEMAP
360
F4
  0
DICTIONARY
  5
CB
330
2F
100
AcDbDictionary
280
     1
281
     1
  3
ACAD_XREC_ROUNDTRIP
360
CC
  0
DICTIONARY
  5
D1
330
32
100
AcDbDictionary
280
     1
281
     1
  3
ACAD_XREC_ROUNDTRIP
360
D2
  0
DICTIONARY
  5
D9
330
36
100
AcDbDictionary
280
     1
281
     1
  3
ACAD_XREC_ROUNDTRIP
360
DA
  0
DICTIONARY
  5
E1
330
3A
100
AcDbDictionary
280
     1
281
     1
  3
ACAD_XREC_ROUNDTRIP
360
E2
  0
DICTIONARY
  5
D5
330
34
100
AcDbDictionary
280
     1
281
     1
  3
ACAD_XREC_ROUNDTRIP
360
D6
  0
DICTIONARY
  5
D7
330
35
100
AcDbDictionary
280
     1
281
     1
  3
ACAD_XREC_ROUNDTRIP
360
D8
  0
DICTIONARY
  5
E7
330
3D
100
AcDbDictionary
280
     1
281
     1
  3
ACAD_XREC_ROUNDTRIP
360
E8
  0
DICTIONARY
  5
DF
330
39
100
AcDbDictionary
280
     1
281
     1
  3
ACAD_XREC_ROUNDTRIP
360
E0
  0
DICTIONARY
  5
C3
330
2B
100
AcDbDictionary
280
     1
281
     1
  3
ACAD_XREC_ROUNDTRIP
360
C4
  0
DICTIONARY
  5
C5
330
2C
100
AcDbDictionary
280
     1
281
     1
  3
ACAD_XREC_ROUNDTRIP
360
C6
  0
DICTIONARY
  5
C7
330
2D
100
AcDbDictionary
280
     1
281
     1
  3
ACAD_XREC_ROUNDTRIP
360
C8
  0
DICTIONARY
  5
C9
330
2E
100
AcDbDictionary
280
     1
281
     1
  3
ACAD_XREC_ROUNDTRIP
360
CA
  0
DICTIONARY
  5
CF
330
31
100
AcDbDictionary
280
     1
281
     1
  3
ACAD_XREC_ROUNDTRIP
360
D0
  0
DICTIONARY
  5
E3
330
3B
100
AcDbDictionary
280
     1
281
     1
  3
ACAD_XREC_ROUNDTRIP
360
E4
  0
DICTIONARY
  5
DD
330
38
100
AcDbDictionary
280
     1
281
     1
  3
ACAD_XREC_ROUNDTRIP
360
DE
  0
DICTIONARY
  5
E5
330
3C
100
AcDbDictionary
280
     1
281
     1
  3
ACAD_XREC_ROUNDTRIP
360
E6
  0
DICTIONARY
  5
D3
330
33
100
AcDbDictionary
280
     1
281
     1
  3
ACAD_XREC_ROUNDTRIP
360
D4
  0
DICTIONARY
  5
F1
330
42
100
AcDbDictionary
280
     1
281
     1
  3
ACAD_XREC_ROUNDTRIP
360
F2
  0
DICTIONARY
  5
EF
330
41
100
AcDbDictionary
280
     1
281
     1
  3
ACAD_XREC_ROUNDTRIP
360
F0
  0
DICTIONARY
  5
E9
330
3E
100
AcDbDictionary
280
     1
281
     1
  3
ACAD_XREC_ROUNDTRIP
360
EA
  0
DICTIONARY
  5
EB
330
3F
100
AcDbDictionary
280
     1
281
     1
  3
ACAD_XREC_ROUNDTRIP
360
EC
  0
DICTIONARY
  5
DB
330
37
100
AcDbDictionary
280
     1
281
     1
  3
ACAD_XREC_ROUNDTRIP
360
DC
  0
DICTIONARY
  5
CD
330
30
100
AcDbDictionary
280
     1
281
     1
  3
ACAD_XREC_ROUNDTRIP
360
CE
  0
DICTIONARY
  5
ED
330
40
100
AcDbDictionary
280
     1
281
     1
  3
ACAD_XREC_ROUNDTRIP
360
EE
  0
XRECORD
  5
F7
102
{ACAD_REACTORS
330
F6
102
}
330
F6
100
AcDbXrecord
280
     1
102
ACAD_ROUNDTRIP_2010_MLEADER_STYLE
  0
CELLSTYLEMAP
  5
F4
102
{ACAD_REACTORS
330
F3
102
}
330
F3
100
AcDbCellStyleMap
 90
        3
300
CELLSTYLE
  1
TABLEFORMAT_BEGIN
 90
        5
170
     1
 91
        0
 92
    32768
 62
   257
 93
        1
300
CONTENTFORMAT
  1
CONTENTFORMAT_BEGIN
 90
        0
 91
        0
 92
        4
 93
        0
300

 40
0.0
140
1.0
 94
        5
 62
     0
340
11
144
0.25
309
CONTENTFORMAT_END
171
     1
301
MARGIN
  1
CELLMARGIN_BEGIN
 40
0.06
 40
0.06
 40
0.06
 40
0.06
 40
0.06
 40
0.06
309
CELLMARGIN_END
 94
        6
 95
        1
302
GRIDFORMAT
  1
GRIDFORMAT_BEGIN
 90
        0
 91
        1
 62
     0
 92
       -2
340
14
 93
        0
 40
0.045
309
GRIDFORMAT_END
 95
        2
302
GRIDFORMAT
  1
GRIDFORMAT_BEGIN
 90
        0
 91
        1
 62
     0
 92
       -2
340
14
 93
        0
 40
0.045
309
GRIDFORMAT_END
 95
        4
302
GRIDFORMAT
  1
GRIDFORMAT_BEGIN
 90
        0
 91
        1
 62
     0
 92
       -2
340
14
 93
        0
 40
0.045
309
GRIDFORMAT_END
 95
        8
302
GRIDFORMAT
  1
GRIDFORMAT_BEGIN
 90
        0
 91
        1
 62
     0
 92
       -2
340
14
 93
        0
 40
0.045
309
GRIDFORMAT_END
 95
       16
302
GRIDFORMAT
  1
GRIDFORMAT_BEGIN
 90
        0
 91
        1
 62
     0
 92
       -2
340
14
 93
        0
 40
0.045
309
GRIDFORMAT_END
 95
       32
302
GRIDFORMAT
  1
GRIDFORMAT_BEGIN
 90
        0
 91
        1
 62
     0
 92
       -2
340
14
 93
        0
 40
0.045
309
GRIDFORMAT_END
309
TABLEFORMAT_END
  1
CELLSTYLE_BEGIN
 90
        1
 91
        1
300
_TITLE
309
CELLSTYLE_END
300
CELLSTYLE
  1
TABLEFORMAT_BEGIN
 90
        5
170
     1
 91
        0
 92
        0
 62
   257
 93
        1
300
CONTENTFORMAT
  1
CONTENTFORMAT_BEGIN
 90
        0
 91
        0
 92
        4
 93
        0
300

 40
0.0
140
1.0
 94
        5
 62
     0
340
11
144
0.18
309
CONTENTFORMAT_END
171
     1
301
MARGIN
  1
CELLMARGIN_BEGIN
 40
0.06
 40
0.06
 40
0.06
 40
0.06
 40
0.06
 40
0.06
309
CELLMARGIN_END
 94
        6
 95
        1
302
GRIDFORMAT
  1
GRIDFORMAT_BEGIN
 90
        0
 91
        1
 62
     0
 92
       -2
340
14
 93
        0
 40
0.045
309
GRIDFORMAT_END
 95
        2
302
GRIDFORMAT
  1
GRIDFORMAT_BEGIN
 90
        0
 91
        1
 62
     0
 92
       -2
340
14
 93
        0
 40
0.045
309
GRIDFORMAT_END
 95
        4
302
GRIDFORMAT
  1
GRIDFORMAT_BEGIN
 90
        0
 91
        1
 62
     0
 92
       -2
340
14
 93
        0
 40
0.045
309
GRIDFORMAT_END
 95
        8
302
GRIDFORMAT
  1
GRIDFORMAT_BEGIN
 90
        0
 91
        1
 62
     0
 92
       -2
340
14
 93
        0
 40
0.045
309
GRIDFORMAT_END
 95
       16
302
GRIDFORMAT
  1
GRIDFORMAT_BEGIN
 90
        0
 91
        1
 62
     0
 92
       -2
340
14
 93
        0
 40
0.045
309
GRIDFORMAT_END
 95
       32
302
GRIDFORMAT
  1
GRIDFORMAT_BEGIN
 90
        0
 91
        1
 62
     0
 92
       -2
340
14
 93
        0
 40
0.045
309
GRIDFORMAT_END
309
TABLEFORMAT_END
  1
CELLSTYLE_BEGIN
 90
        2
 91
        1
300
_HEADER
309
CELLSTYLE_END
300
CELLSTYLE
  1
TABLEFORMAT_BEGIN
 90
        5
170
     1
 91
        0
 92
        0
 62
   257
 93
        1
300
CONTENTFORMAT
  1
CONTENTFORMAT_BEGIN
 90
        0
 91
        0
 92
        4
 93
        0
300

 40
0.0
140
1.0
 94
        2
 62
     0
340
11
144
0.18
309
CONTENTFORMAT_END
171
     1
301
MARGIN
  1
CELLMARGIN_BEGIN
 40
0.06
 40
0.06
 40
0.06
 40
0.06
 40
0.06
 40
0.06
309
CELLMARGIN_END
 94
        6
 95
        1
302
GRIDFORMAT
  1
GRIDFORMAT_BEGIN
 90
        0
 91
        1
 62
     0
 92
       -2
340
14
 93
        0
 40
0.045
309
GRIDFORMAT_END
 95
        2
302
GRIDFORMAT
  1
GRIDFORMAT_BEGIN
 90
        0
 91
        1
 62
     0
 92
       -2
340
14
 93
        0
 40
0.045
309
GRIDFORMAT_END
 95
        4
302
GRIDFORMAT
  1
GRIDFORMAT_BEGIN
 90
        0
 91
        1
 62
     0
 92
       -2
340
14
 93
        0
 40
0.045
309
GRIDFORMAT_END
 95
        8
302
GRIDFORMAT
  1
GRIDFORMAT_BEGIN
 90
        0
 91
        1
 62
     0
 92
       -2
340
14
 93
        0
 40
0.045
309
GRIDFORMAT_END
 95
       16
302
GRIDFORMAT
  1
GRIDFORMAT_BEGIN
 90
        0
 91
        1
 62
     0
 92
       -2
340
14
 93
        0
 40
0.045
309
GRIDFORMAT_END
 95
       32
302
GRIDFORMAT
  1
GRIDFORMAT_BEGIN
 90
        0
 91
        1
 62
     0
 92
       -2
340
14
 93
        0
 40
0.045
309
GRIDFORMAT_END
309
TABLEFORMAT_END
  1
CELLSTYLE_BEGIN
 90
        3
 91
        2
300
_DATA
309
CELLSTYLE_END
  0
XRECORD
  5
CC
102
{ACAD_REACTORS
330
CB
102
}
330
CB
100
AcDbXrecord
280
     1
102
RTVSPropertyOp0
 70
     1
102
RTVSPropertyOp1
 70
     1
102
RTVSPropertyOp2
 70
     1
102
RTVSPropertyOp3
 70
     1
102
RTVSPropertyOp4
 70
     1
102
RTVSPropertyOp5
 70
     1
102
RTVSPropertyOp6
 70
     1
102
RTVSPropertyOp7
 70
     1
102
RTVSPropertyOp8
 70
     1
102
RTVSPropertyOp9
 70
     1
102
RTVSPropertyOp10
 70
     1
102
RTVSPropertyOp11
 70
     1
102
RTVSPropertyOp12
 70
     1
102
RTVSPropertyOp13
 70
     1
102
RTVSPropertyOp14
 70
     1
102
RTVSPropertyOp15
 70
     1
102
RTVSPropertyOp16
 70
     1
102
RTVSPropertyOp17
 70
     1
102
RTVSPropertyOp18
 70
     1
102
RTVSPropertyOp19
 70
     1
102
RTVSPropertyOp20
 70
     1
102
RTVSPropertyOp21
 70
     1
102
RTVSPropertyOp22
 70
     1
102
RTVSPropertyOp23
 70
     1
102
RTVSPropertyOp24
 70
     1
102
RTVSPropertyOp25
 70
     1
102
RTVSPropertyOp26
 70
     1
102
RTVSPropertyOp27
 70
     1
102
RTVSPropertyOp28
 70
     1
102
RTVSPropertyOp29
 70
     1
102
RTVSPropertyOp30
 70
     1
102
RTVSPropertyOp31
 70
     1
102
RTVSPropertyOp32
 70
     1
102
RTVSPropertyOp33
 70
     1
102
RTVSPropertyOp34
 70
     1
102
RTVSPropertyOp35
 70
     1
102
RTVSPropertyOp36
 70
     1
102
RTVSPropertyOp37
 70
     1
102
RTVSPropertyOp38
 70
     1
102
RTVSPropertyOp39
 70
     1
102
RTVSPropertyOp40
 70
     1
102
RTVSPropertyOp41
 70
     1
102
RTVSPropertyOp42
 70
     1
102
RTVSPropertyOp43
 70
     1
102
RTVSPropertyOp44
 70
     1
102
RTVSPropertyOp45
 70
     1
102
RTVSPropertyOp46
 70
     1
102
RTVSPropertyOp47
 70
     1
102
RTVSPropertyOp48
 70
     1
102
RTVSPropertyOp49
 70
     1
102
RTVSPropertyOp50
 70
     1
102
RTVSPropertyOp51
 70
     0
102
RTVSPropertyOp52
 70
     0
102
RTVSPropertyOp53
 70
     1
102
RTVSPropertyOp54
 70
     1
102
RTVSPropertyOp55
 70
     1
102
RTVSPropertyOp56
 70
     1
102
RTVSPropertyOp57
 70
     1
102
RTVSPost2010Prop28
280
     1
102
RTVSPost2010PropOp28
 70
     1
102
RTVSPost2010Prop29
280
     1
102
RTVSPost2010PropOp29
 70
     1
102
RTVSPost2010Prop30
280
     0
102
RTVSPost2010PropOp30
 70
     1
102
RTVSPost2010Prop31
280
     0
102
RTVSPost2010PropOp31
 70
     1
102
RTVSPost2010Prop32
280
     0
102
RTVSPost2010PropOp32
 70
     1
102
RTVSPost2010Prop33
280
     0
102
RTVSPost2010PropOp33
 70
     1
102
RTVSPost2010Prop34
280
     0
102
RTVSPost2010PropOp34
 70
     1
102
RTVSPost2010Prop35
280
     0
102
RTVSPost2010PropOp35
 70
     1
102
RTVSPost2010Prop36
280
     0
102
RTVSPost2010PropOp36
 70
     1
102
RTVSPost2010Prop37
 90
       50
102
RTVSPost2010PropOp37
 70
     1
102
RTVSPost2010Prop38
140
0.0
102
RTVSPost2010PropOp38
 70
     1
102
RTVSPost2010Prop39
140
1.0
102
RTVSPost2010PropOp39
 70
     1
102
RTVSPost2010Prop40
 90
        0
102
RTVSPost2010PropOp40
 70
     1
102
RTVSPost2010Prop41ColorIndex
 90
       18
102
RTVSPost2010Prop41ColorRGB
 90
        0
102
RTVSPost2010PropOp41
 70
     1
102
RTVSPost2010Prop42
 90
       50
102
RTVSPost2010PropOp42
 70
     1
102
RTVSPost2010Prop43
 90
        3
102
RTVSPost2010PropOp43
 70
     1
102
RTVSPost2010Prop44ColorIndex
 90
        5
102
RTVSPost2010Prop44ColorRGB
 90
      255
102
RTVSPost2010PropOp44
 70
     1
102
RTVSPost2010Prop45
280
     0
102
RTVSPost2010PropOp45
 70
     1
102
RTVSPost2010Prop46
 90
       50
102
RTVSPost2010PropOp46
 70
     1
102
RTVSPost2010Prop47
 90
       50
102
RTVSPost2010PropOp47
 70
     1
102
RTVSPost2010Prop48
 90
       50
102
RTVSPost2010PropOp48
 70
     1
102
RTVSPost2010Prop49
280
     0
102
RTVSPost2010PropOp49
 70
     1
102
RTVSPost2010Prop50
 90
       50
102
RTVSPost2010PropOp50
 70
     1
102
RTVSPost2010Prop51ColorIndex
 90
      256
102
RTVSPost2010Prop51ColorRGB
 90
-16777216
102
RTVSPost2010PropOp51
 70
     0
102
RTVSPost2010Prop52
140
1.0
102
RTVSPost2010PropOp52
 70
     0
102
RTVSPost2010Prop53
 90
        2
102
RTVSPost2010PropOp53
 70
     1
102
RTVSPost2010Prop54
  1
strokes_ogs.tif
102
RTVSPost2010PropOp54
 70
     1
102
RTVSPost2010Prop55
280
     0
102
RTVSPost2010PropOp55
 70
     1
102
RTVSPost2010Prop56
140
1.0
102
RTVSPost2010PropOp56
 70
     1
102
RTVSPost2010Prop57
140
1.0
102
RTVSPost2010PropOp57
 70
     1
  0
XRECORD
  5
D2
102
{ACAD_REACTORS
330
D1
102
}
330
D1
100
AcDbXrecord
280
     1
102
RTVSPropertyOp0
 70
     1
102
RTVSPropertyOp1
 70
     1
102
RTVSPropertyOp2
 70
     1
102
RTVSPropertyOp3
 70
     1
102
RTVSPropertyOp4
 70
     1
102
RTVSPropertyOp5
 70
     1
102
RTVSPropertyOp6
 70
     1
102
RTVSPropertyOp7
 70
     1
102
RTVSPropertyOp8
 70
     1
102
RTVSPropertyOp9
 70
     1
102
RTVSPropertyOp10
 70
     1
102
RTVSPropertyOp11
 70
     1
102
RTVSPropertyOp12
 70
     1
102
RTVSPropertyOp13
 70
     1
102
RTVSPropertyOp14
 70
     1
102
RTVSPropertyOp15
 70
     1
102
RTVSPropertyOp16
 70
     1
102
RTVSPropertyOp17
 70
     1
102
RTVSPropertyOp18
 70
     1
102
RTVSPropertyOp19
 70
     1
102
RTVSPropertyOp20
 70
     1
102
RTVSPropertyOp21
 70
     1
102
RTVSPropertyOp22
 70
     1
102
RTVSPropertyOp23
 70
     1
102
RTVSPropertyOp24
 70
     1
102
RTVSPropertyOp25
 70
     1
102
RTVSPropertyOp26
 70
     1
102
RTVSPropertyOp27
 70
     1
102
RTVSPropertyOp28
 70
     1
102
RTVSPropertyOp29
 70
     1
102
RTVSPropertyOp30
 70
     1
102
RTVSPropertyOp31
 70
     1
102
RTVSPropertyOp32
 70
     1
102
RTVSPropertyOp33
 70
     1
102
RTVSPropertyOp34
 70
     1
102
RTVSPropertyOp35
 70
     1
102
RTVSPropertyOp36
 70
     1
102
RTVSPropertyOp37
 70
     1
102
RTVSPropertyOp38
 70
     1
102
RTVSPropertyOp39
 70
     1
102
RTVSPropertyOp40
 70
     1
102
RTVSPropertyOp41
 70
     1
102
RTVSPropertyOp42
 70
     1
102
RTVSPropertyOp43
 70
     1
102
RTVSPropertyOp44
 70
     1
102
RTVSPropertyOp45
 70
     1
102
RTVSPropertyOp46
 70
     1
102
RTVSPropertyOp47
 70
     1
102
RTVSPropertyOp48
 70
     1
102
RTVSPropertyOp49
 70
     1
102
RTVSPropertyOp50
 70
     1
102
RTVSPropertyOp51
 70
     0
102
RTVSPropertyOp52
 70
     0
102
RTVSPropertyOp53
 70
     1
102
RTVSPropertyOp54
 70
     1
102
RTVSPropertyOp55
 70
     1
102
RTVSPropertyOp56
 70
     1
102
RTVSPropertyOp57
 70
     1
102
RTVSPost2010Prop28
280
     0
102
RTVSPost2010PropOp28
 70
     1
102
RTVSPost2010Prop29
280
     1
102
RTVSPost2010PropOp29
 70
     1
102
RTVSPost2010Prop30
280
     1
102
RTVSPost2010PropOp30
 70
     1
102
RTVSPost2010Prop31
280
     0
102
RTVSPost2010PropOp31
 70
     1
102
RTVSPost2010Prop32
280
     0
102
RTVSPost2010PropOp32
 70
     1
102
RTVSPost2010Prop33
280
     0
102
RTVSPost2010PropOp33
 70
     1
102
RTVSPost2010Prop34
280
     0
102
RTVSPost2010PropOp34
 70
     1
102
RTVSPost2010Prop35
280
     0
102
RTVSPost2010PropOp35
 70
     1
102
RTVSPost2010Prop36
280
     0
102
RTVSPost2010PropOp36
 70
     1
102
RTVSPost2010Prop37
 90
       50
102
RTVSPost2010PropOp37
 70
     1
102
RTVSPost2010Prop38
140
0.0
102
RTVSPost2010PropOp38
 70
     1
102
RTVSPost2010Prop39
140
1.0
102
RTVSPost2010PropOp39
 70
     1
102
RTVSPost2010Prop40
 90
        0
102
RTVSPost2010PropOp40
 70
     1
102
RTVSPost2010Prop41ColorIndex
 90
       18
102
RTVSPost2010Prop41ColorRGB
 90
        0
102
RTVSPost2010PropOp41
 70
     1
102
RTVSPost2010Prop42
 90
       50
102
RTVSPost2010PropOp42
 70
     1
102
RTVSPost2010Prop43
 90
        3
102
RTVSPost2010PropOp43
 70
     1
102
RTVSPost2010Prop44ColorIndex
 90
        5
102
RTVSPost2010Prop44ColorRGB
 90
      255
102
RTVSPost2010PropOp44
 70
     1
102
RTVSPost2010Prop45
280
     0
102
RTVSPost2010PropOp45
 70
     1
102
RTVSPost2010Prop46
 90
       50
102
RTVSPost2010PropOp46
 70
     1
102
RTVSPost2010Prop47
 90
       50
102
RTVSPost2010PropOp47
 70
     1
102
RTVSPost2010Prop48
 90
       50
102
RTVSPost2010PropOp48
 70
     1
102
RTVSPost2010Prop49
280
     0
102
RTVSPost2010PropOp49
 70
     1
102
RTVSPost2010Prop50
 90
       50
102
RTVSPost2010PropOp50
 70
     1
102
RTVSPost2010Prop51ColorIndex
 90
      256
102
RTVSPost2010Prop51ColorRGB
 90
-16777216
102
RTVSPost2010PropOp51
 70
     0
102
RTVSPost2010Prop52
140
1.0
102
RTVSPost2010PropOp52
 70
     0
102
RTVSPost2010Prop53
 90
        2
102
RTVSPost2010PropOp53
 70
     1
102
RTVSPost2010Prop54
  1
strokes_ogs.tif
102
RTVSPost2010PropOp54
 70
     1
102
RTVSPost2010Prop55
280
     0
102
RTVSPost2010PropOp55
 70
     1
102
RTVSPost2010Prop56
140
1.0
102
RTVSPost2010PropOp56
 70
     1
102
RTVSPost2010Prop57
140
1.0
102
RTVSPost2010PropOp57
 70
     1
  0
XRECORD
  5
DA
102
{ACAD_REACTORS
330
D9
102
}
330
D9
100
AcDbXrecord
280
     1
102
RTVSPropertyOp0
 70
     1
102
RTVSPropertyOp1
 70
     1
102
RTVSPropertyOp2
 70
     1
102
RTVSPropertyOp3
 70
     1
102
RTVSPropertyOp4
 70
     1
102
RTVSPropertyOp5
 70
     1
102
RTVSPropertyOp6
 70
     1
102
RTVSPropertyOp7
 70
     1
102
RTVSPropertyOp8
 70
     1
102
RTVSPropertyOp9
 70
     1
102
RTVSPropertyOp10
 70
     1
102
RTVSPropertyOp11
 70
     1
102
RTVSPropertyOp12
 70
     1
102
RTVSPropertyOp13
 70
     1
102
RTVSPropertyOp14
 70
     1
102
RTVSPropertyOp15
 70
     1
102
RTVSPropertyOp16
 70
     1
102
RTVSPropertyOp17
 70
     1
102
RTVSPropertyOp18
 70
     1
102
RTVSPropertyOp19
 70
     1
102
RTVSPropertyOp20
 70
     1
102
RTVSPropertyOp21
 70
     1
102
RTVSPropertyOp22
 70
     1
102
RTVSPropertyOp23
 70
     1
102
RTVSPropertyOp24
 70
     1
102
RTVSPropertyOp25
 70
     1
102
RTVSPropertyOp26
 70
     1
102
RTVSPropertyOp27
 70
     1
102
RTVSPropertyOp28
 70
     1
102
RTVSPropertyOp29
 70
     1
102
RTVSPropertyOp30
 70
     1
102
RTVSPropertyOp31
 70
     1
102
RTVSPropertyOp32
 70
     1
102
RTVSPropertyOp33
 70
     1
102
RTVSPropertyOp34
 70
     1
102
RTVSPropertyOp35
 70
     1
102
RTVSPropertyOp36
 70
     1
102
RTVSPropertyOp37
 70
     1
102
RTVSPropertyOp38
 70
     1
102
RTVSPropertyOp39
 70
     1
102
RTVSPropertyOp40
 70
     1
102
RTVSPropertyOp41
 70
     1
102
RTVSPropertyOp42
 70
     1
102
RTVSPropertyOp43
 70
     1
102
RTVSPropertyOp44
 70
     1
102
RTVSPropertyOp45
 70
     1
102
RTVSPropertyOp46
 70
     1
102
RTVSPropertyOp47
 70
     1
102
RTVSPropertyOp48
 70
     1
102
RTVSPropertyOp49
 70
     1
102
RTVSPropertyOp50
 70
     1
102
RTVSPropertyOp51
 70
     0
102
RTVSPropertyOp52
 70
     0
102
RTVSPropertyOp53
 70
     1
102
RTVSPropertyOp54
 70
     1
102
RTVSPropertyOp55
 70
     1
102
RTVSPropertyOp56
 70
     1
102
RTVSPropertyOp57
 70
     1
102
RTVSPost2010Prop28
280
     0
102
RTVSPost2010PropOp28
 70
     1
102
RTVSPost2010Prop29
280
     1
102
RTVSPost2010PropOp29
 70
     1
102
RTVSPost2010Prop30
280
     1
102
RTVSPost2010PropOp30
 70
     1
102
RTVSPost2010Prop31
280
     0
102
RTVSPost2010PropOp31
 70
     1
102
RTVSPost2010Prop32
280
     0
102
RTVSPost2010PropOp32
 70
     1
102
RTVSPost2010Prop33
280
     0
102
RTVSPost2010PropOp33
 70
     1
102
RTVSPost2010Prop34
280
     0
102
RTVSPost2010PropOp34
 70
     1
102
RTVSPost2010Prop35
280
     0
102
RTVSPost2010PropOp35
 70
     1
102
RTVSPost2010Prop36
280
     0
102
RTVSPost2010PropOp36
 70
     1
102
RTVSPost2010Prop37
 90
       50
102
RTVSPost2010PropOp37
 70
     1
102
RTVSPost2010Prop38
140
0.0
102
RTVSPost2010PropOp38
 70
     1
102
RTVSPost2010Prop39
140
1.0
102
RTVSPost2010PropOp39
 70
     1
102
RTVSPost2010Prop40
 90
        0
102
RTVSPost2010PropOp40
 70
     1
102
RTVSPost2010Prop41ColorIndex
 90
       18
102
RTVSPost2010Prop41ColorRGB
 90
        0
102
RTVSPost2010PropOp41
 70
     1
102
RTVSPost2010Prop42
 90
       50
102
RTVSPost2010PropOp42
 70
     1
102
RTVSPost2010Prop43
 90
        3
102
RTVSPost2010PropOp43
 70
     1
102
RTVSPost2010Prop44ColorIndex
 90
        5
102
RTVSPost2010Prop44ColorRGB
 90
      255
102
RTVSPost2010PropOp44
 70
     1
102
RTVSPost2010Prop45
280
     0
102
RTVSPost2010PropOp45
 70
     1
102
RTVSPost2010Prop46
 90
       50
102
RTVSPost2010PropOp46
 70
     1
102
RTVSPost2010Prop47
 90
       50
102
RTVSPost2010PropOp47
 70
     1
102
RTVSPost2010Prop48
 90
       50
102
RTVSPost2010PropOp48
 70
     1
102
RTVSPost2010Prop49
280
     0
102
RTVSPost2010PropOp49
 70
     1
102
RTVSPost2010Prop50
 90
       50
102
RTVSPost2010PropOp50
 70
     1
102
RTVSPost2010Prop51ColorIndex
 90
      256
102
RTVSPost2010Prop51ColorRGB
 90
-16777216
102
RTVSPost2010PropOp51
 70
     0
102
RTVSPost2010Prop52
140
1.0
102
RTVSPost2010PropOp52
 70
     0
102
RTVSPost2010Prop53
 90
        2
102
RTVSPost2010PropOp53
 70
     1
102
RTVSPost2010Prop54
  1
strokes_ogs.tif
102
RTVSPost2010PropOp54
 70
     1
102
RTVSPost2010Prop55
280
     0
102
RTVSPost2010PropOp55
 70
     1
102
RTVSPost2010Prop56
140
1.0
102
RTVSPost2010PropOp56
 70
     1
102
RTVSPost2010Prop57
140
1.0
102
RTVSPost2010PropOp57
 70
     1
  0
XRECORD
  5
E2
102
{ACAD_REACTORS
330
E1
102
}
330
E1
100
AcDbXrecord
280
     1
102
RTVSPropertyOp0
 70
     1
102
RTVSPropertyOp1
 70
     1
102
RTVSPropertyOp2
 70
     1
102
RTVSPropertyOp3
 70
     1
102
RTVSPropertyOp4
 70
     1
102
RTVSPropertyOp5
 70
     1
102
RTVSPropertyOp6
 70
     1
102
RTVSPropertyOp7
 70
     1
102
RTVSPropertyOp8
 70
     1
102
RTVSPropertyOp9
 70
     1
102
RTVSPropertyOp10
 70
     1
102
RTVSPropertyOp11
 70
     1
102
RTVSPropertyOp12
 70
     1
102
RTVSPropertyOp13
 70
     1
102
RTVSPropertyOp14
 70
     1
102
RTVSPropertyOp15
 70
     1
102
RTVSPropertyOp16
 70
     1
102
RTVSPropertyOp17
 70
     1
102
RTVSPropertyOp18
 70
     1
102
RTVSPropertyOp19
 70
     1
102
RTVSPropertyOp20
 70
     1
102
RTVSPropertyOp21
 70
     1
102
RTVSPropertyOp22
 70
     1
102
RTVSPropertyOp23
 70
     1
102
RTVSPropertyOp24
 70
     1
102
RTVSPropertyOp25
 70
     1
102
RTVSPropertyOp26
 70
     1
102
RTVSPropertyOp27
 70
     1
102
RTVSPropertyOp28
 70
     1
102
RTVSPropertyOp29
 70
     1
102
RTVSPropertyOp30
 70
     1
102
RTVSPropertyOp31
 70
     1
102
RTVSPropertyOp32
 70
     1
102
RTVSPropertyOp33
 70
     1
102
RTVSPropertyOp34
 70
     1
102
RTVSPropertyOp35
 70
     1
102
RTVSPropertyOp36
 70
     1
102
RTVSPropertyOp37
 70
     1
102
RTVSPropertyOp38
 70
     1
102
RTVSPropertyOp39
 70
     1
102
RTVSPropertyOp40
 70
     1
102
RTVSPropertyOp41
 70
     1
102
RTVSPropertyOp42
 70
     1
102
RTVSPropertyOp43
 70
     1
102
RTVSPropertyOp44
 70
     1
102
RTVSPropertyOp45
 70
     1
102
RTVSPropertyOp46
 70
     1
102
RTVSPropertyOp47
 70
     1
102
RTVSPropertyOp48
 70
     1
102
RTVSPropertyOp49
 70
     1
102
RTVSPropertyOp50
 70
     1
102
RTVSPropertyOp51
 70
     0
102
RTVSPropertyOp52
 70
     0
102
RTVSPropertyOp53
 70
     1
102
RTVSPropertyOp54
 70
     1
102
RTVSPropertyOp55
 70
     1
102
RTVSPropertyOp56
 70
     1
102
RTVSPropertyOp57
 70
     1
102
RTVSPost2010Prop28
280
     0
102
RTVSPost2010PropOp28
 70
     1
102
RTVSPost2010Prop29
280
     1
102
RTVSPost2010PropOp29
 70
     1
102
RTVSPost2010Prop30
280
     1
102
RTVSPost2010PropOp30
 70
     1
102
RTVSPost2010Prop31
280
     0
102
RTVSPost2010PropOp31
 70
     1
102
RTVSPost2010Prop32
280
     0
102
RTVSPost2010PropOp32
 70
     1
102
RTVSPost2010Prop33
280
     0
102
RTVSPost2010PropOp33
 70
     1
102
RTVSPost2010Prop34
280
     0
102
RTVSPost2010PropOp34
 70
     1
102
RTVSPost2010Prop35
280
     0
102
RTVSPost2010PropOp35
 70
     1
102
RTVSPost2010Prop36
280
     0
102
RTVSPost2010PropOp36
 70
     1
102
RTVSPost2010Prop37
 90
       50
102
RTVSPost2010PropOp37
 70
     1
102
RTVSPost2010Prop38
140
0.0
102
RTVSPost2010PropOp38
 70
     1
102
RTVSPost2010Prop39
140
1.0
102
RTVSPost2010PropOp39
 70
     1
102
RTVSPost2010Prop40
 90
        0
102
RTVSPost2010PropOp40
 70
     1
102
RTVSPost2010Prop41ColorIndex
 90
       18
102
RTVSPost2010Prop41ColorRGB
 90
        0
102
RTVSPost2010PropOp41
 70
     1
102
RTVSPost2010Prop42
 90
       50
102
RTVSPost2010PropOp42
 70
     1
102
RTVSPost2010Prop43
 90
        3
102
RTVSPost2010PropOp43
 70
     1
102
RTVSPost2010Prop44ColorIndex
 90
        5
102
RTVSPost2010Prop44ColorRGB
 90
      255
102
RTVSPost2010PropOp44
 70
     1
102
RTVSPost2010Prop45
280
     0
102
RTVSPost2010PropOp45
 70
     1
102
RTVSPost2010Prop46
 90
       50
102
RTVSPost2010PropOp46
 70
     1
102
RTVSPost2010Prop47
 90
       50
102
RTVSPost2010PropOp47
 70
     1
102
RTVSPost2010Prop48
 90
       50
102
RTVSPost2010PropOp48
 70
     1
102
RTVSPost2010Prop49
280
     0
102
RTVSPost2010PropOp49
 70
     1
102
RTVSPost2010Prop50
 90
       50
102
RTVSPost2010PropOp50
 70
     1
102
RTVSPost2010Prop51ColorIndex
 90
      256
102
RTVSPost2010Prop51ColorRGB
 90
-16777216
102
RTVSPost2010PropOp51
 70
     0
102
RTVSPost2010Prop52
140
1.0
102
RTVSPost2010PropOp52
 70
     0
102
RTVSPost2010Prop53
 90
        2
102
RTVSPost2010PropOp53
 70
     1
102
RTVSPost2010Prop54
  1
strokes_ogs.tif
102
RTVSPost2010PropOp54
 70
     1
102
RTVSPost2010Prop55
280
     0
102
RTVSPost2010PropOp55
 70
     1
102
RTVSPost2010Prop56
140
1.0
102
RTVSPost2010PropOp56
 70
     1
102
RTVSPost2010Prop57
140
1.0
102
RTVSPost2010PropOp57
 70
     1
  0
XRECORD
  5
D6
102
{ACAD_REACTORS
330
D5
102
}
330
D5
100
AcDbXrecord
280
     1
102
RTVSPropertyOp0
 70
     1
102
RTVSPropertyOp1
 70
     1
102
RTVSPropertyOp2
 70
     1
102
RTVSPropertyOp3
 70
     1
102
RTVSPropertyOp4
 70
     1
102
RTVSPropertyOp5
 70
     1
102
RTVSPropertyOp6
 70
     1
102
RTVSPropertyOp7
 70
     1
102
RTVSPropertyOp8
 70
     1
102
RTVSPropertyOp9
 70
     1
102
RTVSPropertyOp10
 70
     1
102
RTVSPropertyOp11
 70
     1
102
RTVSPropertyOp12
 70
     1
102
RTVSPropertyOp13
 70
     1
102
RTVSPropertyOp14
 70
     1
102
RTVSPropertyOp15
 70
     1
102
RTVSPropertyOp16
 70
     1
102
RTVSPropertyOp17
 70
     1
102
RTVSPropertyOp18
 70
     1
102
RTVSPropertyOp19
 70
     1
102
RTVSPropertyOp20
 70
     1
102
RTVSPropertyOp21
 70
     1
102
RTVSPropertyOp22
 70
     1
102
RTVSPropertyOp23
 70
     1
102
RTVSPropertyOp24
 70
     1
102
RTVSPropertyOp25
 70
     1
102
RTVSPropertyOp26
 70
     1
102
RTVSPropertyOp27
 70
     1
102
RTVSPropertyOp28
 70
     1
102
RTVSPropertyOp29
 70
     1
102
RTVSPropertyOp30
 70
     1
102
RTVSPropertyOp31
 70
     1
102
RTVSPropertyOp32
 70
     1
102
RTVSPropertyOp33
 70
     1
102
RTVSPropertyOp34
 70
     1
102
RTVSPropertyOp35
 70
     1
102
RTVSPropertyOp36
 70
     1
102
RTVSPropertyOp37
 70
     1
102
RTVSPropertyOp38
 70
     1
102
RTVSPropertyOp39
 70
     1
102
RTVSPropertyOp40
 70
     1
102
RTVSPropertyOp41
 70
     1
102
RTVSPropertyOp42
 70
     1
102
RTVSPropertyOp43
 70
     1
102
RTVSPropertyOp44
 70
     1
102
RTVSPropertyOp45
 70
     1
102
RTVSPropertyOp46
 70
     1
102
RTVSPropertyOp47
 70
     1
102
RTVSPropertyOp48
 70
     1
102
RTVSPropertyOp49
 70
     1
102
RTVSPropertyOp50
 70
     1
102
RTVSPropertyOp51
 70
     0
102
RTVSPropertyOp52
 70
     0
102
RTVSPropertyOp53
 70
     1
102
RTVSPropertyOp54
 70
     1
102
RTVSPropertyOp55
 70
     1
102
RTVSPropertyOp56
 70
     1
102
RTVSPropertyOp57
 70
     1
102
RTVSPost2010Prop28
280
     0
102
RTVSPost2010PropOp28
 70
     1
102
RTVSPost2010Prop29
280
     1
102
RTVSPost2010PropOp29
 70
     1
102
RTVSPost2010Prop30
280
     1
102
RTVSPost2010PropOp30
 70
     1
102
RTVSPost2010Prop31
280
     0
102
RTVSPost2010PropOp31
 70
     1
102
RTVSPost2010Prop32
280
     0
102
RTVSPost2010PropOp32
 70
     1
102
RTVSPost2010Prop33
280
     0
102
RTVSPost2010PropOp33
 70
     1
102
RTVSPost2010Prop34
280
     0
102
RTVSPost2010PropOp34
 70
     1
102
RTVSPost2010Prop35
280
     0
102
RTVSPost2010PropOp35
 70
     1
102
RTVSPost2010Prop36
280
     0
102
RTVSPost2010PropOp36
 70
     1
102
RTVSPost2010Prop37
 90
       50
102
RTVSPost2010PropOp37
 70
     1
102
RTVSPost2010Prop38
140
0.0
102
RTVSPost2010PropOp38
 70
     1
102
RTVSPost2010Prop39
140
1.0
102
RTVSPost2010PropOp39
 70
     1
102
RTVSPost2010Prop40
 90
        0
102
RTVSPost2010PropOp40
 70
     1
102
RTVSPost2010Prop41ColorIndex
 90
       18
102
RTVSPost2010Prop41ColorRGB
 90
        0
102
RTVSPost2010PropOp41
 70
     1
102
RTVSPost2010Prop42
 90
       50
102
RTVSPost2010PropOp42
 70
     1
102
RTVSPost2010Prop43
 90
        3
102
RTVSPost2010PropOp43
 70
     1
102
RTVSPost2010Prop44ColorIndex
 90
        5
102
RTVSPost2010Prop44ColorRGB
 90
      255
102
RTVSPost2010PropOp44
 70
     1
102
RTVSPost2010Prop45
280
     0
102
RTVSPost2010PropOp45
 70
     1
102
RTVSPost2010Prop46
 90
       50
102
RTVSPost2010PropOp46
 70
     1
102
RTVSPost2010Prop47
 90
       50
102
RTVSPost2010PropOp47
 70
     1
102
RTVSPost2010Prop48
 90
       50
102
RTVSPost2010PropOp48
 70
     1
102
RTVSPost2010Prop49
280
     0
102
RTVSPost2010PropOp49
 70
     1
102
RTVSPost2010Prop50
 90
       50
102
RTVSPost2010PropOp50
 70
     1
102
RTVSPost2010Prop51ColorIndex
 90
      256
102
RTVSPost2010Prop51ColorRGB
 90
-16777216
102
RTVSPost2010PropOp51
 70
     0
102
RTVSPost2010Prop52
140
1.0
102
RTVSPost2010PropOp52
 70
     0
102
RTVSPost2010Prop53
 90
        2
102
RTVSPost2010PropOp53
 70
     1
102
RTVSPost2010Prop54
  1
strokes_ogs.tif
102
RTVSPost2010PropOp54
 70
     1
102
RTVSPost2010Prop55
280
     0
102
RTVSPost2010PropOp55
 70
     1
102
RTVSPost2010Prop56
140
1.0
102
RTVSPost2010PropOp56
 70
     1
102
RTVSPost2010Prop57
140
1.0
102
RTVSPost2010PropOp57
 70
     1
  0
XRECORD
  5
D8
102
{ACAD_REACTORS
330
D7
102
}
330
D7
100
AcDbXrecord
280
     1
102
RTVSPropertyOp0
 70
     1
102
RTVSPropertyOp1
 70
     1
102
RTVSPropertyOp2
 70
     1
102
RTVSPropertyOp3
 70
     1
102
RTVSPropertyOp4
 70
     1
102
RTVSPropertyOp5
 70
     1
102
RTVSPropertyOp6
 70
     1
102
RTVSPropertyOp7
 70
     1
102
RTVSPropertyOp8
 70
     1
102
RTVSPropertyOp9
 70
     1
102
RTVSPropertyOp10
 70
     1
102
RTVSPropertyOp11
 70
     1
102
RTVSPropertyOp12
 70
     1
102
RTVSPropertyOp13
 70
     1
102
RTVSPropertyOp14
 70
     1
102
RTVSPropertyOp15
 70
     1
102
RTVSPropertyOp16
 70
     1
102
RTVSPropertyOp17
 70
     1
102
RTVSPropertyOp18
 70
     1
102
RTVSPropertyOp19
 70
     1
102
RTVSPropertyOp20
 70
     1
102
RTVSPropertyOp21
 70
     1
102
RTVSPropertyOp22
 70
     1
102
RTVSPropertyOp23
 70
     1
102
RTVSPropertyOp24
 70
     1
102
RTVSPropertyOp25
 70
     1
102
RTVSPropertyOp26
 70
     1
102
RTVSPropertyOp27
 70
     1
102
RTVSPropertyOp28
 70
     1
102
RTVSPropertyOp29
 70
     1
102
RTVSPropertyOp30
 70
     1
102
RTVSPropertyOp31
 70
     1
102
RTVSPropertyOp32
 70
     1
102
RTVSPropertyOp33
 70
     1
102
RTVSPropertyOp34
 70
     1
102
RTVSPropertyOp35
 70
     1
102
RTVSPropertyOp36
 70
     1
102
RTVSPropertyOp37
 70
     1
102
RTVSPropertyOp38
 70
     1
102
RTVSPropertyOp39
 70
     1
102
RTVSPropertyOp40
 70
     1
102
RTVSPropertyOp41
 70
     1
102
RTVSPropertyOp42
 70
     1
102
RTVSPropertyOp43
 70
     1
102
RTVSPropertyOp44
 70
     1
102
RTVSPropertyOp45
 70
     1
102
RTVSPropertyOp46
 70
     1
102
RTVSPropertyOp47
 70
     1
102
RTVSPropertyOp48
 70
     1
102
RTVSPropertyOp49
 70
     1
102
RTVSPropertyOp50
 70
     1
102
RTVSPropertyOp51
 70
     0
102
RTVSPropertyOp52
 70
     0
102
RTVSPropertyOp53
 70
     1
102
RTVSPropertyOp54
 70
     1
102
RTVSPropertyOp55
 70
     1
102
RTVSPropertyOp56
 70
     1
102
RTVSPropertyOp57
 70
     1
102
RTVSPost2010Prop28
280
     0
102
RTVSPost2010PropOp28
 70
     1
102
RTVSPost2010Prop29
280
     1
102
RTVSPost2010PropOp29
 70
     1
102
RTVSPost2010Prop30
280
     1
102
RTVSPost2010PropOp30
 70
     1
102
RTVSPost2010Prop31
280
     0
102
RTVSPost2010PropOp31
 70
     1
102
RTVSPost2010Prop32
280
     0
102
RTVSPost2010PropOp32
 70
     1
102
RTVSPost2010Prop33
280
     0
102
RTVSPost2010PropOp33
 70
     1
102
RTVSPost2010Prop34
280
     0
102
RTVSPost2010PropOp34
 70
     1
102
RTVSPost2010Prop35
280
     0
102
RTVSPost2010PropOp35
 70
     1
102
RTVSPost2010Prop36
280
     0
102
RTVSPost2010PropOp36
 70
     1
102
RTVSPost2010Prop37
 90
       50
102
RTVSPost2010PropOp37
 70
     1
102
RTVSPost2010Prop38
140
0.0
102
RTVSPost2010PropOp38
 70
     1
102
RTVSPost2010Prop39
140
1.0
102
RTVSPost2010PropOp39
 70
     1
102
RTVSPost2010Prop40
 90
        0
102
RTVSPost2010PropOp40
 70
     1
102
RTVSPost2010Prop41ColorIndex
 90
       18
102
RTVSPost2010Prop41ColorRGB
 90
        0
102
RTVSPost2010PropOp41
 70
     1
102
RTVSPost2010Prop42
 90
       50
102
RTVSPost2010PropOp42
 70
     1
102
RTVSPost2010Prop43
 90
        3
102
RTVSPost2010PropOp43
 70
     1
102
RTVSPost2010Prop44ColorIndex
 90
        5
102
RTVSPost2010Prop44ColorRGB
 90
      255
102
RTVSPost2010PropOp44
 70
     1
102
RTVSPost2010Prop45
280
     0
102
RTVSPost2010PropOp45
 70
     1
102
RTVSPost2010Prop46
 90
       50
102
RTVSPost2010PropOp46
 70
     1
102
RTVSPost2010Prop47
 90
       50
102
RTVSPost2010PropOp47
 70
     1
102
RTVSPost2010Prop48
 90
       50
102
RTVSPost2010PropOp48
 70
     1
102
RTVSPost2010Prop49
280
     0
102
RTVSPost2010PropOp49
 70
     1
102
RTVSPost2010Prop50
 90
       50
102
RTVSPost2010PropOp50
 70
     1
102
RTVSPost2010Prop51ColorIndex
 90
      256
102
RTVSPost2010Prop51ColorRGB
 90
-16777216
102
RTVSPost2010PropOp51
 70
     0
102
RTVSPost2010Prop52
140
1.0
102
RTVSPost2010PropOp52
 70
     0
102
RTVSPost2010Prop53
 90
        2
102
RTVSPost2010PropOp53
 70
     1
102
RTVSPost2010Prop54
  1
strokes_ogs.tif
102
RTVSPost2010PropOp54
 70
     1
102
RTVSPost2010Prop55
280
     0
102
RTVSPost2010PropOp55
 70
     1
102
RTVSPost2010Prop56
140
1.0
102
RTVSPost2010PropOp56
 70
     1
102
RTVSPost2010Prop57
140
1.0
102
RTVSPost2010PropOp57
 70
     1
  0
XRECORD
  5
E8
102
{ACAD_REACTORS
330
E7
102
}
330
E7
100
AcDbXrecord
280
     1
102
RTVSPropertyOp0
 70
     0
102
RTVSPropertyOp1
 70
     0
102
RTVSPropertyOp2
 70
     0
102
RTVSPropertyOp3
 70
     0
102
RTVSPropertyOp4
 70
     0
102
RTVSPropertyOp5
 70
     0
102
RTVSPropertyOp6
 70
     0
102
RTVSPropertyOp7
 70
     0
102
RTVSPropertyOp8
 70
     0
102
RTVSPropertyOp9
 70
     0
102
RTVSPropertyOp10
 70
     0
102
RTVSPropertyOp11
 70
     0
102
RTVSPropertyOp12
 70
     0
102
RTVSPropertyOp13
 70
     0
102
RTVSPropertyOp14
 70
     2
102
RTVSPropertyOp15
 70
     0
102
RTVSPropertyOp16
 70
     0
102
RTVSPropertyOp17
 70
     0
102
RTVSPropertyOp18
 70
     0
102
RTVSPropertyOp19
 70
     0
102
RTVSPropertyOp20
 70
     0
102
RTVSPropertyOp21
 70
     0
102
RTVSPropertyOp22
 70
     0
102
RTVSPropertyOp23
 70
     0
102
RTVSPropertyOp24
 70
     0
102
RTVSPropertyOp25
 70
     0
102
RTVSPropertyOp26
 70
     0
102
RTVSPropertyOp27
 70
     0
102
RTVSPropertyOp28
 70
     0
102
RTVSPropertyOp29
 70
     0
102
RTVSPropertyOp30
 70
     0
102
RTVSPropertyOp31
 70
     0
102
RTVSPropertyOp32
 70
     0
102
RTVSPropertyOp33
 70
     0
102
RTVSPropertyOp34
 70
     0
102
RTVSPropertyOp35
 70
     0
102
RTVSPropertyOp36
 70
     0
102
RTVSPropertyOp37
 70
     0
102
RTVSPropertyOp38
 70
     0
102
RTVSPropertyOp39
 70
     0
102
RTVSPropertyOp40
 70
     0
102
RTVSPropertyOp41
 70
     0
102
RTVSPropertyOp42
 70
     0
102
RTVSPropertyOp43
 70
     0
102
RTVSPropertyOp44
 70
     0
102
RTVSPropertyOp45
 70
     0
102
RTVSPropertyOp46
 70
     0
102
RTVSPropertyOp47
 70
     0
102
RTVSPropertyOp48
 70
     0
102
RTVSPropertyOp49
 70
     0
102
RTVSPropertyOp50
 70
     0
102
RTVSPropertyOp51
 70
     0
102
RTVSPropertyOp52
 70
     0
102
RTVSPropertyOp53
 70
     0
102
RTVSPropertyOp54
 70
     0
102
RTVSPropertyOp55
 70
     0
102
RTVSPropertyOp56
 70
     0
102
RTVSPropertyOp57
 70
     0
102
RTVSPost2010Prop28
280
     0
102
RTVSPost2010PropOp28
 70
     0
102
RTVSPost2010Prop29
280
     1
102
RTVSPost2010PropOp29
 70
     0
102
RTVSPost2010Prop30
280
     1
102
RTVSPost2010PropOp30
 70
     0
102
RTVSPost2010Prop31
280
     0
102
RTVSPost2010PropOp31
 70
     0
102
RTVSPost2010Prop32
280
     0
102
RTVSPost2010PropOp32
 70
     0
102
RTVSPost2010Prop33
280
     0
102
RTVSPost2010PropOp33
 70
     0
102
RTVSPost2010Prop34
280
     0
102
RTVSPost2010PropOp34
 70
     0
102
RTVSPost2010Prop35
280
     0
102
RTVSPost2010PropOp35
 70
     0
102
RTVSPost2010Prop36
280
     0
102
RTVSPost2010PropOp36
 70
     0
102
RTVSPost2010Prop37
 90
       50
102
RTVSPost2010PropOp37
 70
     0
102
RTVSPost2010Prop38
140
0.0
102
RTVSPost2010PropOp38
 70
     0
102
RTVSPost2010Prop39
140
1.0
102
RTVSPost2010PropOp39
 70
     0
102
RTVSPost2010Prop40
 90
        0
102
RTVSPost2010PropOp40
 70
     0
102
RTVSPost2010Prop41ColorIndex
 90
       18
102
RTVSPost2010Prop41ColorRGB
 90
        0
102
RTVSPost2010PropOp41
 70
     0
102
RTVSPost2010Prop42
 90
       50
102
RTVSPost2010PropOp42
 70
     0
102
RTVSPost2010Prop43
 90
        3
102
RTVSPost2010PropOp43
 70
     0
102
RTVSPost2010Prop44ColorIndex
 90
        5
102
RTVSPost2010Prop44ColorRGB
 90
      255
102
RTVSPost2010PropOp44
 70
     0
102
RTVSPost2010Prop45
280
     0
102
RTVSPost2010PropOp45
 70
     0
102
RTVSPost2010Prop46
 90
       50
102
RTVSPost2010PropOp46
 70
     0
102
RTVSPost2010Prop47
 90
       50
102
RTVSPost2010PropOp47
 70
     0
102
RTVSPost2010Prop48
 90
       50
102
RTVSPost2010PropOp48
 70
     0
102
RTVSPost2010Prop49
280
     0
102
RTVSPost2010PropOp49
 70
     0
102
RTVSPost2010Prop50
 90
       50
102
RTVSPost2010PropOp50
 70
     0
102
RTVSPost2010Prop51ColorIndex
 90
      256
102
RTVSPost2010Prop51ColorRGB
 90
-16777216
102
RTVSPost2010PropOp51
 70
     0
102
RTVSPost2010Prop52
140
1.0
102
RTVSPost2010PropOp52
 70
     0
102
RTVSPost2010Prop53
 90
        2
102
RTVSPost2010PropOp53
 70
     0
102
RTVSPost2010Prop54
  1
strokes_ogs.tif
102
RTVSPost2010PropOp54
 70
     0
102
RTVSPost2010Prop55
280
     0
102
RTVSPost2010PropOp55
 70
     0
102
RTVSPost2010Prop56
140
1.0
102
RTVSPost2010PropOp56
 70
     0
102
RTVSPost2010Prop57
140
1.0
102
RTVSPost2010PropOp57
 70
     0
  0
XRECORD
  5
E0
102
{ACAD_REACTORS
330
DF
102
}
330
DF
100
AcDbXrecord
280
     1
102
RTVSPropertyOp0
 70
     1
102
RTVSPropertyOp1
 70
     1
102
RTVSPropertyOp2
 70
     1
102
RTVSPropertyOp3
 70
     1
102
RTVSPropertyOp4
 70
     1
102
RTVSPropertyOp5
 70
     1
102
RTVSPropertyOp6
 70
     1
102
RTVSPropertyOp7
 70
     1
102
RTVSPropertyOp8
 70
     1
102
RTVSPropertyOp9
 70
     1
102
RTVSPropertyOp10
 70
     1
102
RTVSPropertyOp11
 70
     1
102
RTVSPropertyOp12
 70
     1
102
RTVSPropertyOp13
 70
     1
102
RTVSPropertyOp14
 70
     1
102
RTVSPropertyOp15
 70
     1
102
RTVSPropertyOp16
 70
     1
102
RTVSPropertyOp17
 70
     1
102
RTVSPropertyOp18
 70
     1
102
RTVSPropertyOp19
 70
     1
102
RTVSPropertyOp20
 70
     1
102
RTVSPropertyOp21
 70
     1
102
RTVSPropertyOp22
 70
     1
102
RTVSPropertyOp23
 70
     1
102
RTVSPropertyOp24
 70
     1
102
RTVSPropertyOp25
 70
     1
102
RTVSPropertyOp26
 70
     1
102
RTVSPropertyOp27
 70
     1
102
RTVSPropertyOp28
 70
     1
102
RTVSPropertyOp29
 70
     1
102
RTVSPropertyOp30
 70
     1
102
RTVSPropertyOp31
 70
     1
102
RTVSPropertyOp32
 70
     1
102
RTVSPropertyOp33
 70
     1
102
RTVSPropertyOp34
 70
     1
102
RTVSPropertyOp35
 70
     1
102
RTVSPropertyOp36
 70
     1
102
RTVSPropertyOp37
 70
     1
102
RTVSPropertyOp38
 70
     1
102
RTVSPropertyOp39
 70
     1
102
RTVSPropertyOp40
 70
     1
102
RTVSPropertyOp41
 70
     1
102
RTVSPropertyOp42
 70
     1
102
RTVSPropertyOp43
 70
     1
102
RTVSPropertyOp44
 70
     1
102
RTVSPropertyOp45
 70
     1
102
RTVSPropertyOp46
 70
     1
102
RTVSPropertyOp47
 70
     1
102
RTVSPropertyOp48
 70
     1
102
RTVSPropertyOp49
 70
     1
102
RTVSPropertyOp50
 70
     1
102
RTVSPropertyOp51
 70
     0
102
RTVSPropertyOp52
 70
     0
102
RTVSPropertyOp53
 70
     1
102
RTVSPropertyOp54
 70
     1
102
RTVSPropertyOp55
 70
     1
102
RTVSPropertyOp56
 70
     1
102
RTVSPropertyOp57
 70
     1
102
RTVSPost2010Prop28
280
     0
102
RTVSPost2010PropOp28
 70
     1
102
RTVSPost2010Prop29
280
     1
102
RTVSPost2010PropOp29
 70
     1
102
RTVSPost2010Prop30
280
     1
102
RTVSPost2010PropOp30
 70
     1
102
RTVSPost2010Prop31
280
     0
102
RTVSPost2010PropOp31
 70
     1
102
RTVSPost2010Prop32
280
     0
102
RTVSPost2010PropOp32
 70
     1
102
RTVSPost2010Prop33
280
     0
102
RTVSPost2010PropOp33
 70
     1
102
RTVSPost2010Prop34
280
     0
102
RTVSPost2010PropOp34
 70
     1
102
RTVSPost2010Prop35
280
     0
102
RTVSPost2010PropOp35
 70
     1
102
RTVSPost2010Prop36
280
     0
102
RTVSPost2010PropOp36
 70
     1
102
RTVSPost2010Prop37
 90
       50
102
RTVSPost2010PropOp37
 70
     1
102
RTVSPost2010Prop38
140
0.0
102
RTVSPost2010PropOp38
 70
     1
102
RTVSPost2010Prop39
140
1.0
102
RTVSPost2010PropOp39
 70
     1
102
RTVSPost2010Prop40
 90
        0
102
RTVSPost2010PropOp40
 70
     1
102
RTVSPost2010Prop41ColorIndex
 90
       18
102
RTVSPost2010Prop41ColorRGB
 90
        0
102
RTVSPost2010PropOp41
 70
     1
102
RTVSPost2010Prop42
 90
       50
102
RTVSPost2010PropOp42
 70
     1
102
RTVSPost2010Prop43
 90
        3
102
RTVSPost2010PropOp43
 70
     1
102
RTVSPost2010Prop44ColorIndex
 90
        5
102
RTVSPost2010Prop44ColorRGB
 90
      255
102
RTVSPost2010PropOp44
 70
     1
102
RTVSPost2010Prop45
280
     0
102
RTVSPost2010PropOp45
 70
     1
102
RTVSPost2010Prop46
 90
       50
102
RTVSPost2010PropOp46
 70
     1
102
RTVSPost2010Prop47
 90
       50
102
RTVSPost2010PropOp47
 70
     1
102
RTVSPost2010Prop48
 90
       50
102
RTVSPost2010PropOp48
 70
     1
102
RTVSPost2010Prop49
280
     0
102
RTVSPost2010PropOp49
 70
     1
102
RTVSPost2010Prop50
 90
       50
102
RTVSPost2010PropOp50
 70
     1
102
RTVSPost2010Prop51ColorIndex
 90
      256
102
RTVSPost2010Prop51ColorRGB
 90
-16777216
102
RTVSPost2010PropOp51
 70
     0
102
RTVSPost2010Prop52
140
1.0
102
RTVSPost2010PropOp52
 70
     0
102
RTVSPost2010Prop53
 90
        2
102
RTVSPost2010PropOp53
 70
     1
102
RTVSPost2010Prop54
  1
strokes_ogs.tif
102
RTVSPost2010PropOp54
 70
     1
102
RTVSPost2010Prop55
280
     0
102
RTVSPost2010PropOp55
 70
     1
102
RTVSPost2010Prop56
140
1.0
102
RTVSPost2010PropOp56
 70
     1
102
RTVSPost2010Prop57
140
1.0
102
RTVSPost2010PropOp57
 70
     1
  0
XRECORD
  5
C4
102
{ACAD_REACTORS
330
C3
102
}
330
C3
100
AcDbXrecord
280
     1
102
RTVSPropertyOp0
 70
     1
102
RTVSPropertyOp1
 70
     1
102
RTVSPropertyOp2
 70
     1
102
RTVSPropertyOp3
 70
     1
102
RTVSPropertyOp4
 70
     1
102
RTVSPropertyOp5
 70
     1
102
RTVSPropertyOp6
 70
     1
102
RTVSPropertyOp7
 70
     1
102
RTVSPropertyOp8
 70
     1
102
RTVSPropertyOp9
 70
     1
102
RTVSPropertyOp10
 70
     1
102
RTVSPropertyOp11
 70
     1
102
RTVSPropertyOp12
 70
     1
102
RTVSPropertyOp13
 70
     1
102
RTVSPropertyOp14
 70
     1
102
RTVSPropertyOp15
 70
     1
102
RTVSPropertyOp16
 70
     1
102
RTVSPropertyOp17
 70
     1
102
RTVSPropertyOp18
 70
     1
102
RTVSPropertyOp19
 70
     1
102
RTVSPropertyOp20
 70
     1
102
RTVSPropertyOp21
 70
     1
102
RTVSPropertyOp22
 70
     1
102
RTVSPropertyOp23
 70
     1
102
RTVSPropertyOp24
 70
     1
102
RTVSPropertyOp25
 70
     1
102
RTVSPropertyOp26
 70
     1
102
RTVSPropertyOp27
 70
     1
102
RTVSPropertyOp28
 70
     1
102
RTVSPropertyOp29
 70
     1
102
RTVSPropertyOp30
 70
     1
102
RTVSPropertyOp31
 70
     1
102
RTVSPropertyOp32
 70
     1
102
RTVSPropertyOp33
 70
     1
102
RTVSPropertyOp34
 70
     1
102
RTVSPropertyOp35
 70
     1
102
RTVSPropertyOp36
 70
     1
102
RTVSPropertyOp37
 70
     1
102
RTVSPropertyOp38
 70
     1
102
RTVSPropertyOp39
 70
     1
102
RTVSPropertyOp40
 70
     1
102
RTVSPropertyOp41
 70
     1
102
RTVSPropertyOp42
 70
     1
102
RTVSPropertyOp43
 70
     1
102
RTVSPropertyOp44
 70
     1
102
RTVSPropertyOp45
 70
     1
102
RTVSPropertyOp46
 70
     1
102
RTVSPropertyOp47
 70
     1
102
RTVSPropertyOp48
 70
     1
102
RTVSPropertyOp49
 70
     1
102
RTVSPropertyOp50
 70
     1
102
RTVSPropertyOp51
 70
     0
102
RTVSPropertyOp52
 70
     0
102
RTVSPropertyOp53
 70
     1
102
RTVSPropertyOp54
 70
     1
102
RTVSPropertyOp55
 70
     1
102
RTVSPropertyOp56
 70
     1
102
RTVSPropertyOp57
 70
     1
102
RTVSPost2010Prop28
280
     0
102
RTVSPost2010PropOp28
 70
     1
102
RTVSPost2010Prop29
280
     1
102
RTVSPost2010PropOp29
 70
     1
102
RTVSPost2010Prop30
280
     1
102
RTVSPost2010PropOp30
 70
     1
102
RTVSPost2010Prop31
280
     0
102
RTVSPost2010PropOp31
 70
     1
102
RTVSPost2010Prop32
280
     0
102
RTVSPost2010PropOp32
 70
     1
102
RTVSPost2010Prop33
280
     0
102
RTVSPost2010PropOp33
 70
     1
102
RTVSPost2010Prop34
280
     0
102
RTVSPost2010PropOp34
 70
     1
102
RTVSPost2010Prop35
280
     0
102
RTVSPost2010PropOp35
 70
     1
102
RTVSPost2010Prop36
280
     0
102
RTVSPost2010PropOp36
 70
     1
102
RTVSPost2010Prop37
 90
       50
102
RTVSPost2010PropOp37
 70
     1
102
RTVSPost2010Prop38
140
0.0
102
RTVSPost2010PropOp38
 70
     1
102
RTVSPost2010Prop39
140
1.0
102
RTVSPost2010PropOp39
 70
     1
102
RTVSPost2010Prop40
 90
        0
102
RTVSPost2010PropOp40
 70
     1
102
RTVSPost2010Prop41ColorIndex
 90
       18
102
RTVSPost2010Prop41ColorRGB
 90
        0
102
RTVSPost2010PropOp41
 70
     1
102
RTVSPost2010Prop42
 90
       50
102
RTVSPost2010PropOp42
 70
     1
102
RTVSPost2010Prop43
 90
        3
102
RTVSPost2010PropOp43
 70
     1
102
RTVSPost2010Prop44ColorIndex
 90
        5
102
RTVSPost2010Prop44ColorRGB
 90
      255
102
RTVSPost2010PropOp44
 70
     1
102
RTVSPost2010Prop45
280
     0
102
RTVSPost2010PropOp45
 70
     1
102
RTVSPost2010Prop46
 90
       50
102
RTVSPost2010PropOp46
 70
     1
102
RTVSPost2010Prop47
 90
       50
102
RTVSPost2010PropOp47
 70
     1
102
RTVSPost2010Prop48
 90
       50
102
RTVSPost2010PropOp48
 70
     1
102
RTVSPost2010Prop49
280
     0
102
RTVSPost2010PropOp49
 70
     1
102
RTVSPost2010Prop50
 90
       50
102
RTVSPost2010PropOp50
 70
     1
102
RTVSPost2010Prop51ColorIndex
 90
      256
102
RTVSPost2010Prop51ColorRGB
 90
-16777216
102
RTVSPost2010PropOp51
 70
     0
102
RTVSPost2010Prop52
140
1.0
102
RTVSPost2010PropOp52
 70
     0
102
RTVSPost2010Prop53
 90
        2
102
RTVSPost2010PropOp53
 70
     1
102
RTVSPost2010Prop54
  1
strokes_ogs.tif
102
RTVSPost2010PropOp54
 70
     1
102
RTVSPost2010Prop55
280
     0
102
RTVSPost2010PropOp55
 70
     1
102
RTVSPost2010Prop56
140
1.0
102
RTVSPost2010PropOp56
 70
     1
102
RTVSPost2010Prop57
140
1.0
102
RTVSPost2010PropOp57
 70
     1
  0
XRECORD
  5
C6
102
{ACAD_REACTORS
330
C5
102
}
330
C5
100
AcDbXrecord
280
     1
102
RTVSPropertyOp0
 70
     1
102
RTVSPropertyOp1
 70
     1
102
RTVSPropertyOp2
 70
     1
102
RTVSPropertyOp3
 70
     1
102
RTVSPropertyOp4
 70
     1
102
RTVSPropertyOp5
 70
     1
102
RTVSPropertyOp6
 70
     1
102
RTVSPropertyOp7
 70
     1
102
RTVSPropertyOp8
 70
     1
102
RTVSPropertyOp9
 70
     1
102
RTVSPropertyOp10
 70
     1
102
RTVSPropertyOp11
 70
     1
102
RTVSPropertyOp12
 70
     1
102
RTVSPropertyOp13
 70
     1
102
RTVSPropertyOp14
 70
     1
102
RTVSPropertyOp15
 70
     1
102
RTVSPropertyOp16
 70
     1
102
RTVSPropertyOp17
 70
     1
102
RTVSPropertyOp18
 70
     1
102
RTVSPropertyOp19
 70
     1
102
RTVSPropertyOp20
 70
     1
102
RTVSPropertyOp21
 70
     1
102
RTVSPropertyOp22
 70
     1
102
RTVSPropertyOp23
 70
     1
102
RTVSPropertyOp24
 70
     1
102
RTVSPropertyOp25
 70
     1
102
RTVSPropertyOp26
 70
     1
102
RTVSPropertyOp27
 70
     1
102
RTVSPropertyOp28
 70
     1
102
RTVSPropertyOp29
 70
     1
102
RTVSPropertyOp30
 70
     1
102
RTVSPropertyOp31
 70
     1
102
RTVSPropertyOp32
 70
     1
102
RTVSPropertyOp33
 70
     1
102
RTVSPropertyOp34
 70
     1
102
RTVSPropertyOp35
 70
     1
102
RTVSPropertyOp36
 70
     1
102
RTVSPropertyOp37
 70
     1
102
RTVSPropertyOp38
 70
     1
102
RTVSPropertyOp39
 70
     1
102
RTVSPropertyOp40
 70
     1
102
RTVSPropertyOp41
 70
     1
102
RTVSPropertyOp42
 70
     1
102
RTVSPropertyOp43
 70
     1
102
RTVSPropertyOp44
 70
     1
102
RTVSPropertyOp45
 70
     1
102
RTVSPropertyOp46
 70
     1
102
RTVSPropertyOp47
 70
     1
102
RTVSPropertyOp48
 70
     1
102
RTVSPropertyOp49
 70
     1
102
RTVSPropertyOp50
 70
     1
102
RTVSPropertyOp51
 70
     0
102
RTVSPropertyOp52
 70
     0
102
RTVSPropertyOp53
 70
     1
102
RTVSPropertyOp54
 70
     1
102
RTVSPropertyOp55
 70
     1
102
RTVSPropertyOp56
 70
     1
102
RTVSPropertyOp57
 70
     1
102
RTVSPost2010Prop28
280
     0
102
RTVSPost2010PropOp28
 70
     1
102
RTVSPost2010Prop29
280
     1
102
RTVSPost2010PropOp29
 70
     1
102
RTVSPost2010Prop30
280
     1
102
RTVSPost2010PropOp30
 70
     1
102
RTVSPost2010Prop31
280
     0
102
RTVSPost2010PropOp31
 70
     1
102
RTVSPost2010Prop32
280
     0
102
RTVSPost2010PropOp32
 70
     1
102
RTVSPost2010Prop33
280
     0
102
RTVSPost2010PropOp33
 70
     1
102
RTVSPost2010Prop34
280
     0
102
RTVSPost2010PropOp34
 70
     1
102
RTVSPost2010Prop35
280
     0
102
RTVSPost2010PropOp35
 70
     1
102
RTVSPost2010Prop36
280
     0
102
RTVSPost2010PropOp36
 70
     1
102
RTVSPost2010Prop37
 90
       50
102
RTVSPost2010PropOp37
 70
     1
102
RTVSPost2010Prop38
140
0.0
102
RTVSPost2010PropOp38
 70
     1
102
RTVSPost2010Prop39
140
1.0
102
RTVSPost2010PropOp39
 70
     1
102
RTVSPost2010Prop40
 90
        0
102
RTVSPost2010PropOp40
 70
     1
102
RTVSPost2010Prop41ColorIndex
 90
       18
102
RTVSPost2010Prop41ColorRGB
 90
        0
102
RTVSPost2010PropOp41
 70
     1
102
RTVSPost2010Prop42
 90
       50
102
RTVSPost2010PropOp42
 70
     1
102
RTVSPost2010Prop43
 90
        3
102
RTVSPost2010PropOp43
 70
     1
102
RTVSPost2010Prop44ColorIndex
 90
        5
102
RTVSPost2010Prop44ColorRGB
 90
      255
102
RTVSPost2010PropOp44
 70
     1
102
RTVSPost2010Prop45
280
     0
102
RTVSPost2010PropOp45
 70
     1
102
RTVSPost2010Prop46
 90
       50
102
RTVSPost2010PropOp46
 70
     1
102
RTVSPost2010Prop47
 90
       50
102
RTVSPost2010PropOp47
 70
     1
102
RTVSPost2010Prop48
 90
       50
102
RTVSPost2010PropOp48
 70
     1
102
RTVSPost2010Prop49
280
     0
102
RTVSPost2010PropOp49
 70
     1
102
RTVSPost2010Prop50
 90
       50
102
RTVSPost2010PropOp50
 70
     1
102
RTVSPost2010Prop51ColorIndex
 90
      256
102
RTVSPost2010Prop51ColorRGB
 90
-16777216
102
RTVSPost2010PropOp51
 70
     0
102
RTVSPost2010Prop52
140
1.0
102
RTVSPost2010PropOp52
 70
     0
102
RTVSPost2010Prop53
 90
        2
102
RTVSPost2010PropOp53
 70
     1
102
RTVSPost2010Prop54
  1
strokes_ogs.tif
102
RTVSPost2010PropOp54
 70
     1
102
RTVSPost2010Prop55
280
     0
102
RTVSPost2010PropOp55
 70
     1
102
RTVSPost2010Prop56
140
1.0
102
RTVSPost2010PropOp56
 70
     1
102
RTVSPost2010Prop57
140
1.0
102
RTVSPost2010PropOp57
 70
     1
  0
XRECORD
  5
C8
102
{ACAD_REACTORS
330
C7
102
}
330
C7
100
AcDbXrecord
280
     1
102
RTVSPropertyOp0
 70
     1
102
RTVSPropertyOp1
 70
     1
102
RTVSPropertyOp2
 70
     1
102
RTVSPropertyOp3
 70
     1
102
RTVSPropertyOp4
 70
     1
102
RTVSPropertyOp5
 70
     1
102
RTVSPropertyOp6
 70
     1
102
RTVSPropertyOp7
 70
     1
102
RTVSPropertyOp8
 70
     1
102
RTVSPropertyOp9
 70
     1
102
RTVSPropertyOp10
 70
     1
102
RTVSPropertyOp11
 70
     1
102
RTVSPropertyOp12
 70
     1
102
RTVSPropertyOp13
 70
     1
102
RTVSPropertyOp14
 70
     1
102
RTVSPropertyOp15
 70
     1
102
RTVSPropertyOp16
 70
     1
102
RTVSPropertyOp17
 70
     1
102
RTVSPropertyOp18
 70
     1
102
RTVSPropertyOp19
 70
     1
102
RTVSPropertyOp20
 70
     1
102
RTVSPropertyOp21
 70
     1
102
RTVSPropertyOp22
 70
     1
102
RTVSPropertyOp23
 70
     1
102
RTVSPropertyOp24
 70
     1
102
RTVSPropertyOp25
 70
     1
102
RTVSPropertyOp26
 70
     1
102
RTVSPropertyOp27
 70
     1
102
RTVSPropertyOp28
 70
     1
102
RTVSPropertyOp29
 70
     1
102
RTVSPropertyOp30
 70
     1
102
RTVSPropertyOp31
 70
     1
102
RTVSPropertyOp32
 70
     1
102
RTVSPropertyOp33
 70
     1
102
RTVSPropertyOp34
 70
     1
102
RTVSPropertyOp35
 70
     1
102
RTVSPropertyOp36
 70
     1
102
RTVSPropertyOp37
 70
     1
102
RTVSPropertyOp38
 70
     1
102
RTVSPropertyOp39
 70
     1
102
RTVSPropertyOp40
 70
     1
102
RTVSPropertyOp41
 70
     1
102
RTVSPropertyOp42
 70
     1
102
RTVSPropertyOp43
 70
     1
102
RTVSPropertyOp44
 70
     1
102
RTVSPropertyOp45
 70
     1
102
RTVSPropertyOp46
 70
     1
102
RTVSPropertyOp47
 70
     1
102
RTVSPropertyOp48
 70
     1
102
RTVSPropertyOp49
 70
     1
102
RTVSPropertyOp50
 70
     1
102
RTVSPropertyOp51
 70
     0
102
RTVSPropertyOp52
 70
     0
102
RTVSPropertyOp53
 70
     1
102
RTVSPropertyOp54
 70
     1
102
RTVSPropertyOp55
 70
     1
102
RTVSPropertyOp56
 70
     1
102
RTVSPropertyOp57
 70
     1
102
RTVSPost2010Prop28
280
     0
102
RTVSPost2010PropOp28
 70
     1
102
RTVSPost2010Prop29
280
     1
102
RTVSPost2010PropOp29
 70
     1
102
RTVSPost2010Prop30
280
     1
102
RTVSPost2010PropOp30
 70
     1
102
RTVSPost2010Prop31
280
     0
102
RTVSPost2010PropOp31
 70
     1
102
RTVSPost2010Prop32
280
     0
102
RTVSPost2010PropOp32
 70
     1
102
RTVSPost2010Prop33
280
     0
102
RTVSPost2010PropOp33
 70
     1
102
RTVSPost2010Prop34
280
     0
102
RTVSPost2010PropOp34
 70
     1
102
RTVSPost2010Prop35
280
     0
102
RTVSPost2010PropOp35
 70
     1
102
RTVSPost2010Prop36
280
     0
102
RTVSPost2010PropOp36
 70
     1
102
RTVSPost2010Prop37
 90
       50
102
RTVSPost2010PropOp37
 70
     1
102
RTVSPost2010Prop38
140
0.0
102
RTVSPost2010PropOp38
 70
     1
102
RTVSPost2010Prop39
140
1.0
102
RTVSPost2010PropOp39
 70
     1
102
RTVSPost2010Prop40
 90
        0
102
RTVSPost2010PropOp40
 70
     1
102
RTVSPost2010Prop41ColorIndex
 90
       18
102
RTVSPost2010Prop41ColorRGB
 90
        0
102
RTVSPost2010PropOp41
 70
     1
102
RTVSPost2010Prop42
 90
       50
102
RTVSPost2010PropOp42
 70
     1
102
RTVSPost2010Prop43
 90
        3
102
RTVSPost2010PropOp43
 70
     1
102
RTVSPost2010Prop44ColorIndex
 90
        5
102
RTVSPost2010Prop44ColorRGB
 90
      255
102
RTVSPost2010PropOp44
 70
     1
102
RTVSPost2010Prop45
280
     0
102
RTVSPost2010PropOp45
 70
     1
102
RTVSPost2010Prop46
 90
       50
102
RTVSPost2010PropOp46
 70
     1
102
RTVSPost2010Prop47
 90
       50
102
RTVSPost2010PropOp47
 70
     1
102
RTVSPost2010Prop48
 90
       50
102
RTVSPost2010PropOp48
 70
     1
102
RTVSPost2010Prop49
280
     0
102
RTVSPost2010PropOp49
 70
     1
102
RTVSPost2010Prop50
 90
       50
102
RTVSPost2010PropOp50
 70
     1
102
RTVSPost2010Prop51ColorIndex
 90
      256
102
RTVSPost2010Prop51ColorRGB
 90
-16777216
102
RTVSPost2010PropOp51
 70
     0
102
RTVSPost2010Prop52
140
1.0
102
RTVSPost2010PropOp52
 70
     0
102
RTVSPost2010Prop53
 90
        2
102
RTVSPost2010PropOp53
 70
     1
102
RTVSPost2010Prop54
  1
strokes_ogs.tif
102
RTVSPost2010PropOp54
 70
     1
102
RTVSPost2010Prop55
280
     0
102
RTVSPost2010PropOp55
 70
     1
102
RTVSPost2010Prop56
140
1.0
102
RTVSPost2010PropOp56
 70
     1
102
RTVSPost2010Prop57
140
1.0
102
RTVSPost2010PropOp57
 70
     1
  0
XRECORD
  5
CA
102
{ACAD_REACTORS
330
C9
102
}
330
C9
100
AcDbXrecord
280
     1
102
RTVSPropertyOp0
 70
     1
102
RTVSPropertyOp1
 70
     1
102
RTVSPropertyOp2
 70
     1
102
RTVSPropertyOp3
 70
     1
102
RTVSPropertyOp4
 70
     1
102
RTVSPropertyOp5
 70
     1
102
RTVSPropertyOp6
 70
     1
102
RTVSPropertyOp7
 70
     1
102
RTVSPropertyOp8
 70
     1
102
RTVSPropertyOp9
 70
     1
102
RTVSPropertyOp10
 70
     1
102
RTVSPropertyOp11
 70
     1
102
RTVSPropertyOp12
 70
     1
102
RTVSPropertyOp13
 70
     1
102
RTVSPropertyOp14
 70
     1
102
RTVSPropertyOp15
 70
     1
102
RTVSPropertyOp16
 70
     1
102
RTVSPropertyOp17
 70
     1
102
RTVSPropertyOp18
 70
     1
102
RTVSPropertyOp19
 70
     1
102
RTVSPropertyOp20
 70
     1
102
RTVSPropertyOp21
 70
     1
102
RTVSPropertyOp22
 70
     1
102
RTVSPropertyOp23
 70
     1
102
RTVSPropertyOp24
 70
     1
102
RTVSPropertyOp25
 70
     1
102
RTVSPropertyOp26
 70
     1
102
RTVSPropertyOp27
 70
     1
102
RTVSPropertyOp28
 70
     1
102
RTVSPropertyOp29
 70
     1
102
RTVSPropertyOp30
 70
     1
102
RTVSPropertyOp31
 70
     1
102
RTVSPropertyOp32
 70
     1
102
RTVSPropertyOp33
 70
     1
102
RTVSPropertyOp34
 70
     1
102
RTVSPropertyOp35
 70
     1
102
RTVSPropertyOp36
 70
     1
102
RTVSPropertyOp37
 70
     1
102
RTVSPropertyOp38
 70
     1
102
RTVSPropertyOp39
 70
     1
102
RTVSPropertyOp40
 70
     1
102
RTVSPropertyOp41
 70
     1
102
RTVSPropertyOp42
 70
     1
102
RTVSPropertyOp43
 70
     1
102
RTVSPropertyOp44
 70
     1
102
RTVSPropertyOp45
 70
     1
102
RTVSPropertyOp46
 70
     1
102
RTVSPropertyOp47
 70
     1
102
RTVSPropertyOp48
 70
     1
102
RTVSPropertyOp49
 70
     1
102
RTVSPropertyOp50
 70
     1
102
RTVSPropertyOp51
 70
     0
102
RTVSPropertyOp52
 70
     0
102
RTVSPropertyOp53
 70
     1
102
RTVSPropertyOp54
 70
     1
102
RTVSPropertyOp55
 70
     1
102
RTVSPropertyOp56
 70
     1
102
RTVSPropertyOp57
 70
     1
102
RTVSPost2010Prop28
280
     0
102
RTVSPost2010PropOp28
 70
     1
102
RTVSPost2010Prop29
280
     1
102
RTVSPost2010PropOp29
 70
     1
102
RTVSPost2010Prop30
280
     1
102
RTVSPost2010PropOp30
 70
     1
102
RTVSPost2010Prop31
280
     0
102
RTVSPost2010PropOp31
 70
     1
102
RTVSPost2010Prop32
280
     0
102
RTVSPost2010PropOp32
 70
     1
102
RTVSPost2010Prop33
280
     0
102
RTVSPost2010PropOp33
 70
     1
102
RTVSPost2010Prop34
280
     0
102
RTVSPost2010PropOp34
 70
     1
102
RTVSPost2010Prop35
280
     0
102
RTVSPost2010PropOp35
 70
     1
102
RTVSPost2010Prop36
280
     0
102
RTVSPost2010PropOp36
 70
     1
102
RTVSPost2010Prop37
 90
       50
102
RTVSPost2010PropOp37
 70
     1
102
RTVSPost2010Prop38
140
0.0
102
RTVSPost2010PropOp38
 70
     1
102
RTVSPost2010Prop39
140
1.0
102
RTVSPost2010PropOp39
 70
     1
102
RTVSPost2010Prop40
 90
        0
102
RTVSPost2010PropOp40
 70
     1
102
RTVSPost2010Prop41ColorIndex
 90
       18
102
RTVSPost2010Prop41ColorRGB
 90
        0
102
RTVSPost2010PropOp41
 70
     1
102
RTVSPost2010Prop42
 90
       50
102
RTVSPost2010PropOp42
 70
     1
102
RTVSPost2010Prop43
 90
        3
102
RTVSPost2010PropOp43
 70
     1
102
RTVSPost2010Prop44ColorIndex
 90
        5
102
RTVSPost2010Prop44ColorRGB
 90
      255
102
RTVSPost2010PropOp44
 70
     1
102
RTVSPost2010Prop45
280
     0
102
RTVSPost2010PropOp45
 70
     1
102
RTVSPost2010Prop46
 90
       50
102
RTVSPost2010PropOp46
 70
     1
102
RTVSPost2010Prop47
 90
       50
102
RTVSPost2010PropOp47
 70
     1
102
RTVSPost2010Prop48
 90
       50
102
RTVSPost2010PropOp48
 70
     1
102
RTVSPost2010Prop49
280
     0
102
RTVSPost2010PropOp49
 70
     1
102
RTVSPost2010Prop50
 90
       50
102
RTVSPost2010PropOp50
 70
     1
102
RTVSPost2010Prop51ColorIndex
 90
      256
102
RTVSPost2010Prop51ColorRGB
 90
-16777216
102
RTVSPost2010PropOp51
 70
     0
102
RTVSPost2010Prop52
140
1.0
102
RTVSPost2010PropOp52
 70
     0
102
RTVSPost2010Prop53
 90
        2
102
RTVSPost2010PropOp53
 70
     1
102
RTVSPost2010Prop54
  1
strokes_ogs.tif
102
RTVSPost2010PropOp54
 70
     1
102
RTVSPost2010Prop55
280
     0
102
RTVSPost2010PropOp55
 70
     1
102
RTVSPost2010Prop56
140
1.0
102
RTVSPost2010PropOp56
 70
     1
102
RTVSPost2010Prop57
140
1.0
102
RTVSPost2010PropOp57
 70
     1
  0
XRECORD
  5
D0
102
{ACAD_REACTORS
330
CF
102
}
330
CF
100
AcDbXrecord
280
     1
102
RTVSPropertyOp0
 70
     1
102
RTVSPropertyOp1
 70
     1
102
RTVSPropertyOp2
 70
     1
102
RTVSPropertyOp3
 70
     1
102
RTVSPropertyOp4
 70
     1
102
RTVSPropertyOp5
 70
     1
102
RTVSPropertyOp6
 70
     1
102
RTVSPropertyOp7
 70
     1
102
RTVSPropertyOp8
 70
     1
102
RTVSPropertyOp9
 70
     1
102
RTVSPropertyOp10
 70
     1
102
RTVSPropertyOp11
 70
     1
102
RTVSPropertyOp12
 70
     1
102
RTVSPropertyOp13
 70
     1
102
RTVSPropertyOp14
 70
     1
102
RTVSPropertyOp15
 70
     1
102
RTVSPropertyOp16
 70
     1
102
RTVSPropertyOp17
 70
     1
102
RTVSPropertyOp18
 70
     1
102
RTVSPropertyOp19
 70
     1
102
RTVSPropertyOp20
 70
     1
102
RTVSPropertyOp21
 70
     1
102
RTVSPropertyOp22
 70
     1
102
RTVSPropertyOp23
 70
     1
102
RTVSPropertyOp24
 70
     1
102
RTVSPropertyOp25
 70
     1
102
RTVSPropertyOp26
 70
     1
102
RTVSPropertyOp27
 70
     1
102
RTVSPropertyOp28
 70
     1
102
RTVSPropertyOp29
 70
     1
102
RTVSPropertyOp30
 70
     1
102
RTVSPropertyOp31
 70
     1
102
RTVSPropertyOp32
 70
     1
102
RTVSPropertyOp33
 70
     1
102
RTVSPropertyOp34
 70
     1
102
RTVSPropertyOp35
 70
     1
102
RTVSPropertyOp36
 70
     1
102
RTVSPropertyOp37
 70
     1
102
RTVSPropertyOp38
 70
     1
102
RTVSPropertyOp39
 70
     1
102
RTVSPropertyOp40
 70
     1
102
RTVSPropertyOp41
 70
     1
102
RTVSPropertyOp42
 70
     1
102
RTVSPropertyOp43
 70
     1
102
RTVSPropertyOp44
 70
     1
102
RTVSPropertyOp45
 70
     1
102
RTVSPropertyOp46
 70
     1
102
RTVSPropertyOp47
 70
     1
102
RTVSPropertyOp48
 70
     1
102
RTVSPropertyOp49
 70
     1
102
RTVSPropertyOp50
 70
     1
102
RTVSPropertyOp51
 70
     0
102
RTVSPropertyOp52
 70
     0
102
RTVSPropertyOp53
 70
     1
102
RTVSPropertyOp54
 70
     1
102
RTVSPropertyOp55
 70
     1
102
RTVSPropertyOp56
 70
     1
102
RTVSPropertyOp57
 70
     1
102
RTVSPost2010Prop28
280
     0
102
RTVSPost2010PropOp28
 70
     1
102
RTVSPost2010Prop29
280
     1
102
RTVSPost2010PropOp29
 70
     1
102
RTVSPost2010Prop30
280
     1
102
RTVSPost2010PropOp30
 70
     1
102
RTVSPost2010Prop31
280
     0
102
RTVSPost2010PropOp31
 70
     1
102
RTVSPost2010Prop32
280
     0
102
RTVSPost2010PropOp32
 70
     1
102
RTVSPost2010Prop33
280
     0
102
RTVSPost2010PropOp33
 70
     1
102
RTVSPost2010Prop34
280
     0
102
RTVSPost2010PropOp34
 70
     1
102
RTVSPost2010Prop35
280
     0
102
RTVSPost2010PropOp35
 70
     1
102
RTVSPost2010Prop36
280
     0
102
RTVSPost2010PropOp36
 70
     1
102
RTVSPost2010Prop37
 90
       50
102
RTVSPost2010PropOp37
 70
     1
102
RTVSPost2010Prop38
140
0.0
102
RTVSPost2010PropOp38
 70
     1
102
RTVSPost2010Prop39
140
1.0
102
RTVSPost2010PropOp39
 70
     1
102
RTVSPost2010Prop40
 90
        0
102
RTVSPost2010PropOp40
 70
     1
102
RTVSPost2010Prop41ColorIndex
 90
       18
102
RTVSPost2010Prop41ColorRGB
 90
        0
102
RTVSPost2010PropOp41
 70
     1
102
RTVSPost2010Prop42
 90
       50
102
RTVSPost2010PropOp42
 70
     1
102
RTVSPost2010Prop43
 90
        3
102
RTVSPost2010PropOp43
 70
     1
102
RTVSPost2010Prop44ColorIndex
 90
        5
102
RTVSPost2010Prop44ColorRGB
 90
      255
102
RTVSPost2010PropOp44
 70
     1
102
RTVSPost2010Prop45
280
     0
102
RTVSPost2010PropOp45
 70
     1
102
RTVSPost2010Prop46
 90
       50
102
RTVSPost2010PropOp46
 70
     1
102
RTVSPost2010Prop47
 90
       50
102
RTVSPost2010PropOp47
 70
     1
102
RTVSPost2010Prop48
 90
       50
102
RTVSPost2010PropOp48
 70
     1
102
RTVSPost2010Prop49
280
     0
102
RTVSPost2010PropOp49
 70
     1
102
RTVSPost2010Prop50
 90
       50
102
RTVSPost2010PropOp50
 70
     1
102
RTVSPost2010Prop51ColorIndex
 90
      256
102
RTVSPost2010Prop51ColorRGB
 90
-16777216
102
RTVSPost2010PropOp51
 70
     0
102
RTVSPost2010Prop52
140
1.0
102
RTVSPost2010PropOp52
 70
     0
102
RTVSPost2010Prop53
 90
        2
102
RTVSPost2010PropOp53
 70
     1
102
RTVSPost2010Prop54
  1
strokes_ogs.tif
102
RTVSPost2010PropOp54
 70
     1
102
RTVSPost2010Prop55
280
     0
102
RTVSPost2010PropOp55
 70
     1
102
RTVSPost2010Prop56
140
1.0
102
RTVSPost2010PropOp56
 70
     1
102
RTVSPost2010Prop57
140
1.0
102
RTVSPost2010PropOp57
 70
     1
  0
XRECORD
  5
E4
102
{ACAD_REACTORS
330
E3
102
}
330
E3
100
AcDbXrecord
280
     1
102
RTVSPropertyOp0
 70
     0
102
RTVSPropertyOp1
 70
     0
102
RTVSPropertyOp2
 70
     0
102
RTVSPropertyOp3
 70
     0
102
RTVSPropertyOp4
 70
     0
102
RTVSPropertyOp5
 70
     0
102
RTVSPropertyOp6
 70
     0
102
RTVSPropertyOp7
 70
     0
102
RTVSPropertyOp8
 70
     0
102
RTVSPropertyOp9
 70
     0
102
RTVSPropertyOp10
 70
     0
102
RTVSPropertyOp11
 70
     0
102
RTVSPropertyOp12
 70
     0
102
RTVSPropertyOp13
 70
     0
102
RTVSPropertyOp14
 70
     2
102
RTVSPropertyOp15
 70
     0
102
RTVSPropertyOp16
 70
     0
102
RTVSPropertyOp17
 70
     0
102
RTVSPropertyOp18
 70
     0
102
RTVSPropertyOp19
 70
     0
102
RTVSPropertyOp20
 70
     0
102
RTVSPropertyOp21
 70
     0
102
RTVSPropertyOp22
 70
     0
102
RTVSPropertyOp23
 70
     0
102
RTVSPropertyOp24
 70
     0
102
RTVSPropertyOp25
 70
     0
102
RTVSPropertyOp26
 70
     0
102
RTVSPropertyOp27
 70
     0
102
RTVSPropertyOp28
 70
     0
102
RTVSPropertyOp29
 70
     0
102
RTVSPropertyOp30
 70
     0
102
RTVSPropertyOp31
 70
     0
102
RTVSPropertyOp32
 70
     0
102
RTVSPropertyOp33
 70
     0
102
RTVSPropertyOp34
 70
     0
102
RTVSPropertyOp35
 70
     0
102
RTVSPropertyOp36
 70
     0
102
RTVSPropertyOp37
 70
     0
102
RTVSPropertyOp38
 70
     0
102
RTVSPropertyOp39
 70
     0
102
RTVSPropertyOp40
 70
     0
102
RTVSPropertyOp41
 70
     0
102
RTVSPropertyOp42
 70
     0
102
RTVSPropertyOp43
 70
     0
102
RTVSPropertyOp44
 70
     0
102
RTVSPropertyOp45
 70
     0
102
RTVSPropertyOp46
 70
     0
102
RTVSPropertyOp47
 70
     0
102
RTVSPropertyOp48
 70
     0
102
RTVSPropertyOp49
 70
     0
102
RTVSPropertyOp50
 70
     0
102
RTVSPropertyOp51
 70
     0
102
RTVSPropertyOp52
 70
     0
102
RTVSPropertyOp53
 70
     0
102
RTVSPropertyOp54
 70
     0
102
RTVSPropertyOp55
 70
     0
102
RTVSPropertyOp56
 70
     0
102
RTVSPropertyOp57
 70
     0
102
RTVSPost2010Prop28
280
     0
102
RTVSPost2010PropOp28
 70
     0
102
RTVSPost2010Prop29
280
     1
102
RTVSPost2010PropOp29
 70
     0
102
RTVSPost2010Prop30
280
     1
102
RTVSPost2010PropOp30
 70
     0
102
RTVSPost2010Prop31
280
     0
102
RTVSPost2010PropOp31
 70
     0
102
RTVSPost2010Prop32
280
     0
102
RTVSPost2010PropOp32
 70
     0
102
RTVSPost2010Prop33
280
     0
102
RTVSPost2010PropOp33
 70
     0
102
RTVSPost2010Prop34
280
     0
102
RTVSPost2010PropOp34
 70
     0
102
RTVSPost2010Prop35
280
     0
102
RTVSPost2010PropOp35
 70
     0
102
RTVSPost2010Prop36
280
     0
102
RTVSPost2010PropOp36
 70
     0
102
RTVSPost2010Prop37
 90
       50
102
RTVSPost2010PropOp37
 70
     0
102
RTVSPost2010Prop38
140
0.0
102
RTVSPost2010PropOp38
 70
     0
102
RTVSPost2010Prop39
140
1.0
102
RTVSPost2010PropOp39
 70
     0
102
RTVSPost2010Prop40
 90
        0
102
RTVSPost2010PropOp40
 70
     0
102
RTVSPost2010Prop41ColorIndex
 90
       18
102
RTVSPost2010Prop41ColorRGB
 90
        0
102
RTVSPost2010PropOp41
 70
     0
102
RTVSPost2010Prop42
 90
       50
102
RTVSPost2010PropOp42
 70
     0
102
RTVSPost2010Prop43
 90
        3
102
RTVSPost2010PropOp43
 70
     0
102
RTVSPost2010Prop44ColorIndex
 90
        5
102
RTVSPost2010Prop44ColorRGB
 90
      255
102
RTVSPost2010PropOp44
 70
     0
102
RTVSPost2010Prop45
280
     0
102
RTVSPost2010PropOp45
 70
     0
102
RTVSPost2010Prop46
 90
       50
102
RTVSPost2010PropOp46
 70
     0
102
RTVSPost2010Prop47
 90
       50
102
RTVSPost2010PropOp47
 70
     0
102
RTVSPost2010Prop48
 90
       50
102
RTVSPost2010PropOp48
 70
     0
102
RTVSPost2010Prop49
280
     0
102
RTVSPost2010PropOp49
 70
     0
102
RTVSPost2010Prop50
 90
       50
102
RTVSPost2010PropOp50
 70
     0
102
RTVSPost2010Prop51ColorIndex
 90
      256
102
RTVSPost2010Prop51ColorRGB
 90
-16777216
102
RTVSPost2010PropOp51
 70
     0
102
RTVSPost2010Prop52
140
1.0
102
RTVSPost2010PropOp52
 70
     0
102
RTVSPost2010Prop53
 90
        2
102
RTVSPost2010PropOp53
 70
     0
102
RTVSPost2010Prop54
  1
strokes_ogs.tif
102
RTVSPost2010PropOp54
 70
     0
102
RTVSPost2010Prop55
280
     0
102
RTVSPost2010PropOp55
 70
     0
102
RTVSPost2010Prop56
140
1.0
102
RTVSPost2010PropOp56
 70
     0
102
RTVSPost2010Prop57
140
1.0
102
RTVSPost2010PropOp57
 70
     0
  0
XRECORD
  5
DE
102
{ACAD_REACTORS
330
DD
102
}
330
DD
100
AcDbXrecord
280
     1
102
RTVSPropertyOp0
 70
     1
102
RTVSPropertyOp1
 70
     1
102
RTVSPropertyOp2
 70
     1
102
RTVSPropertyOp3
 70
     1
102
RTVSPropertyOp4
 70
     1
102
RTVSPropertyOp5
 70
     1
102
RTVSPropertyOp6
 70
     1
102
RTVSPropertyOp7
 70
     1
102
RTVSPropertyOp8
 70
     1
102
RTVSPropertyOp9
 70
     1
102
RTVSPropertyOp10
 70
     1
102
RTVSPropertyOp11
 70
     1
102
RTVSPropertyOp12
 70
     1
102
RTVSPropertyOp13
 70
     1
102
RTVSPropertyOp14
 70
     1
102
RTVSPropertyOp15
 70
     1
102
RTVSPropertyOp16
 70
     1
102
RTVSPropertyOp17
 70
     1
102
RTVSPropertyOp18
 70
     1
102
RTVSPropertyOp19
 70
     1
102
RTVSPropertyOp20
 70
     1
102
RTVSPropertyOp21
 70
     1
102
RTVSPropertyOp22
 70
     1
102
RTVSPropertyOp23
 70
     1
102
RTVSPropertyOp24
 70
     1
102
RTVSPropertyOp25
 70
     1
102
RTVSPropertyOp26
 70
     1
102
RTVSPropertyOp27
 70
     1
102
RTVSPropertyOp28
 70
     1
102
RTVSPropertyOp29
 70
     1
102
RTVSPropertyOp30
 70
     1
102
RTVSPropertyOp31
 70
     1
102
RTVSPropertyOp32
 70
     1
102
RTVSPropertyOp33
 70
     1
102
RTVSPropertyOp34
 70
     1
102
RTVSPropertyOp35
 70
     1
102
RTVSPropertyOp36
 70
     1
102
RTVSPropertyOp37
 70
     1
102
RTVSPropertyOp38
 70
     1
102
RTVSPropertyOp39
 70
     1
102
RTVSPropertyOp40
 70
     1
102
RTVSPropertyOp41
 70
     1
102
RTVSPropertyOp42
 70
     1
102
RTVSPropertyOp43
 70
     1
102
RTVSPropertyOp44
 70
     1
102
RTVSPropertyOp45
 70
     1
102
RTVSPropertyOp46
 70
     1
102
RTVSPropertyOp47
 70
     1
102
RTVSPropertyOp48
 70
     1
102
RTVSPropertyOp49
 70
     1
102
RTVSPropertyOp50
 70
     1
102
RTVSPropertyOp51
 70
     0
102
RTVSPropertyOp52
 70
     0
102
RTVSPropertyOp53
 70
     1
102
RTVSPropertyOp54
 70
     1
102
RTVSPropertyOp55
 70
     1
102
RTVSPropertyOp56
 70
     1
102
RTVSPropertyOp57
 70
     1
102
RTVSPost2010Prop28
280
     0
102
RTVSPost2010PropOp28
 70
     1
102
RTVSPost2010Prop29
280
     1
102
RTVSPost2010PropOp29
 70
     1
102
RTVSPost2010Prop30
280
     1
102
RTVSPost2010PropOp30
 70
     1
102
RTVSPost2010Prop31
280
     0
102
RTVSPost2010PropOp31
 70
     1
102
RTVSPost2010Prop32
280
     0
102
RTVSPost2010PropOp32
 70
     1
102
RTVSPost2010Prop33
280
     0
102
RTVSPost2010PropOp33
 70
     1
102
RTVSPost2010Prop34
280
     0
102
RTVSPost2010PropOp34
 70
     1
102
RTVSPost2010Prop35
280
     0
102
RTVSPost2010PropOp35
 70
     1
102
RTVSPost2010Prop36
280
     0
102
RTVSPost2010PropOp36
 70
     1
102
RTVSPost2010Prop37
 90
       50
102
RTVSPost2010PropOp37
 70
     1
102
RTVSPost2010Prop38
140
0.0
102
RTVSPost2010PropOp38
 70
     1
102
RTVSPost2010Prop39
140
1.0
102
RTVSPost2010PropOp39
 70
     1
102
RTVSPost2010Prop40
 90
        0
102
RTVSPost2010PropOp40
 70
     1
102
RTVSPost2010Prop41ColorIndex
 90
       18
102
RTVSPost2010Prop41ColorRGB
 90
        0
102
RTVSPost2010PropOp41
 70
     1
102
RTVSPost2010Prop42
 90
       50
102
RTVSPost2010PropOp42
 70
     1
102
RTVSPost2010Prop43
 90
        3
102
RTVSPost2010PropOp43
 70
     1
102
RTVSPost2010Prop44ColorIndex
 90
        5
102
RTVSPost2010Prop44ColorRGB
 90
      255
102
RTVSPost2010PropOp44
 70
     1
102
RTVSPost2010Prop45
280
     0
102
RTVSPost2010PropOp45
 70
     1
102
RTVSPost2010Prop46
 90
       50
102
RTVSPost2010PropOp46
 70
     1
102
RTVSPost2010Prop47
 90
       50
102
RTVSPost2010PropOp47
 70
     1
102
RTVSPost2010Prop48
 90
       50
102
RTVSPost2010PropOp48
 70
     1
102
RTVSPost2010Prop49
280
     0
102
RTVSPost2010PropOp49
 70
     1
102
RTVSPost2010Prop50
 90
       50
102
RTVSPost2010PropOp50
 70
     1
102
RTVSPost2010Prop51ColorIndex
 90
      256
102
RTVSPost2010Prop51ColorRGB
 90
-16777216
102
RTVSPost2010PropOp51
 70
     0
102
RTVSPost2010Prop52
140
1.0
102
RTVSPost2010PropOp52
 70
     0
102
RTVSPost2010Prop53
 90
        2
102
RTVSPost2010PropOp53
 70
     1
102
RTVSPost2010Prop54
  1
strokes_ogs.tif
102
RTVSPost2010PropOp54
 70
     1
102
RTVSPost2010Prop55
280
     0
102
RTVSPost2010PropOp55
 70
     1
102
RTVSPost2010Prop56
140
1.0
102
RTVSPost2010PropOp56
 70
     1
102
RTVSPost2010Prop57
140
1.0
102
RTVSPost2010PropOp57
 70
     1
  0
XRECORD
  5
E6
102
{ACAD_REACTORS
330
E5
102
}
330
E5
100
AcDbXrecord
280
     1
102
RTVSPropertyOp0
 70
     0
102
RTVSPropertyOp1
 70
     0
102
RTVSPropertyOp2
 70
     0
102
RTVSPropertyOp3
 70
     0
102
RTVSPropertyOp4
 70
     0
102
RTVSPropertyOp5
 70
     0
102
RTVSPropertyOp6
 70
     0
102
RTVSPropertyOp7
 70
     0
102
RTVSPropertyOp8
 70
     0
102
RTVSPropertyOp9
 70
     0
102
RTVSPropertyOp10
 70
     0
102
RTVSPropertyOp11
 70
     0
102
RTVSPropertyOp12
 70
     0
102
RTVSPropertyOp13
 70
     0
102
RTVSPropertyOp14
 70
     2
102
RTVSPropertyOp15
 70
     0
102
RTVSPropertyOp16
 70
     0
102
RTVSPropertyOp17
 70
     0
102
RTVSPropertyOp18
 70
     0
102
RTVSPropertyOp19
 70
     0
102
RTVSPropertyOp20
 70
     0
102
RTVSPropertyOp21
 70
     0
102
RTVSPropertyOp22
 70
     0
102
RTVSPropertyOp23
 70
     0
102
RTVSPropertyOp24
 70
     0
102
RTVSPropertyOp25
 70
     0
102
RTVSPropertyOp26
 70
     0
102
RTVSPropertyOp27
 70
     0
102
RTVSPropertyOp28
 70
     0
102
RTVSPropertyOp29
 70
     0
102
RTVSPropertyOp30
 70
     0
102
RTVSPropertyOp31
 70
     0
102
RTVSPropertyOp32
 70
     0
102
RTVSPropertyOp33
 70
     0
102
RTVSPropertyOp34
 70
     0
102
RTVSPropertyOp35
 70
     0
102
RTVSPropertyOp36
 70
     0
102
RTVSPropertyOp37
 70
     0
102
RTVSPropertyOp38
 70
     0
102
RTVSPropertyOp39
 70
     0
102
RTVSPropertyOp40
 70
     0
102
RTVSPropertyOp41
 70
     0
102
RTVSPropertyOp42
 70
     0
102
RTVSPropertyOp43
 70
     0
102
RTVSPropertyOp44
 70
     0
102
RTVSPropertyOp45
 70
     0
102
RTVSPropertyOp46
 70
     0
102
RTVSPropertyOp47
 70
     0
102
RTVSPropertyOp48
 70
     0
102
RTVSPropertyOp49
 70
     0
102
RTVSPropertyOp50
 70
     0
102
RTVSPropertyOp51
 70
     0
102
RTVSPropertyOp52
 70
     0
102
RTVSPropertyOp53
 70
     0
102
RTVSPropertyOp54
 70
     0
102
RTVSPropertyOp55
 70
     0
102
RTVSPropertyOp56
 70
     0
102
RTVSPropertyOp57
 70
     0
102
RTVSPost2010Prop28
280
     0
102
RTVSPost2010PropOp28
 70
     0
102
RTVSPost2010Prop29
280
     1
102
RTVSPost2010PropOp29
 70
     0
102
RTVSPost2010Prop30
280
     1
102
RTVSPost2010PropOp30
 70
     0
102
RTVSPost2010Prop31
280
     0
102
RTVSPost2010PropOp31
 70
     0
102
RTVSPost2010Prop32
280
     0
102
RTVSPost2010PropOp32
 70
     0
102
RTVSPost2010Prop33
280
     0
102
RTVSPost2010PropOp33
 70
     0
102
RTVSPost2010Prop34
280
     0
102
RTVSPost2010PropOp34
 70
     0
102
RTVSPost2010Prop35
280
     0
102
RTVSPost2010PropOp35
 70
     0
102
RTVSPost2010Prop36
280
     0
102
RTVSPost2010PropOp36
 70
     0
102
RTVSPost2010Prop37
 90
       50
102
RTVSPost2010PropOp37
 70
     0
102
RTVSPost2010Prop38
140
0.0
102
RTVSPost2010PropOp38
 70
     0
102
RTVSPost2010Prop39
140
1.0
102
RTVSPost2010PropOp39
 70
     0
102
RTVSPost2010Prop40
 90
        0
102
RTVSPost2010PropOp40
 70
     0
102
RTVSPost2010Prop41ColorIndex
 90
       18
102
RTVSPost2010Prop41ColorRGB
 90
        0
102
RTVSPost2010PropOp41
 70
     0
102
RTVSPost2010Prop42
 90
       50
102
RTVSPost2010PropOp42
 70
     0
102
RTVSPost2010Prop43
 90
        3
102
RTVSPost2010PropOp43
 70
     0
102
RTVSPost2010Prop44ColorIndex
 90
        5
102
RTVSPost2010Prop44ColorRGB
 90
      255
102
RTVSPost2010PropOp44
 70
     0
102
RTVSPost2010Prop45
280
     0
102
RTVSPost2010PropOp45
 70
     0
102
RTVSPost2010Prop46
 90
       50
102
RTVSPost2010PropOp46
 70
     0
102
RTVSPost2010Prop47
 90
       50
102
RTVSPost2010PropOp47
 70
     0
102
RTVSPost2010Prop48
 90
       50
102
RTVSPost2010PropOp48
 70
     0
102
RTVSPost2010Prop49
280
     0
102
RTVSPost2010PropOp49
 70
     0
102
RTVSPost2010Prop50
 90
       50
102
RTVSPost2010PropOp50
 70
     0
102
RTVSPost2010Prop51ColorIndex
 90
      256
102
RTVSPost2010Prop51ColorRGB
 90
-16777216
102
RTVSPost2010PropOp51
 70
     0
102
RTVSPost2010Prop52
140
1.0
102
RTVSPost2010PropOp52
 70
     0
102
RTVSPost2010Prop53
 90
        2
102
RTVSPost2010PropOp53
 70
     0
102
RTVSPost2010Prop54
  1
strokes_ogs.tif
102
RTVSPost2010PropOp54
 70
     0
102
RTVSPost2010Prop55
280
     0
102
RTVSPost2010PropOp55
 70
     0
102
RTVSPost2010Prop56
140
1.0
102
RTVSPost2010PropOp56
 70
     0
102
RTVSPost2010Prop57
140
1.0
102
RTVSPost2010PropOp57
 70
     0
  0
XRECORD
  5
D4
102
{ACAD_REACTORS
330
D3
102
}
330
D3
100
AcDbXrecord
280
     1
102
RTVSPropertyOp0
 70
     1
102
RTVSPropertyOp1
 70
     1
102
RTVSPropertyOp2
 70
     1
102
RTVSPropertyOp3
 70
     1
102
RTVSPropertyOp4
 70
     1
102
RTVSPropertyOp5
 70
     1
102
RTVSPropertyOp6
 70
     1
102
RTVSPropertyOp7
 70
     1
102
RTVSPropertyOp8
 70
     1
102
RTVSPropertyOp9
 70
     1
102
RTVSPropertyOp10
 70
     1
102
RTVSPropertyOp11
 70
     1
102
RTVSPropertyOp12
 70
     1
102
RTVSPropertyOp13
 70
     1
102
RTVSPropertyOp14
 70
     1
102
RTVSPropertyOp15
 70
     1
102
RTVSPropertyOp16
 70
     1
102
RTVSPropertyOp17
 70
     1
102
RTVSPropertyOp18
 70
     1
102
RTVSPropertyOp19
 70
     1
102
RTVSPropertyOp20
 70
     1
102
RTVSPropertyOp21
 70
     1
102
RTVSPropertyOp22
 70
     1
102
RTVSPropertyOp23
 70
     1
102
RTVSPropertyOp24
 70
     1
102
RTVSPropertyOp25
 70
     1
102
RTVSPropertyOp26
 70
     1
102
RTVSPropertyOp27
 70
     1
102
RTVSPropertyOp28
 70
     1
102
RTVSPropertyOp29
 70
     1
102
RTVSPropertyOp30
 70
     1
102
RTVSPropertyOp31
 70
     1
102
RTVSPropertyOp32
 70
     1
102
RTVSPropertyOp33
 70
     1
102
RTVSPropertyOp34
 70
     1
102
RTVSPropertyOp35
 70
     1
102
RTVSPropertyOp36
 70
     1
102
RTVSPropertyOp37
 70
     1
102
RTVSPropertyOp38
 70
     1
102
RTVSPropertyOp39
 70
     1
102
RTVSPropertyOp40
 70
     1
102
RTVSPropertyOp41
 70
     1
102
RTVSPropertyOp42
 70
     1
102
RTVSPropertyOp43
 70
     1
102
RTVSPropertyOp44
 70
     1
102
RTVSPropertyOp45
 70
     1
102
RTVSPropertyOp46
 70
     1
102
RTVSPropertyOp47
 70
     1
102
RTVSPropertyOp48
 70
     1
102
RTVSPropertyOp49
 70
     1
102
RTVSPropertyOp50
 70
     1
102
RTVSPropertyOp51
 70
     0
102
RTVSPropertyOp52
 70
     0
102
RTVSPropertyOp53
 70
     1
102
RTVSPropertyOp54
 70
     1
102
RTVSPropertyOp55
 70
     1
102
RTVSPropertyOp56
 70
     1
102
RTVSPropertyOp57
 70
     1
102
RTVSPost2010Prop28
280
     0
102
RTVSPost2010PropOp28
 70
     1
102
RTVSPost2010Prop29
280
     1
102
RTVSPost2010PropOp29
 70
     1
102
RTVSPost2010Prop30
280
     1
102
RTVSPost2010PropOp30
 70
     1
102
RTVSPost2010Prop31
280
     0
102
RTVSPost2010PropOp31
 70
     1
102
RTVSPost2010Prop32
280
     0
102
RTVSPost2010PropOp32
 70
     1
102
RTVSPost2010Prop33
280
     0
102
RTVSPost2010PropOp33
 70
     1
102
RTVSPost2010Prop34
280
     0
102
RTVSPost2010PropOp34
 70
     1
102
RTVSPost2010Prop35
280
     0
102
RTVSPost2010PropOp35
 70
     1
102
RTVSPost2010Prop36
280
     0
102
RTVSPost2010PropOp36
 70
     1
102
RTVSPost2010Prop37
 90
       50
102
RTVSPost2010PropOp37
 70
     1
102
RTVSPost2010Prop38
140
0.0
102
RTVSPost2010PropOp38
 70
     1
102
RTVSPost2010Prop39
140
1.0
102
RTVSPost2010PropOp39
 70
     1
102
RTVSPost2010Prop40
 90
        0
102
RTVSPost2010PropOp40
 70
     1
102
RTVSPost2010Prop41ColorIndex
 90
       18
102
RTVSPost2010Prop41ColorRGB
 90
        0
102
RTVSPost2010PropOp41
 70
     1
102
RTVSPost2010Prop42
 90
       50
102
RTVSPost2010PropOp42
 70
     1
102
RTVSPost2010Prop43
 90
        3
102
RTVSPost2010PropOp43
 70
     1
102
RTVSPost2010Prop44ColorIndex
 90
        5
102
RTVSPost2010Prop44ColorRGB
 90
      255
102
RTVSPost2010PropOp44
 70
     1
102
RTVSPost2010Prop45
280
     0
102
RTVSPost2010PropOp45
 70
     1
102
RTVSPost2010Prop46
 90
       50
102
RTVSPost2010PropOp46
 70
     1
102
RTVSPost2010Prop47
 90
       50
102
RTVSPost2010PropOp47
 70
     1
102
RTVSPost2010Prop48
 90
       50
102
RTVSPost2010PropOp48
 70
     1
102
RTVSPost2010Prop49
280
     0
102
RTVSPost2010PropOp49
 70
     1
102
RTVSPost2010Prop50
 90
       50
102
RTVSPost2010PropOp50
 70
     1
102
RTVSPost2010Prop51ColorIndex
 90
      256
102
RTVSPost2010Prop51ColorRGB
 90
-16777216
102
RTVSPost2010PropOp51
 70
     0
102
RTVSPost2010Prop52
140
1.0
102
RTVSPost2010PropOp52
 70
     0
102
RTVSPost2010Prop53
 90
        2
102
RTVSPost2010PropOp53
 70
     1
102
RTVSPost2010Prop54
  1
strokes_ogs.tif
102
RTVSPost2010PropOp54
 70
     1
102
RTVSPost2010Prop55
280
     0
102
RTVSPost2010PropOp55
 70
     1
102
RTVSPost2010Prop56
140
1.0
102
RTVSPost2010PropOp56
 70
     1
102
RTVSPost2010Prop57
140
1.0
102
RTVSPost2010PropOp57
 70
     1
  0
XRECORD
  5
F2
102
{ACAD_REACTORS
330
F1
102
}
330
F1
100
AcDbXrecord
280
     1
102
RTVSPropertyOp0
 70
     1
102
RTVSPropertyOp1
 70
     1
102
RTVSPropertyOp2
 70
     1
102
RTVSPropertyOp3
 70
     1
102
RTVSPropertyOp4
 70
     1
102
RTVSPropertyOp5
 70
     1
102
RTVSPropertyOp6
 70
     1
102
RTVSPropertyOp7
 70
     1
102
RTVSPropertyOp8
 70
     1
102
RTVSPropertyOp9
 70
     1
102
RTVSPropertyOp10
 70
     1
102
RTVSPropertyOp11
 70
     1
102
RTVSPropertyOp12
 70
     1
102
RTVSPropertyOp13
 70
     1
102
RTVSPropertyOp14
 70
     1
102
RTVSPropertyOp15
 70
     1
102
RTVSPropertyOp16
 70
     1
102
RTVSPropertyOp17
 70
     1
102
RTVSPropertyOp18
 70
     1
102
RTVSPropertyOp19
 70
     1
102
RTVSPropertyOp20
 70
     1
102
RTVSPropertyOp21
 70
     1
102
RTVSPropertyOp22
 70
     1
102
RTVSPropertyOp23
 70
     1
102
RTVSPropertyOp24
 70
     1
102
RTVSPropertyOp25
 70
     1
102
RTVSPropertyOp26
 70
     1
102
RTVSPropertyOp27
 70
     1
102
RTVSPropertyOp28
 70
     1
102
RTVSPropertyOp29
 70
     1
102
RTVSPropertyOp30
 70
     1
102
RTVSPropertyOp31
 70
     1
102
RTVSPropertyOp32
 70
     1
102
RTVSPropertyOp33
 70
     1
102
RTVSPropertyOp34
 70
     1
102
RTVSPropertyOp35
 70
     1
102
RTVSPropertyOp36
 70
     1
102
RTVSPropertyOp37
 70
     1
102
RTVSPropertyOp38
 70
     1
102
RTVSPropertyOp39
 70
     1
102
RTVSPropertyOp40
 70
     1
102
RTVSPropertyOp41
 70
     1
102
RTVSPropertyOp42
 70
     1
102
RTVSPropertyOp43
 70
     1
102
RTVSPropertyOp44
 70
     1
102
RTVSPropertyOp45
 70
     1
102
RTVSPropertyOp46
 70
     1
102
RTVSPropertyOp47
 70
     1
102
RTVSPropertyOp48
 70
     1
102
RTVSPropertyOp49
 70
     1
102
RTVSPropertyOp50
 70
     1
102
RTVSPropertyOp51
 70
     0
102
RTVSPropertyOp52
 70
     0
102
RTVSPropertyOp53
 70
     1
102
RTVSPropertyOp54
 70
     1
102
RTVSPropertyOp55
 70
     1
102
RTVSPropertyOp56
 70
     1
102
RTVSPropertyOp57
 70
     1
102
RTVSPost2010Prop28
280
     0
102
RTVSPost2010PropOp28
 70
     1
102
RTVSPost2010Prop29
280
     1
102
RTVSPost2010PropOp29
 70
     1
102
RTVSPost2010Prop30
280
     1
102
RTVSPost2010PropOp30
 70
     1
102
RTVSPost2010Prop31
280
     0
102
RTVSPost2010PropOp31
 70
     1
102
RTVSPost2010Prop32
280
     0
102
RTVSPost2010PropOp32
 70
     1
102
RTVSPost2010Prop33
280
     0
102
RTVSPost2010PropOp33
 70
     1
102
RTVSPost2010Prop34
280
     0
102
RTVSPost2010PropOp34
 70
     1
102
RTVSPost2010Prop35
280
     0
102
RTVSPost2010PropOp35
 70
     1
102
RTVSPost2010Prop36
280
     0
102
RTVSPost2010PropOp36
 70
     1
102
RTVSPost2010Prop37
 90
       50
102
RTVSPost2010PropOp37
 70
     1
102
RTVSPost2010Prop38
140
0.0
102
RTVSPost2010PropOp38
 70
     1
102
RTVSPost2010Prop39
140
1.0
102
RTVSPost2010PropOp39
 70
     1
102
RTVSPost2010Prop40
 90
        0
102
RTVSPost2010PropOp40
 70
     1
102
RTVSPost2010Prop41ColorIndex
 90
       18
102
RTVSPost2010Prop41ColorRGB
 90
        0
102
RTVSPost2010PropOp41
 70
     1
102
RTVSPost2010Prop42
 90
       50
102
RTVSPost2010PropOp42
 70
     1
102
RTVSPost2010Prop43
 90
        3
102
RTVSPost2010PropOp43
 70
     1
102
RTVSPost2010Prop44ColorIndex
 90
        5
102
RTVSPost2010Prop44ColorRGB
 90
      255
102
RTVSPost2010PropOp44
 70
     1
102
RTVSPost2010Prop45
280
     0
102
RTVSPost2010PropOp45
 70
     1
102
RTVSPost2010Prop46
 90
       50
102
RTVSPost2010PropOp46
 70
     1
102
RTVSPost2010Prop47
 90
       50
102
RTVSPost2010PropOp47
 70
     1
102
RTVSPost2010Prop48
 90
       50
102
RTVSPost2010PropOp48
 70
     1
102
RTVSPost2010Prop49
280
     0
102
RTVSPost2010PropOp49
 70
     1
102
RTVSPost2010Prop50
 90
       50
102
RTVSPost2010PropOp50
 70
     1
102
RTVSPost2010Prop51ColorIndex
 90
      256
102
RTVSPost2010Prop51ColorRGB
 90
-16777216
102
RTVSPost2010PropOp51
 70
     0
102
RTVSPost2010Prop52
140
1.0
102
RTVSPost2010PropOp52
 70
     0
102
RTVSPost2010Prop53
 90
        2
102
RTVSPost2010PropOp53
 70
     1
102
RTVSPost2010Prop54
  1
strokes_ogs.tif
102
RTVSPost2010PropOp54
 70
     1
102
RTVSPost2010Prop55
280
     0
102
RTVSPost2010PropOp55
 70
     1
102
RTVSPost2010Prop56
140
1.0
102
RTVSPost2010PropOp56
 70
     1
102
RTVSPost2010Prop57
140
1.0
102
RTVSPost2010PropOp57
 70
     1
  0
XRECORD
  5
F0
102
{ACAD_REACTORS
330
EF
102
}
330
EF
100
AcDbXrecord
280
     1
102
RTVSPropertyOp0
 70
     1
102
RTVSPropertyOp1
 70
     1
102
RTVSPropertyOp2
 70
     1
102
RTVSPropertyOp3
 70
     1
102
RTVSPropertyOp4
 70
     1
102
RTVSPropertyOp5
 70
     1
102
RTVSPropertyOp6
 70
     1
102
RTVSPropertyOp7
 70
     1
102
RTVSPropertyOp8
 70
     1
102
RTVSPropertyOp9
 70
     1
102
RTVSPropertyOp10
 70
     1
102
RTVSPropertyOp11
 70
     1
102
RTVSPropertyOp12
 70
     1
102
RTVSPropertyOp13
 70
     1
102
RTVSPropertyOp14
 70
     1
102
RTVSPropertyOp15
 70
     1
102
RTVSPropertyOp16
 70
     1
102
RTVSPropertyOp17
 70
     1
102
RTVSPropertyOp18
 70
     1
102
RTVSPropertyOp19
 70
     1
102
RTVSPropertyOp20
 70
     1
102
RTVSPropertyOp21
 70
     1
102
RTVSPropertyOp22
 70
     1
102
RTVSPropertyOp23
 70
     1
102
RTVSPropertyOp24
 70
     1
102
RTVSPropertyOp25
 70
     1
102
RTVSPropertyOp26
 70
     1
102
RTVSPropertyOp27
 70
     1
102
RTVSPropertyOp28
 70
     1
102
RTVSPropertyOp29
 70
     1
102
RTVSPropertyOp30
 70
     1
102
RTVSPropertyOp31
 70
     1
102
RTVSPropertyOp32
 70
     1
102
RTVSPropertyOp33
 70
     1
102
RTVSPropertyOp34
 70
     1
102
RTVSPropertyOp35
 70
     1
102
RTVSPropertyOp36
 70
     1
102
RTVSPropertyOp37
 70
     1
102
RTVSPropertyOp38
 70
     1
102
RTVSPropertyOp39
 70
     1
102
RTVSPropertyOp40
 70
     1
102
RTVSPropertyOp41
 70
     1
102
RTVSPropertyOp42
 70
     1
102
RTVSPropertyOp43
 70
     1
102
RTVSPropertyOp44
 70
     1
102
RTVSPropertyOp45
 70
     1
102
RTVSPropertyOp46
 70
     1
102
RTVSPropertyOp47
 70
     1
102
RTVSPropertyOp48
 70
     1
102
RTVSPropertyOp49
 70
     1
102
RTVSPropertyOp50
 70
     1
102
RTVSPropertyOp51
 70
     0
102
RTVSPropertyOp52
 70
     0
102
RTVSPropertyOp53
 70
     1
102
RTVSPropertyOp54
 70
     1
102
RTVSPropertyOp55
 70
     1
102
RTVSPropertyOp56
 70
     1
102
RTVSPropertyOp57
 70
     1
102
RTVSPost2010Prop28
280
     0
102
RTVSPost2010PropOp28
 70
     1
102
RTVSPost2010Prop29
280
     1
102
RTVSPost2010PropOp29
 70
     1
102
RTVSPost2010Prop30
280
     1
102
RTVSPost2010PropOp30
 70
     1
102
RTVSPost2010Prop31
280
     0
102
RTVSPost2010PropOp31
 70
     1
102
RTVSPost2010Prop32
280
     0
102
RTVSPost2010PropOp32
 70
     1
102
RTVSPost2010Prop33
280
     0
102
RTVSPost2010PropOp33
 70
     1
102
RTVSPost2010Prop34
280
     0
102
RTVSPost2010PropOp34
 70
     1
102
RTVSPost2010Prop35
280
     0
102
RTVSPost2010PropOp35
 70
     1
102
RTVSPost2010Prop36
280
     0
102
RTVSPost2010PropOp36
 70
     1
102
RTVSPost2010Prop37
 90
       50
102
RTVSPost2010PropOp37
 70
     1
102
RTVSPost2010Prop38
140
0.0
102
RTVSPost2010PropOp38
 70
     1
102
RTVSPost2010Prop39
140
1.0
102
RTVSPost2010PropOp39
 70
     1
102
RTVSPost2010Prop40
 90
        0
102
RTVSPost2010PropOp40
 70
     1
102
RTVSPost2010Prop41ColorIndex
 90
       18
102
RTVSPost2010Prop41ColorRGB
 90
        0
102
RTVSPost2010PropOp41
 70
     1
102
RTVSPost2010Prop42
 90
       50
102
RTVSPost2010PropOp42
 70
     1
102
RTVSPost2010Prop43
 90
        3
102
RTVSPost2010PropOp43
 70
     1
102
RTVSPost2010Prop44ColorIndex
 90
        5
102
RTVSPost2010Prop44ColorRGB
 90
      255
102
RTVSPost2010PropOp44
 70
     1
102
RTVSPost2010Prop45
280
     0
102
RTVSPost2010PropOp45
 70
     1
102
RTVSPost2010Prop46
 90
       50
102
RTVSPost2010PropOp46
 70
     1
102
RTVSPost2010Prop47
 90
       50
102
RTVSPost2010PropOp47
 70
     1
102
RTVSPost2010Prop48
 90
       50
102
RTVSPost2010PropOp48
 70
     1
102
RTVSPost2010Prop49
280
     0
102
RTVSPost2010PropOp49
 70
     1
102
RTVSPost2010Prop50
 90
       50
102
RTVSPost2010PropOp50
 70
     1
102
RTVSPost2010Prop51ColorIndex
 90
      256
102
RTVSPost2010Prop51ColorRGB
 90
-16777216
102
RTVSPost2010PropOp51
 70
     0
102
RTVSPost2010Prop52
140
1.0
102
RTVSPost2010PropOp52
 70
     0
102
RTVSPost2010Prop53
 90
        2
102
RTVSPost2010PropOp53
 70
     1
102
RTVSPost2010Prop54
  1
strokes_ogs.tif
102
RTVSPost2010PropOp54
 70
     1
102
RTVSPost2010Prop55
280
     0
102
RTVSPost2010PropOp55
 70
     1
102
RTVSPost2010Prop56
140
1.0
102
RTVSPost2010PropOp56
 70
     1
102
RTVSPost2010Prop57
140
1.0
102
RTVSPost2010PropOp57
 70
     1
  0
XRECORD
  5
EA
102
{ACAD_REACTORS
330
E9
102
}
330
E9
100
AcDbXrecord
280
     1
102
RTVSPropertyOp0
 70
     1
102
RTVSPropertyOp1
 70
     1
102
RTVSPropertyOp2
 70
     1
102
RTVSPropertyOp3
 70
     1
102
RTVSPropertyOp4
 70
     1
102
RTVSPropertyOp5
 70
     1
102
RTVSPropertyOp6
 70
     1
102
RTVSPropertyOp7
 70
     1
102
RTVSPropertyOp8
 70
     1
102
RTVSPropertyOp9
 70
     1
102
RTVSPropertyOp10
 70
     1
102
RTVSPropertyOp11
 70
     1
102
RTVSPropertyOp12
 70
     1
102
RTVSPropertyOp13
 70
     1
102
RTVSPropertyOp14
 70
     1
102
RTVSPropertyOp15
 70
     1
102
RTVSPropertyOp16
 70
     1
102
RTVSPropertyOp17
 70
     1
102
RTVSPropertyOp18
 70
     1
102
RTVSPropertyOp19
 70
     1
102
RTVSPropertyOp20
 70
     1
102
RTVSPropertyOp21
 70
     1
102
RTVSPropertyOp22
 70
     1
102
RTVSPropertyOp23
 70
     1
102
RTVSPropertyOp24
 70
     1
102
RTVSPropertyOp25
 70
     1
102
RTVSPropertyOp26
 70
     1
102
RTVSPropertyOp27
 70
     1
102
RTVSPropertyOp28
 70
     1
102
RTVSPropertyOp29
 70
     1
102
RTVSPropertyOp30
 70
     1
102
RTVSPropertyOp31
 70
     1
102
RTVSPropertyOp32
 70
     1
102
RTVSPropertyOp33
 70
     1
102
RTVSPropertyOp34
 70
     1
102
RTVSPropertyOp35
 70
     1
102
RTVSPropertyOp36
 70
     1
102
RTVSPropertyOp37
 70
     1
102
RTVSPropertyOp38
 70
     1
102
RTVSPropertyOp39
 70
     1
102
RTVSPropertyOp40
 70
     1
102
RTVSPropertyOp41
 70
     1
102
RTVSPropertyOp42
 70
     1
102
RTVSPropertyOp43
 70
     1
102
RTVSPropertyOp44
 70
     1
102
RTVSPropertyOp45
 70
     1
102
RTVSPropertyOp46
 70
     1
102
RTVSPropertyOp47
 70
     1
102
RTVSPropertyOp48
 70
     1
102
RTVSPropertyOp49
 70
     1
102
RTVSPropertyOp50
 70
     1
102
RTVSPropertyOp51
 70
     0
102
RTVSPropertyOp52
 70
     0
102
RTVSPropertyOp53
 70
     1
102
RTVSPropertyOp54
 70
     1
102
RTVSPropertyOp55
 70
     1
102
RTVSPropertyOp56
 70
     1
102
RTVSPropertyOp57
 70
     1
102
RTVSPost2010Prop28
280
     0
102
RTVSPost2010PropOp28
 70
     1
102
RTVSPost2010Prop29
280
     1
102
RTVSPost2010PropOp29
 70
     1
102
RTVSPost2010Prop30
280
     1
102
RTVSPost2010PropOp30
 70
     1
102
RTVSPost2010Prop31
280
     0
102
RTVSPost2010PropOp31
 70
     1
102
RTVSPost2010Prop32
280
     0
102
RTVSPost2010PropOp32
 70
     1
102
RTVSPost2010Prop33
280
     0
102
RTVSPost2010PropOp33
 70
     1
102
RTVSPost2010Prop34
280
     0
102
RTVSPost2010PropOp34
 70
     1
102
RTVSPost2010Prop35
280
     0
102
RTVSPost2010PropOp35
 70
     1
102
RTVSPost2010Prop36
280
     0
102
RTVSPost2010PropOp36
 70
     1
102
RTVSPost2010Prop37
 90
       50
102
RTVSPost2010PropOp37
 70
     1
102
RTVSPost2010Prop38
140
0.0
102
RTVSPost2010PropOp38
 70
     1
102
RTVSPost2010Prop39
140
1.0
102
RTVSPost2010PropOp39
 70
     1
102
RTVSPost2010Prop40
 90
        0
102
RTVSPost2010PropOp40
 70
     1
102
RTVSPost2010Prop41ColorIndex
 90
       18
102
RTVSPost2010Prop41ColorRGB
 90
        0
102
RTVSPost2010PropOp41
 70
     1
102
RTVSPost2010Prop42
 90
       50
102
RTVSPost2010PropOp42
 70
     1
102
RTVSPost2010Prop43
 90
        3
102
RTVSPost2010PropOp43
 70
     1
102
RTVSPost2010Prop44ColorIndex
 90
        5
102
RTVSPost2010Prop44ColorRGB
 90
      255
102
RTVSPost2010PropOp44
 70
     1
102
RTVSPost2010Prop45
280
     0
102
RTVSPost2010PropOp45
 70
     1
102
RTVSPost2010Prop46
 90
       50
102
RTVSPost2010PropOp46
 70
     1
102
RTVSPost2010Prop47
 90
       50
102
RTVSPost2010PropOp47
 70
     1
102
RTVSPost2010Prop48
 90
       50
102
RTVSPost2010PropOp48
 70
     1
102
RTVSPost2010Prop49
280
     0
102
RTVSPost2010PropOp49
 70
     1
102
RTVSPost2010Prop50
 90
       50
102
RTVSPost2010PropOp50
 70
     1
102
RTVSPost2010Prop51ColorIndex
 90
      256
102
RTVSPost2010Prop51ColorRGB
 90
-16777216
102
RTVSPost2010PropOp51
 70
     0
102
RTVSPost2010Prop52
140
1.0
102
RTVSPost2010PropOp52
 70
     0
102
RTVSPost2010Prop53
 90
        2
102
RTVSPost2010PropOp53
 70
     1
102
RTVSPost2010Prop54
  1
strokes_ogs.tif
102
RTVSPost2010PropOp54
 70
     1
102
RTVSPost2010Prop55
280
     0
102
RTVSPost2010PropOp55
 70
     1
102
RTVSPost2010Prop56
140
1.0
102
RTVSPost2010PropOp56
 70
     1
102
RTVSPost2010Prop57
140
1.0
102
RTVSPost2010PropOp57
 70
     1
  0
XRECORD
  5
EC
102
{ACAD_REACTORS
330
EB
102
}
330
EB
100
AcDbXrecord
280
     1
102
RTVSPropertyOp0
 70
     1
102
RTVSPropertyOp1
 70
     1
102
RTVSPropertyOp2
 70
     1
102
RTVSPropertyOp3
 70
     1
102
RTVSPropertyOp4
 70
     1
102
RTVSPropertyOp5
 70
     1
102
RTVSPropertyOp6
 70
     1
102
RTVSPropertyOp7
 70
     1
102
RTVSPropertyOp8
 70
     1
102
RTVSPropertyOp9
 70
     1
102
RTVSPropertyOp10
 70
     1
102
RTVSPropertyOp11
 70
     1
102
RTVSPropertyOp12
 70
     1
102
RTVSPropertyOp13
 70
     1
102
RTVSPropertyOp14
 70
     1
102
RTVSPropertyOp15
 70
     1
102
RTVSPropertyOp16
 70
     1
102
RTVSPropertyOp17
 70
     1
102
RTVSPropertyOp18
 70
     1
102
RTVSPropertyOp19
 70
     1
102
RTVSPropertyOp20
 70
     1
102
RTVSPropertyOp21
 70
     1
102
RTVSPropertyOp22
 70
     1
102
RTVSPropertyOp23
 70
     1
102
RTVSPropertyOp24
 70
     1
102
RTVSPropertyOp25
 70
     1
102
RTVSPropertyOp26
 70
     1
102
RTVSPropertyOp27
 70
     1
102
RTVSPropertyOp28
 70
     1
102
RTVSPropertyOp29
 70
     1
102
RTVSPropertyOp30
 70
     1
102
RTVSPropertyOp31
 70
     1
102
RTVSPropertyOp32
 70
     1
102
RTVSPropertyOp33
 70
     1
102
RTVSPropertyOp34
 70
     1
102
RTVSPropertyOp35
 70
     1
102
RTVSPropertyOp36
 70
     1
102
RTVSPropertyOp37
 70
     1
102
RTVSPropertyOp38
 70
     1
102
RTVSPropertyOp39
 70
     1
102
RTVSPropertyOp40
 70
     1
102
RTVSPropertyOp41
 70
     1
102
RTVSPropertyOp42
 70
     1
102
RTVSPropertyOp43
 70
     1
102
RTVSPropertyOp44
 70
     1
102
RTVSPropertyOp45
 70
     1
102
RTVSPropertyOp46
 70
     1
102
RTVSPropertyOp47
 70
     1
102
RTVSPropertyOp48
 70
     1
102
RTVSPropertyOp49
 70
     1
102
RTVSPropertyOp50
 70
     1
102
RTVSPropertyOp51
 70
     0
102
RTVSPropertyOp52
 70
     0
102
RTVSPropertyOp53
 70
     1
102
RTVSPropertyOp54
 70
     1
102
RTVSPropertyOp55
 70
     1
102
RTVSPropertyOp56
 70
     1
102
RTVSPropertyOp57
 70
     1
102
RTVSPost2010Prop28
280
     0
102
RTVSPost2010PropOp28
 70
     1
102
RTVSPost2010Prop29
280
     1
102
RTVSPost2010PropOp29
 70
     1
102
RTVSPost2010Prop30
280
     1
102
RTVSPost2010PropOp30
 70
     1
102
RTVSPost2010Prop31
280
     0
102
RTVSPost2010PropOp31
 70
     1
102
RTVSPost2010Prop32
280
     0
102
RTVSPost2010PropOp32
 70
     1
102
RTVSPost2010Prop33
280
     0
102
RTVSPost2010PropOp33
 70
     1
102
RTVSPost2010Prop34
280
     0
102
RTVSPost2010PropOp34
 70
     1
102
RTVSPost2010Prop35
280
     0
102
RTVSPost2010PropOp35
 70
     1
102
RTVSPost2010Prop36
280
     0
102
RTVSPost2010PropOp36
 70
     1
102
RTVSPost2010Prop37
 90
       50
102
RTVSPost2010PropOp37
 70
     1
102
RTVSPost2010Prop38
140
0.0
102
RTVSPost2010PropOp38
 70
     1
102
RTVSPost2010Prop39
140
1.0
102
RTVSPost2010PropOp39
 70
     1
102
RTVSPost2010Prop40
 90
        0
102
RTVSPost2010PropOp40
 70
     1
102
RTVSPost2010Prop41ColorIndex
 90
       18
102
RTVSPost2010Prop41ColorRGB
 90
        0
102
RTVSPost2010PropOp41
 70
     1
102
RTVSPost2010Prop42
 90
       50
102
RTVSPost2010PropOp42
 70
     1
102
RTVSPost2010Prop43
 90
        3
102
RTVSPost2010PropOp43
 70
     1
102
RTVSPost2010Prop44ColorIndex
 90
        5
102
RTVSPost2010Prop44ColorRGB
 90
      255
102
RTVSPost2010PropOp44
 70
     1
102
RTVSPost2010Prop45
280
     0
102
RTVSPost2010PropOp45
 70
     1
102
RTVSPost2010Prop46
 90
       50
102
RTVSPost2010PropOp46
 70
     1
102
RTVSPost2010Prop47
 90
       50
102
RTVSPost2010PropOp47
 70
     1
102
RTVSPost2010Prop48
 90
       50
102
RTVSPost2010PropOp48
 70
     1
102
RTVSPost2010Prop49
280
     0
102
RTVSPost2010PropOp49
 70
     1
102
RTVSPost2010Prop50
 90
       50
102
RTVSPost2010PropOp50
 70
     1
102
RTVSPost2010Prop51ColorIndex
 90
      256
102
RTVSPost2010Prop51ColorRGB
 90
-16777216
102
RTVSPost2010PropOp51
 70
     0
102
RTVSPost2010Prop52
140
1.0
102
RTVSPost2010PropOp52
 70
     0
102
RTVSPost2010Prop53
 90
        2
102
RTVSPost2010PropOp53
 70
     1
102
RTVSPost2010Prop54
  1
strokes_ogs.tif
102
RTVSPost2010PropOp54
 70
     1
102
RTVSPost2010Prop55
280
     0
102
RTVSPost2010PropOp55
 70
     1
102
RTVSPost2010Prop56
140
1.0
102
RTVSPost2010PropOp56
 70
     1
102
RTVSPost2010Prop57
140
1.0
102
RTVSPost2010PropOp57
 70
     1
  0
XRECORD
  5
DC
102
{ACAD_REACTORS
330
DB
102
}
330
DB
100
AcDbXrecord
280
     1
102
RTVSPropertyOp0
 70
     1
102
RTVSPropertyOp1
 70
     1
102
RTVSPropertyOp2
 70
     1
102
RTVSPropertyOp3
 70
     1
102
RTVSPropertyOp4
 70
     1
102
RTVSPropertyOp5
 70
     1
102
RTVSPropertyOp6
 70
     1
102
RTVSPropertyOp7
 70
     1
102
RTVSPropertyOp8
 70
     1
102
RTVSPropertyOp9
 70
     1
102
RTVSPropertyOp10
 70
     1
102
RTVSPropertyOp11
 70
     1
102
RTVSPropertyOp12
 70
     1
102
RTVSPropertyOp13
 70
     1
102
RTVSPropertyOp14
 70
     1
102
RTVSPropertyOp15
 70
     1
102
RTVSPropertyOp16
 70
     1
102
RTVSPropertyOp17
 70
     1
102
RTVSPropertyOp18
 70
     1
102
RTVSPropertyOp19
 70
     1
102
RTVSPropertyOp20
 70
     1
102
RTVSPropertyOp21
 70
     1
102
RTVSPropertyOp22
 70
     1
102
RTVSPropertyOp23
 70
     1
102
RTVSPropertyOp24
 70
     1
102
RTVSPropertyOp25
 70
     1
102
RTVSPropertyOp26
 70
     1
102
RTVSPropertyOp27
 70
     1
102
RTVSPropertyOp28
 70
     1
102
RTVSPropertyOp29
 70
     1
102
RTVSPropertyOp30
 70
     1
102
RTVSPropertyOp31
 70
     1
102
RTVSPropertyOp32
 70
     1
102
RTVSPropertyOp33
 70
     1
102
RTVSPropertyOp34
 70
     1
102
RTVSPropertyOp35
 70
     1
102
RTVSPropertyOp36
 70
     1
102
RTVSPropertyOp37
 70
     1
102
RTVSPropertyOp38
 70
     1
102
RTVSPropertyOp39
 70
     1
102
RTVSPropertyOp40
 70
     1
102
RTVSPropertyOp41
 70
     1
102
RTVSPropertyOp42
 70
     1
102
RTVSPropertyOp43
 70
     1
102
RTVSPropertyOp44
 70
     1
102
RTVSPropertyOp45
 70
     1
102
RTVSPropertyOp46
 70
     1
102
RTVSPropertyOp47
 70
     1
102
RTVSPropertyOp48
 70
     1
102
RTVSPropertyOp49
 70
     1
102
RTVSPropertyOp50
 70
     1
102
RTVSPropertyOp51
 70
     0
102
RTVSPropertyOp52
 70
     0
102
RTVSPropertyOp53
 70
     1
102
RTVSPropertyOp54
 70
     1
102
RTVSPropertyOp55
 70
     1
102
RTVSPropertyOp56
 70
     1
102
RTVSPropertyOp57
 70
     1
102
RTVSPost2010Prop28
280
     0
102
RTVSPost2010PropOp28
 70
     1
102
RTVSPost2010Prop29
280
     1
102
RTVSPost2010PropOp29
 70
     1
102
RTVSPost2010Prop30
280
     1
102
RTVSPost2010PropOp30
 70
     1
102
RTVSPost2010Prop31
280
     0
102
RTVSPost2010PropOp31
 70
     1
102
RTVSPost2010Prop32
280
     0
102
RTVSPost2010PropOp32
 70
     1
102
RTVSPost2010Prop33
280
     0
102
RTVSPost2010PropOp33
 70
     1
102
RTVSPost2010Prop34
280
     0
102
RTVSPost2010PropOp34
 70
     1
102
RTVSPost2010Prop35
280
     0
102
RTVSPost2010PropOp35
 70
     1
102
RTVSPost2010Prop36
280
     0
102
RTVSPost2010PropOp36
 70
     1
102
RTVSPost2010Prop37
 90
       50
102
RTVSPost2010PropOp37
 70
     1
102
RTVSPost2010Prop38
140
0.0
102
RTVSPost2010PropOp38
 70
     1
102
RTVSPost2010Prop39
140
1.0
102
RTVSPost2010PropOp39
 70
     1
102
RTVSPost2010Prop40
 90
        0
102
RTVSPost2010PropOp40
 70
     1
102
RTVSPost2010Prop41ColorIndex
 90
       18
102
RTVSPost2010Prop41ColorRGB
 90
        0
102
RTVSPost2010PropOp41
 70
     1
102
RTVSPost2010Prop42
 90
       50
102
RTVSPost2010PropOp42
 70
     1
102
RTVSPost2010Prop43
 90
        3
102
RTVSPost2010PropOp43
 70
     1
102
RTVSPost2010Prop44ColorIndex
 90
        5
102
RTVSPost2010Prop44ColorRGB
 90
      255
102
RTVSPost2010PropOp44
 70
     1
102
RTVSPost2010Prop45
280
     0
102
RTVSPost2010PropOp45
 70
     1
102
RTVSPost2010Prop46
 90
       50
102
RTVSPost2010PropOp46
 70
     1
102
RTVSPost2010Prop47
 90
       50
102
RTVSPost2010PropOp47
 70
     1
102
RTVSPost2010Prop48
 90
       50
102
RTVSPost2010PropOp48
 70
     1
102
RTVSPost2010Prop49
280
     0
102
RTVSPost2010PropOp49
 70
     1
102
RTVSPost2010Prop50
 90
       50
102
RTVSPost2010PropOp50
 70
     1
102
RTVSPost2010Prop51ColorIndex
 90
      256
102
RTVSPost2010Prop51ColorRGB
 90
-16777216
102
RTVSPost2010PropOp51
 70
     0
102
RTVSPost2010Prop52
140
1.0
102
RTVSPost2010PropOp52
 70
     0
102
RTVSPost2010Prop53
 90
        2
102
RTVSPost2010PropOp53
 70
     1
102
RTVSPost2010Prop54
  1
strokes_ogs.tif
102
RTVSPost2010PropOp54
 70
     1
102
RTVSPost2010Prop55
280
     0
102
RTVSPost2010PropOp55
 70
     1
102
RTVSPost2010Prop56
140
1.0
102
RTVSPost2010PropOp56
 70
     1
102
RTVSPost2010Prop57
140
1.0
102
RTVSPost2010PropOp57
 70
     1
  0
XRECORD
  5
CE
102
{ACAD_REACTORS
330
CD
102
}
330
CD
100
AcDbXrecord
280
     1
102
RTVSPropertyOp0
 70
     1
102
RTVSPropertyOp1
 70
     1
102
RTVSPropertyOp2
 70
     1
102
RTVSPropertyOp3
 70
     1
102
RTVSPropertyOp4
 70
     1
102
RTVSPropertyOp5
 70
     1
102
RTVSPropertyOp6
 70
     1
102
RTVSPropertyOp7
 70
     1
102
RTVSPropertyOp8
 70
     1
102
RTVSPropertyOp9
 70
     1
102
RTVSPropertyOp10
 70
     1
102
RTVSPropertyOp11
 70
     1
102
RTVSPropertyOp12
 70
     1
102
RTVSPropertyOp13
 70
     1
102
RTVSPropertyOp14
 70
     1
102
RTVSPropertyOp15
 70
     1
102
RTVSPropertyOp16
 70
     1
102
RTVSPropertyOp17
 70
     1
102
RTVSPropertyOp18
 70
     1
102
RTVSPropertyOp19
 70
     1
102
RTVSPropertyOp20
 70
     1
102
RTVSPropertyOp21
 70
     1
102
RTVSPropertyOp22
 70
     1
102
RTVSPropertyOp23
 70
     1
102
RTVSPropertyOp24
 70
     1
102
RTVSPropertyOp25
 70
     1
102
RTVSPropertyOp26
 70
     1
102
RTVSPropertyOp27
 70
     1
102
RTVSPropertyOp28
 70
     1
102
RTVSPropertyOp29
 70
     1
102
RTVSPropertyOp30
 70
     1
102
RTVSPropertyOp31
 70
     1
102
RTVSPropertyOp32
 70
     1
102
RTVSPropertyOp33
 70
     1
102
RTVSPropertyOp34
 70
     1
102
RTVSPropertyOp35
 70
     1
102
RTVSPropertyOp36
 70
     1
102
RTVSPropertyOp37
 70
     1
102
RTVSPropertyOp38
 70
     1
102
RTVSPropertyOp39
 70
     1
102
RTVSPropertyOp40
 70
     1
102
RTVSPropertyOp41
 70
     1
102
RTVSPropertyOp42
 70
     1
102
RTVSPropertyOp43
 70
     1
102
RTVSPropertyOp44
 70
     1
102
RTVSPropertyOp45
 70
     1
102
RTVSPropertyOp46
 70
     1
102
RTVSPropertyOp47
 70
     1
102
RTVSPropertyOp48
 70
     1
102
RTVSPropertyOp49
 70
     1
102
RTVSPropertyOp50
 70
     1
102
RTVSPropertyOp51
 70
     0
102
RTVSPropertyOp52
 70
     0
102
RTVSPropertyOp53
 70
     1
102
RTVSPropertyOp54
 70
     1
102
RTVSPropertyOp55
 70
     1
102
RTVSPropertyOp56
 70
     1
102
RTVSPropertyOp57
 70
     1
102
RTVSPost2010Prop28
280
     0
102
RTVSPost2010PropOp28
 70
     1
102
RTVSPost2010Prop29
280
     1
102
RTVSPost2010PropOp29
 70
     1
102
RTVSPost2010Prop30
280
     1
102
RTVSPost2010PropOp30
 70
     1
102
RTVSPost2010Prop31
280
     0
102
RTVSPost2010PropOp31
 70
     1
102
RTVSPost2010Prop32
280
     0
102
RTVSPost2010PropOp32
 70
     1
102
RTVSPost2010Prop33
280
     0
102
RTVSPost2010PropOp33
 70
     1
102
RTVSPost2010Prop34
280
     0
102
RTVSPost2010PropOp34
 70
     1
102
RTVSPost2010Prop35
280
     0
102
RTVSPost2010PropOp35
 70
     1
102
RTVSPost2010Prop36
280
     0
102
RTVSPost2010PropOp36
 70
     1
102
RTVSPost2010Prop37
 90
       50
102
RTVSPost2010PropOp37
 70
     1
102
RTVSPost2010Prop38
140
0.0
102
RTVSPost2010PropOp38
 70
     1
102
RTVSPost2010Prop39
140
1.0
102
RTVSPost2010PropOp39
 70
     1
102
RTVSPost2010Prop40
 90
        0
102
RTVSPost2010PropOp40
 70
     1
102
RTVSPost2010Prop41ColorIndex
 90
       18
102
RTVSPost2010Prop41ColorRGB
 90
        0
102
RTVSPost2010PropOp41
 70
     1
102
RTVSPost2010Prop42
 90
       50
102
RTVSPost2010PropOp42
 70
     1
102
RTVSPost2010Prop43
 90
        3
102
RTVSPost2010PropOp43
 70
     1
102
RTVSPost2010Prop44ColorIndex
 90
        5
102
RTVSPost2010Prop44ColorRGB
 90
      255
102
RTVSPost2010PropOp44
 70
     1
102
RTVSPost2010Prop45
280
     0
102
RTVSPost2010PropOp45
 70
     1
102
RTVSPost2010Prop46
 90
       50
102
RTVSPost2010PropOp46
 70
     1
102
RTVSPost2010Prop47
 90
       50
102
RTVSPost2010PropOp47
 70
     1
102
RTVSPost2010Prop48
 90
       50
102
RTVSPost2010PropOp48
 70
     1
102
RTVSPost2010Prop49
280
     0
102
RTVSPost2010PropOp49
 70
     1
102
RTVSPost2010Prop50
 90
       50
102
RTVSPost2010PropOp50
 70
     1
102
RTVSPost2010Prop51ColorIndex
 90
      256
102
RTVSPost2010Prop51ColorRGB
 90
-16777216
102
RTVSPost2010PropOp51
 70
     0
102
RTVSPost2010Prop52
140
1.0
102
RTVSPost2010PropOp52
 70
     0
102
RTVSPost2010Prop53
 90
        2
102
RTVSPost2010PropOp53
 70
     1
102
RTVSPost2010Prop54
  1
strokes_ogs.tif
102
RTVSPost2010PropOp54
 70
     1
102
RTVSPost2010Prop55
280
     0
102
RTVSPost2010PropOp55
 70
     1
102
RTVSPost2010Prop56
140
1.0
102
RTVSPost2010PropOp56
 70
     1
102
RTVSPost2010Prop57
140
1.0
102
RTVSPost2010PropOp57
 70
     1
  0
XRECORD
  5
EE
102
{ACAD_REACTORS
330
ED
102
}
330
ED
100
AcDbXrecord
280
     1
102
RTVSPropertyOp0
 70
     1
102
RTVSPropertyOp1
 70
     1
102
RTVSPropertyOp2
 70
     1
102
RTVSPropertyOp3
 70
     1
102
RTVSPropertyOp4
 70
     1
102
RTVSPropertyOp5
 70
     1
102
RTVSPropertyOp6
 70
     1
102
RTVSPropertyOp7
 70
     1
102
RTVSPropertyOp8
 70
     1
102
RTVSPropertyOp9
 70
     1
102
RTVSPropertyOp10
 70
     1
102
RTVSPropertyOp11
 70
     1
102
RTVSPropertyOp12
 70
     1
102
RTVSPropertyOp13
 70
     1
102
RTVSPropertyOp14
 70
     1
102
RTVSPropertyOp15
 70
     1
102
RTVSPropertyOp16
 70
     1
102
RTVSPropertyOp17
 70
     1
102
RTVSPropertyOp18
 70
     1
102
RTVSPropertyOp19
 70
     1
102
RTVSPropertyOp20
 70
     1
102
RTVSPropertyOp21
 70
     1
102
RTVSPropertyOp22
 70
     1
102
RTVSPropertyOp23
 70
     1
102
RTVSPropertyOp24
 70
     1
102
RTVSPropertyOp25
 70
     1
102
RTVSPropertyOp26
 70
     1
102
RTVSPropertyOp27
 70
     1
102
RTVSPropertyOp28
 70
     1
102
RTVSPropertyOp29
 70
     1
102
RTVSPropertyOp30
 70
     1
102
RTVSPropertyOp31
 70
     1
102
RTVSPropertyOp32
 70
     1
102
RTVSPropertyOp33
 70
     1
102
RTVSPropertyOp34
 70
     1
102
RTVSPropertyOp35
 70
     1
102
RTVSPropertyOp36
 70
     1
102
RTVSPropertyOp37
 70
     1
102
RTVSPropertyOp38
 70
     1
102
RTVSPropertyOp39
 70
     1
102
RTVSPropertyOp40
 70
     1
102
RTVSPropertyOp41
 70
     1
102
RTVSPropertyOp42
 70
     1
102
RTVSPropertyOp43
 70
     1
102
RTVSPropertyOp44
 70
     1
102
RTVSPropertyOp45
 70
     1
102
RTVSPropertyOp46
 70
     1
102
RTVSPropertyOp47
 70
     1
102
RTVSPropertyOp48
 70
     1
102
RTVSPropertyOp49
 70
     1
102
RTVSPropertyOp50
 70
     1
102
RTVSPropertyOp51
 70
     0
102
RTVSPropertyOp52
 70
     0
102
RTVSPropertyOp53
 70
     1
102
RTVSPropertyOp54
 70
     1
102
RTVSPropertyOp55
 70
     1
102
RTVSPropertyOp56
 70
     1
102
RTVSPropertyOp57
 70
     1
102
RTVSPost2010Prop28
280
     0
102
RTVSPost2010PropOp28
 70
     1
102
RTVSPost2010Prop29
280
     1
102
RTVSPost2010PropOp29
 70
     1
102
RTVSPost2010Prop30
280
     1
102
RTVSPost2010PropOp30
 70
     1
102
RTVSPost2010Prop31
280
     0
102
RTVSPost2010PropOp31
 70
     1
102
RTVSPost2010Prop32
280
     0
102
RTVSPost2010PropOp32
 70
     1
102
RTVSPost2010Prop33
280
     0
102
RTVSPost2010PropOp33
 70
     1
102
RTVSPost2010Prop34
280
     0
102
RTVSPost2010PropOp34
 70
     1
102
RTVSPost2010Prop35
280
     0
102
RTVSPost2010PropOp35
 70
     1
102
RTVSPost2010Prop36
280
     0
102
RTVSPost2010PropOp36
 70
     1
102
RTVSPost2010Prop37
 90
       50
102
RTVSPost2010PropOp37
 70
     1
102
RTVSPost2010Prop38
140
0.0
102
RTVSPost2010PropOp38
 70
     1
102
RTVSPost2010Prop39
140
1.0
102
RTVSPost2010PropOp39
 70
     1
102
RTVSPost2010Prop40
 90
        0
102
RTVSPost2010PropOp40
 70
     1
102
RTVSPost2010Prop41ColorIndex
 90
       18
102
RTVSPost2010Prop41ColorRGB
 90
        0
102
RTVSPost2010PropOp41
 70
     1
102
RTVSPost2010Prop42
 90
       50
102
RTVSPost2010PropOp42
 70
     1
102
RTVSPost2010Prop43
 90
        3
102
RTVSPost2010PropOp43
 70
     1
102
RTVSPost2010Prop44ColorIndex
 90
        5
102
RTVSPost2010Prop44ColorRGB
 90
      255
102
RTVSPost2010PropOp44
 70
     1
102
RTVSPost2010Prop45
280
     0
102
RTVSPost2010PropOp45
 70
     1
102
RTVSPost2010Prop46
 90
       50
102
RTVSPost2010PropOp46
 70
     1
102
RTVSPost2010Prop47
 90
       50
102
RTVSPost2010PropOp47
 70
     1
102
RTVSPost2010Prop48
 90
       50
102
RTVSPost2010PropOp48
 70
     1
102
RTVSPost2010Prop49
280
     0
102
RTVSPost2010PropOp49
 70
     1
102
RTVSPost2010Prop50
 90
       50
102
RTVSPost2010PropOp50
 70
     1
102
RTVSPost2010Prop51ColorIndex
 90
      256
102
RTVSPost2010Prop51ColorRGB
 90
-16777216
102
RTVSPost2010PropOp51
 70
     0
102
RTVSPost2010Prop52
140
1.0
102
RTVSPost2010PropOp52
 70
     0
102
RTVSPost2010Prop53
 90
        2
102
RTVSPost2010PropOp53
 70
     1
102
RTVSPost2010Prop54
  1
strokes_ogs.tif
102
RTVSPost2010PropOp54
 70
     1
102
RTVSPost2010Prop55
280
     0
102
RTVSPost2010PropOp55
 70
     1
102
RTVSPost2010Prop56
140
1.0
102
RTVSPost2010PropOp56
 70
     1
102
RTVSPost2010Prop57
140
1.0
102
RTVSPost2010PropOp57
 70
     1
  0
ENDSEC
  0
EOF
