  0
SECTION
  2
HEADER
  9
$ACADVER
  1
AC1009
  9
$DWGCODEPAGE
  3
ansi_1254
  9
$INSBASE
 10
0.0
 20
0.0
 30
0.0
  9
$EXTMIN
 10
-0.0000000000145519
 20
-0.000959822027653
 30
0.0
  9
$EXTMAX
 10
1000.0
 20
2150.000000000005
 30
0.0
  9
$LIMMIN
 10
0.0
 20
0.0
  9
$LIMMAX
 10
12.0
 20
9.0
  9
$ORTHOMODE
 70
     0
  9
$REGENMODE
 70
     1
  9
$FILLMODE
 70
     1
  9
$QTEXTMODE
 70
     0
  9
$MIRRTEXT
 70
     1
  9
$DRAGMODE
 70
     2
  9
$LTSCALE
 40
1.0
  9
$OSMODE
 70
    37
  9
$ATTMODE
 70
     1
  9
$TEXTSIZE
 40
0.2
  9
$TRACEWID
 40
0.05
  9
$TEXTSTYLE
  7
STANDARD
  9
$CLAYER
  8
0
  9
$CELTYPE
  6
BYLAYER
  9
$CECOLOR
 62
   256
  9
$DIMSCALE
 40
1.0
  9
$DIMASZ
 40
0.18
  9
$DIMEXO
 40
0.0625
  9
$DIMDLI
 40
0.38
  9
$DIMRND
 40
0.0
  9
$DIMDLE
 40
0.0
  9
$DIMEXE
 40
0.18
  9
$DIMTP
 40
0.0
  9
$DIMTM
 40
0.0
  9
$DIMTXT
 40
0.18
  9
$DIMCEN
 40
0.09
  9
$DIMTSZ
 40
0.0
  9
$DIMTOL
 70
     0
  9
$DIMLIM
 70
     0
  9
$DIMTIH
 70
     1
  9
$DIMTOH
 70
     1
  9
$DIMSE1
 70
     0
  9
$DIMSE2
 70
     0
  9
$DIMTAD
 70
     0
  9
$DIMZIN
 70
     0
  9
$DIMBLK
  1

  9
$DIMASO
 70
     1
  9
$DIMSHO
 70
     1
  9
$DIMPOST
  1

  9
$DIMAPOST
  1

  9
$DIMALT
 70
     0
  9
$DIMALTD
 70
     2
  9
$DIMALTF
 40
25.4
  9
$DIMLFAC
 40
1.0
  9
$DIMTOFL
 70
     0
  9
$DIMTVP
 40
0.0
  9
$DIMTIX
 70
     0
  9
$DIMSOXD
 70
     0
  9
$DIMSAH
 70
     0
  9
$DIMBLK1
  1

  9
$DIMBLK2
  1

  9
$DIMSTYLE
  2
STANDARD
  9
$DIMCLRD
 70
     0
  9
$DIMCLRE
 70
     0
  9
$DIMCLRT
 70
     0
  9
$DIMTFAC
 40
1.0
  9
$DIMGAP
 40
0.09
  9
$LUNITS
 70
     2
  9
$LUPREC
 70
     4
  9
$SKETCHINC
 40
0.1
  9
$FILLETRAD
 40
0.5
  9
$AUNITS
 70
     0
  9
$AUPREC
 70
     0
  9
$MENU
  1
.
  9
$ELEVATION
 40
0.0
  9
$PELEVATION
 40
0.0
  9
$THICKNESS
 40
0.0
  9
$LIMCHECK
 70
     0
  9
$CHAMFERA
 40
0.0
  9
$CHAMFERB
 40
0.0
  9
$SKPOLY
 70
     0
  9
$TDCREATE
 40
2454910.5
  9
$TDUPDATE
 40
2457468.711609271
  9
$TDINDWG
 40
0.0000000116
  9
$TDUSRTIMER
 40
0.0000000116
  9
$USRTIMER
 70
     1
  9
$ANGBASE
 50
0.0
  9
$ANGDIR
 70
     0
  9
$PDMODE
 70
     0
  9
$PDSIZE
 40
0.0
  9
$PLINEWID
 40
0.0
  9
$COORDS
 70
     1
  9
$SPLFRAME
 70
     0
  9
$SPLINETYPE
 70
     6
  9
$SPLINESEGS
 70
     8
  9
$ATTDIA
 70
     0
  9
$ATTREQ
 70
     1
  9
$HANDLING
 70
     1
  9
$HANDSEED
  5
37F
  9
$SURFTAB1
 70
     6
  9
$SURFTAB2
 70
     6
  9
$SURFTYPE
 70
     6
  9
$SURFU
 70
     6
  9
$SURFV
 70
     6
  9
$UCSNAME
  2

  9
$UCSORG
 10
0.0
 20
0.0
 30
0.0
  9
$UCSXDIR
 10
1.0
 20
0.0
 30
0.0
  9
$UCSYDIR
 10
0.0
 20
1.0
 30
0.0
  9
$PUCSNAME
  2

  9
$PUCSORG
 10
0.0
 20
0.0
 30
0.0
  9
$PUCSXDIR
 10
1.0
 20
0.0
 30
0.0
  9
$PUCSYDIR
 10
0.0
 20
1.0
 30
0.0
  9
$USERI1
 70
     0
  9
$USERI2
 70
     0
  9
$USERI3
 70
     0
  9
$USERI4
 70
     0
  9
$USERI5
 70
     0
  9
$USERR1
 40
0.0
  9
$USERR2
 40
0.0
  9
$USERR3
 40
0.0
  9
$USERR4
 40
0.0
  9
$USERR5
 40
0.0
  9
$WORLDVIEW
 70
     1
  9
$SHADEDGE
 70
     3
  9
$SHADEDIF
 70
    70
  9
$TILEMODE
 70
     1
  9
$MAXACTVP
 70
    64
  9
$PLIMCHECK
 70
     0
  9
$PEXTMIN
 10
1.000000000000000E 20
 20
1.000000000000000E 20
 30
1.000000000000000E 20
  9
$PEXTMAX
 10
-1.000000000000000E 20
 20
-1.000000000000000E 20
 30
-1.000000000000000E 20
  9
$PLIMMIN
 10
0.0
 20
0.0
  9
$PLIMMAX
 10
12.0
 20
9.0
  9
$UNITMODE
 70
     0
  9
$VISRETAIN
 70
     1
  9
$PLINEGEN
 70
     0
  9
$PSLTSCALE
 70
     1
  0
ENDSEC
  0
SECTION
  2
TABLES
  0
TABLE
  2
VPORT
 70
     1
  0
VPORT
  2
*ACTIVE
 70
     0
 10
0.0
 20
0.0
 11
1.0
 21
1.0
 12
10.42990654205607
 22
4.5
 13
0.0
 23
0.0
 14
0.5
 24
0.5
 15
0.5
 25
0.5
 16
0.0
 26
0.0
 36
1.0
 17
0.0
 27
0.0
 37
0.0
 40
9.0
 41
1.972972972850329
 42
50.0
 43
0.0
 44
0.0
 50
0.0
 51
0.0
 71
     0
 72
   100
 73
     1
 74
     3
 75
     0
 76
     0
 77
     0
 78
     0
  0
ENDTAB
  0
TABLE
  2
LTYPE
 70
     2
  0
LTYPE
  2
CONTINUOUS
 70
     0
  3
Solid line
 72
    65
 73
     0
 40
0.0
  0
LTYPE
  2
CONTINUOUS2
 70
     0
  3
Solid Line
 72
    65
 73
     0
 40
0.0
  0
ENDTAB
  0
TABLE
  2
LAYER
 70
     5
  0
LAYER
  2
0
 70
     0
 62
     7
  6
CONTINUOUS
  0
LAYER
  2
2
 70
     0
 62
     2
  6
CONTINUOUS
  0
LAYER
  2
7
 70
     0
 62
    18
  6
CONTINUOUS
  0
LAYER
  2
3
 70
     0
 62
     3
  6
CONTINUOUS
  0
LAYER
  2
4
 70
     0
 62
     4
  6
CONTINUOUS
  0
ENDTAB
  0
TABLE
  2
STYLE
 70
     1
  0
STYLE
  2
STANDARD
 70
     0
 40
0.0
 41
1.0
 50
0.0
 71
     0
 42
0.2
  3
txt
  4

  0
ENDTAB
  0
TABLE
  2
VIEW
 70
     0
  0
ENDTAB
  0
TABLE
  2
UCS
 70
     0
  0
ENDTAB
  0
TABLE
  2
APPID
 70
     1
  0
APPID
  2
ACAD
 70
     0
  0
ENDTAB
  0
TABLE
  2
DIMSTYLE
 70
     1
  0
DIMSTYLE
  2
STANDARD
 70
     0
  3

  4

  5

  6

  7

 40
1.0
 41
0.18
 42
0.0625
 43
0.38
 44
0.18
 45
0.0
 46
0.0
 47
0.0
 48
0.0
140
0.18
141
0.09
142
0.0
143
25.4
144
1.0
145
0.0
146
1.0
147
0.09
 71
     0
 72
     0
 73
     1
 74
     1
 75
     0
 76
     0
 77
     0
 78
     0
170
     0
171
     2
172
     0
173
     0
174
     0
175
     0
176
     0
177
     0
178
     0
  0
ENDTAB
  0
ENDSEC
  0
SECTION
  2
BLOCKS
  0
BLOCK
  8
0
  2
$MODEL_SPACE
 70
     0
 10
0.0
 20
0.0
 30
0.0
  3
$MODEL_SPACE
  1

  0
ENDBLK
  5
21
  8
0
  0
BLOCK
 67
     1
  8
0
  2
$PAPER_SPACE
 70
     0
 10
0.0
 20
0.0
 30
0.0
  3
$PAPER_SPACE
  1

  0
ENDBLK
  5
1D
 67
     1
  8
0
  0
ENDSEC
  0
SECTION
  2
ENTITIES
  0
POLYLINE
  5
6B
  8
0
 66
     1
 10
0.0
 20
0.0
 30
0.0
  0
VERTEX
  5
119
  8
0
 10
504.8120015139502
 20
873.3335784140363
 30
0.0
 42
0.2120105095725412
  0
VERTEX
  5
11A
  8
0
 10
516.075804916778
 20
807.0757436049862
 30
0.0
 42
-0.2968513985052224
  0
VERTEX
  5
11B
  8
0
 10
532.7022469993462
 20
422.2537056625606
 30
0.0
 42
-0.3147821805749627
  0
VERTEX
  5
11C
  8
0
 10
339.7991127862333
 20
367.7531552641467
 30
0.0
 42
0.3968925716245205
  0
VERTEX
  5
11D
  8
0
 10
425.0528856486198
 20
483.953816881176
 30
0.0
 42
0.0484266852272049
  0
VERTEX
  5
11E
  8
0
 10
326.9072529284531
 20
731.1393671165843
 30
0.0
 42
-0.1102792030553587
  0
VERTEX
  5
11F
  8
0
 10
304.9427515022762
 20
818.8960748349909
 30
0.0
 42
-0.3840218791155633
  0
VERTEX
  5
120
  8
0
 10
392.8968166242776
 20
917.5068983321107
 30
0.0
  0
SEQEND
  5
2DC
  8
0
  0
POLYLINE
  5
6C
  8
0
 66
     1
 10
0.0
 20
0.0
 30
0.0
  0
VERTEX
  5
121
  8
0
 10
515.3882060872565
 20
874.0395352790365
 30
0.0
 42
0.2232747481196926
  0
VERTEX
  5
122
  8
0
 10
524.315710175666
 20
812.7444708440235
 30
0.0
 42
-0.2972837565728383
  0
VERTEX
  5
123
  8
0
 10
540.9258773614856
 20
416.5157017086967
 30
0.0
 42
-0.3898528341812588
  0
VERTEX
  5
124
  8
0
 10
293.1915763219149
 20
380.0992407539325
 30
0.0
 42
0.539667633928392
  0
VERTEX
  5
125
  8
0
 10
415.2198472118907
 20
481.959637205835
 30
0.0
 42
0.0482864969467207
  0
VERTEX
  5
126
  8
0
 10
317.9910005552665
 20
726.61136464626
 30
0.0
 42
-0.1104554281161283
  0
VERTEX
  5
127
  8
0
 10
294.9434440732075
 20
818.7420314588635
 30
0.0
 42
-0.3653039521986169
  0
VERTEX
  5
128
  8
0
 10
384.6407851996555
 20
926.4195234544495
 30
0.0
  0
SEQEND
  5
2DD
  8
0
  0
POLYLINE
  5
6D
  8
0
 66
     1
 10
0.0
 20
0.0
 30
0.0
  0
VERTEX
  5
129
  8
0
 10
484.6117939127289
 20
1175.960464720976
 30
0.0
 42
0.2232747481196926
  0
VERTEX
  5
12A
  8
0
 10
475.6842898243194
 20
1237.255529155989
 30
0.0
 42
-0.2972837565728383
  0
VERTEX
  5
12B
  8
0
 10
459.0741226384853
 20
1633.484298291316
 30
0.0
 42
-0.3898528341812588
  0
VERTEX
  5
12C
  8
0
 10
706.8084236780705
 20
1669.900759246082
 30
0.0
 42
0.5396676339283921
  0
VERTEX
  5
12D
  8
0
 10
584.7801527880947
 20
1568.040362794183
 30
0.0
 42
0.0482864969467207
  0
VERTEX
  5
12E
  8
0
 10
682.0089994447044
 20
1323.388635353755
 30
0.0
 42
-0.1104554281161285
  0
VERTEX
  5
12F
  8
0
 10
705.0565559267707
 20
1231.257968541153
 30
0.0
 42
-0.3653039521986169
  0
VERTEX
  5
130
  8
0
 10
615.3592148003227
 20
1123.580476545567
 30
0.0
  0
SEQEND
  5
2DE
  8
0
  0
POLYLINE
  5
6F
  8
2
 66
     1
 10
0.0
 20
0.0
 30
0.0
  0
VERTEX
  5
131
  8
2
 10
1000.0
 20
0.000000000007276
 30
0.0
  0
VERTEX
  5
132
  8
2
 10
0.0
 20
0.0
 30
0.0
  0
SEQEND
  5
2DF
  8
2
  0
POLYLINE
  5
71
  8
7
 66
     1
 10
0.0
 20
0.0
 30
0.0
 70
     1
  0
VERTEX
  5
133
  8
7
 10
49.9999999999709
 20
2128.549230221795
 30
0.0
 42
0.4142135623730951
  0
VERTEX
  5
134
  8
7
 10
21.45076977818098
 20
2100.000000000005
 30
0.0
 42
0.4142135623730951
  0
VERTEX
  5
135
  8
7
 10
49.9999999999709
 20
2071.450769778216
 30
0.0
 42
0.4142135623730951
  0
VERTEX
  5
136
  8
7
 10
78.54923022176081
 20
2100.000000000005
 30
0.0
 42
0.4142135623730951
  0
SEQEND
  5
2E0
  8
7
  0
POLYLINE
  5
72
  8
7
 66
     1
 10
0.0
 20
0.0
 30
0.0
 70
     1
  0
VERTEX
  5
137
  8
7
 10
499.9999999999854
 20
1176.742738855273
 30
0.0
 42
0.4142135623730951
  0
VERTEX
  5
138
  8
7
 10
348.2572611447183
 20
1025.000000000005
 30
0.0
 42
0.4142135623730951
  0
VERTEX
  5
139
  8
7
 10
499.9999999999854
 20
873.2572611447383
 30
0.0
 42
0.4142135623730951
  0
VERTEX
  5
13A
  8
7
 10
651.7427388552526
 20
1025.000000000005
 30
0.0
 42
0.4142135623730951
  0
SEQEND
  5
2E1
  8
7
  0
POLYLINE
  5
73
  8
7
 66
     1
 10
0.0
 20
0.0
 30
0.0
  0
VERTEX
  5
13B
  8
7
 10
171.2054741197016
 20
903.8464486283862
 30
0.0
 42
0.9051095889505907
  0
VERTEX
  5
13C
  8
7
 10
121.6991961818712
 20
898.9025289654546
 30
0.0
 42
0.9051095889505941
  0
VERTEX
  5
13D
  8
7
 10
171.2054741196901
 20
893.958609302408
 30
0.0
  0
SEQEND
  5
2E2
  8
7
  0
POLYLINE
  5
74
  8
7
 66
     1
 10
0.0
 20
0.0
 30
0.0
  0
VERTEX
  5
13E
  8
7
 10
163.6991961818712
 20
894.4025289653964
 30
0.0
  0
VERTEX
  5
13F
  8
7
 10
254.5811229132159
 20
889.0277913630052
 30
0.0
  0
SEQEND
  5
2E3
  8
7
  0
POLYLINE
  5
75
  8
7
 66
     1
 10
0.0
 20
0.0
 30
0.0
  0
VERTEX
  5
140
  8
7
 10
163.6991961818712
 20
903.4025289653964
 30
0.0
  0
VERTEX
  5
141
  8
7
 10
254.5811229132087
 20
908.7772665677876
 30
0.0
  0
SEQEND
  5
2E4
  8
7
  0
POLYLINE
  5
76
  8
7
 66
     1
 10
0.0
 20
0.0
 30
0.0
  0
VERTEX
  5
142
  8
7
 10
163.6991961818712
 20
903.4025289653964
 30
0.0
  0
VERTEX
  5
143
  8
7
 10
163.6991961818712
 20
894.4025289653964
 30
0.0
  0
SEQEND
  5
2E5
  8
7
  0
POLYLINE
  5
77
  8
7
 66
     1
 10
0.0
 20
0.0
 30
0.0
 70
     1
  0
VERTEX
  5
144
  8
7
 10
146.6991961818712
 20
903.9025289653964
 30
0.0
 42
0.4142135623730951
  0
VERTEX
  5
145
  8
7
 10
141.6991961818712
 20
898.9025289653964
 30
0.0
 42
0.4142135623730951
  0
VERTEX
  5
146
  8
7
 10
146.6991961818712
 20
893.9025289653964
 30
0.0
 42
0.4142135623730951
  0
VERTEX
  5
147
  8
7
 10
151.6991961818712
 20
898.9025289653964
 30
0.0
 42
0.4142135623730951
  0
SEQEND
  5
2E6
  8
7
  0
POLYLINE
  5
78
  8
7
 66
     1
 10
0.0
 20
0.0
 30
0.0
 70
     1
  0
VERTEX
  5
148
  8
7
 10
146.6991961818712
 20
908.9025289653964
 30
0.0
 42
0.4142135623730951
  0
VERTEX
  5
149
  8
7
 10
136.6991961818712
 20
898.9025289653964
 30
0.0
 42
0.4142135623730951
  0
VERTEX
  5
14A
  8
7
 10
146.6991961818712
 20
888.9025289653964
 30
0.0
 42
0.4142135623730951
  0
VERTEX
  5
14B
  8
7
 10
156.6991961818712
 20
898.9025289653964
 30
0.0
 42
0.4142135623730951
  0
SEQEND
  5
2E7
  8
7
  0
POLYLINE
  5
79
  8
7
 66
     1
 10
0.0
 20
0.0
 30
0.0
  0
VERTEX
  5
14C
  8
7
 10
159.6991961818712
 20
903.9025289653964
 30
0.0
  0
VERTEX
  5
14D
  8
7
 10
159.6991961818712
 20
893.9025289653964
 30
0.0
  0
SEQEND
  5
2E8
  8
7
  0
POLYLINE
  5
7A
  8
7
 66
     1
 10
0.0
 20
0.0
 30
0.0
  0
VERTEX
  5
14E
  8
7
 10
155.3594502197157
 20
893.9025289653964
 30
0.0
  0
VERTEX
  5
14F
  8
7
 10
159.6991961818712
 20
893.9025289653964
 30
0.0
  0
SEQEND
  5
2E9
  8
7
  0
POLYLINE
  5
7B
  8
7
 66
     1
 10
0.0
 20
0.0
 30
0.0
  0
VERTEX
  5
150
  8
7
 10
159.6991961818712
 20
894.4025289653964
 30
0.0
  0
VERTEX
  5
151
  8
7
 10
163.6991961818712
 20
894.4025289653964
 30
0.0
  0
SEQEND
  5
2EA
  8
7
  0
POLYLINE
  5
7C
  8
7
 66
     1
 10
0.0
 20
0.0
 30
0.0
  0
VERTEX
  5
152
  8
7
 10
155.3594502197157
 20
903.9025289653964
 30
0.0
  0
VERTEX
  5
153
  8
7
 10
159.6991961818712
 20
903.9025289653964
 30
0.0
  0
SEQEND
  5
2EB
  8
7
  0
POLYLINE
  5
7D
  8
7
 66
     1
 10
0.0
 20
0.0
 30
0.0
  0
VERTEX
  5
154
  8
7
 10
159.6991961818712
 20
903.4025289653964
 30
0.0
  0
VERTEX
  5
155
  8
7
 10
163.6991961818712
 20
903.4025289653964
 30
0.0
  0
SEQEND
  5
2EC
  8
7
  0
POLYLINE
  5
7E
  8
7
 66
     1
 10
0.0
 20
0.0
 30
0.0
  0
VERTEX
  5
156
  8
7
 10
133.6991961818712
 20
901.9025289653964
 30
0.0
  0
VERTEX
  5
157
  8
7
 10
137.1598041677062
 20
901.9025289653964
 30
0.0
  0
SEQEND
  5
2ED
  8
7
  0
POLYLINE
  5
7F
  8
7
 66
     1
 10
0.0
 20
0.0
 30
0.0
  0
VERTEX
  5
158
  8
7
 10
133.6991961818695
 20
901.8229037206604
 30
0.0
 42
0.9046743599491471
  0
VERTEX
  5
159
  8
7
 10
133.6991961818693
 20
895.9025289653962
 30
0.0
  0
VERTEX
  5
15A
  8
7
 10
137.1598041677062
 20
895.9025289653964
 30
0.0
  0
SEQEND
  5
2EE
  8
7
  0
POLYLINE
  5
80
  8
7
 66
     1
 10
0.0
 20
0.0
 30
0.0
  0
VERTEX
  5
15B
  8
7
 10
256.6991961818712
 20
890.9025289653964
 30
0.0
 42
0.17812374654855
  0
VERTEX
  5
15C
  8
7
 10
261.6991961818712
 20
894.9025289653964
 30
0.0
  0
VERTEX
  5
15D
  8
7
 10
264.6991961818712
 20
894.9025289653964
 30
0.0
 42
0.1941420139954694
  0
VERTEX
  5
15E
  8
7
 10
264.6991961818712
 20
902.9025289653964
 30
0.0
  0
VERTEX
  5
15F
  8
7
 10
261.6991961818712
 20
902.9025289653964
 30
0.0
 42
0.1781237465485002
  0
VERTEX
  5
160
  8
7
 10
256.6991961818712
 20
906.9025289653982
 30
0.0
  0
SEQEND
  5
2EF
  8
7
  0
POLYLINE
  5
81
  8
7
 66
     1
 10
0.0
 20
0.0
 30
0.0
  0
VERTEX
  5
161
  8
7
 10
254.5811229132156
 20
889.0277913630046
 30
0.0
 42
0.4316228103580002
  0
VERTEX
  5
162
  8
7
 10
256.6991961818712
 20
891.0243029966377
 30
0.0
  0
SEQEND
  5
2F0
  8
7
  0
POLYLINE
  5
82
  8
7
 66
     1
 10
0.0
 20
0.0
 30
0.0
  0
VERTEX
  5
163
  8
7
 10
256.699196181864
 20
906.7807549341564
 30
0.0
 42
0.4316228103578109
  0
VERTEX
  5
164
  8
7
 10
254.5811229132083
 20
908.7772665677883
 30
0.0
  0
SEQEND
  5
2F1
  8
7
  0
POLYLINE
  5
83
  8
7
 66
     1
 10
0.0
 20
0.0
 30
0.0
 70
     1
  0
VERTEX
  5
165
  8
7
 10
950.0
 20
2128.549230221795
 30
0.0
 42
0.4142135623730951
  0
VERTEX
  5
166
  8
7
 10
921.4507697782101
 20
2100.000000000005
 30
0.0
 42
0.4142135623730951
  0
VERTEX
  5
167
  8
7
 10
950.0
 20
2071.450769778216
 30
0.0
 42
0.4142135623730951
  0
VERTEX
  5
168
  8
7
 10
978.5492302217899
 20
2100.000000000005
 30
0.0
 42
0.4142135623730951
  0
SEQEND
  5
2F2
  8
7
  0
POLYLINE
  5
85
  8
3
 66
     1
 10
0.0
 20
0.0
 30
0.0
  0
VERTEX
  5
169
  8
3
 10
116.904669378986
 20
2064.448356597632
 30
0.0
  0
VERTEX
  5
16A
  8
3
 10
150.2309250169783
 20
2099.448356597602
 30
0.0
  0
VERTEX
  5
16B
  8
3
 10
116.9046693789132
 20
2134.448356597632
 30
0.0
  0
SEQEND
  5
2F3
  8
3
  0
POLYLINE
  5
86
  8
3
 66
     1
 10
0.0
 20
0.0
 30
0.0
  0
VERTEX
  5
16C
  8
3
 10
100.0
 20
2050.000000000005
 30
0.0
  0
VERTEX
  5
16D
  8
3
 10
194.5307670511819
 20
1932.427358480098
 30
0.0
  0
SEQEND
  5
2F4
  8
3
  0
POLYLINE
  5
87
  8
3
 66
     1
 10
0.0
 20
0.0
 30
0.0
  0
VERTEX
  5
16E
  8
3
 10
241.5260336586924
 20
1873.976995637007
 30
0.0
  0
VERTEX
  5
16F
  8
3
 10
335.5165668737133
 20
1757.076269950825
 30
0.0
  0
SEQEND
  5
2F5
  8
3
  0
POLYLINE
  5
88
  8
3
 66
     1
 10
0.0
 20
0.0
 30
0.0
  0
VERTEX
  5
170
  8
3
 10
382.5118334812238
 20
1698.625907107733
 30
0.0
  0
VERTEX
  5
171
  8
3
 10
476.5023666962448
 20
1581.725181421551
 30
0.0
  0
SEQEND
  5
2F6
  8
3
  0
POLYLINE
  5
89
  8
3
 66
     1
 10
0.0
 20
0.0
 30
0.0
  0
VERTEX
  5
172
  8
3
 10
523.4976333037553
 20
1523.27481857846
 30
0.0
  0
VERTEX
  5
173
  8
3
 10
617.4881665187762
 20
1406.374092892278
 30
0.0
  0
SEQEND
  5
2F7
  8
3
  0
POLYLINE
  5
8A
  8
3
 66
     1
 10
0.0
 20
0.0
 30
0.0
  0
VERTEX
  5
174
  8
3
 10
664.4834331262866
 20
1347.923730049186
 30
0.0
  0
VERTEX
  5
175
  8
3
 10
758.4739663413077
 20
1231.023004363004
 30
0.0
  0
SEQEND
  5
2F8
  8
3
  0
POLYLINE
  5
8B
  8
3
 66
     1
 10
0.0
 20
0.0
 30
0.0
  0
VERTEX
  5
176
  8
3
 10
805.4692329488181
 20
1172.572641519913
 30
0.0
  0
VERTEX
  5
177
  8
3
 10
900.0
 20
1055.000000000005
 30
0.0
  0
SEQEND
  5
2F9
  8
3
  0
POLYLINE
  5
8C
  8
3
 66
     1
 10
0.0
 20
0.0
 30
0.0
  0
VERTEX
  5
178
  8
3
 10
105.8874798289398
 20
2050.000000000005
 30
0.0
 42
0.1887287899990768
  0
VERTEX
  5
179
  8
3
 10
452.5570491498802
 20
1169.135440506665
 30
0.0
  0
SEQEND
  5
2FA
  8
3
  0
POLYLINE
  5
8D
  8
3
 66
     1
 10
0.0
 20
0.0
 30
0.0
  0
VERTEX
  5
17A
  8
3
 10
110.8874885997502
 20
2050.000000000005
 30
0.0
 42
0.1892084916449124
  0
VERTEX
  5
17B
  8
3
 10
457.8604016059398
 20
1170.774185103377
 30
0.0
  0
SEQEND
  5
2FB
  8
3
  0
POLYLINE
  5
8E
  8
3
 66
     1
 10
0.0
 20
0.0
 30
0.0
  0
VERTEX
  5
17C
  8
3
 10
437.9090121545305
 20
1304.200126033762
 30
0.0
 42
-0.1778917435007847
  0
VERTEX
  5
17D
  8
3
 10
112.5973127839607
 20
2050.000000000005
 30
0.0
  0
SEQEND
  5
2FC
  8
3
  0
POLYLINE
  5
8F
  8
3
 66
     1
 10
0.0
 20
0.0
 30
0.0
  0
VERTEX
  5
17E
  8
3
 10
408.2698694016217
 20
1456.848967265438
 30
0.0
 42
-0.1807249349697639
  0
VERTEX
  5
17F
  8
3
 10
122.9304866745806
 20
2050.000000000005
 30
0.0
  0
SEQEND
  5
2FD
  8
3
  0
POLYLINE
  5
90
  8
3
 66
     1
 10
0.0
 20
0.0
 30
0.0
  0
VERTEX
  5
180
  8
3
 10
430.8752229589372
 20
1574.480256856352
 30
0.0
 42
-0.1829974453524661
  0
VERTEX
  5
181
  8
3
 10
129.8096207266135
 20
2050.000000000005
 30
0.0
  0
SEQEND
  5
2FE
  8
3
  0
POLYLINE
  5
91
  8
3
 66
     1
 10
0.0
 20
0.0
 30
0.0
  0
VERTEX
  5
182
  8
3
 10
408.4945175490284
 20
1463.578354600226
 30
0.0
 42
-0.1793581503680348
  0
VERTEX
  5
183
  8
3
 10
127.9512753082672
 20
2050.000000000005
 30
0.0
  0
SEQEND
  5
2FF
  8
3
  0
POLYLINE
  5
92
  8
3
 66
     1
 10
0.0
 20
0.0
 30
0.0
  0
VERTEX
  5
184
  8
3
 10
432.6617384027049
 20
1317.017428744022
 30
0.0
 42
-0.1749982936719826
  0
VERTEX
  5
185
  8
3
 10
117.6061280990689
 20
2050.000000000005
 30
0.0
  0
SEQEND
  5
300
  8
3
  0
POLYLINE
  5
93
  8
3
 66
     1
 10
0.0
 20
0.0
 30
0.0
  0
VERTEX
  5
186
  8
3
 10
432.7228839203308
 20
1579.347760017312
 30
0.0
 42
-0.1821883312247108
  0
VERTEX
  5
187
  8
3
 10
134.9145297934156
 20
2050.000000000005
 30
0.0
  0
SEQEND
  5
301
  8
3
  0
POLYLINE
  5
94
  8
3
 66
     1
 10
0.0
 20
0.0
 30
0.0
  0
VERTEX
  5
188
  8
3
 10
899.9999999999854
 20
2065.000000000005
 30
0.0
  0
VERTEX
  5
189
  8
3
 10
99.99999999998545
 20
2065.000000000005
 30
0.0
  0
SEQEND
  5
302
  8
3
  0
POLYLINE
  5
95
  8
3
 66
     1
 10
0.0
 20
0.0
 30
0.0
  0
VERTEX
  5
18A
  8
3
 10
899.9999999999854
 20
2135.000000000005
 30
0.0
  0
VERTEX
  5
18B
  8
3
 10
99.99999999998545
 20
2135.000000000005
 30
0.0
  0
SEQEND
  5
303
  8
3
  0
POLYLINE
  5
96
  8
3
 66
     1
 10
0.0
 20
0.0
 30
0.0
  0
VERTEX
  5
18C
  8
3
 10
14.99999999998545
 20
2050.000000000005
 30
0.0
  0
VERTEX
  5
18D
  8
3
 10
15.0
 20
0.000000000007276
 30
0.0
  0
SEQEND
  5
304
  8
3
  0
POLYLINE
  5
97
  8
3
 66
     1
 10
0.0
 20
0.0
 30
0.0
  0
VERTEX
  5
18E
  8
3
 10
84.99999999998545
 20
2050.000000000005
 30
0.0
  0
VERTEX
  5
18F
  8
3
 10
85.0
 20
0.000000000007276
 30
0.0
  0
SEQEND
  5
305
  8
3
  0
POLYLINE
  5
98
  8
3
 66
     1
 10
0.0
 20
0.0
 30
0.0
  0
VERTEX
  5
190
  8
3
 10
45.0000000000291
 20
1623.285147981032
 30
0.0
  0
VERTEX
  5
191
  8
3
 10
45.00000000004366
 20
99.99999999999272
 30
0.0
  0
SEQEND
  5
306
  8
3
  0
POLYLINE
  5
99
  8
3
 66
     1
 10
0.0
 20
0.0
 30
0.0
  0
VERTEX
  5
192
  8
3
 10
55.0000000000291
 20
1623.285147981083
 30
0.0
  0
VERTEX
  5
193
  8
3
 10
55.00000000004366
 20
99.99999999999272
 30
0.0
  0
SEQEND
  5
307
  8
3
  0
POLYLINE
  5
9A
  8
3
 66
     1
 10
0.0
 20
0.0
 30
0.0
  0
VERTEX
  5
194
  8
3
 10
14.99999999998545
 20
100.0000000000073
 30
0.0
  0
VERTEX
  5
195
  8
3
 10
85.0
 20
100.0000000000073
 30
0.0
  0
SEQEND
  5
308
  8
3
  0
POLYLINE
  5
9B
  8
3
 66
     1
 10
0.0
 20
0.0
 30
0.0
  0
VERTEX
  5
196
  8
3
 10
84.9999999999709
 20
1700.756188132718
 30
0.0
  0
VERTEX
  5
197
  8
3
 10
50.0
 20
1667.429932494711
 30
0.0
  0
VERTEX
  5
198
  8
3
 10
14.9999999999709
 20
1700.756188132777
 30
0.0
  0
SEQEND
  5
309
  8
3
  0
POLYLINE
  5
9C
  8
3
 66
     1
 10
0.0
 20
0.0
 30
0.0
  0
VERTEX
  5
199
  8
3
 10
84.9999999999709
 20
1707.660252766427
 30
0.0
  0
VERTEX
  5
19A
  8
3
 10
50.0
 20
1674.333997128413
 30
0.0
  0
VERTEX
  5
19B
  8
3
 10
14.9999999999709
 20
1707.660252766485
 30
0.0
  0
SEQEND
  5
30A
  8
3
  0
POLYLINE
  5
9D
  8
3
 66
     1
 10
0.0
 20
0.0
 30
0.0
  0
VERTEX
  5
19C
  8
3
 10
84.9999999999709
 20
1651.850509956492
 30
0.0
  0
VERTEX
  5
19D
  8
3
 10
50.0
 20
1618.524254318485
 30
0.0
  0
VERTEX
  5
19E
  8
3
 10
14.9999999999709
 20
1651.85050995655
 30
0.0
  0
SEQEND
  5
30B
  8
3
  0
POLYLINE
  5
9E
  8
3
 66
     1
 10
0.0
 20
0.0
 30
0.0
  0
VERTEX
  5
19F
  8
3
 10
84.9999999999709
 20
1658.754574590208
 30
0.0
  0
VERTEX
  5
1A0
  8
3
 10
50.0
 20
1625.428318952194
 30
0.0
  0
VERTEX
  5
1A1
  8
3
 10
14.9999999999709
 20
1658.754574590266
 30
0.0
  0
SEQEND
  5
30C
  8
3
  0
POLYLINE
  5
9F
  8
3
 66
     1
 10
0.0
 20
0.0
 30
0.0
  0
VERTEX
  5
1A2
  8
3
 10
84.9999999999709
 20
1854.377287295099
 30
0.0
  0
VERTEX
  5
1A3
  8
3
 10
50.0
 20
1821.051031657085
 30
0.0
  0
VERTEX
  5
1A4
  8
3
 10
14.9999999999709
 20
1854.377287295158
 30
0.0
  0
SEQEND
  5
30D
  8
3
  0
POLYLINE
  5
A0
  8
3
 66
     1
 10
0.0
 20
0.0
 30
0.0
  0
VERTEX
  5
1A5
  8
3
 10
84.9999999999709
 20
1847.473222661391
 30
0.0
  0
VERTEX
  5
1A6
  8
3
 10
50.0
 20
1814.146967023384
 30
0.0
  0
VERTEX
  5
1A7
  8
3
 10
14.9999999999709
 20
1847.473222661441
 30
0.0
  0
SEQEND
  5
30E
  8
3
  0
POLYLINE
  5
A1
  8
3
 66
     1
 10
0.0
 20
0.0
 30
0.0
  0
VERTEX
  5
1A8
  8
3
 10
84.9999999999709
 20
1896.37890083761
 30
0.0
  0
VERTEX
  5
1A9
  8
3
 10
50.0
 20
1863.052645199603
 30
0.0
  0
VERTEX
  5
1AA
  8
3
 10
14.9999999999709
 20
1896.378900837668
 30
0.0
  0
SEQEND
  5
30F
  8
3
  0
POLYLINE
  5
A2
  8
3
 66
     1
 10
0.0
 20
0.0
 30
0.0
  0
VERTEX
  5
1AB
  8
3
 10
84.9999999999709
 20
1903.282965471319
 30
0.0
  0
VERTEX
  5
1AC
  8
3
 10
50.0
 20
1869.956709833312
 30
0.0
  0
VERTEX
  5
1AD
  8
3
 10
14.9999999999709
 20
1903.282965471377
 30
0.0
  0
SEQEND
  5
310
  8
3
  0
POLYLINE
  5
A3
  8
3
 66
     1
 10
0.0
 20
0.0
 30
0.0
  0
VERTEX
  5
1AE
  8
3
 10
84.9999999999709
 20
1952.188643647545
 30
0.0
  0
VERTEX
  5
1AF
  8
3
 10
50.0
 20
1918.862388009538
 30
0.0
  0
VERTEX
  5
1B0
  8
3
 10
14.9999999999709
 20
1952.188643647611
 30
0.0
  0
SEQEND
  5
311
  8
3
  0
POLYLINE
  5
A4
  8
3
 66
     1
 10
0.0
 20
0.0
 30
0.0
  0
VERTEX
  5
1B1
  8
3
 10
84.9999999999709
 20
1945.284579013836
 30
0.0
  0
VERTEX
  5
1B2
  8
3
 10
50.0
 20
1911.958323375829
 30
0.0
  0
VERTEX
  5
1B3
  8
3
 10
14.9999999999709
 20
1945.284579013902
 30
0.0
  0
SEQEND
  5
312
  8
3
  0
POLYLINE
  5
A5
  8
3
 66
     1
 10
0.0
 20
0.0
 30
0.0
  0
VERTEX
  5
1B4
  8
3
 10
84.9999999999709
 20
1756.565930942654
 30
0.0
  0
VERTEX
  5
1B5
  8
3
 10
50.0
 20
1723.23967530464
 30
0.0
  0
VERTEX
  5
1B6
  8
3
 10
14.9999999999709
 20
1756.565930942712
 30
0.0
  0
SEQEND
  5
313
  8
3
  0
POLYLINE
  5
A6
  8
3
 66
     1
 10
0.0
 20
0.0
 30
0.0
  0
VERTEX
  5
1B7
  8
3
 10
84.9999999999709
 20
1749.661866308945
 30
0.0
  0
VERTEX
  5
1B8
  8
3
 10
50.0
 20
1716.335610670931
 30
0.0
  0
VERTEX
  5
1B9
  8
3
 10
14.9999999999709
 20
1749.661866308996
 30
0.0
  0
SEQEND
  5
314
  8
3
  0
POLYLINE
  5
A7
  8
3
 66
     1
 10
0.0
 20
0.0
 30
0.0
  0
VERTEX
  5
1BA
  8
3
 10
84.9999999999709
 20
1805.471609118873
 30
0.0
  0
VERTEX
  5
1BB
  8
3
 10
50.0
 20
1772.145353480866
 30
0.0
  0
VERTEX
  5
1BC
  8
3
 10
14.9999999999709
 20
1805.471609118931
 30
0.0
  0
SEQEND
  5
315
  8
3
  0
POLYLINE
  5
A8
  8
3
 66
     1
 10
0.0
 20
0.0
 30
0.0
  0
VERTEX
  5
1BD
  8
3
 10
84.9999999999709
 20
1798.567544485164
 30
0.0
  0
VERTEX
  5
1BE
  8
3
 10
50.0
 20
1765.241288847157
 30
0.0
  0
VERTEX
  5
1BF
  8
3
 10
14.9999999999709
 20
1798.567544485222
 30
0.0
  0
SEQEND
  5
316
  8
3
  0
POLYLINE
  5
A9
  8
3
 66
     1
 10
0.0
 20
0.0
 30
0.0
  0
VERTEX
  5
1C0
  8
3
 10
84.9999999999709
 20
1994.190257190055
 30
0.0
  0
VERTEX
  5
1C1
  8
3
 10
50.0
 20
1960.864001552056
 30
0.0
  0
VERTEX
  5
1C2
  8
3
 10
14.9999999999709
 20
1994.190257190121
 30
0.0
  0
SEQEND
  5
317
  8
3
  0
POLYLINE
  5
AA
  8
3
 66
     1
 10
0.0
 20
0.0
 30
0.0
  0
VERTEX
  5
1C3
  8
3
 10
84.9999999999709
 20
2001.094321823757
 30
0.0
  0
VERTEX
  5
1C4
  8
3
 10
50.0
 20
1967.768066185758
 30
0.0
  0
VERTEX
  5
1C5
  8
3
 10
14.9999999999709
 20
2001.09432182383
 30
0.0
  0
SEQEND
  5
318
  8
3
  0
POLYLINE
  5
AB
  8
3
 66
     1
 10
0.0
 20
0.0
 30
0.0
  0
VERTEX
  5
1C6
  8
3
 10
84.9999999999709
 20
2043.095935366282
 30
0.0
  0
VERTEX
  5
1C7
  8
3
 10
50.0
 20
2009.769679728275
 30
0.0
  0
VERTEX
  5
1C8
  8
3
 10
14.9999999999709
 20
2043.095935366347
 30
0.0
  0
SEQEND
  5
319
  8
3
  0
POLYLINE
  5
AC
  8
3
 66
     1
 10
0.0
 20
0.0
 30
0.0
  0
VERTEX
  5
1C9
  8
3
 10
84.9999999999709
 20
2049.999999999991
 30
0.0
  0
VERTEX
  5
1CA
  8
3
 10
50.0
 20
2016.673744361984
 30
0.0
  0
VERTEX
  5
1CB
  8
3
 10
14.9999999999709
 20
2050.000000000056
 30
0.0
  0
SEQEND
  5
31A
  8
3
  0
POLYLINE
  5
AD
  8
3
 66
     1
 10
0.0
 20
0.0
 30
0.0
 70
     1
  0
VERTEX
  5
1CC
  8
3
 10
499.9999999999854
 20
1156.742738855273
 30
0.0
 42
0.4142135623730951
  0
VERTEX
  5
1CD
  8
3
 10
368.2572611447183
 20
1025.000000000005
 30
0.0
 42
0.4142135623730951
  0
VERTEX
  5
1CE
  8
3
 10
499.9999999999854
 20
893.2572611447383
 30
0.0
 42
0.4142135623730951
  0
VERTEX
  5
1CF
  8
3
 10
631.7427388552526
 20
1025.000000000005
 30
0.0
 42
0.4142135623730951
  0
SEQEND
  5
31B
  8
3
  0
POLYLINE
  5
AE
  8
3
 66
     1
 10
0.0
 20
0.0
 30
0.0
  0
VERTEX
  5
1D0
  8
3
 10
892.2395721338689
 20
-0.000959822027653
 30
0.0
 42
0.1888654861241944
  0
VERTEX
  5
1D1
  8
3
 10
547.4021119795943
 20
880.8511235722799
 30
0.0
  0
SEQEND
  5
31C
  8
3
  0
POLYLINE
  5
AF
  8
3
 66
     1
 10
0.0
 20
0.0
 30
0.0
  0
VERTEX
  5
1D2
  8
3
 10
984.9999999999854
 20
2050.000000000005
 30
0.0
  0
VERTEX
  5
1D3
  8
3
 10
985.0
 20
0.000000000007276
 30
0.0
  0
SEQEND
  5
31D
  8
3
  0
POLYLINE
  5
B0
  8
3
 66
     1
 10
0.0
 20
0.0
 30
0.0
  0
VERTEX
  5
1D4
  8
3
 10
914.9999999999854
 20
2050.000000000005
 30
0.0
  0
VERTEX
  5
1D5
  8
3
 10
915.0
 20
0.000000000007276
 30
0.0
  0
SEQEND
  5
31E
  8
3
  0
POLYLINE
  5
B1
  8
3
 66
     1
 10
0.0
 20
0.0
 30
0.0
  0
VERTEX
  5
1D6
  8
3
 10
945.0
 20
1623.285147981076
 30
0.0
  0
VERTEX
  5
1D7
  8
3
 10
945.0000000000146
 20
100.0000000000036
 30
0.0
  0
SEQEND
  5
31F
  8
3
  0
POLYLINE
  5
B2
  8
3
 66
     1
 10
0.0
 20
0.0
 30
0.0
  0
VERTEX
  5
1D8
  8
3
 10
955.0000000000146
 20
1623.285147981076
 30
0.0
  0
VERTEX
  5
1D9
  8
3
 10
955.0000000000146
 20
100.0000000000036
 30
0.0
  0
SEQEND
  5
320
  8
3
  0
POLYLINE
  5
B3
  8
3
 66
     1
 10
0.0
 20
0.0
 30
0.0
  0
VERTEX
  5
1DA
  8
3
 10
167.1653413147114
 20
903.6075160431466
 30
0.0
 42
0.8929509053410125
  0
VERTEX
  5
1DB
  8
3
 10
125.6991961818712
 20
898.9025289654535
 30
0.0
 42
0.8929509053410171
  0
VERTEX
  5
1DC
  8
3
 10
167.1653413146988
 20
894.1975418876497
 30
0.0
  0
SEQEND
  5
321
  8
3
  0
POLYLINE
  5
B4
  8
3
 66
     1
 10
0.0
 20
0.0
 30
0.0
  0
VERTEX
  5
1DD
  8
3
 10
205.0
 20
905.8450496213081
 30
0.0
  0
VERTEX
  5
1DE
  8
3
 10
205.0
 20
1554.833292797297
 30
0.0
  0
SEQEND
  5
322
  8
3
  0
POLYLINE
  5
B5
  8
3
 66
     1
 10
0.0
 20
0.0
 30
0.0
  0
VERTEX
  5
1DF
  8
3
 10
200.0
 20
905.5493506965759
 30
0.0
  0
VERTEX
  5
1E0
  8
3
 10
200.0
 20
1567.061662009457
 30
0.0
  0
SEQEND
  5
323
  8
3
  0
POLYLINE
  5
B6
  8
3
 66
     1
 10
0.0
 20
0.0
 30
0.0
  0
VERTEX
  5
1E1
  8
3
 10
900.0
 20
1055.000000000005
 30
0.0
  0
VERTEX
  5
1E2
  8
3
 10
804.9473149085067
 20
923.0518647743143
 30
0.0
  0
SEQEND
  5
324
  8
3
  0
POLYLINE
  5
B7
  8
3
 66
     1
 10
0.0
 20
0.0
 30
0.0
  0
VERTEX
  5
1E3
  8
3
 10
761.1092664610442
 20
862.1977317321131
 30
0.0
  0
VERTEX
  5
1E4
  8
3
 10
673.433169566119
 20
740.4894656477106
 30
0.0
  0
SEQEND
  5
325
  8
3
  0
POLYLINE
  5
B8
  8
3
 66
     1
 10
0.0
 20
0.0
 30
0.0
  0
VERTEX
  5
1E5
  8
3
 10
629.5951211186564
 20
679.6353326055093
 30
0.0
  0
VERTEX
  5
1E6
  8
3
 10
541.9190242237312
 20
557.927066521107
 30
0.0
  0
SEQEND
  5
326
  8
3
  0
POLYLINE
  5
B9
  8
3
 66
     1
 10
0.0
 20
0.0
 30
0.0
  0
VERTEX
  5
1E7
  8
3
 10
498.0809757762688
 20
497.0729334789057
 30
0.0
  0
VERTEX
  5
1E8
  8
3
 10
410.4048788813436
 20
375.3646673945033
 30
0.0
  0
SEQEND
  5
327
  8
3
  0
POLYLINE
  5
BA
  8
3
 66
     1
 10
0.0
 20
0.0
 30
0.0
  0
VERTEX
  5
1E9
  8
3
 10
366.566830433881
 20
314.5105343523021
 30
0.0
  0
VERTEX
  5
1EA
  8
3
 10
278.8907335389559
 20
192.8022682678996
 30
0.0
  0
SEQEND
  5
328
  8
3
  0
POLYLINE
  5
BB
  8
3
 66
     1
 10
0.0
 20
0.0
 30
0.0
  0
VERTEX
  5
1EB
  8
3
 10
235.0526850914933
 20
131.9481352256985
 30
0.0
  0
VERTEX
  5
1EC
  8
3
 10
140.0000000000001
 20
0.0000000000075033
 30
0.0
  0
SEQEND
  5
329
  8
3
  0
POLYLINE
  5
BC
  8
3
 66
     1
 10
0.0
 20
0.0
 30
0.0
  0
VERTEX
  5
1ED
  8
3
 10
200.0
 20
1860.551343851852
 30
0.0
  0
VERTEX
  5
1EE
  8
3
 10
200.0
 20
1950.000000000005
 30
0.0
  0
VERTEX
  5
1EF
  8
3
 10
800.0
 20
1950.000000000005
 30
0.0
  0
VERTEX
  5
1F0
  8
3
 10
800.0
 20
480.5870484002207
 30
0.0
  0
SEQEND
  5
32A
  8
3
  0
POLYLINE
  5
BD
  8
3
 66
     1
 10
0.0
 20
0.0
 30
0.0
  0
VERTEX
  5
1F1
  8
3
 10
205.0
 20
1850.58909011707
 30
0.0
  0
VERTEX
  5
1F2
  8
3
 10
205.0
 20
1945.000000000005
 30
0.0
  0
VERTEX
  5
1F3
  8
3
 10
794.9999999999854
 20
1945.000000000005
 30
0.0
  0
VERTEX
  5
1F4
  8
3
 10
795.0
 20
492.940873036252
 30
0.0
  0
SEQEND
  5
32B
  8
3
  0
POLYLINE
  5
BE
  8
3
 66
     1
 10
0.0
 20
0.0
 30
0.0
  0
VERTEX
  5
1F5
  8
3
 10
562.0639214730327
 20
745.8625338966394
 30
0.0
 42
-0.1780724064113689
  0
VERTEX
  5
1F6
  8
3
 10
885.5290290136763
 20
0.000000000007276
 30
0.0
  0
SEQEND
  5
32C
  8
3
  0
POLYLINE
  5
BF
  8
3
 66
     1
 10
0.0
 20
0.0
 30
0.0
  0
VERTEX
  5
1F7
  8
3
 10
591.7304492582334
 20
593.1642649682071
 30
0.0
 42
-0.1809522388936781
  0
VERTEX
  5
1F8
  8
3
 10
875.195210586171
 20
0.000000000007276
 30
0.0
  0
SEQEND
  5
32D
  8
3
  0
POLYLINE
  5
C0
  8
3
 66
     1
 10
0.0
 20
0.0
 30
0.0
  0
VERTEX
  5
1F9
  8
3
 10
569.1265076727432
 20
475.5244028930392
 30
0.0
 42
-0.1838411005324678
  0
VERTEX
  5
1FA
  8
3
 10
866.9575655350636
 20
0.000000000005457
 30
0.0
  0
SEQEND
  5
32E
  8
3
  0
POLYLINE
  5
C1
  8
3
 66
     1
 10
0.0
 20
0.0
 30
0.0
  0
VERTEX
  5
1FB
  8
3
 10
887.2395722259971
 20
0.000000000007276
 30
0.0
 42
0.1893461998373949
  0
VERTEX
  5
1FC
  8
3
 10
542.1015368812514
 20
879.2148176680275
 30
0.0
  0
SEQEND
  5
32F
  8
3
  0
POLYLINE
  5
C2
  8
3
 66
     1
 10
0.0
 20
0.0
 30
0.0
  0
VERTEX
  5
1FD
  8
3
 10
567.2771160796401
 20
470.6522399827008
 30
0.0
 42
-0.1830310798084412
  0
VERTEX
  5
1FE
  8
3
 10
861.85939718179
 20
0.000000000007276
 30
0.0
  0
SEQEND
  5
330
  8
3
  0
POLYLINE
  5
C3
  8
3
 66
     1
 10
0.0
 20
0.0
 30
0.0
  0
VERTEX
  5
1FF
  8
3
 10
591.5054824509571
 20
586.4216453997869
 30
0.0
 42
-0.1795808279338237
  0
VERTEX
  5
200
  8
3
 10
870.1757855174801
 20
0.000000000007276
 30
0.0
  0
SEQEND
  5
331
  8
3
  0
POLYLINE
  5
C4
  8
3
 66
     1
 10
0.0
 20
0.0
 30
0.0
  0
VERTEX
  5
201
  8
3
 10
567.3382615972805
 20
732.9825712559832
 30
0.0
 42
-0.1751602657224707
  0
VERTEX
  5
202
  8
3
 10
880.520932726693
 20
0.000000000007276
 30
0.0
  0
SEQEND
  5
332
  8
3
  0
POLYLINE
  5
C5
  8
3
 66
     1
 10
0.0
 20
0.0
 30
0.0
  0
VERTEX
  5
203
  8
3
 10
795.0
 20
195.5649111289167
 30
0.0
  0
VERTEX
  5
204
  8
3
 10
795.0
 20
102.5000000000073
 30
0.0
  0
VERTEX
  5
205
  8
3
 10
205.0
 20
102.5000000000073
 30
0.0
  0
VERTEX
  5
206
  8
3
 10
205.0
 20
891.9600083094865
 30
0.0
  0
SEQEND
  5
333
  8
3
  0
POLYLINE
  5
C6
  8
3
 66
     1
 10
0.0
 20
0.0
 30
0.0
  0
VERTEX
  5
207
  8
3
 10
800.0
 20
185.328892491736
 30
0.0
  0
VERTEX
  5
208
  8
3
 10
800.0
 20
97.50000000000728
 30
0.0
  0
VERTEX
  5
209
  8
3
 10
200.0
 20
97.50000000000728
 30
0.0
  0
VERTEX
  5
20A
  8
3
 10
200.0
 20
892.255707234217
 30
0.0
  0
SEQEND
  5
334
  8
3
  0
POLYLINE
  5
C7
  8
3
 66
     1
 10
0.0
 20
0.0
 30
0.0
  0
VERTEX
  5
20B
  8
3
 10
254.5811229132087
 20
908.7772665677876
 30
0.0
  0
VERTEX
  5
20C
  8
3
 10
254.5811229132232
 20
889.0277913630052
 30
0.0
  0
SEQEND
  5
335
  8
3
  0
POLYLINE
  5
C8
  8
3
 66
     1
 10
0.0
 20
0.0
 30
0.0
  0
VERTEX
  5
20D
  8
3
 10
256.699196181864
 20
906.780754934156
 30
0.0
  0
VERTEX
  5
20E
  8
3
 10
256.6991961818712
 20
891.0243029966387
 30
0.0
  0
SEQEND
  5
336
  8
3
  0
POLYLINE
  5
C9
  8
3
 66
     1
 10
0.0
 20
0.0
 30
0.0
  0
VERTEX
  5
20F
  8
3
 10
261.6991961818712
 20
902.9025289653964
 30
0.0
  0
VERTEX
  5
210
  8
3
 10
261.6991961818712
 20
894.9025289653964
 30
0.0
  0
SEQEND
  5
337
  8
3
  0
POLYLINE
  5
CA
  8
3
 66
     1
 10
0.0
 20
0.0
 30
0.0
  0
VERTEX
  5
211
  8
3
 10
985.0
 20
100.0000000000036
 30
0.0
  0
VERTEX
  5
212
  8
3
 10
914.9999999999854
 20
100.0000000000036
 30
0.0
  0
SEQEND
  5
338
  8
3
  0
POLYLINE
  5
CB
  8
3
 66
     1
 10
0.0
 20
0.0
 30
0.0
  0
VERTEX
  5
213
  8
3
 10
495.1879984860479
 20
1176.666421586024
 30
0.0
 42
0.2120105095723881
  0
VERTEX
  5
214
  8
3
 10
483.9241950832075
 20
1242.92425639503
 30
0.0
 42
-0.296851398505224
  0
VERTEX
  5
215
  8
3
 10
467.2977530006319
 20
1627.746294337454
 30
0.0
 42
-0.3147821805749816
  0
VERTEX
  5
216
  8
3
 10
660.2008872137812
 20
1682.246844735868
 30
0.0
 42
0.3968925716245637
  0
VERTEX
  5
217
  8
3
 10
574.9471143513656
 20
1566.046183118842
 30
0.0
 42
0.0484266852272042
  0
VERTEX
  5
218
  8
3
 10
673.0927470715251
 20
1318.860632883434
 30
0.0
 42
-0.1102792030553632
  0
VERTEX
  5
219
  8
3
 10
695.057248497702
 20
1231.103925165024
 30
0.0
 42
-0.3840218791163137
  0
VERTEX
  5
21A
  8
3
 10
607.1031833754405
 20
1132.493101667879
 30
0.0
  0
SEQEND
  5
339
  8
3
  0
POLYLINE
  5
CC
  8
3
 66
     1
 10
0.0
 20
0.0
 30
0.0
  0
VERTEX
  5
21B
  8
3
 10
478.2957309202029
 20
1127.469341983908
 30
0.0
 42
0.2697723557982635
  0
VERTEX
  5
21C
  8
3
 10
486.6246152149688
 20
1054.740255299525
 30
0.0
  0
SEQEND
  5
33A
  8
3
  0
POLYLINE
  5
CD
  8
3
 66
     1
 10
0.0
 20
0.0
 30
0.0
  0
VERTEX
  5
21D
  8
3
 10
467.561777401701
 20
925.406812192974
 30
0.0
 42
0.2697723557982635
  0
VERTEX
  5
21E
  8
3
 10
496.713295359441
 20
992.5564910030735
 30
0.0
  0
SEQEND
  5
33B
  8
3
  0
POLYLINE
  5
CE
  8
3
 66
     1
 10
0.0
 20
0.0
 30
0.0
 70
     1
  0
VERTEX
  5
21F
  8
3
 10
499.9999999999854
 20
1057.609564600412
 30
0.0
 42
0.4142135623730951
  0
VERTEX
  5
220
  8
3
 10
467.3904353995786
 20
1025.000000000005
 30
0.0
 42
0.4142135623730951
  0
VERTEX
  5
221
  8
3
 10
499.9999999999854
 20
992.3904353995986
 30
0.0
 42
0.4142135623730951
  0
VERTEX
  5
222
  8
3
 10
532.6095646003923
 20
1025.000000000005
 30
0.0
 42
0.4142135623730951
  0
SEQEND
  5
33C
  8
3
  0
POLYLINE
  5
CF
  8
3
 66
     1
 10
0.0
 20
0.0
 30
0.0
 70
     1
  0
VERTEX
  5
223
  8
3
 10
499.9999999999854
 20
1129.742738855273
 30
0.0
 42
0.4142135623730951
  0
VERTEX
  5
224
  8
3
 10
395.2572611447184
 20
1025.000000000005
 30
0.0
 42
0.4142135623730951
  0
VERTEX
  5
225
  8
3
 10
499.9999999999854
 20
920.2572611447383
 30
0.0
 42
0.4142135623730951
  0
VERTEX
  5
226
  8
3
 10
604.7427388552526
 20
1025.000000000005
 30
0.0
 42
0.4142135623730951
  0
SEQEND
  5
33D
  8
3
  0
POLYLINE
  5
D0
  8
3
 66
     1
 10
0.0
 20
0.0
 30
0.0
  0
VERTEX
  5
227
  8
3
 10
422.111081272742
 20
954.9688806143749
 30
0.0
 42
0.2697723557982635
  0
VERTEX
  5
228
  8
3
 10
480.9318757880828
 20
998.5464493410254
 30
0.0
  0
SEQEND
  5
33E
  8
3
  0
POLYLINE
  5
D1
  8
3
 66
     1
 10
0.0
 20
0.0
 30
0.0
  0
VERTEX
  5
229
  8
3
 10
429.9688806143677
 20
1102.888918727249
 30
0.0
 42
0.2697723557982635
  0
VERTEX
  5
22A
  8
3
 10
473.5464493410109
 20
1044.068124211915
 30
0.0
  0
SEQEND
  5
33F
  8
3
  0
POLYLINE
  5
D2
  8
3
 66
     1
 10
0.0
 20
0.0
 30
0.0
  0
VERTEX
  5
22B
  8
3
 10
397.5306580160832
 20
1003.29573092021
 30
0.0
 42
0.2697723557982635
  0
VERTEX
  5
22C
  8
3
 10
470.2597447004664
 20
1011.624615214983
 30
0.0
  0
SEQEND
  5
340
  8
3
  0
POLYLINE
  5
D3
  8
3
 66
     1
 10
0.0
 20
0.0
 30
0.0
  0
VERTEX
  5
22D
  8
3
 10
400.4068121929595
 20
1057.438222598283
 30
0.0
 42
0.2697723557982635
  0
VERTEX
  5
22E
  8
3
 10
467.5564910030662
 20
1028.286704640543
 30
0.0
  0
SEQEND
  5
341
  8
3
  0
POLYLINE
  5
D4
  8
3
 66
     1
 10
0.0
 20
0.0
 30
0.0
  0
VERTEX
  5
22F
  8
3
 10
532.4382225982699
 20
1124.593187807039
 30
0.0
 42
0.2697723557982635
  0
VERTEX
  5
230
  8
3
 10
503.2867046405299
 20
1057.443508996939
 30
0.0
  0
SEQEND
  5
342
  8
3
  0
POLYLINE
  5
D5
  8
3
 66
     1
 10
0.0
 20
0.0
 30
0.0
  0
VERTEX
  5
231
  8
3
 10
577.8889187272289
 20
1095.031119385631
 30
0.0
 42
0.2697723557982635
  0
VERTEX
  5
232
  8
3
 10
519.0681242119026
 20
1051.453550658987
 30
0.0
  0
SEQEND
  5
343
  8
3
  0
POLYLINE
  5
D6
  8
3
 66
     1
 10
0.0
 20
0.0
 30
0.0
  0
VERTEX
  5
233
  8
3
 10
602.4693419838877
 20
1046.704269079795
 30
0.0
 42
0.2697723557982635
  0
VERTEX
  5
234
  8
3
 10
529.7402552995045
 20
1038.375384785022
 30
0.0
  0
SEQEND
  5
344
  8
3
  0
POLYLINE
  5
D7
  8
3
 66
     1
 10
0.0
 20
0.0
 30
0.0
  0
VERTEX
  5
235
  8
3
 10
599.593187807026
 20
992.5617774017228
 30
0.0
 42
0.2697723557982635
  0
VERTEX
  5
236
  8
3
 10
532.4435089969193
 20
1021.713295359461
 30
0.0
  0
SEQEND
  5
345
  8
3
  0
POLYLINE
  5
D8
  8
3
 66
     1
 10
0.0
 20
0.0
 30
0.0
  0
VERTEX
  5
237
  8
3
 10
521.7042690797825
 20
922.530658016105
 30
0.0
 42
0.2697723557982635
  0
VERTEX
  5
238
  8
3
 10
513.3753847850166
 20
995.2597447004882
 30
0.0
  0
SEQEND
  5
346
  8
3
  0
POLYLINE
  5
D9
  8
3
 66
     1
 10
0.0
 20
0.0
 30
0.0
  0
VERTEX
  5
239
  8
3
 10
570.0311193856178
 20
947.1110812727638
 30
0.0
 42
0.2697723557982635
  0
VERTEX
  5
23A
  8
3
 10
526.4535506589746
 20
1005.931875788097
 30
0.0
  0
SEQEND
  5
347
  8
3
  0
POLYLINE
  5
DA
  8
3
 66
     1
 10
0.0
 20
0.0
 30
0.0
  0
VERTEX
  5
23B
  8
3
 10
984.9999999999709
 20
1707.660252766434
 30
0.0
  0
VERTEX
  5
23C
  8
3
 10
950.0
 20
1674.333997128428
 30
0.0
  0
VERTEX
  5
23D
  8
3
 10
914.9999999999709
 20
1707.660252766493
 30
0.0
  0
SEQEND
  5
348
  8
3
  0
POLYLINE
  5
DB
  8
3
 66
     1
 10
0.0
 20
0.0
 30
0.0
  0
VERTEX
  5
23E
  8
3
 10
984.9999999999709
 20
1700.756188132733
 30
0.0
  0
VERTEX
  5
23F
  8
3
 10
950.0
 20
1667.429932494726
 30
0.0
  0
VERTEX
  5
240
  8
3
 10
914.9999999999709
 20
1700.756188132791
 30
0.0
  0
SEQEND
  5
349
  8
3
  0
POLYLINE
  5
DC
  8
3
 66
     1
 10
0.0
 20
0.0
 30
0.0
  0
VERTEX
  5
241
  8
3
 10
984.9999999999709
 20
1658.754574590223
 30
0.0
  0
VERTEX
  5
242
  8
3
 10
950.0
 20
1625.428318952208
 30
0.0
  0
VERTEX
  5
243
  8
3
 10
914.9999999999709
 20
1658.754574590273
 30
0.0
  0
SEQEND
  5
34A
  8
3
  0
POLYLINE
  5
DD
  8
3
 66
     1
 10
0.0
 20
0.0
 30
0.0
  0
VERTEX
  5
244
  8
3
 10
984.9999999999709
 20
1651.850509956499
 30
0.0
  0
VERTEX
  5
245
  8
3
 10
950.0
 20
1618.5242543185
 30
0.0
  0
VERTEX
  5
246
  8
3
 10
914.9999999999709
 20
1651.850509956557
 30
0.0
  0
SEQEND
  5
34B
  8
3
  0
POLYLINE
  5
DE
  8
3
 66
     1
 10
0.0
 20
0.0
 30
0.0
  0
VERTEX
  5
247
  8
3
 10
984.9999999999709
 20
1847.473222661405
 30
0.0
  0
VERTEX
  5
248
  8
3
 10
950.0
 20
1814.146967023391
 30
0.0
  0
VERTEX
  5
249
  8
3
 10
914.9999999999709
 20
1847.473222661456
 30
0.0
  0
SEQEND
  5
34C
  8
3
  0
POLYLINE
  5
DF
  8
3
 66
     1
 10
0.0
 20
0.0
 30
0.0
  0
VERTEX
  5
24A
  8
3
 10
984.9999999999709
 20
1854.377287295107
 30
0.0
  0
VERTEX
  5
24B
  8
3
 10
950.0
 20
1821.0510316571
 30
0.0
  0
VERTEX
  5
24C
  8
3
 10
914.9999999999709
 20
1854.377287295172
 30
0.0
  0
SEQEND
  5
34D
  8
3
  0
POLYLINE
  5
E0
  8
3
 66
     1
 10
0.0
 20
0.0
 30
0.0
  0
VERTEX
  5
24D
  8
3
 10
984.9999999999709
 20
1945.284579013851
 30
0.0
  0
VERTEX
  5
24E
  8
3
 10
950.0
 20
1911.958323375844
 30
0.0
  0
VERTEX
  5
24F
  8
3
 10
914.9999999999709
 20
1945.284579013909
 30
0.0
  0
SEQEND
  5
34E
  8
3
  0
POLYLINE
  5
E1
  8
3
 66
     1
 10
0.0
 20
0.0
 30
0.0
  0
VERTEX
  5
250
  8
3
 10
984.9999999999709
 20
1952.188643647552
 30
0.0
  0
VERTEX
  5
251
  8
3
 10
950.0
 20
1918.862388009546
 30
0.0
  0
VERTEX
  5
252
  8
3
 10
914.9999999999709
 20
1952.188643647618
 30
0.0
  0
SEQEND
  5
34F
  8
3
  0
POLYLINE
  5
E2
  8
3
 66
     1
 10
0.0
 20
0.0
 30
0.0
  0
VERTEX
  5
253
  8
3
 10
984.9999999999709
 20
1903.282965471326
 30
0.0
  0
VERTEX
  5
254
  8
3
 10
950.0
 20
1869.956709833326
 30
0.0
  0
VERTEX
  5
255
  8
3
 10
914.9999999999709
 20
1903.282965471391
 30
0.0
  0
SEQEND
  5
350
  8
3
  0
POLYLINE
  5
E3
  8
3
 66
     1
 10
0.0
 20
0.0
 30
0.0
  0
VERTEX
  5
256
  8
3
 10
984.9999999999709
 20
1896.378900837617
 30
0.0
  0
VERTEX
  5
257
  8
3
 10
950.0
 20
1863.052645199617
 30
0.0
  0
VERTEX
  5
258
  8
3
 10
914.9999999999709
 20
1896.378900837683
 30
0.0
  0
SEQEND
  5
351
  8
3
  0
POLYLINE
  5
E4
  8
3
 66
     1
 10
0.0
 20
0.0
 30
0.0
  0
VERTEX
  5
259
  8
3
 10
984.9999999999709
 20
1749.661866308959
 30
0.0
  0
VERTEX
  5
25A
  8
3
 10
950.0
 20
1716.335610670945
 30
0.0
  0
VERTEX
  5
25B
  8
3
 10
914.9999999999709
 20
1749.66186630901
 30
0.0
  0
SEQEND
  5
352
  8
3
  0
POLYLINE
  5
E5
  8
3
 66
     1
 10
0.0
 20
0.0
 30
0.0
  0
VERTEX
  5
25C
  8
3
 10
984.9999999999709
 20
1756.565930942668
 30
0.0
  0
VERTEX
  5
25D
  8
3
 10
950.0
 20
1723.239675304654
 30
0.0
  0
VERTEX
  5
25E
  8
3
 10
914.9999999999709
 20
1756.565930942726
 30
0.0
  0
SEQEND
  5
353
  8
3
  0
POLYLINE
  5
E6
  8
3
 66
     1
 10
0.0
 20
0.0
 30
0.0
  0
VERTEX
  5
25F
  8
3
 10
984.9999999999709
 20
1798.567544485179
 30
0.0
  0
VERTEX
  5
260
  8
3
 10
950.0
 20
1765.241288847172
 30
0.0
  0
VERTEX
  5
261
  8
3
 10
914.9999999999709
 20
1798.567544485237
 30
0.0
  0
SEQEND
  5
354
  8
3
  0
POLYLINE
  5
E7
  8
3
 66
     1
 10
0.0
 20
0.0
 30
0.0
  0
VERTEX
  5
262
  8
3
 10
984.9999999999709
 20
1805.47160911888
 30
0.0
  0
VERTEX
  5
263
  8
3
 10
950.0
 20
1772.145353480873
 30
0.0
  0
VERTEX
  5
264
  8
3
 10
914.9999999999709
 20
1805.471609118946
 30
0.0
  0
SEQEND
  5
355
  8
3
  0
POLYLINE
  5
E8
  8
3
 66
     1
 10
0.0
 20
0.0
 30
0.0
  0
VERTEX
  5
265
  8
3
 10
638.5669397398742
 20
2064.448356597632
 30
0.0
  0
VERTEX
  5
266
  8
3
 10
605.2406841018674
 20
2099.448356597602
 30
0.0
  0
VERTEX
  5
267
  8
3
 10
638.5669397399324
 20
2134.448356597632
 30
0.0
  0
SEQEND
  5
356
  8
3
  0
POLYLINE
  5
E9
  8
3
 66
     1
 10
0.0
 20
0.0
 30
0.0
  0
VERTEX
  5
268
  8
3
 10
631.6628751061653
 20
2064.448356597632
 30
0.0
  0
VERTEX
  5
269
  8
3
 10
598.3366194681585
 20
2099.448356597602
 30
0.0
  0
VERTEX
  5
26A
  8
3
 10
631.6628751062235
 20
2134.448356597632
 30
0.0
  0
SEQEND
  5
357
  8
3
  0
POLYLINE
  5
EA
  8
3
 66
     1
 10
0.0
 20
0.0
 30
0.0
  0
VERTEX
  5
26B
  8
3
 10
361.4330602600967
 20
2064.448356597632
 30
0.0
  0
VERTEX
  5
26C
  8
3
 10
394.7593158981035
 20
2099.448356597602
 30
0.0
  0
VERTEX
  5
26D
  8
3
 10
361.4330602600385
 20
2134.448356597632
 30
0.0
  0
SEQEND
  5
358
  8
3
  0
POLYLINE
  5
EB
  8
3
 66
     1
 10
0.0
 20
0.0
 30
0.0
  0
VERTEX
  5
26E
  8
3
 10
214.716025731439
 20
2064.448356597632
 30
0.0
  0
VERTEX
  5
26F
  8
3
 10
248.0422813694313
 20
2099.448356597602
 30
0.0
  0
VERTEX
  5
270
  8
3
 10
214.7160257313662
 20
2134.448356597632
 30
0.0
  0
SEQEND
  5
359
  8
3
  0
POLYLINE
  5
EC
  8
3
 66
     1
 10
0.0
 20
0.0
 30
0.0
  0
VERTEX
  5
271
  8
3
 10
221.6200903651334
 20
2064.448356597632
 30
0.0
  0
VERTEX
  5
272
  8
3
 10
254.9463460031402
 20
2099.448356597602
 30
0.0
  0
VERTEX
  5
273
  8
3
 10
221.6200903650752
 20
2134.448356597632
 30
0.0
  0
SEQEND
  5
35A
  8
3
  0
POLYLINE
  5
ED
  8
3
 66
     1
 10
0.0
 20
0.0
 30
0.0
  0
VERTEX
  5
274
  8
3
 10
165.8103475552052
 20
2064.448356597632
 30
0.0
  0
VERTEX
  5
275
  8
3
 10
199.1366031932121
 20
2099.448356597602
 30
0.0
  0
VERTEX
  5
276
  8
3
 10
165.8103475551325
 20
2134.448356597632
 30
0.0
  0
SEQEND
  5
35B
  8
3
  0
POLYLINE
  5
EE
  8
3
 66
     1
 10
0.0
 20
0.0
 30
0.0
  0
VERTEX
  5
277
  8
3
 10
172.7144121889141
 20
2064.448356597632
 30
0.0
  0
VERTEX
  5
278
  8
3
 10
206.040667826921
 20
2099.448356597602
 30
0.0
  0
VERTEX
  5
279
  8
3
 10
172.7144121888414
 20
2134.448356597632
 30
0.0
  0
SEQEND
  5
35C
  8
3
  0
POLYLINE
  5
EF
  8
3
 66
     1
 10
0.0
 20
0.0
 30
0.0
  0
VERTEX
  5
27A
  8
3
 10
123.8087340126804
 20
2064.448356597632
 30
0.0
  0
VERTEX
  5
27B
  8
3
 10
157.1349896506872
 20
2099.448356597602
 30
0.0
  0
VERTEX
  5
27C
  8
3
 10
123.8087340126222
 20
2134.448356597632
 30
0.0
  0
SEQEND
  5
35D
  8
3
  0
POLYLINE
  5
F0
  8
3
 66
     1
 10
0.0
 20
0.0
 30
0.0
  0
VERTEX
  5
27D
  8
3
 10
270.5257685413526
 20
2064.448356597632
 30
0.0
  0
VERTEX
  5
27E
  8
3
 10
303.8520241793594
 20
2099.448356597602
 30
0.0
  0
VERTEX
  5
27F
  8
3
 10
270.5257685412944
 20
2134.448356597632
 30
0.0
  0
SEQEND
  5
35E
  8
3
  0
POLYLINE
  5
F1
  8
3
 66
     1
 10
0.0
 20
0.0
 30
0.0
  0
VERTEX
  5
280
  8
3
 10
263.6217039076437
 20
2064.448356597632
 30
0.0
  0
VERTEX
  5
281
  8
3
 10
296.9479595456505
 20
2099.448356597602
 30
0.0
  0
VERTEX
  5
282
  8
3
 10
263.6217039075855
 20
2134.448356597632
 30
0.0
  0
SEQEND
  5
35F
  8
3
  0
POLYLINE
  5
F2
  8
3
 66
     1
 10
0.0
 20
0.0
 30
0.0
  0
VERTEX
  5
283
  8
3
 10
312.5273820838775
 20
2064.448356597632
 30
0.0
  0
VERTEX
  5
284
  8
3
 10
345.8536377218843
 20
2099.448356597602
 30
0.0
  0
VERTEX
  5
285
  8
3
 10
312.5273820838192
 20
2134.448356597632
 30
0.0
  0
SEQEND
  5
360
  8
3
  0
POLYLINE
  5
F3
  8
3
 66
     1
 10
0.0
 20
0.0
 30
0.0
  0
VERTEX
  5
286
  8
3
 10
319.4314467175864
 20
2064.448356597632
 30
0.0
  0
VERTEX
  5
287
  8
3
 10
352.7577023555932
 20
2099.448356597602
 30
0.0
  0
VERTEX
  5
288
  8
3
 10
319.4314467175282
 20
2134.448356597632
 30
0.0
  0
SEQEND
  5
361
  8
3
  0
POLYLINE
  5
F4
  8
3
 66
     1
 10
0.0
 20
0.0
 30
0.0
  0
VERTEX
  5
289
  8
3
 10
465.6232181305531
 20
2135.000000000005
 30
0.0
  0
VERTEX
  5
28A
  8
3
 10
499.4747368842945
 20
2099.448356597602
 30
0.0
  0
VERTEX
  5
28B
  8
3
 10
466.6737443619641
 20
2065.000000000005
 30
0.0
  0
SEQEND
  5
362
  8
3
  0
POLYLINE
  5
F5
  8
3
 66
     1
 10
0.0
 20
0.0
 30
0.0
  0
VERTEX
  5
28C
  8
3
 10
458.7191534968442
 20
2135.000000000005
 30
0.0
  0
VERTEX
  5
28D
  8
3
 10
492.5706722505856
 20
2099.448356597602
 30
0.0
  0
VERTEX
  5
28E
  8
3
 10
459.7696797282551
 20
2065.000000000005
 30
0.0
  0
SEQEND
  5
363
  8
3
  0
POLYLINE
  5
F6
  8
3
 66
     1
 10
0.0
 20
0.0
 30
0.0
  0
VERTEX
  5
28F
  8
3
 10
368.3371248938056
 20
2064.448356597632
 30
0.0
  0
VERTEX
  5
290
  8
3
 10
401.6633805318124
 20
2099.448356597602
 30
0.0
  0
VERTEX
  5
291
  8
3
 10
368.3371248937474
 20
2134.448356597632
 30
0.0
  0
SEQEND
  5
364
  8
3
  0
POLYLINE
  5
F7
  8
3
 66
     1
 10
0.0
 20
0.0
 30
0.0
  0
VERTEX
  5
292
  8
3
 10
417.2428030700248
 20
2064.448356597632
 30
0.0
  0
VERTEX
  5
293
  8
3
 10
450.5690587080317
 20
2099.448356597602
 30
0.0
  0
VERTEX
  5
294
  8
3
 10
417.2428030699666
 20
2134.448356597632
 30
0.0
  0
SEQEND
  5
365
  8
3
  0
POLYLINE
  5
F8
  8
3
 66
     1
 10
0.0
 20
0.0
 30
0.0
  0
VERTEX
  5
295
  8
3
 10
410.3387384363159
 20
2064.448356597632
 30
0.0
  0
VERTEX
  5
296
  8
3
 10
443.6649940743227
 20
2099.448356597602
 30
0.0
  0
VERTEX
  5
297
  8
3
 10
410.3387384362577
 20
2134.448356597632
 30
0.0
  0
SEQEND
  5
366
  8
3
  0
POLYLINE
  5
F9
  8
3
 66
     1
 10
0.0
 20
0.0
 30
0.0
  0
VERTEX
  5
298
  8
3
 10
541.2808465031558
 20
2135.000000000005
 30
0.0
  0
VERTEX
  5
299
  8
3
 10
507.4293277494144
 20
2099.448356597602
 30
0.0
  0
VERTEX
  5
29A
  8
3
 10
540.2303202717449
 20
2065.000000000005
 30
0.0
  0
SEQEND
  5
367
  8
3
  0
POLYLINE
  5
FA
  8
3
 66
     1
 10
0.0
 20
0.0
 30
0.0
  0
VERTEX
  5
29B
  8
3
 10
534.3767818694469
 20
2135.000000000005
 30
0.0
  0
VERTEX
  5
29C
  8
3
 10
500.5252631157055
 20
2099.448356597602
 30
0.0
  0
VERTEX
  5
29D
  8
3
 10
533.326255638036
 20
2065.000000000005
 30
0.0
  0
SEQEND
  5
368
  8
3
  0
POLYLINE
  5
FB
  8
3
 66
     1
 10
0.0
 20
0.0
 30
0.0
  0
VERTEX
  5
29E
  8
3
 10
589.661261563655
 20
2064.448356597632
 30
0.0
  0
VERTEX
  5
29F
  8
3
 10
556.3350059256481
 20
2099.448356597602
 30
0.0
  0
VERTEX
  5
2A0
  8
3
 10
589.6612615637132
 20
2134.448356597632
 30
0.0
  0
SEQEND
  5
369
  8
3
  0
POLYLINE
  5
FC
  8
3
 66
     1
 10
0.0
 20
0.0
 30
0.0
  0
VERTEX
  5
2A1
  8
3
 10
582.7571969299461
 20
2064.448356597632
 30
0.0
  0
VERTEX
  5
2A2
  8
3
 10
549.4309412919392
 20
2099.448356597602
 30
0.0
  0
VERTEX
  5
2A3
  8
3
 10
582.7571969300043
 20
2134.448356597632
 30
0.0
  0
SEQEND
  5
36A
  8
3
  0
POLYLINE
  5
FD
  8
3
 66
     1
 10
0.0
 20
0.0
 30
0.0
  0
VERTEX
  5
2A4
  8
3
 10
876.1912659872905
 20
2064.448356597632
 30
0.0
  0
VERTEX
  5
2A5
  8
3
 10
842.8650103492837
 20
2099.448356597602
 30
0.0
  0
VERTEX
  5
2A6
  8
3
 10
876.1912659873487
 20
2134.448356597632
 30
0.0
  0
SEQEND
  5
36B
  8
3
  0
POLYLINE
  5
FE
  8
3
 66
     1
 10
0.0
 20
0.0
 30
0.0
  0
VERTEX
  5
2A7
  8
3
 10
736.3782960923272
 20
2064.448356597632
 30
0.0
  0
VERTEX
  5
2A8
  8
3
 10
703.0520404543204
 20
2099.448356597602
 30
0.0
  0
VERTEX
  5
2A9
  8
3
 10
736.3782960923854
 20
2134.448356597632
 30
0.0
  0
SEQEND
  5
36C
  8
3
  0
POLYLINE
  5
FF
  8
3
 66
     1
 10
0.0
 20
0.0
 30
0.0
  0
VERTEX
  5
2AA
  8
3
 10
729.4742314586183
 20
2064.448356597632
 30
0.0
  0
VERTEX
  5
2AB
  8
3
 10
696.1479758206115
 20
2099.448356597602
 30
0.0
  0
VERTEX
  5
2AC
  8
3
 10
729.4742314586765
 20
2134.448356597632
 30
0.0
  0
SEQEND
  5
36D
  8
3
  0
POLYLINE
  5
100
  8
3
 66
     1
 10
0.0
 20
0.0
 30
0.0
  0
VERTEX
  5
2AD
  8
3
 10
680.5685532823845
 20
2064.448356597632
 30
0.0
  0
VERTEX
  5
2AE
  8
3
 10
647.2422976443777
 20
2099.448356597602
 30
0.0
  0
VERTEX
  5
2AF
  8
3
 10
680.5685532824427
 20
2134.448356597632
 30
0.0
  0
SEQEND
  5
36E
  8
3
  0
POLYLINE
  5
101
  8
3
 66
     1
 10
0.0
 20
0.0
 30
0.0
  0
VERTEX
  5
2B0
  8
3
 10
687.4726179160934
 20
2064.448356597632
 30
0.0
  0
VERTEX
  5
2B1
  8
3
 10
654.1463622780866
 20
2099.448356597602
 30
0.0
  0
VERTEX
  5
2B2
  8
3
 10
687.4726179161516
 20
2134.448356597632
 30
0.0
  0
SEQEND
  5
36F
  8
3
  0
POLYLINE
  5
102
  8
3
 66
     1
 10
0.0
 20
0.0
 30
0.0
  0
VERTEX
  5
2B3
  8
3
 10
827.2855878110568
 20
2064.448356597632
 30
0.0
  0
VERTEX
  5
2B4
  8
3
 10
793.9593321730499
 20
2099.448356597602
 30
0.0
  0
VERTEX
  5
2B5
  8
3
 10
827.2855878111295
 20
2134.448356597632
 30
0.0
  0
SEQEND
  5
370
  8
3
  0
POLYLINE
  5
103
  8
3
 66
     1
 10
0.0
 20
0.0
 30
0.0
  0
VERTEX
  5
2B6
  8
3
 10
834.1896524447657
 20
2064.448356597632
 30
0.0
  0
VERTEX
  5
2B7
  8
3
 10
800.8633968067588
 20
2099.448356597602
 30
0.0
  0
VERTEX
  5
2B8
  8
3
 10
834.1896524448384
 20
2134.448356597632
 30
0.0
  0
SEQEND
  5
371
  8
3
  0
POLYLINE
  5
104
  8
3
 66
     1
 10
0.0
 20
0.0
 30
0.0
  0
VERTEX
  5
2B9
  8
3
 10
778.3799096348375
 20
2064.448356597632
 30
0.0
  0
VERTEX
  5
2BA
  8
3
 10
745.0536539968307
 20
2099.448356597602
 30
0.0
  0
VERTEX
  5
2BB
  8
3
 10
778.3799096348957
 20
2134.448356597632
 30
0.0
  0
SEQEND
  5
372
  8
3
  0
POLYLINE
  5
105
  8
3
 66
     1
 10
0.0
 20
0.0
 30
0.0
  0
VERTEX
  5
2BC
  8
3
 10
785.2839742685319
 20
2064.448356597632
 30
0.0
  0
VERTEX
  5
2BD
  8
3
 10
751.9577186305396
 20
2099.448356597602
 30
0.0
  0
VERTEX
  5
2BE
  8
3
 10
785.2839742686047
 20
2134.448356597632
 30
0.0
  0
SEQEND
  5
373
  8
3
  0
POLYLINE
  5
106
  8
3
 66
     1
 10
0.0
 20
0.0
 30
0.0
  0
VERTEX
  5
2BF
  8
3
 10
984.9999999999709
 20
1994.190257190063
 30
0.0
  0
VERTEX
  5
2C0
  8
3
 10
950.0
 20
1960.864001552063
 30
0.0
  0
VERTEX
  5
2C1
  8
3
 10
914.9999999999709
 20
1994.190257190128
 30
0.0
  0
SEQEND
  5
374
  8
3
  0
POLYLINE
  5
107
  8
3
 66
     1
 10
0.0
 20
0.0
 30
0.0
  0
VERTEX
  5
2C2
  8
3
 10
984.9999999999709
 20
2001.094321823772
 30
0.0
  0
VERTEX
  5
2C3
  8
3
 10
950.0
 20
1967.768066185772
 30
0.0
  0
VERTEX
  5
2C4
  8
3
 10
914.9999999999709
 20
2001.094321823837
 30
0.0
  0
SEQEND
  5
375
  8
3
  0
POLYLINE
  5
108
  8
3
 66
     1
 10
0.0
 20
0.0
 30
0.0
  0
VERTEX
  5
2C5
  8
3
 10
984.9999999999709
 20
2049.999999999998
 30
0.0
  0
VERTEX
  5
2C6
  8
3
 10
950.0
 20
2016.673744361999
 30
0.0
  0
VERTEX
  5
2C7
  8
3
 10
914.9999999999709
 20
2050.000000000071
 30
0.0
  0
SEQEND
  5
376
  8
3
  0
POLYLINE
  5
109
  8
3
 66
     1
 10
0.0
 20
0.0
 30
0.0
  0
VERTEX
  5
2C8
  8
3
 10
984.9999999999709
 20
2043.095935366297
 30
0.0
  0
VERTEX
  5
2C9
  8
3
 10
950.0
 20
2009.76967972829
 30
0.0
  0
VERTEX
  5
2CA
  8
3
 10
914.9999999999709
 20
2043.095935366362
 30
0.0
  0
SEQEND
  5
377
  8
3
  0
POLYLINE
  5
10A
  8
3
 66
     1
 10
0.0
 20
0.0
 30
0.0
  0
VERTEX
  5
2CB
  8
3
 10
883.0953306209849
 20
2064.448356597632
 30
0.0
  0
VERTEX
  5
2CC
  8
3
 10
849.7690749829926
 20
2099.448356597602
 30
0.0
  0
VERTEX
  5
2CD
  8
3
 10
883.0953306210577
 20
2134.448356597632
 30
0.0
  0
SEQEND
  5
378
  8
3
  0
POLYLINE
  5
10C
  8
4
 66
     1
 10
0.0
 20
0.0
 30
0.0
  0
VERTEX
  5
2CE
  8
4
 10
1000.0
 20
2150.000000000005
 30
0.0
  0
VERTEX
  5
2CF
  8
4
 10
-0.0000000000145519
 20
2150.000000000005
 30
0.0
  0
SEQEND
  5
379
  8
4
  0
POLYLINE
  5
10D
  8
4
 66
     1
 10
0.0
 20
0.0
 30
0.0
  0
VERTEX
  5
2D0
  8
4
 10
1000.0
 20
2050.000000000005
 30
0.0
  0
VERTEX
  5
2D1
  8
4
 10
-0.0000000000145519
 20
2050.000000000005
 30
0.0
  0
SEQEND
  5
37A
  8
4
  0
POLYLINE
  5
10E
  8
4
 66
     1
 10
0.0
 20
0.0
 30
0.0
  0
VERTEX
  5
2D2
  8
4
 10
-0.0000000000145519
 20
2150.000000000005
 30
0.0
  0
VERTEX
  5
2D3
  8
4
 10
0.0
 20
0.000000000007276
 30
0.0
  0
SEQEND
  5
37B
  8
4
  0
POLYLINE
  5
10F
  8
4
 66
     1
 10
0.0
 20
0.0
 30
0.0
  0
VERTEX
  5
2D4
  8
4
 10
100.0
 20
2150.000000000005
 30
0.0
  0
VERTEX
  5
2D5
  8
4
 10
100.0
 20
0.000000000007276
 30
0.0
  0
SEQEND
  5
37C
  8
4
  0
POLYLINE
  5
110
  8
4
 66
     1
 10
0.0
 20
0.0
 30
0.0
  0
VERTEX
  5
2D6
  8
4
 10
1000.0
 20
2150.000000000005
 30
0.0
  0
VERTEX
  5
2D7
  8
4
 10
1000.0
 20
0.000000000007276
 30
0.0
  0
SEQEND
  5
37D
  8
4
  0
POLYLINE
  5
111
  8
4
 66
     1
 10
0.0
 20
0.0
 30
0.0
  0
VERTEX
  5
2D8
  8
4
 10
900.0
 20
2150.000000000005
 30
0.0
  0
VERTEX
  5
2D9
  8
4
 10
900.0
 20
0.000000000007276
 30
0.0
  0
SEQEND
  5
37E
  8
4
  0
ENDSEC
  0
EOF
