  0
SECTION
  2
HEADER
  9
$ACADVER
  1
AC1015
  9
$ACADMAINTVER
 70
     6
  9
$DWGCODEPAGE
  3
ANSI_1252
  9
$INSBASE
 10
0.0
 20
0.0
 30
0.0
  9
$EXTMIN
 10
0.0
 20
0.0
 30
0.0
  9
$EXTMAX
 10
420.0
 20
297.0
 30
0.0
  9
$LIMMIN
 10
0.0
 20
0.0
  9
$LIMMAX
 10
420.0
 20
297.0
  9
$ORTHOMODE
 70
     0
  9
$REGENMODE
 70
     1
  9
$FILLMODE
 70
     1
  9
$QTEXTMODE
 70
     0
  9
$MIRRTEXT
 70
     1
  9
$LTSCALE
 40
1.0
  9
$ATTMODE
 70
     1
  9
$TEXTSIZE
 40
3.5
  9
$TRACEWID
 40
1.0
  9
$TEXTSTYLE
  7
Standard
  9
$CLAYER
  8
0
  9
$CELTYPE
  6
ByLayer
  9
$CECOLOR
 62
   256
  9
$CELTSCALE
 40
1.0
  9
$DISPSILH
 70
     0
  9
$DIMSCALE
 40
1.0
  9
$DIMASZ
 40
3.302
  9
$DIMEXO
 40
1.0
  9
$DIMDLI
 40
3.75
  9
$DIMRND
 40
0.0
  9
$DIMDLE
 40
0.0
  9
$DIMEXE
 40
1.0
  9
$DIMTP
 40
0.0
  9
$DIMTM
 40
0.0
  9
$DIMTXT
 40
3.5
  9
$DIMCEN
 40
2.5
  9
$DIMTSZ
 40
0.0
  9
$DIMTOL
 70
     0
  9
$DIMLIM
 70
     0
  9
$DIMTIH
 70
     1
  9
$DIMTOH
 70
     1
  9
$DIMSE1
 70
     0
  9
$DIMSE2
 70
     0
  9
$DIMTAD
 70
     1
  9
$DIMZIN
 70
     0
  9
$DIMBLK
  1

  9
$DIMASO
 70
     1
  9
$DIMSHO
 70
     1
  9
$DIMPOST
  1

  9
$DIMAPOST
  1

  9
$DIMALT
 70
     0
  9
$DIMALTD
 70
     3
  9
$DIMALTF
 40
0.0393700787
  9
$DIMLFAC
 40
10.0
  9
$DIMTOFL
 70
     1
  9
$DIMTVP
 40
0.0
  9
$DIMTIX
 70
     0
  9
$DIMSOXD
 70
     0
  9
$DIMSAH
 70
     0
  9
$DIMBLK1
  1

  9
$DIMBLK2
  1

  9
$DIMSTYLE
  2
ISO-25
  9
$DIMCLRD
 70
     0
  9
$DIMCLRE
 70
     0
  9
$DIMCLRT
 70
     0
  9
$DIMTFAC
 40
1.0
  9
$DIMGAP
 40
1.524
  9
$DIMJUST
 70
     0
  9
$DIMSD1
 70
     0
  9
$DIMSD2
 70
     0
  9
$DIMTOLJ
 70
     0
  9
$DIMTZIN
 70
     0
  9
$DIMALTZ
 70
     0
  9
$DIMALTTZ
 70
     0
  9
$DIMUPT
 70
     0
  9
$DIMDEC
 70
     2
  9
$DIMTDEC
 70
     2
  9
$DIMALTU
 70
     2
  9
$DIMALTTD
 70
     3
  9
$DIMTXSTY
  7
Standard
  9
$DIMAUNIT
 70
     0
  9
$DIMADEC
 70
     2
  9
$DIMALTRND
 40
0.0
  9
$DIMAZIN
 70
     0
  9
$DIMDSEP
 70
    44
  9
$DIMATFIT
 70
     3
  9
$DIMFRAC
 70
     0
  9
$DIMLDRBLK
  1

  9
$DIMLUNIT
 70
     2
  9
$DIMLWD
 70
    -2
  9
$DIMLWE
 70
    -2
  9
$DIMTMOVE
 70
     0
  9
$LUNITS
 70
     2
  9
$LUPREC
 70
     2
  9
$SKETCHINC
 40
1.0
  9
$FILLETRAD
 40
10.0
  9
$AUNITS
 70
     0
  9
$AUPREC
 70
     2
  9
$MENU
  1
.
  9
$ELEVATION
 40
0.0
  9
$PELEVATION
 40
0.0
  9
$THICKNESS
 40
0.0
  9
$LIMCHECK
 70
     0
  9
$CHAMFERA
 40
0.0
  9
$CHAMFERB
 40
0.0
  9
$CHAMFERC
 40
0.0
  9
$CHAMFERD
 40
0.0
  9
$SKPOLY
 70
     0
  9
$TDCREATE
 40
2457802.676113796
  9
$TDUCREATE
 40
2457802.634447129
  9
$TDUPDATE
 40
2457802.676114386
  9
$TDUUPDATE
 40
2457802.63444772
  9
$TDINDWG
 40
0.0000000116
  9
$TDUSRTIMER
 40
0.0000000116
  9
$USRTIMER
 70
     1
  9
$ANGBASE
 50
0.0
  9
$ANGDIR
 70
     0
  9
$PDMODE
 70
     0
  9
$PDSIZE
 40
-1.0
  9
$PLINEWID
 40
0.0
  9
$SPLFRAME
 70
     0
  9
$SPLINETYPE
 70
     6
  9
$SPLINESEGS
 70
     8
  9
$HANDSEED
  5
49B
  9
$SURFTAB1
 70
     6
  9
$SURFTAB2
 70
     6
  9
$SURFTYPE
 70
     6
  9
$SURFU
 70
     6
  9
$SURFV
 70
     6
  9
$UCSBASE
  2

  9
$UCSNAME
  2

  9
$UCSORG
 10
0.0
 20
0.0
 30
0.0
  9
$UCSXDIR
 10
1.0
 20
0.0
 30
0.0
  9
$UCSYDIR
 10
0.0
 20
1.0
 30
0.0
  9
$UCSORTHOREF
  2

  9
$UCSORTHOVIEW
 70
     0
  9
$UCSORGTOP
 10
0.0
 20
0.0
 30
0.0
  9
$UCSORGBOTTOM
 10
0.0
 20
0.0
 30
0.0
  9
$UCSORGLEFT
 10
0.0
 20
0.0
 30
0.0
  9
$UCSORGRIGHT
 10
0.0
 20
0.0
 30
0.0
  9
$UCSORGFRONT
 10
0.0
 20
0.0
 30
0.0
  9
$UCSORGBACK
 10
0.0
 20
0.0
 30
0.0
  9
$PUCSBASE
  2

  9
$PUCSNAME
  2

  9
$PUCSORG
 10
0.0
 20
0.0
 30
0.0
  9
$PUCSXDIR
 10
1.0
 20
0.0
 30
0.0
  9
$PUCSYDIR
 10
0.0
 20
1.0
 30
0.0
  9
$PUCSORTHOREF
  2

  9
$PUCSORTHOVIEW
 70
     0
  9
$PUCSORGTOP
 10
0.0
 20
0.0
 30
0.0
  9
$PUCSORGBOTTOM
 10
0.0
 20
0.0
 30
0.0
  9
$PUCSORGLEFT
 10
0.0
 20
0.0
 30
0.0
  9
$PUCSORGRIGHT
 10
0.0
 20
0.0
 30
0.0
  9
$PUCSORGFRONT
 10
0.0
 20
0.0
 30
0.0
  9
$PUCSORGBACK
 10
0.0
 20
0.0
 30
0.0
  9
$USERI1
 70
     0
  9
$USERI2
 70
     0
  9
$USERI3
 70
     0
  9
$USERI4
 70
     0
  9
$USERI5
 70
     0
  9
$USERR1
 40
0.0
  9
$USERR2
 40
0.0
  9
$USERR3
 40
0.0
  9
$USERR4
 40
0.0
  9
$USERR5
 40
0.0
  9
$WORLDVIEW
 70
     1
  9
$SHADEDGE
 70
     3
  9
$SHADEDIF
 70
    70
  9
$TILEMODE
 70
     1
  9
$MAXACTVP
 70
    64
  9
$PINSBASE
 10
0.0
 20
0.0
 30
0.0
  9
$PLIMCHECK
 70
     0
  9
$PEXTMIN
 10
1.0000000000E+20
 20
1.0000000000E+20
 30
1.0000000000E+20
  9
$PEXTMAX
 10
-1.0000000000E+20
 20
-1.0000000000E+20
 30
-1.0000000000E+20
  9
$PLIMMIN
 10
0.0
 20
0.0
  9
$PLIMMAX
 10
420.0
 20
297.0
  9
$UNITMODE
 70
     0
  9
$VISRETAIN
 70
     1
  9
$PLINEGEN
 70
     0
  9
$PSLTSCALE
 70
     1
  9
$TREEDEPTH
 70
  3020
  9
$CMLSTYLE
  2
Standard
  9
$CMLJUST
 70
     0
  9
$CMLSCALE
 40
20.0
  9
$PROXYGRAPHICS
 70
     1
  9
$MEASUREMENT
 70
     1
  9
$CELWEIGHT
370
    -1
  9
$ENDCAPS
280
     0
  9
$JOINSTYLE
280
     0
  9
$LWDISPLAY
290
     1
  9
$INSUNITS
 70
     4
  9
$HYPERLINKBASE
  1

  9
$STYLESHEET
  1

  9
$XEDIT
290
     1
  9
$CEPSNTYPE
380
     0
  9
$PSTYLEMODE
290
     1
  9
$FINGERPRINTGUID
  2
{EB1D6F71-85F1-44FF-918B-FE0BE5B88DD0}
  9
$VERSIONGUID
  2
{FAEB1C32-E019-11D5-929B-00C0DF256EC4}
  9
$EXTNAMES
290
     1
  9
$PSVPSCALE
 40
0.0
  9
$OLESTARTUP
290
     0
  0
ENDSEC
  0
SECTION
  2
CLASSES
  0
CLASS
  1
ACDBDICTIONARYWDFLT
  2
AcDbDictionaryWithDefault
  3
ObjectDBX Classes
 90
        0
280
     0
281
     0
  0
CLASS
  1
VISUALSTYLE
  2
AcDbVisualStyle
  3
ObjectDBX Classes
 90
     4095
280
     0
281
     0
  0
CLASS
  1
MATERIAL
  2
AcDbMaterial
  3
ObjectDBX Classes
 90
     1153
280
     0
281
     0
  0
CLASS
  1
SCALE
  2
AcDbScale
  3
ObjectDBX Classes
 90
     1153
280
     0
281
     0
  0
CLASS
  1
TABLESTYLE
  2
AcDbTableStyle
  3
ObjectDBX Classes
 90
     4095
280
     0
281
     0
  0
CLASS
  1
MLEADERSTYLE
  2
AcDbMLeaderStyle
  3
ACDB_MLEADERSTYLE_CLASS
 90
     4095
280
     0
281
     0
  0
CLASS
  1
SUN
  2
AcDbSun
  3
SCENEOE
 90
     1153
280
     0
281
     0
  0
CLASS
  1
ACDBPLACEHOLDER
  2
AcDbPlaceHolder
  3
ObjectDBX Classes
 90
        0
280
     0
281
     0
  0
CLASS
  1
LAYOUT
  2
AcDbLayout
  3
ObjectDBX Classes
 90
        0
280
     0
281
     0
  0
ENDSEC
  0
SECTION
  2
TABLES
  0
TABLE
  2
VPORT
  5
8
330
0
100
AcDbSymbolTable
 70
     1
  0
VPORT
  5
29
330
8
100
AcDbSymbolTableRecord
100
AcDbViewportTableRecord
  2
*Active
 70
     0
 10
0.0
 20
0.0
 11
1.0
 21
1.0
 12
210.0
 22
148.5
 13
0.0
 23
0.0
 14
10.0
 24
10.0
 15
10.0
 25
10.0
 16
0.0
 26
0.0
 36
1.0
 17
0.0
 27
0.0
 37
0.0
 40
297.0
 41
1.4141414141
 42
50.0
 43
0.0
 44
0.0
 50
0.0
 51
0.0
 71
     0
 72
  2000
 73
     1
 74
     3
 75
     0
 76
     0
 77
     0
 78
     0
281
     0
 65
     1
110
0.0
120
0.0
130
0.0
111
1.0
121
0.0
131
0.0
112
0.0
122
1.0
132
0.0
 79
     0
146
0.0
  0
ENDTAB
  0
TABLE
  2
LTYPE
  5
5
330
0
100
AcDbSymbolTable
 70
     6
  0
LTYPE
  5
14
330
5
100
AcDbSymbolTableRecord
100
AcDbLinetypeTableRecord
  2
ByBlock
 70
     0
  3

 72
    65
 73
     0
 40
0.0
  0
LTYPE
  5
15
330
5
100
AcDbSymbolTableRecord
100
AcDbLinetypeTableRecord
  2
ByLayer
 70
     0
  3

 72
    65
 73
     0
 40
0.0
  0
LTYPE
  5
16
330
5
100
AcDbSymbolTableRecord
100
AcDbLinetypeTableRecord
  2
Continuous
 70
     0
  3
Solid line
 72
    65
 73
     0
 40
0.0
  0
LTYPE
  5
6E
330
5
100
AcDbSymbolTableRecord
100
AcDbLinetypeTableRecord
  2
HIDDEN
 70
     0
  3
Hidden __ __ __ __ __ __ __ __ __ __ __ __ __ __
 72
    65
 73
     2
 40
1.905
 49
1.27
 74
     0
 49
-0.635
 74
     0
  0
LTYPE
  5
6F
330
5
100
AcDbSymbolTableRecord
100
AcDbLinetypeTableRecord
  2
PHANTOM
 70
     0
  3
Phantom ______  __  __  ______  __  __  ______
 72
    65
 73
     6
 40
12.7
 49
6.35
 74
     0
 49
-1.27
 74
     0
 49
1.27
 74
     0
 49
-1.27
 74
     0
 49
1.27
 74
     0
 49
-1.27
 74
     0
  0
LTYPE
  5
70
330
5
100
AcDbSymbolTableRecord
100
AcDbLinetypeTableRecord
  2
CENTER
 70
     0
  3
Center ____ _ ____ _ ____ _ ____ _ ____ _ ____
 72
    65
 73
     4
 40
10.16
 49
6.35
 74
     0
 49
-1.27
 74
     0
 49
1.27
 74
     0
 49
-1.27
 74
     0
  0
LTYPE
  5
71
330
5
100
AcDbSymbolTableRecord
100
AcDbLinetypeTableRecord
  2
CENTERX2
 70
     0
  3
Center (2x) ________  __  ________  __  _____
 72
    65
 73
     4
 40
20.32
 49
12.7
 74
     0
 49
-2.54
 74
     0
 49
2.54
 74
     0
 49
-2.54
 74
     0
  0
LTYPE
  5
72
330
5
100
AcDbSymbolTableRecord
100
AcDbLinetypeTableRecord
  2
DOT2
 70
     0
  3
Dot (.5x) ........................................
 72
    65
 73
     2
 40
0.635
 49
0.0
 74
     0
 49
-0.635
 74
     0
  0
ENDTAB
  0
TABLE
  2
LAYER
  5
2
330
0
100
AcDbSymbolTable
 70
     2
  0
LAYER
  5
10
330
2
100
AcDbSymbolTableRecord
100
AcDbLayerTableRecord
  2
0
 70
     0
 62
     7
  6
Continuous
370
    -3
390
F
  0
LAYER
  5
73
330
2
100
AcDbSymbolTableRecord
100
AcDbLayerTableRecord
  2
FORMAT
 70
     0
 62
     7
  6
Continuous
370
    -3
390
F
  0
ENDTAB
  0
TABLE
  2
STYLE
  5
3
330
0
100
AcDbSymbolTable
 70
     1
  0
STYLE
  5
11
330
3
100
AcDbSymbolTableRecord
100
AcDbTextStyleTableRecord
  2
Standard
 70
     0
 40
0.0
 41
1.0
 50
0.0
 71
     0
 42
3.5
  3
txt
  4

  0
ENDTAB
  0
TABLE
  2
VIEW
  5
6
330
0
100
AcDbSymbolTable
 70
     0
  0
ENDTAB
  0
TABLE
  2
UCS
  5
7
330
0
100
AcDbSymbolTable
 70
     0
  0
ENDTAB
  0
TABLE
  2
APPID
  5
9
330
0
100
AcDbSymbolTable
 70
     1
  0
APPID
  5
12
330
9
100
AcDbSymbolTableRecord
100
AcDbRegAppTableRecord
  2
ACAD
 70
     0
  0
ENDTAB
  0
TABLE
  2
DIMSTYLE
  5
A
330
0
100
AcDbSymbolTable
 70
     1
100
AcDbDimStyleTable
  0
DIMSTYLE
105
27
330
A
100
AcDbSymbolTableRecord
100
AcDbDimStyleTableRecord
  2
ISO-25
 70
     0
 41
2.5
 42
0.625
 43
3.75
 44
1.25
 73
     0
 74
     0
 77
     1
 78
     8
140
2.5
141
2.5
143
0.0393700787
147
0.625
171
     3
172
     1
178
     0
271
     2
272
     2
274
     3
278
    44
283
     0
284
     8
340
11
  0
ENDTAB
  0
TABLE
  2
BLOCK_RECORD
  5
1
330
0
100
AcDbSymbolTable
 70
     1
  0
BLOCK_RECORD
  5
1F
330
1
100
AcDbSymbolTableRecord
100
AcDbBlockTableRecord
  2
*Model_Space
340
22
  0
BLOCK_RECORD
  5
1B
330
1
100
AcDbSymbolTableRecord
100
AcDbBlockTableRecord
  2
*Paper_Space
340
1E
  0
BLOCK_RECORD
  5
23
330
1
100
AcDbSymbolTableRecord
100
AcDbBlockTableRecord
  2
*Paper_Space0
340
26
  0
ENDTAB
  0
ENDSEC
  0
SECTION
  2
BLOCKS
  0
BLOCK
  5
20
330
1F
100
AcDbEntity
  8
0
100
AcDbBlockBegin
  2
*Model_Space
 70
     0
 10
0.0
 20
0.0
 30
0.0
  3
*Model_Space
  1

  0
ENDBLK
  5
21
330
1F
100
AcDbEntity
  8
0
100
AcDbBlockEnd
  0
BLOCK
  5
1C
330
1B
100
AcDbEntity
 67
     1
  8
0
100
AcDbBlockBegin
  2
*Paper_Space
 70
     0
 10
0.0
 20
0.0
 30
0.0
  3
*Paper_Space
  1

  0
ENDBLK
  5
1D
330
1B
100
AcDbEntity
 67
     1
  8
0
100
AcDbBlockEnd
  0
BLOCK
  5
24
330
23
100
AcDbEntity
  8
0
100
AcDbBlockBegin
  2
*Paper_Space0
 70
     0
 10
0.0
 20
0.0
 30
0.0
  3
*Paper_Space0
  1

  0
ENDBLK
  5
25
330
23
100
AcDbEntity
  8
0
100
AcDbBlockEnd
  0
ENDSEC
  0
SECTION
  2
ENTITIES
  0
LINE
  5
74
330
1F
100
AcDbEntity
  8
0
  6
Continuous
 62
     7
370
    15
100
AcDbLine
 10
282.464228387
 20
99.2555273767
 30
0.0
 11
282.464228387
 21
100.2084685559
 31
0.0
  0
LINE
  5
75
330
1F
100
AcDbEntity
  8
0
  6
Continuous
 62
     7
370
    15
100
AcDbLine
 10
282.081366892
 20
99.1663498874
 30
0.0
 11
282.464228387
 21
99.2555273767
 31
0.0
  0
ARC
  5
76
330
1F
100
AcDbEntity
  8
0
  6
Continuous
 62
     7
370
    15
100
AcDbCircle
 10
279.0156143663
 20
110.8301778095
 30
0.0
 40
12.06000452903692
100
AcDbArc
 50
281.4963124755
 51
284.7266772828
  0
LINE
  5
77
330
1F
100
AcDbEntity
  8
0
  6
Continuous
 62
     7
370
    15
100
AcDbLine
 10
281.0886723949
 20
98.9331794973
 30
0.0
 11
281.4192308141
 21
99.0121258493
 31
0.0
  0
LINE
  5
78
330
1F
100
AcDbEntity
  8
0
  6
Continuous
 62
     7
370
    15
100
AcDbLine
 10
281.1952902032
 20
98.4754337068
 30
0.0
 11
281.0886723949
 21
98.9331794973
 31
0.0
  0
LINE
  5
79
330
1F
100
AcDbEntity
  8
0
  6
Continuous
 62
     7
370
    15
100
AcDbLine
 10
282.464228387
 20
98.7709922786
 30
0.0
 11
282.1883691503
 21
98.7067384715
 31
0.0
  0
LINE
  5
7A
330
1F
100
AcDbEntity
  8
0
  6
Continuous
 62
     7
370
    15
100
AcDbLine
 10
282.464228387
 20
97.8183312411
 30
0.0
 11
282.464228387
 21
98.7709922786
 31
0.0
  0
LINE
  5
7B
330
1F
100
AcDbEntity
  8
0
  6
Continuous
 62
     7
370
    15
100
AcDbLine
 10
282.081366892
 20
97.7291537519
 30
0.0
 11
282.464228387
 21
97.8183312411
 31
0.0
  0
ARC
  5
7C
330
1F
100
AcDbEntity
  8
0
  6
Continuous
 62
     7
370
    15
100
AcDbCircle
 10
279.0156143663
 20
109.3929823667
 30
0.0
 40
12.06000452903692
100
AcDbArc
 50
281.4963124755
 51
284.7266772828
  0
LINE
  5
7D
330
1F
100
AcDbEntity
  8
0
  6
Continuous
 62
     7
370
    15
100
AcDbLine
 10
281.5262330724
 20
98.5525174136
 30
0.0
 11
281.1952902032
 21
98.4754337068
 31
0.0
  0
ARC
  5
7E
330
1F
100
AcDbEntity
  8
0
  6
Continuous
 62
     7
370
    15
100
AcDbCircle
 10
284.5919871787
 20
86.8886887444
 30
0.0
 40
12.06000452903399
100
AcDbArc
 50
101.4963124755
 51
104.7266772828
  0
LINE
  5
7F
330
1F
100
AcDbEntity
  8
0
  6
Continuous
 62
     7
370
    15
100
AcDbLine
 10
279.7955108835
 20
86.6496039624
 30
0.0
 11
281.1957282974
 21
86.9757367368
 31
0.0
  0
LINE
  5
80
330
1F
100
AcDbEntity
  8
0
  6
Continuous
 62
     7
370
    15
100
AcDbLine
 10
281.5258516027
 20
108.614747047
 30
0.0
 11
281.1949057533
 21
108.5376633401
 31
0.0
  0
ARC
  5
81
330
1F
100
AcDbEntity
  8
0
  6
Continuous
 62
     7
370
    15
100
AcDbCircle
 10
284.5916031606
 20
96.9509202272
 30
0.0
 40
12.060004529034
100
AcDbArc
 50
101.4963124755
 51
104.7266772828
  0
LINE
  5
82
330
1F
100
AcDbEntity
  8
0
  6
Continuous
 62
     7
370
    15
100
AcDbLine
 10
282.464228387
 20
108.8333142991
 30
0.0
 11
282.1879847003
 21
108.7689710851
 31
0.0
  0
LINE
  5
83
330
1F
100
AcDbEntity
  8
0
  6
Continuous
 62
     7
370
    15
100
AcDbLine
 10
282.464228387
 20
107.8786982293
 30
0.0
 11
282.464228387
 21
108.8333142991
 31
0.0
  0
LINE
  5
84
330
1F
100
AcDbEntity
  8
0
  6
Continuous
 62
     7
370
    15
100
AcDbLine
 10
282.081366892
 20
107.7895237203
 30
0.0
 11
282.464228387
 21
107.8786982293
 31
0.0
  0
ARC
  5
85
330
1F
100
AcDbEntity
  8
0
  6
Continuous
 62
     7
370
    15
100
AcDbCircle
 10
279.0156143663
 20
119.453350466
 30
0.0
 40
12.06000452903669
100
AcDbArc
 50
281.4963124755
 51
284.7266772828
  0
LINE
  5
86
330
1F
100
AcDbEntity
  8
0
  6
Continuous
 62
     7
370
    15
100
AcDbLine
 10
281.0883415891
 20
107.5579507346
 30
0.0
 11
281.4192308141
 21
107.6352996822
 31
0.0
  0
LINE
  5
87
330
1F
100
AcDbEntity
  8
0
  6
Continuous
 62
     7
370
    15
100
AcDbLine
 10
281.1949593974
 20
107.1002019639
 30
0.0
 11
281.0883415891
 21
107.5579507346
 31
0.0
  0
LINE
  5
88
330
1F
100
AcDbEntity
  8
0
  6
Continuous
 62
     7
370
    15
100
AcDbLine
 10
281.5259052469
 20
107.1772856708
 30
0.0
 11
281.1949593974
 21
107.1002019639
 31
0.0
  0
ARC
  5
89
330
1F
100
AcDbEntity
  8
0
  6
Continuous
 62
     7
370
    15
100
AcDbCircle
 10
284.5916580203
 20
95.5134585868
 30
0.0
 40
12.06000452903402
100
AcDbArc
 50
101.4963124755
 51
104.7266772828
  0
LINE
  5
8A
330
1F
100
AcDbEntity
  8
0
  6
Continuous
 62
     7
370
    15
100
AcDbLine
 10
282.464228387
 20
107.395841002
 30
0.0
 11
282.1880413247
 21
107.3315097089
 31
0.0
  0
LINE
  5
8B
330
1F
100
AcDbEntity
  8
0
  6
Continuous
 62
     7
370
    15
100
AcDbLine
 10
282.464228387
 20
106.4415020938
 30
0.0
 11
282.464228387
 21
107.395841002
 31
0.0
  0
LINE
  5
8C
330
1F
100
AcDbEntity
  8
0
  6
Continuous
 62
     7
370
    15
100
AcDbLine
 10
282.081366892
 20
106.3523275848
 30
0.0
 11
282.464228387
 21
106.4415020938
 31
0.0
  0
ARC
  5
8D
330
1F
100
AcDbEntity
  8
0
  6
Continuous
 62
     7
370
    15
100
AcDbCircle
 10
279.0156143663
 20
118.0161550233
 30
0.0
 40
12.06000452903674
100
AcDbArc
 50
281.4963124755
 51
284.7266772828
  0
LINE
  5
8E
330
1F
100
AcDbEntity
  8
0
  6
Continuous
 62
     7
370
    15
100
AcDbLine
 10
281.0883982135
 20
106.1204893584
 30
0.0
 11
281.4192308141
 21
106.1981035466
 31
0.0
  0
LINE
  5
8F
330
1F
100
AcDbEntity
  8
0
  6
Continuous
 62
     7
370
    15
100
AcDbLine
 10
281.1950160219
 20
105.6627405877
 30
0.0
 11
281.0883982135
 21
106.1204893584
 31
0.0
  0
LINE
  5
90
330
1F
100
AcDbEntity
  8
0
  6
Continuous
 62
     7
370
    15
100
AcDbLine
 10
281.525958891
 20
105.7398242946
 30
0.0
 11
281.1950160219
 21
105.6627405877
 31
0.0
  0
ARC
  5
91
330
1F
100
AcDbEntity
  8
0
  6
Continuous
 62
     7
370
    15
100
AcDbCircle
 10
284.59171288
 20
94.0759969464
 30
0.0
 40
12.06000452903402
100
AcDbArc
 50
101.4963124755
 51
104.7266772828
  0
LINE
  5
92
330
1F
100
AcDbEntity
  8
0
  6
Continuous
 62
     7
370
    15
100
AcDbLine
 10
282.464228387
 20
105.9583647247
 30
0.0
 11
282.1880949689
 21
105.8940483327
 31
0.0
  0
LINE
  5
93
330
1F
100
AcDbEntity
  8
0
  6
Continuous
 62
     7
370
    15
100
AcDbLine
 10
282.464228387
 20
105.0043089385
 30
0.0
 11
282.464228387
 21
105.9583647247
 31
0.0
  0
LINE
  5
94
330
1F
100
AcDbEntity
  8
0
  6
Continuous
 62
     7
370
    15
100
AcDbLine
 10
282.081366892
 20
104.9151314492
 30
0.0
 11
282.464228387
 21
105.0043089385
 31
0.0
  0
ARC
  5
95
330
1F
100
AcDbEntity
  8
0
  6
Continuous
 62
     7
370
    15
100
AcDbCircle
 10
279.0156143663
 20
116.5789595805
 30
0.0
 40
12.06000452903676
100
AcDbArc
 50
281.4963124755
 51
284.7266772828
  0
LINE
  5
96
330
1F
100
AcDbEntity
  8
0
  6
Continuous
 62
     7
370
    15
100
AcDbLine
 10
281.0884518577
 20
104.6830279823
 30
0.0
 11
281.4192308141
 21
104.7609074111
 31
0.0
  0
LINE
  5
97
330
1F
100
AcDbEntity
  8
0
  6
Continuous
 62
     7
370
    15
100
AcDbLine
 10
281.195069666
 20
104.2252792115
 30
0.0
 11
281.0884518577
 21
104.6830279823
 31
0.0
  0
LINE
  5
98
330
1F
100
AcDbEntity
  8
0
  6
Continuous
 62
     7
370
    15
100
AcDbLine
 10
281.5260155155
 20
104.3023629184
 30
0.0
 11
281.195069666
 21
104.2252792115
 31
0.0
  0
ARC
  5
99
330
1F
100
AcDbEntity
  8
0
  6
Continuous
 62
     7
370
    15
100
AcDbCircle
 10
284.5917677398
 20
92.638535306
 30
0.0
 40
12.060004529034
100
AcDbArc
 50
101.4963124755
 51
104.7266772828
  0
LINE
  5
9A
330
1F
100
AcDbEntity
  8
0
  6
Continuous
 62
     7
370
    15
100
AcDbLine
 10
282.464228387
 20
104.5208914275
 30
0.0
 11
282.1881515933
 21
104.4565869565
 31
0.0
  0
LINE
  5
9B
330
1F
100
AcDbEntity
  8
0
  6
Continuous
 62
     7
370
    15
100
AcDbLine
 10
282.464228387
 20
103.567112803
 30
0.0
 11
282.464228387
 21
104.5208914275
 31
0.0
  0
LINE
  5
9C
330
1F
100
AcDbEntity
  8
0
  6
Continuous
 62
     7
370
    15
100
AcDbLine
 10
282.081366892
 20
103.4779382939
 30
0.0
 11
282.464228387
 21
103.567112803
 31
0.0
  0
ARC
  5
9D
330
1F
100
AcDbEntity
  8
0
  6
Continuous
 62
     7
370
    15
100
AcDbCircle
 10
279.0156143663
 20
115.1417641378
 30
0.0
 40
12.06000452903684
100
AcDbArc
 50
281.4963124755
 51
284.7266772828
  0
LINE
  5
9E
330
1F
100
AcDbEntity
  8
0
  6
Continuous
 62
     7
370
    15
100
AcDbLine
 10
281.0885055019
 20
103.2455636258
 30
0.0
 11
281.4192308141
 21
103.3237142558
 31
0.0
  0
LINE
  5
9F
330
1F
100
AcDbEntity
  8
0
  6
Continuous
 62
     7
370
    15
100
AcDbLine
 10
281.1951262905
 20
102.7878178353
 30
0.0
 11
281.0885055019
 21
103.2455636258
 31
0.0
  0
LINE
  5
A0
330
1F
100
AcDbEntity
  8
0
  6
Continuous
 62
     7
370
    15
100
AcDbLine
 10
281.1949057533
 20
108.5376633401
 30
0.0
 11
281.0882879449
 21
108.9954121108
 31
0.0
  0
ARC
  5
A1
330
1F
100
AcDbEntity
  8
0
  6
Continuous
 62
     7
370
    15
100
AcDbCircle
 10
284.5918225995
 20
91.2010736656
 30
0.0
 40
12.06000452903401
100
AcDbArc
 50
101.4963124755
 51
104.7266772828
  0
LINE
  5
A2
330
1F
100
AcDbEntity
  8
0
  6
Continuous
 62
     7
370
    15
100
AcDbLine
 10
282.464228387
 20
103.0834151502
 30
0.0
 11
282.1882052375
 21
103.0191255803
 31
0.0
  0
LINE
  5
A3
330
1F
100
AcDbEntity
  8
0
  6
Continuous
 62
     7
370
    15
100
AcDbLine
 10
282.464228387
 20
102.1299166675
 30
0.0
 11
282.464228387
 21
103.0834151502
 31
0.0
  0
LINE
  5
A4
330
1F
100
AcDbEntity
  8
0
  6
Continuous
 62
     7
370
    15
100
AcDbLine
 10
282.081366892
 20
102.0407421584
 30
0.0
 11
282.464228387
 21
102.1299166675
 31
0.0
  0
ARC
  5
A5
330
1F
100
AcDbEntity
  8
0
  6
Continuous
 62
     7
370
    15
100
AcDbCircle
 10
279.0156143663
 20
113.704568695
 30
0.0
 40
12.06000452903689
100
AcDbArc
 50
281.4963124755
 51
284.7266772828
  0
LINE
  5
A6
330
1F
100
AcDbEntity
  8
0
  6
Continuous
 62
     7
370
    15
100
AcDbLine
 10
281.0885621263
 20
101.8081022496
 30
0.0
 11
281.4192308141
 21
101.8865181203
 31
0.0
  0
LINE
  5
A7
330
1F
100
AcDbEntity
  8
0
  6
Continuous
 62
     7
370
    15
100
AcDbLine
 10
281.1951799346
 20
101.3503564592
 30
0.0
 11
281.0885621263
 21
101.8081022496
 31
0.0
  0
LINE
  5
A8
330
1F
100
AcDbEntity
  8
0
  6
Continuous
 62
     7
370
    15
100
AcDbLine
 10
281.5261257841
 20
101.427440166
 30
0.0
 11
281.1951799346
 21
101.3503564592
 31
0.0
  0
ARC
  5
A9
330
1F
100
AcDbEntity
  8
0
  6
Continuous
 62
     7
370
    15
100
AcDbCircle
 10
284.5918774593
 20
89.7636120252
 30
0.0
 40
12.06000452903402
100
AcDbArc
 50
101.4963124755
 51
104.7266772828
  0
LINE
  5
AA
330
1F
100
AcDbEntity
  8
0
  6
Continuous
 62
     7
370
    15
100
AcDbLine
 10
282.464228387
 20
101.6459418531
 30
0.0
 11
282.1882588817
 21
101.5816642041
 31
0.0
  0
LINE
  5
AB
330
1F
100
AcDbEntity
  8
0
  6
Continuous
 62
     7
370
    15
100
AcDbLine
 10
282.464228387
 20
100.692720532
 30
0.0
 11
282.464228387
 21
101.6459418531
 31
0.0
  0
LINE
  5
AC
330
1F
100
AcDbEntity
  8
0
  6
Continuous
 62
     7
370
    15
100
AcDbLine
 10
282.081366892
 20
100.6035460229
 30
0.0
 11
282.464228387
 21
100.692720532
 31
0.0
  0
ARC
  5
AD
330
1F
100
AcDbEntity
  8
0
  6
Continuous
 62
     7
370
    15
100
AcDbCircle
 10
279.0156143663
 20
112.2673732523
 30
0.0
 40
12.06000452903695
100
AcDbArc
 50
281.4963124755
 51
284.7266772828
  0
LINE
  5
AE
330
1F
100
AcDbEntity
  8
0
  6
Continuous
 62
     7
370
    15
100
AcDbLine
 10
281.0886157705
 20
100.3706408734
 30
0.0
 11
281.4192308141
 21
100.4493219848
 31
0.0
  0
LINE
  5
AF
330
1F
100
AcDbEntity
  8
0
  6
Continuous
 62
     7
370
    15
100
AcDbLine
 10
281.1952335788
 20
99.912895083
 30
0.0
 11
281.0886157705
 21
100.3706408734
 31
0.0
  0
LINE
  5
B0
330
1F
100
AcDbEntity
  8
0
  6
Continuous
 62
     7
370
    15
100
AcDbLine
 10
281.5261794282
 20
99.9899787898
 30
0.0
 11
281.1952335788
 21
99.912895083
 31
0.0
  0
ARC
  5
B1
330
1F
100
AcDbEntity
  8
0
  6
Continuous
 62
     7
370
    15
100
AcDbCircle
 10
284.591932319
 20
88.3261503848
 30
0.0
 40
12.06000452903401
100
AcDbArc
 50
101.4963124755
 51
104.7266772828
  0
LINE
  5
B2
330
1F
100
AcDbEntity
  8
0
  6
Continuous
 62
     7
370
    15
100
AcDbLine
 10
282.464228387
 20
100.2084685559
 30
0.0
 11
282.1883155061
 21
100.1442028279
 31
0.0
  0
LINE
  5
B3
330
1F
100
AcDbEntity
  8
0
  6
Continuous
 62
     7
370
    15
100
AcDbLine
 10
282.081366892
 20
93.4175683255
 30
0.0
 11
282.464228387
 21
93.5067428346
 31
0.0
  0
ARC
  5
B4
330
1F
100
AcDbEntity
  8
0
  6
Continuous
 62
     7
370
    15
100
AcDbCircle
 10
279.0156143664
 20
105.0813960385
 30
0.0
 40
12.06000452903722
100
AcDbArc
 50
281.4963124755
 51
284.7266772827
  0
LINE
  5
B5
330
1F
100
AcDbEntity
  8
0
  6
Continuous
 62
     7
370
    15
100
AcDbLine
 10
281.0888899518
 20
93.1833339925
 30
0.0
 11
281.4192308141
 21
93.2633472676
 31
0.0
  0
LINE
  5
B6
330
1F
100
AcDbEntity
  8
0
  6
Continuous
 62
     7
370
    15
100
AcDbLine
 10
281.1955077602
 20
92.725588202
 30
0.0
 11
281.0888899518
 21
93.1833339925
 31
0.0
  0
LINE
  5
B7
330
1F
100
AcDbEntity
  8
0
  6
Continuous
 62
     7
370
    15
100
AcDbLine
 10
281.5264536096
 20
92.8026689286
 30
0.0
 11
281.1955077602
 21
92.725588202
 31
0.0
  0
ARC
  5
B8
330
1F
100
AcDbEntity
  8
0
  6
Continuous
 62
     7
370
    15
100
AcDbCircle
 10
284.5922066177
 20
81.1388421829
 30
0.0
 40
12.06000452903398
100
AcDbArc
 50
101.4963124755
 51
104.7266772828
  0
LINE
  5
B9
330
1F
100
AcDbEntity
  8
0
  6
Continuous
 62
     7
370
    15
100
AcDbLine
 10
282.464228387
 20
93.0210961099
 30
0.0
 11
282.1885896875
 21
92.956895947
 31
0.0
  0
LINE
  5
BA
330
1F
100
AcDbEntity
  8
0
  6
Continuous
 62
     7
370
    15
100
AcDbLine
 10
282.464228387
 20
92.0695496793
 30
0.0
 11
282.464228387
 21
93.0210961099
 31
0.0
  0
LINE
  5
BB
330
1F
100
AcDbEntity
  8
0
  6
Continuous
 62
     7
370
    15
100
AcDbLine
 10
282.081366892
 20
91.9803751702
 30
0.0
 11
282.464228387
 21
92.0695496793
 31
0.0
  0
ARC
  5
BC
330
1F
100
AcDbEntity
  8
0
  6
Continuous
 62
     7
370
    15
100
AcDbCircle
 10
279.0156143664
 20
103.6442005957
 30
0.0
 40
12.06000452903727
100
AcDbArc
 50
281.4963124754
 51
284.7266772827
  0
LINE
  5
BD
330
1F
100
AcDbEntity
  8
0
  6
Continuous
 62
     7
370
    15
100
AcDbLine
 10
281.0889465763
 20
91.7458726163
 30
0.0
 11
281.4192308141
 21
91.8261481519
 31
0.0
  0
LINE
  5
BE
330
1F
100
AcDbEntity
  8
0
  6
Continuous
 62
     7
370
    15
100
AcDbLine
 10
281.0887260391
 20
97.4957181211
 30
0.0
 11
281.4192308141
 21
97.574932694
 31
0.0
  0
LINE
  5
BF
330
1F
100
AcDbEntity
  8
0
  6
Continuous
 62
     7
370
    15
100
AcDbLine
 10
281.1953438474
 20
97.0379723306
 30
0.0
 11
281.0887260391
 21
97.4957181211
 31
0.0
  0
LINE
  5
C0
330
1F
100
AcDbEntity
  8
0
  6
Continuous
 62
     7
370
    15
100
AcDbLine
 10
281.5262896968
 20
97.1150530572
 30
0.0
 11
281.1953438474
 21
97.0379723306
 31
0.0
  0
LINE
  5
C1
330
1F
100
AcDbEntity
  8
0
  6
Continuous
 62
     7
370
    15
100
AcDbLine
 10
281.5260691596
 20
102.8649015422
 30
0.0
 11
281.1951262905
 21
102.7878178353
 31
0.0
  0
LINE
  5
C2
330
1F
100
AcDbEntity
  8
0
  6
Continuous
 62
     7
370
    15
100
AcDbLine
 10
282.464228387
 20
97.3335189815
 30
0.0
 11
282.1884257747
 21
97.2692770953
 31
0.0
  0
LINE
  5
C3
330
1F
100
AcDbEntity
  8
0
  6
Continuous
 62
     7
370
    15
100
AcDbLine
 10
282.464228387
 20
96.3811351056
 30
0.0
 11
282.464228387
 21
97.3335189815
 31
0.0
  0
LINE
  5
C4
330
1F
100
AcDbEntity
  8
0
  6
Continuous
 62
     7
370
    15
100
AcDbLine
 10
282.081366892
 20
96.2919605966
 30
0.0
 11
282.464228387
 21
96.3811351056
 31
0.0
  0
ARC
  5
C5
330
1F
100
AcDbEntity
  8
0
  6
Continuous
 62
     7
370
    15
100
AcDbCircle
 10
279.0156143664
 20
107.955786924
 30
0.0
 40
12.06000452903698
100
AcDbArc
 50
281.4963124755
 51
284.7266772828
  0
LINE
  5
C6
330
1F
100
AcDbEntity
  8
0
  6
Continuous
 62
     7
370
    15
100
AcDbLine
 10
281.0887826635
 20
96.0582567449
 30
0.0
 11
281.4192308141
 21
96.1377365585
 31
0.0
  0
LINE
  5
C7
330
1F
100
AcDbEntity
  8
0
  6
Continuous
 62
     7
370
    15
100
AcDbLine
 10
281.1954004718
 20
95.6005079742
 30
0.0
 11
281.0887826635
 21
96.0582567449
 31
0.0
  0
LINE
  5
C8
330
1F
100
AcDbEntity
  8
0
  6
Continuous
 62
     7
370
    15
100
AcDbLine
 10
281.526343341
 20
95.677591681
 30
0.0
 11
281.1954004718
 21
95.6005079742
 31
0.0
  0
ARC
  5
C9
330
1F
100
AcDbEntity
  8
0
  6
Continuous
 62
     7
370
    15
100
AcDbCircle
 10
284.5920968982
 20
84.0137654637
 30
0.0
 40
12.060004529034
100
AcDbArc
 50
101.4963124755
 51
104.7266772828
  0
LINE
  5
CA
330
1F
100
AcDbEntity
  8
0
  6
Continuous
 62
     7
370
    15
100
AcDbLine
 10
282.464228387
 20
95.8960456844
 30
0.0
 11
282.1884794189
 21
95.8318157191
 31
0.0
  0
LINE
  5
CB
330
1F
100
AcDbEntity
  8
0
  6
Continuous
 62
     7
370
    15
100
AcDbLine
 10
282.464228387
 20
94.9439389701
 30
0.0
 11
282.464228387
 21
95.8960456844
 31
0.0
  0
LINE
  5
CC
330
1F
100
AcDbEntity
  8
0
  6
Continuous
 62
     7
370
    15
100
AcDbLine
 10
282.081366892
 20
94.8547644611
 30
0.0
 11
282.464228387
 21
94.9439389701
 31
0.0
  0
ARC
  5
CD
330
1F
100
AcDbEntity
  8
0
  6
Continuous
 62
     7
370
    15
100
AcDbCircle
 10
279.0156143664
 20
106.5185914812
 30
0.0
 40
12.0600045290371
100
AcDbArc
 50
281.4963124755
 51
284.7266772827
  0
LINE
  5
CE
330
1F
100
AcDbEntity
  8
0
  6
Continuous
 62
     7
370
    15
100
AcDbLine
 10
281.0888363077
 20
94.6207953687
 30
0.0
 11
281.4192308141
 21
94.7005404229
 31
0.0
  0
LINE
  5
CF
330
1F
100
AcDbEntity
  8
0
  6
Continuous
 62
     7
370
    15
100
AcDbLine
 10
281.195454116
 20
94.163046598
 30
0.0
 11
281.0888363077
 21
94.6207953687
 31
0.0
  0
LINE
  5
D0
330
1F
100
AcDbEntity
  8
0
  6
Continuous
 62
     7
370
    15
100
AcDbLine
 10
281.5263999654
 20
94.2401303048
 30
0.0
 11
281.195454116
 21
94.163046598
 31
0.0
  0
ARC
  5
D1
330
1F
100
AcDbEntity
  8
0
  6
Continuous
 62
     7
370
    15
100
AcDbCircle
 10
284.592151758
 20
82.5763038233
 30
0.0
 40
12.060004529034
100
AcDbArc
 50
101.4963124755
 51
104.7266772828
  0
LINE
  5
D2
330
1F
100
AcDbEntity
  8
0
  6
Continuous
 62
     7
370
    15
100
AcDbLine
 10
282.464228387
 20
94.458569407
 30
0.0
 11
282.1885330631
 21
94.394354343
 31
0.0
  0
LINE
  5
D3
330
1F
100
AcDbEntity
  8
0
  6
Continuous
 62
     7
370
    15
100
AcDbLine
 10
282.464228387
 20
93.5067428346
 30
0.0
 11
282.464228387
 21
94.458569407
 31
0.0
  0
LINE
  5
D4
330
1F
100
AcDbEntity
  8
0
  6
Continuous
 62
     7
370
    15
100
AcDbLine
 10
281.1957282974
 20
86.9757367368
 30
0.0
 11
281.089110489
 21
87.4334884877
 31
0.0
  0
ARC
  5
D5
330
1F
100
AcDbEntity
  8
0
  6
Continuous
 62
     7
370
    15
100
AcDbCircle
 10
279.0156143664
 20
102.207005153
 30
0.0
 40
12.06000452903738
100
AcDbArc
 50
281.4963124754
 51
284.7266772827
  0
LINE
  5
D6
330
1F
100
AcDbEntity
  8
0
  6
Continuous
 62
     7
370
    15
100
AcDbLine
 10
281.0890002204
 20
90.3084112401
 30
0.0
 11
281.4192308141
 21
90.3889549966
 31
0.0
  0
LINE
  5
D7
330
1F
100
AcDbEntity
  8
0
  6
Continuous
 62
     7
370
    15
100
AcDbLine
 10
281.1956180288
 20
89.8506654496
 30
0.0
 11
281.0890002204
 21
90.3084112401
 31
0.0
  0
LINE
  5
D8
330
1F
100
AcDbEntity
  8
0
  6
Continuous
 62
     7
370
    15
100
AcDbLine
 10
281.5265638782
 20
89.9277461763
 30
0.0
 11
281.1956180288
 21
89.8506654496
 31
0.0
  0
ARC
  5
D9
330
1F
100
AcDbEntity
  8
0
  6
Continuous
 62
     7
370
    15
100
AcDbCircle
 10
284.5923163372
 20
78.2639189021
 30
0.0
 40
12.060004529034
100
AcDbArc
 50
101.4963124755
 51
104.7266772828
  0
LINE
  5
DA
330
1F
100
AcDbEntity
  8
0
  6
Continuous
 62
     7
370
    15
100
AcDbLine
 10
282.464228387
 20
90.1461495156
 30
0.0
 11
282.1886999561
 21
90.0819672342
 31
0.0
  0
LINE
  5
DB
330
1F
100
AcDbEntity
  8
0
  6
Continuous
 62
     7
370
    15
100
AcDbLine
 10
282.464228387
 20
89.1951574083
 30
0.0
 11
282.464228387
 21
90.1461495156
 31
0.0
  0
LINE
  5
DC
330
1F
100
AcDbEntity
  8
0
  6
Continuous
 62
     7
370
    15
100
AcDbLine
 10
282.081366892
 20
89.1059828992
 30
0.0
 11
282.464228387
 21
89.1951574083
 31
0.0
  0
ARC
  5
DD
330
1F
100
AcDbEntity
  8
0
  6
Continuous
 62
     7
370
    15
100
AcDbCircle
 10
279.0156143664
 20
100.7698097102
 30
0.0
 40
12.06000452903751
100
AcDbArc
 50
281.4963124754
 51
284.7266772827
  0
LINE
  5
DE
330
1F
100
AcDbEntity
  8
0
  6
Continuous
 62
     7
370
    15
100
AcDbLine
 10
281.0890568448
 20
88.8709498639
 30
0.0
 11
281.4192308141
 21
88.9517558808
 31
0.0
  0
LINE
  5
DF
330
1F
100
AcDbEntity
  8
0
  6
Continuous
 62
     7
370
    15
100
AcDbLine
 10
281.1955643846
 20
91.2881268258
 30
0.0
 11
281.0889465763
 21
91.7458726163
 31
0.0
  0
LINE
  5
E0
330
1F
100
AcDbEntity
  8
0
  6
Continuous
 62
     7
370
    15
100
AcDbLine
 10
281.5265072538
 20
91.3652075524
 30
0.0
 11
281.1955643846
 21
91.2881268258
 31
0.0
  0
ARC
  5
E1
330
1F
100
AcDbEntity
  8
0
  6
Continuous
 62
     7
370
    15
100
AcDbCircle
 10
284.5922614774
 20
79.7013805425
 30
0.0
 40
12.060004529034
100
AcDbArc
 50
101.4963124755
 51
104.7266772828
  0
LINE
  5
E2
330
1F
100
AcDbEntity
  8
0
  6
Continuous
 62
     7
370
    15
100
AcDbLine
 10
282.464228387
 20
91.5836228128
 30
0.0
 11
282.1886433317
 21
91.5194345708
 31
0.0
  0
LINE
  5
E3
330
1F
100
AcDbEntity
  8
0
  6
Continuous
 62
     7
370
    15
100
AcDbLine
 10
282.464228387
 20
90.632356524
 30
0.0
 11
282.464228387
 21
91.5836228128
 31
0.0
  0
LINE
  5
E4
330
1F
100
AcDbEntity
  8
0
  6
Continuous
 62
     7
370
    15
100
AcDbLine
 10
282.081366892
 20
90.5431760545
 30
0.0
 11
282.464228387
 21
90.632356524
 31
0.0
  0
LINE
  5
E5
330
1F
100
AcDbEntity
  8
0
  6
Continuous
 62
     7
370
    15
100
AcDbLine
 10
281.0882879449
 20
108.9954121108
 30
0.0
 11
279.7955108835
 21
108.6942983861
 31
0.0
  0
LINE
  5
E6
330
1F
100
AcDbEntity
  8
0
  6
Continuous
 62
     7
370
    15
100
AcDbLine
 10
282.464228387
 20
88.7086702581
 30
0.0
 11
282.1887536003
 21
88.644505858
 31
0.0
  0
LINE
  5
E7
330
1F
100
AcDbEntity
  8
0
  6
Continuous
 62
     7
370
    15
100
AcDbLine
 10
281.1956746532
 20
88.4132040734
 30
0.0
 11
281.0890568448
 21
88.8709498639
 31
0.0
  0
LINE
  5
E8
330
1F
100
AcDbEntity
  8
0
  6
Continuous
 62
     7
370
    15
100
AcDbLine
 10
281.5266175224
 20
88.4902848001
 30
0.0
 11
281.1956746532
 21
88.4132040734
 31
0.0
  0
ARC
  5
E9
330
1F
100
AcDbEntity
  8
0
  6
Continuous
 62
     7
370
    15
100
AcDbCircle
 10
284.5923711969
 20
76.8264572617
 30
0.0
 40
12.060004529034
100
AcDbArc
 50
101.4963124755
 51
104.7266772828
  0
LINE
  5
EA
330
1F
100
AcDbEntity
  8
0
  6
Continuous
 62
     7
370
    15
100
AcDbLine
 10
281.089110489
 20
87.4334884877
 30
0.0
 11
282.464228387
 21
87.7537800069
 31
0.0
  0
LINE
  5
EB
330
1F
100
AcDbEntity
  8
0
  6
Continuous
 62
     7
370
    15
100
AcDbLine
 10
282.464228387
 20
87.7537800069
 30
0.0
 11
282.464228387
 21
88.7086702581
 31
0.0
  0
ARC
  5
EC
330
1F
100
AcDbEntity
  8
0
  6
Continuous
 62
     7
370
    15
100
AcDbCircle
 10
284.5920420385
 20
85.4512271041
 30
0.0
 40
12.06000452903401
100
AcDbArc
 50
101.4963124755
 51
104.7266772828
  0
LINE
  5
ED
330
1F
100
AcDbEntity
  8
0
  6
Continuous
 62
     7
370
    15
100
AcDbLine
 10
279.7955108835
 20
108.6942983861
 30
0.0
 11
279.7955108835
 21
86.6496039624
 31
0.0
  0
LINE
  5
EE
330
1F
100
AcDbEntity
  8
0
  6
Continuous
 62
     7
370
    15
100
AcDbLine
 10
279.5165522052
 20
107.8146500583
 30
0.0
 11
279.7955108835
 21
107.7496720548
 31
0.0
  0
ARC
  5
EF
330
1F
100
AcDbEntity
  8
0
  6
Continuous
 62
     7
370
    15
100
AcDbCircle
 10
281.9064872961
 20
119.5742491953
 30
0.0
 40
12.00000000000001
100
AcDbArc
 50
255.2648820165
 51
258.5120774171
  0
LINE
  5
F0
330
1F
100
AcDbEntity
  8
0
  6
Continuous
 62
     7
370
    15
100
AcDbLine
 10
278.5231424524
 20
108.0460323091
 30
0.0
 11
278.8542790367
 21
107.9689038987
 31
0.0
  0
LINE
  5
F1
330
1F
100
AcDbEntity
  8
0
  6
Continuous
 62
     7
370
    15
100
AcDbLine
 10
278.416524644
 20
107.5882865186
 30
0.0
 11
278.5231424524
 21
108.0460323091
 31
0.0
  0
LINE
  5
F2
330
1F
100
AcDbEntity
  8
0
  6
Continuous
 62
     7
370
    15
100
AcDbLine
 10
278.7476612283
 20
107.5111581082
 30
0.0
 11
278.416524644
 21
107.5882865186
 31
0.0
  0
ARC
  5
F3
330
1F
100
AcDbEntity
  8
0
  6
Continuous
 62
     7
370
    15
100
AcDbCircle
 10
276.3577235827
 20
95.7515569859
 30
0.0
 40
12.00000000000015
100
AcDbArc
 50
75.2648820165
 51
78.5120774171
  0
LINE
  5
F4
330
1F
100
AcDbEntity
  8
0
  6
Continuous
 62
     7
370
    15
100
AcDbLine
 10
279.7955108835
 20
107.2670919891
 30
0.0
 11
279.4099314166
 21
107.3569012876
 31
0.0
  0
LINE
  5
F5
330
1F
100
AcDbEntity
  8
0
  6
Continuous
 62
     7
370
    15
100
AcDbLine
 10
279.7955108835
 20
106.3120914693
 30
0.0
 11
279.7955108835
 21
107.2670919891
 31
0.0
  0
LINE
  5
F6
330
1F
100
AcDbEntity
  8
0
  6
Continuous
 62
     7
370
    15
100
AcDbLine
 10
279.5165522052
 20
106.3770694728
 30
0.0
 11
279.7955108835
 21
106.3120914693
 31
0.0
  0
ARC
  5
F7
330
1F
100
AcDbEntity
  8
0
  6
Continuous
 62
     7
370
    15
100
AcDbCircle
 10
281.9064872961
 20
118.1366684977
 30
0.0
 40
12.00000000000002
100
AcDbArc
 50
255.2648820165
 51
258.5120774171
  0
LINE
  5
F8
330
1F
100
AcDbEntity
  8
0
  6
Continuous
 62
     7
370
    15
100
AcDbLine
 10
278.5231424524
 20
106.6084517236
 30
0.0
 11
278.8542790367
 21
106.5313233133
 31
0.0
  0
LINE
  5
F9
330
1F
100
AcDbEntity
  8
0
  6
Continuous
 62
     7
370
    15
100
AcDbLine
 10
278.416524644
 20
106.1507059331
 30
0.0
 11
278.5231424524
 21
106.6084517236
 31
0.0
  0
LINE
  5
FA
330
1F
100
AcDbEntity
  8
0
  6
Continuous
 62
     7
370
    15
100
AcDbLine
 10
278.7476612283
 20
106.0735775228
 30
0.0
 11
278.416524644
 21
106.1507059331
 31
0.0
  0
ARC
  5
FB
330
1F
100
AcDbEntity
  8
0
  6
Continuous
 62
     7
370
    15
100
AcDbCircle
 10
276.3577235827
 20
94.3139762883
 30
0.0
 40
12.00000000000017
100
AcDbArc
 50
75.2648820165
 51
78.5120774171
  0
LINE
  5
FC
330
1F
100
AcDbEntity
  8
0
  6
Continuous
 62
     7
370
    15
100
AcDbLine
 10
279.7955108835
 20
105.8295114036
 30
0.0
 11
279.4099314166
 21
105.9193207021
 31
0.0
  0
LINE
  5
FD
330
1F
100
AcDbEntity
  8
0
  6
Continuous
 62
     7
370
    15
100
AcDbLine
 10
279.7955108835
 20
104.8745108838
 30
0.0
 11
279.7955108835
 21
105.8295114036
 31
0.0
  0
LINE
  5
FE
330
1F
100
AcDbEntity
  8
0
  6
Continuous
 62
     7
370
    15
100
AcDbLine
 10
279.5165522052
 20
104.9394859071
 30
0.0
 11
279.7955108835
 21
104.8745108838
 31
0.0
  0
ARC
  5
FF
330
1F
100
AcDbEntity
  8
0
  6
Continuous
 62
     7
370
    15
100
AcDbCircle
 10
281.9064872961
 20
116.6990878001
 30
0.0
 40
11.99999999999999
100
AcDbArc
 50
255.2648820165
 51
258.5120774171
  0
LINE
  5
100
330
1F
100
AcDbEntity
  8
0
  6
Continuous
 62
     7
370
    15
100
AcDbLine
 10
278.5231424524
 20
105.1708711381
 30
0.0
 11
278.8542790367
 21
105.0937427278
 31
0.0
  0
LINE
  5
101
330
1F
100
AcDbEntity
  8
0
  6
Continuous
 62
     7
370
    15
100
AcDbLine
 10
278.416524644
 20
104.7131253476
 30
0.0
 11
278.5231424524
 21
105.1708711381
 31
0.0
  0
LINE
  5
102
330
1F
100
AcDbEntity
  8
0
  6
Continuous
 62
     7
370
    15
100
AcDbLine
 10
278.7476612283
 20
104.6359969373
 30
0.0
 11
278.416524644
 21
104.7131253476
 31
0.0
  0
ARC
  5
103
330
1F
100
AcDbEntity
  8
0
  6
Continuous
 62
     7
370
    15
100
AcDbCircle
 10
276.3577235827
 20
92.8763955908
 30
0.0
 40
12.00000000000017
100
AcDbArc
 50
75.2648820165
 51
78.5120774171
  0
LINE
  5
104
330
1F
100
AcDbEntity
  8
0
  6
Continuous
 62
     7
370
    15
100
AcDbLine
 10
279.7955108835
 20
104.3919308181
 30
0.0
 11
279.4099314166
 21
104.4817401166
 31
0.0
  0
LINE
  5
105
330
1F
100
AcDbEntity
  8
0
  6
Continuous
 62
     7
370
    15
100
AcDbLine
 10
279.7955108835
 20
103.4369302983
 30
0.0
 11
279.7955108835
 21
104.3919308181
 31
0.0
  0
LINE
  5
106
330
1F
100
AcDbEntity
  8
0
  6
Continuous
 62
     7
370
    15
100
AcDbLine
 10
279.5165522052
 20
103.5019053216
 30
0.0
 11
279.7955108835
 21
103.4369302983
 31
0.0
  0
ARC
  5
107
330
1F
100
AcDbEntity
  8
0
  6
Continuous
 62
     7
370
    15
100
AcDbCircle
 10
281.9064872961
 20
115.2615071026
 30
0.0
 40
12.00000000000001
100
AcDbArc
 50
255.2648820165
 51
258.5120774171
  0
LINE
  5
108
330
1F
100
AcDbEntity
  8
0
  6
Continuous
 62
     7
370
    15
100
AcDbLine
 10
278.5231424524
 20
103.7332905526
 30
0.0
 11
278.8542790367
 21
103.6561621423
 31
0.0
  0
LINE
  5
109
330
1F
100
AcDbEntity
  8
0
  6
Continuous
 62
     7
370
    15
100
AcDbLine
 10
278.416524644
 20
103.2755447622
 30
0.0
 11
278.5231424524
 21
103.7332905526
 31
0.0
  0
LINE
  5
10A
330
1F
100
AcDbEntity
  8
0
  6
Continuous
 62
     7
370
    15
100
AcDbLine
 10
278.7476612283
 20
103.1984163518
 30
0.0
 11
278.416524644
 21
103.2755447622
 31
0.0
  0
ARC
  5
10B
330
1F
100
AcDbEntity
  8
0
  6
Continuous
 62
     7
370
    15
100
AcDbCircle
 10
276.3577235827
 20
91.4388148932
 30
0.0
 40
12.00000000000017
100
AcDbArc
 50
75.2648820165
 51
78.5120774171
  0
LINE
  5
10C
330
1F
100
AcDbEntity
  8
0
  6
Continuous
 62
     7
370
    15
100
AcDbLine
 10
279.7955108835
 20
102.9543502326
 30
0.0
 11
279.4099314166
 21
103.0441595311
 31
0.0
  0
LINE
  5
10D
330
1F
100
AcDbEntity
  8
0
  6
Continuous
 62
     7
370
    15
100
AcDbLine
 10
279.7955108835
 20
101.9993497129
 30
0.0
 11
279.7955108835
 21
102.9543502326
 31
0.0
  0
LINE
  5
10E
330
1F
100
AcDbEntity
  8
0
  6
Continuous
 62
     7
370
    15
100
AcDbLine
 10
279.5165522052
 20
102.0643247361
 30
0.0
 11
279.7955108835
 21
101.9993497129
 31
0.0
  0
ARC
  5
10F
330
1F
100
AcDbEntity
  8
0
  6
Continuous
 62
     7
370
    15
100
AcDbCircle
 10
281.9064872961
 20
113.823926405
 30
0.0
 40
12.00000000000001
100
AcDbArc
 50
255.2648820165
 51
258.5120774171
  0
LINE
  5
110
330
1F
100
AcDbEntity
  8
0
  6
Continuous
 62
     7
370
    15
100
AcDbLine
 10
278.5231424524
 20
102.2957099672
 30
0.0
 11
278.8542790367
 21
102.2185815568
 31
0.0
  0
LINE
  5
111
330
1F
100
AcDbEntity
  8
0
  6
Continuous
 62
     7
370
    15
100
AcDbLine
 10
278.416524644
 20
101.8379641767
 30
0.0
 11
278.5231424524
 21
102.2957099672
 31
0.0
  0
LINE
  5
112
330
1F
100
AcDbEntity
  8
0
  6
Continuous
 62
     7
370
    15
100
AcDbLine
 10
278.7476612283
 20
101.7608357663
 30
0.0
 11
278.416524644
 21
101.8379641767
 31
0.0
  0
ARC
  5
113
330
1F
100
AcDbEntity
  8
0
  6
Continuous
 62
     7
370
    15
100
AcDbCircle
 10
276.3577235827
 20
90.0012341956
 30
0.0
 40
12.00000000000017
100
AcDbArc
 50
75.2648820165
 51
78.5120774171
  0
LINE
  5
114
330
1F
100
AcDbEntity
  8
0
  6
Continuous
 62
     7
370
    15
100
AcDbLine
 10
279.7955108835
 20
101.5167696471
 30
0.0
 11
279.4099314166
 21
101.6065789457
 31
0.0
  0
LINE
  5
115
330
1F
100
AcDbEntity
  8
0
  6
Continuous
 62
     7
370
    15
100
AcDbLine
 10
279.7955108835
 20
100.5617691274
 30
0.0
 11
279.7955108835
 21
101.5167696471
 31
0.0
  0
LINE
  5
116
330
1F
100
AcDbEntity
  8
0
  6
Continuous
 62
     7
370
    15
100
AcDbLine
 10
279.5165522052
 20
100.6267441507
 30
0.0
 11
279.7955108835
 21
100.5617691274
 31
0.0
  0
ARC
  5
117
330
1F
100
AcDbEntity
  8
0
  6
Continuous
 62
     7
370
    15
100
AcDbCircle
 10
281.9064872961
 20
112.3863457074
 30
0.0
 40
12.00000000000001
100
AcDbArc
 50
255.2648820165
 51
258.5120774171
  0
LINE
  5
118
330
1F
100
AcDbEntity
  8
0
  6
Continuous
 62
     7
370
    15
100
AcDbLine
 10
278.5231424524
 20
100.8581293817
 30
0.0
 11
278.8542790367
 21
100.7810009713
 31
0.0
  0
LINE
  5
119
330
1F
100
AcDbEntity
  8
0
  6
Continuous
 62
     7
370
    15
100
AcDbLine
 10
278.416524644
 20
100.400380611
 30
0.0
 11
278.5231424524
 21
100.8581293817
 31
0.0
  0
LINE
  5
11A
330
1F
100
AcDbEntity
  8
0
  6
Continuous
 62
     7
370
    15
100
AcDbLine
 10
278.7476612283
 20
100.3232551809
 30
0.0
 11
278.416524644
 21
100.400380611
 31
0.0
  0
ARC
  5
11B
330
1F
100
AcDbEntity
  8
0
  6
Continuous
 62
     7
370
    15
100
AcDbCircle
 10
276.3577235827
 20
88.5636534981
 30
0.0
 40
12.00000000000018
100
AcDbArc
 50
75.2648820165
 51
78.5120774171
  0
LINE
  5
11C
330
1F
100
AcDbEntity
  8
0
  6
Continuous
 62
     7
370
    15
100
AcDbLine
 10
279.7955108835
 20
100.0791890617
 30
0.0
 11
279.4099314166
 21
100.1689983602
 31
0.0
  0
LINE
  5
11D
330
1F
100
AcDbEntity
  8
0
  6
Continuous
 62
     7
370
    15
100
AcDbLine
 10
279.7955108835
 20
99.1241885419
 30
0.0
 11
279.7955108835
 21
100.0791890617
 31
0.0
  0
LINE
  5
11E
330
1F
100
AcDbEntity
  8
0
  6
Continuous
 62
     7
370
    15
100
AcDbLine
 10
279.5165522052
 20
99.1891635652
 30
0.0
 11
279.7955108835
 21
99.1241885419
 31
0.0
  0
ARC
  5
11F
330
1F
100
AcDbEntity
  8
0
  6
Continuous
 62
     7
370
    15
100
AcDbCircle
 10
281.9064872961
 20
110.9487650099
 30
0.0
 40
11.99999999999999
100
AcDbArc
 50
255.2648820165
 51
258.5120774171
  0
LINE
  5
120
330
1F
100
AcDbEntity
  8
0
  6
Continuous
 62
     7
370
    15
100
AcDbLine
 10
278.5231424524
 20
99.4205487962
 30
0.0
 11
278.8542790367
 21
99.3434203859
 31
0.0
  0
LINE
  5
121
330
1F
100
AcDbEntity
  8
0
  6
Continuous
 62
     7
370
    15
100
AcDbLine
 10
278.416524644
 20
98.9628000255
 30
0.0
 11
278.5231424524
 21
99.4205487962
 31
0.0
  0
LINE
  5
122
330
1F
100
AcDbEntity
  8
0
  6
Continuous
 62
     7
370
    15
100
AcDbLine
 10
278.7476612283
 20
98.8856745954
 30
0.0
 11
278.416524644
 21
98.9628000255
 31
0.0
  0
ARC
  5
123
330
1F
100
AcDbEntity
  8
0
  6
Continuous
 62
     7
370
    15
100
AcDbCircle
 10
276.3577235827
 20
87.1260728005
 30
0.0
 40
12.00000000000018
100
AcDbArc
 50
75.2648820165
 51
78.5120774171
  0
LINE
  5
124
330
1F
100
AcDbEntity
  8
0
  6
Continuous
 62
     7
370
    15
100
AcDbLine
 10
279.7955108835
 20
98.6416084762
 30
0.0
 11
279.4099314166
 21
98.7314177747
 31
0.0
  0
LINE
  5
125
330
1F
100
AcDbEntity
  8
0
  6
Continuous
 62
     7
370
    15
100
AcDbLine
 10
279.7955108835
 20
97.6866079564
 30
0.0
 11
279.7955108835
 21
98.6416084762
 31
0.0
  0
LINE
  5
126
330
1F
100
AcDbEntity
  8
0
  6
Continuous
 62
     7
370
    15
100
AcDbLine
 10
279.5165522052
 20
97.7515829797
 30
0.0
 11
279.7955108835
 21
97.6866079564
 31
0.0
  0
ARC
  5
127
330
1F
100
AcDbEntity
  8
0
  6
Continuous
 62
     7
370
    15
100
AcDbCircle
 10
281.9064872961
 20
109.5111843123
 30
0.0
 40
12.00000000000002
100
AcDbArc
 50
255.2648820165
 51
258.5120774171
  0
LINE
  5
128
330
1F
100
AcDbEntity
  8
0
  6
Continuous
 62
     7
370
    15
100
AcDbLine
 10
278.5231424524
 20
97.9829682107
 30
0.0
 11
278.8542790367
 21
97.9058398004
 31
0.0
  0
LINE
  5
129
330
1F
100
AcDbEntity
  8
0
  6
Continuous
 62
     7
370
    15
100
AcDbLine
 10
278.416524644
 20
97.52521944
 30
0.0
 11
278.5231424524
 21
97.9829682107
 31
0.0
  0
LINE
  5
12A
330
1F
100
AcDbEntity
  8
0
  6
Continuous
 62
     7
370
    15
100
AcDbLine
 10
278.7476612283
 20
97.4480940099
 30
0.0
 11
278.416524644
 21
97.52521944
 31
0.0
  0
ARC
  5
12B
330
1F
100
AcDbEntity
  8
0
  6
Continuous
 62
     7
370
    15
100
AcDbCircle
 10
276.3577235827
 20
85.6884921029
 30
0.0
 40
12.00000000000015
100
AcDbArc
 50
75.2648820165
 51
78.5120774171
  0
LINE
  5
12C
330
1F
100
AcDbEntity
  8
0
  6
Continuous
 62
     7
370
    15
100
AcDbLine
 10
279.7955108835
 20
97.2040278907
 30
0.0
 11
279.4099314166
 21
97.2938371892
 31
0.0
  0
LINE
  5
12D
330
1F
100
AcDbEntity
  8
0
  6
Continuous
 62
     7
370
    15
100
AcDbLine
 10
279.7955108835
 20
96.2490273709
 30
0.0
 11
279.7955108835
 21
97.2040278907
 31
0.0
  0
LINE
  5
12E
330
1F
100
AcDbEntity
  8
0
  6
Continuous
 62
     7
370
    15
100
AcDbLine
 10
279.5165522052
 20
96.3140023942
 30
0.0
 11
279.7955108835
 21
96.2490273709
 31
0.0
  0
ARC
  5
12F
330
1F
100
AcDbEntity
  8
0
  6
Continuous
 62
     7
370
    15
100
AcDbCircle
 10
281.9064872961
 20
108.0736036147
 30
0.0
 40
12.00000000000001
100
AcDbArc
 50
255.2648820165
 51
258.5120774171
  0
LINE
  5
130
330
1F
100
AcDbEntity
  8
0
  6
Continuous
 62
     7
370
    15
100
AcDbLine
 10
278.5231424524
 20
96.5453876252
 30
0.0
 11
278.8542790367
 21
96.4682592149
 31
0.0
  0
LINE
  5
131
330
1F
100
AcDbEntity
  8
0
  6
Continuous
 62
     7
370
    15
100
AcDbLine
 10
278.416524644
 20
96.0876388545
 30
0.0
 11
278.5231424524
 21
96.5453876252
 31
0.0
  0
LINE
  5
132
330
1F
100
AcDbEntity
  8
0
  6
Continuous
 62
     7
370
    15
100
AcDbLine
 10
278.7476612283
 20
96.0105104442
 30
0.0
 11
278.416524644
 21
96.0876388545
 31
0.0
  0
ARC
  5
133
330
1F
100
AcDbEntity
  8
0
  6
Continuous
 62
     7
370
    15
100
AcDbCircle
 10
276.3577235827
 20
84.2509114054
 30
0.0
 40
12.00000000000018
100
AcDbArc
 50
75.2648820165
 51
78.5120774171
  0
LINE
  5
134
330
1F
100
AcDbEntity
  8
0
  6
Continuous
 62
     7
370
    15
100
AcDbLine
 10
279.7955108835
 20
95.7664473052
 30
0.0
 11
279.4099314166
 21
95.8562566037
 31
0.0
  0
LINE
  5
135
330
1F
100
AcDbEntity
  8
0
  6
Continuous
 62
     7
370
    15
100
AcDbLine
 10
279.7955108835
 20
94.8114467855
 30
0.0
 11
279.7955108835
 21
95.7664473052
 31
0.0
  0
LINE
  5
136
330
1F
100
AcDbEntity
  8
0
  6
Continuous
 62
     7
370
    15
100
AcDbLine
 10
279.5165522052
 20
94.8764218087
 30
0.0
 11
279.7955108835
 21
94.8114467855
 31
0.0
  0
ARC
  5
137
330
1F
100
AcDbEntity
  8
0
  6
Continuous
 62
     7
370
    15
100
AcDbCircle
 10
281.9064872961
 20
106.6360229172
 30
0.0
 40
12.00000000000001
100
AcDbArc
 50
255.2648820165
 51
258.5120774171
  0
LINE
  5
138
330
1F
100
AcDbEntity
  8
0
  6
Continuous
 62
     7
370
    15
100
AcDbLine
 10
278.5231424524
 20
95.1078070398
 30
0.0
 11
278.8542790367
 21
95.0306786294
 31
0.0
  0
LINE
  5
139
330
1F
100
AcDbEntity
  8
0
  6
Continuous
 62
     7
370
    15
100
AcDbLine
 10
278.416524644
 20
94.650058269
 30
0.0
 11
278.5231424524
 21
95.1078070398
 31
0.0
  0
LINE
  5
13A
330
1F
100
AcDbEntity
  8
0
  6
Continuous
 62
     7
370
    15
100
AcDbLine
 10
278.7476612283
 20
94.5729298587
 30
0.0
 11
278.416524644
 21
94.650058269
 31
0.0
  0
ARC
  5
13B
330
1F
100
AcDbEntity
  8
0
  6
Continuous
 62
     7
370
    15
100
AcDbCircle
 10
276.3577235827
 20
82.8133307078
 30
0.0
 40
12.00000000000019
100
AcDbArc
 50
75.2648820165
 51
78.5120774171
  0
LINE
  5
13C
330
1F
100
AcDbEntity
  8
0
  6
Continuous
 62
     7
370
    15
100
AcDbLine
 10
279.7955108835
 20
94.3288667197
 30
0.0
 11
279.4099314166
 21
94.4186760183
 31
0.0
  0
LINE
  5
13D
330
1F
100
AcDbEntity
  8
0
  6
Continuous
 62
     7
370
    15
100
AcDbLine
 10
279.7955108835
 20
93.3738662
 30
0.0
 11
279.7955108835
 21
94.3288667197
 31
0.0
  0
LINE
  5
13E
330
1F
100
AcDbEntity
  8
0
  6
Continuous
 62
     7
370
    15
100
AcDbLine
 10
279.5165522052
 20
93.4388412233
 30
0.0
 11
279.7955108835
 21
93.3738662
 31
0.0
  0
ARC
  5
13F
330
1F
100
AcDbEntity
  8
0
  6
Continuous
 62
     7
370
    15
100
AcDbCircle
 10
281.9064872961
 20
105.1984422196
 30
0.0
 40
11.99999999999998
100
AcDbArc
 50
255.2648820165
 51
258.5120774171
  0
LINE
  5
140
330
1F
100
AcDbEntity
  8
0
  6
Continuous
 62
     7
370
    15
100
AcDbLine
 10
278.5231424524
 20
93.6702264543
 30
0.0
 11
278.8542790367
 21
93.5930980439
 31
0.0
  0
LINE
  5
141
330
1F
100
AcDbEntity
  8
0
  6
Continuous
 62
     7
370
    15
100
AcDbLine
 10
278.416524644
 20
93.2124806638
 30
0.0
 11
278.5231424524
 21
93.6702264543
 31
0.0
  0
LINE
  5
142
330
1F
100
AcDbEntity
  8
0
  6
Continuous
 62
     7
370
    15
100
AcDbLine
 10
278.7476612283
 20
93.1353522535
 30
0.0
 11
278.416524644
 21
93.2124806638
 31
0.0
  0
ARC
  5
143
330
1F
100
AcDbEntity
  8
0
  6
Continuous
 62
     7
370
    15
100
AcDbCircle
 10
276.3577235827
 20
81.3757500102
 30
0.0
 40
12.00000000000017
100
AcDbArc
 50
75.2648820165
 51
78.5120774171
  0
LINE
  5
144
330
1F
100
AcDbEntity
  8
0
  6
Continuous
 62
     7
370
    15
100
AcDbLine
 10
279.7955108835
 20
92.891283154
 30
0.0
 11
279.4099314166
 21
92.9810954328
 31
0.0
  0
LINE
  5
145
330
1F
100
AcDbEntity
  8
0
  6
Continuous
 62
     7
370
    15
100
AcDbLine
 10
279.7955108835
 20
91.9362856145
 30
0.0
 11
279.7955108835
 21
92.891283154
 31
0.0
  0
LINE
  5
146
330
1F
100
AcDbEntity
  8
0
  6
Continuous
 62
     7
370
    15
100
AcDbLine
 10
279.5165522052
 20
92.0012606378
 30
0.0
 11
279.7955108835
 21
91.9362856145
 31
0.0
  0
ARC
  5
147
330
1F
100
AcDbEntity
  8
0
  6
Continuous
 62
     7
370
    15
100
AcDbCircle
 10
281.9064872961
 20
103.760861522
 30
0.0
 40
11.99999999999999
100
AcDbArc
 50
255.2648820165
 51
258.5120774171
  0
LINE
  5
148
330
1F
100
AcDbEntity
  8
0
  6
Continuous
 62
     7
370
    15
100
AcDbLine
 10
278.5231424524
 20
92.2326458688
 30
0.0
 11
278.8542790367
 21
92.1555174585
 31
0.0
  0
LINE
  5
149
330
1F
100
AcDbEntity
  8
0
  6
Continuous
 62
     7
370
    15
100
AcDbLine
 10
278.416524644
 20
91.7749000783
 30
0.0
 11
278.5231424524
 21
92.2326458688
 31
0.0
  0
LINE
  5
14A
330
1F
100
AcDbEntity
  8
0
  6
Continuous
 62
     7
370
    15
100
AcDbLine
 10
278.7476612283
 20
91.697771668
 30
0.0
 11
278.416524644
 21
91.7749000783
 31
0.0
  0
ARC
  5
14B
330
1F
100
AcDbEntity
  8
0
  6
Continuous
 62
     7
370
    15
100
AcDbCircle
 10
276.3577235827
 20
79.9381693127
 30
0.0
 40
12.00000000000017
100
AcDbArc
 50
75.2648820165
 51
78.5120774171
  0
LINE
  5
14C
330
1F
100
AcDbEntity
  8
0
  6
Continuous
 62
     7
370
    15
100
AcDbLine
 10
279.7955108835
 20
91.4537025685
 30
0.0
 11
279.4099314166
 21
91.5435148473
 31
0.0
  0
LINE
  5
14D
330
1F
100
AcDbEntity
  8
0
  6
Continuous
 62
     7
370
    15
100
AcDbLine
 10
279.7955108835
 20
90.498705029
 30
0.0
 11
279.7955108835
 21
91.4537025685
 31
0.0
  0
LINE
  5
14E
330
1F
100
AcDbEntity
  8
0
  6
Continuous
 62
     7
370
    15
100
AcDbLine
 10
279.5165522052
 20
90.5636800523
 30
0.0
 11
279.7955108835
 21
90.498705029
 31
0.0
  0
ARC
  5
14F
330
1F
100
AcDbEntity
  8
0
  6
Continuous
 62
     7
370
    15
100
AcDbCircle
 10
281.9064872961
 20
102.3232808245
 30
0.0
 40
12.00000000000001
100
AcDbArc
 50
255.2648820165
 51
258.5120774171
  0
LINE
  5
150
330
1F
100
AcDbEntity
  8
0
  6
Continuous
 62
     7
370
    15
100
AcDbLine
 10
278.5231424524
 20
90.7950652833
 30
0.0
 11
278.8542790367
 21
90.717936873
 31
0.0
  0
LINE
  5
151
330
1F
100
AcDbEntity
  8
0
  6
Continuous
 62
     7
370
    15
100
AcDbLine
 10
278.416524644
 20
90.3373194928
 30
0.0
 11
278.5231424524
 21
90.7950652833
 31
0.0
  0
LINE
  5
152
330
1F
100
AcDbEntity
  8
0
  6
Continuous
 62
     7
370
    15
100
AcDbLine
 10
278.7476612283
 20
90.2601910825
 30
0.0
 11
278.416524644
 21
90.3373194928
 31
0.0
  0
ARC
  5
153
330
1F
100
AcDbEntity
  8
0
  6
Continuous
 62
     7
370
    15
100
AcDbCircle
 10
276.3577235827
 20
78.5005886151
 30
0.0
 40
12.00000000000018
100
AcDbArc
 50
75.2648820165
 51
78.5120774171
  0
LINE
  5
154
330
1F
100
AcDbEntity
  8
0
  6
Continuous
 62
     7
370
    15
100
AcDbLine
 10
279.7955108835
 20
90.0161219831
 30
0.0
 11
279.4099314166
 21
90.1059342618
 31
0.0
  0
LINE
  5
155
330
1F
100
AcDbEntity
  8
0
  6
Continuous
 62
     7
370
    15
100
AcDbLine
 10
279.7955108835
 20
89.0611244435
 30
0.0
 11
279.7955108835
 21
90.0161219831
 31
0.0
  0
LINE
  5
156
330
1F
100
AcDbEntity
  8
0
  6
Continuous
 62
     7
370
    15
100
AcDbLine
 10
279.5165522052
 20
89.1260994668
 30
0.0
 11
279.7955108835
 21
89.0611244435
 31
0.0
  0
ARC
  5
157
330
1F
100
AcDbEntity
  8
0
  6
Continuous
 62
     7
370
    15
100
AcDbCircle
 10
281.9064872961
 20
100.8857001269
 30
0.0
 40
11.99999999999999
100
AcDbArc
 50
255.2648820165
 51
258.5120774171
  0
LINE
  5
158
330
1F
100
AcDbEntity
  8
0
  6
Continuous
 62
     7
370
    15
100
AcDbLine
 10
278.5231424524
 20
89.3574846978
 30
0.0
 11
278.8542790367
 21
89.2803562875
 31
0.0
  0
LINE
  5
159
330
1F
100
AcDbEntity
  8
0
  6
Continuous
 62
     7
370
    15
100
AcDbLine
 10
278.416524644
 20
88.8997389074
 30
0.0
 11
278.5231424524
 21
89.3574846978
 31
0.0
  0
LINE
  5
15A
330
1F
100
AcDbEntity
  8
0
  6
Continuous
 62
     7
370
    15
100
AcDbLine
 10
278.7476612283
 20
88.822610497
 30
0.0
 11
278.416524644
 21
88.8997389074
 31
0.0
  0
ARC
  5
15B
330
1F
100
AcDbEntity
  8
0
  6
Continuous
 62
     7
370
    15
100
AcDbCircle
 10
276.3577235827
 20
77.0630079176
 30
0.0
 40
12.00000000000017
100
AcDbArc
 50
75.2648820165
 51
78.5120774171
  0
LINE
  5
15C
330
1F
100
AcDbEntity
  8
0
  6
Continuous
 62
     7
370
    15
100
AcDbLine
 10
279.7955108835
 20
88.5785413976
 30
0.0
 11
279.4099314166
 21
88.6683536763
 31
0.0
  0
LINE
  5
15D
330
1F
100
AcDbEntity
  8
0
  6
Continuous
 62
     7
370
    15
100
AcDbLine
 10
279.7955108835
 20
87.6235438581
 30
0.0
 11
279.7955108835
 21
88.5785413976
 31
0.0
  0
LINE
  5
15E
330
1F
100
AcDbEntity
  8
0
  6
Continuous
 62
     7
370
    15
100
AcDbLine
 10
279.5165522052
 20
87.6885188813
 30
0.0
 11
279.7955108835
 21
87.6235438581
 31
0.0
  0
ARC
  5
15F
330
1F
100
AcDbEntity
  8
0
  6
Continuous
 62
     7
370
    15
100
AcDbCircle
 10
281.9064872961
 20
99.4481194293
 30
0.0
 40
11.99999999999999
100
AcDbArc
 50
255.2648820165
 51
258.5120774171
  0
LINE
  5
160
330
1F
100
AcDbEntity
  8
0
  6
Continuous
 62
     7
370
    15
100
AcDbLine
 10
278.5231424524
 20
87.9199041124
 30
0.0
 11
278.8542790367
 21
87.842775702
 31
0.0
  0
LINE
  5
161
330
1F
100
AcDbEntity
  8
0
  6
Continuous
 62
     7
370
    15
100
AcDbLine
 10
278.416524644
 20
87.4621583219
 30
0.0
 11
278.5231424524
 21
87.9199041124
 31
0.0
  0
LINE
  5
162
330
1F
100
AcDbEntity
  8
0
  6
Continuous
 62
     7
370
    15
100
AcDbLine
 10
278.7476612283
 20
87.3850299115
 30
0.0
 11
278.416524644
 21
87.4621583219
 31
0.0
  0
ARC
  5
163
330
1F
100
AcDbEntity
  8
0
  6
Continuous
 62
     7
370
    15
100
AcDbCircle
 10
276.3577235827
 20
75.62542722
 30
0.0
 40
12.00000000000017
100
AcDbArc
 50
75.2648820165
 51
78.5120774171
  0
LINE
  5
164
330
1F
100
AcDbEntity
  8
0
  6
Continuous
 62
     7
370
    15
100
AcDbLine
 10
279.7955108835
 20
87.1409608121
 30
0.0
 11
279.4099314166
 21
87.2307730909
 31
0.0
  0
LINE
  5
165
330
1F
100
AcDbEntity
  8
0
  6
Continuous
 62
     7
370
    15
100
AcDbLine
 10
279.7955108835
 20
86.709411263
 30
0.0
 11
279.7955108835
 21
87.1409608121
 31
0.0
  0
ARC
  5
166
330
1F
100
AcDbEntity
  8
0
  6
Continuous
 62
     7
370
    15
100
AcDbCircle
 10
278.7955123304
 20
86.7094085863
 30
0.0
 40
1.0
100
AcDbArc
 50
290.339789686
 51
0.0
  0
LINE
  5
167
330
1F
100
AcDbEntity
  8
0
  6
Continuous
 62
     7
370
    15
100
AcDbLine
 10
265.2190012885
 20
81.3155485387
 30
0.0
 11
279.1430993034
 21
85.7717586751
 31
0.0
  0
ARC
  5
168
330
1F
100
AcDbEntity
  8
0
  6
Continuous
 62
     7
370
    15
100
AcDbCircle
 10
264.8433295049
 20
82.3289571497
 30
0.0
 40
1.080801586847878
100
AcDbArc
 50
121.9308638008
 51
290.339789686
  0
LINE
  5
169
330
1F
100
AcDbEntity
  8
0
  6
Continuous
 62
     7
370
    15
100
AcDbLine
 10
272.6148797227
 20
88.4456290002
 30
0.0
 11
264.2716987087
 21
83.246220469
 31
0.0
  0
ARC
  5
16A
330
1F
100
AcDbEntity
  8
0
  6
Continuous
 62
     7
370
    15
100
AcDbCircle
 10
271.9152766383
 20
89.658294585
 30
0.0
 40
1.400000000000004
100
AcDbArc
 50
299.9812372411
 51
337.7265428778
  0
LINE
  5
16B
330
1F
100
AcDbEntity
  8
0
  6
Continuous
 62
     7
370
    15
100
AcDbLine
 10
277.0097268773
 20
99.8539907928
 30
0.0
 11
273.2108159019
 21
89.127655148
 31
0.0
  0
ARC
  5
16C
330
1F
100
AcDbEntity
  8
0
  6
Continuous
 62
     7
370
    15
100
AcDbCircle
 10
275.7269320339
 20
100.4147402478
 30
0.0
 40
1.400000000000012
100
AcDbArc
 50
336.3883521515
 51
0.7990839822
  0
LINE
  5
16D
330
1F
100
AcDbEntity
  8
0
  6
Continuous
 62
     7
370
    15
100
AcDbLine
 10
277.1267963601
 20
109.3158943648
 30
0.0
 11
277.1267963601
 21
100.4342658515
 31
0.0
  0
LINE
  5
16E
330
1F
100
AcDbEntity
  8
0
  6
Continuous
 62
     7
370
    15
100
AcDbLine
 10
279.7955108835
 20
108.6942983861
 30
0.0
 11
277.1267963601
 21
109.3158943648
 31
0.0
  0
LINE
  5
16F
330
1F
100
AcDbEntity
  8
0
  6
Continuous
 62
     7
370
    15
100
AcDbLine
 10
279.7955108835
 20
107.7496720548
 30
0.0
 11
279.7955108835
 21
108.6942983861
 31
0.0
  0
LINE
  5
170
330
1F
100
AcDbEntity
  8
0
  6
Continuous
 62
     7
370
    15
100
AcDbLine
 10
288.1844146205
 20
89.5398093457
 30
0.0
 11
288.0777968122
 21
89.9975551362
 31
0.0
  0
LINE
  5
171
330
1F
100
AcDbEntity
  8
0
  6
Continuous
 62
     7
370
    15
100
AcDbLine
 10
288.51536047
 20
89.6168960328
 30
0.0
 11
288.1844146205
 21
89.5398093457
 31
0.0
  0
ARC
  5
172
330
1F
100
AcDbEntity
  8
0
  6
Continuous
 62
     7
370
    15
100
AcDbCircle
 10
291.5811134031
 20
77.9530660929
 30
0.0
 40
12.060004529034
100
AcDbArc
 50
101.496312475
 51
104.7266772823
  0
LINE
  5
173
330
1F
100
AcDbEntity
  8
0
  6
Continuous
 62
     7
370
    15
100
AcDbLine
 10
289.4553942634
 20
89.8358477349
 30
0.0
 11
289.1774935676
 21
89.7711170907
 31
0.0
  0
LINE
  5
174
330
1F
100
AcDbEntity
  8
0
  6
Continuous
 62
     7
370
    15
100
AcDbLine
 10
290.438560958
 20
90.0648666616
 30
0.0
 11
289.4553942634
 21
89.8358477349
 31
0.0
  0
ARC
  5
175
330
1F
100
AcDbEntity
  8
0
  6
Continuous
 62
     7
370
    15
100
AcDbCircle
 10
289.4553916273
 20
90.3184210054
 30
0.0
 40
1.015338418422588
100
AcDbArc
 50
315.5237033379
 51
345.5388271791
  0
LINE
  5
176
330
1F
100
AcDbEntity
  8
0
  6
Continuous
 62
     7
370
    15
100
AcDbLine
 10
288.51536047
 20
111.1790074105
 30
0.0
 11
288.1844146205
 21
111.1019266839
 31
0.0
  0
ARC
  5
177
330
1F
100
AcDbEntity
  8
0
  6
Continuous
 62
     7
370
    15
100
AcDbCircle
 10
291.5811134031
 20
99.5151812766
 30
0.0
 40
12.06000452903402
100
AcDbArc
 50
101.496312475
 51
104.7266772823
  0
LINE
  5
178
330
1F
100
AcDbEntity
  8
0
  6
Continuous
 62
     7
370
    15
100
AcDbLine
 10
289.4553942634
 20
111.3979591127
 30
0.0
 11
289.1774935676
 21
111.3332314487
 31
0.0
  0
LINE
  5
179
330
1F
100
AcDbEntity
  8
0
  6
Continuous
 62
     7
370
    15
100
AcDbLine
 10
289.4553942634
 20
110.4430658813
 30
0.0
 11
289.4553942634
 21
111.3979591127
 31
0.0
  0
LINE
  5
17A
330
1F
100
AcDbEntity
  8
0
  6
Continuous
 62
     7
370
    15
100
AcDbLine
 10
289.4537372543
 20
110.4426814313
 30
0.0
 11
289.4553942634
 21
110.4430658813
 31
0.0
  0
LINE
  5
17B
330
1F
100
AcDbEntity
  8
0
  6
Continuous
 62
     7
370
    15
100
AcDbLine
 10
289.0708787395
 20
110.353503942
 30
0.0
 11
289.4537372543
 21
110.4426814313
 31
0.0
  0
ARC
  5
17C
330
1F
100
AcDbEntity
  8
0
  6
Continuous
 62
     7
370
    15
100
AcDbCircle
 10
286.0051246091
 20
122.0173326127
 30
0.0
 40
12.06000452903693
100
AcDbArc
 50
281.496312475
 51
284.7266772823
  0
LINE
  5
17D
330
1F
100
AcDbEntity
  8
0
  6
Continuous
 62
     7
370
    15
100
AcDbLine
 10
288.0777968122
 20
110.1221991773
 30
0.0
 11
288.4087426616
 21
110.1992828841
 31
0.0
  0
LINE
  5
17E
330
1F
100
AcDbEntity
  8
0
  6
Continuous
 62
     7
370
    15
100
AcDbLine
 10
288.1844146205
 20
109.6644504066
 30
0.0
 11
288.0777968122
 21
110.1221991773
 31
0.0
  0
LINE
  5
17F
330
1F
100
AcDbEntity
  8
0
  6
Continuous
 62
     7
370
    15
100
AcDbLine
 10
288.51536047
 20
109.7415341134
 30
0.0
 11
288.1844146205
 21
109.6644504066
 31
0.0
  0
ARC
  5
180
330
1F
100
AcDbEntity
  8
0
  6
Continuous
 62
     7
370
    15
100
AcDbCircle
 10
291.5811134031
 20
98.077706931
 30
0.0
 40
12.06000452903399
100
AcDbArc
 50
101.496312475
 51
104.7266772823
  0
LINE
  5
181
330
1F
100
AcDbEntity
  8
0
  6
Continuous
 62
     7
370
    15
100
AcDbLine
 10
289.4553942634
 20
109.9604858155
 30
0.0
 11
289.1774935676
 21
109.8957581515
 31
0.0
  0
LINE
  5
182
330
1F
100
AcDbEntity
  8
0
  6
Continuous
 62
     7
370
    15
100
AcDbLine
 10
289.4553942634
 20
109.0055925841
 30
0.0
 11
289.4553942634
 21
109.9604858155
 31
0.0
  0
LINE
  5
183
330
1F
100
AcDbEntity
  8
0
  6
Continuous
 62
     7
370
    15
100
AcDbLine
 10
289.4537372543
 20
109.0052081342
 30
0.0
 11
289.4553942634
 21
109.0055925841
 31
0.0
  0
LINE
  5
184
330
1F
100
AcDbEntity
  8
0
  6
Continuous
 62
     7
370
    15
100
AcDbLine
 10
289.0708787395
 20
108.9160306449
 30
0.0
 11
289.4537372543
 21
109.0052081342
 31
0.0
  0
ARC
  5
185
330
1F
100
AcDbEntity
  8
0
  6
Continuous
 62
     7
370
    15
100
AcDbCircle
 10
286.0051246091
 20
120.5798582671
 30
0.0
 40
12.06000452903696
100
AcDbArc
 50
281.496312475
 51
284.7266772823
  0
LINE
  5
186
330
1F
100
AcDbEntity
  8
0
  6
Continuous
 62
     7
370
    15
100
AcDbLine
 10
288.0777968122
 20
108.6847228999
 30
0.0
 11
288.4087426616
 21
108.7618066068
 31
0.0
  0
LINE
  5
187
330
1F
100
AcDbEntity
  8
0
  6
Continuous
 62
     7
370
    15
100
AcDbLine
 10
288.1844146205
 20
108.2269771094
 30
0.0
 11
288.0777968122
 21
108.6847228999
 31
0.0
  0
LINE
  5
188
330
1F
100
AcDbEntity
  8
0
  6
Continuous
 62
     7
370
    15
100
AcDbLine
 10
288.51536047
 20
108.3040608163
 30
0.0
 11
288.1844146205
 21
108.2269771094
 31
0.0
  0
ARC
  5
189
330
1F
100
AcDbEntity
  8
0
  6
Continuous
 62
     7
370
    15
100
AcDbCircle
 10
291.5811134031
 20
96.6402325854
 30
0.0
 40
12.06000452903399
100
AcDbArc
 50
101.496312475
 51
104.7266772823
  0
LINE
  5
18A
330
1F
100
AcDbEntity
  8
0
  6
Continuous
 62
     7
370
    15
100
AcDbLine
 10
289.4553942634
 20
108.5230125184
 30
0.0
 11
289.1774935676
 21
108.4582848544
 31
0.0
  0
LINE
  5
18B
330
1F
100
AcDbEntity
  8
0
  6
Continuous
 62
     7
370
    15
100
AcDbLine
 10
289.4553942634
 20
107.5681163068
 30
0.0
 11
289.4553942634
 21
108.5230125184
 31
0.0
  0
LINE
  5
18C
330
1F
100
AcDbEntity
  8
0
  6
Continuous
 62
     7
370
    15
100
AcDbLine
 10
289.4537372543
 20
107.5677318568
 30
0.0
 11
289.4553942634
 21
107.5681163068
 31
0.0
  0
LINE
  5
18D
330
1F
100
AcDbEntity
  8
0
  6
Continuous
 62
     7
370
    15
100
AcDbLine
 10
289.0708787395
 20
107.4785573478
 30
0.0
 11
289.4537372543
 21
107.5677318568
 31
0.0
  0
ARC
  5
18E
330
1F
100
AcDbEntity
  8
0
  6
Continuous
 62
     7
370
    15
100
AcDbCircle
 10
286.0051246091
 20
119.1423839215
 30
0.0
 40
12.06000452903693
100
AcDbArc
 50
281.496312475
 51
284.7266772823
  0
LINE
  5
18F
330
1F
100
AcDbEntity
  8
0
  6
Continuous
 62
     7
370
    15
100
AcDbLine
 10
288.0777968122
 20
107.2472496028
 30
0.0
 11
288.4087426616
 21
107.3243333097
 31
0.0
  0
LINE
  5
190
330
1F
100
AcDbEntity
  8
0
  6
Continuous
 62
     7
370
    15
100
AcDbLine
 10
288.1844146205
 20
106.7895008321
 30
0.0
 11
288.0777968122
 21
107.2472496028
 31
0.0
  0
LINE
  5
191
330
1F
100
AcDbEntity
  8
0
  6
Continuous
 62
     7
370
    15
100
AcDbLine
 10
288.51536047
 20
106.866584539
 30
0.0
 11
288.1844146205
 21
106.7895008321
 31
0.0
  0
ARC
  5
192
330
1F
100
AcDbEntity
  8
0
  6
Continuous
 62
     7
370
    15
100
AcDbCircle
 10
291.5811134031
 20
95.2027582398
 30
0.0
 40
12.06000452903399
100
AcDbArc
 50
101.496312475
 51
104.7266772823
  0
LINE
  5
193
330
1F
100
AcDbEntity
  8
0
  6
Continuous
 62
     7
370
    15
100
AcDbLine
 10
289.4553942634
 20
107.0855362411
 30
0.0
 11
289.1774935676
 21
107.0208085771
 31
0.0
  0
LINE
  5
194
330
1F
100
AcDbEntity
  8
0
  6
Continuous
 62
     7
370
    15
100
AcDbLine
 10
289.4553942634
 20
106.1306430097
 30
0.0
 11
289.4553942634
 21
107.0855362411
 31
0.0
  0
LINE
  5
195
330
1F
100
AcDbEntity
  8
0
  6
Continuous
 62
     7
370
    15
100
AcDbLine
 10
289.4537372543
 20
106.1302585597
 30
0.0
 11
289.4553942634
 21
106.1306430097
 31
0.0
  0
LINE
  5
196
330
1F
100
AcDbEntity
  8
0
  6
Continuous
 62
     7
370
    15
100
AcDbLine
 10
289.0708787395
 20
106.0410810704
 30
0.0
 11
289.4537372543
 21
106.1302585597
 31
0.0
  0
ARC
  5
197
330
1F
100
AcDbEntity
  8
0
  6
Continuous
 62
     7
370
    15
100
AcDbCircle
 10
286.0051246091
 20
117.7049095759
 30
0.0
 40
12.06000452903695
100
AcDbArc
 50
281.496312475
 51
284.7266772823
  0
LINE
  5
198
330
1F
100
AcDbEntity
  8
0
  6
Continuous
 62
     7
370
    15
100
AcDbLine
 10
288.0777968122
 20
105.8097763057
 30
0.0
 11
288.4087426616
 21
105.8868570323
 31
0.0
  0
LINE
  5
199
330
1F
100
AcDbEntity
  8
0
  6
Continuous
 62
     7
370
    15
100
AcDbLine
 10
288.1844146205
 20
105.352027535
 30
0.0
 11
288.0777968122
 21
105.8097763057
 31
0.0
  0
LINE
  5
19A
330
1F
100
AcDbEntity
  8
0
  6
Continuous
 62
     7
370
    15
100
AcDbLine
 10
288.51536047
 20
105.4291112418
 30
0.0
 11
288.1844146205
 21
105.352027535
 31
0.0
  0
ARC
  5
19B
330
1F
100
AcDbEntity
  8
0
  6
Continuous
 62
     7
370
    15
100
AcDbCircle
 10
291.5811134031
 20
93.7652838943
 30
0.0
 40
12.06000452903402
100
AcDbArc
 50
101.496312475
 51
104.7266772823
  0
LINE
  5
19C
330
1F
100
AcDbEntity
  8
0
  6
Continuous
 62
     7
370
    15
100
AcDbLine
 10
289.4553942634
 20
105.648062944
 30
0.0
 11
289.1774935676
 21
105.58333528
 31
0.0
  0
LINE
  5
19D
330
1F
100
AcDbEntity
  8
0
  6
Continuous
 62
     7
370
    15
100
AcDbLine
 10
289.4553942634
 20
104.6931697126
 30
0.0
 11
289.4553942634
 21
105.648062944
 31
0.0
  0
LINE
  5
19E
330
1F
100
AcDbEntity
  8
0
  6
Continuous
 62
     7
370
    15
100
AcDbLine
 10
289.4537372543
 20
104.6927822824
 30
0.0
 11
289.4553942634
 21
104.6931697126
 31
0.0
  0
LINE
  5
19F
330
1F
100
AcDbEntity
  8
0
  6
Continuous
 62
     7
370
    15
100
AcDbLine
 10
289.0708787395
 20
104.6036077733
 30
0.0
 11
289.4537372543
 21
104.6927822824
 31
0.0
  0
ARC
  5
1A0
330
1F
100
AcDbEntity
  8
0
  6
Continuous
 62
     7
370
    15
100
AcDbCircle
 10
286.0051246091
 20
116.2674352303
 30
0.0
 40
12.06000452903693
100
AcDbArc
 50
281.496312475
 51
284.7266772823
  0
LINE
  5
1A1
330
1F
100
AcDbEntity
  8
0
  6
Continuous
 62
     7
370
    15
100
AcDbLine
 10
288.0777968122
 20
104.3723000283
 30
0.0
 11
288.4087426616
 21
104.4493837352
 31
0.0
  0
LINE
  5
1A2
330
1F
100
AcDbEntity
  8
0
  6
Continuous
 62
     7
370
    15
100
AcDbLine
 10
288.1844146205
 20
103.9145542379
 30
0.0
 11
288.0777968122
 21
104.3723000283
 31
0.0
  0
LINE
  5
1A3
330
1F
100
AcDbEntity
  8
0
  6
Continuous
 62
     7
370
    15
100
AcDbLine
 10
288.51536047
 20
103.9916379447
 30
0.0
 11
288.1844146205
 21
103.9145542379
 31
0.0
  0
ARC
  5
1A4
330
1F
100
AcDbEntity
  8
0
  6
Continuous
 62
     7
370
    15
100
AcDbCircle
 10
291.5811134031
 20
92.3278095487
 30
0.0
 40
12.060004529034
100
AcDbArc
 50
101.496312475
 51
104.7266772823
  0
LINE
  5
1A5
330
1F
100
AcDbEntity
  8
0
  6
Continuous
 62
     7
370
    15
100
AcDbLine
 10
289.4553942634
 20
104.2105896468
 30
0.0
 11
289.1774935676
 21
104.1458619828
 31
0.0
  0
LINE
  5
1A6
330
1F
100
AcDbEntity
  8
0
  6
Continuous
 62
     7
370
    15
100
AcDbLine
 10
289.4553942634
 20
103.2556934352
 30
0.0
 11
289.4553942634
 21
104.2105896468
 31
0.0
  0
LINE
  5
1A7
330
1F
100
AcDbEntity
  8
0
  6
Continuous
 62
     7
370
    15
100
AcDbLine
 10
289.4537372543
 20
103.2553089852
 30
0.0
 11
289.4553942634
 21
103.2556934352
 31
0.0
  0
LINE
  5
1A8
330
1F
100
AcDbEntity
  8
0
  6
Continuous
 62
     7
370
    15
100
AcDbLine
 10
289.0708787395
 20
103.1661344762
 30
0.0
 11
289.4537372543
 21
103.2553089852
 31
0.0
  0
ARC
  5
1A9
330
1F
100
AcDbEntity
  8
0
  6
Continuous
 62
     7
370
    15
100
AcDbCircle
 10
286.0051246091
 20
114.8299608848
 30
0.0
 40
12.06000452903695
100
AcDbArc
 50
281.496312475
 51
284.7266772823
  0
LINE
  5
1AA
330
1F
100
AcDbEntity
  8
0
  6
Continuous
 62
     7
370
    15
100
AcDbLine
 10
288.0777968122
 20
102.9348267312
 30
0.0
 11
288.4087426616
 21
103.0119104381
 31
0.0
  0
LINE
  5
1AB
330
1F
100
AcDbEntity
  8
0
  6
Continuous
 62
     7
370
    15
100
AcDbLine
 10
288.1844146205
 20
102.4770779605
 30
0.0
 11
288.0777968122
 21
102.9348267312
 31
0.0
  0
LINE
  5
1AC
330
1F
100
AcDbEntity
  8
0
  6
Continuous
 62
     7
370
    15
100
AcDbLine
 10
288.51536047
 20
102.5541616674
 30
0.0
 11
288.1844146205
 21
102.4770779605
 31
0.0
  0
ARC
  5
1AD
330
1F
100
AcDbEntity
  8
0
  6
Continuous
 62
     7
370
    15
100
AcDbCircle
 10
291.5811134031
 20
90.8903352031
 30
0.0
 40
12.06000452903399
100
AcDbArc
 50
101.496312475
 51
104.7266772823
  0
LINE
  5
1AE
330
1F
100
AcDbEntity
  8
0
  6
Continuous
 62
     7
370
    15
100
AcDbLine
 10
289.4553942634
 20
102.7731133695
 30
0.0
 11
289.1774935676
 21
102.7083857055
 31
0.0
  0
LINE
  5
1AF
330
1F
100
AcDbEntity
  8
0
  6
Continuous
 62
     7
370
    15
100
AcDbLine
 10
289.4553942634
 20
101.8182201381
 30
0.0
 11
289.4553942634
 21
102.7731133695
 31
0.0
  0
LINE
  5
1B0
330
1F
100
AcDbEntity
  8
0
  6
Continuous
 62
     7
370
    15
100
AcDbLine
 10
289.4537372543
 20
101.8178356881
 30
0.0
 11
289.4553942634
 21
101.8182201381
 31
0.0
  0
LINE
  5
1B1
330
1F
100
AcDbEntity
  8
0
  6
Continuous
 62
     7
370
    15
100
AcDbLine
 10
289.0708787395
 20
101.7286581988
 30
0.0
 11
289.4537372543
 21
101.8178356881
 31
0.0
  0
ARC
  5
1B2
330
1F
100
AcDbEntity
  8
0
  6
Continuous
 62
     7
370
    15
100
AcDbCircle
 10
286.0051246091
 20
113.3924865392
 30
0.0
 40
12.06000452903696
100
AcDbArc
 50
281.496312475
 51
284.7266772823
  0
LINE
  5
1B3
330
1F
100
AcDbEntity
  8
0
  6
Continuous
 62
     7
370
    15
100
AcDbLine
 10
288.0777968122
 20
101.4973534341
 30
0.0
 11
288.4087426616
 21
101.5744341607
 31
0.0
  0
LINE
  5
1B4
330
1F
100
AcDbEntity
  8
0
  6
Continuous
 62
     7
370
    15
100
AcDbLine
 10
288.1844146205
 20
101.0396046634
 30
0.0
 11
288.0777968122
 21
101.4973534341
 31
0.0
  0
LINE
  5
1B5
330
1F
100
AcDbEntity
  8
0
  6
Continuous
 62
     7
370
    15
100
AcDbLine
 10
288.51536047
 20
101.1166883702
 30
0.0
 11
288.1844146205
 21
101.0396046634
 31
0.0
  0
ARC
  5
1B6
330
1F
100
AcDbEntity
  8
0
  6
Continuous
 62
     7
370
    15
100
AcDbCircle
 10
291.5811134031
 20
89.4528608575
 30
0.0
 40
12.06000452903399
100
AcDbArc
 50
101.496312475
 51
104.7266772823
  0
LINE
  5
1B7
330
1F
100
AcDbEntity
  8
0
  6
Continuous
 62
     7
370
    15
100
AcDbLine
 10
289.4553942634
 20
101.3356400724
 30
0.0
 11
289.1774935676
 21
101.2709124084
 31
0.0
  0
LINE
  5
1B8
330
1F
100
AcDbEntity
  8
0
  6
Continuous
 62
     7
370
    15
100
AcDbLine
 10
289.4553942634
 20
100.380746841
 30
0.0
 11
289.4553942634
 21
101.3356400724
 31
0.0
  0
LINE
  5
1B9
330
1F
100
AcDbEntity
  8
0
  6
Continuous
 62
     7
370
    15
100
AcDbLine
 10
289.4537372543
 20
100.3803594108
 30
0.0
 11
289.4553942634
 21
100.380746841
 31
0.0
  0
LINE
  5
1BA
330
1F
100
AcDbEntity
  8
0
  6
Continuous
 62
     7
370
    15
100
AcDbLine
 10
289.0708787395
 20
100.2911849017
 30
0.0
 11
289.4537372543
 21
100.3803594108
 31
0.0
  0
ARC
  5
1BB
330
1F
100
AcDbEntity
  8
0
  6
Continuous
 62
     7
370
    15
100
AcDbCircle
 10
286.0051246091
 20
111.9550121936
 30
0.0
 40
12.06000452903693
100
AcDbArc
 50
281.496312475
 51
284.7266772823
  0
LINE
  5
1BC
330
1F
100
AcDbEntity
  8
0
  6
Continuous
 62
     7
370
    15
100
AcDbLine
 10
288.0777968122
 20
100.0598771568
 30
0.0
 11
288.4087426616
 21
100.1369608636
 31
0.0
  0
LINE
  5
1BD
330
1F
100
AcDbEntity
  8
0
  6
Continuous
 62
     7
370
    15
100
AcDbLine
 10
288.1844146205
 20
99.6021313663
 30
0.0
 11
288.0777968122
 21
100.0598771568
 31
0.0
  0
LINE
  5
1BE
330
1F
100
AcDbEntity
  8
0
  6
Continuous
 62
     7
370
    15
100
AcDbLine
 10
288.51536047
 20
99.6792150731
 30
0.0
 11
288.1844146205
 21
99.6021313663
 31
0.0
  0
ARC
  5
1BF
330
1F
100
AcDbEntity
  8
0
  6
Continuous
 62
     7
370
    15
100
AcDbCircle
 10
291.5811134031
 20
88.0153865119
 30
0.0
 40
12.060004529034
100
AcDbArc
 50
101.496312475
 51
104.7266772823
  0
LINE
  5
1C0
330
1F
100
AcDbEntity
  8
0
  6
Continuous
 62
     7
370
    15
100
AcDbLine
 10
289.4553942634
 20
99.898163795
 30
0.0
 11
289.1774935676
 21
99.833436131
 31
0.0
  0
LINE
  5
1C1
330
1F
100
AcDbEntity
  8
0
  6
Continuous
 62
     7
370
    15
100
AcDbLine
 10
289.4553942634
 20
98.9432705636
 30
0.0
 11
289.4553942634
 21
99.898163795
 31
0.0
  0
LINE
  5
1C2
330
1F
100
AcDbEntity
  8
0
  6
Continuous
 62
     7
370
    15
100
AcDbLine
 10
289.4537372543
 20
98.9428861137
 30
0.0
 11
289.4553942634
 21
98.9432705636
 31
0.0
  0
LINE
  5
1C3
330
1F
100
AcDbEntity
  8
0
  6
Continuous
 62
     7
370
    15
100
AcDbLine
 10
289.0708787395
 20
98.8537116046
 30
0.0
 11
289.4537372543
 21
98.9428861137
 31
0.0
  0
ARC
  5
1C4
330
1F
100
AcDbEntity
  8
0
  6
Continuous
 62
     7
370
    15
100
AcDbCircle
 10
286.0051246091
 20
110.517537848
 30
0.0
 40
12.06000452903693
100
AcDbArc
 50
281.496312475
 51
284.7266772823
  0
LINE
  5
1C5
330
1F
100
AcDbEntity
  8
0
  6
Continuous
 62
     7
370
    15
100
AcDbLine
 10
288.0777968122
 20
98.6224038596
 30
0.0
 11
288.4087426616
 21
98.6994875665
 31
0.0
  0
LINE
  5
1C6
330
1F
100
AcDbEntity
  8
0
  6
Continuous
 62
     7
370
    15
100
AcDbLine
 10
288.1844146205
 20
98.1646550889
 30
0.0
 11
288.0777968122
 21
98.6224038596
 31
0.0
  0
LINE
  5
1C7
330
1F
100
AcDbEntity
  8
0
  6
Continuous
 62
     7
370
    15
100
AcDbLine
 10
288.51536047
 20
98.2417387958
 30
0.0
 11
288.1844146205
 21
98.1646550889
 31
0.0
  0
ARC
  5
1C8
330
1F
100
AcDbEntity
  8
0
  6
Continuous
 62
     7
370
    15
100
AcDbCircle
 10
291.5811134031
 20
86.5779121664
 30
0.0
 40
12.06000452903399
100
AcDbArc
 50
101.496312475
 51
104.7266772823
  0
LINE
  5
1C9
330
1F
100
AcDbEntity
  8
0
  6
Continuous
 62
     7
370
    15
100
AcDbLine
 10
289.4553942634
 20
98.4606904979
 30
0.0
 11
289.1774935676
 21
98.3959628339
 31
0.0
  0
LINE
  5
1CA
330
1F
100
AcDbEntity
  8
0
  6
Continuous
 62
     7
370
    15
100
AcDbLine
 10
289.4553942634
 20
97.5057972665
 30
0.0
 11
289.4553942634
 21
98.4606904979
 31
0.0
  0
LINE
  5
1CB
330
1F
100
AcDbEntity
  8
0
  6
Continuous
 62
     7
370
    15
100
AcDbLine
 10
289.4537372543
 20
97.5054128165
 30
0.0
 11
289.4553942634
 21
97.5057972665
 31
0.0
  0
LINE
  5
1CC
330
1F
100
AcDbEntity
  8
0
  6
Continuous
 62
     7
370
    15
100
AcDbLine
 10
289.0708787395
 20
97.4162353273
 30
0.0
 11
289.4537372543
 21
97.5054128165
 31
0.0
  0
ARC
  5
1CD
330
1F
100
AcDbEntity
  8
0
  6
Continuous
 62
     7
370
    15
100
AcDbCircle
 10
286.0051246091
 20
109.0800635024
 30
0.0
 40
12.06000452903695
100
AcDbArc
 50
281.496312475
 51
284.7266772823
  0
LINE
  5
1CE
330
1F
100
AcDbEntity
  8
0
  6
Continuous
 62
     7
370
    15
100
AcDbLine
 10
288.0777968122
 20
97.1849305625
 30
0.0
 11
288.4087426616
 21
97.2620112891
 31
0.0
  0
LINE
  5
1CF
330
1F
100
AcDbEntity
  8
0
  6
Continuous
 62
     7
370
    15
100
AcDbLine
 10
288.1844146205
 20
96.7271817918
 30
0.0
 11
288.0777968122
 21
97.1849305625
 31
0.0
  0
LINE
  5
1D0
330
1F
100
AcDbEntity
  8
0
  6
Continuous
 62
     7
370
    15
100
AcDbLine
 10
288.51536047
 20
96.8042654987
 30
0.0
 11
288.1844146205
 21
96.7271817918
 31
0.0
  0
ARC
  5
1D1
330
1F
100
AcDbEntity
  8
0
  6
Continuous
 62
     7
370
    15
100
AcDbCircle
 10
291.5811134031
 20
85.1404378208
 30
0.0
 40
12.06000452903399
100
AcDbArc
 50
101.496312475
 51
104.7266772823
  0
LINE
  5
1D2
330
1F
100
AcDbEntity
  8
0
  6
Continuous
 62
     7
370
    15
100
AcDbLine
 10
289.4553942634
 20
97.0232172008
 30
0.0
 11
289.1774935676
 21
96.9584895368
 31
0.0
  0
LINE
  5
1D3
330
1F
100
AcDbEntity
  8
0
  6
Continuous
 62
     7
370
    15
100
AcDbLine
 10
289.4553942634
 20
96.0683239694
 30
0.0
 11
289.4553942634
 21
97.0232172008
 31
0.0
  0
LINE
  5
1D4
330
1F
100
AcDbEntity
  8
0
  6
Continuous
 62
     7
370
    15
100
AcDbLine
 10
289.4537372543
 20
96.0679365392
 30
0.0
 11
289.4553942634
 21
96.0683239694
 31
0.0
  0
LINE
  5
1D5
330
1F
100
AcDbEntity
  8
0
  6
Continuous
 62
     7
370
    15
100
AcDbLine
 10
289.0708787395
 20
95.9787620301
 30
0.0
 11
289.4537372543
 21
96.0679365392
 31
0.0
  0
ARC
  5
1D6
330
1F
100
AcDbEntity
  8
0
  6
Continuous
 62
     7
370
    15
100
AcDbCircle
 10
286.0051246091
 20
107.6425891569
 30
0.0
 40
12.06000452903694
100
AcDbArc
 50
281.496312475
 51
284.7266772823
  0
LINE
  5
1D7
330
1F
100
AcDbEntity
  8
0
  6
Continuous
 62
     7
370
    15
100
AcDbLine
 10
288.0777968122
 20
95.7474542852
 30
0.0
 11
288.4087426616
 21
95.824537992
 31
0.0
  0
LINE
  5
1D8
330
1F
100
AcDbEntity
  8
0
  6
Continuous
 62
     7
370
    15
100
AcDbLine
 10
288.1844146205
 20
95.2897084947
 30
0.0
 11
288.0777968122
 21
95.7474542852
 31
0.0
  0
LINE
  5
1D9
330
1F
100
AcDbEntity
  8
0
  6
Continuous
 62
     7
370
    15
100
AcDbLine
 10
288.51536047
 20
95.3667922015
 30
0.0
 11
288.1844146205
 21
95.2897084947
 31
0.0
  0
ARC
  5
1DA
330
1F
100
AcDbEntity
  8
0
  6
Continuous
 62
     7
370
    15
100
AcDbCircle
 10
291.5811134031
 20
83.7029634752
 30
0.0
 40
12.06000452903402
100
AcDbArc
 50
101.496312475
 51
104.7266772823
  0
LINE
  5
1DB
330
1F
100
AcDbEntity
  8
0
  6
Continuous
 62
     7
370
    15
100
AcDbLine
 10
289.4553942634
 20
95.5857409234
 30
0.0
 11
289.1774935676
 21
95.5210132594
 31
0.0
  0
LINE
  5
1DC
330
1F
100
AcDbEntity
  8
0
  6
Continuous
 62
     7
370
    15
100
AcDbLine
 10
289.4553942634
 20
94.630847692
 30
0.0
 11
289.4553942634
 21
95.5857409234
 31
0.0
  0
LINE
  5
1DD
330
1F
100
AcDbEntity
  8
0
  6
Continuous
 62
     7
370
    15
100
AcDbLine
 10
289.4537372543
 20
94.6304632421
 30
0.0
 11
289.4553942634
 21
94.630847692
 31
0.0
  0
LINE
  5
1DE
330
1F
100
AcDbEntity
  8
0
  6
Continuous
 62
     7
370
    15
100
AcDbLine
 10
289.0708787395
 20
94.541288733
 30
0.0
 11
289.4537372543
 21
94.6304632421
 31
0.0
  0
ARC
  5
1DF
330
1F
100
AcDbEntity
  8
0
  6
Continuous
 62
     7
370
    15
100
AcDbCircle
 10
286.0051246091
 20
106.2051148113
 30
0.0
 40
12.06000452903693
100
AcDbArc
 50
281.496312475
 51
284.7266772823
  0
LINE
  5
1E0
330
1F
100
AcDbEntity
  8
0
  6
Continuous
 62
     7
370
    15
100
AcDbLine
 10
288.0777968122
 20
94.309980988
 30
0.0
 11
288.4087426616
 21
94.3870646949
 31
0.0
  0
LINE
  5
1E1
330
1F
100
AcDbEntity
  8
0
  6
Continuous
 62
     7
370
    15
100
AcDbLine
 10
288.1844146205
 20
93.8522351976
 30
0.0
 11
288.0777968122
 21
94.309980988
 31
0.0
  0
LINE
  5
1E2
330
1F
100
AcDbEntity
  8
0
  6
Continuous
 62
     7
370
    15
100
AcDbLine
 10
288.51536047
 20
93.9293159242
 30
0.0
 11
288.1844146205
 21
93.8522351976
 31
0.0
  0
ARC
  5
1E3
330
1F
100
AcDbEntity
  8
0
  6
Continuous
 62
     7
370
    15
100
AcDbCircle
 10
291.5811134031
 20
82.2654891296
 30
0.0
 40
12.060004529034
100
AcDbArc
 50
101.496312475
 51
104.7266772823
  0
LINE
  5
1E4
330
1F
100
AcDbEntity
  8
0
  6
Continuous
 62
     7
370
    15
100
AcDbLine
 10
289.4553942634
 20
94.1482676263
 30
0.0
 11
289.1774935676
 21
94.0835399623
 31
0.0
  0
LINE
  5
1E5
330
1F
100
AcDbEntity
  8
0
  6
Continuous
 62
     7
370
    15
100
AcDbLine
 10
289.4553942634
 20
93.1933714147
 30
0.0
 11
289.4553942634
 21
94.1482676263
 31
0.0
  0
LINE
  5
1E6
330
1F
100
AcDbEntity
  8
0
  6
Continuous
 62
     7
370
    15
100
AcDbLine
 10
289.4537372543
 20
93.192989945
 30
0.0
 11
289.4553942634
 21
93.1933714147
 31
0.0
  0
LINE
  5
1E7
330
1F
100
AcDbEntity
  8
0
  6
Continuous
 62
     7
370
    15
100
AcDbLine
 10
289.0708787395
 20
93.1038154359
 30
0.0
 11
289.4537372543
 21
93.192989945
 31
0.0
  0
ARC
  5
1E8
330
1F
100
AcDbEntity
  8
0
  6
Continuous
 62
     7
370
    15
100
AcDbCircle
 10
286.0051246091
 20
104.7676404657
 30
0.0
 40
12.06000452903695
100
AcDbArc
 50
281.496312475
 51
284.7266772823
  0
LINE
  5
1E9
330
1F
100
AcDbEntity
  8
0
  6
Continuous
 62
     7
370
    15
100
AcDbLine
 10
288.0777968122
 20
92.8725076909
 30
0.0
 11
288.4087426616
 21
92.9495884175
 31
0.0
  0
LINE
  5
1EA
330
1F
100
AcDbEntity
  8
0
  6
Continuous
 62
     7
370
    15
100
AcDbLine
 10
288.1844146205
 20
92.41475594
 30
0.0
 11
288.0777968122
 21
92.8725076909
 31
0.0
  0
LINE
  5
1EB
330
1F
100
AcDbEntity
  8
0
  6
Continuous
 62
     7
370
    15
100
AcDbLine
 10
288.51536047
 20
92.4918426271
 30
0.0
 11
288.1844146205
 21
92.41475594
 31
0.0
  0
ARC
  5
1EC
330
1F
100
AcDbEntity
  8
0
  6
Continuous
 62
     7
370
    15
100
AcDbCircle
 10
291.5811134031
 20
80.828014784
 30
0.0
 40
12.060004529034
100
AcDbArc
 50
101.496312475
 51
104.7266772823
  0
LINE
  5
1ED
330
1F
100
AcDbEntity
  8
0
  6
Continuous
 62
     7
370
    15
100
AcDbLine
 10
289.4553942634
 20
92.7107943292
 30
0.0
 11
289.1774935676
 21
92.646063685
 31
0.0
  0
LINE
  5
1EE
330
1F
100
AcDbEntity
  8
0
  6
Continuous
 62
     7
370
    15
100
AcDbLine
 10
289.4553942634
 20
91.7558981176
 30
0.0
 11
289.4553942634
 21
92.7107943292
 31
0.0
  0
LINE
  5
1EF
330
1F
100
AcDbEntity
  8
0
  6
Continuous
 62
     7
370
    15
100
AcDbLine
 10
289.4537372543
 20
91.7555166478
 30
0.0
 11
289.4553942634
 21
91.7558981176
 31
0.0
  0
LINE
  5
1F0
330
1F
100
AcDbEntity
  8
0
  6
Continuous
 62
     7
370
    15
100
AcDbLine
 10
289.0708787395
 20
91.6663361783
 30
0.0
 11
289.4537372543
 21
91.7555166478
 31
0.0
  0
ARC
  5
1F1
330
1F
100
AcDbEntity
  8
0
  6
Continuous
 62
     7
370
    15
100
AcDbCircle
 10
286.0051246091
 20
103.3301661201
 30
0.0
 40
12.06000452903695
100
AcDbArc
 50
281.496312475
 51
284.7266772823
  0
LINE
  5
1F2
330
1F
100
AcDbEntity
  8
0
  6
Continuous
 62
     7
370
    15
100
AcDbLine
 10
288.0777968122
 20
91.4350343938
 30
0.0
 11
288.4087426616
 21
91.5121151204
 31
0.0
  0
LINE
  5
1F3
330
1F
100
AcDbEntity
  8
0
  6
Continuous
 62
     7
370
    15
100
AcDbLine
 10
288.1844146205
 20
90.9772826429
 30
0.0
 11
288.0777968122
 21
91.4350343938
 31
0.0
  0
LINE
  5
1F4
330
1F
100
AcDbEntity
  8
0
  6
Continuous
 62
     7
370
    15
100
AcDbLine
 10
288.51536047
 20
91.0543693299
 30
0.0
 11
288.1844146205
 21
90.9772826429
 31
0.0
  0
ARC
  5
1F5
330
1F
100
AcDbEntity
  8
0
  6
Continuous
 62
     7
370
    15
100
AcDbCircle
 10
291.5811134031
 20
79.3905404385
 30
0.0
 40
12.06000452903399
100
AcDbArc
 50
101.496312475
 51
104.7266772823
  0
LINE
  5
1F6
330
1F
100
AcDbEntity
  8
0
  6
Continuous
 62
     7
370
    15
100
AcDbLine
 10
289.4553942634
 20
91.2733210321
 30
0.0
 11
289.1774935676
 21
91.2085903878
 31
0.0
  0
LINE
  5
1F7
330
1F
100
AcDbEntity
  8
0
  6
Continuous
 62
     7
370
    15
100
AcDbLine
 10
289.4553942634
 20
90.3184248204
 30
0.0
 11
289.4553942634
 21
91.2733210321
 31
0.0
  0
LINE
  5
1F8
330
1F
100
AcDbEntity
  8
0
  6
Continuous
 62
     7
370
    15
100
AcDbLine
 10
289.4537372543
 20
90.3180373902
 30
0.0
 11
289.4553942634
 21
90.3184248204
 31
0.0
  0
LINE
  5
1F9
330
1F
100
AcDbEntity
  8
0
  6
Continuous
 62
     7
370
    15
100
AcDbLine
 10
289.0708787395
 20
90.2288628812
 30
0.0
 11
289.4537372543
 21
90.3180373902
 31
0.0
  0
ARC
  5
1FA
330
1F
100
AcDbEntity
  8
0
  6
Continuous
 62
     7
370
    15
100
AcDbCircle
 10
286.0051246091
 20
101.8926917745
 30
0.0
 40
12.06000452903693
100
AcDbArc
 50
281.496312475
 51
284.7266772823
  0
LINE
  5
1FB
330
1F
100
AcDbEntity
  8
0
  6
Continuous
 62
     7
370
    15
100
AcDbLine
 10
288.0777968122
 20
89.9975551362
 30
0.0
 11
288.4087426616
 21
90.0746418233
 31
0.0
  0
LINE
  5
1FC
330
1F
100
AcDbEntity
  8
0
  6
Continuous
 62
     7
370
    15
100
AcDbLine
 10
282.6135171605
 20
81.901104569
 30
0.0
 11
290.1798767997
 21
89.6070612664
 31
0.0
  0
ARC
  5
1FD
330
1F
100
AcDbEntity
  8
0
  6
Continuous
 62
     7
370
    15
100
AcDbCircle
 10
281.9117269679
 20
82.6134866955
 30
0.0
 40
1.000000000000022
100
AcDbArc
 50
151.315912962
 51
314.570849596
  0
LINE
  5
1FE
330
1F
100
AcDbEntity
  8
0
  6
Continuous
 62
     7
370
    15
100
AcDbLine
 10
285.0147200776
 20
90.3683794732
 30
0.0
 11
281.0344470693
 21
83.0934656854
 31
0.0
  0
ARC
  5
1FF
330
1F
100
AcDbEntity
  8
0
  6
Continuous
 62
     7
370
    15
100
AcDbCircle
 10
284.1374409027
 20
90.8483596496
 30
0.0
 40
1.000000000000026
100
AcDbArc
 50
331.3159129619
 51
355.3928735144
  0
LINE
  5
200
330
1F
100
AcDbEntity
  8
0
  6
Continuous
 62
     7
370
    15
100
AcDbLine
 10
286.7854101612
 20
111.2586511369
 30
0.0
 11
285.134209509
 21
90.7680345769
 31
0.0
  0
LINE
  5
201
330
1F
100
AcDbEntity
  8
0
  6
Continuous
 62
     7
370
    15
100
AcDbLine
 10
288.0777968122
 20
111.5596724744
 30
0.0
 11
286.7854101612
 21
111.2586511369
 31
0.0
  0
LINE
  5
202
330
1F
100
AcDbEntity
  8
0
  6
Continuous
 62
     7
370
    15
100
AcDbLine
 10
288.1844146205
 20
111.1019266839
 30
0.0
 11
288.0777968122
 21
111.5596724744
 31
0.0
  0
LINE
  5
203
330
1F
100
AcDbEntity
  8
0
  6
Continuous
 62
     7
370
    15
100
AcDbLine
 10
289.3061025096
 20
120.1255841251
 30
0.0
 11
281.7397428705
 21
112.4196274276
 31
0.0
  0
ARC
  5
204
330
1F
100
AcDbEntity
  8
0
  6
Continuous
 62
     7
370
    15
100
AcDbCircle
 10
290.0078934405
 20
119.4132007282
 30
0.0
 40
1.000000000000028
100
AcDbArc
 50
331.315912962
 51
134.570849596
  0
LINE
  5
205
330
1F
100
AcDbEntity
  8
0
  6
Continuous
 62
     7
370
    15
100
AcDbLine
 10
286.9048995925
 20
111.6583062406
 30
0.0
 11
290.8851726009
 21
118.9332215185
 31
0.0
  0
ARC
  5
206
330
1F
100
AcDbEntity
  8
0
  6
Continuous
 62
     7
370
    15
100
AcDbCircle
 10
287.7821795057
 20
111.1783277741
 30
0.0
 40
0.9999999999999832
100
AcDbArc
 50
151.3159129619
 51
175.3928735144
  0
LINE
  5
207
330
1F
100
AcDbEntity
  8
0
  6
Continuous
 62
     7
370
    15
100
AcDbLine
 10
283.841822858
 20
90.4670132394
 30
0.0
 11
285.134209509
 21
90.7680345769
 31
0.0
  0
LINE
  5
208
330
1F
100
AcDbEntity
  8
0
  6
Continuous
 62
     7
370
    15
100
AcDbLine
 10
283.7352050496
 20
90.9247649903
 30
0.0
 11
283.841822858
 21
90.4670132394
 31
0.0
  0
LINE
  5
209
330
1F
100
AcDbEntity
  8
0
  6
Continuous
 62
     7
370
    15
100
AcDbLine
 10
283.841822858
 20
97.6543856855
 30
0.0
 11
283.5108770086
 21
97.5773019786
 31
0.0
  0
LINE
  5
20A
330
1F
100
AcDbEntity
  8
0
  6
Continuous
 62
     7
370
    15
100
AcDbLine
 10
283.7352050496
 20
98.1121344562
 30
0.0
 11
283.841822858
 21
97.6543856855
 31
0.0
  0
LINE
  5
20B
330
1F
100
AcDbEntity
  8
0
  6
Continuous
 62
     7
370
    15
100
AcDbLine
 10
283.4042592002
 20
98.0350507493
 30
0.0
 11
283.7352050496
 21
98.1121344562
 31
0.0
  0
ARC
  5
20C
330
1F
100
AcDbEntity
  8
0
  6
Continuous
 62
     7
370
    15
100
AcDbCircle
 10
280.3385070052
 20
109.698877875
 30
0.0
 40
12.06000452903399
100
AcDbArc
 50
281.496312475
 51
284.7266772823
  0
LINE
  5
20D
330
1F
100
AcDbEntity
  8
0
  6
Continuous
 62
     7
370
    15
100
AcDbLine
 10
282.464228387
 20
97.8160990472
 30
0.0
 11
282.7421231223
 21
97.8808267112
 31
0.0
  0
LINE
  5
20E
330
1F
100
AcDbEntity
  8
0
  6
Continuous
 62
     7
370
    15
100
AcDbLine
 10
282.464228387
 20
98.7709922786
 30
0.0
 11
282.464228387
 21
97.8160990472
 31
0.0
  0
LINE
  5
20F
330
1F
100
AcDbEntity
  8
0
  6
Continuous
 62
     7
370
    15
100
AcDbLine
 10
282.4658824159
 20
98.7713767286
 30
0.0
 11
282.464228387
 21
98.7709922786
 31
0.0
  0
LINE
  5
210
330
1F
100
AcDbEntity
  8
0
  6
Continuous
 62
     7
370
    15
100
AcDbLine
 10
282.8487439109
 20
98.8605542178
 30
0.0
 11
282.4658824159
 21
98.7713767286
 31
0.0
  0
ARC
  5
211
330
1F
100
AcDbEntity
  8
0
  6
Continuous
 62
     7
370
    15
100
AcDbCircle
 10
285.9144957993
 20
87.196726539
 30
0.0
 40
12.06000452903693
100
AcDbArc
 50
101.496312475
 51
104.7266772823
  0
LINE
  5
212
330
1F
100
AcDbEntity
  8
0
  6
Continuous
 62
     7
370
    15
100
AcDbLine
 10
283.841822858
 20
99.0918619628
 30
0.0
 11
283.5108770086
 21
99.014778256
 31
0.0
  0
LINE
  5
213
330
1F
100
AcDbEntity
  8
0
  6
Continuous
 62
     7
370
    15
100
AcDbLine
 10
283.7352050496
 20
99.5496077533
 30
0.0
 11
283.841822858
 21
99.0918619628
 31
0.0
  0
LINE
  5
214
330
1F
100
AcDbEntity
  8
0
  6
Continuous
 62
     7
370
    15
100
AcDbLine
 10
283.4042592002
 20
99.4725240464
 30
0.0
 11
283.7352050496
 21
99.5496077533
 31
0.0
  0
ARC
  5
215
330
1F
100
AcDbEntity
  8
0
  6
Continuous
 62
     7
370
    15
100
AcDbCircle
 10
280.3385070052
 20
111.1363522206
 30
0.0
 40
12.060004529034
100
AcDbArc
 50
281.496312475
 51
284.7266772823
  0
LINE
  5
216
330
1F
100
AcDbEntity
  8
0
  6
Continuous
 62
     7
370
    15
100
AcDbLine
 10
282.464228387
 20
99.2535723443
 30
0.0
 11
282.7421231223
 21
99.3183000083
 31
0.0
  0
LINE
  5
217
330
1F
100
AcDbEntity
  8
0
  6
Continuous
 62
     7
370
    15
100
AcDbLine
 10
282.464228387
 20
100.2084685559
 30
0.0
 11
282.464228387
 21
99.2535723443
 31
0.0
  0
ARC
  5
218
330
1F
100
AcDbEntity
  8
0
  6
Continuous
 62
     7
370
    15
100
AcDbCircle
 10
280.3385070052
 20
121.1986726397
 30
0.0
 40
12.060004529034
100
AcDbArc
 50
281.496312475
 51
284.7266772823
  0
LINE
  5
219
330
1F
100
AcDbEntity
  8
0
  6
Continuous
 62
     7
370
    15
100
AcDbLine
 10
282.464228387
 20
109.3158943648
 30
0.0
 11
282.7421231223
 21
109.3806220288
 31
0.0
  0
LINE
  5
21A
330
1F
100
AcDbEntity
  8
0
  6
Continuous
 62
     7
370
    15
100
AcDbLine
 10
282.464228387
 20
110.2707875962
 30
0.0
 11
282.464228387
 21
109.3158943648
 31
0.0
  0
LINE
  5
21B
330
1F
100
AcDbEntity
  8
0
  6
Continuous
 62
     7
370
    15
100
AcDbLine
 10
282.4658824159
 20
110.2711720462
 30
0.0
 11
282.464228387
 21
110.2707875962
 31
0.0
  0
LINE
  5
21C
330
1F
100
AcDbEntity
  8
0
  6
Continuous
 62
     7
370
    15
100
AcDbLine
 10
282.8487439109
 20
110.3603495355
 30
0.0
 11
282.4658824159
 21
110.2711720462
 31
0.0
  0
ARC
  5
21D
330
1F
100
AcDbEntity
  8
0
  6
Continuous
 62
     7
370
    15
100
AcDbCircle
 10
285.9144957993
 20
98.6965213036
 30
0.0
 40
12.06000452903695
100
AcDbArc
 50
101.496312475
 51
104.7266772823
  0
LINE
  5
21E
330
1F
100
AcDbEntity
  8
0
  6
Continuous
 62
     7
370
    15
100
AcDbLine
 10
283.841822858
 20
110.5916543002
 30
0.0
 11
283.5108770086
 21
110.5145735736
 31
0.0
  0
LINE
  5
21F
330
1F
100
AcDbEntity
  8
0
  6
Continuous
 62
     7
370
    15
100
AcDbLine
 10
283.7352050496
 20
111.0494030709
 30
0.0
 11
283.841822858
 21
110.5916543002
 31
0.0
  0
LINE
  5
220
330
1F
100
AcDbEntity
  8
0
  6
Continuous
 62
     7
370
    15
100
AcDbLine
 10
283.4042592002
 20
110.9723193641
 30
0.0
 11
283.7352050496
 21
111.0494030709
 31
0.0
  0
ARC
  5
221
330
1F
100
AcDbEntity
  8
0
  6
Continuous
 62
     7
370
    15
100
AcDbCircle
 10
280.3385070052
 20
122.6361469853
 30
0.0
 40
12.06000452903399
100
AcDbArc
 50
281.496312475
 51
284.7266772823
  0
LINE
  5
222
330
1F
100
AcDbEntity
  8
0
  6
Continuous
 62
     7
370
    15
100
AcDbLine
 10
282.464228387
 20
110.753367662
 30
0.0
 11
282.7421231223
 21
110.818095326
 31
0.0
  0
LINE
  5
223
330
1F
100
AcDbEntity
  8
0
  6
Continuous
 62
     7
370
    15
100
AcDbLine
 10
282.464228387
 20
111.7082608934
 30
0.0
 11
282.464228387
 21
110.753367662
 31
0.0
  0
LINE
  5
224
330
1F
100
AcDbEntity
  8
0
  6
Continuous
 62
     7
370
    15
100
AcDbLine
 10
282.4658824159
 20
111.7086483236
 30
0.0
 11
282.464228387
 21
111.7082608934
 31
0.0
  0
LINE
  5
225
330
1F
100
AcDbEntity
  8
0
  6
Continuous
 62
     7
370
    15
100
AcDbLine
 10
282.8487439109
 20
111.7978228326
 30
0.0
 11
282.4658824159
 21
111.7086483236
 31
0.0
  0
ARC
  5
226
330
1F
100
AcDbEntity
  8
0
  6
Continuous
 62
     7
370
    15
100
AcDbCircle
 10
285.9144957993
 20
100.1339956492
 30
0.0
 40
12.06000452903693
100
AcDbArc
 50
101.496312475
 51
104.7266772823
  0
LINE
  5
227
330
1F
100
AcDbEntity
  8
0
  6
Continuous
 62
     7
370
    15
100
AcDbLine
 10
283.841822858
 20
112.0291305776
 30
0.0
 11
283.5108770086
 21
111.9520468707
 31
0.0
  0
LINE
  5
228
330
1F
100
AcDbEntity
  8
0
  6
Continuous
 62
     7
370
    15
100
AcDbLine
 10
283.7352050496
 20
112.4868763681
 30
0.0
 11
283.841822858
 21
112.0291305776
 31
0.0
  0
LINE
  5
229
330
1F
100
AcDbEntity
  8
0
  6
Continuous
 62
     7
370
    15
100
AcDbLine
 10
283.4042592002
 20
112.4097926612
 30
0.0
 11
283.7352050496
 21
112.4868763681
 31
0.0
  0
ARC
  5
22A
330
1F
100
AcDbEntity
  8
0
  6
Continuous
 62
     7
370
    15
100
AcDbCircle
 10
280.3385070052
 20
124.0736213308
 30
0.0
 40
12.06000452903402
100
AcDbArc
 50
281.496312475
 51
284.7266772823
  0
LINE
  5
22B
330
1F
100
AcDbEntity
  8
0
  6
Continuous
 62
     7
370
    15
100
AcDbLine
 10
282.464228387
 20
112.1908439393
 30
0.0
 11
282.7421231223
 21
112.2555716033
 31
0.0
  0
LINE
  5
22C
330
1F
100
AcDbEntity
  8
0
  6
Continuous
 62
     7
370
    15
100
AcDbLine
 10
281.4810587121
 20
111.9618220325
 30
0.0
 11
282.464228387
 21
112.1908439393
 31
0.0
  0
ARC
  5
22D
330
1F
100
AcDbEntity
  8
0
  6
Continuous
 62
     7
370
    15
100
AcDbCircle
 10
282.4642287811
 20
111.7082664183
 30
0.0
 40
1.015338418422578
100
AcDbArc
 50
135.5237033379
 51
165.5388271791
  0
LINE
  5
22E
330
1F
100
AcDbEntity
  8
0
  6
Continuous
 62
     7
370
    15
100
AcDbLine
 10
283.4042592002
 20
90.8476783033
 30
0.0
 11
283.7352050496
 21
90.9247649903
 31
0.0
  0
ARC
  5
22F
330
1F
100
AcDbEntity
  8
0
  6
Continuous
 62
     7
370
    15
100
AcDbCircle
 10
280.3385070052
 20
102.5115061471
 30
0.0
 40
12.06000452903402
100
AcDbArc
 50
281.496312475
 51
284.7266772823
  0
LINE
  5
230
330
1F
100
AcDbEntity
  8
0
  6
Continuous
 62
     7
370
    15
100
AcDbLine
 10
282.464228387
 20
90.6287266011
 30
0.0
 11
282.7421231223
 21
90.6934572454
 31
0.0
  0
LINE
  5
231
330
1F
100
AcDbEntity
  8
0
  6
Continuous
 62
     7
370
    15
100
AcDbLine
 10
282.464228387
 20
91.5836228128
 30
0.0
 11
282.464228387
 21
90.6287266011
 31
0.0
  0
LINE
  5
232
330
1F
100
AcDbEntity
  8
0
  6
Continuous
 62
     7
370
    15
100
AcDbLine
 10
282.8487439109
 20
91.673184752
 30
0.0
 11
282.4658824159
 21
91.5840042825
 31
0.0
  0
LINE
  5
233
330
1F
100
AcDbEntity
  8
0
  6
Continuous
 62
     7
370
    15
100
AcDbLine
 10
282.4658824159
 20
91.5840042825
 30
0.0
 11
282.464228387
 21
91.5836228128
 31
0.0
  0
ARC
  5
234
330
1F
100
AcDbEntity
  8
0
  6
Continuous
 62
     7
370
    15
100
AcDbCircle
 10
285.9144957993
 20
80.0093548111
 30
0.0
 40
12.06000452903694
100
AcDbArc
 50
101.496312475
 51
104.7266772823
  0
LINE
  5
235
330
1F
100
AcDbEntity
  8
0
  6
Continuous
 62
     7
370
    15
100
AcDbLine
 10
283.841822858
 20
91.9044865365
 30
0.0
 11
283.5108770086
 21
91.8274058099
 31
0.0
  0
LINE
  5
236
330
1F
100
AcDbEntity
  8
0
  6
Continuous
 62
     7
370
    15
100
AcDbLine
 10
283.7352050496
 20
92.3622382875
 30
0.0
 11
283.841822858
 21
91.9044865365
 31
0.0
  0
LINE
  5
237
330
1F
100
AcDbEntity
  8
0
  6
Continuous
 62
     7
370
    15
100
AcDbLine
 10
283.4042592002
 20
92.2851516004
 30
0.0
 11
283.7352050496
 21
92.3622382875
 31
0.0
  0
ARC
  5
238
330
1F
100
AcDbEntity
  8
0
  6
Continuous
 62
     7
370
    15
100
AcDbCircle
 10
280.3385070052
 20
103.9489804927
 30
0.0
 40
12.06000452903402
100
AcDbArc
 50
281.496312475
 51
284.7266772823
  0
LINE
  5
239
330
1F
100
AcDbEntity
  8
0
  6
Continuous
 62
     7
370
    15
100
AcDbLine
 10
282.464228387
 20
92.0661998983
 30
0.0
 11
282.7421231223
 21
92.1309305425
 31
0.0
  0
LINE
  5
23A
330
1F
100
AcDbEntity
  8
0
  6
Continuous
 62
     7
370
    15
100
AcDbLine
 10
282.464228387
 20
93.0210961099
 30
0.0
 11
282.464228387
 21
92.0661998983
 31
0.0
  0
LINE
  5
23B
330
1F
100
AcDbEntity
  8
0
  6
Continuous
 62
     7
370
    15
100
AcDbLine
 10
282.8487439109
 20
93.1106580491
 30
0.0
 11
282.4658824159
 21
93.0214835401
 31
0.0
  0
LINE
  5
23C
330
1F
100
AcDbEntity
  8
0
  6
Continuous
 62
     7
370
    15
100
AcDbLine
 10
282.4658824159
 20
93.0214835401
 30
0.0
 11
282.464228387
 21
93.0210961099
 31
0.0
  0
ARC
  5
23D
330
1F
100
AcDbEntity
  8
0
  6
Continuous
 62
     7
370
    15
100
AcDbCircle
 10
285.9144957993
 20
81.4468291566
 30
0.0
 40
12.06000452903694
100
AcDbArc
 50
101.496312475
 51
104.7266772823
  0
LINE
  5
23E
330
1F
100
AcDbEntity
  8
0
  6
Continuous
 62
     7
370
    15
100
AcDbLine
 10
283.841822858
 20
93.3419657941
 30
0.0
 11
283.5108770086
 21
93.264879107
 31
0.0
  0
LINE
  5
23F
330
1F
100
AcDbEntity
  8
0
  6
Continuous
 62
     7
370
    15
100
AcDbLine
 10
283.7352050496
 20
93.7997115846
 30
0.0
 11
283.841822858
 21
93.3419657941
 31
0.0
  0
LINE
  5
240
330
1F
100
AcDbEntity
  8
0
  6
Continuous
 62
     7
370
    15
100
AcDbLine
 10
283.4042592002
 20
93.7226248975
 30
0.0
 11
283.7352050496
 21
93.7997115846
 31
0.0
  0
ARC
  5
241
330
1F
100
AcDbEntity
  8
0
  6
Continuous
 62
     7
370
    15
100
AcDbCircle
 10
280.3385070052
 20
105.3864548383
 30
0.0
 40
12.060004529034
100
AcDbArc
 50
281.496312475
 51
284.7266772823
  0
LINE
  5
242
330
1F
100
AcDbEntity
  8
0
  6
Continuous
 62
     7
370
    15
100
AcDbLine
 10
282.464228387
 20
93.5036731954
 30
0.0
 11
282.7421231223
 21
93.5684038396
 31
0.0
  0
LINE
  5
243
330
1F
100
AcDbEntity
  8
0
  6
Continuous
 62
     7
370
    15
100
AcDbLine
 10
282.464228387
 20
94.458569407
 30
0.0
 11
282.464228387
 21
93.5036731954
 31
0.0
  0
LINE
  5
244
330
1F
100
AcDbEntity
  8
0
  6
Continuous
 62
     7
370
    15
100
AcDbLine
 10
282.8487439109
 20
94.5481313462
 30
0.0
 11
282.4658824159
 21
94.458953857
 31
0.0
  0
LINE
  5
245
330
1F
100
AcDbEntity
  8
0
  6
Continuous
 62
     7
370
    15
100
AcDbLine
 10
282.4658824159
 20
94.458953857
 30
0.0
 11
282.464228387
 21
94.458569407
 31
0.0
  0
ARC
  5
246
330
1F
100
AcDbEntity
  8
0
  6
Continuous
 62
     7
370
    15
100
AcDbCircle
 10
285.9144957993
 20
82.8843035022
 30
0.0
 40
12.06000452903693
100
AcDbArc
 50
101.496312475
 51
104.7266772823
  0
LINE
  5
247
330
1F
100
AcDbEntity
  8
0
  6
Continuous
 62
     7
370
    15
100
AcDbLine
 10
283.841822858
 20
94.7794390912
 30
0.0
 11
283.5108770086
 21
94.7023553844
 31
0.0
  0
LINE
  5
248
330
1F
100
AcDbEntity
  8
0
  6
Continuous
 62
     7
370
    15
100
AcDbLine
 10
283.7352050496
 20
95.2371848817
 30
0.0
 11
283.841822858
 21
94.7794390912
 31
0.0
  0
LINE
  5
249
330
1F
100
AcDbEntity
  8
0
  6
Continuous
 62
     7
370
    15
100
AcDbLine
 10
283.4042592002
 20
95.1601011748
 30
0.0
 11
283.7352050496
 21
95.2371848817
 31
0.0
  0
ARC
  5
24A
330
1F
100
AcDbEntity
  8
0
  6
Continuous
 62
     7
370
    15
100
AcDbCircle
 10
280.3385070052
 20
106.8239291839
 30
0.0
 40
12.060004529034
100
AcDbArc
 50
281.496312475
 51
284.7266772823
  0
LINE
  5
24B
330
1F
100
AcDbEntity
  8
0
  6
Continuous
 62
     7
370
    15
100
AcDbLine
 10
282.464228387
 20
94.9411494727
 30
0.0
 11
282.7421231223
 21
95.0058771367
 31
0.0
  0
LINE
  5
24C
330
1F
100
AcDbEntity
  8
0
  6
Continuous
 62
     7
370
    15
100
AcDbLine
 10
282.464228387
 20
95.8960456844
 30
0.0
 11
282.464228387
 21
94.9411494727
 31
0.0
  0
LINE
  5
24D
330
1F
100
AcDbEntity
  8
0
  6
Continuous
 62
     7
370
    15
100
AcDbLine
 10
282.8487439109
 20
95.9856046434
 30
0.0
 11
282.4658824159
 21
95.8964301343
 31
0.0
  0
LINE
  5
24E
330
1F
100
AcDbEntity
  8
0
  6
Continuous
 62
     7
370
    15
100
AcDbLine
 10
282.4658824159
 20
95.8964301343
 30
0.0
 11
282.464228387
 21
95.8960456844
 31
0.0
  0
ARC
  5
24F
330
1F
100
AcDbEntity
  8
0
  6
Continuous
 62
     7
370
    15
100
AcDbCircle
 10
285.9144957993
 20
84.3217778478
 30
0.0
 40
12.06000452903696
100
AcDbArc
 50
101.496312475
 51
104.7266772823
  0
LINE
  5
250
330
1F
100
AcDbEntity
  8
0
  6
Continuous
 62
     7
370
    15
100
AcDbLine
 10
283.841822858
 20
96.2169123883
 30
0.0
 11
283.5108770086
 21
96.1398286815
 31
0.0
  0
LINE
  5
251
330
1F
100
AcDbEntity
  8
0
  6
Continuous
 62
     7
370
    15
100
AcDbLine
 10
283.7352050496
 20
96.6746581788
 30
0.0
 11
283.841822858
 21
96.2169123883
 31
0.0
  0
LINE
  5
252
330
1F
100
AcDbEntity
  8
0
  6
Continuous
 62
     7
370
    15
100
AcDbLine
 10
283.4042592002
 20
96.5975774522
 30
0.0
 11
283.7352050496
 21
96.6746581788
 31
0.0
  0
ARC
  5
253
330
1F
100
AcDbEntity
  8
0
  6
Continuous
 62
     7
370
    15
100
AcDbCircle
 10
280.3385070052
 20
108.2614035295
 30
0.0
 40
12.06000452903399
100
AcDbArc
 50
281.496312475
 51
284.7266772823
  0
LINE
  5
254
330
1F
100
AcDbEntity
  8
0
  6
Continuous
 62
     7
370
    15
100
AcDbLine
 10
282.464228387
 20
96.3786257501
 30
0.0
 11
282.7421231223
 21
96.4433534141
 31
0.0
  0
LINE
  5
255
330
1F
100
AcDbEntity
  8
0
  6
Continuous
 62
     7
370
    15
100
AcDbLine
 10
282.464228387
 20
97.3335189815
 30
0.0
 11
282.464228387
 21
96.3786257501
 31
0.0
  0
LINE
  5
256
330
1F
100
AcDbEntity
  8
0
  6
Continuous
 62
     7
370
    15
100
AcDbLine
 10
282.8487439109
 20
97.4230809207
 30
0.0
 11
282.4658824159
 21
97.3339034314
 31
0.0
  0
LINE
  5
257
330
1F
100
AcDbEntity
  8
0
  6
Continuous
 62
     7
370
    15
100
AcDbLine
 10
282.4658824159
 20
97.3339034314
 30
0.0
 11
282.464228387
 21
97.3335189815
 31
0.0
  0
ARC
  5
258
330
1F
100
AcDbEntity
  8
0
  6
Continuous
 62
     7
370
    15
100
AcDbCircle
 10
285.9144957993
 20
85.7592521934
 30
0.0
 40
12.06000452903693
100
AcDbArc
 50
101.496312475
 51
104.7266772823
  0
LINE
  5
259
330
1F
100
AcDbEntity
  8
0
  6
Continuous
 62
     7
370
    15
100
AcDbLine
 10
283.7352050496
 20
103.8620306249
 30
0.0
 11
283.841822858
 21
103.4042848344
 31
0.0
  0
LINE
  5
25A
330
1F
100
AcDbEntity
  8
0
  6
Continuous
 62
     7
370
    15
100
AcDbLine
 10
283.4042592002
 20
103.784946918
 30
0.0
 11
283.7352050496
 21
103.8620306249
 31
0.0
  0
ARC
  5
25B
330
1F
100
AcDbEntity
  8
0
  6
Continuous
 62
     7
370
    15
100
AcDbCircle
 10
280.3385070052
 20
115.4487752574
 30
0.0
 40
12.06000452903399
100
AcDbArc
 50
281.496312475
 51
284.7266772823
  0
LINE
  5
25C
330
1F
100
AcDbEntity
  8
0
  6
Continuous
 62
     7
370
    15
100
AcDbLine
 10
282.464228387
 20
103.5659952159
 30
0.0
 11
282.7421231223
 21
103.6307228799
 31
0.0
  0
LINE
  5
25D
330
1F
100
AcDbEntity
  8
0
  6
Continuous
 62
     7
370
    15
100
AcDbLine
 10
282.464228387
 20
104.5208914275
 30
0.0
 11
282.464228387
 21
103.5659952159
 31
0.0
  0
LINE
  5
25E
330
1F
100
AcDbEntity
  8
0
  6
Continuous
 62
     7
370
    15
100
AcDbLine
 10
282.8487439109
 20
104.6104503865
 30
0.0
 11
282.4658824159
 21
104.5212758775
 31
0.0
  0
LINE
  5
25F
330
1F
100
AcDbEntity
  8
0
  6
Continuous
 62
     7
370
    15
100
AcDbLine
 10
282.4658824159
 20
104.5212758775
 30
0.0
 11
282.464228387
 21
104.5208914275
 31
0.0
  0
ARC
  5
260
330
1F
100
AcDbEntity
  8
0
  6
Continuous
 62
     7
370
    15
100
AcDbCircle
 10
285.9144957993
 20
92.9466239213
 30
0.0
 40
12.06000452903694
100
AcDbArc
 50
101.496312475
 51
104.7266772823
  0
LINE
  5
261
330
1F
100
AcDbEntity
  8
0
  6
Continuous
 62
     7
370
    15
100
AcDbLine
 10
283.841822858
 20
104.8417581315
 30
0.0
 11
283.5108770086
 21
104.7646744247
 31
0.0
  0
LINE
  5
262
330
1F
100
AcDbEntity
  8
0
  6
Continuous
 62
     7
370
    15
100
AcDbLine
 10
283.7352050496
 20
105.2995069022
 30
0.0
 11
283.841822858
 21
104.8417581315
 31
0.0
  0
LINE
  5
263
330
1F
100
AcDbEntity
  8
0
  6
Continuous
 62
     7
370
    15
100
AcDbLine
 10
283.4042592002
 20
105.2224231954
 30
0.0
 11
283.7352050496
 21
105.2995069022
 31
0.0
  0
ARC
  5
264
330
1F
100
AcDbEntity
  8
0
  6
Continuous
 62
     7
370
    15
100
AcDbCircle
 10
280.3385070052
 20
116.8862496029
 30
0.0
 40
12.060004529034
100
AcDbArc
 50
281.496312475
 51
284.7266772823
  0
LINE
  5
265
330
1F
100
AcDbEntity
  8
0
  6
Continuous
 62
     7
370
    15
100
AcDbLine
 10
282.464228387
 20
105.0034714933
 30
0.0
 11
282.7421231223
 21
105.0681991573
 31
0.0
  0
LINE
  5
266
330
1F
100
AcDbEntity
  8
0
  6
Continuous
 62
     7
370
    15
100
AcDbLine
 10
282.464228387
 20
105.9583647247
 30
0.0
 11
282.464228387
 21
105.0034714933
 31
0.0
  0
LINE
  5
267
330
1F
100
AcDbEntity
  8
0
  6
Continuous
 62
     7
370
    15
100
AcDbLine
 10
282.8487439109
 20
106.0479266639
 30
0.0
 11
282.4658824159
 21
105.9587491746
 31
0.0
  0
LINE
  5
268
330
1F
100
AcDbEntity
  8
0
  6
Continuous
 62
     7
370
    15
100
AcDbLine
 10
282.4658824159
 20
105.9587491746
 30
0.0
 11
282.464228387
 21
105.9583647247
 31
0.0
  0
LINE
  5
269
330
1F
100
AcDbEntity
  8
0
  6
Continuous
 62
     7
370
    15
100
AcDbLine
 10
282.8487439109
 20
100.298027515
 30
0.0
 11
282.4658824159
 21
100.2088530059
 31
0.0
  0
LINE
  5
26A
330
1F
100
AcDbEntity
  8
0
  6
Continuous
 62
     7
370
    15
100
AcDbLine
 10
282.4658824159
 20
100.2088530059
 30
0.0
 11
282.464228387
 21
100.2084685559
 31
0.0
  0
ARC
  5
26B
330
1F
100
AcDbEntity
  8
0
  6
Continuous
 62
     7
370
    15
100
AcDbCircle
 10
285.9144957993
 20
88.6342008845
 30
0.0
 40
12.06000452903693
100
AcDbArc
 50
101.496312475
 51
104.7266772823
  0
LINE
  5
26C
330
1F
100
AcDbEntity
  8
0
  6
Continuous
 62
     7
370
    15
100
AcDbLine
 10
283.841822858
 20
100.5293352599
 30
0.0
 11
283.5108770086
 21
100.4522515531
 31
0.0
  0
LINE
  5
26D
330
1F
100
AcDbEntity
  8
0
  6
Continuous
 62
     7
370
    15
100
AcDbLine
 10
283.7352050496
 20
100.9870840306
 30
0.0
 11
283.841822858
 21
100.5293352599
 31
0.0
  0
LINE
  5
26E
330
1F
100
AcDbEntity
  8
0
  6
Continuous
 62
     7
370
    15
100
AcDbLine
 10
283.4042592002
 20
100.9100003238
 30
0.0
 11
283.7352050496
 21
100.9870840306
 31
0.0
  0
ARC
  5
26F
330
1F
100
AcDbEntity
  8
0
  6
Continuous
 62
     7
370
    15
100
AcDbCircle
 10
280.3385070052
 20
112.5738265662
 30
0.0
 40
12.06000452903399
100
AcDbArc
 50
281.496312475
 51
284.7266772823
  0
LINE
  5
270
330
1F
100
AcDbEntity
  8
0
  6
Continuous
 62
     7
370
    15
100
AcDbLine
 10
282.464228387
 20
100.6910486217
 30
0.0
 11
282.7421231223
 21
100.7557762857
 31
0.0
  0
LINE
  5
271
330
1F
100
AcDbEntity
  8
0
  6
Continuous
 62
     7
370
    15
100
AcDbLine
 10
282.464228387
 20
101.6459418531
 30
0.0
 11
282.464228387
 21
100.6910486217
 31
0.0
  0
LINE
  5
272
330
1F
100
AcDbEntity
  8
0
  6
Continuous
 62
     7
370
    15
100
AcDbLine
 10
282.8487439109
 20
101.7355037923
 30
0.0
 11
282.4658824159
 21
101.646326303
 31
0.0
  0
LINE
  5
273
330
1F
100
AcDbEntity
  8
0
  6
Continuous
 62
     7
370
    15
100
AcDbLine
 10
282.4658824159
 20
101.646326303
 30
0.0
 11
282.464228387
 21
101.6459418531
 31
0.0
  0
ARC
  5
274
330
1F
100
AcDbEntity
  8
0
  6
Continuous
 62
     7
370
    15
100
AcDbCircle
 10
285.9144957993
 20
90.0716752301
 30
0.0
 40
12.06000452903693
100
AcDbArc
 50
101.496312475
 51
104.7266772823
  0
LINE
  5
275
330
1F
100
AcDbEntity
  8
0
  6
Continuous
 62
     7
370
    15
100
AcDbLine
 10
283.841822858
 20
101.966808557
 30
0.0
 11
283.5108770086
 21
101.8897248502
 31
0.0
  0
LINE
  5
276
330
1F
100
AcDbEntity
  8
0
  6
Continuous
 62
     7
370
    15
100
AcDbLine
 10
283.7352050496
 20
102.4245573278
 30
0.0
 11
283.841822858
 21
101.966808557
 31
0.0
  0
LINE
  5
277
330
1F
100
AcDbEntity
  8
0
  6
Continuous
 62
     7
370
    15
100
AcDbLine
 10
283.4042592002
 20
102.3474736209
 30
0.0
 11
283.7352050496
 21
102.4245573278
 31
0.0
  0
ARC
  5
278
330
1F
100
AcDbEntity
  8
0
  6
Continuous
 62
     7
370
    15
100
AcDbCircle
 10
280.3385070052
 20
114.0113009118
 30
0.0
 40
12.06000452903401
100
AcDbArc
 50
281.496312475
 51
284.7266772823
  0
LINE
  5
279
330
1F
100
AcDbEntity
  8
0
  6
Continuous
 62
     7
370
    15
100
AcDbLine
 10
282.464228387
 20
102.1285219188
 30
0.0
 11
282.7421231223
 21
102.1932495828
 31
0.0
  0
LINE
  5
27A
330
1F
100
AcDbEntity
  8
0
  6
Continuous
 62
     7
370
    15
100
AcDbLine
 10
282.464228387
 20
103.0834151502
 30
0.0
 11
282.464228387
 21
102.1285219188
 31
0.0
  0
LINE
  5
27B
330
1F
100
AcDbEntity
  8
0
  6
Continuous
 62
     7
370
    15
100
AcDbLine
 10
282.8487439109
 20
103.1729770894
 30
0.0
 11
282.4658824159
 21
103.0838025804
 31
0.0
  0
LINE
  5
27C
330
1F
100
AcDbEntity
  8
0
  6
Continuous
 62
     7
370
    15
100
AcDbLine
 10
282.4658824159
 20
103.0838025804
 30
0.0
 11
282.464228387
 21
103.0834151502
 31
0.0
  0
ARC
  5
27D
330
1F
100
AcDbEntity
  8
0
  6
Continuous
 62
     7
370
    15
100
AcDbCircle
 10
285.9144957993
 20
91.5091495757
 30
0.0
 40
12.06000452903693
100
AcDbArc
 50
101.496312475
 51
104.7266772823
  0
LINE
  5
27E
330
1F
100
AcDbEntity
  8
0
  6
Continuous
 62
     7
370
    15
100
AcDbLine
 10
283.841822858
 20
103.4042848344
 30
0.0
 11
283.5108770086
 21
103.3272011275
 31
0.0
  0
LINE
  5
27F
330
1F
100
AcDbEntity
  8
0
  6
Continuous
 62
     7
370
    15
100
AcDbLine
 10
283.4042592002
 20
109.534846067
 30
0.0
 11
283.7352050496
 21
109.6119297738
 31
0.0
  0
LINE
  5
280
330
1F
100
AcDbEntity
  8
0
  6
Continuous
 62
     7
370
    15
100
AcDbLine
 10
283.4042592002
 20
106.6598964925
 30
0.0
 11
283.7352050496
 21
106.7369801994
 31
0.0
  0
ARC
  5
281
330
1F
100
AcDbEntity
  8
0
  6
Continuous
 62
     7
370
    15
100
AcDbCircle
 10
280.3385070052
 20
118.3237239485
 30
0.0
 40
12.06000452903399
100
AcDbArc
 50
281.496312475
 51
284.7266772823
  0
LINE
  5
282
330
1F
100
AcDbEntity
  8
0
  6
Continuous
 62
     7
370
    15
100
AcDbLine
 10
282.464228387
 20
106.4409447904
 30
0.0
 11
282.7421231223
 21
106.5056724544
 31
0.0
  0
LINE
  5
283
330
1F
100
AcDbEntity
  8
0
  6
Continuous
 62
     7
370
    15
100
AcDbLine
 10
282.464228387
 20
107.3958380218
 30
0.0
 11
282.464228387
 21
106.4409447904
 31
0.0
  0
LINE
  5
284
330
1F
100
AcDbEntity
  8
0
  6
Continuous
 62
     7
370
    15
100
AcDbLine
 10
282.8487439109
 20
107.485399961
 30
0.0
 11
282.4658824159
 21
107.396225452
 31
0.0
  0
LINE
  5
285
330
1F
100
AcDbEntity
  8
0
  6
Continuous
 62
     7
370
    15
100
AcDbLine
 10
282.4658824159
 20
107.396225452
 30
0.0
 11
282.464228387
 21
107.3958380218
 31
0.0
  0
ARC
  5
286
330
1F
100
AcDbEntity
  8
0
  6
Continuous
 62
     7
370
    15
100
AcDbCircle
 10
285.9144957993
 20
95.8215726124
 30
0.0
 40
12.06000452903693
100
AcDbArc
 50
101.496312475
 51
104.7266772823
  0
LINE
  5
287
330
1F
100
AcDbEntity
  8
0
  6
Continuous
 62
     7
370
    15
100
AcDbLine
 10
283.841822858
 20
107.716707706
 30
0.0
 11
283.5108770086
 21
107.6396239991
 31
0.0
  0
LINE
  5
288
330
1F
100
AcDbEntity
  8
0
  6
Continuous
 62
     7
370
    15
100
AcDbLine
 10
283.7352050496
 20
108.1744534965
 30
0.0
 11
283.841822858
 21
107.716707706
 31
0.0
  0
LINE
  5
289
330
1F
100
AcDbEntity
  8
0
  6
Continuous
 62
     7
370
    15
100
AcDbLine
 10
283.4042592002
 20
108.0973697896
 30
0.0
 11
283.7352050496
 21
108.1744534965
 31
0.0
  0
ARC
  5
28A
330
1F
100
AcDbEntity
  8
0
  6
Continuous
 62
     7
370
    15
100
AcDbCircle
 10
280.3385070052
 20
119.7611982941
 30
0.0
 40
12.06000452903399
100
AcDbArc
 50
281.496312475
 51
284.7266772823
  0
LINE
  5
28B
330
1F
100
AcDbEntity
  8
0
  6
Continuous
 62
     7
370
    15
100
AcDbLine
 10
282.464228387
 20
107.8784210677
 30
0.0
 11
282.7421231223
 21
107.9431457515
 31
0.0
  0
LINE
  5
28C
330
1F
100
AcDbEntity
  8
0
  6
Continuous
 62
     7
370
    15
100
AcDbLine
 10
282.464228387
 20
108.8333142991
 30
0.0
 11
282.464228387
 21
107.8784210677
 31
0.0
  0
LINE
  5
28D
330
1F
100
AcDbEntity
  8
0
  6
Continuous
 62
     7
370
    15
100
AcDbLine
 10
282.8487439109
 20
108.9228732581
 30
0.0
 11
282.4658824159
 21
108.8336987491
 31
0.0
  0
LINE
  5
28E
330
1F
100
AcDbEntity
  8
0
  6
Continuous
 62
     7
370
    15
100
AcDbLine
 10
282.4658824159
 20
108.8336987491
 30
0.0
 11
282.464228387
 21
108.8333142991
 31
0.0
  0
ARC
  5
28F
330
1F
100
AcDbEntity
  8
0
  6
Continuous
 62
     7
370
    15
100
AcDbCircle
 10
285.9144957993
 20
94.3840982669
 30
0.0
 40
12.06000452903694
100
AcDbArc
 50
101.496312475
 51
104.7266772823
  0
LINE
  5
290
330
1F
100
AcDbEntity
  8
0
  6
Continuous
 62
     7
370
    15
100
AcDbLine
 10
283.841822858
 20
106.2792314286
 30
0.0
 11
283.5108770086
 21
106.202150702
 31
0.0
  0
LINE
  5
291
330
1F
100
AcDbEntity
  8
0
  6
Continuous
 62
     7
370
    15
100
AcDbLine
 10
283.7352050496
 20
106.7369801994
 30
0.0
 11
283.841822858
 21
106.2792314286
 31
0.0
  0
LINE
  5
292
330
1F
100
AcDbEntity
  8
0
  6
Continuous
 62
     7
370
    15
100
AcDbLine
 10
283.841822858
 20
109.1541810031
 30
0.0
 11
283.5108770086
 21
109.0770972963
 31
0.0
  0
ARC
  5
293
330
1F
100
AcDbEntity
  8
0
  6
Continuous
 62
     7
370
    15
100
AcDbCircle
 10
285.9144957993
 20
97.259046958
 30
0.0
 40
12.06000452903691
100
AcDbArc
 50
101.496312475
 51
104.7266772823
  0
LINE
  5
294
330
1F
100
AcDbEntity
  8
0
  6
Continuous
 62
     7
370
    15
100
AcDbLine
 10
283.7352050496
 20
109.6119297738
 30
0.0
 11
283.841822858
 21
109.1541810031
 31
0.0
  0
LINE
  5
295
330
1F
100
AcDbEntity
  8
0
  6
Continuous
 62
     7
370
    15
100
AcDbLine
 10
236.8405502318
 20
112.1157957311
 30
0.0
 11
237.1315348922
 21
111.9477940793
 31
0.0
  0
LINE
  5
296
330
1F
100
AcDbEntity
  8
0
  6
Continuous
 62
     7
370
    15
100
AcDbLine
 10
236.5915220259
 20
106.605748653
 30
0.0
 11
236.5915220259
 21
106.1257494683
 31
0.0
  0
LINE
  5
297
330
1F
100
AcDbEntity
  8
0
  6
Continuous
 62
     7
370
    15
100
AcDbLine
 10
236.2515220447
 20
106.605748653
 30
0.0
 11
236.5915220259
 21
106.605748653
 31
0.0
  0
ARC
  5
298
330
1F
100
AcDbEntity
  8
0
  6
Continuous
 62
     7
370
    15
100
AcDbCircle
 10
235.9115220335
 20
118.5550227327
 30
0.0
 40
11.95411068467232
100
AcDbArc
 50
268.3701679713
 51
271.6298320287
  0
LINE
  5
299
330
1F
100
AcDbEntity
  8
0
  6
Continuous
 62
     7
370
    15
100
AcDbLine
 10
235.2355221315
 20
106.605748653
 30
0.0
 11
235.5715220822
 21
106.605748653
 31
0.0
  0
ARC
  5
29A
330
1F
100
AcDbEntity
  8
0
  6
Continuous
 62
     7
370
    15
100
AcDbCircle
 10
246.3199240923
 20
106.3657481831
 30
0.0
 40
11.08700000000002
100
AcDbArc
 50
151.2403771303
 51
178.7596228699
  0
LINE
  5
29B
330
1F
100
AcDbEntity
  8
0
  6
Continuous
 62
     7
370
    15
100
AcDbLine
 10
236.8915349273
 20
111.532102346
 30
0.0
 11
236.6005502669
 21
111.7001039977
 31
0.0
  0
ARC
  5
29C
330
1F
100
AcDbEntity
  8
0
  6
Continuous
 62
     7
370
    15
100
AcDbCircle
 10
231.1654384051
 20
100.9342131279
 30
0.0
 40
12.04588945631947
100
AcDbArc
 50
58.3825891281
 51
61.6174108719
  0
LINE
  5
29D
330
1F
100
AcDbEntity
  8
0
  6
Continuous
 62
     7
370
    15
100
AcDbLine
 10
237.774880792
 20
111.0221041436
 30
0.0
 11
237.4804321705
 21
111.192102551
 31
0.0
  0
LINE
  5
29E
330
1F
100
AcDbEntity
  8
0
  6
Continuous
 62
     7
370
    15
100
AcDbLine
 10
238.0148807569
 20
111.437795877
 30
0.0
 11
237.774880792
 21
111.0221041436
 31
0.0
  0
LINE
  5
29F
330
1F
100
AcDbEntity
  8
0
  6
Continuous
 62
     7
370
    15
100
AcDbLine
 10
237.7204321353
 20
111.6077942844
 30
0.0
 11
238.0148807569
 21
111.437795877
 31
0.0
  0
ARC
  5
2A0
330
1F
100
AcDbEntity
  8
0
  6
Continuous
 62
     7
370
    15
100
AcDbCircle
 10
243.4006207714
 20
122.1261706261
 30
0.0
 40
11.95411068467232
100
AcDbArc
 50
238.3701679713
 51
241.6298320287
  0
ARC
  5
2A1
330
1F
100
AcDbEntity
  8
0
  6
Continuous
 62
     7
370
    15
100
AcDbCircle
 10
246.3199240923
 20
106.3657481831
 30
0.0
 40
11.08700000000001
100
AcDbArc
 50
1.2403771303
 51
148.7596228699
  0
LINE
  5
2A2
330
1F
100
AcDbEntity
  8
0
  6
Continuous
 62
     7
370
    15
100
AcDbLine
 10
238.0148807569
 20
101.2937022443
 30
0.0
 11
237.7204321353
 21
101.1237008567
 31
0.0
  0
LINE
  5
2A3
330
1F
100
AcDbEntity
  8
0
  6
Continuous
 62
     7
370
    15
100
AcDbLine
 10
237.4804321705
 20
101.5393925901
 30
0.0
 11
237.774880792
 21
101.7093939777
 31
0.0
  0
ARC
  5
2A4
330
1F
100
AcDbEntity
  8
0
  6
Continuous
 62
     7
370
    15
100
AcDbCircle
 10
231.2113462218
 20
111.7177685674
 30
0.0
 40
11.95411068467232
100
AcDbArc
 50
298.3701679713
 51
301.6298320287
  0
LINE
  5
2A5
330
1F
100
AcDbEntity
  8
0
  6
Continuous
 62
     7
370
    15
100
AcDbLine
 10
236.6005502669
 20
101.0313941236
 30
0.0
 11
236.8915349273
 21
101.1993927951
 31
0.0
  0
CIRCLE
  5
2A6
330
1F
100
AcDbEntity
  8
0
  6
Continuous
 62
     7
370
    15
100
AcDbCircle
 10
246.3199240923
 20
106.3657481831
 30
0.0
 40
8.151999999999987
  0
LINE
  5
2A7
330
1F
100
AcDbEntity
  8
0
  6
Continuous
 62
     7
370
    15
100
AcDbLine
 10
257.0683268858
 20
106.605748653
 30
0.0
 11
257.404325719
 21
106.605748653
 31
0.0
  0
ARC
  5
2A8
330
1F
100
AcDbEntity
  8
0
  6
Continuous
 62
     7
370
    15
100
AcDbCircle
 10
256.728326151
 20
118.6468383661
 30
0.0
 40
12.04588945631947
100
AcDbArc
 50
268.3825891281
 51
271.6174108719
  0
LINE
  5
2A9
330
1F
100
AcDbEntity
  8
0
  6
Continuous
 62
     7
370
    15
100
AcDbLine
 10
256.0483260108
 20
106.605748653
 30
0.0
 11
256.3883258058
 21
106.605748653
 31
0.0
  0
LINE
  5
2AA
330
1F
100
AcDbEntity
  8
0
  6
Continuous
 62
     7
370
    15
100
AcDbLine
 10
256.0483260108
 20
106.1257494683
 30
0.0
 11
256.0483260108
 21
106.605748653
 31
0.0
  0
LINE
  5
2AB
330
1F
100
AcDbEntity
  8
0
  6
Continuous
 62
     7
370
    15
100
AcDbLine
 10
256.3883258058
 20
106.1257494683
 30
0.0
 11
256.0483260108
 21
106.1257494683
 31
0.0
  0
ARC
  5
2AC
330
1F
100
AcDbEntity
  8
0
  6
Continuous
 62
     7
370
    15
100
AcDbCircle
 10
256.728326151
 20
94.1764736335
 30
0.0
 40
11.95411068467233
100
AcDbArc
 50
88.3701679713
 51
91.6298320287
  0
LINE
  5
2AD
330
1F
100
AcDbEntity
  8
0
  6
Continuous
 62
     7
370
    15
100
AcDbLine
 10
257.404325719
 20
106.1257494683
 30
0.0
 11
257.0683268858
 21
106.1257494683
 31
0.0
  0
ARC
  5
2AE
330
1F
100
AcDbEntity
  8
0
  6
Continuous
 62
     7
370
    15
100
AcDbCircle
 10
246.3199240923
 20
106.3657481831
 30
0.0
 40
11.08700000000001
100
AcDbArc
 50
211.2403771303
 51
358.7596228699
  0
LINE
  5
2AF
330
1F
100
AcDbEntity
  8
0
  6
Continuous
 62
     7
370
    15
100
AcDbLine
 10
237.1315348922
 20
100.7837010617
 30
0.0
 11
236.8405502318
 21
100.6157023902
 31
0.0
  0
ARC
  5
2B0
330
1F
100
AcDbEntity
  8
0
  6
Continuous
 62
     7
370
    15
100
AcDbCircle
 10
243.4465285881
 20
90.5258110691
 30
0.0
 40
12.04588945631946
100
AcDbArc
 50
118.3825891281
 51
121.6174108719
  0
LINE
  5
2B1
330
1F
100
AcDbEntity
  8
0
  6
Continuous
 62
     7
370
    15
100
AcDbLine
 10
236.5915220259
 20
106.1257494683
 30
0.0
 11
236.2515220447
 21
106.1257494683
 31
0.0
  0
LINE
  5
2B2
330
1F
100
AcDbEntity
  8
0
  6
Continuous
 62
     7
370
    15
100
AcDbLine
 10
237.774880792
 20
101.7093939777
 30
0.0
 11
238.0148807569
 21
101.2937022443
 31
0.0
  0
LINE
  5
2B3
330
1F
100
AcDbEntity
  8
0
  6
Continuous
 62
     7
370
    15
100
AcDbLine
 10
235.5715220822
 20
106.1257494683
 30
0.0
 11
235.2355221315
 21
106.1257494683
 31
0.0
  0
ARC
  5
2B4
330
1F
100
AcDbEntity
  8
0
  6
Continuous
 62
     7
370
    15
100
AcDbCircle
 10
235.9115220335
 20
94.0846580001
 30
0.0
 40
12.04588945631947
100
AcDbArc
 50
88.3825891281
 51
91.6174108719
  0
ARC
  5
2B5
330
1F
100
AcDbEntity
  8
0
  6
Continuous
 62
     7
370
    15
100
AcDbCircle
 10
246.3199240923
 20
106.3657481831
 30
0.0
 40
11.08700000000001
100
AcDbArc
 50
181.2403771303
 51
208.7596228699
  0
CIRCLE
  5
2B6
330
1F
100
AcDbEntity
  8
0
  6
Continuous
 62
     7
370
    15
100
AcDbCircle
 10
228.6336920086
 20
121.2507408992
 30
0.0
 40
8.804500000000019
  0
LINE
  5
2B7
330
1F
100
AcDbEntity
  8
0
  6
Continuous
 62
     7
370
    15
100
AcDbLine
 10
240.0342384381
 20
121.4907405968
 30
0.0
 11
240.3702383889
 21
121.4907405968
 31
0.0
  0
ARC
  5
2B8
330
1F
100
AcDbEntity
  8
0
  6
Continuous
 62
     7
370
    15
100
AcDbCircle
 10
217.5731456257
 20
133.4400154488
 30
0.0
 40
11.95411068467234
100
AcDbArc
 50
268.3701679713
 51
271.6298320287
  0
LINE
  5
2B9
330
1F
100
AcDbEntity
  8
0
  6
Continuous
 62
     7
370
    15
100
AcDbLine
 10
216.8971462203
 20
121.4907405968
 30
0.0
 11
217.2331450535
 21
121.4907405968
 31
0.0
  0
ARC
  5
2BA
330
1F
100
AcDbEntity
  8
0
  6
Continuous
 62
     7
370
    15
100
AcDbCircle
 10
228.6336920086
 20
121.2507408992
 30
0.0
 40
11.73900000000001
100
AcDbArc
 50
151.1714750161
 51
178.828524984
  0
LINE
  5
2BB
330
1F
100
AcDbEntity
  8
0
  6
Continuous
 62
     7
370
    15
100
AcDbLine
 10
218.640529926
 20
126.7431674595
 30
0.0
 11
218.3495445205
 21
126.9111676212
 31
0.0
  0
ARC
  5
2BC
330
1F
100
AcDbEntity
  8
0
  6
Continuous
 62
     7
370
    15
100
AcDbCircle
 10
212.9144327698
 20
116.1452780061
 30
0.0
 40
12.04588945631948
100
AcDbArc
 50
58.3825891281
 51
61.6174108719
  0
LINE
  5
2BD
330
1F
100
AcDbEntity
  8
0
  6
Continuous
 62
     7
370
    15
100
AcDbLine
 10
219.5238752319
 20
126.2331677671
 30
0.0
 11
219.2294267966
 21
126.4031676645
 31
0.0
  0
LINE
  5
2BE
330
1F
100
AcDbEntity
  8
0
  6
Continuous
 62
     7
370
    15
100
AcDbLine
 10
219.7638748242
 20
126.6488595004
 30
0.0
 11
219.5238752319
 21
126.2331677671
 31
0.0
  0
LINE
  5
2BF
330
1F
100
AcDbEntity
  8
0
  6
Continuous
 62
     7
370
    15
100
AcDbLine
 10
219.4694263889
 20
126.818860888
 30
0.0
 11
219.7638748242
 21
126.6488595004
 31
0.0
  0
ARC
  5
2C0
330
1F
100
AcDbEntity
  8
0
  6
Continuous
 62
     7
370
    15
100
AcDbCircle
 10
225.149615136
 20
137.3372355043
 30
0.0
 40
11.95411068467232
100
AcDbArc
 50
238.3701679713
 51
241.6298320287
  0
LINE
  5
2C1
330
1F
100
AcDbEntity
  8
0
  6
Continuous
 62
     7
370
    15
100
AcDbLine
 10
218.5895441128
 20
127.3268608446
 30
0.0
 11
218.8805295183
 21
127.158860683
 31
0.0
  0
ARC
  5
2C2
330
1F
100
AcDbEntity
  8
0
  6
Continuous
 62
     7
370
    15
100
AcDbCircle
 10
228.6336920086
 20
121.2507408992
 30
0.0
 40
11.73900000000001
100
AcDbArc
 50
1.1714750161
 51
148.828524984
  0
ARC
  5
2C3
330
1F
100
AcDbEntity
  8
0
  6
Continuous
 62
     7
370
    15
100
AcDbCircle
 10
239.6942383916
 20
133.5318310822
 30
0.0
 40
12.04588945631951
100
AcDbArc
 50
268.3825891281
 51
271.6174108719
  0
LINE
  5
2C4
330
1F
100
AcDbEntity
  8
0
  6
Continuous
 62
     7
370
    15
100
AcDbLine
 10
239.0142383926
 20
121.4907405968
 30
0.0
 11
239.3542383826
 21
121.4907405968
 31
0.0
  0
LINE
  5
2C5
330
1F
100
AcDbEntity
  8
0
  6
Continuous
 62
     7
370
    15
100
AcDbLine
 10
239.0142383926
 20
121.0107414122
 30
0.0
 11
239.0142383926
 21
121.4907405968
 31
0.0
  0
LINE
  5
2C6
330
1F
100
AcDbEntity
  8
0
  6
Continuous
 62
     7
370
    15
100
AcDbLine
 10
239.3542383826
 20
121.0107414122
 30
0.0
 11
239.0142383926
 21
121.0107414122
 31
0.0
  0
ARC
  5
2C7
330
1F
100
AcDbEntity
  8
0
  6
Continuous
 62
     7
370
    15
100
AcDbCircle
 10
239.6942383916
 20
109.0614663496
 30
0.0
 40
11.95411068467235
100
AcDbArc
 50
88.3701679713
 51
91.6298320287
  0
LINE
  5
2C8
330
1F
100
AcDbEntity
  8
0
  6
Continuous
 62
     7
370
    15
100
AcDbLine
 10
240.3702383889
 20
121.0107414122
 30
0.0
 11
240.0342384381
 21
121.0107414122
 31
0.0
  0
ARC
  5
2C9
330
1F
100
AcDbEntity
  8
0
  6
Continuous
 62
     7
370
    15
100
AcDbCircle
 10
228.6336920086
 20
121.2507408992
 30
0.0
 40
11.739
100
AcDbArc
 50
211.1714750161
 51
358.828524984
  0
LINE
  5
2CA
330
1F
100
AcDbEntity
  8
0
  6
Continuous
 62
     7
370
    15
100
AcDbLine
 10
218.8805295183
 20
115.342621326
 30
0.0
 11
218.5895441128
 21
115.1746226545
 31
0.0
  0
ARC
  5
2CB
330
1F
100
AcDbEntity
  8
0
  6
Continuous
 62
     7
370
    15
100
AcDbCircle
 10
225.1955229527
 20
105.0847316231
 30
0.0
 40
12.04588945631949
100
AcDbArc
 50
118.3825891281
 51
121.6174108719
  0
LINE
  5
2CC
330
1F
100
AcDbEntity
  8
0
  6
Continuous
 62
     7
370
    15
100
AcDbLine
 10
219.7638748242
 20
115.8526225085
 30
0.0
 11
219.4694263889
 21
115.6826211209
 31
0.0
  0
LINE
  5
2CD
330
1F
100
AcDbEntity
  8
0
  6
Continuous
 62
     7
370
    15
100
AcDbLine
 10
219.5238752319
 20
116.2683142419
 30
0.0
 11
219.7638748242
 21
115.8526225085
 31
0.0
  0
LINE
  5
2CE
330
1F
100
AcDbEntity
  8
0
  6
Continuous
 62
     7
370
    15
100
AcDbLine
 10
219.2294267966
 20
116.0983128543
 30
0.0
 11
219.5238752319
 21
116.2683142419
 31
0.0
  0
ARC
  5
2CF
330
1F
100
AcDbEntity
  8
0
  6
Continuous
 62
     7
370
    15
100
AcDbCircle
 10
212.9603405865
 20
126.2766891213
 30
0.0
 40
11.95411068467233
100
AcDbArc
 50
298.3701679713
 51
301.6298320287
  0
LINE
  5
2D0
330
1F
100
AcDbEntity
  8
0
  6
Continuous
 62
     7
370
    15
100
AcDbLine
 10
218.3495445205
 20
115.5903143878
 30
0.0
 11
218.640529926
 21
115.7583130593
 31
0.0
  0
ARC
  5
2D1
330
1F
100
AcDbEntity
  8
0
  6
Continuous
 62
     7
370
    15
100
AcDbCircle
 10
228.6336920086
 20
121.2507408992
 30
0.0
 40
11.739
100
AcDbArc
 50
181.1714750161
 51
208.828524984
  0
LINE
  5
2D2
330
1F
100
AcDbEntity
  8
0
  6
Continuous
 62
     7
370
    15
100
AcDbLine
 10
217.2331450535
 20
121.0107414122
 30
0.0
 11
216.8971462203
 21
121.0107414122
 31
0.0
  0
ARC
  5
2D3
330
1F
100
AcDbEntity
  8
0
  6
Continuous
 62
     7
370
    15
100
AcDbCircle
 10
217.5731456257
 20
108.9696507162
 30
0.0
 40
12.04588945631948
100
AcDbArc
 50
88.3825891281
 51
91.6174108719
  0
LINE
  5
2D4
330
1F
100
AcDbEntity
  8
0
  6
Continuous
 62
     7
370
    15
100
AcDbLine
 10
218.2531459285
 20
121.0107414122
 30
0.0
 11
217.9131461336
 21
121.0107414122
 31
0.0
  0
LINE
  5
2D5
330
1F
100
AcDbEntity
  8
0
  6
Continuous
 62
     7
370
    15
100
AcDbLine
 10
218.2531459285
 20
121.4907405968
 30
0.0
 11
218.2531459285
 21
121.0107414122
 31
0.0
  0
LINE
  5
2D6
330
1F
100
AcDbEntity
  8
0
  6
Continuous
 62
     7
370
    15
100
AcDbLine
 10
217.9131461336
 20
121.4907405968
 30
0.0
 11
218.2531459285
 21
121.4907405968
 31
0.0
  0
ARC
  5
2D7
330
1F
100
AcDbEntity
  8
0
  6
Continuous
 62
     7
370
    15
100
AcDbCircle
 10
246.3199240923
 20
106.3657481831
 30
0.0
 40
8.152000000000006
100
AcDbArc
 50
1.6870675055
 51
148.3129324947
  0
LINE
  5
2D8
330
1F
100
AcDbEntity
  8
0
  6
Continuous
 62
     7
370
    15
100
AcDbLine
 10
254.1323898388
 20
106.605748653
 30
0.0
 11
254.4683901621
 21
106.605748653
 31
0.0
  0
ARC
  5
2D9
330
1F
100
AcDbEntity
  8
0
  6
Continuous
 62
     7
370
    15
100
AcDbCircle
 10
253.792390451
 20
118.6468383661
 30
0.0
 40
12.04588945631948
100
AcDbArc
 50
268.3825891281
 51
271.6174108719
  0
LINE
  5
2DA
330
1F
100
AcDbEntity
  8
0
  6
Continuous
 62
     7
370
    15
100
AcDbLine
 10
253.1123904539
 20
106.605748653
 30
0.0
 11
253.4523902489
 21
106.605748653
 31
0.0
  0
LINE
  5
2DB
330
1F
100
AcDbEntity
  8
0
  6
Continuous
 62
     7
370
    15
100
AcDbLine
 10
253.1123904539
 20
106.1257494683
 30
0.0
 11
253.1123904539
 21
106.605748653
 31
0.0
  0
LINE
  5
2DC
330
1F
100
AcDbEntity
  8
0
  6
Continuous
 62
     7
370
    15
100
AcDbLine
 10
253.4523902489
 20
106.1257494683
 30
0.0
 11
253.1123904539
 21
106.1257494683
 31
0.0
  0
ARC
  5
2DD
330
1F
100
AcDbEntity
  8
0
  6
Continuous
 62
     7
370
    15
100
AcDbCircle
 10
253.792390451
 20
94.1764736335
 30
0.0
 40
11.95411068467232
100
AcDbArc
 50
88.3701679713
 51
91.6298320287
  0
LINE
  5
2DE
330
1F
100
AcDbEntity
  8
0
  6
Continuous
 62
     7
370
    15
100
AcDbLine
 10
254.4683901621
 20
106.1257494683
 30
0.0
 11
254.1323898388
 21
106.1257494683
 31
0.0
  0
ARC
  5
2DF
330
1F
100
AcDbEntity
  8
0
  6
Continuous
 62
     7
370
    15
100
AcDbCircle
 10
246.3199240923
 20
106.3657481831
 30
0.0
 40
8.152000000000031
100
AcDbArc
 50
211.6870675055
 51
358.3129324947
  0
LINE
  5
2E0
330
1F
100
AcDbEntity
  8
0
  6
Continuous
 62
     7
370
    15
100
AcDbLine
 10
239.674129759
 20
102.2516680951
 30
0.0
 11
239.383145215
 21
102.0836694236
 31
0.0
  0
ARC
  5
2E1
330
1F
100
AcDbEntity
  8
0
  6
Continuous
 62
     7
370
    15
100
AcDbCircle
 10
245.9891234881
 20
91.9937789191
 30
0.0
 40
12.04588945631946
100
AcDbArc
 50
118.3825891281
 51
121.6174108719
  0
LINE
  5
2E2
330
1F
100
AcDbEntity
  8
0
  6
Continuous
 62
     7
370
    15
100
AcDbLine
 10
240.5574756703
 20
102.7616692777
 30
0.0
 11
240.2630270487
 21
102.5916678901
 31
0.0
  0
LINE
  5
2E3
330
1F
100
AcDbEntity
  8
0
  6
Continuous
 62
     7
370
    15
100
AcDbLine
 10
240.3174757054
 20
103.177361011
 30
0.0
 11
240.5574756703
 21
102.7616692777
 31
0.0
  0
LINE
  5
2E4
330
1F
100
AcDbEntity
  8
0
  6
Continuous
 62
     7
370
    15
100
AcDbLine
 10
240.0230269907
 20
103.0073596234
 30
0.0
 11
240.3174757054
 21
103.177361011
 31
0.0
  0
ARC
  5
2E5
330
1F
100
AcDbEntity
  8
0
  6
Continuous
 62
     7
370
    15
100
AcDbCircle
 10
233.7539411219
 20
113.1857364173
 30
0.0
 40
11.95411068467231
100
AcDbArc
 50
298.3701679713
 51
301.6298320287
  0
LINE
  5
2E6
330
1F
100
AcDbEntity
  8
0
  6
Continuous
 62
     7
370
    15
100
AcDbLine
 10
239.1431452211
 20
102.499361157
 30
0.0
 11
239.4341297709
 21
102.6673598285
 31
0.0
  0
ARC
  5
2E7
330
1F
100
AcDbEntity
  8
0
  6
Continuous
 62
     7
370
    15
100
AcDbCircle
 10
246.3199240923
 20
106.3657481831
 30
0.0
 40
8.152
100
AcDbArc
 50
181.6870675055
 51
208.3129324947
  0
LINE
  5
2E8
330
1F
100
AcDbEntity
  8
0
  6
Continuous
 62
     7
370
    15
100
AcDbLine
 10
238.5074577322
 20
106.1257494683
 30
0.0
 11
238.1714576883
 21
106.1257494683
 31
0.0
  0
ARC
  5
2E9
330
1F
100
AcDbEntity
  8
0
  6
Continuous
 62
     7
370
    15
100
AcDbCircle
 10
238.8474577335
 20
94.0846580001
 30
0.0
 40
12.04588945631948
100
AcDbArc
 50
88.3825891281
 51
91.6174108719
  0
LINE
  5
2EA
330
1F
100
AcDbEntity
  8
0
  6
Continuous
 62
     7
370
    15
100
AcDbLine
 10
239.5274577225
 20
106.1257494683
 30
0.0
 11
239.1874577296
 21
106.1257494683
 31
0.0
  0
LINE
  5
2EB
330
1F
100
AcDbEntity
  8
0
  6
Continuous
 62
     7
370
    15
100
AcDbLine
 10
239.5274577225
 20
106.605748653
 30
0.0
 11
239.5274577225
 21
106.1257494683
 31
0.0
  0
LINE
  5
2EC
330
1F
100
AcDbEntity
  8
0
  6
Continuous
 62
     7
370
    15
100
AcDbLine
 10
239.1874577296
 20
106.605748653
 30
0.0
 11
239.5274577225
 21
106.605748653
 31
0.0
  0
ARC
  5
2ED
330
1F
100
AcDbEntity
  8
0
  6
Continuous
 62
     7
370
    15
100
AcDbCircle
 10
238.8474577335
 20
118.5550227327
 30
0.0
 40
11.95411068467235
100
AcDbArc
 50
268.3701679713
 51
271.6298320287
  0
LINE
  5
2EE
330
1F
100
AcDbEntity
  8
0
  6
Continuous
 62
     7
370
    15
100
AcDbLine
 10
238.1714576883
 20
106.605748653
 30
0.0
 11
238.5074577322
 21
106.605748653
 31
0.0
  0
ARC
  5
2EF
330
1F
100
AcDbEntity
  8
0
  6
Continuous
 62
     7
370
    15
100
AcDbCircle
 10
246.3199240923
 20
106.3657481831
 30
0.0
 40
8.152000000000003
100
AcDbArc
 50
151.6870675055
 51
178.3129324946
  0
LINE
  5
2F0
330
1F
100
AcDbEntity
  8
0
  6
Continuous
 62
     7
370
    15
100
AcDbLine
 10
239.4341297709
 20
110.0641353126
 30
0.0
 11
239.1431452211
 21
110.2321339841
 31
0.0
  0
ARC
  5
2F1
330
1F
100
AcDbEntity
  8
0
  6
Continuous
 62
     7
370
    15
100
AcDbCircle
 10
233.7080333052
 20
99.4662452779
 30
0.0
 40
12.04588945631949
100
AcDbArc
 50
58.3825891281
 51
61.6174108719
  0
LINE
  5
2F2
330
1F
100
AcDbEntity
  8
0
  6
Continuous
 62
     7
370
    15
100
AcDbLine
 10
240.3174757054
 20
109.55413413
 30
0.0
 11
240.0230269907
 21
109.7241355176
 31
0.0
  0
LINE
  5
2F3
330
1F
100
AcDbEntity
  8
0
  6
Continuous
 62
     7
370
    15
100
AcDbLine
 10
240.5574756703
 20
109.9698288436
 30
0.0
 11
240.3174757054
 21
109.55413413
 31
0.0
  0
LINE
  5
2F4
330
1F
100
AcDbEntity
  8
0
  6
Continuous
 62
     7
370
    15
100
AcDbLine
 10
240.2630270487
 20
110.139827251
 30
0.0
 11
240.5574756703
 21
109.9698288436
 31
0.0
  0
ARC
  5
2F5
330
1F
100
AcDbEntity
  8
0
  6
Continuous
 62
     7
370
    15
100
AcDbCircle
 10
245.9432156714
 20
120.6582027761
 30
0.0
 40
11.95411068467232
100
AcDbArc
 50
238.3701679713
 51
241.6298320287
  0
LINE
  5
2F6
330
1F
100
AcDbEntity
  8
0
  6
Continuous
 62
     7
370
    15
100
AcDbLine
 10
239.383145215
 20
110.6478286977
 30
0.0
 11
239.674129759
 21
110.4798270459
 31
0.0
  0
CIRCLE
  5
2F7
330
1F
100
AcDbEntity
  8
0
  6
Continuous
 62
     7
370
    15
100
AcDbCircle
 10
246.3199240923
 20
106.3657481831
 30
0.0
 40
2.0
  0
LINE
  5
2F8
330
1F
100
AcDbEntity
  8
0
  6
Continuous
 62
     7
370
    15
100
AcDbLine
 10
236.0789204044
 20
121.4907405968
 30
0.0
 11
236.4189203857
 21
121.4907405968
 31
0.0
  0
LINE
  5
2F9
330
1F
100
AcDbEntity
  8
0
  6
Continuous
 62
     7
370
    15
100
AcDbLine
 10
236.0789204044
 20
121.0107414122
 30
0.0
 11
236.0789204044
 21
121.4907405968
 31
0.0
  0
LINE
  5
2FA
330
1F
100
AcDbEntity
  8
0
  6
Continuous
 62
     7
370
    15
100
AcDbLine
 10
236.4189203857
 20
121.0107414122
 30
0.0
 11
236.0789204044
 21
121.0107414122
 31
0.0
  0
ARC
  5
2FB
330
1F
100
AcDbEntity
  8
0
  6
Continuous
 62
     7
370
    15
100
AcDbCircle
 10
215.4564927653
 20
114.6776189834
 30
0.0
 40
12.04588945631948
100
AcDbArc
 50
58.3825891281
 51
61.6174108719
  0
LINE
  5
2FC
330
1F
100
AcDbEntity
  8
0
  6
Continuous
 62
     7
370
    15
100
AcDbLine
 10
222.0659358455
 20
124.7655091877
 30
0.0
 11
221.7714859201
 21
124.9355090852
 31
0.0
  0
LINE
  5
2FD
330
1F
100
AcDbEntity
  8
0
  6
Continuous
 62
     7
370
    15
100
AcDbLine
 10
222.3059354378
 20
125.1812009211
 30
0.0
 11
222.0659358455
 21
124.7655091877
 31
0.0
  0
LINE
  5
2FE
330
1F
100
AcDbEntity
  8
0
  6
Continuous
 62
     7
370
    15
100
AcDbLine
 10
222.0114870025
 20
125.3512008186
 30
0.0
 11
222.3059354378
 21
125.1812009211
 31
0.0
  0
ARC
  5
2FF
330
1F
100
AcDbEntity
  8
0
  6
Continuous
 62
     7
370
    15
100
AcDbCircle
 10
227.6916751315
 20
135.8695764816
 30
0.0
 40
11.95411068467231
100
AcDbArc
 50
238.3701679713
 51
241.6298320287
  0
LINE
  5
300
330
1F
100
AcDbEntity
  8
0
  6
Continuous
 62
     7
370
    15
100
AcDbLine
 10
221.1316047264
 20
125.8592007752
 30
0.0
 11
221.4225886418
 21
125.6912006135
 31
0.0
  0
CIRCLE
  5
301
330
1F
100
AcDbEntity
  8
0
  6
Continuous
 62
     7
370
    15
100
AcDbCircle
 10
228.6336920086
 20
121.2507408992
 30
0.0
 40
4.496499999999997
  0
LINE
  5
302
330
1F
100
AcDbEntity
  8
0
  6
Continuous
 62
     7
370
    15
100
AcDbLine
 10
237.0989203481
 20
121.4907405968
 30
0.0
 11
237.4349202989
 21
121.4907405968
 31
0.0
  0
ARC
  5
303
330
1F
100
AcDbEntity
  8
0
  6
Continuous
 62
     7
370
    15
100
AcDbCircle
 10
236.7589203462
 20
133.5318310822
 30
0.0
 40
12.04588945631948
100
AcDbArc
 50
268.3825891281
 51
271.6174108719
  0
LINE
  5
304
330
1F
100
AcDbEntity
  8
0
  6
Continuous
 62
     7
370
    15
100
AcDbLine
 10
220.8484632923
 20
121.4907405968
 30
0.0
 11
221.1884630872
 21
121.4907405968
 31
0.0
  0
ARC
  5
305
330
1F
100
AcDbEntity
  8
0
  6
Continuous
 62
     7
370
    15
100
AcDbCircle
 10
236.7589203462
 20
109.0614663496
 30
0.0
 40
11.95411068467232
100
AcDbArc
 50
88.3701679713
 51
91.6298320287
  0
LINE
  5
306
330
1F
100
AcDbEntity
  8
0
  6
Continuous
 62
     7
370
    15
100
AcDbLine
 10
237.4349202989
 20
121.0107414122
 30
0.0
 11
237.0989203481
 21
121.0107414122
 31
0.0
  0
LINE
  5
307
330
1F
100
AcDbEntity
  8
0
  6
Continuous
 62
     7
370
    15
100
AcDbLine
 10
221.4225886418
 20
116.8102813955
 30
0.0
 11
221.1316047264
 21
116.6422797437
 31
0.0
  0
ARC
  5
308
330
1F
100
AcDbEntity
  8
0
  6
Continuous
 62
     7
370
    15
100
AcDbCircle
 10
227.7375829482
 20
106.5523906458
 30
0.0
 40
12.04588945631947
100
AcDbArc
 50
118.3825891281
 51
121.6174108719
  0
LINE
  5
309
330
1F
100
AcDbEntity
  8
0
  6
Continuous
 62
     7
370
    15
100
AcDbLine
 10
222.3059354378
 20
117.3202795978
 30
0.0
 11
222.0114870025
 21
117.1502811904
 31
0.0
  0
LINE
  5
30A
330
1F
100
AcDbEntity
  8
0
  6
Continuous
 62
     7
370
    15
100
AcDbLine
 10
222.0659358455
 20
117.7359743114
 30
0.0
 11
222.3059354378
 21
117.3202795978
 31
0.0
  0
LINE
  5
30B
330
1F
100
AcDbEntity
  8
0
  6
Continuous
 62
     7
370
    15
100
AcDbLine
 10
221.7714859201
 20
117.5659729238
 30
0.0
 11
222.0659358455
 21
117.7359743114
 31
0.0
  0
ARC
  5
30C
330
1F
100
AcDbEntity
  8
0
  6
Continuous
 62
     7
370
    15
100
AcDbCircle
 10
215.502400582
 20
127.744348144
 30
0.0
 40
11.95411068467233
100
AcDbArc
 50
298.3701679713
 51
301.6298320287
  0
LINE
  5
30D
330
1F
100
AcDbEntity
  8
0
  6
Continuous
 62
     7
370
    15
100
AcDbLine
 10
220.8916051341
 20
117.057971477
 30
0.0
 11
221.1825890495
 21
117.2259731288
 31
0.0
  0
LINE
  5
30E
330
1F
100
AcDbEntity
  8
0
  6
Continuous
 62
     7
370
    15
100
AcDbLine
 10
220.1684637023
 20
121.0107414122
 30
0.0
 11
219.832463379
 21
121.0107414122
 31
0.0
  0
ARC
  5
30F
330
1F
100
AcDbEntity
  8
0
  6
Continuous
 62
     7
370
    15
100
AcDbCircle
 10
220.5084636711
 20
108.9696507162
 30
0.0
 40
12.04588945631947
100
AcDbArc
 50
88.3825891281
 51
91.6174108719
  0
LINE
  5
310
330
1F
100
AcDbEntity
  8
0
  6
Continuous
 62
     7
370
    15
100
AcDbLine
 10
221.1884630872
 20
121.0107414122
 30
0.0
 11
220.8484632923
 21
121.0107414122
 31
0.0
  0
LINE
  5
311
330
1F
100
AcDbEntity
  8
0
  6
Continuous
 62
     7
370
    15
100
AcDbLine
 10
221.1884630872
 20
121.4907405968
 30
0.0
 11
221.1884630872
 21
121.0107414122
 31
0.0
  0
LINE
  5
312
330
1F
100
AcDbEntity
  8
0
  6
Continuous
 62
     7
370
    15
100
AcDbLine
 10
221.1825890495
 20
125.2755088802
 30
0.0
 11
220.8916051341
 21
125.4435090418
 31
0.0
  0
ARC
  5
313
330
1F
100
AcDbEntity
  8
0
  6
Continuous
 62
     7
370
    15
100
AcDbCircle
 10
220.5084636711
 20
133.4400154488
 30
0.0
 40
11.95411068467231
100
AcDbArc
 50
268.3701679713
 51
271.6298320287
  0
LINE
  5
314
330
1F
100
AcDbEntity
  8
0
  6
Continuous
 62
     7
370
    15
100
AcDbLine
 10
219.832463379
 20
121.4907405968
 30
0.0
 11
220.1684637023
 21
121.4907405968
 31
0.0
  0
ARC
  5
315
330
1F
100
AcDbEntity
  8
0
  6
Continuous
 62
     7
370
    15
100
AcDbCircle
 10
249.1120976601
 20
132.6845802769
 30
0.0
 40
8.478500000000018
100
AcDbArc
 50
151.6220822251
 51
178.3779177751
  0
LINE
  5
316
330
1F
100
AcDbEntity
  8
0
  6
Continuous
 62
     7
370
    15
100
AcDbLine
 10
241.9434281094
 20
136.5462852712
 30
0.0
 11
241.6524436353
 21
136.7142854328
 31
0.0
  0
ARC
  5
317
330
1F
100
AcDbEntity
  8
0
  6
Continuous
 62
     7
370
    15
100
AcDbCircle
 10
236.2173316838
 20
125.9483954383
 30
0.0
 40
12.04588945631944
100
AcDbArc
 50
58.3825891281
 51
61.6174108719
  0
LINE
  5
318
330
1F
100
AcDbEntity
  8
0
  6
Continuous
 62
     7
370
    15
100
AcDbLine
 10
242.8267741604
 20
136.0362855787
 30
0.0
 11
242.5323253526
 21
136.2062854762
 31
0.0
  0
LINE
  5
319
330
1F
100
AcDbEntity
  8
0
  6
Continuous
 62
     7
370
    15
100
AcDbLine
 10
242.7723253174
 20
136.6219779546
 30
0.0
 11
243.0667741252
 21
136.4519773121
 31
0.0
  0
LINE
  5
31A
330
1F
100
AcDbEntity
  8
0
  6
Continuous
 62
     7
370
    15
100
AcDbLine
 10
241.8924436001
 20
137.1299779112
 30
0.0
 11
242.1834280743
 21
136.9619777496
 31
0.0
  0
ARC
  5
31B
330
1F
100
AcDbEntity
  8
0
  6
Continuous
 62
     7
370
    15
100
AcDbCircle
 10
249.1120976601
 20
132.6845802769
 30
0.0
 40
8.47850000000002
100
AcDbArc
 50
1.6220822251
 51
148.3779177751
  0
LINE
  5
31C
330
1F
100
AcDbEntity
  8
0
  6
Continuous
 62
     7
370
    15
100
AcDbLine
 10
243.0667741252
 20
136.4519773121
 30
0.0
 11
242.8267741604
 21
136.0362855787
 31
0.0
  0
ARC
  5
31D
330
1F
100
AcDbEntity
  8
0
  6
Continuous
 62
     7
370
    15
100
AcDbCircle
 10
248.4525140501
 20
147.1403529365
 30
0.0
 40
11.95411068467233
100
AcDbArc
 50
238.3701679713
 51
241.6298320287
  0
LINE
  5
31E
330
1F
100
AcDbEntity
  8
0
  6
Continuous
 62
     7
370
    15
100
AcDbLine
 10
240.6369952513
 20
132.9245803948
 30
0.0
 11
240.9729952021
 21
132.9245803948
 31
0.0
  0
ARC
  5
31F
330
1F
100
AcDbEntity
  8
0
  6
Continuous
 62
     7
370
    15
100
AcDbCircle
 10
241.3129951681
 20
144.8738548265
 30
0.0
 40
11.95411068467232
100
AcDbArc
 50
268.3701679713
 51
271.6298320287
  0
LINE
  5
320
330
1F
100
AcDbEntity
  8
0
  6
Continuous
 62
     7
370
    15
100
AcDbLine
 10
257.2511998965
 20
132.9245803948
 30
0.0
 11
257.5872002198
 21
132.9245803948
 31
0.0
  0
ARC
  5
321
330
1F
100
AcDbEntity
  8
0
  6
Continuous
 62
     7
370
    15
100
AcDbCircle
 10
256.9112001521
 20
144.9656704599
 30
0.0
 40
12.04588945631949
100
AcDbArc
 50
268.3825891281
 51
271.6174108719
  0
ARC
  5
322
330
1F
100
AcDbEntity
  8
0
  6
Continuous
 62
     7
370
    15
100
AcDbCircle
 10
256.9112001521
 20
120.4953057273
 30
0.0
 40
11.95411068467235
100
AcDbArc
 50
88.3701679713
 51
91.6298320287
  0
ARC
  5
323
330
1F
100
AcDbEntity
  8
0
  6
Continuous
 62
     7
370
    15
100
AcDbCircle
 10
249.1120976601
 20
132.6845802769
 30
0.0
 40
8.478500000000038
100
AcDbArc
 50
211.6220822251
 51
358.3779177751
  0
LINE
  5
324
330
1F
100
AcDbEntity
  8
0
  6
Continuous
 62
     7
370
    15
100
AcDbLine
 10
242.5323253526
 20
129.1628746386
 30
0.0
 11
242.8267741604
 21
129.3328745361
 31
0.0
  0
CIRCLE
  5
325
330
1F
100
AcDbEntity
  8
0
  6
Continuous
 62
     7
370
    15
100
AcDbCircle
 10
249.1120976601
 20
132.6845802769
 30
0.0
 40
3.376999999999953
  0
LINE
  5
326
330
1F
100
AcDbEntity
  8
0
  6
Continuous
 62
     7
370
    15
100
AcDbLine
 10
240.9729952021
 20
132.4445804651
 30
0.0
 11
240.6369952513
 21
132.4445804651
 31
0.0
  0
ARC
  5
327
330
1F
100
AcDbEntity
  8
0
  6
Continuous
 62
     7
370
    15
100
AcDbCircle
 10
241.3129951681
 20
120.4034900939
 30
0.0
 40
12.04588945631947
100
AcDbArc
 50
88.3825891281
 51
91.6174108719
  0
LINE
  5
328
330
1F
100
AcDbEntity
  8
0
  6
Continuous
 62
     7
370
    15
100
AcDbLine
 10
256.2312005116
 20
132.9245803948
 30
0.0
 11
256.5712003065
 21
132.9245803948
 31
0.0
  0
LINE
  5
329
330
1F
100
AcDbEntity
  8
0
  6
Continuous
 62
     7
370
    15
100
AcDbLine
 10
256.2312005116
 20
132.4445804651
 30
0.0
 11
256.2312005116
 21
132.9245803948
 31
0.0
  0
LINE
  5
32A
330
1F
100
AcDbEntity
  8
0
  6
Continuous
 62
     7
370
    15
100
AcDbLine
 10
256.5712003065
 20
132.4445804651
 30
0.0
 11
256.2312005116
 21
132.4445804651
 31
0.0
  0
LINE
  5
32B
330
1F
100
AcDbEntity
  8
0
  6
Continuous
 62
     7
370
    15
100
AcDbLine
 10
257.5872002198
 20
132.4445804651
 30
0.0
 11
257.2511998965
 21
132.4445804651
 31
0.0
  0
ARC
  5
32C
330
1F
100
AcDbEntity
  8
0
  6
Continuous
 62
     7
370
    15
100
AcDbCircle
 10
249.1120976601
 20
132.6845802769
 30
0.0
 40
8.478500000000048
100
AcDbArc
 50
181.6220822251
 51
208.3779177751
  0
LINE
  5
32D
330
1F
100
AcDbEntity
  8
0
  6
Continuous
 62
     7
370
    15
100
AcDbLine
 10
242.1834280743
 20
128.4071831103
 30
0.0
 11
241.8924436001
 21
128.2391829486
 31
0.0
  0
ARC
  5
32E
330
1F
100
AcDbEntity
  8
0
  6
Continuous
 62
     7
370
    15
100
AcDbCircle
 10
248.4984218668
 20
118.1492929463
 30
0.0
 40
12.04588945631949
100
AcDbArc
 50
118.3825891281
 51
121.6174108719
  0
LINE
  5
32F
330
1F
100
AcDbEntity
  8
0
  6
Continuous
 62
     7
370
    15
100
AcDbLine
 10
243.0667741252
 20
128.9171828027
 30
0.0
 11
242.7723253174
 21
128.7471829052
 31
0.0
  0
LINE
  5
330
330
1F
100
AcDbEntity
  8
0
  6
Continuous
 62
     7
370
    15
100
AcDbLine
 10
242.8267741604
 20
129.3328745361
 30
0.0
 11
243.0667741252
 21
128.9171828027
 31
0.0
  0
LINE
  5
331
330
1F
100
AcDbEntity
  8
0
  6
Continuous
 62
     7
370
    15
100
AcDbLine
 10
241.6529951645
 20
132.9245803948
 30
0.0
 11
241.9929951458
 21
132.9245803948
 31
0.0
  0
ARC
  5
332
330
1F
100
AcDbEntity
  8
0
  6
Continuous
 62
     7
370
    15
100
AcDbCircle
 10
236.2632395005
 20
139.3412504445
 30
0.0
 40
11.95411068467233
100
AcDbArc
 50
298.3701679713
 51
301.6298320287
  0
LINE
  5
333
330
1F
100
AcDbEntity
  8
0
  6
Continuous
 62
     7
370
    15
100
AcDbLine
 10
241.6524436353
 20
128.654874682
 30
0.0
 11
241.9434281094
 21
128.8228748436
 31
0.0
  0
LINE
  5
334
330
1F
100
AcDbEntity
  8
0
  6
Continuous
 62
     7
370
    15
100
AcDbLine
 10
241.9929951458
 20
132.9245803948
 30
0.0
 11
241.9929951458
 21
132.4445804651
 31
0.0
  0
LINE
  5
335
330
1F
100
AcDbEntity
  8
0
  6
Continuous
 62
     7
370
    15
100
AcDbLine
 10
241.9929951458
 20
132.4445804651
 30
0.0
 11
241.6529951645
 21
132.4445804651
 31
0.0
  0
CIRCLE
  5
336
330
1F
100
AcDbEntity
  8
0
  6
Continuous
 62
     7
370
    15
100
AcDbCircle
 10
264.5870040061
 20
117.5760406267
 30
0.0
 40
2.499999999999943
  0
LINE
  5
337
330
1F
100
AcDbEntity
  8
0
  6
Continuous
 62
     7
370
    15
100
AcDbLine
 10
271.4209897472
 20
117.8160412307
 30
0.0
 11
271.7569870902
 21
117.8160412307
 31
0.0
  0
ARC
  5
338
330
1F
100
AcDbEntity
  8
0
  6
Continuous
 62
     7
370
    15
100
AcDbCircle
 10
271.0809883854
 20
129.8571308097
 30
0.0
 40
12.04588945631948
100
AcDbArc
 50
268.3825891281
 51
271.6174108719
  0
LINE
  5
339
330
1F
100
AcDbEntity
  8
0
  6
Continuous
 62
     7
370
    15
100
AcDbLine
 10
270.4009873821
 20
117.8160412307
 30
0.0
 11
270.740987177
 21
117.8160412307
 31
0.0
  0
LINE
  5
33A
330
1F
100
AcDbEntity
  8
0
  6
Continuous
 62
     7
370
    15
100
AcDbLine
 10
270.4009873821
 20
117.3360420461
 30
0.0
 11
270.4009873821
 21
117.8160412307
 31
0.0
  0
LINE
  5
33B
330
1F
100
AcDbEntity
  8
0
  6
Continuous
 62
     7
370
    15
100
AcDbLine
 10
270.740987177
 20
117.3360420461
 30
0.0
 11
270.4009873821
 21
117.3360420461
 31
0.0
  0
ARC
  5
33C
330
1F
100
AcDbEntity
  8
0
  6
Continuous
 62
     7
370
    15
100
AcDbCircle
 10
271.0809883854
 20
105.3867660771
 30
0.0
 40
11.95411068467234
100
AcDbArc
 50
88.3701679713
 51
91.6298320287
  0
LINE
  5
33D
330
1F
100
AcDbEntity
  8
0
  6
Continuous
 62
     7
370
    15
100
AcDbLine
 10
271.7569870902
 20
117.3360420461
 30
0.0
 11
271.4209897472
 21
117.3360420461
 31
0.0
  0
ARC
  5
33E
330
1F
100
AcDbEntity
  8
0
  6
Continuous
 62
     7
370
    15
100
AcDbCircle
 10
264.5870040061
 20
117.5760406267
 30
0.0
 40
7.173999999999995
100
AcDbArc
 50
211.9171387436
 51
358.0828612565
  0
LINE
  5
33F
330
1F
100
AcDbEntity
  8
0
  6
Continuous
 62
     7
370
    15
100
AcDbLine
 10
258.7886003806
 20
113.9512015577
 30
0.0
 11
258.4976149751
 21
113.7832028861
 31
0.0
  0
ARC
  5
340
330
1F
100
AcDbEntity
  8
0
  6
Continuous
 62
     7
370
    15
100
AcDbCircle
 10
265.1035936533
 20
103.6933123524
 30
0.0
 40
12.04588945631948
100
AcDbArc
 50
118.3825891281
 51
121.6174108719
  0
LINE
  5
341
330
1F
100
AcDbEntity
  8
0
  6
Continuous
 62
     7
370
    15
100
AcDbLine
 10
259.6719456865
 20
114.4612027402
 30
0.0
 11
259.3774972512
 21
114.2912013526
 31
0.0
  0
LINE
  5
342
330
1F
100
AcDbEntity
  8
0
  6
Continuous
 62
     7
370
    15
100
AcDbLine
 10
259.4319460942
 20
114.8768944736
 30
0.0
 11
259.6719456865
 21
114.4612027402
 31
0.0
  0
LINE
  5
343
330
1F
100
AcDbEntity
  8
0
  6
Continuous
 62
     7
370
    15
100
AcDbLine
 10
259.1374976589
 20
114.706893086
 30
0.0
 11
259.4319460942
 21
114.8768944736
 31
0.0
  0
ARC
  5
344
330
1F
100
AcDbEntity
  8
0
  6
Continuous
 62
     7
370
    15
100
AcDbCircle
 10
252.868411287
 20
124.8852698507
 30
0.0
 40
11.95411068467232
100
AcDbArc
 50
298.3701679713
 51
301.6298320287
  0
LINE
  5
345
330
1F
100
AcDbEntity
  8
0
  6
Continuous
 62
     7
370
    15
100
AcDbLine
 10
258.2576153828
 20
114.1988946195
 30
0.0
 11
258.5485992981
 21
114.366893291
 31
0.0
  0
ARC
  5
346
330
1F
100
AcDbEntity
  8
0
  6
Continuous
 62
     7
370
    15
100
AcDbCircle
 10
264.5870040061
 20
117.5760406267
 30
0.0
 40
7.174000000000047
100
AcDbArc
 50
181.9171387436
 51
208.0828612565
  0
LINE
  5
347
330
1F
100
AcDbEntity
  8
0
  6
Continuous
 62
     7
370
    15
100
AcDbLine
 10
257.7530203415
 20
117.3360420461
 30
0.0
 11
257.4170200182
 21
117.3360420461
 31
0.0
  0
ARC
  5
348
330
1F
100
AcDbEntity
  8
0
  6
Continuous
 62
     7
370
    15
100
AcDbCircle
 10
258.0930196268
 20
105.2949504437
 30
0.0
 40
12.04588945631948
100
AcDbArc
 50
88.3825891281
 51
91.6174108719
  0
LINE
  5
349
330
1F
100
AcDbEntity
  8
0
  6
Continuous
 62
     7
370
    15
100
AcDbLine
 10
258.7730197264
 20
117.3360420461
 30
0.0
 11
258.4330199314
 21
117.3360420461
 31
0.0
  0
LINE
  5
34A
330
1F
100
AcDbEntity
  8
0
  6
Continuous
 62
     7
370
    15
100
AcDbLine
 10
258.7730197264
 20
117.8160412307
 30
0.0
 11
258.7730197264
 21
117.3360420461
 31
0.0
  0
LINE
  5
34B
330
1F
100
AcDbEntity
  8
0
  6
Continuous
 62
     7
370
    15
100
AcDbLine
 10
258.4330199314
 20
117.8160412307
 30
0.0
 11
258.7730197264
 21
117.8160412307
 31
0.0
  0
LINE
  5
34C
330
1F
100
AcDbEntity
  8
0
  6
Continuous
 62
     7
370
    15
100
AcDbLine
 10
257.4170200182
 20
117.8160412307
 30
0.0
 11
257.7530203415
 21
117.8160412307
 31
0.0
  0
ARC
  5
34D
330
1F
100
AcDbEntity
  8
0
  6
Continuous
 62
     7
370
    15
100
AcDbCircle
 10
264.5870040061
 20
117.5760406267
 30
0.0
 40
7.174000000000063
100
AcDbArc
 50
151.9171387436
 51
178.0828612565
  0
LINE
  5
34E
330
1F
100
AcDbEntity
  8
0
  6
Continuous
 62
     7
370
    15
100
AcDbLine
 10
258.5485992981
 20
120.7851870055
 30
0.0
 11
258.2576153828
 21
120.9531871672
 31
0.0
  0
ARC
  5
34F
330
1F
100
AcDbEntity
  8
0
  6
Continuous
 62
     7
370
    15
100
AcDbCircle
 10
252.8225034703
 20
110.1872967318
 30
0.0
 40
12.04588945631944
100
AcDbArc
 50
58.3825891281
 51
61.6174108719
  0
LINE
  5
350
330
1F
100
AcDbEntity
  8
0
  6
Continuous
 62
     7
370
    15
100
AcDbLine
 10
259.4319460942
 20
120.2751873131
 30
0.0
 11
259.1374976589
 21
120.4451872106
 31
0.0
  0
LINE
  5
351
330
1F
100
AcDbEntity
  8
0
  6
Continuous
 62
     7
370
    15
100
AcDbLine
 10
259.6719456865
 20
120.6908790465
 30
0.0
 11
259.4319460942
 21
120.2751873131
 31
0.0
  0
LINE
  5
352
330
1F
100
AcDbEntity
  8
0
  6
Continuous
 62
     7
370
    15
100
AcDbLine
 10
259.3774972512
 20
120.8608789439
 30
0.0
 11
259.6719456865
 21
120.6908790465
 31
0.0
  0
ARC
  5
353
330
1F
100
AcDbEntity
  8
0
  6
Continuous
 62
     7
370
    15
100
AcDbCircle
 10
265.0576858366
 20
131.37925423
 30
0.0
 40
11.95411068467231
100
AcDbArc
 50
238.3701679713
 51
241.6298320287
  0
LINE
  5
354
330
1F
100
AcDbEntity
  8
0
  6
Continuous
 62
     7
370
    15
100
AcDbLine
 10
258.4976149751
 20
121.3688789005
 30
0.0
 11
258.7886003806
 21
121.2008787389
 31
0.0
  0
ARC
  5
355
330
1F
100
AcDbEntity
  8
0
  6
Continuous
 62
     7
370
    15
100
AcDbCircle
 10
264.5870040061
 20
117.5760406267
 30
0.0
 40
7.174000000000035
100
AcDbArc
 50
1.9171387436
 51
148.0828612565
  0
ARC
  5
356
330
1F
100
AcDbEntity
  8
0
  6
Continuous
 62
     7
370
    15
100
AcDbCircle
 10
258.0930196268
 20
129.7653151763
 30
0.0
 40
11.95411068467235
100
AcDbArc
 50
268.3701679713
 51
271.6298320287
  0
CIRCLE
  5
357
330
1F
100
AcDbEntity
  8
0
  6
Continuous
 62
     7
370
    15
100
AcDbCircle
 10
266.7158704708
 20
146.461023262
 30
0.0
 40
2.499999999999943
  0
LINE
  5
358
330
1F
100
AcDbEntity
  8
0
  6
Continuous
 62
     7
370
    15
100
AcDbLine
 10
274.2021901561
 20
146.7010231759
 30
0.0
 11
274.5381904794
 21
146.7010231759
 31
0.0
  0
LINE
  5
359
330
1F
100
AcDbEntity
  8
0
  6
Continuous
 62
     7
370
    15
100
AcDbLine
 10
273.5221905662
 20
146.2210232462
 30
0.0
 11
273.1821907712
 21
146.2210232462
 31
0.0
  0
ARC
  5
35A
330
1F
100
AcDbEntity
  8
0
  6
Continuous
 62
     7
370
    15
100
AcDbCircle
 10
273.8621895642
 20
134.2717487124
 30
0.0
 40
11.95411068467232
100
AcDbArc
 50
88.3701679713
 51
91.6298320287
  0
LINE
  5
35B
330
1F
100
AcDbEntity
  8
0
  6
Continuous
 62
     7
370
    15
100
AcDbLine
 10
274.5381904794
 20
146.2210232462
 30
0.0
 11
274.2021901561
 21
146.2210232462
 31
0.0
  0
ARC
  5
35C
330
1F
100
AcDbEntity
  8
0
  6
Continuous
 62
     7
370
    15
100
AcDbCircle
 10
266.7158704708
 20
146.461023262
 30
0.0
 40
7.826000000000041
100
AcDbArc
 50
211.7573656254
 51
358.2426343748
  0
LINE
  5
35D
330
1F
100
AcDbEntity
  8
0
  6
Continuous
 62
     7
370
    15
100
AcDbLine
 10
260.0615439965
 20
150.5800290103
 30
0.0
 11
260.3525279118
 21
150.4120288487
 31
0.0
  0
ARC
  5
35E
330
1F
100
AcDbEntity
  8
0
  6
Continuous
 62
     7
370
    15
100
AcDbCircle
 10
266.7158704708
 20
146.461023262
 30
0.0
 40
7.826000000000004
100
AcDbArc
 50
1.7573656254
 51
148.2426343748
  0
ARC
  5
35F
330
1F
100
AcDbEntity
  8
0
  6
Continuous
 62
     7
370
    15
100
AcDbCircle
 10
273.8621895642
 20
158.7421134449
 30
0.0
 40
12.04588945631947
100
AcDbArc
 50
268.3825891281
 51
271.6174108719
  0
LINE
  5
360
330
1F
100
AcDbEntity
  8
0
  6
Continuous
 62
     7
370
    15
100
AcDbLine
 10
273.1821907712
 20
146.7010231759
 30
0.0
 11
273.5221905662
 21
146.7010231759
 31
0.0
  0
LINE
  5
361
330
1F
100
AcDbEntity
  8
0
  6
Continuous
 62
     7
370
    15
100
AcDbLine
 10
273.1821907712
 20
146.2210232462
 30
0.0
 11
273.1821907712
 21
146.7010231759
 31
0.0
  0
LINE
  5
362
330
1F
100
AcDbEntity
  8
0
  6
Continuous
 62
     7
370
    15
100
AcDbLine
 10
260.3525279118
 20
142.5100175734
 30
0.0
 11
260.0615439965
 21
142.342017598
 31
0.0
  0
ARC
  5
363
330
1F
100
AcDbEntity
  8
0
  6
Continuous
 62
     7
370
    15
100
AcDbCircle
 10
266.6675216837
 20
132.2521276306
 30
0.0
 40
12.04588945631949
100
AcDbArc
 50
118.3825891281
 51
121.6174108719
  0
LINE
  5
364
330
1F
100
AcDbEntity
  8
0
  6
Continuous
 62
     7
370
    15
100
AcDbLine
 10
261.2358732177
 20
143.0200176383
 30
0.0
 11
260.9414247824
 21
142.8500176477
 31
0.0
  0
LINE
  5
365
330
1F
100
AcDbEntity
  8
0
  6
Continuous
 62
     7
370
    15
100
AcDbLine
 10
260.9958736254
 20
143.4357097908
 30
0.0
 11
261.2358732177
 21
143.0200176383
 31
0.0
  0
LINE
  5
366
330
1F
100
AcDbEntity
  8
0
  6
Continuous
 62
     7
370
    15
100
AcDbLine
 10
260.7014251901
 20
143.2657098002
 30
0.0
 11
260.9958736254
 21
143.4357097908
 31
0.0
  0
ARC
  5
367
330
1F
100
AcDbEntity
  8
0
  6
Continuous
 62
     7
370
    15
100
AcDbCircle
 10
254.4323393175
 20
153.4440851289
 30
0.0
 40
11.95411068467235
100
AcDbArc
 50
298.3701679713
 51
301.6298320287
  0
LINE
  5
368
330
1F
100
AcDbEntity
  8
0
  6
Continuous
 62
     7
370
    15
100
AcDbLine
 10
259.821542914
 20
142.757709797
 30
0.0
 11
260.1125283195
 21
142.9257097724
 31
0.0
  0
ARC
  5
369
330
1F
100
AcDbEntity
  8
0
  6
Continuous
 62
     7
370
    15
100
AcDbCircle
 10
266.7158704708
 20
146.461023262
 30
0.0
 40
7.826000000000031
100
AcDbArc
 50
181.7573656254
 51
208.2426343748
  0
LINE
  5
36A
330
1F
100
AcDbEntity
  8
0
  6
Continuous
 62
     7
370
    15
100
AcDbLine
 10
259.2295510723
 20
146.2210232462
 30
0.0
 11
258.893550749
 21
146.2210232462
 31
0.0
  0
ARC
  5
36B
330
1F
100
AcDbEntity
  8
0
  6
Continuous
 62
     7
370
    15
100
AcDbCircle
 10
259.5695513773
 20
134.179933079
 30
0.0
 40
12.04588945631947
100
AcDbArc
 50
88.3825891281
 51
91.6174108719
  0
LINE
  5
36C
330
1F
100
AcDbEntity
  8
0
  6
Continuous
 62
     7
370
    15
100
AcDbLine
 10
260.2495519472
 20
146.2210232462
 30
0.0
 11
259.9095506622
 21
146.2210232462
 31
0.0
  0
LINE
  5
36D
330
1F
100
AcDbEntity
  8
0
  6
Continuous
 62
     7
370
    15
100
AcDbLine
 10
260.2495519472
 20
146.7010231759
 30
0.0
 11
260.2495519472
 21
146.2210232462
 31
0.0
  0
LINE
  5
36E
330
1F
100
AcDbEntity
  8
0
  6
Continuous
 62
     7
370
    15
100
AcDbLine
 10
259.9095506622
 20
146.7010231759
 30
0.0
 11
260.2495519472
 21
146.7010231759
 31
0.0
  0
ARC
  5
36F
330
1F
100
AcDbEntity
  8
0
  6
Continuous
 62
     7
370
    15
100
AcDbCircle
 10
259.5695513773
 20
158.6502978115
 30
0.0
 40
11.95411068467235
100
AcDbArc
 50
268.3701679713
 51
271.6298320287
  0
LINE
  5
370
330
1F
100
AcDbEntity
  8
0
  6
Continuous
 62
     7
370
    15
100
AcDbLine
 10
258.893550749
 20
146.7010231759
 30
0.0
 11
259.2295510723
 21
146.7010231759
 31
0.0
  0
ARC
  5
371
330
1F
100
AcDbEntity
  8
0
  6
Continuous
 62
     7
370
    15
100
AcDbCircle
 10
266.7158704708
 20
146.461023262
 30
0.0
 40
7.826000000000023
100
AcDbArc
 50
151.7573656254
 51
178.2426343748
  0
LINE
  5
372
330
1F
100
AcDbEntity
  8
0
  6
Continuous
 62
     7
370
    15
100
AcDbLine
 10
260.1125283195
 20
149.9963367428
 30
0.0
 11
259.821542914
 21
150.1643365319
 31
0.0
  0
ARC
  5
373
330
1F
100
AcDbEntity
  8
0
  6
Continuous
 62
     7
370
    15
100
AcDbCircle
 10
254.3864315008
 20
139.3984467241
 30
0.0
 40
12.04588945631944
100
AcDbArc
 50
58.3825891281
 51
61.6174108719
  0
LINE
  5
374
330
1F
100
AcDbEntity
  8
0
  6
Continuous
 62
     7
370
    15
100
AcDbLine
 10
260.9958736254
 20
149.4863366778
 30
0.0
 11
260.7014251901
 21
149.6563365753
 31
0.0
  0
LINE
  5
375
330
1F
100
AcDbEntity
  8
0
  6
Continuous
 62
     7
370
    15
100
AcDbLine
 10
261.2358732177
 20
149.9020287837
 30
0.0
 11
260.9958736254
 21
149.4863366778
 31
0.0
  0
LINE
  5
376
330
1F
100
AcDbEntity
  8
0
  6
Continuous
 62
     7
370
    15
100
AcDbLine
 10
260.9414247824
 20
150.0720290537
 30
0.0
 11
261.2358732177
 21
149.9020287837
 31
0.0
  0
ARC
  5
377
330
1F
100
AcDbEntity
  8
0
  6
Continuous
 62
     7
370
    15
100
AcDbCircle
 10
266.6216138671
 20
160.5904042223
 30
0.0
 40
11.95411068467234
100
AcDbArc
 50
238.3701679713
 51
241.6298320287
  0
CIRCLE
  5
378
330
1F
100
AcDbEntity
  8
0
  6
Continuous
 62
     7
370
    15
100
AcDbCircle
 10
281.0696540777
 20
130.349473046
 30
0.0
 40
2.5
  0
LINE
  5
379
330
1F
100
AcDbEntity
  8
0
  6
Continuous
 62
     7
370
    15
100
AcDbLine
 10
288.2298124982
 20
130.5894730683
 30
0.0
 11
288.5658128215
 21
130.5894730683
 31
0.0
  0
ARC
  5
37A
330
1F
100
AcDbEntity
  8
0
  6
Continuous
 62
     7
370
    15
100
AcDbCircle
 10
287.8898130942
 20
142.630563229
 30
0.0
 40
12.04588945631947
100
AcDbArc
 50
268.3825891281
 51
271.6174108719
  0
LINE
  5
37B
330
1F
100
AcDbEntity
  8
0
  6
Continuous
 62
     7
370
    15
100
AcDbLine
 10
287.2098131133
 20
130.5894730683
 30
0.0
 11
287.5498129083
 21
130.5894730683
 31
0.0
  0
LINE
  5
37C
330
1F
100
AcDbEntity
  8
0
  6
Continuous
 62
     7
370
    15
100
AcDbLine
 10
287.2098131133
 20
130.1094723935
 30
0.0
 11
287.2098131133
 21
130.5894730683
 31
0.0
  0
LINE
  5
37D
330
1F
100
AcDbEntity
  8
0
  6
Continuous
 62
     7
370
    15
100
AcDbLine
 10
287.5498129083
 20
130.1094723935
 30
0.0
 11
287.2098131133
 21
130.1094723935
 31
0.0
  0
ARC
  5
37E
330
1F
100
AcDbEntity
  8
0
  6
Continuous
 62
     7
370
    15
100
AcDbCircle
 10
287.8898130942
 20
118.1601984964
 30
0.0
 40
11.95411068467232
100
AcDbArc
 50
88.3701679713
 51
91.6298320287
  0
LINE
  5
37F
330
1F
100
AcDbEntity
  8
0
  6
Continuous
 62
     7
370
    15
100
AcDbLine
 10
288.5658128215
 20
130.1094723935
 30
0.0
 11
288.2298124982
 21
130.1094723935
 31
0.0
  0
ARC
  5
380
330
1F
100
AcDbEntity
  8
0
  6
Continuous
 62
     7
370
    15
100
AcDbCircle
 10
281.0696540777
 20
130.349473046
 30
0.0
 40
7.500000000000041
100
AcDbArc
 50
211.8337780001
 51
358.166222
  0
LINE
  5
381
330
1F
100
AcDbEntity
  8
0
  6
Continuous
 62
     7
370
    15
100
AcDbLine
 10
274.9887747718
 20
126.5615476365
 30
0.0
 11
274.6977908565
 21
126.3935474749
 31
0.0
  0
ARC
  5
382
330
1F
100
AcDbEntity
  8
0
  6
Continuous
 62
     7
370
    15
100
AcDbCircle
 10
281.3037682031
 20
116.3036574532
 30
0.0
 40
12.04588945631948
100
AcDbArc
 50
118.3825891281
 51
121.6174108719
  0
LINE
  5
383
330
1F
100
AcDbEntity
  8
0
  6
Continuous
 62
     7
370
    15
100
AcDbLine
 10
275.8721215679
 20
127.071547329
 30
0.0
 11
275.5776716424
 21
126.9015474315
 31
0.0
  0
LINE
  5
384
330
1F
100
AcDbEntity
  8
0
  6
Continuous
 62
     7
370
    15
100
AcDbLine
 10
275.6321204854
 20
127.4872390623
 30
0.0
 11
275.8721215679
 21
127.071547329
 31
0.0
  0
LINE
  5
385
330
1F
100
AcDbEntity
  8
0
  6
Continuous
 62
     7
370
    15
100
AcDbLine
 10
275.33767056
 20
127.3172391648
 30
0.0
 11
275.6321204854
 21
127.4872390623
 31
0.0
  0
ARC
  5
386
330
1F
100
AcDbEntity
  8
0
  6
Continuous
 62
     7
370
    15
100
AcDbCircle
 10
269.0685858368
 20
137.4956149514
 30
0.0
 40
11.95411068467231
100
AcDbArc
 50
298.3701679713
 51
301.6298320287
  0
LINE
  5
387
330
1F
100
AcDbEntity
  8
0
  6
Continuous
 62
     7
370
    15
100
AcDbLine
 10
274.4577897741
 20
126.8092392082
 30
0.0
 11
274.7487736894
 21
126.9772393699
 31
0.0
  0
ARC
  5
388
330
1F
100
AcDbEntity
  8
0
  6
Continuous
 62
     7
370
    15
100
AcDbCircle
 10
281.0696540777
 20
130.349473046
 30
0.0
 40
7.50000000000002
100
AcDbArc
 50
181.8337780001
 51
208.166222
  0
LINE
  5
389
330
1F
100
AcDbEntity
  8
0
  6
Continuous
 62
     7
370
    15
100
AcDbLine
 10
273.9094955875
 20
130.1094723935
 30
0.0
 11
273.5734952642
 21
130.1094723935
 31
0.0
  0
ARC
  5
38A
330
1F
100
AcDbEntity
  8
0
  6
Continuous
 62
     7
370
    15
100
AcDbCircle
 10
274.2494950613
 20
118.068382863
 30
0.0
 40
12.04588945631948
100
AcDbArc
 50
88.3825891281
 51
91.6174108719
  0
LINE
  5
38B
330
1F
100
AcDbEntity
  8
0
  6
Continuous
 62
     7
370
    15
100
AcDbLine
 10
274.9294949724
 20
130.1094723935
 30
0.0
 11
274.5894951774
 21
130.1094723935
 31
0.0
  0
LINE
  5
38C
330
1F
100
AcDbEntity
  8
0
  6
Continuous
 62
     7
370
    15
100
AcDbLine
 10
274.9294949724
 20
130.5894730683
 30
0.0
 11
274.9294949724
 21
130.1094723935
 31
0.0
  0
LINE
  5
38D
330
1F
100
AcDbEntity
  8
0
  6
Continuous
 62
     7
370
    15
100
AcDbLine
 10
274.5894951774
 20
130.5894730683
 30
0.0
 11
274.9294949724
 21
130.5894730683
 31
0.0
  0
LINE
  5
38E
330
1F
100
AcDbEntity
  8
0
  6
Continuous
 62
     7
370
    15
100
AcDbLine
 10
273.5734952642
 20
130.5894730683
 30
0.0
 11
273.9094955875
 21
130.5894730683
 31
0.0
  0
ARC
  5
38F
330
1F
100
AcDbEntity
  8
0
  6
Continuous
 62
     7
370
    15
100
AcDbCircle
 10
269.0226780202
 20
123.1238164696
 30
0.0
 40
12.04588945631947
100
AcDbArc
 50
58.3825891281
 51
61.6174108719
  0
LINE
  5
390
330
1F
100
AcDbEntity
  8
0
  6
Continuous
 62
     7
370
    15
100
AcDbLine
 10
275.6321204854
 20
133.2117063995
 30
0.0
 11
275.33767056
 21
133.3817062969
 31
0.0
  0
LINE
  5
391
330
1F
100
AcDbEntity
  8
0
  6
Continuous
 62
     7
370
    15
100
AcDbLine
 10
275.5776716424
 20
133.7973987754
 30
0.0
 11
275.8721215679
 21
133.6273988779
 31
0.0
  0
ARC
  5
392
330
1F
100
AcDbEntity
  8
0
  6
Continuous
 62
     7
370
    15
100
AcDbCircle
 10
281.0696540777
 20
130.349473046
 30
0.0
 40
7.499999999999985
100
AcDbArc
 50
1.8337780001
 51
148.166222
  0
ARC
  5
393
330
1F
100
AcDbEntity
  8
0
  6
Continuous
 62
     7
370
    15
100
AcDbCircle
 10
274.2494950613
 20
142.5387475956
 30
0.0
 40
11.95411068467235
100
AcDbArc
 50
268.3701679713
 51
271.6298320287
  0
LINE
  5
394
330
1F
100
AcDbEntity
  8
0
  6
Continuous
 62
     7
370
    15
100
AcDbLine
 10
274.7487736894
 20
133.7217060919
 30
0.0
 11
274.4577897741
 21
133.8897062535
 31
0.0
  0
ARC
  5
395
330
1F
100
AcDbEntity
  8
0
  6
Continuous
 62
     7
370
    15
100
AcDbCircle
 10
281.2578603864
 20
144.3157739679
 30
0.0
 40
11.95411068467236
100
AcDbArc
 50
238.3701679713
 51
241.6298320287
  0
LINE
  5
396
330
1F
100
AcDbEntity
  8
0
  6
Continuous
 62
     7
370
    15
100
AcDbLine
 10
274.6977908565
 20
134.305398732
 30
0.0
 11
274.9887747718
 21
134.1373985703
 31
0.0
  0
ARC
  5
397
330
1F
100
AcDbEntity
  8
0
  6
Continuous
 62
     7
370
    15
100
AcDbCircle
 10
281.0696540777
 20
130.349473046
 30
0.0
 40
7.499999999999996
100
AcDbArc
 50
151.8337780001
 51
178.166222
  0
LINE
  5
398
330
1F
100
AcDbEntity
  8
0
  6
Continuous
 62
     7
370
    15
100
AcDbLine
 10
275.8721215679
 20
133.6273988779
 30
0.0
 11
275.6321204854
 21
133.2117063995
 31
0.0
  0
ARC
  5
399
330
1F
100
AcDbEntity
  8
0
  6
Continuous
 62
     7
370
    15
100
AcDbCircle
 10
264.0789596075
 20
162.0584063436
 30
0.0
 40
11.95411068467236
100
AcDbArc
 50
238.3701679713
 51
241.6298320287
  0
LINE
  5
39A
330
1F
100
AcDbEntity
  8
0
  6
Continuous
 62
     7
370
    15
100
AcDbLine
 10
257.5188888265
 20
152.0480310614
 30
0.0
 11
257.8098742319
 21
151.8800308998
 31
0.0
  0
ARC
  5
39B
330
1F
100
AcDbEntity
  8
0
  6
Continuous
 62
     7
370
    15
100
AcDbCircle
 10
266.7158704708
 20
146.461023262
 30
0.0
 40
10.761
100
AcDbArc
 50
1.2779599783
 51
148.7220400219
  0
LINE
  5
39C
330
1F
100
AcDbEntity
  8
0
  6
Continuous
 62
     7
370
    15
100
AcDbLine
 10
277.4741930915
 20
146.2210232462
 30
0.0
 11
277.1381927682
 21
146.2210232462
 31
0.0
  0
ARC
  5
39D
330
1F
100
AcDbEntity
  8
0
  6
Continuous
 62
     7
370
    15
100
AcDbCircle
 10
266.7158704708
 20
146.461023262
 30
0.0
 40
10.76100000000003
100
AcDbArc
 50
211.2779599783
 51
358.7220400219
  0
LINE
  5
39E
330
1F
100
AcDbEntity
  8
0
  6
Continuous
 62
     7
370
    15
100
AcDbLine
 10
257.8098742319
 20
141.0420155223
 30
0.0
 11
257.5188888265
 21
140.8740155469
 31
0.0
  0
ARC
  5
39F
330
1F
100
AcDbEntity
  8
0
  6
Continuous
 62
     7
370
    15
100
AcDbCircle
 10
264.1248674242
 20
130.7841255094
 30
0.0
 40
12.04588945631952
100
AcDbArc
 50
118.3825891281
 51
121.6174108719
  0
CIRCLE
  5
3A0
330
1F
100
AcDbEntity
  8
0
  6
Continuous
 62
     7
370
    15
100
AcDbCircle
 10
266.7158704708
 20
146.461023262
 30
0.0
 40
7.826000000000022
  0
LINE
  5
3A1
330
1F
100
AcDbEntity
  8
0
  6
Continuous
 62
     7
370
    15
100
AcDbLine
 10
277.1381927682
 20
146.7010231759
 30
0.0
 11
277.4741930915
 21
146.7010231759
 31
0.0
  0
ARC
  5
3A2
330
1F
100
AcDbEntity
  8
0
  6
Continuous
 62
     7
370
    15
100
AcDbCircle
 10
276.7981938067
 20
158.7421134449
 30
0.0
 40
12.04588945631946
100
AcDbArc
 50
268.3825891281
 51
271.6174108719
  0
LINE
  5
3A3
330
1F
100
AcDbEntity
  8
0
  6
Continuous
 62
     7
370
    15
100
AcDbLine
 10
276.1181933833
 20
146.7010231759
 30
0.0
 11
276.4581931783
 21
146.7010231759
 31
0.0
  0
LINE
  5
3A4
330
1F
100
AcDbEntity
  8
0
  6
Continuous
 62
     7
370
    15
100
AcDbLine
 10
276.1181933833
 20
146.2210232462
 30
0.0
 11
276.1181933833
 21
146.7010231759
 31
0.0
  0
LINE
  5
3A5
330
1F
100
AcDbEntity
  8
0
  6
Continuous
 62
     7
370
    15
100
AcDbLine
 10
276.4581931783
 20
146.2210232462
 30
0.0
 11
276.1181933833
 21
146.2210232462
 31
0.0
  0
ARC
  5
3A6
330
1F
100
AcDbEntity
  8
0
  6
Continuous
 62
     7
370
    15
100
AcDbCircle
 10
276.7981938067
 20
134.2717487124
 30
0.0
 40
11.95411068467229
100
AcDbArc
 50
88.3701679713
 51
91.6298320287
  0
LINE
  5
3A7
330
1F
100
AcDbEntity
  8
0
  6
Continuous
 62
     7
370
    15
100
AcDbLine
 10
255.9575466467
 20
146.7010231759
 30
0.0
 11
256.29354697
 21
146.7010231759
 31
0.0
  0
ARC
  5
3A8
330
1F
100
AcDbEntity
  8
0
  6
Continuous
 62
     7
370
    15
100
AcDbCircle
 10
266.7158704708
 20
146.461023262
 30
0.0
 40
10.76100000000002
100
AcDbArc
 50
151.2779599783
 51
178.7220400219
  0
LINE
  5
3A9
330
1F
100
AcDbEntity
  8
0
  6
Continuous
 62
     7
370
    15
100
AcDbLine
 10
257.5698731495
 20
151.4643391664
 30
0.0
 11
257.2788892342
 21
151.632338583
 31
0.0
  0
ARC
  5
3AA
330
1F
100
AcDbEntity
  8
0
  6
Continuous
 62
     7
370
    15
100
AcDbCircle
 10
251.8437772412
 20
140.8664488453
 30
0.0
 40
12.04588945631947
100
AcDbArc
 50
58.3825891281
 51
61.6174108719
  0
LINE
  5
3AB
330
1F
100
AcDbEntity
  8
0
  6
Continuous
 62
     7
370
    15
100
AcDbLine
 10
258.6932195379
 20
141.5520155872
 30
0.0
 11
258.3987711026
 21
141.3820155035
 31
0.0
  0
LINE
  5
3AC
330
1F
100
AcDbEntity
  8
0
  6
Continuous
 62
     7
370
    15
100
AcDbLine
 10
258.4532199456
 20
141.9677076931
 30
0.0
 11
258.6932195379
 21
141.5520155872
 31
0.0
  0
LINE
  5
3AD
330
1F
100
AcDbEntity
  8
0
  6
Continuous
 62
     7
370
    15
100
AcDbLine
 10
258.1587715103
 20
141.7977076094
 30
0.0
 11
258.4532199456
 21
141.9677076931
 31
0.0
  0
ARC
  5
3AE
330
1F
100
AcDbEntity
  8
0
  6
Continuous
 62
     7
370
    15
100
AcDbCircle
 10
251.8896850579
 20
151.9760830076
 30
0.0
 40
11.95411068467232
100
AcDbArc
 50
298.3701679713
 51
301.6298320287
  0
LINE
  5
3AF
330
1F
100
AcDbEntity
  8
0
  6
Continuous
 62
     7
370
    15
100
AcDbLine
 10
257.2788892342
 20
141.2897076528
 30
0.0
 11
257.5698731495
 21
141.4577076281
 31
0.0
  0
ARC
  5
3B0
330
1F
100
AcDbEntity
  8
0
  6
Continuous
 62
     7
370
    15
100
AcDbCircle
 10
266.7158704708
 20
146.461023262
 30
0.0
 40
10.76100000000004
100
AcDbArc
 50
181.2779599783
 51
208.7220400219
  0
LINE
  5
3B1
330
1F
100
AcDbEntity
  8
0
  6
Continuous
 62
     7
370
    15
100
AcDbLine
 10
256.29354697
 20
146.2210232462
 30
0.0
 11
255.9575466467
 21
146.2210232462
 31
0.0
  0
ARC
  5
3B2
330
1F
100
AcDbEntity
  8
0
  6
Continuous
 62
     7
370
    15
100
AcDbCircle
 10
256.6335471348
 20
134.179933079
 30
0.0
 40
12.04588945631947
100
AcDbArc
 50
88.3825891281
 51
91.6174108719
  0
LINE
  5
3B3
330
1F
100
AcDbEntity
  8
0
  6
Continuous
 62
     7
370
    15
100
AcDbLine
 10
257.313547845
 20
146.2210232462
 30
0.0
 11
256.9735465599
 21
146.2210232462
 31
0.0
  0
LINE
  5
3B4
330
1F
100
AcDbEntity
  8
0
  6
Continuous
 62
     7
370
    15
100
AcDbLine
 10
257.313547845
 20
146.7010231759
 30
0.0
 11
257.313547845
 21
146.2210232462
 31
0.0
  0
LINE
  5
3B5
330
1F
100
AcDbEntity
  8
0
  6
Continuous
 62
     7
370
    15
100
AcDbLine
 10
256.9735465599
 20
146.7010231759
 30
0.0
 11
257.313547845
 21
146.7010231759
 31
0.0
  0
ARC
  5
3B6
330
1F
100
AcDbEntity
  8
0
  6
Continuous
 62
     7
370
    15
100
AcDbCircle
 10
256.6335471348
 20
158.6502978115
 30
0.0
 40
11.95411068467232
100
AcDbArc
 50
268.3701679713
 51
271.6298320287
  0
LINE
  5
3B7
330
1F
100
AcDbEntity
  8
0
  6
Continuous
 62
     7
370
    15
100
AcDbLine
 10
258.4532199456
 20
150.9543387289
 30
0.0
 11
258.1587715103
 21
151.1243386264
 31
0.0
  0
LINE
  5
3B8
330
1F
100
AcDbEntity
  8
0
  6
Continuous
 62
     7
370
    15
100
AcDbLine
 10
258.6932195379
 20
151.3700312073
 30
0.0
 11
258.4532199456
 21
150.9543387289
 31
0.0
  0
LINE
  5
3B9
330
1F
100
AcDbEntity
  8
0
  6
Continuous
 62
     7
370
    15
100
AcDbLine
 10
258.3987711026
 20
151.5400311048
 30
0.0
 11
258.6932195379
 21
151.3700312073
 31
0.0
  0
CIRCLE
  5
3BA
330
1F
100
AcDbEntity
  8
0
  6
Continuous
 62
     7
370
    15
100
AcDbCircle
 10
264.5870040061
 20
117.5760406267
 30
0.0
 40
7.173999999999921
  0
LINE
  5
3BB
330
1F
100
AcDbEntity
  8
0
  6
Continuous
 62
     7
370
    15
100
AcDbLine
 10
274.3566555931
 20
117.8160412307
 30
0.0
 11
274.6926559163
 21
117.8160412307
 31
0.0
  0
ARC
  5
3BC
330
1F
100
AcDbEntity
  8
0
  6
Continuous
 62
     7
370
    15
100
AcDbCircle
 10
274.0166545171
 20
129.8571308097
 30
0.0
 40
12.04588945631948
100
AcDbArc
 50
268.3825891281
 51
271.6174108719
  0
LINE
  5
3BD
330
1F
100
AcDbEntity
  8
0
  6
Continuous
 62
     7
370
    15
100
AcDbLine
 10
273.3366532279
 20
117.8160412307
 30
0.0
 11
273.6766560031
 21
117.8160412307
 31
0.0
  0
LINE
  5
3BE
330
1F
100
AcDbEntity
  8
0
  6
Continuous
 62
     7
370
    15
100
AcDbLine
 10
273.3366532279
 20
117.3360420461
 30
0.0
 11
273.3366532279
 21
117.8160412307
 31
0.0
  0
LINE
  5
3BF
330
1F
100
AcDbEntity
  8
0
  6
Continuous
 62
     7
370
    15
100
AcDbLine
 10
273.6766560031
 20
117.3360420461
 30
0.0
 11
273.3366532279
 21
117.3360420461
 31
0.0
  0
ARC
  5
3C0
330
1F
100
AcDbEntity
  8
0
  6
Continuous
 62
     7
370
    15
100
AcDbCircle
 10
274.0166545171
 20
105.3867660771
 30
0.0
 40
11.95411068467231
100
AcDbArc
 50
88.3701679713
 51
91.6298320287
  0
LINE
  5
3C1
330
1F
100
AcDbEntity
  8
0
  6
Continuous
 62
     7
370
    15
100
AcDbLine
 10
274.6926559163
 20
117.3360420461
 30
0.0
 11
274.3566555931
 21
117.3360420461
 31
0.0
  0
ARC
  5
3C2
330
1F
100
AcDbEntity
  8
0
  6
Continuous
 62
     7
370
    15
100
AcDbCircle
 10
264.5870040061
 20
117.5760406267
 30
0.0
 40
10.10850000000003
100
AcDbArc
 50
211.3604668665
 51
358.6395331337
  0
LINE
  5
3C3
330
1F
100
AcDbEntity
  8
0
  6
Continuous
 62
     7
370
    15
100
AcDbLine
 10
256.2462387635
 20
112.4833686347
 30
0.0
 11
255.955253358
 21
112.3153699632
 31
0.0
  0
ARC
  5
3C4
330
1F
100
AcDbEntity
  8
0
  6
Continuous
 62
     7
370
    15
100
AcDbCircle
 10
262.5612322063
 20
102.2254792866
 30
0.0
 40
12.04588945631951
100
AcDbArc
 50
118.3825891281
 51
121.6174108719
  0
LINE
  5
3C5
330
1F
100
AcDbEntity
  8
0
  6
Continuous
 62
     7
370
    15
100
AcDbLine
 10
257.1295840694
 20
112.9933698173
 30
0.0
 11
256.8351356341
 21
112.8233684297
 31
0.0
  0
LINE
  5
3C6
330
1F
100
AcDbEntity
  8
0
  6
Continuous
 62
     7
370
    15
100
AcDbLine
 10
256.8895844771
 20
113.4090615506
 30
0.0
 11
257.1295840694
 21
112.9933698173
 31
0.0
  0
LINE
  5
3C7
330
1F
100
AcDbEntity
  8
0
  6
Continuous
 62
     7
370
    15
100
AcDbLine
 10
256.5951360418
 20
113.239060163
 30
0.0
 11
256.8895844771
 21
113.4090615506
 31
0.0
  0
ARC
  5
3C8
330
1F
100
AcDbEntity
  8
0
  6
Continuous
 62
     7
370
    15
100
AcDbCircle
 10
250.32604984
 20
123.4174367848
 30
0.0
 40
11.95411068467232
100
AcDbArc
 50
298.3701679713
 51
301.6298320287
  0
LINE
  5
3C9
330
1F
100
AcDbEntity
  8
0
  6
Continuous
 62
     7
370
    15
100
AcDbLine
 10
255.7152537657
 20
112.7310616965
 30
0.0
 11
256.0062391712
 21
112.8990603681
 31
0.0
  0
ARC
  5
3CA
330
1F
100
AcDbEntity
  8
0
  6
Continuous
 62
     7
370
    15
100
AcDbCircle
 10
264.5870040061
 20
117.5760406267
 30
0.0
 40
10.10850000000005
100
AcDbArc
 50
181.3604668665
 51
208.6395331337
  0
LINE
  5
3CB
330
1F
100
AcDbEntity
  8
0
  6
Continuous
 62
     7
370
    15
100
AcDbLine
 10
254.8173530055
 20
117.3360420461
 30
0.0
 11
254.4813541724
 21
117.3360420461
 31
0.0
  0
ARC
  5
3CC
330
1F
100
AcDbEntity
  8
0
  6
Continuous
 62
     7
370
    15
100
AcDbCircle
 10
255.1573534951
 20
105.2949504437
 30
0.0
 40
12.04588945631947
100
AcDbArc
 50
88.3825891281
 51
91.6174108719
  0
LINE
  5
3CD
330
1F
100
AcDbEntity
  8
0
  6
Continuous
 62
     7
370
    15
100
AcDbLine
 10
255.8373538805
 20
117.3360420461
 30
0.0
 11
255.4973540856
 21
117.3360420461
 31
0.0
  0
LINE
  5
3CE
330
1F
100
AcDbEntity
  8
0
  6
Continuous
 62
     7
370
    15
100
AcDbLine
 10
255.8373538805
 20
117.8160412307
 30
0.0
 11
255.8373538805
 21
117.3360420461
 31
0.0
  0
LINE
  5
3CF
330
1F
100
AcDbEntity
  8
0
  6
Continuous
 62
     7
370
    15
100
AcDbLine
 10
255.4973540856
 20
117.8160412307
 30
0.0
 11
255.8373538805
 21
117.8160412307
 31
0.0
  0
ARC
  5
3D0
330
1F
100
AcDbEntity
  8
0
  6
Continuous
 62
     7
370
    15
100
AcDbCircle
 10
255.1573534951
 20
129.7653151763
 30
0.0
 40
11.95411068467235
100
AcDbArc
 50
268.3701679713
 51
271.6298320287
  0
LINE
  5
3D1
330
1F
100
AcDbEntity
  8
0
  6
Continuous
 62
     7
370
    15
100
AcDbLine
 10
254.4813541724
 20
117.8160412307
 30
0.0
 11
254.8173530055
 21
117.8160412307
 31
0.0
  0
LINE
  5
3D2
330
1F
100
AcDbEntity
  8
0
  6
Continuous
 62
     7
370
    15
100
AcDbLine
 10
256.0062391712
 20
122.2530199285
 30
0.0
 11
255.7152537657
 21
122.4210200901
 31
0.0
  0
ARC
  5
3D3
330
1F
100
AcDbEntity
  8
0
  6
Continuous
 62
     7
370
    15
100
AcDbCircle
 10
250.2801420233
 20
111.6551297976
 30
0.0
 40
12.04588945631948
100
AcDbArc
 50
58.3825891281
 51
61.6174108719
  0
LINE
  5
3D4
330
1F
100
AcDbEntity
  8
0
  6
Continuous
 62
     7
370
    15
100
AcDbLine
 10
256.8895844771
 20
121.743020236
 30
0.0
 11
256.5951360418
 21
121.9130201335
 31
0.0
  0
LINE
  5
3D5
330
1F
100
AcDbEntity
  8
0
  6
Continuous
 62
     7
370
    15
100
AcDbLine
 10
257.1295840694
 20
122.1587119694
 30
0.0
 11
256.8895844771
 21
121.743020236
 31
0.0
  0
LINE
  5
3D6
330
1F
100
AcDbEntity
  8
0
  6
Continuous
 62
     7
370
    15
100
AcDbLine
 10
256.8351356341
 20
122.3287118669
 30
0.0
 11
257.1295840694
 21
122.1587119694
 31
0.0
  0
ARC
  5
3D7
330
1F
100
AcDbEntity
  8
0
  6
Continuous
 62
     7
370
    15
100
AcDbCircle
 10
262.5153243896
 20
132.8470872958
 30
0.0
 40
11.9541106846723
100
AcDbArc
 50
238.3701679713
 51
241.6298320287
  0
LINE
  5
3D8
330
1F
100
AcDbEntity
  8
0
  6
Continuous
 62
     7
370
    15
100
AcDbLine
 10
255.955253358
 20
122.8367118235
 30
0.0
 11
256.2462387635
 21
122.6687116618
 31
0.0
  0
ARC
  5
3D9
330
1F
100
AcDbEntity
  8
0
  6
Continuous
 62
     7
370
    15
100
AcDbCircle
 10
264.5870040061
 20
117.5760406267
 30
0.0
 40
10.10850000000006
100
AcDbArc
 50
1.3604668665
 51
148.6395331337
  0
ARC
  5
3DA
330
1F
100
AcDbEntity
  8
0
  6
Continuous
 62
     7
370
    15
100
AcDbCircle
 10
264.5870040061
 20
117.5760406267
 30
0.0
 40
10.10850000000006
100
AcDbArc
 50
151.3604668665
 51
178.6395331337
  0
ARC
  5
3DB
330
1F
100
AcDbEntity
  8
0
  6
Continuous
 62
     7
370
    15
100
AcDbCircle
 10
249.1120976601
 20
132.6845802769
 30
0.0
 40
11.41300000000002
100
AcDbArc
 50
1.2049417982
 51
148.7950582019
  0
CIRCLE
  5
3DC
330
1F
100
AcDbEntity
  8
0
  6
Continuous
 62
     7
370
    15
100
AcDbCircle
 10
249.1120976601
 20
132.6845802769
 30
0.0
 40
8.478499999999968
  0
ARC
  5
3DD
330
1F
100
AcDbEntity
  8
0
  6
Continuous
 62
     7
370
    15
100
AcDbCircle
 10
259.8465739429
 20
144.9656704599
 30
0.0
 40
12.04588945631947
100
AcDbArc
 50
268.3825891281
 51
271.6174108719
  0
LINE
  5
3DE
330
1F
100
AcDbEntity
  8
0
  6
Continuous
 62
     7
370
    15
100
AcDbLine
 10
259.1665742947
 20
132.4445804651
 30
0.0
 11
259.1665742947
 21
132.9245803948
 31
0.0
  0
LINE
  5
3DF
330
1F
100
AcDbEntity
  8
0
  6
Continuous
 62
     7
370
    15
100
AcDbLine
 10
259.5065740897
 20
132.4445804651
 30
0.0
 11
259.1665742947
 21
132.4445804651
 31
0.0
  0
LINE
  5
3E0
330
1F
100
AcDbEntity
  8
0
  6
Continuous
 62
     7
370
    15
100
AcDbLine
 10
260.5225740029
 20
132.4445804651
 30
0.0
 11
260.1865736796
 21
132.4445804651
 31
0.0
  0
ARC
  5
3E1
330
1F
100
AcDbEntity
  8
0
  6
Continuous
 62
     7
370
    15
100
AcDbCircle
 10
249.1120976601
 20
132.6845802769
 30
0.0
 40
11.41300000000001
100
AcDbArc
 50
211.2049417982
 51
358.7950582019
  0
LINE
  5
3E2
330
1F
100
AcDbEntity
  8
0
  6
Continuous
 62
     7
370
    15
100
AcDbLine
 10
239.64131987
 20
126.9394962187
 30
0.0
 11
239.3503353261
 21
126.771496057
 31
0.0
  0
ARC
  5
3E3
330
1F
100
AcDbEntity
  8
0
  6
Continuous
 62
     7
370
    15
100
AcDbCircle
 10
245.9563135944
 20
116.6816060509
 30
0.0
 40
12.04588945631949
100
AcDbArc
 50
118.3825891281
 51
121.6174108719
  0
LINE
  5
3E4
330
1F
100
AcDbEntity
  8
0
  6
Continuous
 62
     7
370
    15
100
AcDbLine
 10
240.5246657348
 20
127.4494959111
 30
0.0
 11
240.2302171132
 21
127.2794960137
 31
0.0
  0
LINE
  5
3E5
330
1F
100
AcDbEntity
  8
0
  6
Continuous
 62
     7
370
    15
100
AcDbLine
 10
240.2846657699
 20
127.8651876445
 30
0.0
 11
240.5246657348
 21
127.4494959111
 31
0.0
  0
LINE
  5
3E6
330
1F
100
AcDbEntity
  8
0
  6
Continuous
 62
     7
370
    15
100
AcDbLine
 10
239.9902171483
 20
127.695187747
 30
0.0
 11
240.2846657699
 21
127.8651876445
 31
0.0
  0
ARC
  5
3E7
330
1F
100
AcDbEntity
  8
0
  6
Continuous
 62
     7
370
    15
100
AcDbCircle
 10
233.7211312281
 20
137.8735635491
 30
0.0
 40
11.95411068467231
100
AcDbArc
 50
298.3701679713
 51
301.6298320287
  0
LINE
  5
3E8
330
1F
100
AcDbEntity
  8
0
  6
Continuous
 62
     7
370
    15
100
AcDbLine
 10
239.1103353321
 20
127.1871877904
 30
0.0
 11
239.4013198586
 21
127.3551879521
 31
0.0
  0
ARC
  5
3E9
330
1F
100
AcDbEntity
  8
0
  6
Continuous
 62
     7
370
    15
100
AcDbCircle
 10
249.1120976601
 20
132.6845802769
 30
0.0
 40
11.41300000000003
100
AcDbArc
 50
181.2049417982
 51
208.7950582019
  0
LINE
  5
3EA
330
1F
100
AcDbEntity
  8
0
  6
Continuous
 62
     7
370
    15
100
AcDbLine
 10
238.037621419
 20
132.4445804651
 30
0.0
 11
237.7016213751
 21
132.4445804651
 31
0.0
  0
ARC
  5
3EB
330
1F
100
AcDbEntity
  8
0
  6
Continuous
 62
     7
370
    15
100
AcDbCircle
 10
238.3776213773
 20
120.4034900939
 30
0.0
 40
12.04588945631949
100
AcDbArc
 50
88.3825891281
 51
91.6174108719
  0
LINE
  5
3EC
330
1F
100
AcDbEntity
  8
0
  6
Continuous
 62
     7
370
    15
100
AcDbLine
 10
239.0576213772
 20
132.4445804651
 30
0.0
 11
238.7176213814
 21
132.4445804651
 31
0.0
  0
LINE
  5
3ED
330
1F
100
AcDbEntity
  8
0
  6
Continuous
 62
     7
370
    15
100
AcDbLine
 10
239.0576213772
 20
132.9245803948
 30
0.0
 11
239.0576213772
 21
132.4445804651
 31
0.0
  0
LINE
  5
3EE
330
1F
100
AcDbEntity
  8
0
  6
Continuous
 62
     7
370
    15
100
AcDbLine
 10
238.7176213814
 20
132.9245803948
 30
0.0
 11
239.0576213772
 21
132.9245803948
 31
0.0
  0
ARC
  5
3EF
330
1F
100
AcDbEntity
  8
0
  6
Continuous
 62
     7
370
    15
100
AcDbCircle
 10
238.3776213773
 20
144.8738548265
 30
0.0
 40
11.95411068467232
100
AcDbArc
 50
268.3701679713
 51
271.6298320287
  0
LINE
  5
3F0
330
1F
100
AcDbEntity
  8
0
  6
Continuous
 62
     7
370
    15
100
AcDbLine
 10
237.7016213751
 20
132.9245803948
 30
0.0
 11
238.037621419
 21
132.9245803948
 31
0.0
  0
ARC
  5
3F1
330
1F
100
AcDbEntity
  8
0
  6
Continuous
 62
     7
370
    15
100
AcDbCircle
 10
249.1120976601
 20
132.6845802769
 30
0.0
 40
11.41300000000001
100
AcDbArc
 50
151.2049417982
 51
178.7950582019
  0
LINE
  5
3F2
330
1F
100
AcDbEntity
  8
0
  6
Continuous
 62
     7
370
    15
100
AcDbLine
 10
239.4013198586
 20
138.0139721627
 30
0.0
 11
239.1103353321
 21
138.1819723244
 31
0.0
  0
ARC
  5
3F3
330
1F
100
AcDbEntity
  8
0
  6
Continuous
 62
     7
370
    15
100
AcDbCircle
 10
233.6752234114
 20
127.4160823337
 30
0.0
 40
12.04588945631949
100
AcDbArc
 50
58.3825891281
 51
61.6174108719
  0
LINE
  5
3F4
330
1F
100
AcDbEntity
  8
0
  6
Continuous
 62
     7
370
    15
100
AcDbLine
 10
240.5246657348
 20
137.9196645762
 30
0.0
 11
240.2846657699
 21
137.5039724703
 31
0.0
  0
LINE
  5
3F5
330
1F
100
AcDbEntity
  8
0
  6
Continuous
 62
     7
370
    15
100
AcDbLine
 10
240.2302171132
 20
138.0896644737
 30
0.0
 11
240.5246657348
 21
137.9196645762
 31
0.0
  0
LINE
  5
3F6
330
1F
100
AcDbEntity
  8
0
  6
Continuous
 62
     7
370
    15
100
AcDbLine
 10
239.3503353261
 20
138.5976644303
 30
0.0
 11
239.64131987
 21
138.4296646412
 31
0.0
  0
LINE
  5
3F7
330
1F
100
AcDbEntity
  8
0
  6
Continuous
 62
     7
370
    15
100
AcDbLine
 10
260.1865736796
 20
132.9245803948
 30
0.0
 11
260.5225740029
 21
132.9245803948
 31
0.0
  0
LINE
  5
3F8
330
1F
100
AcDbEntity
  8
0
  6
Continuous
 62
     7
370
    15
100
AcDbLine
 10
259.1665742947
 20
132.9245803948
 30
0.0
 11
259.5065740897
 21
132.9245803948
 31
0.0
  0
ARC
  5
3F9
330
1F
100
AcDbEntity
  8
0
  6
Continuous
 62
     7
370
    15
100
AcDbCircle
 10
259.8465739429
 20
120.4953057273
 30
0.0
 40
11.95411068467235
100
AcDbArc
 50
88.3701679713
 51
91.6298320287
  0
ARC
  5
3FA
330
1F
100
AcDbEntity
  8
0
  6
Continuous
 62
     7
370
    15
100
AcDbCircle
 10
245.9104057777
 20
148.6080398319
 30
0.0
 40
11.9541106846723
100
AcDbArc
 50
238.3701679713
 51
241.6298320287
  0
LINE
  5
3FB
330
1F
100
AcDbEntity
  8
0
  6
Continuous
 62
     7
370
    15
100
AcDbLine
 10
240.2846657699
 20
137.5039724703
 30
0.0
 11
239.9902171483
 21
137.6739723678
 31
0.0
  0
CIRCLE
  5
3FC
330
1F
100
AcDbEntity
  8
0
  6
Continuous
 62
     7
370
    15
100
AcDbCircle
 10
281.0696540777
 20
130.349473046
 30
0.0
 40
7.5
  0
LINE
  5
3FD
330
1F
100
AcDbEntity
  8
0
  6
Continuous
 62
     7
370
    15
100
AcDbLine
 10
291.1658925964
 20
130.5894730683
 30
0.0
 11
291.5018958999
 21
130.5894730683
 31
0.0
  0
ARC
  5
3FE
330
1F
100
AcDbEntity
  8
0
  6
Continuous
 62
     7
370
    15
100
AcDbCircle
 10
290.8258937701
 20
142.630563229
 30
0.0
 40
12.04588945631949
100
AcDbArc
 50
268.3825891281
 51
271.6174108719
  0
LINE
  5
3FF
330
1F
100
AcDbEntity
  8
0
  6
Continuous
 62
     7
370
    15
100
AcDbLine
 10
290.1458961917
 20
130.5894730683
 30
0.0
 11
290.4858930065
 21
130.5894730683
 31
0.0
  0
LINE
  5
400
330
1F
100
AcDbEntity
  8
0
  6
Continuous
 62
     7
370
    15
100
AcDbLine
 10
290.1458961917
 20
130.1094723935
 30
0.0
 11
290.1458961917
 21
130.5894730683
 31
0.0
  0
ARC
  5
401
330
1F
100
AcDbEntity
  8
0
  6
Continuous
 62
     7
370
    15
100
AcDbCircle
 10
290.8258937701
 20
118.1601984964
 30
0.0
 40
11.95411068467234
100
AcDbArc
 50
88.3701679713
 51
91.6298320287
  0
LINE
  5
402
330
1F
100
AcDbEntity
  8
0
  6
Continuous
 62
     7
370
    15
100
AcDbLine
 10
273.3293993427
 20
125.6035072799
 30
0.0
 11
273.0349523975
 21
125.4335073824
 31
0.0
  0
LINE
  5
403
330
1F
100
AcDbEntity
  8
0
  6
Continuous
 62
     7
370
    15
100
AcDbLine
 10
273.0894012405
 20
126.0191990132
 30
0.0
 11
273.3293993427
 21
125.6035072799
 31
0.0
  0
LINE
  5
404
330
1F
100
AcDbEntity
  8
0
  6
Continuous
 62
     7
370
    15
100
AcDbLine
 10
272.7949513151
 20
125.8491991158
 30
0.0
 11
273.0894012405
 21
126.0191990132
 31
0.0
  0
LINE
  5
405
330
1F
100
AcDbEntity
  8
0
  6
Continuous
 62
     7
370
    15
100
AcDbLine
 10
272.1550686313
 20
135.773438781
 30
0.0
 11
272.4460525466
 21
135.6054386194
 31
0.0
  0
ARC
  5
406
330
1F
100
AcDbEntity
  8
0
  6
Continuous
 62
     7
370
    15
100
AcDbCircle
 10
281.0696540777
 20
130.349473046
 30
0.0
 40
10.43500000000001
100
AcDbArc
 50
1.3178916819
 51
148.6821083182
  0
LINE
  5
407
330
1F
100
AcDbEntity
  8
0
  6
Continuous
 62
     7
370
    15
100
AcDbLine
 10
290.4858930065
 20
130.1094723935
 30
0.0
 11
290.1458961917
 21
130.1094723935
 31
0.0
  0
LINE
  5
408
330
1F
100
AcDbEntity
  8
0
  6
Continuous
 62
     7
370
    15
100
AcDbLine
 10
291.5018958999
 20
130.1094723935
 30
0.0
 11
291.1658925964
 21
130.1094723935
 31
0.0
  0
ARC
  5
409
330
1F
100
AcDbEntity
  8
0
  6
Continuous
 62
     7
370
    15
100
AcDbCircle
 10
281.0696540777
 20
130.349473046
 30
0.0
 40
10.43500000000005
100
AcDbArc
 50
211.3178916819
 51
358.6821083182
  0
LINE
  5
40A
330
1F
100
AcDbEntity
  8
0
  6
Continuous
 62
     7
370
    15
100
AcDbLine
 10
272.4460525466
 20
125.0935075874
 30
0.0
 11
272.1550686313
 21
124.9255074258
 31
0.0
  0
ARC
  5
40B
330
1F
100
AcDbEntity
  8
0
  6
Continuous
 62
     7
370
    15
100
AcDbCircle
 10
278.7610477502
 20
114.8356171152
 30
0.0
 40
12.04588945631949
100
AcDbArc
 50
118.3825891281
 51
121.6174108719
  0
ARC
  5
40C
330
1F
100
AcDbEntity
  8
0
  6
Continuous
 62
     7
370
    15
100
AcDbCircle
 10
266.5258653839
 20
136.0275746134
 30
0.0
 40
11.95411068467232
100
AcDbArc
 50
298.3701679713
 51
301.6298320287
  0
LINE
  5
40D
330
1F
100
AcDbEntity
  8
0
  6
Continuous
 62
     7
370
    15
100
AcDbLine
 10
271.9150705291
 20
125.3411991592
 30
0.0
 11
272.2060544444
 21
125.5091993208
 31
0.0
  0
ARC
  5
40E
330
1F
100
AcDbEntity
  8
0
  6
Continuous
 62
     7
370
    15
100
AcDbCircle
 10
281.0696540777
 20
130.349473046
 30
0.0
 40
10.435
100
AcDbArc
 50
181.3178916819
 51
208.6821083183
  0
LINE
  5
40F
330
1F
100
AcDbEntity
  8
0
  6
Continuous
 62
     7
370
    15
100
AcDbLine
 10
270.9734154893
 20
130.1094723935
 30
0.0
 11
270.637415166
 21
130.1094723935
 31
0.0
  0
ARC
  5
410
330
1F
100
AcDbEntity
  8
0
  6
Continuous
 62
     7
370
    15
100
AcDbCircle
 10
271.3134143853
 20
118.068382863
 30
0.0
 40
12.04588945631947
100
AcDbArc
 50
88.3825891281
 51
91.6174108719
  0
LINE
  5
411
330
1F
100
AcDbEntity
  8
0
  6
Continuous
 62
     7
370
    15
100
AcDbLine
 10
271.9934148742
 20
130.1094723935
 30
0.0
 11
271.6534150792
 21
130.1094723935
 31
0.0
  0
LINE
  5
412
330
1F
100
AcDbEntity
  8
0
  6
Continuous
 62
     7
370
    15
100
AcDbLine
 10
271.9934148742
 20
130.5894730683
 30
0.0
 11
271.9934148742
 21
130.1094723935
 31
0.0
  0
LINE
  5
413
330
1F
100
AcDbEntity
  8
0
  6
Continuous
 62
     7
370
    15
100
AcDbLine
 10
271.6534150792
 20
130.5894730683
 30
0.0
 11
271.9934148742
 21
130.5894730683
 31
0.0
  0
ARC
  5
414
330
1F
100
AcDbEntity
  8
0
  6
Continuous
 62
     7
370
    15
100
AcDbCircle
 10
271.3134143853
 20
142.5387475956
 30
0.0
 40
11.95411068467235
100
AcDbArc
 50
268.3701679713
 51
271.6298320287
  0
LINE
  5
415
330
1F
100
AcDbEntity
  8
0
  6
Continuous
 62
     7
370
    15
100
AcDbLine
 10
270.637415166
 20
130.5894730683
 30
0.0
 11
270.9734154893
 21
130.5894730683
 31
0.0
  0
ARC
  5
416
330
1F
100
AcDbEntity
  8
0
  6
Continuous
 62
     7
370
    15
100
AcDbCircle
 10
281.0696540777
 20
130.349473046
 30
0.0
 40
10.43500000000005
100
AcDbArc
 50
151.3178916819
 51
178.6821083182
  0
LINE
  5
417
330
1F
100
AcDbEntity
  8
0
  6
Continuous
 62
     7
370
    15
100
AcDbLine
 10
272.2060544444
 20
135.189746886
 30
0.0
 11
271.9150705291
 21
135.3577470477
 31
0.0
  0
ARC
  5
418
330
1F
100
AcDbEntity
  8
0
  6
Continuous
 62
     7
370
    15
100
AcDbCircle
 10
266.4799575672
 20
124.5918568076
 30
0.0
 40
12.04588945631947
100
AcDbArc
 50
58.3825891281
 51
61.6174108719
  0
LINE
  5
419
330
1F
100
AcDbEntity
  8
0
  6
Continuous
 62
     7
370
    15
100
AcDbLine
 10
273.0894012405
 20
134.6797464485
 30
0.0
 11
272.7949513151
 21
134.8497470911
 31
0.0
  0
LINE
  5
41A
330
1F
100
AcDbEntity
  8
0
  6
Continuous
 62
     7
370
    15
100
AcDbLine
 10
273.3293993427
 20
135.095438927
 30
0.0
 11
273.0894012405
 21
134.6797464485
 31
0.0
  0
LINE
  5
41B
330
1F
100
AcDbEntity
  8
0
  6
Continuous
 62
     7
370
    15
100
AcDbLine
 10
273.0349523975
 20
135.2654388244
 30
0.0
 11
273.3293993427
 21
135.095438927
 31
0.0
  0
ARC
  5
41C
330
1F
100
AcDbEntity
  8
0
  6
Continuous
 62
     7
370
    15
100
AcDbCircle
 10
278.7151399335
 20
145.7838143058
 30
0.0
 40
11.95411068467233
100
AcDbArc
 50
238.3701679713
 51
241.6298320287
  0
LINE
  5
41D
330
1F
100
AcDbEntity
  8
0
  6
Continuous
 62
     7
370
    15
100
AcDbLine
 10
248.6711440636
 20
87.2291995282
 30
0.0
 11
249.0071443869
 21
87.2291995282
 31
0.0
  0
LINE
  5
41E
330
1F
100
AcDbEntity
  8
0
  6
Continuous
 62
     7
370
    15
100
AcDbLine
 10
232.3862707271
 20
82.3856784101
 30
0.0
 11
232.0952860667
 21
82.2176827188
 31
0.0
  0
ARC
  5
41F
330
1F
100
AcDbEntity
  8
0
  6
Continuous
 62
     7
370
    15
100
AcDbCircle
 10
226.4660821254
 20
93.3197488682
 30
0.0
 40
11.95411068467232
100
AcDbArc
 50
298.3701679713
 51
301.6298320287
  0
LINE
  5
420
330
1F
100
AcDbEntity
  8
0
  6
Continuous
 62
     7
370
    15
100
AcDbLine
 10
232.7351680054
 20
83.1413758989
 30
0.0
 11
233.0296168132
 21
83.3113743062
 31
0.0
  0
ARC
  5
421
330
1F
100
AcDbEntity
  8
0
  6
Continuous
 62
     7
370
    15
100
AcDbCircle
 10
248.3311442242
 20
74.7999255009
 30
0.0
 40
11.95411068467234
100
AcDbArc
 50
88.3701679713
 51
91.6298320287
  0
ARC
  5
422
330
1F
100
AcDbEntity
  8
0
  6
Continuous
 62
     7
370
    15
100
AcDbCircle
 10
239.8797990324
 20
86.9892000505
 30
0.0
 40
9.130500000000008
100
AcDbArc
 50
211.5062232155
 51
358.4937767847
  0
LINE
  5
423
330
1F
100
AcDbEntity
  8
0
  6
Continuous
 62
     7
370
    15
100
AcDbLine
 10
232.1462711347
 20
91.177023768
 30
0.0
 11
231.8552864744
 21
91.3450254197
 31
0.0
  0
ARC
  5
424
330
1F
100
AcDbEntity
  8
0
  6
Continuous
 62
     7
370
    15
100
AcDbCircle
 10
238.7012644917
 20
72.12779137
 30
0.0
 40
12.04588945631948
100
AcDbArc
 50
118.3825891281
 51
121.6174108719
  0
LINE
  5
425
330
1F
100
AcDbEntity
  8
0
  6
Continuous
 62
     7
370
    15
100
AcDbLine
 10
233.269616778
 20
82.8956795926
 30
0.0
 11
232.9751679702
 21
82.7256811853
 31
0.0
  0
LINE
  5
426
330
1F
100
AcDbEntity
  8
0
  6
Continuous
 62
     7
370
    15
100
AcDbLine
 10
233.0296168132
 20
83.3113743062
 30
0.0
 11
233.269616778
 21
82.8956795926
 31
0.0
  0
LINE
  5
427
330
1F
100
AcDbEntity
  8
0
  6
Continuous
 62
     7
370
    15
100
AcDbLine
 10
232.9751679702
 20
91.2527216668
 30
0.0
 11
233.269616778
 21
91.082717299
 31
0.0
  0
LINE
  5
428
330
1F
100
AcDbEntity
  8
0
  6
Continuous
 62
     7
370
    15
100
AcDbLine
 10
247.9911444737
 20
86.7491973634
 30
0.0
 11
247.6511439337
 21
86.7491973634
 31
0.0
  0
LINE
  5
429
330
1F
100
AcDbEntity
  8
0
  6
Continuous
 62
     7
370
    15
100
AcDbLine
 10
231.8552864744
 20
82.6333714719
 30
0.0
 11
232.1462711347
 21
82.8013731237
 31
0.0
  0
ARC
  5
42A
330
1F
100
AcDbEntity
  8
0
  6
Continuous
 62
     7
370
    15
100
AcDbCircle
 10
239.8797990324
 20
86.9892000505
 30
0.0
 40
9.13050000000001
100
AcDbArc
 50
181.5062232155
 51
208.4937767847
  0
LINE
  5
42B
330
1F
100
AcDbEntity
  8
0
  6
Continuous
 62
     7
370
    15
100
AcDbLine
 10
231.0884540929
 20
86.7491973634
 30
0.0
 11
230.7524537696
 21
86.7491973634
 31
0.0
  0
ARC
  5
42C
330
1F
100
AcDbEntity
  8
0
  6
Continuous
 62
     7
370
    15
100
AcDbCircle
 10
231.4284538406
 20
74.7081098675
 30
0.0
 40
12.04588945631948
100
AcDbArc
 50
88.3825891281
 51
91.6174108719
  0
LINE
  5
42D
330
1F
100
AcDbEntity
  8
0
  6
Continuous
 62
     7
370
    15
100
AcDbLine
 10
232.1084534778
 20
86.7491973634
 30
0.0
 11
231.7684536828
 21
86.7491973634
 31
0.0
  0
LINE
  5
42E
330
1F
100
AcDbEntity
  8
0
  6
Continuous
 62
     7
370
    15
100
AcDbLine
 10
232.1084534778
 20
87.2291995282
 30
0.0
 11
232.1084534778
 21
86.7491973634
 31
0.0
  0
LINE
  5
42F
330
1F
100
AcDbEntity
  8
0
  6
Continuous
 62
     7
370
    15
100
AcDbLine
 10
231.7684536828
 20
87.2291995282
 30
0.0
 11
232.1084534778
 21
87.2291995282
 31
0.0
  0
ARC
  5
430
330
1F
100
AcDbEntity
  8
0
  6
Continuous
 62
     7
370
    15
100
AcDbCircle
 10
231.4284538406
 20
99.1784746001
 30
0.0
 40
11.95411068467232
100
AcDbArc
 50
268.3701679713
 51
271.6298320287
  0
LINE
  5
431
330
1F
100
AcDbEntity
  8
0
  6
Continuous
 62
     7
370
    15
100
AcDbLine
 10
230.7524537696
 20
87.2291995282
 30
0.0
 11
231.0884540929
 21
87.2291995282
 31
0.0
  0
ARC
  5
432
330
1F
100
AcDbEntity
  8
0
  6
Continuous
 62
     7
370
    15
100
AcDbCircle
 10
239.8797990324
 20
86.9892000505
 30
0.0
 40
9.130500000000008
100
AcDbArc
 50
151.5062232155
 51
178.4937767847
  0
LINE
  5
433
330
1F
100
AcDbEntity
  8
0
  6
Continuous
 62
     7
370
    15
100
AcDbLine
 10
249.0071443869
 20
86.7491973634
 30
0.0
 11
248.6711440636
 21
86.7491973634
 31
0.0
  0
ARC
  5
434
330
1F
100
AcDbEntity
  8
0
  6
Continuous
 62
     7
370
    15
100
AcDbCircle
 10
226.4201743087
 20
80.5791365618
 30
0.0
 40
12.04588945631948
100
AcDbArc
 50
58.3825891281
 51
61.6174108719
  0
LINE
  5
435
330
1F
100
AcDbEntity
  8
0
  6
Continuous
 62
     7
370
    15
100
AcDbLine
 10
233.0296168132
 20
90.6670285459
 30
0.0
 11
232.7351680054
 21
90.8370269532
 31
0.0
  0
LINE
  5
436
330
1F
100
AcDbEntity
  8
0
  6
Continuous
 62
     7
370
    15
100
AcDbLine
 10
233.269616778
 20
91.082717299
 30
0.0
 11
233.0296168132
 21
90.6670285459
 31
0.0
  0
ARC
  5
437
330
1F
100
AcDbEntity
  8
0
  6
Continuous
 62
     7
370
    15
100
AcDbCircle
 10
248.3311442242
 20
99.2702902334
 30
0.0
 40
12.04588945631948
100
AcDbArc
 50
268.3825891281
 51
271.6174108719
  0
LINE
  5
438
330
1F
100
AcDbEntity
  8
0
  6
Continuous
 62
     7
370
    15
100
AcDbLine
 10
247.6511439337
 20
87.2291995282
 30
0.0
 11
247.9911444737
 21
87.2291995282
 31
0.0
  0
LINE
  5
439
330
1F
100
AcDbEntity
  8
0
  6
Continuous
 62
     7
370
    15
100
AcDbLine
 10
232.0952860667
 20
91.7607201333
 30
0.0
 11
232.3862707271
 21
91.5927184816
 31
0.0
  0
ARC
  5
43A
330
1F
100
AcDbEntity
  8
0
  6
Continuous
 62
     7
370
    15
100
AcDbCircle
 10
239.8797990324
 20
86.9892000505
 30
0.0
 40
9.1305
100
AcDbArc
 50
1.5062232155
 51
148.4937767847
  0
CIRCLE
  5
43B
330
1F
100
AcDbEntity
  8
0
  6
Continuous
 62
     7
370
    15
100
AcDbCircle
 10
239.8797990324
 20
86.9892000505
 30
0.0
 40
4.988499999999988
  0
LINE
  5
43C
330
1F
100
AcDbEntity
  8
0
  6
Continuous
 62
     7
370
    15
100
AcDbLine
 10
247.6511439337
 20
86.7491973634
 30
0.0
 11
247.6511439337
 21
87.2291995282
 31
0.0
  0
ARC
  5
43D
330
1F
100
AcDbEntity
  8
0
  6
Continuous
 62
     7
370
    15
100
AcDbCircle
 10
238.655356675
 20
101.77109406
 30
0.0
 40
11.95411068467232
100
AcDbArc
 50
238.3701679713
 51
241.6298320287
  0
CIRCLE
  5
43E
330
1F
100
AcDbEntity
  8
0
  6
Continuous
 62
     7
370
    15
100
AcDbCircle
 10
265.5762804552
 20
97.5173926668
 30
0.0
 40
6.56049999999999
  0
LINE
  5
43F
330
1F
100
AcDbEntity
  8
0
  6
Continuous
 62
     7
370
    15
100
AcDbLine
 10
275.0198347522
 20
97.7573914523
 30
0.0
 11
275.3558350755
 21
97.7573914523
 31
0.0
  0
ARC
  5
440
330
1F
100
AcDbEntity
  8
0
  6
Continuous
 62
     7
370
    15
100
AcDbCircle
 10
274.6798359793
 20
109.7984828498
 30
0.0
 40
12.04588945631947
100
AcDbArc
 50
268.3825891281
 51
271.6174108719
  0
LINE
  5
441
330
1F
100
AcDbEntity
  8
0
  6
Continuous
 62
     7
370
    15
100
AcDbLine
 10
273.9998353673
 20
97.7573914523
 30
0.0
 11
274.3398351623
 21
97.7573914523
 31
0.0
  0
LINE
  5
442
330
1F
100
AcDbEntity
  8
0
  6
Continuous
 62
     7
370
    15
100
AcDbLine
 10
273.9998353673
 20
97.2773922677
 30
0.0
 11
273.9998353673
 21
97.7573914523
 31
0.0
  0
LINE
  5
443
330
1F
100
AcDbEntity
  8
0
  6
Continuous
 62
     7
370
    15
100
AcDbLine
 10
274.3398351623
 20
97.2773922677
 30
0.0
 11
273.9998353673
 21
97.2773922677
 31
0.0
  0
ARC
  5
444
330
1F
100
AcDbEntity
  8
0
  6
Continuous
 62
     7
370
    15
100
AcDbCircle
 10
274.6798359793
 20
85.3281181172
 30
0.0
 40
11.95411068467232
100
AcDbArc
 50
88.3701679713
 51
91.6298320287
  0
LINE
  5
445
330
1F
100
AcDbEntity
  8
0
  6
Continuous
 62
     7
370
    15
100
AcDbLine
 10
275.3558350755
 20
97.2773922677
 30
0.0
 11
275.0198347522
 21
97.2773922677
 31
0.0
  0
ARC
  5
446
330
1F
100
AcDbEntity
  8
0
  6
Continuous
 62
     7
370
    15
100
AcDbCircle
 10
265.5762804552
 20
97.5173926668
 30
0.0
 40
9.782500000000017
100
AcDbArc
 50
211.4058131261
 51
358.5941868741
  0
LINE
  5
447
330
1F
100
AcDbEntity
  8
0
  6
Continuous
 62
     7
370
    15
100
AcDbLine
 10
257.5179217411
 20
92.5877703424
 30
0.0
 11
257.2269363357
 21
92.4197686906
 31
0.0
  0
ARC
  5
448
330
1F
100
AcDbEntity
  8
0
  6
Continuous
 62
     7
370
    15
100
AcDbCircle
 10
263.832915198
 20
82.3298788201
 30
0.0
 40
12.04588945631951
100
AcDbArc
 50
118.3825891281
 51
121.6174108719
  0
LINE
  5
449
330
1F
100
AcDbEntity
  8
0
  6
Continuous
 62
     7
370
    15
100
AcDbLine
 10
258.4012670471
 20
93.0977715249
 30
0.0
 11
258.1068186118
 21
92.9277671571
 31
0.0
  0
LINE
  5
44A
330
1F
100
AcDbEntity
  8
0
  6
Continuous
 62
     7
370
    15
100
AcDbLine
 10
258.1612674548
 20
93.513460278
 30
0.0
 11
258.4012670471
 21
93.0977715249
 31
0.0
  0
LINE
  5
44B
330
1F
100
AcDbEntity
  8
0
  6
Continuous
 62
     7
370
    15
100
AcDbLine
 10
257.8668190194
 20
93.3434618707
 30
0.0
 11
258.1612674548
 21
93.513460278
 31
0.0
  0
ARC
  5
44C
330
1F
100
AcDbEntity
  8
0
  6
Continuous
 62
     7
370
    15
100
AcDbCircle
 10
251.5977328317
 20
103.5218363184
 30
0.0
 40
11.95411068467235
100
AcDbArc
 50
298.3701679713
 51
301.6298320287
  0
LINE
  5
44D
330
1F
100
AcDbEntity
  8
0
  6
Continuous
 62
     7
370
    15
100
AcDbLine
 10
256.9869367434
 20
92.8354634042
 30
0.0
 11
257.2779221488
 21
93.0034590955
 31
0.0
  0
ARC
  5
44E
330
1F
100
AcDbEntity
  8
0
  6
Continuous
 62
     7
370
    15
100
AcDbCircle
 10
265.5762804552
 20
97.5173926668
 30
0.0
 40
9.782500000000011
100
AcDbArc
 50
181.4058131261
 51
208.5941868741
  0
LINE
  5
44F
330
1F
100
AcDbEntity
  8
0
  6
Continuous
 62
     7
370
    15
100
AcDbLine
 10
256.1327246977
 20
97.2773922677
 30
0.0
 11
255.7967243744
 21
97.2773922677
 31
0.0
  0
ARC
  5
450
330
1F
100
AcDbEntity
  8
0
  6
Continuous
 62
     7
370
    15
100
AcDbCircle
 10
256.472724931
 20
85.2363024838
 30
0.0
 40
12.04588945631948
100
AcDbArc
 50
88.3825891281
 51
91.6174108719
  0
LINE
  5
451
330
1F
100
AcDbEntity
  8
0
  6
Continuous
 62
     7
370
    15
100
AcDbLine
 10
257.1527255727
 20
97.2773922677
 30
0.0
 11
256.8127242876
 21
97.2773922677
 31
0.0
  0
LINE
  5
452
330
1F
100
AcDbEntity
  8
0
  6
Continuous
 62
     7
370
    15
100
AcDbLine
 10
257.1527255727
 20
97.7573914523
 30
0.0
 11
257.1527255727
 21
97.2773922677
 31
0.0
  0
LINE
  5
453
330
1F
100
AcDbEntity
  8
0
  6
Continuous
 62
     7
370
    15
100
AcDbLine
 10
256.8127242876
 20
97.7573914523
 30
0.0
 11
257.1527255727
 21
97.7573914523
 31
0.0
  0
ARC
  5
454
330
1F
100
AcDbEntity
  8
0
  6
Continuous
 62
     7
370
    15
100
AcDbCircle
 10
256.472724931
 20
109.7066672164
 30
0.0
 40
11.95411068467234
100
AcDbArc
 50
268.3701679713
 51
271.6298320287
  0
LINE
  5
455
330
1F
100
AcDbEntity
  8
0
  6
Continuous
 62
     7
370
    15
100
AcDbLine
 10
255.7967243744
 20
97.7573914523
 30
0.0
 11
256.1327246977
 21
97.7573914523
 31
0.0
  0
ARC
  5
456
330
1F
100
AcDbEntity
  8
0
  6
Continuous
 62
     7
370
    15
100
AcDbCircle
 10
265.5762804552
 20
97.5173926668
 30
0.0
 40
9.782500000000027
100
AcDbArc
 50
151.4058131261
 51
178.5941868741
  0
LINE
  5
457
330
1F
100
AcDbEntity
  8
0
  6
Continuous
 62
     7
370
    15
100
AcDbLine
 10
257.2779221488
 20
102.0313246246
 30
0.0
 11
256.9869367434
 21
102.1993232961
 31
0.0
  0
ARC
  5
458
330
1F
100
AcDbEntity
  8
0
  6
Continuous
 62
     7
370
    15
100
AcDbCircle
 10
251.551825015
 20
91.4334343443
 30
0.0
 40
12.04588945631947
100
AcDbArc
 50
58.3825891281
 51
61.6174108719
  0
LINE
  5
459
330
1F
100
AcDbEntity
  8
0
  6
Continuous
 62
     7
370
    15
100
AcDbLine
 10
258.1612674548
 20
101.521323442
 30
0.0
 11
257.8668190194
 21
101.6913248296
 31
0.0
  0
LINE
  5
45A
330
1F
100
AcDbEntity
  8
0
  6
Continuous
 62
     7
370
    15
100
AcDbLine
 10
258.4012670471
 20
101.9370151754
 30
0.0
 11
258.1612674548
 21
101.521323442
 31
0.0
  0
LINE
  5
45B
330
1F
100
AcDbEntity
  8
0
  6
Continuous
 62
     7
370
    15
100
AcDbLine
 10
258.1068186118
 20
102.107016563
 30
0.0
 11
258.4012670471
 21
101.9370151754
 31
0.0
  0
LINE
  5
45C
330
1F
100
AcDbEntity
  8
0
  6
Continuous
 62
     7
370
    15
100
AcDbLine
 10
257.2269363357
 20
102.6150180097
 30
0.0
 11
257.5179217411
 21
102.4470163579
 31
0.0
  0
ARC
  5
45D
330
1F
100
AcDbEntity
  8
0
  6
Continuous
 62
     7
370
    15
100
AcDbCircle
 10
265.5762804552
 20
97.5173926668
 30
0.0
 40
9.782500000000079
100
AcDbArc
 50
1.4058131261
 51
148.5941868741
  0
ARC
  5
45E
330
1F
100
AcDbEntity
  8
0
  6
Continuous
 62
     7
370
    15
100
AcDbCircle
 10
263.7870073813
 20
112.6253918425
 30
0.0
 40
11.95411068467231
100
AcDbArc
 50
238.3701679713
 51
241.6298320287
  0
CIRCLE
  5
45F
330
1F
100
AcDbEntity
  8
0
  6
Continuous
 62
     7
370
    15
100
AcDbCircle
 10
226.3400558902
 20
100.0786927352
 30
0.0
 40
6.058500000000009
  0
LINE
  5
460
330
1F
100
AcDbEntity
  8
0
  6
Continuous
 62
     7
370
    15
100
AcDbLine
 10
235.4575099452
 20
100.3186924453
 30
0.0
 11
235.7935098959
 21
100.3186924453
 31
0.0
  0
LINE
  5
461
330
1F
100
AcDbEntity
  8
0
  6
Continuous
 62
     7
370
    15
100
AcDbLine
 10
234.4375098152
 20
100.3186924453
 30
0.0
 11
234.7775099827
 21
100.3186924453
 31
0.0
  0
LINE
  5
462
330
1F
100
AcDbEntity
  8
0
  6
Continuous
 62
     7
370
    15
100
AcDbLine
 10
234.7775099827
 20
99.8386932607
 30
0.0
 11
234.4375098152
 21
99.8386932607
 31
0.0
  0
ARC
  5
463
330
1F
100
AcDbEntity
  8
0
  6
Continuous
 62
     7
370
    15
100
AcDbCircle
 10
224.87910285
 20
85.054229658
 30
0.0
 40
12.04588945631949
100
AcDbArc
 50
118.3825891281
 51
121.6174108719
  0
LINE
  5
464
330
1F
100
AcDbEntity
  8
0
  6
Continuous
 62
     7
370
    15
100
AcDbLine
 10
219.4474546267
 20
95.8221210237
 30
0.0
 11
219.1530061914
 21
95.6521196361
 31
0.0
  0
LINE
  5
465
330
1F
100
AcDbEntity
  8
0
  6
Continuous
 62
     7
370
    15
100
AcDbLine
 10
219.2074550344
 20
96.237812757
 30
0.0
 11
219.4474546267
 21
95.8221210237
 31
0.0
  0
LINE
  5
466
330
1F
100
AcDbEntity
  8
0
  6
Continuous
 62
     7
370
    15
100
AcDbLine
 10
218.9130065991
 20
96.0678113694
 30
0.0
 11
219.2074550344
 21
96.237812757
 31
0.0
  0
ARC
  5
467
330
1F
100
AcDbEntity
  8
0
  6
Continuous
 62
     7
370
    15
100
AcDbCircle
 10
212.6439204837
 20
106.2461871562
 30
0.0
 40
11.95411068467233
100
AcDbArc
 50
298.3701679713
 51
301.6298320287
  0
LINE
  5
468
330
1F
100
AcDbEntity
  8
0
  6
Continuous
 62
     7
370
    15
100
AcDbLine
 10
218.033124323
 20
95.5598129029
 30
0.0
 11
218.3241097285
 21
95.7278115745
 31
0.0
  0
ARC
  5
469
330
1F
100
AcDbEntity
  8
0
  6
Continuous
 62
     7
370
    15
100
AcDbCircle
 10
226.3400558902
 20
100.0786927352
 30
0.0
 40
9.456500000000005
100
AcDbArc
 50
181.4542868618
 51
208.5457131384
  0
LINE
  5
46A
330
1F
100
AcDbEntity
  8
0
  6
Continuous
 62
     7
370
    15
100
AcDbLine
 10
217.222602482
 20
99.8386932607
 30
0.0
 11
216.8866021587
 21
99.8386932607
 31
0.0
  0
ARC
  5
46B
330
1F
100
AcDbEntity
  8
0
  6
Continuous
 62
     7
370
    15
100
AcDbCircle
 10
217.562601905
 20
87.7976025522
 30
0.0
 40
12.04588945631948
100
AcDbArc
 50
88.3825891281
 51
91.6174108719
  0
LINE
  5
46C
330
1F
100
AcDbEntity
  8
0
  6
Continuous
 62
     7
370
    15
100
AcDbLine
 10
218.2426018669
 20
99.8386932607
 30
0.0
 11
217.9026020719
 21
99.8386932607
 31
0.0
  0
LINE
  5
46D
330
1F
100
AcDbEntity
  8
0
  6
Continuous
 62
     7
370
    15
100
AcDbLine
 10
218.2426018669
 20
100.3186924453
 30
0.0
 11
218.2426018669
 21
99.8386932607
 31
0.0
  0
LINE
  5
46E
330
1F
100
AcDbEntity
  8
0
  6
Continuous
 62
     7
370
    15
100
AcDbLine
 10
217.9026020719
 20
100.3186924453
 30
0.0
 11
218.2426018669
 21
100.3186924453
 31
0.0
  0
ARC
  5
46F
330
1F
100
AcDbEntity
  8
0
  6
Continuous
 62
     7
370
    15
100
AcDbCircle
 10
217.562601905
 20
112.2679672847
 30
0.0
 40
11.95411068467233
100
AcDbArc
 50
268.3701679713
 51
271.6298320287
  0
LINE
  5
470
330
1F
100
AcDbEntity
  8
0
  6
Continuous
 62
     7
370
    15
100
AcDbLine
 10
216.8866021587
 20
100.3186924453
 30
0.0
 11
217.222602482
 21
100.3186924453
 31
0.0
  0
ARC
  5
471
330
1F
100
AcDbEntity
  8
0
  6
Continuous
 62
     7
370
    15
100
AcDbCircle
 10
226.3400558902
 20
100.0786927352
 30
0.0
 40
9.456499999999984
100
AcDbArc
 50
151.4542868618
 51
178.5457131384
  0
LINE
  5
472
330
1F
100
AcDbEntity
  8
0
  6
Continuous
 62
     7
370
    15
100
AcDbLine
 10
218.3241097285
 20
104.4295741315
 30
0.0
 11
218.033124323
 21
104.597572803
 31
0.0
  0
ARC
  5
473
330
1F
100
AcDbEntity
  8
0
  6
Continuous
 62
     7
370
    15
100
AcDbCircle
 10
212.598012667
 20
93.8316836432
 30
0.0
 40
12.04588945631947
100
AcDbArc
 50
58.3825891281
 51
61.6174108719
  0
LINE
  5
474
330
1F
100
AcDbEntity
  8
0
  6
Continuous
 62
     7
370
    15
100
AcDbLine
 10
219.2074550344
 20
103.9195729489
 30
0.0
 11
218.9130065991
 21
104.0895743365
 31
0.0
  0
LINE
  5
475
330
1F
100
AcDbEntity
  8
0
  6
Continuous
 62
     7
370
    15
100
AcDbLine
 10
219.4474546267
 20
104.3352646823
 30
0.0
 11
219.2074550344
 21
103.9195729489
 31
0.0
  0
LINE
  5
476
330
1F
100
AcDbEntity
  8
0
  6
Continuous
 62
     7
370
    15
100
AcDbLine
 10
219.1530061914
 20
104.5052660699
 30
0.0
 11
219.4474546267
 21
104.3352646823
 31
0.0
  0
ARC
  5
477
330
1F
100
AcDbEntity
  8
0
  6
Continuous
 62
     7
370
    15
100
AcDbCircle
 10
224.8331950333
 20
115.0236411414
 30
0.0
 40
11.95411068467232
100
AcDbArc
 50
238.3701679713
 51
241.6298320287
  0
LINE
  5
478
330
1F
100
AcDbEntity
  8
0
  6
Continuous
 62
     7
370
    15
100
AcDbLine
 10
218.2731239153
 20
105.0132645364
 30
0.0
 11
218.5641093208
 21
104.8452658649
 31
0.0
  0
ARC
  5
479
330
1F
100
AcDbEntity
  8
0
  6
Continuous
 62
     7
370
    15
100
AcDbCircle
 10
226.3400558902
 20
100.0786927352
 30
0.0
 40
9.456500000000034
100
AcDbArc
 50
1.4542868618
 51
148.5457131384
  0
LINE
  5
47A
330
1F
100
AcDbEntity
  8
0
  6
Continuous
 62
     7
370
    15
100
AcDbLine
 10
234.4375098152
 20
99.8386932607
 30
0.0
 11
234.4375098152
 21
100.3186924453
 31
0.0
  0
LINE
  5
47B
330
1F
100
AcDbEntity
  8
0
  6
Continuous
 62
     7
370
    15
100
AcDbLine
 10
235.7935098959
 20
99.8386932607
 30
0.0
 11
235.4575099452
 21
99.8386932607
 31
0.0
  0
ARC
  5
47C
330
1F
100
AcDbEntity
  8
0
  6
Continuous
 62
     7
370
    15
100
AcDbCircle
 10
235.1175098754
 20
112.3597829181
 30
0.0
 40
12.04588945631947
100
AcDbArc
 50
268.3825891281
 51
271.6174108719
  0
ARC
  5
47D
330
1F
100
AcDbEntity
  8
0
  6
Continuous
 62
     7
370
    15
100
AcDbCircle
 10
235.1175098754
 20
87.8894181856
 30
0.0
 40
11.95411068467234
100
AcDbArc
 50
88.3701679713
 51
91.6298320287
  0
ARC
  5
47E
330
1F
100
AcDbEntity
  8
0
  6
Continuous
 62
     7
370
    15
100
AcDbCircle
 10
226.3400558902
 20
100.0786927352
 30
0.0
 40
9.456500000000032
100
AcDbArc
 50
211.4542868618
 51
358.5457131384
  0
LINE
  5
47F
330
1F
100
AcDbEntity
  8
0
  6
Continuous
 62
     7
370
    15
100
AcDbLine
 10
218.5641093208
 20
95.3121198411
 30
0.0
 11
218.2731239153
 21
95.1441181894
 31
0.0
  0
ARC
  5
480
330
1F
100
AcDbEntity
  8
0
  6
Continuous
 62
     7
370
    15
100
AcDbCircle
 10
240.3881081634
 20
157.4408974378
 30
0.0
 40
12.04588945631947
100
AcDbArc
 50
268.3825891281
 51
271.6174108719
  0
LINE
  5
481
330
1F
100
AcDbEntity
  8
0
  6
Continuous
 62
     7
370
    15
100
AcDbLine
 10
239.7081081784
 20
145.3998072143
 30
0.0
 11
240.0481081596
 21
145.3998072143
 31
0.0
  0
LINE
  5
482
330
1F
100
AcDbEntity
  8
0
  6
Continuous
 62
     7
370
    15
100
AcDbLine
 10
240.0481081596
 20
144.9198072846
 30
0.0
 11
239.7081081784
 21
144.9198072846
 31
0.0
  0
LINE
  5
483
330
1F
100
AcDbEntity
  8
0
  6
Continuous
 62
     7
370
    15
100
AcDbLine
 10
241.0641081659
 20
144.9198072846
 30
0.0
 11
240.7281082152
 21
144.9198072846
 31
0.0
  0
ARC
  5
484
330
1F
100
AcDbEntity
  8
0
  6
Continuous
 62
     7
370
    15
100
AcDbCircle
 10
229.0014954696
 20
145.1598072548
 30
0.0
 40
12.06500000000074
100
AcDbArc
 50
211.1398171675
 51
358.8601828325
  0
LINE
  5
485
330
1F
100
AcDbEntity
  8
0
  6
Continuous
 62
     7
370
    15
100
AcDbLine
 10
218.9659504248
 20
139.0886547114
 30
0.0
 11
218.6749665095
 21
138.9206549223
 31
0.0
  0
ARC
  5
486
330
1F
100
AcDbEntity
  8
0
  6
Continuous
 62
     7
370
    15
100
AcDbCircle
 10
225.2809447052
 20
128.8307648233
 30
0.0
 40
12.04588945631948
100
AcDbArc
 50
118.3825891281
 51
121.6174108719
  0
LINE
  5
487
330
1F
100
AcDbEntity
  8
0
  6
Continuous
 62
     7
370
    15
100
AcDbLine
 10
219.8492972208
 20
139.5986547764
 30
0.0
 11
219.5548487855
 21
139.4286548789
 31
0.0
  0
LINE
  5
488
330
1F
100
AcDbEntity
  8
0
  6
Continuous
 62
     7
370
    15
100
AcDbLine
 10
219.6092976285
 20
140.0143468822
 30
0.0
 11
219.8492972208
 21
139.5986547764
 31
0.0
  0
LINE
  5
489
330
1F
100
AcDbEntity
  8
0
  6
Continuous
 62
     7
370
    15
100
AcDbLine
 10
219.3148477031
 20
139.8443469848
 30
0.0
 11
219.6092976285
 21
140.0143468822
 31
0.0
  0
ARC
  5
48A
330
1F
100
AcDbEntity
  8
0
  6
Continuous
 62
     7
370
    15
100
AcDbCircle
 10
213.045762339
 20
150.0227223216
 30
0.0
 40
11.95411068467235
100
AcDbArc
 50
298.3701679713
 51
301.6298320287
  0
LINE
  5
48B
330
1F
100
AcDbEntity
  8
0
  6
Continuous
 62
     7
370
    15
100
AcDbLine
 10
219.5548487855
 20
150.89095962
 30
0.0
 11
219.8492972208
 21
150.7209597225
 31
0.0
  0
LINE
  5
48C
330
1F
100
AcDbEntity
  8
0
  6
Continuous
 62
     7
370
    15
100
AcDbLine
 10
240.7281082152
 20
145.3998072143
 30
0.0
 11
241.0641081659
 21
145.3998072143
 31
0.0
  0
CIRCLE
  5
48D
330
1F
100
AcDbEntity
  8
0
  6
Continuous
 62
     7
370
    15
100
AcDbCircle
 10
229.0014954696
 20
145.1598072548
 30
0.0
 40
8.386499999994896
  0
LINE
  5
48E
330
1F
100
AcDbEntity
  8
0
  6
Continuous
 62
     7
370
    15
100
AcDbLine
 10
218.4349669172
 20
139.3363470282
 30
0.0
 11
218.7259508325
 21
139.5043471898
 31
0.0
  0
ARC
  5
48F
330
1F
100
AcDbEntity
  8
0
  6
Continuous
 62
     7
370
    15
100
AcDbCircle
 10
229.0014954696
 20
145.1598072548
 30
0.0
 40
12.06500000000002
100
AcDbArc
 50
181.1398171675
 51
208.8601828325
  0
LINE
  5
490
330
1F
100
AcDbEntity
  8
0
  6
Continuous
 62
     7
370
    15
100
AcDbLine
 10
216.9388828827
 20
145.3998072143
 30
0.0
 11
216.9388828827
 21
144.9198072846
 31
0.0
  0
ARC
  5
491
330
1F
100
AcDbEntity
  8
0
  6
Continuous
 62
     7
370
    15
100
AcDbCircle
 10
229.0014954696
 20
145.1598072548
 30
0.0
 40
12.065
100
AcDbArc
 50
151.1398171675
 51
178.8601828325
  0
LINE
  5
492
330
1F
100
AcDbEntity
  8
0
  6
Continuous
 62
     7
370
    15
100
AcDbLine
 10
218.7259508325
 20
150.8152676816
 30
0.0
 11
218.4349669172
 21
150.9832678433
 31
0.0
  0
ARC
  5
493
330
1F
100
AcDbEntity
  8
0
  6
Continuous
 62
     7
370
    15
100
AcDbCircle
 10
212.9998545223
 20
140.2173775171
 30
0.0
 40
12.04588945631947
100
AcDbArc
 50
58.3825891281
 51
61.6174108719
  0
LINE
  5
494
330
1F
100
AcDbEntity
  8
0
  6
Continuous
 62
     7
370
    15
100
AcDbLine
 10
219.6092976285
 20
150.3052672441
 30
0.0
 11
219.3148477031
 21
150.4752671416
 31
0.0
  0
LINE
  5
495
330
1F
100
AcDbEntity
  8
0
  6
Continuous
 62
     7
370
    15
100
AcDbLine
 10
219.8492972208
 20
150.7209597225
 30
0.0
 11
219.6092976285
 21
150.3052672441
 31
0.0
  0
LINE
  5
496
330
1F
100
AcDbEntity
  8
0
  6
Continuous
 62
     7
370
    15
100
AcDbLine
 10
218.6749665095
 20
151.3989595766
 30
0.0
 11
218.9659504248
 21
151.230959415
 31
0.0
  0
ARC
  5
497
330
1F
100
AcDbEntity
  8
0
  6
Continuous
 62
     7
370
    15
100
AcDbCircle
 10
225.2350368885
 20
161.4093350154
 30
0.0
 40
11.95411068467233
100
AcDbArc
 50
238.3701679713
 51
241.6298320287
  0
ARC
  5
498
330
1F
100
AcDbEntity
  8
0
  6
Continuous
 62
     7
370
    15
100
AcDbCircle
 10
229.0014954696
 20
145.1598072548
 30
0.0
 40
12.065
100
AcDbArc
 50
1.1398171675
 51
148.8601828325
  0
ARC
  5
499
330
1F
100
AcDbEntity
  8
0
  6
Continuous
 62
     7
370
    15
100
AcDbCircle
 10
240.3881081634
 20
132.9705327052
 30
0.0
 40
11.95411068467232
100
AcDbArc
 50
88.3701679713
 51
91.6298320287
  0
LINE
  5
49A
330
1F
100
AcDbEntity
  8
0
  6
Continuous
 62
     7
370
    15
100
AcDbLine
 10
239.7081081784
 20
144.9198072846
 30
0.0
 11
239.7081081784
 21
145.3998072143
 31
0.0
  0
ENDSEC
  0
SECTION
  2
OBJECTS
  0
DICTIONARY
  5
C
330
0
100
AcDbDictionary
281
     1
  3
ACAD_GROUP
350
D
  3
ACAD_LAYOUT
350
1A
  3
ACAD_MLINESTYLE
350
17
  3
ACAD_PLOTSETTINGS
350
19
  3
ACAD_PLOTSTYLENAME
350
E
  3
ACAD_SCALELIST
350
47
  0
DICTIONARY
  5
D
102
{ACAD_REACTORS
330
C
102
}
330
C
100
AcDbDictionary
281
     1
  0
DICTIONARY
  5
1A
102
{ACAD_REACTORS
330
C
102
}
330
C
100
AcDbDictionary
281
     1
  3
Layout1
350
1E
  3
Layout2
350
26
  3
Model
350
22
  0
DICTIONARY
  5
17
102
{ACAD_REACTORS
330
C
102
}
330
C
100
AcDbDictionary
281
     1
  3
Standard
350
18
  0
DICTIONARY
  5
19
102
{ACAD_REACTORS
330
C
102
}
330
C
100
AcDbDictionary
281
     1
  0
ACDBDICTIONARYWDFLT
  5
E
102
{ACAD_REACTORS
330
C
102
}
330
C
100
AcDbDictionary
281
     1
  3
Normal
350
F
100
AcDbDictionaryWithDefault
340
F
  0
DICTIONARY
  5
47
102
{ACAD_REACTORS
330
C
102
}
330
C
100
AcDbDictionary
281
     1
  3
A0
350
48
  3
A1
350
49
  3
A2
350
4A
  3
A3
350
4B
  3
A4
350
4C
  3
A5
350
4D
  3
A6
350
4E
  3
A7
350
4F
  3
A8
350
50
  3
A9
350
51
  3
B0
350
52
  3
B1
350
53
  3
B2
350
54
  3
B3
350
55
  3
B4
350
56
  3
B5
350
57
  3
B6
350
58
  3
B7
350
59
  3
B8
350
5A
  3
B9
350
5B
  3
C0
350
5C
  3
C1
350
5D
  3
C2
350
5E
  3
C3
350
5F
  3
C4
350
60
  3
C5
350
61
  3
C6
350
62
  3
C7
350
63
  3
C8
350
64
  3
C9
350
65
  3
D0
350
66
  3
D1
350
67
  3
D2
350
68
  0
LAYOUT
  5
1E
102
{ACAD_REACTORS
330
1A
102
}
330
1A
100
AcDbPlotSettings
  1

  2
none_device
  4

  6

 40
0.0
 41
0.0
 42
0.0
 43
0.0
 44
0.0
 45
0.0
 46
0.0
 47
0.0
 48
0.0
 49
0.0
140
0.0
141
0.0
142
1.0
143
1.0
 70
   688
 72
     1
 73
     0
 74
     5
  7

 75
    16
147
1.0
148
0.0
149
0.0
100
AcDbLayout
  1
Layout1
 70
     1
 71
     1
 10
0.0
 20
0.0
 11
420.0
 21
297.0
 12
0.0
 22
0.0
 32
0.0
 14
1.0000000000E+20
 24
1.0000000000E+20
 34
1.0000000000E+20
 15
-1.0000000000E+20
 25
-1.0000000000E+20
 35
-1.0000000000E+20
146
0.0
 13
0.0
 23
0.0
 33
0.0
 16
1.0
 26
0.0
 36
0.0
 17
0.0
 27
1.0
 37
0.0
 76
     0
330
1B
  0
LAYOUT
  5
26
102
{ACAD_REACTORS
330
1A
102
}
330
1A
100
AcDbPlotSettings
  1

  2
none_device
  4

  6

 40
0.0
 41
0.0
 42
0.0
 43
0.0
 44
0.0
 45
0.0
 46
0.0
 47
0.0
 48
0.0
 49
0.0
140
0.0
141
0.0
142
1.0
143
1.0
 70
   688
 72
     1
 73
     0
 74
     5
  7

 75
    16
147
1.0
148
0.0
149
0.0
100
AcDbLayout
  1
Layout2
 70
     1
 71
     2
 10
0.0
 20
0.0
 11
0.0
 21
0.0
 12
0.0
 22
0.0
 32
0.0
 14
0.0
 24
0.0
 34
0.0
 15
0.0
 25
0.0
 35
0.0
146
0.0
 13
0.0
 23
0.0
 33
0.0
 16
1.0
 26
0.0
 36
0.0
 17
0.0
 27
1.0
 37
0.0
 76
     0
330
23
  0
LAYOUT
  5
22
102
{ACAD_REACTORS
330
1A
102
}
330
1A
100
AcDbPlotSettings
  1

  2
none_device
  4
Letter_(8.50_x_11.00_Inches)
  6

 40
6.35
 41
6.35
 42
6.35000508
 43
6.35000508
 44
215.9
 45
279.4
 46
0.0
 47
0.0
 48
0.0
 49
0.0
140
0.0
141
0.0
142
1.0
143
1.0
 70
  1712
 72
     1
 73
     0
 74
     0
  7

 75
     0
147
1.0
148
0.0
149
0.0
100
AcDbLayout
  1
Model
 70
     1
 71
     0
 10
0.0
 20
0.0
 11
420.0
 21
297.0
 12
0.0
 22
0.0
 32
0.0
 14
0.0
 24
0.0
 34
0.0
 15
420.0
 25
297.0
 35
0.0
146
0.0
 13
0.0
 23
0.0
 33
0.0
 16
1.0
 26
0.0
 36
0.0
 17
0.0
 27
1.0
 37
0.0
 76
     0
330
1F
331
29
  0
MLINESTYLE
  5
18
102
{ACAD_REACTORS
330
17
102
}
330
17
100
AcDbMlineStyle
  2
Standard
 70
     0
  3

 62
   256
 51
90.0
 52
90.0
 71
     2
 49
0.5
 62
   256
  6
BYLAYER
 49
-0.5
 62
   256
  6
BYLAYER
  0
ACDBPLACEHOLDER
  5
F
102
{ACAD_REACTORS
330
E
102
}
330
E
  0
SCALE
  5
48
102
{ACAD_REACTORS
330
47
102
}
330
47
100
AcDbScale
 70
     0
300
1:1
140
1.0
141
1.0
290
     1
  0
SCALE
  5
49
102
{ACAD_REACTORS
330
47
102
}
330
47
100
AcDbScale
 70
     0
300
1:2
140
1.0
141
2.0
290
     0
  0
SCALE
  5
4A
102
{ACAD_REACTORS
330
47
102
}
330
47
100
AcDbScale
 70
     0
300
1:4
140
1.0
141
4.0
290
     0
  0
SCALE
  5
4B
102
{ACAD_REACTORS
330
47
102
}
330
47
100
AcDbScale
 70
     0
300
1:5
140
1.0
141
5.0
290
     0
  0
SCALE
  5
4C
102
{ACAD_REACTORS
330
47
102
}
330
47
100
AcDbScale
 70
     0
300
1:8
140
1.0
141
8.0
290
     0
  0
SCALE
  5
4D
102
{ACAD_REACTORS
330
47
102
}
330
47
100
AcDbScale
 70
     0
300
1:10
140
1.0
141
10.0
290
     0
  0
SCALE
  5
4E
102
{ACAD_REACTORS
330
47
102
}
330
47
100
AcDbScale
 70
     0
300
1:16
140
1.0
141
16.0
290
     0
  0
SCALE
  5
4F
102
{ACAD_REACTORS
330
47
102
}
330
47
100
AcDbScale
 70
     0
300
1:20
140
1.0
141
20.0
290
     0
  0
SCALE
  5
50
102
{ACAD_REACTORS
330
47
102
}
330
47
100
AcDbScale
 70
     0
300
1:30
140
1.0
141
30.0
290
     0
  0
SCALE
  5
51
102
{ACAD_REACTORS
330
47
102
}
330
47
100
AcDbScale
 70
     0
300
1:40
140
1.0
141
40.0
290
     0
  0
SCALE
  5
52
102
{ACAD_REACTORS
330
47
102
}
330
47
100
AcDbScale
 70
     0
300
1:50
140
1.0
141
50.0
290
     0
  0
SCALE
  5
53
102
{ACAD_REACTORS
330
47
102
}
330
47
100
AcDbScale
 70
     0
300
1:100
140
1.0
141
100.0
290
     0
  0
SCALE
  5
54
102
{ACAD_REACTORS
330
47
102
}
330
47
100
AcDbScale
 70
     0
300
2:1
140
2.0
141
1.0
290
     0
  0
SCALE
  5
55
102
{ACAD_REACTORS
330
47
102
}
330
47
100
AcDbScale
 70
     0
300
4:1
140
4.0
141
1.0
290
     0
  0
SCALE
  5
56
102
{ACAD_REACTORS
330
47
102
}
330
47
100
AcDbScale
 70
     0
300
8:1
140
8.0
141
1.0
290
     0
  0
SCALE
  5
57
102
{ACAD_REACTORS
330
47
102
}
330
47
100
AcDbScale
 70
     0
300
10:1
140
10.0
141
1.0
290
     0
  0
SCALE
  5
58
102
{ACAD_REACTORS
330
47
102
}
330
47
100
AcDbScale
 70
     0
300
100:1
140
100.0
141
1.0
290
     0
  0
SCALE
  5
59
102
{ACAD_REACTORS
330
47
102
}
330
47
100
AcDbScale
 70
     0
300
1/128\" = 1\'-0\"
140
0.0078125
141
12.0
290
     0
  0
SCALE
  5
5A
102
{ACAD_REACTORS
330
47
102
}
330
47
100
AcDbScale
 70
     0
300
1/64\" = 1\'-0\"
140
0.015625
141
12.0
290
     0
  0
SCALE
  5
5B
102
{ACAD_REACTORS
330
47
102
}
330
47
100
AcDbScale
 70
     0
300
1/32\" = 1\'-0\"
140
0.03125
141
12.0
290
     0
  0
SCALE
  5
5C
102
{ACAD_REACTORS
330
47
102
}
330
47
100
AcDbScale
 70
     0
300
1/16\" = 1\'-0\"
140
0.0625
141
12.0
290
     0
  0
SCALE
  5
5D
102
{ACAD_REACTORS
330
47
102
}
330
47
100
AcDbScale
 70
     0
300
3/32\" = 1\'-0\"
140
0.09375
141
12.0
290
     0
  0
SCALE
  5
5E
102
{ACAD_REACTORS
330
47
102
}
330
47
100
AcDbScale
 70
     0
300
1/8\" = 1\'-0\"
140
0.125
141
12.0
290
     0
  0
SCALE
  5
5F
102
{ACAD_REACTORS
330
47
102
}
330
47
100
AcDbScale
 70
     0
300
3/16\" = 1\'-0\"
140
0.1875
141
12.0
290
     0
  0
SCALE
  5
60
102
{ACAD_REACTORS
330
47
102
}
330
47
100
AcDbScale
 70
     0
300
1/4\" = 1\'-0\"
140
0.25
141
12.0
290
     0
  0
SCALE
  5
61
102
{ACAD_REACTORS
330
47
102
}
330
47
100
AcDbScale
 70
     0
300
3/8\" = 1\'-0\"
140
0.375
141
12.0
290
     0
  0
SCALE
  5
62
102
{ACAD_REACTORS
330
47
102
}
330
47
100
AcDbScale
 70
     0
300
1/2\" = 1\'-0\"
140
0.5
141
12.0
290
     0
  0
SCALE
  5
63
102
{ACAD_REACTORS
330
47
102
}
330
47
100
AcDbScale
 70
     0
300
3/4\" = 1\'-0\"
140
0.75
141
12.0
290
     0
  0
SCALE
  5
64
102
{ACAD_REACTORS
330
47
102
}
330
47
100
AcDbScale
 70
     0
300
1\" = 1\'-0\"
140
1.0
141
12.0
290
     0
  0
SCALE
  5
65
102
{ACAD_REACTORS
330
47
102
}
330
47
100
AcDbScale
 70
     0
300
1-1/2\" = 1\'-0\"
140
1.5
141
12.0
290
     0
  0
SCALE
  5
66
102
{ACAD_REACTORS
330
47
102
}
330
47
100
AcDbScale
 70
     0
300
3\" = 1\'-0\"
140
3.0
141
12.0
290
     0
  0
SCALE
  5
67
102
{ACAD_REACTORS
330
47
102
}
330
47
100
AcDbScale
 70
     0
300
6\" = 1\'-0\"
140
6.0
141
12.0
290
     0
  0
SCALE
  5
68
102
{ACAD_REACTORS
330
47
102
}
330
47
100
AcDbScale
 70
     0
300
1\'-0\" = 1\'-0\"
140
12.0
141
12.0
290
     0
  0
ENDSEC
  0
EOF
