 0 
SECTION
 2 
ENTITIES
 0 
LINE
 10 
 2253 
 20 
 4260 
 30 
 0 
 11 
 2242.65600585938 
 21 
 4253.1279296875 
 31 
 0 
 0 
LINE
 10 
 2242.65600585938 
 20 
 4253.1279296875 
 30 
 0 
 11 
 2233.60815429688 
 21 
 4246.064453125 
 31 
 0 
 0 
LINE
 10 
 2233.60815429688 
 20 
 4246.064453125 
 30 
 0 
 11 
 2226.43212890625 
 21 
 4239.3359375 
 31 
 0 
 0 
LINE
 10 
 2226.43212890625 
 20 
 4239.3359375 
 30 
 0 
 11 
 2221.7041015625 
 21 
 4233.47216796875 
 31 
 0 
 0 
LINE
 10 
 2221.7041015625 
 20 
 4233.47216796875 
 30 
 0 
 11 
 2220 
 21 
 4229 
 31 
 0 
 0 
LINE
 10 
 2220 
 20 
 4229 
 30 
 0 
 11 
 2221.31982421875 
 21 
 4225.40771484375 
 31 
 0 
 0 
LINE
 10 
 2221.31982421875 
 20 
 4225.40771484375 
 30 
 0 
 11 
 2225.28002929688 
 21 
 4223.06396484375 
 31 
 0 
 0 
LINE
 10 
 2225.28002929688 
 20 
 4223.06396484375 
 30 
 0 
 11 
 2231.8798828125 
 21 
 4222.01611328125 
 31 
 0 
 0 
LINE
 10 
 2231.8798828125 
 20 
 4222.01611328125 
 30 
 0 
 11 
 2241.1201171875 
 21 
 4222.31201171875 
 31 
 0 
 0 
LINE
 10 
 2241.1201171875 
 20 
 4222.31201171875 
 30 
 0 
 11 
 2253 
 21 
 4224 
 31 
 0 
 0 
LINE
 10 
 2253 
 20 
 4224 
 30 
 0 
 11 
 2306.15991210938 
 21 
 4233.9599609375 
 31 
 0 
 0 
LINE
 10 
 2306.15991210938 
 20 
 4233.9599609375 
 30 
 0 
 11 
 2344.43994140625 
 21 
 4234.56005859375 
 31 
 0 
 0 
LINE
 10 
 2344.43994140625 
 20 
 4234.56005859375 
 30 
 0 
 11 
 2378.64013671875 
 21 
 4221.47998046875 
 31 
 0 
 0 
LINE
 10 
 2378.64013671875 
 20 
 4221.47998046875 
 30 
 0 
 11 
 2419.56005859375 
 21 
 4190.39990234375 
 31 
 0 
 0 
LINE
 10 
 2419.56005859375 
 20 
 4190.39990234375 
 30 
 0 
 11 
 2478 
 21 
 4137 
 31 
 0 
 0 
LINE
 10 
 2478 
 20 
 4137 
 30 
 0 
 11 
 2503.40795898438 
 21 
 4114.919921875 
 31 
 0 
 0 
LINE
 10 
 2503.40795898438 
 20 
 4114.919921875 
 30 
 0 
 11 
 2536.78393554688 
 21 
 4088.52001953125 
 31 
 0 
 0 
LINE
 10 
 2536.78393554688 
 20 
 4088.52001953125 
 30 
 0 
 11 
 2575.05615234375 
 21 
 4059.9599609375 
 31 
 0 
 0 
LINE
 10 
 2575.05615234375 
 20 
 4059.9599609375 
 30 
 0 
 11 
 2615.15209960938 
 21 
 4031.40014648438 
 31 
 0 
 0 
LINE
 10 
 2615.15209960938 
 20 
 4031.40014648438 
 30 
 0 
 11 
 2654 
 21 
 4005 
 31 
 0 
 0 
LINE
 10 
 2654 
 20 
 4005 
 30 
 0 
 11 
 2798.07177734375 
 21 
 3902.3759765625 
 31 
 0 
 0 
LINE
 10 
 2798.07177734375 
 20 
 3902.3759765625 
 30 
 0 
 11 
 2930.576171875 
 21 
 3791.92797851563 
 31 
 0 
 0 
LINE
 10 
 2930.576171875 
 20 
 3791.92797851563 
 30 
 0 
 11 
 3037.54418945313 
 21 
 3687.19189453125 
 31 
 0 
 0 
LINE
 10 
 3037.54418945313 
 20 
 3687.19189453125 
 30 
 0 
 11 
 3105.00805664063 
 21 
 3601.7041015625 
 31 
 0 
 0 
LINE
 10 
 3105.00805664063 
 20 
 3601.7041015625 
 30 
 0 
 11 
 3119 
 21 
 3549 
 31 
 0 
 0 
LINE
 10 
 3119 
 20 
 3549 
 30 
 0 
 11 
 3116.14379882813 
 21 
 3541.80810546875 
 31 
 0 
 0 
LINE
 10 
 3116.14379882813 
 20 
 3541.80810546875 
 30 
 0 
 11 
 3113.67211914063 
 21 
 3532.744140625 
 31 
 0 
 0 
LINE
 10 
 3113.67211914063 
 20 
 3532.744140625 
 30 
 0 
 11 
 3111.72802734375 
 21 
 3522.576171875 
 31 
 0 
 0 
LINE
 10 
 3111.72802734375 
 20 
 3522.576171875 
 30 
 0 
 11 
 3110.4560546875 
 21 
 3512.07202148438 
 31 
 0 
 0 
LINE
 10 
 3110.4560546875 
 20 
 3512.07202148438 
 30 
 0 
 11 
 3110 
 21 
 3502 
 31 
 0 
 0 
LINE
 10 
 3110 
 20 
 3502 
 30 
 0 
 11 
 3108.97607421875 
 21 
 3491.69604492188 
 31 
 0 
 0 
LINE
 10 
 3108.97607421875 
 20 
 3491.69604492188 
 30 
 0 
 11 
 3106.12817382813 
 21 
 3480.52807617188 
 31 
 0 
 0 
LINE
 10 
 3106.12817382813 
 20 
 3480.52807617188 
 30 
 0 
 11 
 3101.7919921875 
 21 
 3469.31201171875 
 31 
 0 
 0 
LINE
 10 
 3101.7919921875 
 20 
 3469.31201171875 
 30 
 0 
 11 
 3096.30395507813 
 21 
 3458.86401367188 
 31 
 0 
 0 
LINE
 10 
 3096.30395507813 
 20 
 3458.86401367188 
 30 
 0 
 11 
 3090 
 21 
 3450 
 31 
 0 
 0 
LINE
 10 
 3090 
 20 
 3450 
 30 
 0 
 11 
 3083.69580078125 
 21 
 3442.15991210938 
 31 
 0 
 0 
LINE
 10 
 3083.69580078125 
 20 
 3442.15991210938 
 30 
 0 
 11 
 3078.2080078125 
 21 
 3434.55981445313 
 31 
 0 
 0 
LINE
 10 
 3078.2080078125 
 20 
 3434.55981445313 
 30 
 0 
 11 
 3073.8720703125 
 21 
 3427.67993164063 
 31 
 0 
 0 
LINE
 10 
 3073.8720703125 
 20 
 3427.67993164063 
 30 
 0 
 11 
 3071.02392578125 
 21 
 3422 
 31 
 0 
 0 
LINE
 10 
 3071.02392578125 
 20 
 3422 
 30 
 0 
 11 
 3070 
 21 
 3418 
 31 
 0 
 0 
LINE
 10 
 3070 
 20 
 3418 
 30 
 0 
 11 
 3067.86401367188 
 21 
 3411.81567382813 
 31 
 0 
 0 
LINE
 10 
 3067.86401367188 
 20 
 3411.81567382813 
 30 
 0 
 11 
 3062.51196289063 
 21 
 3409.80786132813 
 31 
 0 
 0 
LINE
 10 
 3062.51196289063 
 20 
 3409.80786132813 
 30 
 0 
 11 
 3055.52807617188 
 21 
 3411.59204101563 
 31 
 0 
 0 
LINE
 10 
 3055.52807617188 
 20 
 3411.59204101563 
 30 
 0 
 11 
 3048.49609375 
 21 
 3416.78393554688 
 31 
 0 
 0 
LINE
 10 
 3048.49609375 
 20 
 3416.78393554688 
 30 
 0 
 11 
 3043 
 21 
 3425 
 31 
 0 
 0 
LINE
 10 
 3043 
 20 
 3425 
 30 
 0 
 11 
 3042.13598632813 
 21 
 3431.03979492188 
 31 
 0 
 0 
LINE
 10 
 3042.13598632813 
 20 
 3431.03979492188 
 30 
 0 
 11 
 3043.04809570313 
 21 
 3438.0400390625 
 31 
 0 
 0 
LINE
 10 
 3043.04809570313 
 20 
 3438.0400390625 
 30 
 0 
 11 
 3045.59204101563 
 21 
 3445.52001953125 
 31 
 0 
 0 
LINE
 10 
 3045.59204101563 
 20 
 3445.52001953125 
 30 
 0 
 11 
 3049.6240234375 
 21 
 3453 
 31 
 0 
 0 
LINE
 10 
 3049.6240234375 
 20 
 3453 
 30 
 0 
 11 
 3055 
 21 
 3460 
 31 
 0 
 0 
LINE
 10 
 3055 
 20 
 3460 
 30 
 0 
 11 
 3062.32788085938 
 21 
 3469.23217773438 
 31 
 0 
 0 
LINE
 10 
 3062.32788085938 
 20 
 3469.23217773438 
 30 
 0 
 11 
 3064.18408203125 
 21 
 3476.73583984375 
 31 
 0 
 0 
LINE
 10 
 3064.18408203125 
 20 
 3476.73583984375 
 30 
 0 
 11 
 3059.17602539063 
 21 
 3484.6240234375 
 31 
 0 
 0 
LINE
 10 
 3059.17602539063 
 20 
 3484.6240234375 
 30 
 0 
 11 
 3045.912109375 
 21 
 3495.00805664063 
 31 
 0 
 0 
LINE
 10 
 3045.912109375 
 20 
 3495.00805664063 
 30 
 0 
 11 
 3023 
 21 
 3510 
 31 
 0 
 0 
LINE
 10 
 3023 
 20 
 3510 
 30 
 0 
 11 
 2948.02392578125 
 21 
 3552.86401367188 
 31 
 0 
 0 
LINE
 10 
 2948.02392578125 
 20 
 3552.86401367188 
 30 
 0 
 11 
 2841.751953125 
 21 
 3607.8720703125 
 31 
 0 
 0 
LINE
 10 
 2841.751953125 
 20 
 3607.8720703125 
 30 
 0 
 11 
 2720.16821289063 
 21 
 3667.248046875 
 31 
 0 
 0 
LINE
 10 
 2720.16821289063 
 20 
 3667.248046875 
 30 
 0 
 11 
 2599.25610351563 
 21 
 3723.21606445313 
 31 
 0 
 0 
LINE
 10 
 2599.25610351563 
 20 
 3723.21606445313 
 30 
 0 
 11 
 2495 
 21 
 3768 
 31 
 0 
 0 
LINE
 10 
 2495 
 20 
 3768 
 30 
 0 
 11 
 2209.50415039063 
 21 
 3872.095703125 
 31 
 0 
 0 
LINE
 10 
 2209.50415039063 
 20 
 3872.095703125 
 30 
 0 
 11 
 1929.19201660156 
 21 
 3953.72802734375 
 31 
 0 
 0 
LINE
 10 
 1929.19201660156 
 20 
 3953.72802734375 
 30 
 0 
 11 
 1656.1279296875 
 21 
 4012.51220703125 
 31 
 0 
 0 
LINE
 10 
 1656.1279296875 
 20 
 4012.51220703125 
 30 
 0 
 11 
 1392.3759765625 
 21 
 4048.06420898438 
 31 
 0 
 0 
LINE
 10 
 1392.3759765625 
 20 
 4048.06420898438 
 30 
 0 
 11 
 1140 
 21 
 4060 
 31 
 0 
 0 
LINE
 10 
 1140 
 20 
 4060 
 30 
 0 
 11 
 986.391906738281 
 21 
 4055.10400390625 
 31 
 0 
 0 
LINE
 10 
 986.391906738281 
 20 
 4055.10400390625 
 30 
 0 
 11 
 846.416015625 
 21 
 4041.23193359375 
 31 
 0 
 0 
LINE
 10 
 846.416015625 
 20 
 4041.23193359375 
 30 
 0 
 11 
 717.143981933594 
 21 
 4017.80810546875 
 31 
 0 
 0 
LINE
 10 
 717.143981933594 
 20 
 4017.80810546875 
 30 
 0 
 11 
 595.648010253906 
 21 
 3984.25610351563 
 31 
 0 
 0 
LINE
 10 
 595.648010253906 
 20 
 3984.25610351563 
 30 
 0 
 11 
 479 
 21 
 3940 
 31 
 0 
 0 
LINE
 10 
 479 
 20 
 3940 
 30 
 0 
 11 
 363.320007324219 
 21 
 3881.91967773438 
 31 
 0 
 0 
LINE
 10 
 363.320007324219 
 20 
 3881.91967773438 
 30 
 0 
 11 
 274.040008544922 
 21 
 3820.23999023438 
 31 
 0 
 0 
LINE
 10 
 274.040008544922 
 20 
 3820.23999023438 
 30 
 0 
 11 
 212.599990844727 
 21 
 3756.40014648438 
 31 
 0 
 0 
LINE
 10 
 212.599990844727 
 20 
 3756.40014648438 
 30 
 0 
 11 
 180.440002441406 
 21 
 3691.84008789063 
 31 
 0 
 0 
LINE
 10 
 180.440002441406 
 20 
 3691.84008789063 
 30 
 0 
 11 
 179 
 21 
 3628 
 31 
 0 
 0 
LINE
 10 
 179 
 20 
 3628 
 30 
 0 
 11 
 206.800003051758 
 21 
 3557.91186523438 
 31 
 0 
 0 
LINE
 10 
 206.800003051758 
 20 
 3557.91186523438 
 30 
 0 
 11 
 260.760009765625 
 21 
 3489.4560546875 
 31 
 0 
 0 
LINE
 10 
 260.760009765625 
 20 
 3489.4560546875 
 30 
 0 
 11 
 347.120025634766 
 21 
 3417.5439453125 
 31 
 0 
 0 
LINE
 10 
 347.120025634766 
 20 
 3417.5439453125 
 30 
 0 
 11 
 472.120025634766 
 21 
 3337.08813476563 
 31 
 0 
 0 
LINE
 10 
 472.120025634766 
 20 
 3337.08813476563 
 30 
 0 
 11 
 642 
 21 
 3243 
 31 
 0 
 0 
LINE
 10 
 642 
 20 
 3243 
 30 
 0 
 11 
 739.535949707031 
 21 
 3190.35180664063 
 31 
 0 
 0 
LINE
 10 
 739.535949707031 
 20 
 3190.35180664063 
 30 
 0 
 11 
 809.807983398438 
 21 
 3147.49609375 
 31 
 0 
 0 
LINE
 10 
 809.807983398438 
 20 
 3147.49609375 
 30 
 0 
 11 
 864.912048339844 
 21 
 3105.26391601563 
 31 
 0 
 0 
LINE
 10 
 864.912048339844 
 20 
 3105.26391601563 
 30 
 0 
 11 
 916.944030761719 
 21 
 3054.48803710938 
 31 
 0 
 0 
LINE
 10 
 916.944030761719 
 20 
 3054.48803710938 
 30 
 0 
 11 
 978 
 21 
 2986 
 31 
 0 
 0 
LINE
 10 
 978 
 20 
 2986 
 30 
 0 
 11 
 1006.39196777344 
 21 
 2953.35180664063 
 31 
 0 
 0 
LINE
 10 
 1006.39196777344 
 20 
 2953.35180664063 
 30 
 0 
 11 
 1032.81604003906 
 21 
 2922.81616210938 
 31 
 0 
 0 
LINE
 10 
 1032.81604003906 
 20 
 2922.81616210938 
 30 
 0 
 11 
 1055.54406738281 
 21 
 2896.50415039063 
 31 
 0 
 0 
LINE
 10 
 1055.54406738281 
 20 
 2896.50415039063 
 30 
 0 
 11 
 1072.84802246094 
 21 
 2876.52807617188 
 31 
 0 
 0 
LINE
 10 
 1072.84802246094 
 20 
 2876.52807617188 
 30 
 0 
 11 
 1083 
 21 
 2865 
 31 
 0 
 0 
LINE
 10 
 1083 
 20 
 2865 
 30 
 0 
 11 
 1093.97607421875 
 21 
 2852.78393554688 
 31 
 0 
 0 
LINE
 10 
 1093.97607421875 
 20 
 2852.78393554688 
 30 
 0 
 11 
 1112.48803710938 
 21 
 2830.8720703125 
 31 
 0 
 0 
LINE
 10 
 1112.48803710938 
 20 
 2830.8720703125 
 30 
 0 
 11 
 1136.71203613281 
 21 
 2801.56811523438 
 31 
 0 
 0 
LINE
 10 
 1136.71203613281 
 20 
 2801.56811523438 
 30 
 0 
 11 
 1164.82409667969 
 21 
 2767.17602539063 
 31 
 0 
 0 
LINE
 10 
 1164.82409667969 
 20 
 2767.17602539063 
 30 
 0 
 11 
 1195 
 21 
 2730 
 31 
 0 
 0 
LINE
 10 
 1195 
 20 
 2730 
 30 
 0 
 11 
 1276.43994140625 
 21 
 2634.0478515625 
 31 
 0 
 0 
LINE
 10 
 1276.43994140625 
 20 
 2634.0478515625 
 30 
 0 
 11 
 1365.31994628906 
 21 
 2537.6640625 
 31 
 0 
 0 
LINE
 10 
 1365.31994628906 
 20 
 2537.6640625 
 30 
 0 
 11 
 1453.47998046875 
 21 
 2449.05615234375 
 31 
 0 
 0 
LINE
 10 
 1453.47998046875 
 20 
 2449.05615234375 
 30 
 0 
 11 
 1532.76000976563 
 21 
 2376.43212890625 
 31 
 0 
 0 
LINE
 10 
 1532.76000976563 
 20 
 2376.43212890625 
 30 
 0 
 11 
 1595 
 21 
 2328 
 31 
 0 
 0 
LINE
 10 
 1595 
 20 
 2328 
 30 
 0 
 11 
 1674.583984375 
 21 
 2282.61596679688 
 31 
 0 
 0 
LINE
 10 
 1674.583984375 
 20 
 2282.61596679688 
 30 
 0 
 11 
 1746.39208984375 
 21 
 2256.76831054688 
 31 
 0 
 0 
LINE
 10 
 1746.39208984375 
 20 
 2256.76831054688 
 30 
 0 
 11 
 1812.00805664063 
 21 
 2250.31201171875 
 31 
 0 
 0 
LINE
 10 
 1812.00805664063 
 20 
 2250.31201171875 
 30 
 0 
 11 
 1873.01599121094 
 21 
 2263.10400390625 
 31 
 0 
 0 
LINE
 10 
 1873.01599121094 
 20 
 2263.10400390625 
 30 
 0 
 11 
 1931 
 21 
 2295 
 31 
 0 
 0 
LINE
 10 
 1931 
 20 
 2295 
 30 
 0 
 11 
 1998.39990234375 
 21 
 2346.00805664063 
 31 
 0 
 0 
LINE
 10 
 1998.39990234375 
 20 
 2346.00805664063 
 30 
 0 
 11 
 2064.36010742188 
 21 
 2400.90405273438 
 31 
 0 
 0 
LINE
 10 
 2064.36010742188 
 20 
 2400.90405273438 
 30 
 0 
 11 
 2135.1201171875 
 21 
 2465.49609375 
 31 
 0 
 0 
LINE
 10 
 2135.1201171875 
 20 
 2465.49609375 
 30 
 0 
 11 
 2216.92016601563 
 21 
 2545.59204101563 
 31 
 0 
 0 
LINE
 10 
 2216.92016601563 
 20 
 2545.59204101563 
 30 
 0 
 11 
 2316 
 21 
 2647 
 31 
 0 
 0 
LINE
 10 
 2316 
 20 
 2647 
 30 
 0 
 11 
 2465.86376953125 
 21 
 2798.59204101563 
 31 
 0 
 0 
LINE
 10 
 2465.86376953125 
 20 
 2798.59204101563 
 30 
 0 
 11 
 2592.11206054688 
 21 
 2915.57592773438 
 31 
 0 
 0 
LINE
 10 
 2592.11206054688 
 20 
 2915.57592773438 
 30 
 0 
 11 
 2704.72802734375 
 21 
 3006.06396484375 
 31 
 0 
 0 
LINE
 10 
 2704.72802734375 
 20 
 3006.06396484375 
 30 
 0 
 11 
 2813.69604492188 
 21 
 3078.16821289063 
 31 
 0 
 0 
LINE
 10 
 2813.69604492188 
 20 
 3078.16821289063 
 30 
 0 
 11 
 2929 
 21 
 3140 
 31 
 0 
 0 
LINE
 10 
 2929 
 20 
 3140 
 30 
 0 
 11 
 2967.263671875 
 21 
 3159.35205078125 
 31 
 0 
 0 
LINE
 10 
 2967.263671875 
 20 
 3159.35205078125 
 30 
 0 
 11 
 2993.43212890625 
 21 
 3174.09619140625 
 31 
 0 
 0 
LINE
 10 
 2993.43212890625 
 20 
 3174.09619140625 
 30 
 0 
 11 
 3009.56811523438 
 21 
 3185.86401367188 
 31 
 0 
 0 
LINE
 10 
 3009.56811523438 
 20 
 3185.86401367188 
 30 
 0 
 11 
 3017.73608398438 
 21 
 3196.2880859375 
 31 
 0 
 0 
LINE
 10 
 3017.73608398438 
 20 
 3196.2880859375 
 30 
 0 
 11 
 3020 
 21 
 3207 
 31 
 0 
 0 
LINE
 10 
 3020 
 20 
 3207 
 30 
 0 
 11 
 3020.68798828125 
 21 
 3214.38403320313 
 31 
 0 
 0 
LINE
 10 
 3020.68798828125 
 20 
 3214.38403320313 
 30 
 0 
 11 
 3022.6240234375 
 21 
 3220.7119140625 
 31 
 0 
 0 
LINE
 10 
 3022.6240234375 
 20 
 3220.7119140625 
 30 
 0 
 11 
 3025.61596679688 
 21 
 3225.64819335938 
 31 
 0 
 0 
LINE
 10 
 3025.61596679688 
 20 
 3225.64819335938 
 30 
 0 
 11 
 3029.47192382813 
 21 
 3228.85595703125 
 31 
 0 
 0 
LINE
 10 
 3029.47192382813 
 20 
 3228.85595703125 
 30 
 0 
 11 
 3034 
 21 
 3230 
 31 
 0 
 0 
LINE
 10 
 3034 
 20 
 3230 
 30 
 0 
 11 
 3039.19189453125 
 21 
 3226.39965820313 
 31 
 0 
 0 
LINE
 10 
 3039.19189453125 
 20 
 3226.39965820313 
 30 
 0 
 11 
 3044.09619140625 
 21 
 3215.11987304688 
 31 
 0 
 0 
LINE
 10 
 3044.09619140625 
 20 
 3215.11987304688 
 30 
 0 
 11 
 3048.90405273438 
 21 
 3195.43994140625 
 31 
 0 
 0 
LINE
 10 
 3048.90405273438 
 20 
 3195.43994140625 
 30 
 0 
 11 
 3053.80810546875 
 21 
 3166.64013671875 
 31 
 0 
 0 
LINE
 10 
 3053.80810546875 
 20 
 3166.64013671875 
 30 
 0 
 11 
 3059 
 21 
 3128 
 31 
 0 
 0 
LINE
 10 
 3059 
 20 
 3128 
 30 
 0 
 11 
 3070.56005859375 
 21 
 3018.77587890625 
 31 
 0 
 0 
LINE
 10 
 3070.56005859375 
 20 
 3018.77587890625 
 30 
 0 
 11 
 3081.63989257813 
 21 
 2895.96801757813 
 31 
 0 
 0 
LINE
 10 
 3081.63989257813 
 20 
 2895.96801757813 
 30 
 0 
 11 
 3091.0400390625 
 21 
 2775.27197265625 
 31 
 0 
 0 
LINE
 10 
 3091.0400390625 
 20 
 2775.27197265625 
 30 
 0 
 11 
 3097.56005859375 
 21 
 2672.38403320313 
 31 
 0 
 0 
LINE
 10 
 3097.56005859375 
 20 
 2672.38403320313 
 30 
 0 
 11 
 3100 
 21 
 2603 
 31 
 0 
 0 
LINE
 10 
 3100 
 20 
 2603 
 30 
 0 
 11 
 3099.65576171875 
 21 
 2570.44775390625 
 31 
 0 
 0 
LINE
 10 
 3099.65576171875 
 20 
 2570.44775390625 
 30 
 0 
 11 
 3098.20825195313 
 21 
 2549.22412109375 
 31 
 0 
 0 
LINE
 10 
 3098.20825195313 
 20 
 2549.22412109375 
 30 
 0 
 11 
 3095.03198242188 
 21 
 2536.97607421875 
 31 
 0 
 0 
LINE
 10 
 3095.03198242188 
 20 
 2536.97607421875 
 30 
 0 
 11 
 3089.50415039063 
 21 
 2531.35205078125 
 31 
 0 
 0 
LINE
 10 
 3089.50415039063 
 20 
 2531.35205078125 
 30 
 0 
 11 
 3081 
 21 
 2530 
 31 
 0 
 0 
LINE
 10 
 3081 
 20 
 2530 
 30 
 0 
 11 
 3074.84790039063 
 21 
 2530.7998046875 
 31 
 0 
 0 
LINE
 10 
 3074.84790039063 
 20 
 2530.7998046875 
 30 
 0 
 11 
 3068.74389648438 
 21 
 2533.04028320313 
 31 
 0 
 0 
LINE
 10 
 3068.74389648438 
 20 
 2533.04028320313 
 30 
 0 
 11 
 3063.2158203125 
 21 
 2536.47998046875 
 31 
 0 
 0 
LINE
 10 
 3063.2158203125 
 20 
 2536.47998046875 
 30 
 0 
 11 
 3058.7919921875 
 21 
 2540.88012695313 
 31 
 0 
 0 
LINE
 10 
 3058.7919921875 
 20 
 2540.88012695313 
 30 
 0 
 11 
 3056 
 21 
 2546 
 31 
 0 
 0 
LINE
 10 
 3056 
 20 
 2546 
 30 
 0 
 11 
 3054.22387695313 
 21 
 2560.22387695313 
 31 
 0 
 0 
LINE
 10 
 3054.22387695313 
 20 
 2560.22387695313 
 30 
 0 
 11 
 3052.59204101563 
 21 
 2589.9521484375 
 31 
 0 
 0 
LINE
 10 
 3052.59204101563 
 20 
 2589.9521484375 
 30 
 0 
 11 
 3051.248046875 
 21 
 2631.96801757813 
 31 
 0 
 0 
LINE
 10 
 3051.248046875 
 20 
 2631.96801757813 
 30 
 0 
 11 
 3050.3359375 
 21 
 2683.05615234375 
 31 
 0 
 0 
LINE
 10 
 3050.3359375 
 20 
 2683.05615234375 
 30 
 0 
 11 
 3050 
 21 
 2740 
 31 
 0 
 0 
LINE
 10 
 3050 
 20 
 2740 
 30 
 0 
 11 
 3048.54370117188 
 21 
 2839.40795898438 
 31 
 0 
 0 
LINE
 10 
 3048.54370117188 
 20 
 2839.40795898438 
 30 
 0 
 11 
 3044.59204101563 
 21 
 2938.38403320313 
 31 
 0 
 0 
LINE
 10 
 3044.59204101563 
 20 
 2938.38403320313 
 30 
 0 
 11 
 3038.76806640625 
 21 
 3027.85620117188 
 31 
 0 
 0 
LINE
 10 
 3038.76806640625 
 20 
 3027.85620117188 
 30 
 0 
 11 
 3031.69604492188 
 21 
 3098.751953125 
 31 
 0 
 0 
LINE
 10 
 3031.69604492188 
 20 
 3098.751953125 
 30 
 0 
 11 
 3024 
 21 
 3142 
 31 
 0 
 0 
LINE
 10 
 3024 
 20 
 3142 
 30 
 0 
 11 
 3020.6396484375 
 21 
 3149.52807617188 
 31 
 0 
 0 
LINE
 10 
 3020.6396484375 
 20 
 3149.52807617188 
 30 
 0 
 11 
 3015.1201171875 
 21 
 3152.78393554688 
 31 
 0 
 0 
LINE
 10 
 3015.1201171875 
 20 
 3152.78393554688 
 30 
 0 
 11 
 3005.28002929688 
 21 
 3151.576171875 
 31 
 0 
 0 
LINE
 10 
 3005.28002929688 
 20 
 3151.576171875 
 30 
 0 
 11 
 2988.9599609375 
 21 
 3145.71215820313 
 31 
 0 
 0 
LINE
 10 
 2988.9599609375 
 20 
 3145.71215820313 
 30 
 0 
 11 
 2964 
 21 
 3135 
 31 
 0 
 0 
LINE
 10 
 2964 
 20 
 3135 
 30 
 0 
 11 
 2876.255859375 
 21 
 3090.71997070313 
 31 
 0 
 0 
LINE
 10 
 2876.255859375 
 20 
 3090.71997070313 
 30 
 0 
 11 
 2783.08813476563 
 21 
 3033.47998046875 
 31 
 0 
 0 
LINE
 10 
 2783.08813476563 
 20 
 3033.47998046875 
 30 
 0 
 11 
 2689.39208984375 
 21 
 2966.88012695313 
 31 
 0 
 0 
LINE
 10 
 2689.39208984375 
 20 
 2966.88012695313 
 30 
 0 
 11 
 2600.06396484375 
 21 
 2894.52001953125 
 31 
 0 
 0 
LINE
 10 
 2600.06396484375 
 20 
 2894.52001953125 
 30 
 0 
 11 
 2520 
 21 
 2820 
 31 
 0 
 0 
LINE
 10 
 2520 
 20 
 2820 
 30 
 0 
 11 
 2332.68774414063 
 21 
 2630.43994140625 
 31 
 0 
 0 
LINE
 10 
 2332.68774414063 
 20 
 2630.43994140625 
 30 
 0 
 11 
 2208.5439453125 
 21 
 2502.32006835938 
 31 
 0 
 0 
LINE
 10 
 2208.5439453125 
 20 
 2502.32006835938 
 30 
 0 
 11 
 2134.65600585938 
 21 
 2421.47998046875 
 31 
 0 
 0 
LINE
 10 
 2134.65600585938 
 20 
 2421.47998046875 
 30 
 0 
 11 
 2098.11206054688 
 21 
 2373.76000976563 
 31 
 0 
 0 
LINE
 10 
 2098.11206054688 
 20 
 2373.76000976563 
 30 
 0 
 11 
 2086 
 21 
 2345 
 31 
 0 
 0 
LINE
 10 
 2086 
 20 
 2345 
 30 
 0 
 11 
 2082.71997070313 
 21 
 2331.05590820313 
 31 
 0 
 0 
LINE
 10 
 2082.71997070313 
 20 
 2331.05590820313 
 30 
 0 
 11 
 2078 
 21 
 2315.2880859375 
 31 
 0 
 0 
LINE
 10 
 2078 
 20 
 2315.2880859375 
 30 
 0 
 11 
 2072.32006835938 
 21 
 2298.99194335938 
 31 
 0 
 0 
LINE
 10 
 2072.32006835938 
 20 
 2298.99194335938 
 30 
 0 
 11 
 2066.16015625 
 21 
 2283.46411132813 
 31 
 0 
 0 
LINE
 10 
 2066.16015625 
 20 
 2283.46411132813 
 30 
 0 
 11 
 2060 
 21 
 2270 
 31 
 0 
 0 
LINE
 10 
 2060 
 20 
 2270 
 30 
 0 
 11 
 2042.1279296875 
 21 
 2241.50390625 
 31 
 0 
 0 
LINE
 10 
 2042.1279296875 
 20 
 2241.50390625 
 30 
 0 
 11 
 2016.38403320313 
 21 
 2207.39208984375 
 31 
 0 
 0 
LINE
 10 
 2016.38403320313 
 20 
 2207.39208984375 
 30 
 0 
 11 
 1988.57604980469 
 21 
 2174.52807617188 
 31 
 0 
 0 
LINE
 10 
 1988.57604980469 
 20 
 2174.52807617188 
 30 
 0 
 11 
 1964.51208496094 
 21 
 2149.77587890625 
 31 
 0 
 0 
LINE
 10 
 1964.51208496094 
 20 
 2149.77587890625 
 30 
 0 
 11 
 1950 
 21 
 2140 
 31 
 0 
 0 
LINE
 10 
 1950 
 20 
 2140 
 30 
 0 
 11 
 1947.15197753906 
 21 
 2142.50390625 
 31 
 0 
 0 
LINE
 10 
 1947.15197753906 
 20 
 2142.50390625 
 30 
 0 
 11 
 1944.73608398438 
 21 
 2149.47192382813 
 31 
 0 
 0 
LINE
 10 
 1944.73608398438 
 20 
 2149.47192382813 
 30 
 0 
 11 
 1942.94396972656 
 21 
 2160.08813476563 
 31 
 0 
 0 
LINE
 10 
 1942.94396972656 
 20 
 2160.08813476563 
 30 
 0 
 11 
 1941.96801757813 
 21 
 2173.53588867188 
 31 
 0 
 0 
LINE
 10 
 1941.96801757813 
 20 
 2173.53588867188 
 30 
 0 
 11 
 1942 
 21 
 2189 
 31 
 0 
 0 
LINE
 10 
 1942 
 20 
 2189 
 30 
 0 
 11 
 1941.6640625 
 21 
 2205.40771484375 
 31 
 0 
 0 
LINE
 10 
 1941.6640625 
 20 
 2205.40771484375 
 30 
 0 
 11 
 1940.75207519531 
 21 
 2220.42407226563 
 31 
 0 
 0 
LINE
 10 
 1940.75207519531 
 20 
 2220.42407226563 
 30 
 0 
 11 
 1939.40808105469 
 21 
 2233.13598632813 
 31 
 0 
 0 
LINE
 10 
 1939.40808105469 
 20 
 2233.13598632813 
 30 
 0 
 11 
 1937.77600097656 
 21 
 2242.63208007813 
 31 
 0 
 0 
LINE
 10 
 1937.77600097656 
 20 
 2242.63208007813 
 30 
 0 
 11 
 1936 
 21 
 2248 
 31 
 0 
 0 
LINE
 10 
 1936 
 20 
 2248 
 30 
 0 
 11 
 1931.47180175781 
 21 
 2249.93603515625 
 31 
 0 
 0 
LINE
 10 
 1931.47180175781 
 20 
 2249.93603515625 
 30 
 0 
 11 
 1922.09606933594 
 21 
 2249.80810546875 
 31 
 0 
 0 
LINE
 10 
 1922.09606933594 
 20 
 2249.80810546875 
 30 
 0 
 11 
 1908.78405761719 
 21 
 2247.7119140625 
 31 
 0 
 0 
LINE
 10 
 1908.78405761719 
 20 
 2247.7119140625 
 30 
 0 
 11 
 1892.44799804688 
 21 
 2243.74389648438 
 31 
 0 
 0 
LINE
 10 
 1892.44799804688 
 20 
 2243.74389648438 
 30 
 0 
 11 
 1874 
 21 
 2238 
 31 
 0 
 0 
LINE
 10 
 1874 
 20 
 2238 
 30 
 0 
 11 
 1850.09594726563 
 21 
 2230.7919921875 
 31 
 0 
 0 
LINE
 10 
 1850.09594726563 
 20 
 2230.7919921875 
 30 
 0 
 11 
 1828.20812988281 
 21 
 2225.93603515625 
 31 
 0 
 0 
LINE
 10 
 1828.20812988281 
 20 
 2225.93603515625 
 30 
 0 
 11 
 1807.47204589844 
 21 
 2223.38403320313 
 31 
 0 
 0 
LINE
 10 
 1807.47204589844 
 20 
 2223.38403320313 
 30 
 0 
 11 
 1787.02404785156 
 21 
 2223.087890625 
 31 
 0 
 0 
LINE
 10 
 1787.02404785156 
 20 
 2223.087890625 
 30 
 0 
 11 
 1766 
 21 
 2225 
 31 
 0 
 0 
LINE
 10 
 1766 
 20 
 2225 
 30 
 0 
 11 
 1741.80798339844 
 21 
 2227.32006835938 
 31 
 0 
 0 
LINE
 10 
 1741.80798339844 
 20 
 2227.32006835938 
 30 
 0 
 11 
 1728.46411132813 
 21 
 2227.9599609375 
 31 
 0 
 0 
LINE
 10 
 1728.46411132813 
 20 
 2227.9599609375 
 30 
 0 
 11 
 1724.81604003906 
 21 
 2226.43994140625 
 31 
 0 
 0 
LINE
 10 
 1724.81604003906 
 20 
 2226.43994140625 
 30 
 0 
 11 
 1729.71203613281 
 21 
 2222.28002929688 
 31 
 0 
 0 
LINE
 10 
 1729.71203613281 
 20 
 2222.28002929688 
 30 
 0 
 11 
 1742 
 21 
 2215 
 31 
 0 
 0 
LINE
 10 
 1742 
 20 
 2215 
 30 
 0 
 11 
 1764.03186035156 
 21 
 2199.76000976563 
 31 
 0 
 0 
LINE
 10 
 1764.03186035156 
 20 
 2199.76000976563 
 30 
 0 
 11 
 1778.09606933594 
 21 
 2181.16015625 
 31 
 0 
 0 
LINE
 10 
 1778.09606933594 
 20 
 2181.16015625 
 30 
 0 
 11 
 1785.34399414063 
 21 
 2154.88012695313 
 31 
 0 
 0 
LINE
 10 
 1785.34399414063 
 20 
 2154.88012695313 
 30 
 0 
 11 
 1786.92810058594 
 21 
 2116.60009765625 
 31 
 0 
 0 
LINE
 10 
 1786.92810058594 
 20 
 2116.60009765625 
 30 
 0 
 11 
 1784 
 21 
 2062 
 31 
 0 
 0 
LINE
 10 
 1784 
 20 
 2062 
 30 
 0 
 11 
 1781.74401855469 
 21 
 1999.08801269531 
 31 
 0 
 0 
LINE
 10 
 1781.74401855469 
 20 
 1999.08801269531 
 30 
 0 
 11 
 1786.11206054688 
 21 
 1954.46411132813 
 31 
 0 
 0 
LINE
 10 
 1786.11206054688 
 20 
 1954.46411132813 
 30 
 0 
 11 
 1799.40795898438 
 21 
 1922.89599609375 
 31 
 0 
 0 
LINE
 10 
 1799.40795898438 
 20 
 1922.89599609375 
 30 
 0 
 11 
 1823.93603515625 
 21 
 1899.15197753906 
 31 
 0 
 0 
LINE
 10 
 1823.93603515625 
 20 
 1899.15197753906 
 30 
 0 
 11 
 1862 
 21 
 1878 
 31 
 0 
 0 
LINE
 10 
 1862 
 20 
 1878 
 30 
 0 
 11 
 1903.47192382813 
 21 
 1855.75988769531 
 31 
 0 
 0 
LINE
 10 
 1903.47192382813 
 20 
 1855.75988769531 
 30 
 0 
 11 
 1932.416015625 
 21 
 1833.27990722656 
 31 
 0 
 0 
LINE
 10 
 1932.416015625 
 20 
 1833.27990722656 
 30 
 0 
 11 
 1951.42395019531 
 21 
 1806.72009277344 
 31 
 0 
 0 
LINE
 10 
 1951.42395019531 
 20 
 1806.72009277344 
 30 
 0 
 11 
 1963.08801269531 
 21 
 1772.23999023438 
 31 
 0 
 0 
LINE
 10 
 1963.08801269531 
 20 
 1772.23999023438 
 30 
 0 
 11 
 1970 
 21 
 1726 
 31 
 0 
 0 
LINE
 10 
 1970 
 20 
 1726 
 30 
 0 
 11 
 1973.75988769531 
 21 
 1701.09594726563 
 31 
 0 
 0 
LINE
 10 
 1973.75988769531 
 20 
 1701.09594726563 
 30 
 0 
 11 
 1978.71997070313 
 21 
 1676.76794433594 
 31 
 0 
 0 
LINE
 10 
 1978.71997070313 
 20 
 1676.76794433594 
 30 
 0 
 11 
 1984.39990234375 
 21 
 1654.7919921875 
 31 
 0 
 0 
LINE
 10 
 1984.39990234375 
 20 
 1654.7919921875 
 30 
 0 
 11 
 1990.32006835938 
 21 
 1636.94396972656 
 31 
 0 
 0 
LINE
 10 
 1990.32006835938 
 20 
 1636.94396972656 
 30 
 0 
 11 
 1996 
 21 
 1625 
 31 
 0 
 0 
LINE
 10 
 1996 
 20 
 1625 
 30 
 0 
 11 
 2006.55981445313 
 21 
 1613.92797851563 
 31 
 0 
 0 
LINE
 10 
 2006.55981445313 
 20 
 1613.92797851563 
 30 
 0 
 11 
 2024.56005859375 
 21 
 1600.26403808594 
 31 
 0 
 0 
LINE
 10 
 2024.56005859375 
 20 
 1600.26403808594 
 30 
 0 
 11 
 2049.28002929688 
 21 
 1584.53601074219 
 31 
 0 
 0 
LINE
 10 
 2049.28002929688 
 20 
 1584.53601074219 
 30 
 0 
 11 
 2080 
 21 
 1567.27209472656 
 31 
 0 
 0 
LINE
 10 
 2080 
 20 
 1567.27209472656 
 30 
 0 
 11 
 2116 
 21 
 1549 
 31 
 0 
 0 
LINE
 10 
 2116 
 20 
 1549 
 30 
 0 
 11 
 2149.77612304688 
 21 
 1532.39208984375 
 31 
 0 
 0 
LINE
 10 
 2149.77612304688 
 20 
 1532.39208984375 
 30 
 0 
 11 
 2180.2880859375 
 21 
 1515.73596191406 
 31 
 0 
 0 
LINE
 10 
 2180.2880859375 
 20 
 1515.73596191406 
 30 
 0 
 11 
 2205.7119140625 
 21 
 1500.18395996094 
 31 
 0 
 0 
LINE
 10 
 2205.7119140625 
 20 
 1500.18395996094 
 30 
 0 
 11 
 2224.22412109375 
 21 
 1486.88806152344 
 31 
 0 
 0 
LINE
 10 
 2224.22412109375 
 20 
 1486.88806152344 
 30 
 0 
 11 
 2234 
 21 
 1477 
 31 
 0 
 0 
LINE
 10 
 2234 
 20 
 1477 
 30 
 0 
 11 
 2238.48803710938 
 21 
 1465.77587890625 
 31 
 0 
 0 
LINE
 10 
 2238.48803710938 
 20 
 1465.77587890625 
 30 
 0 
 11 
 2243.26416015625 
 21 
 1447.68811035156 
 31 
 0 
 0 
LINE
 10 
 2243.26416015625 
 20 
 1447.68811035156 
 30 
 0 
 11 
 2247.89599609375 
 21 
 1424.51196289063 
 31 
 0 
 0 
LINE
 10 
 2247.89599609375 
 20 
 1424.51196289063 
 30 
 0 
 11 
 2251.95190429688 
 21 
 1398.02404785156 
 31 
 0 
 0 
LINE
 10 
 2251.95190429688 
 20 
 1398.02404785156 
 30 
 0 
 11 
 2255 
 21 
 1370 
 31 
 0 
 0 
LINE
 10 
 2255 
 20 
 1370 
 30 
 0 
 11 
 2264.69604492188 
 21 
 1292.47985839844 
 31 
 0 
 0 
LINE
 10 
 2264.69604492188 
 20 
 1292.47985839844 
 30 
 0 
 11 
 2282.16821289063 
 21 
 1237.76000976563 
 31 
 0 
 0 
LINE
 10 
 2282.16821289063 
 20 
 1237.76000976563 
 30 
 0 
 11 
 2311.59204101563 
 21 
 1200.80004882813 
 31 
 0 
 0 
LINE
 10 
 2311.59204101563 
 20 
 1200.80004882813 
 30 
 0 
 11 
 2357.14404296875 
 21 
 1176.56005859375 
 31 
 0 
 0 
LINE
 10 
 2357.14404296875 
 20 
 1176.56005859375 
 30 
 0 
 11 
 2423 
 21 
 1160 
 31 
 0 
 0 
LINE
 10 
 2423 
 20 
 1160 
 30 
 0 
 11 
 2489.27197265625 
 21 
 1137.43200683594 
 31 
 0 
 0 
LINE
 10 
 2489.27197265625 
 20 
 1137.43200683594 
 30 
 0 
 11 
 2535.33618164063 
 21 
 1094.89599609375 
 31 
 0 
 0 
LINE
 10 
 2535.33618164063 
 20 
 1094.89599609375 
 30 
 0 
 11 
 2564.26416015625 
 21 
 1025.14392089844 
 31 
 0 
 0 
LINE
 10 
 2564.26416015625 
 20 
 1025.14392089844 
 30 
 0 
 11 
 2579.1279296875 
 21 
 920.928039550781 
 31 
 0 
 0 
LINE
 10 
 2579.1279296875 
 20 
 920.928039550781 
 30 
 0 
 11 
 2583 
 21 
 775 
 31 
 0 
 0 
LINE
 10 
 2583 
 20 
 775 
 30 
 0 
 11 
 2582.15185546875 
 21 
 710.639953613281 
 31 
 0 
 0 
LINE
 10 
 2582.15185546875 
 20 
 710.639953613281 
 30 
 0 
 11 
 2579.576171875 
 21 
 648.920043945313 
 31 
 0 
 0 
LINE
 10 
 2579.576171875 
 20 
 648.920043945313 
 30 
 0 
 11 
 2575.22412109375 
 21 
 588.880004882813 
 31 
 0 
 0 
LINE
 10 
 2575.22412109375 
 20 
 588.880004882813 
 30 
 0 
 11 
 2569.04809570313 
 21 
 529.559997558594 
 31 
 0 
 0 
LINE
 10 
 2569.04809570313 
 20 
 529.559997558594 
 30 
 0 
 11 
 2561 
 21 
 470 
 31 
 0 
 0 
LINE
 10 
 2561 
 20 
 470 
 30 
 0 
 11 
 2544.61596679688 
 21 
 340.623992919922 
 31 
 0 
 0 
LINE
 10 
 2544.61596679688 
 20 
 340.623992919922 
 30 
 0 
 11 
 2540.56787109375 
 21 
 252.192001342773 
 31 
 0 
 0 
LINE
 10 
 2540.56787109375 
 20 
 252.192001342773 
 30 
 0 
 11 
 2549.91186523438 
 21 
 198.847991943359 
 31 
 0 
 0 
LINE
 10 
 2549.91186523438 
 20 
 198.847991943359 
 30 
 0 
 11 
 2573.7041015625 
 21 
 174.735992431641 
 31 
 0 
 0 
LINE
 10 
 2573.7041015625 
 20 
 174.735992431641 
 30 
 0 
 11 
 2613 
 21 
 174 
 31 
 0 
 0 
LINE
 10 
 2613 
 20 
 174 
 30 
 0 
 11 
 2656.63989257813 
 21 
 190.655990600586 
 31 
 0 
 0 
LINE
 10 
 2656.63989257813 
 20 
 190.655990600586 
 30 
 0 
 11 
 2689.23999023438 
 21 
 225.408004760742 
 31 
 0 
 0 
LINE
 10 
 2689.23999023438 
 20 
 225.408004760742 
 30 
 0 
 11 
 2712.71997070313 
 21 
 282.432006835938 
 31 
 0 
 0 
LINE
 10 
 2712.71997070313 
 20 
 282.432006835938 
 30 
 0 
 11 
 2729 
 21 
 365.904022216797 
 31 
 0 
 0 
LINE
 10 
 2729 
 20 
 365.904022216797 
 30 
 0 
 11 
 2740 
 21 
 480 
 31 
 0 
 0 
LINE
 10 
 2740 
 20 
 480 
 30 
 0 
 11 
 2748.19189453125 
 21 
 578.311950683594 
 31 
 0 
 0 
LINE
 10 
 2748.19189453125 
 20 
 578.311950683594 
 30 
 0 
 11 
 2759.4560546875 
 21 
 652.816040039063 
 31 
 0 
 0 
LINE
 10 
 2759.4560546875 
 20 
 652.816040039063 
 30 
 0 
 11 
 2775.42407226563 
 21 
 709.463989257813 
 31 
 0 
 0 
LINE
 10 
 2775.42407226563 
 20 
 709.463989257813 
 30 
 0 
 11 
 2797.72802734375 
 21 
 754.2080078125 
 31 
 0 
 0 
LINE
 10 
 2797.72802734375 
 20 
 754.2080078125 
 30 
 0 
 11 
 2828 
 21 
 793 
 31 
 0 
 0 
LINE
 10 
 2828 
 20 
 793 
 30 
 0 
 11 
 2845.4560546875 
 21 
 808.608032226563 
 31 
 0 
 0 
LINE
 10 
 2845.4560546875 
 20 
 808.608032226563 
 30 
 0 
 11 
 2861.80810546875 
 21 
 817.064025878906 
 31 
 0 
 0 
LINE
 10 
 2861.80810546875 
 20 
 817.064025878906 
 30 
 0 
 11 
 2878.83203125 
 21 
 818.416015625 
 31 
 0 
 0 
LINE
 10 
 2878.83203125 
 20 
 818.416015625 
 30 
 0 
 11 
 2898.30395507813 
 21 
 812.712036132813 
 31 
 0 
 0 
LINE
 10 
 2898.30395507813 
 20 
 812.712036132813 
 30 
 0 
 11 
 2922 
 21 
 800 
 31 
 0 
 0 
LINE
 10 
 2922 
 20 
 800 
 30 
 0 
 11 
 2950.52783203125 
 21 
 786.679992675781 
 31 
 0 
 0 
LINE
 10 
 2950.52783203125 
 20 
 786.679992675781 
 30 
 0 
 11 
 2979.34399414063 
 21 
 780.320007324219 
 31 
 0 
 0 
LINE
 10 
 2979.34399414063 
 20 
 780.320007324219 
 30 
 0 
 11 
 3006.09594726563 
 21 
 780.919982910156 
 31 
 0 
 0 
LINE
 10 
 3006.09594726563 
 20 
 780.919982910156 
 30 
 0 
 11 
 3028.43212890625 
 21 
 788.480041503906 
 31 
 0 
 0 
LINE
 10 
 3028.43212890625 
 20 
 788.480041503906 
 30 
 0 
 11 
 3044 
 21 
 803 
 31 
 0 
 0 
LINE
 10 
 3044 
 20 
 803 
 30 
 0 
 11 
 3049.583984375 
 21 
 815.016052246094 
 31 
 0 
 0 
LINE
 10 
 3049.583984375 
 20 
 815.016052246094 
 30 
 0 
 11 
 3055.31201171875 
 21 
 835.288024902344 
 31 
 0 
 0 
LINE
 10 
 3055.31201171875 
 20 
 835.288024902344 
 30 
 0 
 11 
 3060.84814453125 
 21 
 861.752014160156 
 31 
 0 
 0 
LINE
 10 
 3060.84814453125 
 20 
 861.752014160156 
 30 
 0 
 11 
 3065.85595703125 
 21 
 892.343994140625 
 31 
 0 
 0 
LINE
 10 
 3065.85595703125 
 20 
 892.343994140625 
 30 
 0 
 11 
 3070 
 21 
 925 
 31 
 0 
 0 
LINE
 10 
 3070 
 20 
 925 
 30 
 0 
 11 
 3080.0556640625 
 21 
 1001.64801025391 
 31 
 0 
 0 
LINE
 10 
 3080.0556640625 
 20 
 1001.64801025391 
 30 
 0 
 11 
 3091.88818359375 
 21 
 1058.6640625 
 31 
 0 
 0 
LINE
 10 
 3091.88818359375 
 20 
 1058.6640625 
 30 
 0 
 11 
 3106.7919921875 
 21 
 1099.4560546875 
 31 
 0 
 0 
LINE
 10 
 3106.7919921875 
 20 
 1099.4560546875 
 30 
 0 
 11 
 3126.06396484375 
 21 
 1127.43200683594 
 31 
 0 
 0 
LINE
 10 
 3126.06396484375 
 20 
 1127.43200683594 
 30 
 0 
 11 
 3151 
 21 
 1146 
 31 
 0 
 0 
LINE
 10 
 3151 
 20 
 1146 
 30 
 0 
 11 
 3160.15991210938 
 21 
 1151.31994628906 
 31 
 0 
 0 
LINE
 10 
 3160.15991210938 
 20 
 1151.31994628906 
 30 
 0 
 11 
 3168.1201171875 
 21 
 1157.35998535156 
 31 
 0 
 0 
LINE
 10 
 3168.1201171875 
 20 
 1157.35998535156 
 30 
 0 
 11 
 3174.40014648438 
 21 
 1163.64001464844 
 31 
 0 
 0 
LINE
 10 
 3174.40014648438 
 20 
 1163.64001464844 
 30 
 0 
 11 
 3178.52001953125 
 21 
 1169.68005371094 
 31 
 0 
 0 
LINE
 10 
 3178.52001953125 
 20 
 1169.68005371094 
 30 
 0 
 11 
 3180 
 21 
 1175 
 31 
 0 
 0 
LINE
 10 
 3180 
 20 
 1175 
 30 
 0 
 11 
 3180.7919921875 
 21 
 1179.63195800781 
 31 
 0 
 0 
LINE
 10 
 3180.7919921875 
 20 
 1179.63195800781 
 30 
 0 
 11 
 3182.97583007813 
 21 
 1183.73608398438 
 31 
 0 
 0 
LINE
 10 
 3182.97583007813 
 20 
 1183.73608398438 
 30 
 0 
 11 
 3186.26391601563 
 21 
 1187.02392578125 
 31 
 0 
 0 
LINE
 10 
 3186.26391601563 
 20 
 1187.02392578125 
 30 
 0 
 11 
 3190.36791992188 
 21 
 1189.2080078125 
 31 
 0 
 0 
LINE
 10 
 3190.36791992188 
 20 
 1189.2080078125 
 30 
 0 
 11 
 3195 
 21 
 1190 
 31 
 0 
 0 
LINE
 10 
 3195 
 20 
 1190 
 30 
 0 
 11 
 3199.63159179688 
 21 
 1189.31994628906 
 31 
 0 
 0 
LINE
 10 
 3199.63159179688 
 20 
 1189.31994628906 
 30 
 0 
 11 
 3203.73583984375 
 21 
 1187.44006347656 
 31 
 0 
 0 
LINE
 10 
 3203.73583984375 
 20 
 1187.44006347656 
 30 
 0 
 11 
 3207.02416992188 
 21 
 1184.59997558594 
 31 
 0 
 0 
LINE
 10 
 3207.02416992188 
 20 
 1184.59997558594 
 30 
 0 
 11 
 3209.2080078125 
 21 
 1181.0400390625 
 31 
 0 
 0 
LINE
 10 
 3209.2080078125 
 20 
 1181.0400390625 
 30 
 0 
 11 
 3210 
 21 
 1177 
 31 
 0 
 0 
LINE
 10 
 3210 
 20 
 1177 
 30 
 0 
 11 
 3211.93579101563 
 21 
 1170.88000488281 
 31 
 0 
 0 
LINE
 10 
 3211.93579101563 
 20 
 1170.88000488281 
 30 
 0 
 11 
 3217.328125 
 21 
 1162.59997558594 
 31 
 0 
 0 
LINE
 10 
 3217.328125 
 20 
 1162.59997558594 
 30 
 0 
 11 
 3225.55200195313 
 21 
 1152.88000488281 
 31 
 0 
 0 
LINE
 10 
 3225.55200195313 
 20 
 1152.88000488281 
 30 
 0 
 11 
 3235.98413085938 
 21 
 1142.44006347656 
 31 
 0 
 0 
LINE
 10 
 3235.98413085938 
 20 
 1142.44006347656 
 30 
 0 
 11 
 3248 
 21 
 1132 
 31 
 0 
 0 
LINE
 10 
 3248 
 20 
 1132 
 30 
 0 
 11 
 3271.32788085938 
 21 
 1109.66394042969 
 31 
 0 
 0 
LINE
 10 
 3271.32788085938 
 20 
 1109.66394042969 
 30 
 0 
 11 
 3288.46411132813 
 21 
 1082.43200683594 
 31 
 0 
 0 
LINE
 10 
 3288.46411132813 
 20 
 1082.43200683594 
 30 
 0 
 11 
 3301.13623046875 
 21 
 1045.16796875 
 31 
 0 
 0 
LINE
 10 
 3301.13623046875 
 20 
 1045.16796875 
 30 
 0 
 11 
 3311.07202148438 
 21 
 992.736022949219 
 31 
 0 
 0 
LINE
 10 
 3311.07202148438 
 20 
 992.736022949219 
 30 
 0 
 11 
 3320 
 21 
 920 
 31 
 0 
 0 
LINE
 10 
 3320 
 20 
 920 
 30 
 0 
 11 
 3331.81567382813 
 21 
 845.856018066406 
 31 
 0 
 0 
LINE
 10 
 3331.81567382813 
 20 
 845.856018066406 
 30 
 0 
 11 
 3349.72802734375 
 21 
 798.448059082031 
 31 
 0 
 0 
LINE
 10 
 3349.72802734375 
 20 
 798.448059082031 
 30 
 0 
 11 
 3376.23217773438 
 21 
 775.712036132813 
 31 
 0 
 0 
LINE
 10 
 3376.23217773438 
 20 
 775.712036132813 
 30 
 0 
 11 
 3413.82421875 
 21 
 775.583984375 
 31 
 0 
 0 
LINE
 10 
 3413.82421875 
 20 
 775.583984375 
 30 
 0 
 11 
 3465 
 21 
 796 
 31 
 0 
 0 
LINE
 10 
 3465 
 20 
 796 
 30 
 0 
 11 
 3521 
 21 
 824 
 31 
 0 
 0 
LINE
 10 
 3521 
 20 
 824 
 30 
 0 
 11 
 3548 
 21 
 803 
 31 
 0 
 0 
LINE
 10 
 3548 
 20 
 803 
 30 
 0 
 11 
 3581.5517578125 
 21 
 767.320007324219 
 31 
 0 
 0 
LINE
 10 
 3581.5517578125 
 20 
 767.320007324219 
 30 
 0 
 11 
 3609.5361328125 
 21 
 715.320007324219 
 31 
 0 
 0 
LINE
 10 
 3609.5361328125 
 20 
 715.320007324219 
 30 
 0 
 11 
 3630.94409179688 
 21 
 650.359985351563 
 31 
 0 
 0 
LINE
 10 
 3630.94409179688 
 20 
 650.359985351563 
 30 
 0 
 11 
 3644.76806640625 
 21 
 575.799987792969 
 31 
 0 
 0 
LINE
 10 
 3644.76806640625 
 20 
 575.799987792969 
 30 
 0 
 11 
 3650 
 21 
 495 
 31 
 0 
 0 
LINE
 10 
 3650 
 20 
 495 
 30 
 0 
 11 
 3654.4560546875 
 21 
 402.575988769531 
 31 
 0 
 0 
LINE
 10 
 3654.4560546875 
 20 
 402.575988769531 
 30 
 0 
 11 
 3666.2080078125 
 21 
 323.447998046875 
 31 
 0 
 0 
LINE
 10 
 3666.2080078125 
 20 
 323.447998046875 
 30 
 0 
 11 
 3684.6318359375 
 21 
 259.631988525391 
 31 
 0 
 0 
LINE
 10 
 3684.6318359375 
 20 
 259.631988525391 
 30 
 0 
 11 
 3709.10400390625 
 21 
 213.143997192383 
 31 
 0 
 0 
LINE
 10 
 3709.10400390625 
 20 
 213.143997192383 
 30 
 0 
 11 
 3739 
 21 
 186 
 31 
 0 
 0 
LINE
 10 
 3739 
 20 
 186 
 30 
 0 
 11 
 3764.38403320313 
 21 
 175.559982299805 
 31 
 0 
 0 
LINE
 10 
 3764.38403320313 
 20 
 175.559982299805 
 30 
 0 
 11 
 3788.9521484375 
 21 
 170.639999389648 
 31 
 0 
 0 
LINE
 10 
 3788.9521484375 
 20 
 170.639999389648 
 30 
 0 
 11 
 3810.92822265625 
 21 
 171.240005493164 
 31 
 0 
 0 
LINE
 10 
 3810.92822265625 
 20 
 171.240005493164 
 30 
 0 
 11 
 3828.5361328125 
 21 
 177.360000610352 
 31 
 0 
 0 
LINE
 10 
 3828.5361328125 
 20 
 177.360000610352 
 30 
 0 
 11 
 3840 
 21 
 189 
 31 
 0 
 0 
LINE
 10 
 3840 
 20 
 189 
 30 
 0 
 11 
 3847.2080078125 
 21 
 214.575988769531 
 31 
 0 
 0 
LINE
 10 
 3847.2080078125 
 20 
 214.575988769531 
 30 
 0 
 11 
 3849.66381835938 
 21 
 255.368011474609 
 31 
 0 
 0 
LINE
 10 
 3849.66381835938 
 20 
 255.368011474609 
 30 
 0 
 11 
 3847.41577148438 
 21 
 311.472015380859 
 31 
 0 
 0 
LINE
 10 
 3847.41577148438 
 20 
 311.472015380859 
 30 
 0 
 11 
 3840.51196289063 
 21 
 382.984008789063 
 31 
 0 
 0 
LINE
 10 
 3840.51196289063 
 20 
 382.984008789063 
 30 
 0 
 11 
 3829 
 21 
 470 
 31 
 0 
 0 
LINE
 10 
 3829 
 20 
 470 
 30 
 0 
 11 
 3812.11181640625 
 21 
 626.464050292969 
 31 
 0 
 0 
LINE
 10 
 3812.11181640625 
 20 
 626.464050292969 
 30 
 0 
 11 
 3806.6962890625 
 21 
 778.512023925781 
 31 
 0 
 0 
LINE
 10 
 3806.6962890625 
 20 
 778.512023925781 
 30 
 0 
 11 
 3812.22412109375 
 21 
 914.528015136719 
 31 
 0 
 0 
LINE
 10 
 3812.22412109375 
 20 
 914.528015136719 
 30 
 0 
 11 
 3828.16796875 
 21 
 1022.89599609375 
 31 
 0 
 0 
LINE
 10 
 3828.16796875 
 20 
 1022.89599609375 
 30 
 0 
 11 
 3854 
 21 
 1092 
 31 
 0 
 0 
LINE
 10 
 3854 
 20 
 1092 
 30 
 0 
 11 
 3870.92797851563 
 21 
 1113.2958984375 
 31 
 0 
 0 
LINE
 10 
 3870.92797851563 
 20 
 1113.2958984375 
 30 
 0 
 11 
 3890.78442382813 
 21 
 1129.88806152344 
 31 
 0 
 0 
LINE
 10 
 3890.78442382813 
 20 
 1129.88806152344 
 30 
 0 
 11 
 3915.77612304688 
 21 
 1142.83203125 
 31 
 0 
 0 
LINE
 10 
 3915.77612304688 
 20 
 1142.83203125 
 30 
 0 
 11 
 3948.11206054688 
 21 
 1153.18395996094 
 31 
 0 
 0 
LINE
 10 
 3948.11206054688 
 20 
 1153.18395996094 
 30 
 0 
 11 
 3990 
 21 
 1162 
 31 
 0 
 0 
LINE
 10 
 3990 
 20 
 1162 
 30 
 0 
 11 
 4044.248046875 
 21 
 1175.96801757813 
 31 
 0 
 0 
LINE
 10 
 4044.248046875 
 20 
 1175.96801757813 
 30 
 0 
 11 
 4082.94409179688 
 21 
 1198.86401367188 
 31 
 0 
 0 
LINE
 10 
 4082.94409179688 
 20 
 1198.86401367188 
 30 
 0 
 11 
 4109.01611328125 
 21 
 1234.57604980469 
 31 
 0 
 0 
LINE
 10 
 4109.01611328125 
 20 
 1234.57604980469 
 30 
 0 
 11 
 4125.39208984375 
 21 
 1286.99206542969 
 31 
 0 
 0 
LINE
 10 
 4125.39208984375 
 20 
 1286.99206542969 
 30 
 0 
 11 
 4135 
 21 
 1360 
 31 
 0 
 0 
LINE
 10 
 4135 
 20 
 1360 
 30 
 0 
 11 
 4137.94384765625 
 21 
 1388.14392089844 
 31 
 0 
 0 
LINE
 10 
 4137.94384765625 
 20 
 1388.14392089844 
 30 
 0 
 11 
 4141.751953125 
 21 
 1414.99194335938 
 31 
 0 
 0 
LINE
 10 
 4141.751953125 
 20 
 1414.99194335938 
 30 
 0 
 11 
 4146.087890625 
 21 
 1438.76806640625 
 31 
 0 
 0 
LINE
 10 
 4146.087890625 
 20 
 1438.76806640625 
 30 
 0 
 11 
 4150.6162109375 
 21 
 1457.69604492188 
 31 
 0 
 0 
LINE
 10 
 4150.6162109375 
 20 
 1457.69604492188 
 30 
 0 
 11 
 4155 
 21 
 1470 
 31 
 0 
 0 
LINE
 10 
 4155 
 20 
 1470 
 30 
 0 
 11 
 4163.50390625 
 21 
 1480.67993164063 
 31 
 0 
 0 
LINE
 10 
 4163.50390625 
 20 
 1480.67993164063 
 30 
 0 
 11 
 4179.35205078125 
 21 
 1493.52001953125 
 31 
 0 
 0 
LINE
 10 
 4179.35205078125 
 20 
 1493.52001953125 
 30 
 0 
 11 
 4202.4482421875 
 21 
 1508.52001953125 
 31 
 0 
 0 
LINE
 10 
 4202.4482421875 
 20 
 1508.52001953125 
 30 
 0 
 11 
 4232.69580078125 
 21 
 1525.68005371094 
 31 
 0 
 0 
LINE
 10 
 4232.69580078125 
 20 
 1525.68005371094 
 30 
 0 
 11 
 4270 
 21 
 1545 
 31 
 0 
 0 
LINE
 10 
 4270 
 20 
 1545 
 30 
 0 
 11 
 4304.3916015625 
 21 
 1562.22387695313 
 31 
 0 
 0 
LINE
 10 
 4304.3916015625 
 20 
 1562.22387695313 
 30 
 0 
 11 
 4335.6162109375 
 21 
 1579.59204101563 
 31 
 0 
 0 
LINE
 10 
 4335.6162109375 
 20 
 1579.59204101563 
 30 
 0 
 11 
 4361.94384765625 
 21 
 1596.04809570313 
 31 
 0 
 0 
LINE
 10 
 4361.94384765625 
 20 
 1596.04809570313 
 30 
 0 
 11 
 4381.64794921875 
 21 
 1610.53601074219 
 31 
 0 
 0 
LINE
 10 
 4381.64794921875 
 20 
 1610.53601074219 
 30 
 0 
 11 
 4393 
 21 
 1622 
 31 
 0 
 0 
LINE
 10 
 4393 
 20 
 1622 
 30 
 0 
 11 
 4400.31201171875 
 21 
 1634.09594726563 
 31 
 0 
 0 
LINE
 10 
 4400.31201171875 
 20 
 1634.09594726563 
 30 
 0 
 11 
 4406.6162109375 
 21 
 1649.88806152344 
 31 
 0 
 0 
LINE
 10 
 4406.6162109375 
 20 
 1649.88806152344 
 30 
 0 
 11 
 4411.86376953125 
 21 
 1669.23205566406 
 31 
 0 
 0 
LINE
 10 
 4411.86376953125 
 20 
 1669.23205566406 
 30 
 0 
 11 
 4416.00830078125 
 21 
 1691.98400878906 
 31 
 0 
 0 
LINE
 10 
 4416.00830078125 
 20 
 1691.98400878906 
 30 
 0 
 11 
 4419 
 21 
 1718 
 31 
 0 
 0 
LINE
 10 
 4419 
 20 
 1718 
 30 
 0 
 11 
 4425.3759765625 
 21 
 1763.56787109375 
 31 
 0 
 0 
LINE
 10 
 4425.3759765625 
 20 
 1763.56787109375 
 30 
 0 
 11 
 4436.40771484375 
 21 
 1798.14416503906 
 31 
 0 
 0 
LINE
 10 
 4436.40771484375 
 20 
 1798.14416503906 
 30 
 0 
 11 
 4454.35205078125 
 21 
 1825.13598632813 
 31 
 0 
 0 
LINE
 10 
 4454.35205078125 
 20 
 1825.13598632813 
 30 
 0 
 11 
 4481.4638671875 
 21 
 1847.95202636719 
 31 
 0 
 0 
LINE
 10 
 4481.4638671875 
 20 
 1847.95202636719 
 30 
 0 
 11 
 4520 
 21 
 1870 
 31 
 0 
 0 
LINE
 10 
 4520 
 20 
 1870 
 30 
 0 
 11 
 4563.50390625 
 21 
 1894.06384277344 
 31 
 0 
 0 
LINE
 10 
 4563.50390625 
 20 
 1894.06384277344 
 30 
 0 
 11 
 4590.59228515625 
 21 
 1918.03198242188 
 31 
 0 
 0 
LINE
 10 
 4590.59228515625 
 20 
 1918.03198242188 
 30 
 0 
 11 
 4604.5283203125 
 21 
 1948.76806640625 
 31 
 0 
 0 
LINE
 10 
 4604.5283203125 
 20 
 1948.76806640625 
 30 
 0 
 11 
 4608.576171875 
 21 
 1993.13610839844 
 31 
 0 
 0 
LINE
 10 
 4608.576171875 
 20 
 1993.13610839844 
 30 
 0 
 11 
 4606 
 21 
 2058 
 31 
 0 
 0 
LINE
 10 
 4606 
 20 
 2058 
 30 
 0 
 11 
 4603.24755859375 
 21 
 2114.52001953125 
 31 
 0 
 0 
LINE
 10 
 4603.24755859375 
 20 
 2114.52001953125 
 30 
 0 
 11 
 4604.38427734375 
 21 
 2152.32006835938 
 31 
 0 
 0 
LINE
 10 
 4604.38427734375 
 20 
 2152.32006835938 
 30 
 0 
 11 
 4610.89599609375 
 21 
 2177.15991210938 
 31 
 0 
 0 
LINE
 10 
 4610.89599609375 
 20 
 2177.15991210938 
 30 
 0 
 11 
 4624.27197265625 
 21 
 2194.80004882813 
 31 
 0 
 0 
LINE
 10 
 4624.27197265625 
 20 
 2194.80004882813 
 30 
 0 
 11 
 4646 
 21 
 2211 
 31 
 0 
 0 
LINE
 10 
 4646 
 20 
 2211 
 30 
 0 
 11 
 4654.19970703125 
 21 
 2217.44799804688 
 31 
 0 
 0 
LINE
 10 
 4654.19970703125 
 20 
 2217.44799804688 
 30 
 0 
 11 
 4654.72021484375 
 21 
 2221.5439453125 
 31 
 0 
 0 
LINE
 10 
 4654.72021484375 
 20 
 2221.5439453125 
 30 
 0 
 11 
 4645.64013671875 
 21 
 2223.81591796875 
 31 
 0 
 0 
LINE
 10 
 4645.64013671875 
 20 
 2223.81591796875 
 30 
 0 
 11 
 4625.0400390625 
 21 
 2224.7919921875 
 31 
 0 
 0 
LINE
 10 
 4625.0400390625 
 20 
 2224.7919921875 
 30 
 0 
 11 
 4591 
 21 
 2225 
 31 
 0 
 0 
LINE
 10 
 4591 
 20 
 2225 
 30 
 0 
 11 
 4560.607421875 
 21 
 2225.61596679688 
 31 
 0 
 0 
LINE
 10 
 4560.607421875 
 20 
 2225.61596679688 
 30 
 0 
 11 
 4536.02392578125 
 21 
 2227.52807617188 
 31 
 0 
 0 
LINE
 10 
 4536.02392578125 
 20 
 2227.52807617188 
 30 
 0 
 11 
 4516.3359375 
 21 
 2230.83203125 
 31 
 0 
 0 
LINE
 10 
 4516.3359375 
 20 
 2230.83203125 
 30 
 0 
 11 
 4500.6318359375 
 21 
 2235.6240234375 
 31 
 0 
 0 
LINE
 10 
 4500.6318359375 
 20 
 2235.6240234375 
 30 
 0 
 11 
 4488 
 21 
 2242 
 31 
 0 
 0 
LINE
 10 
 4488 
 20 
 2242 
 30 
 0 
 11 
 4471.76025390625 
 21 
 2250.69604492188 
 31 
 0 
 0 
LINE
 10 
 4471.76025390625 
 20 
 2250.69604492188 
 30 
 0 
 11 
 4460.7998046875 
 21 
 2250.3681640625 
 31 
 0 
 0 
LINE
 10 
 4460.7998046875 
 20 
 2250.3681640625 
 30 
 0 
 11 
 4454.16015625 
 21 
 2239.19189453125 
 31 
 0 
 0 
LINE
 10 
 4454.16015625 
 20 
 2239.19189453125 
 30 
 0 
 11 
 4450.8798828125 
 21 
 2215.34399414063 
 31 
 0 
 0 
LINE
 10 
 4450.8798828125 
 20 
 2215.34399414063 
 30 
 0 
 11 
 4450 
 21 
 2177 
 31 
 0 
 0 
LINE
 10 
 4450 
 20 
 2177 
 30 
 0 
 11 
 4449 
 21 
 2125 
 31 
 0 
 0 
LINE
 10 
 4449 
 20 
 2125 
 30 
 0 
 11 
 4397 
 21 
 2181 
 31 
 0 
 0 
LINE
 10 
 4397 
 20 
 2181 
 30 
 0 
 11 
 4365.23974609375 
 21 
 2216.91186523438 
 31 
 0 
 0 
LINE
 10 
 4365.23974609375 
 20 
 2216.91186523438 
 30 
 0 
 11 
 4340.43994140625 
 21 
 2250.85595703125 
 31 
 0 
 0 
LINE
 10 
 4340.43994140625 
 20 
 2250.85595703125 
 30 
 0 
 11 
 4322.1201171875 
 21 
 2283.74389648438 
 31 
 0 
 0 
LINE
 10 
 4322.1201171875 
 20 
 2283.74389648438 
 30 
 0 
 11 
 4309.80029296875 
 21 
 2316.48803710938 
 31 
 0 
 0 
LINE
 10 
 4309.80029296875 
 20 
 2316.48803710938 
 30 
 0 
 11 
 4303 
 21 
 2350 
 31 
 0 
 0 
LINE
 10 
 4303 
 20 
 2350 
 30 
 0 
 11 
 4299.48779296875 
 21 
 2366.67993164063 
 31 
 0 
 0 
LINE
 10 
 4299.48779296875 
 20 
 2366.67993164063 
 30 
 0 
 11 
 4293.14404296875 
 21 
 2381.67993164063 
 31 
 0 
 0 
LINE
 10 
 4293.14404296875 
 20 
 2381.67993164063 
 30 
 0 
 11 
 4283.05615234375 
 21 
 2396.43994140625 
 31 
 0 
 0 
LINE
 10 
 4283.05615234375 
 20 
 2396.43994140625 
 30 
 0 
 11 
 4268.31201171875 
 21 
 2412.40014648438 
 31 
 0 
 0 
LINE
 10 
 4268.31201171875 
 20 
 2412.40014648438 
 30 
 0 
 11 
 4248 
 21 
 2431 
 31 
 0 
 0 
LINE
 10 
 4248 
 20 
 2431 
 30 
 0 
 11 
 4224.6474609375 
 21 
 2452.751953125 
 31 
 0 
 0 
LINE
 10 
 4224.6474609375 
 20 
 2452.751953125 
 30 
 0 
 11 
 4190.3037109375 
 21 
 2486.93603515625 
 31 
 0 
 0 
LINE
 10 
 4190.3037109375 
 20 
 2486.93603515625 
 30 
 0 
 11 
 4148.13623046875 
 21 
 2530.14404296875 
 31 
 0 
 0 
LINE
 10 
 4148.13623046875 
 20 
 2530.14404296875 
 30 
 0 
 11 
 4101.31201171875 
 21 
 2578.96801757813 
 31 
 0 
 0 
LINE
 10 
 4101.31201171875 
 20 
 2578.96801757813 
 30 
 0 
 11 
 4053 
 21 
 2630 
 31 
 0 
 0 
LINE
 10 
 4053 
 20 
 2630 
 30 
 0 
 11 
 3951.11962890625 
 21 
 2736.76000976563 
 31 
 0 
 0 
LINE
 10 
 3951.11962890625 
 20 
 2736.76000976563 
 30 
 0 
 11 
 3860.76025390625 
 21 
 2826 
 31 
 0 
 0 
LINE
 10 
 3860.76025390625 
 20 
 2826 
 30 
 0 
 11 
 3779.0400390625 
 21 
 2900.35986328125 
 31 
 0 
 0 
LINE
 10 
 3779.0400390625 
 20 
 2900.35986328125 
 30 
 0 
 11 
 3703.080078125 
 21 
 2962.48022460938 
 31 
 0 
 0 
LINE
 10 
 3703.080078125 
 20 
 2962.48022460938 
 30 
 0 
 11 
 3630 
 21 
 3015 
 31 
 0 
 0 
LINE
 10 
 3630 
 20 
 3015 
 30 
 0 
 11 
 3558.99975585938 
 21 
 3060.10375976563 
 31 
 0 
 0 
LINE
 10 
 3558.99975585938 
 20 
 3060.10375976563 
 30 
 0 
 11 
 3491.59985351563 
 21 
 3098.63208007813 
 31 
 0 
 0 
LINE
 10 
 3491.59985351563 
 20 
 3098.63208007813 
 30 
 0 
 11 
 3433.7998046875 
 21 
 3127.60815429688 
 31 
 0 
 0 
LINE
 10 
 3433.7998046875 
 20 
 3127.60815429688 
 30 
 0 
 11 
 3391.60009765625 
 21 
 3144.05615234375 
 31 
 0 
 0 
LINE
 10 
 3391.60009765625 
 20 
 3144.05615234375 
 30 
 0 
 11 
 3371 
 21 
 3145 
 31 
 0 
 0 
LINE
 10 
 3371 
 20 
 3145 
 30 
 0 
 11 
 3362.01586914063 
 21 
 3112.77587890625 
 31 
 0 
 0 
LINE
 10 
 3362.01586914063 
 20 
 3112.77587890625 
 30 
 0 
 11 
 3353.60815429688 
 21 
 3043.44799804688 
 31 
 0 
 0 
LINE
 10 
 3353.60815429688 
 20 
 3043.44799804688 
 30 
 0 
 11 
 3346.59228515625 
 21 
 2947.43212890625 
 31 
 0 
 0 
LINE
 10 
 3346.59228515625 
 20 
 2947.43212890625 
 30 
 0 
 11 
 3341.7841796875 
 21 
 2835.14404296875 
 31 
 0 
 0 
LINE
 10 
 3341.7841796875 
 20 
 2835.14404296875 
 30 
 0 
 11 
 3340 
 21 
 2717 
 31 
 0 
 0 
LINE
 10 
 3340 
 20 
 2717 
 30 
 0 
 11 
 3339.74389648438 
 21 
 2628.43188476563 
 31 
 0 
 0 
LINE
 10 
 3339.74389648438 
 20 
 2628.43188476563 
 30 
 0 
 11 
 3338.43212890625 
 21 
 2573.416015625 
 31 
 0 
 0 
LINE
 10 
 3338.43212890625 
 20 
 2573.416015625 
 30 
 0 
 11 
 3335.248046875 
 21 
 2543.98413085938 
 31 
 0 
 0 
LINE
 10 
 3335.248046875 
 20 
 2543.98413085938 
 30 
 0 
 11 
 3329.3759765625 
 21 
 2532.16796875 
 31 
 0 
 0 
LINE
 10 
 3329.3759765625 
 20 
 2532.16796875 
 30 
 0 
 11 
 3320 
 21 
 2530 
 31 
 0 
 0 
LINE
 10 
 3320 
 20 
 2530 
 30 
 0 
 11 
 3310.62377929688 
 21 
 2531.85595703125 
 31 
 0 
 0 
LINE
 10 
 3310.62377929688 
 20 
 2531.85595703125 
 30 
 0 
 11 
 3304.75219726563 
 21 
 2541.48828125 
 31 
 0 
 0 
LINE
 10 
 3304.75219726563 
 20 
 2541.48828125 
 30 
 0 
 11 
 3301.56811523438 
 21 
 2564.99194335938 
 31 
 0 
 0 
LINE
 10 
 3301.56811523438 
 20 
 2564.99194335938 
 30 
 0 
 11 
 3300.25610351563 
 21 
 2608.46411132813 
 31 
 0 
 0 
LINE
 10 
 3300.25610351563 
 20 
 2608.46411132813 
 30 
 0 
 11 
 3300 
 21 
 2678 
 31 
 0 
 0 
LINE
 10 
 3300 
 20 
 2678 
 30 
 0 
 11 
 3303.50390625 
 21 
 2826.0078125 
 31 
 0 
 0 
LINE
 10 
 3303.50390625 
 20 
 2826.0078125 
 30 
 0 
 11 
 3312.67211914063 
 21 
 2974.7841796875 
 31 
 0 
 0 
LINE
 10 
 3312.67211914063 
 20 
 2974.7841796875 
 30 
 0 
 11 
 3325.48803710938 
 21 
 3104.4560546875 
 31 
 0 
 0 
LINE
 10 
 3325.48803710938 
 20 
 3104.4560546875 
 30 
 0 
 11 
 3339.93603515625 
 21 
 3195.15209960938 
 31 
 0 
 0 
LINE
 10 
 3339.93603515625 
 20 
 3195.15209960938 
 30 
 0 
 11 
 3354 
 21 
 3227 
 31 
 0 
 0 
LINE
 10 
 3354 
 20 
 3227 
 30 
 0 
 11 
 3357.56811523438 
 21 
 3224.78369140625 
 31 
 0 
 0 
LINE
 10 
 3357.56811523438 
 20 
 3224.78369140625 
 30 
 0 
 11 
 3360.94409179688 
 21 
 3220.7919921875 
 31 
 0 
 0 
LINE
 10 
 3360.94409179688 
 20 
 3220.7919921875 
 30 
 0 
 11 
 3363.93603515625 
 21 
 3215.40795898438 
 31 
 0 
 0 
LINE
 10 
 3363.93603515625 
 20 
 3215.40795898438 
 30 
 0 
 11 
 3366.35205078125 
 21 
 3209.01611328125 
 31 
 0 
 0 
LINE
 10 
 3366.35205078125 
 20 
 3209.01611328125 
 30 
 0 
 11 
 3368 
 21 
 3202 
 31 
 0 
 0 
LINE
 10 
 3368 
 20 
 3202 
 30 
 0 
 11 
 3371.86376953125 
 21 
 3192.43994140625 
 31 
 0 
 0 
LINE
 10 
 3371.86376953125 
 20 
 3192.43994140625 
 30 
 0 
 11 
 3380.43212890625 
 21 
 3182.63989257813 
 31 
 0 
 0 
LINE
 10 
 3380.43212890625 
 20 
 3182.63989257813 
 30 
 0 
 11 
 3394.56787109375 
 21 
 3172.11987304688 
 31 
 0 
 0 
LINE
 10 
 3394.56787109375 
 20 
 3172.11987304688 
 30 
 0 
 11 
 3415.13598632813 
 21 
 3160.40014648438 
 31 
 0 
 0 
LINE
 10 
 3415.13598632813 
 20 
 3160.40014648438 
 30 
 0 
 11 
 3443 
 21 
 3147 
 31 
 0 
 0 
LINE
 10 
 3443 
 20 
 3147 
 30 
 0 
 11 
 3567.087890625 
 21 
 3081.99975585938 
 31 
 0 
 0 
LINE
 10 
 3567.087890625 
 20 
 3081.99975585938 
 30 
 0 
 11 
 3687.38427734375 
 21 
 3001.40014648438 
 31 
 0 
 0 
LINE
 10 
 3687.38427734375 
 20 
 3001.40014648438 
 30 
 0 
 11 
 3818.3359375 
 21 
 2893.19995117188 
 31 
 0 
 0 
LINE
 10 
 3818.3359375 
 20 
 2893.19995117188 
 30 
 0 
 11 
 3974.39208984375 
 21 
 2745.40014648438 
 31 
 0 
 0 
LINE
 10 
 3974.39208984375 
 20 
 2745.40014648438 
 30 
 0 
 11 
 4170 
 21 
 2546 
 31 
 0 
 0 
LINE
 10 
 4170 
 20 
 2546 
 30 
 0 
 11 
 4226.95947265625 
 21 
 2488.9599609375 
 31 
 0 
 0 
LINE
 10 
 4226.95947265625 
 20 
 2488.9599609375 
 30 
 0 
 11 
 4288.47998046875 
 21 
 2431.67993164063 
 31 
 0 
 0 
LINE
 10 
 4288.47998046875 
 20 
 2431.67993164063 
 30 
 0 
 11 
 4350.72021484375 
 21 
 2377.52001953125 
 31 
 0 
 0 
LINE
 10 
 4350.72021484375 
 20 
 2377.52001953125 
 30 
 0 
 11 
 4409.83984375 
 21 
 2329.84008789063 
 31 
 0 
 0 
LINE
 10 
 4409.83984375 
 20 
 2329.84008789063 
 30 
 0 
 11 
 4462 
 21 
 2292 
 31 
 0 
 0 
LINE
 10 
 4462 
 20 
 2292 
 30 
 0 
 11 
 4502.42431640625 
 21 
 2268.35986328125 
 31 
 0 
 0 
LINE
 10 
 4502.42431640625 
 20 
 2268.35986328125 
 30 
 0 
 11 
 4542.03173828125 
 21 
 2252.63989257813 
 31 
 0 
 0 
LINE
 10 
 4542.03173828125 
 20 
 2252.63989257813 
 30 
 0 
 11 
 4580.72802734375 
 21 
 2244.84008789063 
 31 
 0 
 0 
LINE
 10 
 4580.72802734375 
 20 
 2244.84008789063 
 30 
 0 
 11 
 4618.416015625 
 21 
 2244.9599609375 
 31 
 0 
 0 
LINE
 10 
 4618.416015625 
 20 
 2244.9599609375 
 30 
 0 
 11 
 4655 
 21 
 2253 
 31 
 0 
 0 
LINE
 10 
 4655 
 20 
 2253 
 30 
 0 
 11 
 4752.48779296875 
 21 
 2297.3359375 
 31 
 0 
 0 
LINE
 10 
 4752.48779296875 
 20 
 2297.3359375 
 30 
 0 
 11 
 4855.30419921875 
 21 
 2369.84814453125 
 31 
 0 
 0 
LINE
 10 
 4855.30419921875 
 20 
 2369.84814453125 
 30 
 0 
 11 
 4975.97607421875 
 21 
 2482.39208984375 
 31 
 0 
 0 
LINE
 10 
 4975.97607421875 
 20 
 2482.39208984375 
 30 
 0 
 11 
 5127.0322265625 
 21 
 2646.82397460938 
 31 
 0 
 0 
LINE
 10 
 5127.0322265625 
 20 
 2646.82397460938 
 30 
 0 
 11 
 5321 
 21 
 2875 
 31 
 0 
 0 
LINE
 10 
 5321 
 20 
 2875 
 30 
 0 
 11 
 5419.23974609375 
 21 
 2989.84790039063 
 31 
 0 
 0 
LINE
 10 
 5419.23974609375 
 20 
 2989.84790039063 
 30 
 0 
 11 
 5497.3203125 
 21 
 3072.10400390625 
 31 
 0 
 0 
LINE
 10 
 5497.3203125 
 20 
 3072.10400390625 
 30 
 0 
 11 
 5568.6796875 
 21 
 3133.3359375 
 31 
 0 
 0 
LINE
 10 
 5568.6796875 
 20 
 3133.3359375 
 30 
 0 
 11 
 5646.76025390625 
 21 
 3185.11206054688 
 31 
 0 
 0 
LINE
 10 
 5646.76025390625 
 20 
 3185.11206054688 
 30 
 0 
 11 
 5745 
 21 
 3239 
 31 
 0 
 0 
LINE
 10 
 5745 
 20 
 3239 
 30 
 0 
 11 
 5903.52783203125 
 21 
 3325.5361328125 
 31 
 0 
 0 
LINE
 10 
 5903.52783203125 
 20 
 3325.5361328125 
 30 
 0 
 11 
 6025.8642578125 
 21 
 3403.04809570313 
 31 
 0 
 0 
LINE
 10 
 6025.8642578125 
 20 
 3403.04809570313 
 30 
 0 
 11 
 6114.93603515625 
 21 
 3473.7919921875 
 31 
 0 
 0 
LINE
 10 
 6114.93603515625 
 20 
 3473.7919921875 
 30 
 0 
 11 
 6173.671875 
 21 
 3540.02416992188 
 31 
 0 
 0 
LINE
 10 
 6173.671875 
 20 
 3540.02416992188 
 30 
 0 
 11 
 6205 
 21 
 3604 
 31 
 0 
 0 
LINE
 10 
 6205 
 20 
 3604 
 30 
 0 
 11 
 6211.7353515625 
 21 
 3628.4638671875 
 31 
 0 
 0 
LINE
 10 
 6211.7353515625 
 20 
 3628.4638671875 
 30 
 0 
 11 
 6215.2080078125 
 21 
 3647.31225585938 
 31 
 0 
 0 
LINE
 10 
 6215.2080078125 
 20 
 3647.31225585938 
 30 
 0 
 11 
 6215.51171875 
 21 
 3663.328125 
 31 
 0 
 0 
LINE
 10 
 6215.51171875 
 20 
 3663.328125 
 30 
 0 
 11 
 6212.744140625 
 21 
 3679.29614257813 
 31 
 0 
 0 
LINE
 10 
 6212.744140625 
 20 
 3679.29614257813 
 30 
 0 
 11 
 6207 
 21 
 3698 
 31 
 0 
 0 
LINE
 10 
 6207 
 20 
 3698 
 30 
 0 
 11 
 6184.0556640625 
 21 
 3744.671875 
 31 
 0 
 0 
LINE
 10 
 6184.0556640625 
 20 
 3744.671875 
 30 
 0 
 11 
 6148.248046875 
 21 
 3789.13598632813 
 31 
 0 
 0 
LINE
 10 
 6148.248046875 
 20 
 3789.13598632813 
 30 
 0 
 11 
 6098.7119140625 
 21 
 3832.06420898438 
 31 
 0 
 0 
LINE
 10 
 6098.7119140625 
 20 
 3832.06420898438 
 30 
 0 
 11 
 6034.583984375 
 21 
 3874.12817382813 
 31 
 0 
 0 
LINE
 10 
 6034.583984375 
 20 
 3874.12817382813 
 30 
 0 
 11 
 5955 
 21 
 3916 
 31 
 0 
 0 
LINE
 10 
 5955 
 20 
 3916 
 30 
 0 
 11 
 5795.05615234375 
 21 
 3980.23974609375 
 31 
 0 
 0 
LINE
 10 
 5795.05615234375 
 20 
 3980.23974609375 
 30 
 0 
 11 
 5623.92822265625 
 21 
 4025.52001953125 
 31 
 0 
 0 
LINE
 10 
 5623.92822265625 
 20 
 4025.52001953125 
 30 
 0 
 11 
 5440.27197265625 
 21 
 4052.080078125 
 31 
 0 
 0 
LINE
 10 
 5440.27197265625 
 20 
 4052.080078125 
 30 
 0 
 11 
 5242.744140625 
 21 
 4060.16015625 
 31 
 0 
 0 
LINE
 10 
 5242.744140625 
 20 
 4060.16015625 
 30 
 0 
 11 
 5030 
 21 
 4050 
 31 
 0 
 0 
LINE
 10 
 5030 
 20 
 4050 
 30 
 0 
 11 
 4702.17578125 
 21 
 4003.31201171875 
 31 
 0 
 0 
LINE
 10 
 4702.17578125 
 20 
 4003.31201171875 
 30 
 0 
 11 
 4358.84814453125 
 21 
 3921.77612304688 
 31 
 0 
 0 
LINE
 10 
 4358.84814453125 
 20 
 3921.77612304688 
 30 
 0 
 11 
 4015.23193359375 
 21 
 3810.38403320313 
 31 
 0 
 0 
LINE
 10 
 4015.23193359375 
 20 
 3810.38403320313 
 30 
 0 
 11 
 3686.5439453125 
 21 
 3674.12817382813 
 31 
 0 
 0 
LINE
 10 
 3686.5439453125 
 20 
 3674.12817382813 
 30 
 0 
 11 
 3388 
 21 
 3518 
 31 
 0 
 0 
LINE
 10 
 3388 
 20 
 3518 
 30 
 0 
 11 
 3321 
 21 
 3478 
 31 
 0 
 0 
LINE
 10 
 3321 
 20 
 3478 
 30 
 0 
 11 
 3337 
 21 
 3453 
 31 
 0 
 0 
LINE
 10 
 3337 
 20 
 3453 
 30 
 0 
 11 
 3343.73583984375 
 21 
 3442.17602539063 
 31 
 0 
 0 
LINE
 10 
 3343.73583984375 
 20 
 3442.17602539063 
 30 
 0 
 11 
 3347.20825195313 
 21 
 3434.328125 
 31 
 0 
 0 
LINE
 10 
 3347.20825195313 
 20 
 3434.328125 
 30 
 0 
 11 
 3347.51196289063 
 21 
 3428.59204101563 
 31 
 0 
 0 
LINE
 10 
 3347.51196289063 
 20 
 3428.59204101563 
 30 
 0 
 11 
 3344.744140625 
 21 
 3424.10400390625 
 31 
 0 
 0 
LINE
 10 
 3344.744140625 
 20 
 3424.10400390625 
 30 
 0 
 11 
 3339 
 21 
 3420 
 31 
 0 
 0 
LINE
 10 
 3339 
 20 
 3420 
 30 
 0 
 11 
 3333.72802734375 
 21 
 3417.3759765625 
 31 
 0 
 0 
LINE
 10 
 3333.72802734375 
 20 
 3417.3759765625 
 30 
 0 
 11 
 3328.744140625 
 21 
 3416.76831054688 
 31 
 0 
 0 
LINE
 10 
 3328.744140625 
 20 
 3416.76831054688 
 30 
 0 
 11 
 3324.09619140625 
 21 
 3418.27197265625 
 31 
 0 
 0 
LINE
 10 
 3324.09619140625 
 20 
 3418.27197265625 
 30 
 0 
 11 
 3319.83203125 
 21 
 3421.98413085938 
 31 
 0 
 0 
LINE
 10 
 3319.83203125 
 20 
 3421.98413085938 
 30 
 0 
 11 
 3316 
 21 
 3428 
 31 
 0 
 0 
LINE
 10 
 3316 
 20 
 3428 
 30 
 0 
 11 
 3312.7998046875 
 21 
 3433.4560546875 
 31 
 0 
 0 
LINE
 10 
 3312.7998046875 
 20 
 3433.4560546875 
 30 
 0 
 11 
 3309.35986328125 
 21 
 3438.76806640625 
 31 
 0 
 0 
LINE
 10 
 3309.35986328125 
 20 
 3438.76806640625 
 30 
 0 
 11 
 3305.919921875 
 21 
 3443.55200195313 
 31 
 0 
 0 
LINE
 10 
 3305.919921875 
 20 
 3443.55200195313 
 30 
 0 
 11 
 3302.71997070313 
 21 
 3447.42407226563 
 31 
 0 
 0 
LINE
 10 
 3302.71997070313 
 20 
 3447.42407226563 
 30 
 0 
 11 
 3300 
 21 
 3450 
 31 
 0 
 0 
LINE
 10 
 3300 
 20 
 3450 
 30 
 0 
 11 
 3297.49584960938 
 21 
 3453.7197265625 
 31 
 0 
 0 
LINE
 10 
 3297.49584960938 
 20 
 3453.7197265625 
 30 
 0 
 11 
 3294.84814453125 
 21 
 3460.80004882813 
 31 
 0 
 0 
LINE
 10 
 3294.84814453125 
 20 
 3460.80004882813 
 30 
 0 
 11 
 3292.15209960938 
 21 
 3470.52001953125 
 31 
 0 
 0 
LINE
 10 
 3292.15209960938 
 20 
 3470.52001953125 
 30 
 0 
 11 
 3289.50390625 
 21 
 3482.16015625 
 31 
 0 
 0 
LINE
 10 
 3289.50390625 
 20 
 3482.16015625 
 30 
 0 
 11 
 3287 
 21 
 3495 
 31 
 0 
 0 
LINE
 10 
 3287 
 20 
 3495 
 30 
 0 
 11 
 3284.99169921875 
 21 
 3508.40771484375 
 31 
 0 
 0 
LINE
 10 
 3284.99169921875 
 20 
 3508.40771484375 
 30 
 0 
 11 
 3282.69604492188 
 21 
 3521.62377929688 
 31 
 0 
 0 
LINE
 10 
 3282.69604492188 
 20 
 3521.62377929688 
 30 
 0 
 11 
 3280.30395507813 
 21 
 3533.73608398438 
 31 
 0 
 0 
LINE
 10 
 3280.30395507813 
 20 
 3533.73608398438 
 30 
 0 
 11 
 3278.00805664063 
 21 
 3543.83203125 
 31 
 0 
 0 
LINE
 10 
 3278.00805664063 
 20 
 3543.83203125 
 30 
 0 
 11 
 3276 
 21 
 3551 
 31 
 0 
 0 
LINE
 10 
 3276 
 20 
 3551 
 30 
 0 
 11 
 3295.06396484375 
 21 
 3600.263671875 
 31 
 0 
 0 
LINE
 10 
 3295.06396484375 
 20 
 3600.263671875 
 30 
 0 
 11 
 3364.912109375 
 21 
 3683.03198242188 
 31 
 0 
 0 
LINE
 10 
 3364.912109375 
 20 
 3683.03198242188 
 30 
 0 
 11 
 3470.32788085938 
 21 
 3784.56811523438 
 31 
 0 
 0 
LINE
 10 
 3470.32788085938 
 20 
 3784.56811523438 
 30 
 0 
 11 
 3596.09594726563 
 21 
 3890.13623046875 
 31 
 0 
 0 
LINE
 10 
 3596.09594726563 
 20 
 3890.13623046875 
 30 
 0 
 11 
 3727 
 21 
 3985 
 31 
 0 
 0 
LINE
 10 
 3727 
 20 
 3985 
 30 
 0 
 11 
 3768.78369140625 
 21 
 4013.61572265625 
 31 
 0 
 0 
LINE
 10 
 3768.78369140625 
 20 
 4013.61572265625 
 30 
 0 
 11 
 3813.83227539063 
 21 
 4046.16796875 
 31 
 0 
 0 
LINE
 10 
 3813.83227539063 
 20 
 4046.16796875 
 30 
 0 
 11 
 3858.68798828125 
 21 
 4080.11206054688 
 31 
 0 
 0 
LINE
 10 
 3858.68798828125 
 20 
 4080.11206054688 
 30 
 0 
 11 
 3899.89599609375 
 21 
 4112.90380859375 
 31 
 0 
 0 
LINE
 10 
 3899.89599609375 
 20 
 4112.90380859375 
 30 
 0 
 11 
 3934 
 21 
 4142 
 31 
 0 
 0 
LINE
 10 
 3934 
 20 
 4142 
 30 
 0 
 11 
 3983.94384765625 
 21 
 4184.583984375 
 31 
 0 
 0 
LINE
 10 
 3983.94384765625 
 20 
 4184.583984375 
 30 
 0 
 11 
 4021.55224609375 
 21 
 4211.7119140625 
 31 
 0 
 0 
LINE
 10 
 4021.55224609375 
 20 
 4211.7119140625 
 30 
 0 
 11 
 4051.2880859375 
 21 
 4225.4482421875 
 31 
 0 
 0 
LINE
 10 
 4051.2880859375 
 20 
 4225.4482421875 
 30 
 0 
 11 
 4077.61596679688 
 21 
 4227.8564453125 
 31 
 0 
 0 
LINE
 10 
 4077.61596679688 
 20 
 4227.8564453125 
 30 
 0 
 11 
 4105 
 21 
 4221 
 31 
 0 
 0 
LINE
 10 
 4105 
 20 
 4221 
 30 
 0 
 11 
 4143.431640625 
 21 
 4211 
 31 
 0 
 0 
LINE
 10 
 4143.431640625 
 20 
 4211 
 30 
 0 
 11 
 4167.416015625 
 21 
 4211.7998046875 
 31 
 0 
 0 
LINE
 10 
 4167.416015625 
 20 
 4211.7998046875 
 30 
 0 
 11 
 4174.984375 
 21 
 4221 
 31 
 0 
 0 
LINE
 10 
 4174.984375 
 20 
 4221 
 30 
 0 
 11 
 4164.16796875 
 21 
 4236.2001953125 
 31 
 0 
 0 
LINE
 10 
 4164.16796875 
 20 
 4236.2001953125 
 30 
 0 
 11 
 4133 
 21 
 4255 
 31 
 0 
 0 
LINE
 10 
 4133 
 20 
 4255 
 30 
 0 
 11 
 4101.52783203125 
 21 
 4265.240234375 
 31 
 0 
 0 
LINE
 10 
 4101.52783203125 
 20 
 4265.240234375 
 30 
 0 
 11 
 4069.86401367188 
 21 
 4263.9599609375 
 31 
 0 
 0 
LINE
 10 
 4069.86401367188 
 20 
 4263.9599609375 
 30 
 0 
 11 
 4034.93603515625 
 21 
 4249.9599609375 
 31 
 0 
 0 
LINE
 10 
 4034.93603515625 
 20 
 4249.9599609375 
 30 
 0 
 11 
 3993.67211914063 
 21 
 4222.0400390625 
 31 
 0 
 0 
LINE
 10 
 3993.67211914063 
 20 
 4222.0400390625 
 30 
 0 
 11 
 3943 
 21 
 4179 
 31 
 0 
 0 
LINE
 10 
 3943 
 20 
 4179 
 30 
 0 
 11 
 3912.1201171875 
 21 
 4151.83203125 
 31 
 0 
 0 
LINE
 10 
 3912.1201171875 
 20 
 4151.83203125 
 30 
 0 
 11 
 3873.32006835938 
 21 
 4120.05615234375 
 31 
 0 
 0 
LINE
 10 
 3873.32006835938 
 20 
 4120.05615234375 
 30 
 0 
 11 
 3829.9599609375 
 21 
 4086.26391601563 
 31 
 0 
 0 
LINE
 10 
 3829.9599609375 
 20 
 4086.26391601563 
 30 
 0 
 11 
 3785.40014648438 
 21 
 4053.04809570313 
 31 
 0 
 0 
LINE
 10 
 3785.40014648438 
 20 
 4053.04809570313 
 30 
 0 
 11 
 3743 
 21 
 4023 
 31 
 0 
 0 
LINE
 10 
 3743 
 20 
 4023 
 30 
 0 
 11 
 3669.27197265625 
 21 
 3970.1357421875 
 31 
 0 
 0 
LINE
 10 
 3669.27197265625 
 20 
 3970.1357421875 
 30 
 0 
 11 
 3599.57592773438 
 21 
 3917.1279296875 
 31 
 0 
 0 
LINE
 10 
 3599.57592773438 
 20 
 3917.1279296875 
 30 
 0 
 11 
 3527.14404296875 
 21 
 3858.55224609375 
 31 
 0 
 0 
LINE
 10 
 3527.14404296875 
 20 
 3858.55224609375 
 30 
 0 
 11 
 3445.2080078125 
 21 
 3788.98413085938 
 31 
 0 
 0 
LINE
 10 
 3445.2080078125 
 20 
 3788.98413085938 
 30 
 0 
 11 
 3347 
 21 
 3703 
 31 
 0 
 0 
LINE
 10 
 3347 
 20 
 3703 
 30 
 0 
 11 
 3300.06396484375 
 21 
 3661.56811523438 
 31 
 0 
 0 
LINE
 10 
 3300.06396484375 
 20 
 3661.56811523438 
 30 
 0 
 11 
 3264.55200195313 
 21 
 3632.18383789063 
 31 
 0 
 0 
LINE
 10 
 3264.55200195313 
 20 
 3632.18383789063 
 30 
 0 
 11 
 3238.2080078125 
 21 
 3613.21606445313 
 31 
 0 
 0 
LINE
 10 
 3238.2080078125 
 20 
 3613.21606445313 
 30 
 0 
 11 
 3218.77612304688 
 21 
 3603.0322265625 
 31 
 0 
 0 
LINE
 10 
 3218.77612304688 
 20 
 3603.0322265625 
 30 
 0 
 11 
 3204 
 21 
 3600 
 31 
 0 
 0 
LINE
 10 
 3204 
 20 
 3600 
 30 
 0 
 11 
 3187.47192382813 
 21 
 3604.14379882813 
 31 
 0 
 0 
LINE
 10 
 3187.47192382813 
 20 
 3604.14379882813 
 30 
 0 
 11 
 3163.21606445313 
 21 
 3618.27197265625 
 31 
 0 
 0 
LINE
 10 
 3163.21606445313 
 20 
 3618.27197265625 
 30 
 0 
 11 
 3127.82421875 
 21 
 3644.92797851563 
 31 
 0 
 0 
LINE
 10 
 3127.82421875 
 20 
 3644.92797851563 
 30 
 0 
 11 
 3077.88793945313 
 21 
 3686.65600585938 
 31 
 0 
 0 
LINE
 10 
 3077.88793945313 
 20 
 3686.65600585938 
 30 
 0 
 11 
 3010 
 21 
 3746 
 31 
 0 
 0 
LINE
 10 
 3010 
 20 
 3746 
 30 
 0 
 11 
 2915.70385742188 
 21 
 3829.12817382813 
 31 
 0 
 0 
LINE
 10 
 2915.70385742188 
 20 
 3829.12817382813 
 30 
 0 
 11 
 2842.43188476563 
 21 
 3891.42407226563 
 31 
 0 
 0 
LINE
 10 
 2842.43188476563 
 20 
 3891.42407226563 
 30 
 0 
 11 
 2778.80810546875 
 21 
 3942.05590820313 
 31 
 0 
 0 
LINE
 10 
 2778.80810546875 
 20 
 3942.05590820313 
 30 
 0 
 11 
 2713.4560546875 
 21 
 3990.19213867188 
 31 
 0 
 0 
LINE
 10 
 2713.4560546875 
 20 
 3990.19213867188 
 30 
 0 
 11 
 2635 
 21 
 4045 
 31 
 0 
 0 
LINE
 10 
 2635 
 20 
 4045 
 30 
 0 
 11 
 2599.83203125 
 21 
 4070.18383789063 
 31 
 0 
 0 
LINE
 10 
 2599.83203125 
 20 
 4070.18383789063 
 30 
 0 
 11 
 2562.21606445313 
 21 
 4098.63232421875 
 31 
 0 
 0 
LINE
 10 
 2562.21606445313 
 20 
 4098.63232421875 
 30 
 0 
 11 
 2524.98388671875 
 21 
 4128.087890625 
 31 
 0 
 0 
LINE
 10 
 2524.98388671875 
 20 
 4128.087890625 
 30 
 0 
 11 
 2490.96801757813 
 21 
 4156.2958984375 
 31 
 0 
 0 
LINE
 10 
 2490.96801757813 
 20 
 4156.2958984375 
 30 
 0 
 11 
 2463 
 21 
 4181 
 31 
 0 
 0 
LINE
 10 
 2463 
 20 
 4181 
 30 
 0 
 11 
 2422.07202148438 
 21 
 4216.64013671875 
 31 
 0 
 0 
LINE
 10 
 2422.07202148438 
 20 
 4216.64013671875 
 30 
 0 
 11 
 2385.65625 
 21 
 4244.3603515625 
 31 
 0 
 0 
LINE
 10 
 2385.65625 
 20 
 4244.3603515625 
 30 
 0 
 11 
 2353.7041015625 
 21 
 4264.16015625 
 31 
 0 
 0 
LINE
 10 
 2353.7041015625 
 20 
 4264.16015625 
 30 
 0 
 11 
 2326.16796875 
 21 
 4276.0400390625 
 31 
 0 
 0 
LINE
 10 
 2326.16796875 
 20 
 4276.0400390625 
 30 
 0 
 11 
 2303 
 21 
 4280 
 31 
 0 
 0 
LINE
 10 
 2303 
 20 
 4280 
 30 
 0 
 11 
 2295.591796875 
 21 
 4278.97607421875 
 31 
 0 
 0 
LINE
 10 
 2295.591796875 
 20 
 4278.97607421875 
 30 
 0 
 11 
 2285.97607421875 
 21 
 4276.1279296875 
 31 
 0 
 0 
LINE
 10 
 2285.97607421875 
 20 
 4276.1279296875 
 30 
 0 
 11 
 2275.06396484375 
 21 
 4271.7919921875 
 31 
 0 
 0 
LINE
 10 
 2275.06396484375 
 20 
 4271.7919921875 
 30 
 0 
 11 
 2263.76806640625 
 21 
 4266.30419921875 
 31 
 0 
 0 
LINE
 10 
 2263.76806640625 
 20 
 4266.30419921875 
 30 
 0 
 11 
 2253 
 21 
 4260 
 31 
 0 
 0 
LINE
 10 
 1615 
 20 
 3891 
 30 
 0 
 11 
 1831.35986328125 
 21 
 3846.72778320313 
 31 
 0 
 0 
LINE
 10 
 1831.35986328125 
 20 
 3846.72778320313 
 30 
 0 
 11 
 2043.88012695313 
 21 
 3789.06420898438 
 31 
 0 
 0 
LINE
 10 
 2043.88012695313 
 20 
 3789.06420898438 
 30 
 0 
 11 
 2254.71997070313 
 21 
 3717.33618164063 
 31 
 0 
 0 
LINE
 10 
 2254.71997070313 
 20 
 3717.33618164063 
 30 
 0 
 11 
 2466.0400390625 
 21 
 3630.8720703125 
 31 
 0 
 0 
LINE
 10 
 2466.0400390625 
 20 
 3630.8720703125 
 30 
 0 
 11 
 2680 
 21 
 3529 
 31 
 0 
 0 
LINE
 10 
 2680 
 20 
 3529 
 30 
 0 
 11 
 2790.3759765625 
 21 
 3471.53588867188 
 31 
 0 
 0 
LINE
 10 
 2790.3759765625 
 20 
 3471.53588867188 
 30 
 0 
 11 
 2867.96826171875 
 21 
 3428.80786132813 
 31 
 0 
 0 
LINE
 10 
 2867.96826171875 
 20 
 3428.80786132813 
 30 
 0 
 11 
 2906.8720703125 
 21 
 3404.51196289063 
 31 
 0 
 0 
LINE
 10 
 2906.8720703125 
 20 
 3404.51196289063 
 30 
 0 
 11 
 2901.18408203125 
 21 
 3402.34399414063 
 31 
 0 
 0 
LINE
 10 
 2901.18408203125 
 20 
 3402.34399414063 
 30 
 0 
 11 
 2845 
 21 
 3426 
 31 
 0 
 0 
LINE
 10 
 2845 
 20 
 3426 
 30 
 0 
 11 
 2554.1279296875 
 21 
 3546.912109375 
 31 
 0 
 0 
LINE
 10 
 2554.1279296875 
 20 
 3546.912109375 
 30 
 0 
 11 
 2258.02392578125 
 21 
 3651.21606445313 
 31 
 0 
 0 
LINE
 10 
 2258.02392578125 
 20 
 3651.21606445313 
 30 
 0 
 11 
 1964.65600585938 
 21 
 3736.46411132813 
 31 
 0 
 0 
LINE
 10 
 1964.65600585938 
 20 
 3736.46411132813 
 30 
 0 
 11 
 1681.99194335938 
 21 
 3800.2080078125 
 31 
 0 
 0 
LINE
 10 
 1681.99194335938 
 20 
 3800.2080078125 
 30 
 0 
 11 
 1418 
 21 
 3840 
 31 
 0 
 0 
LINE
 10 
 1418 
 20 
 3840 
 30 
 0 
 11 
 1319.31994628906 
 21 
 3846.86401367188 
 31 
 0 
 0 
LINE
 10 
 1319.31994628906 
 20 
 3846.86401367188 
 30 
 0 
 11 
 1205.28002929688 
 21 
 3849.55200195313 
 31 
 0 
 0 
LINE
 10 
 1205.28002929688 
 20 
 3849.55200195313 
 30 
 0 
 11 
 1087.88000488281 
 21 
 3848.2080078125 
 31 
 0 
 0 
LINE
 10 
 1087.88000488281 
 20 
 3848.2080078125 
 30 
 0 
 11 
 979.119995117188 
 21 
 3842.97607421875 
 31 
 0 
 0 
LINE
 10 
 979.119995117188 
 20 
 3842.97607421875 
 30 
 0 
 11 
 891 
 21 
 3834 
 31 
 0 
 0 
LINE
 10 
 891 
 20 
 3834 
 30 
 0 
 11 
 814.031982421875 
 21 
 3819.4638671875 
 31 
 0 
 0 
LINE
 10 
 814.031982421875 
 20 
 3819.4638671875 
 30 
 0 
 11 
 731.736022949219 
 21 
 3798.83203125 
 31 
 0 
 0 
LINE
 10 
 731.736022949219 
 20 
 3798.83203125 
 30 
 0 
 11 
 651.023986816406 
 21 
 3774.16796875 
 31 
 0 
 0 
LINE
 10 
 651.023986816406 
 20 
 3774.16796875 
 30 
 0 
 11 
 578.808044433594 
 21 
 3747.5361328125 
 31 
 0 
 0 
LINE
 10 
 578.808044433594 
 20 
 3747.5361328125 
 30 
 0 
 11 
 522 
 21 
 3721 
 31 
 0 
 0 
LINE
 10 
 522 
 20 
 3721 
 30 
 0 
 11 
 505.839996337891 
 21 
 3711.96801757813 
 31 
 0 
 0 
LINE
 10 
 505.839996337891 
 20 
 3711.96801757813 
 30 
 0 
 11 
 491.600006103516 
 21 
 3704.423828125 
 31 
 0 
 0 
LINE
 10 
 491.600006103516 
 20 
 3704.423828125 
 30 
 0 
 11 
 480.240020751953 
 21 
 3698.89624023438 
 31 
 0 
 0 
LINE
 10 
 480.240020751953 
 20 
 3698.89624023438 
 30 
 0 
 11 
 472.720001220703 
 21 
 3695.912109375 
 31 
 0 
 0 
LINE
 10 
 472.720001220703 
 20 
 3695.912109375 
 30 
 0 
 11 
 470 
 21 
 3696 
 31 
 0 
 0 
LINE
 10 
 470 
 20 
 3696 
 30 
 0 
 11 
 482.223999023438 
 21 
 3706.91186523438 
 31 
 0 
 0 
LINE
 10 
 482.223999023438 
 20 
 3706.91186523438 
 30 
 0 
 11 
 513.072021484375 
 21 
 3728.576171875 
 31 
 0 
 0 
LINE
 10 
 513.072021484375 
 20 
 3728.576171875 
 30 
 0 
 11 
 553.807983398438 
 21 
 3755.18408203125 
 31 
 0 
 0 
LINE
 10 
 553.807983398438 
 20 
 3755.18408203125 
 30 
 0 
 11 
 595.695983886719 
 21 
 3780.92797851563 
 31 
 0 
 0 
LINE
 10 
 595.695983886719 
 20 
 3780.92797851563 
 30 
 0 
 11 
 630 
 21 
 3800 
 31 
 0 
 0 
LINE
 10 
 630 
 20 
 3800 
 30 
 0 
 11 
 681.319946289063 
 21 
 3823.07177734375 
 31 
 0 
 0 
LINE
 10 
 681.319946289063 
 20 
 3823.07177734375 
 30 
 0 
 11 
 742.720031738281 
 21 
 3845.85620117188 
 31 
 0 
 0 
LINE
 10 
 742.720031738281 
 20 
 3845.85620117188 
 30 
 0 
 11 
 810.359985351563 
 21 
 3867.10424804688 
 31 
 0 
 0 
LINE
 10 
 810.359985351563 
 20 
 3867.10424804688 
 30 
 0 
 11 
 880.400024414063 
 21 
 3885.56811523438 
 31 
 0 
 0 
LINE
 10 
 880.400024414063 
 20 
 3885.56811523438 
 30 
 0 
 11 
 949 
 21 
 3900 
 31 
 0 
 0 
LINE
 10 
 949 
 20 
 3900 
 30 
 0 
 11 
 1057.23999023438 
 21 
 3912.40771484375 
 31 
 0 
 0 
LINE
 10 
 1057.23999023438 
 20 
 3912.40771484375 
 30 
 0 
 11 
 1195.23999023438 
 21 
 3917.42407226563 
 31 
 0 
 0 
LINE
 10 
 1195.23999023438 
 20 
 3917.42407226563 
 30 
 0 
 11 
 1345.72009277344 
 21 
 3915.3359375 
 31 
 0 
 0 
LINE
 10 
 1345.72009277344 
 20 
 3915.3359375 
 30 
 0 
 11 
 1491.40002441406 
 21 
 3906.43212890625 
 31 
 0 
 0 
LINE
 10 
 1491.40002441406 
 20 
 3906.43212890625 
 30 
 0 
 11 
 1615 
 21 
 3891 
 31 
 0 
 0 
LINE
 10 
 5450 
 20 
 3896 
 30 
 0 
 11 
 5552.5361328125 
 21 
 3871.02368164063 
 31 
 0 
 0 
LINE
 10 
 5552.5361328125 
 20 
 3871.02368164063 
 30 
 0 
 11 
 5655.16796875 
 21 
 3837.55224609375 
 31 
 0 
 0 
LINE
 10 
 5655.16796875 
 20 
 3837.55224609375 
 30 
 0 
 11 
 5751.0322265625 
 21 
 3798.3681640625 
 31 
 0 
 0 
LINE
 10 
 5751.0322265625 
 20 
 3798.3681640625 
 30 
 0 
 11 
 5833.26416015625 
 21 
 3756.25610351563 
 31 
 0 
 0 
LINE
 10 
 5833.26416015625 
 20 
 3756.25610351563 
 30 
 0 
 11 
 5895 
 21 
 3714 
 31 
 0 
 0 
LINE
 10 
 5895 
 20 
 3714 
 30 
 0 
 11 
 5907.99169921875 
 21 
 3702.61572265625 
 31 
 0 
 0 
LINE
 10 
 5907.99169921875 
 20 
 3702.61572265625 
 30 
 0 
 11 
 5912.5361328125 
 21 
 3697.328125 
 31 
 0 
 0 
LINE
 10 
 5912.5361328125 
 20 
 3697.328125 
 30 
 0 
 11 
 5907.3837890625 
 21 
 3698.23193359375 
 31 
 0 
 0 
LINE
 10 
 5907.3837890625 
 20 
 3698.23193359375 
 30 
 0 
 11 
 5891.2880859375 
 21 
 3705.42407226563 
 31 
 0 
 0 
LINE
 10 
 5891.2880859375 
 20 
 3705.42407226563 
 30 
 0 
 11 
 5863 
 21 
 3719 
 31 
 0 
 0 
LINE
 10 
 5863 
 20 
 3719 
 30 
 0 
 11 
 5684.84765625 
 21 
 3789.08764648438 
 31 
 0 
 0 
LINE
 10 
 5684.84765625 
 20 
 3789.08764648438 
 30 
 0 
 11 
 5486.34423828125 
 21 
 3832.583984375 
 31 
 0 
 0 
LINE
 10 
 5486.34423828125 
 20 
 3832.583984375 
 30 
 0 
 11 
 5265.61572265625 
 21 
 3849.53588867188 
 31 
 0 
 0 
LINE
 10 
 5265.61572265625 
 20 
 3849.53588867188 
 30 
 0 
 11 
 5020.7919921875 
 21 
 3839.9921875 
 31 
 0 
 0 
LINE
 10 
 5020.7919921875 
 20 
 3839.9921875 
 30 
 0 
 11 
 4750 
 21 
 3804 
 31 
 0 
 0 
LINE
 10 
 4750 
 20 
 3804 
 30 
 0 
 11 
 4522.47998046875 
 21 
 3757.08813476563 
 31 
 0 
 0 
LINE
 10 
 4522.47998046875 
 20 
 3757.08813476563 
 30 
 0 
 11 
 4277.2001953125 
 21 
 3691.98388671875 
 31 
 0 
 0 
LINE
 10 
 4277.2001953125 
 20 
 3691.98388671875 
 30 
 0 
 11 
 4025.67993164063 
 21 
 3612.3359375 
 31 
 0 
 0 
LINE
 10 
 4025.67993164063 
 20 
 3612.3359375 
 30 
 0 
 11 
 3779.43994140625 
 21 
 3521.7919921875 
 31 
 0 
 0 
LINE
 10 
 3779.43994140625 
 20 
 3521.7919921875 
 30 
 0 
 11 
 3550 
 21 
 3424 
 31 
 0 
 0 
LINE
 10 
 3550 
 20 
 3424 
 30 
 0 
 11 
 3496.03173828125 
 21 
 3400.15991210938 
 31 
 0 
 0 
LINE
 10 
 3496.03173828125 
 20 
 3400.15991210938 
 30 
 0 
 11 
 3476.57592773438 
 21 
 3394.32006835938 
 31 
 0 
 0 
LINE
 10 
 3476.57592773438 
 20 
 3394.32006835938 
 30 
 0 
 11 
 3491.10400390625 
 21 
 3406.00024414063 
 31 
 0 
 0 
LINE
 10 
 3491.10400390625 
 20 
 3406.00024414063 
 30 
 0 
 11 
 3539.08813476563 
 21 
 3434.71997070313 
 31 
 0 
 0 
LINE
 10 
 3539.08813476563 
 20 
 3434.71997070313 
 30 
 0 
 11 
 3620 
 21 
 3480 
 31 
 0 
 0 
LINE
 10 
 3620 
 20 
 3480 
 30 
 0 
 11 
 3866.01586914063 
 21 
 3603.88793945313 
 31 
 0 
 0 
LINE
 10 
 3866.01586914063 
 20 
 3603.88793945313 
 30 
 0 
 11 
 4120.52783203125 
 21 
 3709.58422851563 
 31 
 0 
 0 
LINE
 10 
 4120.52783203125 
 20 
 3709.58422851563 
 30 
 0 
 11 
 4380.03173828125 
 21 
 3795.93603515625 
 31 
 0 
 0 
LINE
 10 
 4380.03173828125 
 20 
 3795.93603515625 
 30 
 0 
 11 
 4641.02392578125 
 21 
 3861.7919921875 
 31 
 0 
 0 
LINE
 10 
 4641.02392578125 
 20 
 3861.7919921875 
 30 
 0 
 11 
 4900 
 21 
 3906 
 31 
 0 
 0 
LINE
 10 
 4900 
 20 
 3906 
 30 
 0 
 11 
 4998.19189453125 
 21 
 3913.59985351563 
 31 
 0 
 0 
LINE
 10 
 4998.19189453125 
 20 
 3913.59985351563 
 30 
 0 
 11 
 5120.81591796875 
 21 
 3916.16015625 
 31 
 0 
 0 
LINE
 10 
 5120.81591796875 
 20 
 3916.16015625 
 30 
 0 
 11 
 5249.34423828125 
 21 
 3913.919921875 
 31 
 0 
 0 
LINE
 10 
 5249.34423828125 
 20 
 3913.919921875 
 30 
 0 
 11 
 5365.248046875 
 21 
 3907.1201171875 
 31 
 0 
 0 
LINE
 10 
 5365.248046875 
 20 
 3907.1201171875 
 30 
 0 
 11 
 5450 
 21 
 3896 
 31 
 0 
 0 
LINE
 10 
 548 
 20 
 3837 
 30 
 0 
 11 
 545.327941894531 
 21 
 3822.27978515625 
 31 
 0 
 0 
LINE
 10 
 545.327941894531 
 20 
 3822.27978515625 
 30 
 0 
 11 
 534.304016113281 
 21 
 3803 
 31 
 0 
 0 
LINE
 10 
 534.304016113281 
 20 
 3803 
 30 
 0 
 11 
 517.615966796875 
 21 
 3782.28002929688 
 31 
 0 
 0 
LINE
 10 
 517.615966796875 
 20 
 3782.28002929688 
 30 
 0 
 11 
 497.952026367188 
 21 
 3763.23999023438 
 31 
 0 
 0 
LINE
 10 
 497.952026367188 
 20 
 3763.23999023438 
 30 
 0 
 11 
 478 
 21 
 3749 
 31 
 0 
 0 
LINE
 10 
 478 
 20 
 3749 
 30 
 0 
 11 
 470.536010742188 
 21 
 3745.46411132813 
 31 
 0 
 0 
LINE
 10 
 470.536010742188 
 20 
 3745.46411132813 
 30 
 0 
 11 
 466.048004150391 
 21 
 3744.71215820313 
 31 
 0 
 0 
LINE
 10 
 466.048004150391 
 20 
 3744.71215820313 
 30 
 0 
 11 
 464.391998291016 
 21 
 3747.1279296875 
 31 
 0 
 0 
LINE
 10 
 464.391998291016 
 20 
 3747.1279296875 
 30 
 0 
 11 
 465.424011230469 
 21 
 3753.09594726563 
 31 
 0 
 0 
LINE
 10 
 465.424011230469 
 20 
 3753.09594726563 
 30 
 0 
 11 
 469 
 21 
 3763 
 31 
 0 
 0 
LINE
 10 
 469 
 20 
 3763 
 30 
 0 
 11 
 472.936004638672 
 21 
 3781.2158203125 
 31 
 0 
 0 
LINE
 10 
 472.936004638672 
 20 
 3781.2158203125 
 30 
 0 
 11 
 470.72802734375 
 21 
 3796.88818359375 
 31 
 0 
 0 
LINE
 10 
 470.72802734375 
 20 
 3796.88818359375 
 30 
 0 
 11 
 462.952026367188 
 21 
 3809.15209960938 
 31 
 0 
 0 
LINE
 10 
 462.952026367188 
 20 
 3809.15209960938 
 30 
 0 
 11 
 450.184020996094 
 21 
 3817.14404296875 
 31 
 0 
 0 
LINE
 10 
 450.184020996094 
 20 
 3817.14404296875 
 30 
 0 
 11 
 433 
 21 
 3820 
 31 
 0 
 0 
LINE
 10 
 433 
 20 
 3820 
 30 
 0 
 11 
 419.047973632813 
 21 
 3821.27221679688 
 31 
 0 
 0 
LINE
 10 
 419.047973632813 
 20 
 3821.27221679688 
 30 
 0 
 11 
 414.264007568359 
 21 
 3824.89599609375 
 31 
 0 
 0 
LINE
 10 
 414.264007568359 
 20 
 3824.89599609375 
 30 
 0 
 11 
 418.456024169922 
 21 
 3830.583984375 
 31 
 0 
 0 
LINE
 10 
 418.456024169922 
 20 
 3830.583984375 
 30 
 0 
 11 
 431.432006835938 
 21 
 3838.04809570313 
 31 
 0 
 0 
LINE
 10 
 431.432006835938 
 20 
 3838.04809570313 
 30 
 0 
 11 
 453 
 21 
 3847 
 31 
 0 
 0 
LINE
 10 
 453 
 20 
 3847 
 30 
 0 
 11 
 480.160003662109 
 21 
 3854.60009765625 
 31 
 0 
 0 
LINE
 10 
 480.160003662109 
 20 
 3854.60009765625 
 30 
 0 
 11 
 505.160003662109 
 21 
 3857.16015625 
 31 
 0 
 0 
LINE
 10 
 505.160003662109 
 20 
 3857.16015625 
 30 
 0 
 11 
 526.080017089844 
 21 
 3854.919921875 
 31 
 0 
 0 
LINE
 10 
 526.080017089844 
 20 
 3854.919921875 
 30 
 0 
 11 
 541 
 21 
 3848.1201171875 
 31 
 0 
 0 
LINE
 10 
 541 
 20 
 3848.1201171875 
 30 
 0 
 11 
 548 
 21 
 3837 
 31 
 0 
 0 
LINE
 10 
 5957 
 20 
 3837 
 30 
 0 
 11 
 5984 
 21 
 3825 
 31 
 0 
 0 
LINE
 10 
 5984 
 20 
 3825 
 30 
 0 
 11 
 5954 
 21 
 3820 
 31 
 0 
 0 
LINE
 10 
 5954 
 20 
 3820 
 30 
 0 
 11 
 5940.99951171875 
 21 
 3816.87182617188 
 31 
 0 
 0 
LINE
 10 
 5940.99951171875 
 20 
 3816.87182617188 
 30 
 0 
 11 
 5932.56005859375 
 21 
 3812.49609375 
 31 
 0 
 0 
LINE
 10 
 5932.56005859375 
 20 
 3812.49609375 
 30 
 0 
 11 
 5927.72021484375 
 21 
 3805.38403320313 
 31 
 0 
 0 
LINE
 10 
 5927.72021484375 
 20 
 3805.38403320313 
 30 
 0 
 11 
 5925.52001953125 
 21 
 3794.04809570313 
 31 
 0 
 0 
LINE
 10 
 5925.52001953125 
 20 
 3794.04809570313 
 30 
 0 
 11 
 5925 
 21 
 3777 
 31 
 0 
 0 
LINE
 10 
 5925 
 20 
 3777 
 30 
 0 
 11 
 5924.767578125 
 21 
 3765.47192382813 
 31 
 0 
 0 
LINE
 10 
 5924.767578125 
 20 
 3765.47192382813 
 30 
 0 
 11 
 5924.10400390625 
 21 
 3755.33618164063 
 31 
 0 
 0 
LINE
 10 
 5924.10400390625 
 20 
 3755.33618164063 
 30 
 0 
 11 
 5923.05615234375 
 21 
 3747.26391601563 
 31 
 0 
 0 
LINE
 10 
 5923.05615234375 
 20 
 3747.26391601563 
 30 
 0 
 11 
 5921.67236328125 
 21 
 3741.92797851563 
 31 
 0 
 0 
LINE
 10 
 5921.67236328125 
 20 
 3741.92797851563 
 30 
 0 
 11 
 5920 
 21 
 3740 
 31 
 0 
 0 
LINE
 10 
 5920 
 20 
 3740 
 30 
 0 
 11 
 5916.39990234375 
 21 
 3741.81567382813 
 31 
 0 
 0 
LINE
 10 
 5916.39990234375 
 20 
 3741.81567382813 
 30 
 0 
 11 
 5909.68017578125 
 21 
 3746.84814453125 
 31 
 0 
 0 
LINE
 10 
 5909.68017578125 
 20 
 3746.84814453125 
 30 
 0 
 11 
 5900.56005859375 
 21 
 3754.47216796875 
 31 
 0 
 0 
LINE
 10 
 5900.56005859375 
 20 
 3754.47216796875 
 30 
 0 
 11 
 5889.76025390625 
 21 
 3764.06396484375 
 31 
 0 
 0 
LINE
 10 
 5889.76025390625 
 20 
 3764.06396484375 
 30 
 0 
 11 
 5878 
 21 
 3775 
 31 
 0 
 0 
LINE
 10 
 5878 
 20 
 3775 
 30 
 0 
 11 
 5859.423828125 
 21 
 3793.8720703125 
 31 
 0 
 0 
LINE
 10 
 5859.423828125 
 20 
 3793.8720703125 
 30 
 0 
 11 
 5846.9921875 
 21 
 3811.73608398438 
 31 
 0 
 0 
LINE
 10 
 5846.9921875 
 20 
 3811.73608398438 
 30 
 0 
 11 
 5840.84765625 
 21 
 3828.06396484375 
 31 
 0 
 0 
LINE
 10 
 5840.84765625 
 20 
 3828.06396484375 
 30 
 0 
 11 
 5841.13623046875 
 21 
 3842.328125 
 31 
 0 
 0 
LINE
 10 
 5841.13623046875 
 20 
 3842.328125 
 30 
 0 
 11 
 5848 
 21 
 3854 
 31 
 0 
 0 
LINE
 10 
 5848 
 20 
 3854 
 30 
 0 
 11 
 5859.33544921875 
 21 
 3857.70385742188 
 31 
 0 
 0 
LINE
 10 
 5859.33544921875 
 20 
 3857.70385742188 
 30 
 0 
 11 
 5879.88818359375 
 21 
 3857.23217773438 
 31 
 0 
 0 
LINE
 10 
 5879.88818359375 
 20 
 3857.23217773438 
 30 
 0 
 11 
 5905.671875 
 21 
 3853.2080078125 
 31 
 0 
 0 
LINE
 10 
 5905.671875 
 20 
 3853.2080078125 
 30 
 0 
 11 
 5932.7041015625 
 21 
 3846.25610351563 
 31 
 0 
 0 
LINE
 10 
 5932.7041015625 
 20 
 3846.25610351563 
 30 
 0 
 11 
 5957 
 21 
 3837 
 31 
 0 
 0 
LINE
 10 
 1490 
 20 
 3705 
 30 
 0 
 11 
 1619.19995117188 
 21 
 3682.47998046875 
 31 
 0 
 0 
LINE
 10 
 1619.19995117188 
 20 
 3682.47998046875 
 30 
 0 
 11 
 1762.07995605469 
 21 
 3651.08032226563 
 31 
 0 
 0 
LINE
 10 
 1762.07995605469 
 20 
 3651.08032226563 
 30 
 0 
 11 
 1931.35998535156 
 21 
 3607.43994140625 
 31 
 0 
 0 
LINE
 10 
 1931.35998535156 
 20 
 3607.43994140625 
 30 
 0 
 11 
 2139.76000976563 
 21 
 3548.19995117188 
 31 
 0 
 0 
LINE
 10 
 2139.76000976563 
 20 
 3548.19995117188 
 30 
 0 
 11 
 2400 
 21 
 3470 
 31 
 0 
 0 
LINE
 10 
 2400 
 20 
 3470 
 30 
 0 
 11 
 2547.26391601563 
 21 
 3425.78369140625 
 31 
 0 
 0 
LINE
 10 
 2547.26391601563 
 20 
 3425.78369140625 
 30 
 0 
 11 
 2666.35180664063 
 21 
 3392.03198242188 
 31 
 0 
 0 
LINE
 10 
 2666.35180664063 
 20 
 3392.03198242188 
 30 
 0 
 11 
 2761.00805664063 
 21 
 3367.68798828125 
 31 
 0 
 0 
LINE
 10 
 2761.00805664063 
 20 
 3367.68798828125 
 30 
 0 
 11 
 2834.97607421875 
 21 
 3351.69604492188 
 31 
 0 
 0 
LINE
 10 
 2834.97607421875 
 20 
 3351.69604492188 
 30 
 0 
 11 
 2892 
 21 
 3343 
 31 
 0 
 0 
LINE
 10 
 2892 
 20 
 3343 
 30 
 0 
 11 
 2919.04760742188 
 21 
 3339.912109375 
 31 
 0 
 0 
LINE
 10 
 2919.04760742188 
 20 
 3339.912109375 
 30 
 0 
 11 
 2934.86401367188 
 21 
 3337.49584960938 
 31 
 0 
 0 
LINE
 10 
 2934.86401367188 
 20 
 3337.49584960938 
 30 
 0 
 11 
 2940.4560546875 
 21 
 3335.22387695313 
 31 
 0 
 0 
LINE
 10 
 2940.4560546875 
 20 
 3335.22387695313 
 30 
 0 
 11 
 2936.83203125 
 21 
 3332.56811523438 
 31 
 0 
 0 
LINE
 10 
 2936.83203125 
 20 
 3332.56811523438 
 30 
 0 
 11 
 2925 
 21 
 3329 
 31 
 0 
 0 
LINE
 10 
 2925 
 20 
 3329 
 30 
 0 
 11 
 2890.43994140625 
 21 
 3325.8876953125 
 31 
 0 
 0 
LINE
 10 
 2890.43994140625 
 20 
 3325.8876953125 
 30 
 0 
 11 
 2835.47998046875 
 21 
 3328.10424804688 
 31 
 0 
 0 
LINE
 10 
 2835.47998046875 
 20 
 3328.10424804688 
 30 
 0 
 11 
 2766.59985351563 
 21 
 3334.97583007813 
 31 
 0 
 0 
LINE
 10 
 2766.59985351563 
 20 
 3334.97583007813 
 30 
 0 
 11 
 2690.28002929688 
 21 
 3345.83203125 
 31 
 0 
 0 
LINE
 10 
 2690.28002929688 
 20 
 3345.83203125 
 30 
 0 
 11 
 2613 
 21 
 3360 
 31 
 0 
 0 
LINE
 10 
 2613 
 20 
 3360 
 30 
 0 
 11 
 2566.98388671875 
 21 
 3370.62377929688 
 31 
 0 
 0 
LINE
 10 
 2566.98388671875 
 20 
 3370.62377929688 
 30 
 0 
 11 
 2495.912109375 
 21 
 3388.11206054688 
 31 
 0 
 0 
LINE
 10 
 2495.912109375 
 20 
 3388.11206054688 
 30 
 0 
 11 
 2406.64794921875 
 21 
 3410.68798828125 
 31 
 0 
 0 
LINE
 10 
 2406.64794921875 
 20 
 3410.68798828125 
 30 
 0 
 11 
 2306.05615234375 
 21 
 3436.57592773438 
 31 
 0 
 0 
LINE
 10 
 2306.05615234375 
 20 
 3436.57592773438 
 30 
 0 
 11 
 2201 
 21 
 3464 
 31 
 0 
 0 
LINE
 10 
 2201 
 20 
 3464 
 30 
 0 
 11 
 1884.50378417969 
 21 
 3546.70385742188 
 31 
 0 
 0 
LINE
 10 
 1884.50378417969 
 20 
 3546.70385742188 
 30 
 0 
 11 
 1643.03198242188 
 21 
 3603.39208984375 
 31 
 0 
 0 
LINE
 10 
 1643.03198242188 
 20 
 3603.39208984375 
 30 
 0 
 11 
 1453.2080078125 
 21 
 3638.52807617188 
 31 
 0 
 0 
LINE
 10 
 1453.2080078125 
 20 
 3638.52807617188 
 30 
 0 
 11 
 1291.65600585938 
 21 
 3656.57592773438 
 31 
 0 
 0 
LINE
 10 
 1291.65600585938 
 20 
 3656.57592773438 
 30 
 0 
 11 
 1135 
 21 
 3662 
 31 
 0 
 0 
LINE
 10 
 1135 
 20 
 3662 
 30 
 0 
 11 
 1015.14392089844 
 21 
 3657.74365234375 
 31 
 0 
 0 
LINE
 10 
 1015.14392089844 
 20 
 3657.74365234375 
 30 
 0 
 11 
 907.912048339844 
 21 
 3644.75219726563 
 31 
 0 
 0 
LINE
 10 
 907.912048339844 
 20 
 3644.75219726563 
 30 
 0 
 11 
 812.007995605469 
 21 
 3622.68798828125 
 31 
 0 
 0 
LINE
 10 
 812.007995605469 
 20 
 3622.68798828125 
 30 
 0 
 11 
 726.135986328125 
 21 
 3591.21606445313 
 31 
 0 
 0 
LINE
 10 
 726.135986328125 
 20 
 3591.21606445313 
 30 
 0 
 11 
 649 
 21 
 3550 
 31 
 0 
 0 
LINE
 10 
 649 
 20 
 3550 
 30 
 0 
 11 
 585 
 21 
 3510 
 31 
 0 
 0 
LINE
 10 
 585 
 20 
 3510 
 30 
 0 
 11 
 630 
 21 
 3550 
 31 
 0 
 0 
LINE
 10 
 630 
 20 
 3550 
 30 
 0 
 11 
 691.759948730469 
 21 
 3596.28784179688 
 31 
 0 
 0 
LINE
 10 
 691.759948730469 
 20 
 3596.28784179688 
 30 
 0 
 11 
 767.679992675781 
 21 
 3638.06420898438 
 31 
 0 
 0 
LINE
 10 
 767.679992675781 
 20 
 3638.06420898438 
 30 
 0 
 11 
 853.920043945313 
 21 
 3673.69604492188 
 31 
 0 
 0 
LINE
 10 
 853.920043945313 
 20 
 3673.69604492188 
 30 
 0 
 11 
 946.640014648438 
 21 
 3701.55200195313 
 31 
 0 
 0 
LINE
 10 
 946.640014648438 
 20 
 3701.55200195313 
 30 
 0 
 11 
 1042 
 21 
 3720 
 31 
 0 
 0 
LINE
 10 
 1042 
 20 
 3720 
 30 
 0 
 11 
 1108.84802246094 
 21 
 3724.87158203125 
 31 
 0 
 0 
LINE
 10 
 1108.84802246094 
 20 
 3724.87158203125 
 30 
 0 
 11 
 1199.26403808594 
 21 
 3725.3759765625 
 31 
 0 
 0 
LINE
 10 
 1199.26403808594 
 20 
 3725.3759765625 
 30 
 0 
 11 
 1301.05603027344 
 21 
 3721.94384765625 
 31 
 0 
 0 
LINE
 10 
 1301.05603027344 
 20 
 3721.94384765625 
 30 
 0 
 11 
 1402.03198242188 
 21 
 3715.00805664063 
 31 
 0 
 0 
LINE
 10 
 1402.03198242188 
 20 
 3715.00805664063 
 30 
 0 
 11 
 1490 
 21 
 3705 
 31 
 0 
 0 
LINE
 10 
 5410 
 20 
 3704 
 30 
 0 
 11 
 5495.328125 
 21 
 3684.18383789063 
 31 
 0 
 0 
LINE
 10 
 5495.328125 
 20 
 3684.18383789063 
 30 
 0 
 11 
 5574.9443359375 
 21 
 3657.072265625 
 31 
 0 
 0 
LINE
 10 
 5574.9443359375 
 20 
 3657.072265625 
 30 
 0 
 11 
 5648.89599609375 
 21 
 3622.56787109375 
 31 
 0 
 0 
LINE
 10 
 5648.89599609375 
 20 
 3622.56787109375 
 30 
 0 
 11 
 5717.232421875 
 21 
 3580.576171875 
 31 
 0 
 0 
LINE
 10 
 5717.232421875 
 20 
 3580.576171875 
 30 
 0 
 11 
 5780 
 21 
 3531 
 31 
 0 
 0 
LINE
 10 
 5780 
 20 
 3531 
 30 
 0 
 11 
 5794.83984375 
 21 
 3517.23999023438 
 31 
 0 
 0 
LINE
 10 
 5794.83984375 
 20 
 3517.23999023438 
 30 
 0 
 11 
 5800.3203125 
 21 
 3510.92016601563 
 31 
 0 
 0 
LINE
 10 
 5800.3203125 
 20 
 3510.92016601563 
 30 
 0 
 11 
 5795.48046875 
 21 
 3512.28002929688 
 31 
 0 
 0 
LINE
 10 
 5795.48046875 
 20 
 3512.28002929688 
 30 
 0 
 11 
 5779.35986328125 
 21 
 3521.56005859375 
 31 
 0 
 0 
LINE
 10 
 5779.35986328125 
 20 
 3521.56005859375 
 30 
 0 
 11 
 5751 
 21 
 3539 
 31 
 0 
 0 
LINE
 10 
 5751 
 20 
 3539 
 30 
 0 
 11 
 5709.1435546875 
 21 
 3563.69580078125 
 31 
 0 
 0 
LINE
 10 
 5709.1435546875 
 20 
 3563.69580078125 
 30 
 0 
 11 
 5665.51220703125 
 21 
 3585.3681640625 
 31 
 0 
 0 
LINE
 10 
 5665.51220703125 
 20 
 3585.3681640625 
 30 
 0 
 11 
 5618.80810546875 
 21 
 3604.59204101563 
 31 
 0 
 0 
LINE
 10 
 5618.80810546875 
 20 
 3604.59204101563 
 30 
 0 
 11 
 5567.736328125 
 21 
 3621.94409179688 
 31 
 0 
 0 
LINE
 10 
 5567.736328125 
 20 
 3621.94409179688 
 30 
 0 
 11 
 5511 
 21 
 3638 
 31 
 0 
 0 
LINE
 10 
 5511 
 20 
 3638 
 30 
 0 
 11 
 5478.6318359375 
 21 
 3644.75170898438 
 31 
 0 
 0 
LINE
 10 
 5478.6318359375 
 20 
 3644.75170898438 
 30 
 0 
 11 
 5439.97607421875 
 21 
 3649.5361328125 
 31 
 0 
 0 
LINE
 10 
 5439.97607421875 
 20 
 3649.5361328125 
 30 
 0 
 11 
 5390.90380859375 
 21 
 3652.54418945313 
 31 
 0 
 0 
LINE
 10 
 5390.90380859375 
 20 
 3652.54418945313 
 30 
 0 
 11 
 5327.2880859375 
 21 
 3653.96801757813 
 31 
 0 
 0 
LINE
 10 
 5327.2880859375 
 20 
 3653.96801757813 
 30 
 0 
 11 
 5245 
 21 
 3654 
 31 
 0 
 0 
LINE
 10 
 5245 
 20 
 3654 
 30 
 0 
 11 
 5154.3837890625 
 21 
 3653.39184570313 
 31 
 0 
 0 
LINE
 10 
 5154.3837890625 
 20 
 3653.39184570313 
 30 
 0 
 11 
 5083.35205078125 
 21 
 3651.05590820313 
 31 
 0 
 0 
LINE
 10 
 5083.35205078125 
 20 
 3651.05590820313 
 30 
 0 
 11 
 5021.72802734375 
 21 
 3646.22387695313 
 31 
 0 
 0 
LINE
 10 
 5021.72802734375 
 20 
 3646.22387695313 
 30 
 0 
 11 
 4959.3359375 
 21 
 3638.12817382813 
 31 
 0 
 0 
LINE
 10 
 4959.3359375 
 20 
 3638.12817382813 
 30 
 0 
 11 
 4886 
 21 
 3626 
 31 
 0 
 0 
LINE
 10 
 4886 
 20 
 3626 
 30 
 0 
 11 
 4775.4716796875 
 21 
 3604.79174804688 
 31 
 0 
 0 
LINE
 10 
 4775.4716796875 
 20 
 3604.79174804688 
 30 
 0 
 11 
 4639.93603515625 
 21 
 3574.89624023438 
 31 
 0 
 0 
LINE
 10 
 4639.93603515625 
 20 
 3574.89624023438 
 30 
 0 
 11 
 4480.06396484375 
 21 
 3536.50390625 
 31 
 0 
 0 
LINE
 10 
 4480.06396484375 
 20 
 3536.50390625 
 30 
 0 
 11 
 4296.5283203125 
 21 
 3489.80810546875 
 31 
 0 
 0 
LINE
 10 
 4296.5283203125 
 20 
 3489.80810546875 
 30 
 0 
 11 
 4090 
 21 
 3435 
 31 
 0 
 0 
LINE
 10 
 4090 
 20 
 3435 
 30 
 0 
 11 
 3939.6240234375 
 21 
 3395.60766601563 
 31 
 0 
 0 
LINE
 10 
 3939.6240234375 
 20 
 3395.60766601563 
 30 
 0 
 11 
 3814.35205078125 
 21 
 3365.62426757813 
 31 
 0 
 0 
LINE
 10 
 3814.35205078125 
 20 
 3365.62426757813 
 30 
 0 
 11 
 3709.76806640625 
 21 
 3344.13598632813 
 31 
 0 
 0 
LINE
 10 
 3709.76806640625 
 20 
 3344.13598632813 
 30 
 0 
 11 
 3621.4560546875 
 21 
 3330.23193359375 
 31 
 0 
 0 
LINE
 10 
 3621.4560546875 
 20 
 3330.23193359375 
 30 
 0 
 11 
 3545 
 21 
 3323 
 31 
 0 
 0 
LINE
 10 
 3545 
 20 
 3323 
 30 
 0 
 11 
 3513.81591796875 
 21 
 3321.55981445313 
 31 
 0 
 0 
LINE
 10 
 3513.81591796875 
 20 
 3321.55981445313 
 30 
 0 
 11 
 3487.2880859375 
 21 
 3320.84033203125 
 31 
 0 
 0 
LINE
 10 
 3487.2880859375 
 20 
 3320.84033203125 
 30 
 0 
 11 
 3466.95190429688 
 21 
 3320.84008789063 
 31 
 0 
 0 
LINE
 10 
 3466.95190429688 
 20 
 3320.84008789063 
 30 
 0 
 11 
 3454.34399414063 
 21 
 3321.56005859375 
 31 
 0 
 0 
LINE
 10 
 3454.34399414063 
 20 
 3321.56005859375 
 30 
 0 
 11 
 3451 
 21 
 3323 
 31 
 0 
 0 
LINE
 10 
 3451 
 20 
 3323 
 30 
 0 
 11 
 3458.23974609375 
 21 
 3326.28784179688 
 31 
 0 
 0 
LINE
 10 
 3458.23974609375 
 20 
 3326.28784179688 
 30 
 0 
 11 
 3475.07983398438 
 21 
 3331.06396484375 
 31 
 0 
 0 
LINE
 10 
 3475.07983398438 
 20 
 3331.06396484375 
 30 
 0 
 11 
 3499.60009765625 
 21 
 3336.89599609375 
 31 
 0 
 0 
LINE
 10 
 3499.60009765625 
 20 
 3336.89599609375 
 30 
 0 
 11 
 3529.88012695313 
 21 
 3343.35205078125 
 31 
 0 
 0 
LINE
 10 
 3529.88012695313 
 20 
 3343.35205078125 
 30 
 0 
 11 
 3564 
 21 
 3350 
 31 
 0 
 0 
LINE
 10 
 3564 
 20 
 3350 
 30 
 0 
 11 
 3617.0478515625 
 21 
 3362.47973632813 
 31 
 0 
 0 
LINE
 10 
 3617.0478515625 
 20 
 3362.47973632813 
 30 
 0 
 11 
 3698.9443359375 
 21 
 3384.080078125 
 31 
 0 
 0 
LINE
 10 
 3698.9443359375 
 20 
 3384.080078125 
 30 
 0 
 11 
 3801.81591796875 
 21 
 3412.63989257813 
 31 
 0 
 0 
LINE
 10 
 3801.81591796875 
 20 
 3412.63989257813 
 30 
 0 
 11 
 3917.7919921875 
 21 
 3446 
 31 
 0 
 0 
LINE
 10 
 3917.7919921875 
 20 
 3446 
 30 
 0 
 11 
 4039 
 21 
 3482 
 31 
 0 
 0 
LINE
 10 
 4039 
 20 
 3482 
 30 
 0 
 11 
 4161.99169921875 
 21 
 3518.416015625 
 31 
 0 
 0 
LINE
 10 
 4161.99169921875 
 20 
 3518.416015625 
 30 
 0 
 11 
 4283.97607421875 
 21 
 3553.96801757813 
 31 
 0 
 0 
LINE
 10 
 4283.97607421875 
 20 
 3553.96801757813 
 30 
 0 
 11 
 4396.26416015625 
 21 
 3586.11206054688 
 31 
 0 
 0 
LINE
 10 
 4396.26416015625 
 20 
 3586.11206054688 
 30 
 0 
 11 
 4490.16796875 
 21 
 3612.30419921875 
 31 
 0 
 0 
LINE
 10 
 4490.16796875 
 20 
 3612.30419921875 
 30 
 0 
 11 
 4557 
 21 
 3630 
 31 
 0 
 0 
LINE
 10 
 4557 
 20 
 3630 
 30 
 0 
 11 
 4760.23974609375 
 21 
 3676.09594726563 
 31 
 0 
 0 
LINE
 10 
 4760.23974609375 
 20 
 3676.09594726563 
 30 
 0 
 11 
 4945.96044921875 
 21 
 3706.44799804688 
 31 
 0 
 0 
LINE
 10 
 4945.96044921875 
 20 
 3706.44799804688 
 30 
 0 
 11 
 5115.3603515625 
 21 
 3721.15185546875 
 31 
 0 
 0 
LINE
 10 
 5115.3603515625 
 20 
 3721.15185546875 
 30 
 0 
 11 
 5269.64013671875 
 21 
 3720.30395507813 
 31 
 0 
 0 
LINE
 10 
 5269.64013671875 
 20 
 3720.30395507813 
 30 
 0 
 11 
 5410 
 21 
 3704 
 31 
 0 
 0 
LINE
 10 
 614 
 20 
 3674 
 30 
 0 
 11 
 625.463989257813 
 21 
 3658.18383789063 
 31 
 0 
 0 
LINE
 10 
 625.463989257813 
 20 
 3658.18383789063 
 30 
 0 
 11 
 628.432006835938 
 21 
 3641.07202148438 
 31 
 0 
 0 
LINE
 10 
 628.432006835938 
 20 
 3641.07202148438 
 30 
 0 
 11 
 622.567993164063 
 21 
 3621.36791992188 
 31 
 0 
 0 
LINE
 10 
 622.567993164063 
 20 
 3621.36791992188 
 30 
 0 
 11 
 607.536010742188 
 21 
 3597.77612304688 
 31 
 0 
 0 
LINE
 10 
 607.536010742188 
 20 
 3597.77612304688 
 30 
 0 
 11 
 583 
 21 
 3569 
 31 
 0 
 0 
LINE
 10 
 583 
 20 
 3569 
 30 
 0 
 11 
 568.39990234375 
 21 
 3553.65600585938 
 31 
 0 
 0 
LINE
 10 
 568.39990234375 
 20 
 3553.65600585938 
 30 
 0 
 11 
 555.240051269531 
 21 
 3540.56811523438 
 31 
 0 
 0 
LINE
 10 
 555.240051269531 
 20 
 3540.56811523438 
 30 
 0 
 11 
 544.47998046875 
 21 
 3530.55200195313 
 31 
 0 
 0 
LINE
 10 
 544.47998046875 
 20 
 3530.55200195313 
 30 
 0 
 11 
 537.080017089844 
 21 
 3524.42407226563 
 31 
 0 
 0 
LINE
 10 
 537.080017089844 
 20 
 3524.42407226563 
 30 
 0 
 11 
 534 
 21 
 3523 
 31 
 0 
 0 
LINE
 10 
 534 
 20 
 3523 
 30 
 0 
 11 
 533.27197265625 
 21 
 3525.67211914063 
 31 
 0 
 0 
LINE
 10 
 533.27197265625 
 20 
 3525.67211914063 
 30 
 0 
 11 
 533.455993652344 
 21 
 3530.93603515625 
 31 
 0 
 0 
LINE
 10 
 533.455993652344 
 20 
 3530.93603515625 
 30 
 0 
 11 
 534.503967285156 
 21 
 3538.26391601563 
 31 
 0 
 0 
LINE
 10 
 534.503967285156 
 20 
 3538.26391601563 
 30 
 0 
 11 
 536.367980957031 
 21 
 3547.12817382813 
 31 
 0 
 0 
LINE
 10 
 536.367980957031 
 20 
 3547.12817382813 
 30 
 0 
 11 
 539 
 21 
 3557 
 31 
 0 
 0 
LINE
 10 
 539 
 20 
 3557 
 30 
 0 
 11 
 542.679992675781 
 21 
 3587.43188476563 
 31 
 0 
 0 
LINE
 10 
 542.679992675781 
 20 
 3587.43188476563 
 30 
 0 
 11 
 533.640014648438 
 21 
 3607.73608398438 
 31 
 0 
 0 
LINE
 10 
 533.640014648438 
 20 
 3607.73608398438 
 30 
 0 
 11 
 512.359985351563 
 21 
 3617.6240234375 
 31 
 0 
 0 
LINE
 10 
 512.359985351563 
 20 
 3617.6240234375 
 30 
 0 
 11 
 479.320007324219 
 21 
 3616.80810546875 
 31 
 0 
 0 
LINE
 10 
 479.320007324219 
 20 
 3616.80810546875 
 30 
 0 
 11 
 435 
 21 
 3605 
 31 
 0 
 0 
LINE
 10 
 435 
 20 
 3605 
 30 
 0 
 11 
 426.903991699219 
 21 
 3605.23217773438 
 31 
 0 
 0 
LINE
 10 
 426.903991699219 
 20 
 3605.23217773438 
 30 
 0 
 11 
 436.231994628906 
 21 
 3616.21630859375 
 31 
 0 
 0 
LINE
 10 
 436.231994628906 
 20 
 3616.21630859375 
 30 
 0 
 11 
 457.608001708984 
 21 
 3633.583984375 
 31 
 0 
 0 
LINE
 10 
 457.608001708984 
 20 
 3633.583984375 
 30 
 0 
 11 
 485.656005859375 
 21 
 3652.96801757813 
 31 
 0 
 0 
LINE
 10 
 485.656005859375 
 20 
 3652.96801757813 
 30 
 0 
 11 
 515 
 21 
 3670 
 31 
 0 
 0 
LINE
 10 
 515 
 20 
 3670 
 30 
 0 
 11 
 541.711975097656 
 21 
 3681.64794921875 
 31 
 0 
 0 
LINE
 10 
 541.711975097656 
 20 
 3681.64794921875 
 30 
 0 
 11 
 564.536010742188 
 21 
 3687.82421875 
 31 
 0 
 0 
LINE
 10 
 564.536010742188 
 20 
 3687.82421875 
 30 
 0 
 11 
 583.903991699219 
 21 
 3688.57592773438 
 31 
 0 
 0 
LINE
 10 
 583.903991699219 
 20 
 3688.57592773438 
 30 
 0 
 11 
 600.248046875 
 21 
 3683.9521484375 
 31 
 0 
 0 
LINE
 10 
 600.248046875 
 20 
 3683.9521484375 
 30 
 0 
 11 
 614 
 21 
 3674 
 31 
 0 
 0 
LINE
 10 
 5857 
 20 
 3675 
 30 
 0 
 11 
 5883.04736328125 
 21 
 3662.14379882813 
 31 
 0 
 0 
LINE
 10 
 5883.04736328125 
 20 
 3662.14379882813 
 30 
 0 
 11 
 5911.064453125 
 21 
 3645.11206054688 
 31 
 0 
 0 
LINE
 10 
 5911.064453125 
 20 
 3645.11206054688 
 30 
 0 
 11 
 5936.0556640625 
 21 
 3627.408203125 
 31 
 0 
 0 
LINE
 10 
 5936.0556640625 
 20 
 3627.408203125 
 30 
 0 
 11 
 5953.0322265625 
 21 
 3612.5361328125 
 31 
 0 
 0 
LINE
 10 
 5953.0322265625 
 20 
 3612.5361328125 
 30 
 0 
 11 
 5957 
 21 
 3604 
 31 
 0 
 0 
LINE
 10 
 5957 
 20 
 3604 
 30 
 0 
 11 
 5954.11181640625 
 21 
 3603.3759765625 
 31 
 0 
 0 
LINE
 10 
 5954.11181640625 
 20 
 3603.3759765625 
 30 
 0 
 11 
 5948.2958984375 
 21 
 3603.80810546875 
 31 
 0 
 0 
LINE
 10 
 5948.2958984375 
 20 
 3603.80810546875 
 30 
 0 
 11 
 5940.22412109375 
 21 
 3605.15185546875 
 31 
 0 
 0 
LINE
 10 
 5940.22412109375 
 20 
 3605.15185546875 
 30 
 0 
 11 
 5930.568359375 
 21 
 3607.26416015625 
 31 
 0 
 0 
LINE
 10 
 5930.568359375 
 20 
 3607.26416015625 
 30 
 0 
 11 
 5920 
 21 
 3610 
 31 
 0 
 0 
LINE
 10 
 5920 
 20 
 3610 
 30 
 0 
 11 
 5886.6474609375 
 21 
 3616.1279296875 
 31 
 0 
 0 
LINE
 10 
 5886.6474609375 
 20 
 3616.1279296875 
 30 
 0 
 11 
 5863.42431640625 
 21 
 3612.94409179688 
 31 
 0 
 0 
LINE
 10 
 5863.42431640625 
 20 
 3612.94409179688 
 30 
 0 
 11 
 5850.3759765625 
 21 
 3600.49609375 
 31 
 0 
 0 
LINE
 10 
 5850.3759765625 
 20 
 3600.49609375 
 30 
 0 
 11 
 5847.55224609375 
 21 
 3578.83203125 
 31 
 0 
 0 
LINE
 10 
 5847.55224609375 
 20 
 3578.83203125 
 30 
 0 
 11 
 5855 
 21 
 3548 
 31 
 0 
 0 
LINE
 10 
 5855 
 20 
 3548 
 30 
 0 
 11 
 5867 
 21 
 3511 
 31 
 0 
 0 
LINE
 10 
 5867 
 20 
 3511 
 30 
 0 
 11 
 5842 
 21 
 3528 
 31 
 0 
 0 
LINE
 10 
 5842 
 20 
 3528 
 30 
 0 
 11 
 5821.18359375 
 21 
 3545.60791015625 
 31 
 0 
 0 
LINE
 10 
 5821.18359375 
 20 
 3545.60791015625 
 30 
 0 
 11 
 5799.31201171875 
 21 
 3570.22412109375 
 31 
 0 
 0 
LINE
 10 
 5799.31201171875 
 20 
 3570.22412109375 
 30 
 0 
 11 
 5779.64794921875 
 21 
 3597.3359375 
 31 
 0 
 0 
LINE
 10 
 5779.64794921875 
 20 
 3597.3359375 
 30 
 0 
 11 
 5765.4560546875 
 21 
 3622.43212890625 
 31 
 0 
 0 
LINE
 10 
 5765.4560546875 
 20 
 3622.43212890625 
 30 
 0 
 11 
 5760 
 21 
 3641 
 31 
 0 
 0 
LINE
 10 
 5760 
 20 
 3641 
 30 
 0 
 11 
 5763.78369140625 
 21 
 3652.6240234375 
 31 
 0 
 0 
LINE
 10 
 5763.78369140625 
 20 
 3652.6240234375 
 30 
 0 
 11 
 5773.47216796875 
 21 
 3665.591796875 
 31 
 0 
 0 
LINE
 10 
 5773.47216796875 
 20 
 3665.591796875 
 30 
 0 
 11 
 5786.56787109375 
 21 
 3677.64794921875 
 31 
 0 
 0 
LINE
 10 
 5786.56787109375 
 20 
 3677.64794921875 
 30 
 0 
 11 
 5800.576171875 
 21 
 3686.5361328125 
 31 
 0 
 0 
LINE
 10 
 5800.576171875 
 20 
 3686.5361328125 
 30 
 0 
 11 
 5813 
 21 
 3690 
 31 
 0 
 0 
LINE
 10 
 5813 
 20 
 3690 
 30 
 0 
 11 
 5817.19189453125 
 21 
 3689.2080078125 
 31 
 0 
 0 
LINE
 10 
 5817.19189453125 
 20 
 3689.2080078125 
 30 
 0 
 11 
 5824.4560546875 
 21 
 3687.02416992188 
 31 
 0 
 0 
LINE
 10 
 5824.4560546875 
 20 
 3687.02416992188 
 30 
 0 
 11 
 5834.0244140625 
 21 
 3683.73608398438 
 31 
 0 
 0 
LINE
 10 
 5834.0244140625 
 20 
 3683.73608398438 
 30 
 0 
 11 
 5845.1279296875 
 21 
 3679.63208007813 
 31 
 0 
 0 
LINE
 10 
 5845.1279296875 
 20 
 3679.63208007813 
 30 
 0 
 11 
 5857 
 21 
 3675 
 31 
 0 
 0 
LINE
 10 
 768 
 20 
 3524 
 30 
 0 
 11 
 783.111999511719 
 21 
 3508.927734375 
 31 
 0 
 0 
LINE
 10 
 783.111999511719 
 20 
 3508.927734375 
 30 
 0 
 11 
 788.815979003906 
 21 
 3491.02416992188 
 31 
 0 
 0 
LINE
 10 
 788.815979003906 
 20 
 3491.02416992188 
 30 
 0 
 11 
 785.064025878906 
 21 
 3469.85595703125 
 31 
 0 
 0 
LINE
 10 
 785.064025878906 
 20 
 3469.85595703125 
 30 
 0 
 11 
 771.808044433594 
 21 
 3444.9921875 
 31 
 0 
 0 
LINE
 10 
 771.808044433594 
 20 
 3444.9921875 
 30 
 0 
 11 
 749 
 21 
 3416 
 31 
 0 
 0 
LINE
 10 
 749 
 20 
 3416 
 30 
 0 
 11 
 725.279968261719 
 21 
 3390.591796875 
 31 
 0 
 0 
LINE
 10 
 725.279968261719 
 20 
 3390.591796875 
 30 
 0 
 11 
 708.280029296875 
 21 
 3375.69604492188 
 31 
 0 
 0 
LINE
 10 
 708.280029296875 
 20 
 3375.69604492188 
 30 
 0 
 11 
 698.239990234375 
 21 
 3371.50415039063 
 31 
 0 
 0 
LINE
 10 
 698.239990234375 
 20 
 3371.50415039063 
 30 
 0 
 11 
 695.400024414063 
 21 
 3378.2080078125 
 31 
 0 
 0 
LINE
 10 
 695.400024414063 
 20 
 3378.2080078125 
 30 
 0 
 11 
 700 
 21 
 3396 
 31 
 0 
 0 
LINE
 10 
 700 
 20 
 3396 
 30 
 0 
 11 
 707.831970214844 
 21 
 3425.50366210938 
 31 
 0 
 0 
LINE
 10 
 707.831970214844 
 20 
 3425.50366210938 
 30 
 0 
 11 
 705.056030273438 
 21 
 3446.751953125 
 31 
 0 
 0 
LINE
 10 
 705.056030273438 
 20 
 3446.751953125 
 30 
 0 
 11 
 691.864013671875 
 21 
 3459.64794921875 
 31 
 0 
 0 
LINE
 10 
 691.864013671875 
 20 
 3459.64794921875 
 30 
 0 
 11 
 668.447998046875 
 21 
 3464.09594726563 
 31 
 0 
 0 
LINE
 10 
 668.447998046875 
 20 
 3464.09594726563 
 30 
 0 
 11 
 635 
 21 
 3460 
 31 
 0 
 0 
LINE
 10 
 635 
 20 
 3460 
 30 
 0 
 11 
 622.27197265625 
 21 
 3457.36791992188 
 31 
 0 
 0 
LINE
 10 
 622.27197265625 
 20 
 3457.36791992188 
 30 
 0 
 11 
 610.935974121094 
 21 
 3455.50415039063 
 31 
 0 
 0 
LINE
 10 
 610.935974121094 
 20 
 3455.50415039063 
 30 
 0 
 11 
 601.664001464844 
 21 
 3454.45581054688 
 31 
 0 
 0 
LINE
 10 
 601.664001464844 
 20 
 3454.45581054688 
 30 
 0 
 11 
 595.127990722656 
 21 
 3454.27221679688 
 31 
 0 
 0 
LINE
 10 
 595.127990722656 
 20 
 3454.27221679688 
 30 
 0 
 11 
 592 
 21 
 3455 
 31 
 0 
 0 
LINE
 10 
 592 
 20 
 3455 
 30 
 0 
 11 
 599.072021484375 
 21 
 3464.3359375 
 31 
 0 
 0 
LINE
 10 
 599.072021484375 
 20 
 3464.3359375 
 30 
 0 
 11 
 622.176025390625 
 21 
 3481.68823242188 
 31 
 0 
 0 
LINE
 10 
 622.176025390625 
 20 
 3481.68823242188 
 30 
 0 
 11 
 653.343994140625 
 21 
 3501.8720703125 
 31 
 0 
 0 
LINE
 10 
 653.343994140625 
 20 
 3501.8720703125 
 30 
 0 
 11 
 684.608032226563 
 21 
 3519.7041015625 
 31 
 0 
 0 
LINE
 10 
 684.608032226563 
 20 
 3519.7041015625 
 30 
 0 
 11 
 708 
 21 
 3530 
 31 
 0 
 0 
LINE
 10 
 708 
 20 
 3530 
 30 
 0 
 11 
 726.047973632813 
 21 
 3535.32763671875 
 31 
 0 
 0 
LINE
 10 
 726.047973632813 
 20 
 3535.32763671875 
 30 
 0 
 11 
 737.903991699219 
 21 
 3537.82397460938 
 31 
 0 
 0 
LINE
 10 
 737.903991699219 
 20 
 3537.82397460938 
 30 
 0 
 11 
 746.735961914063 
 21 
 3537.05590820313 
 31 
 0 
 0 
LINE
 10 
 746.735961914063 
 20 
 3537.05590820313 
 30 
 0 
 11 
 755.712036132813 
 21 
 3532.59204101563 
 31 
 0 
 0 
LINE
 10 
 755.712036132813 
 20 
 3532.59204101563 
 30 
 0 
 11 
 768 
 21 
 3524 
 31 
 0 
 0 
LINE
 10 
 5743 
 20 
 3494 
 30 
 0 
 11 
 5760.83154296875 
 21 
 3482.83984375 
 31 
 0 
 0 
LINE
 10 
 5760.83154296875 
 20 
 3482.83984375 
 30 
 0 
 11 
 5776.4560546875 
 21 
 3472.64013671875 
 31 
 0 
 0 
LINE
 10 
 5776.4560546875 
 20 
 3472.64013671875 
 30 
 0 
 11 
 5788.8642578125 
 21 
 3464.11987304688 
 31 
 0 
 0 
LINE
 10 
 5788.8642578125 
 20 
 3464.11987304688 
 30 
 0 
 11 
 5797.04833984375 
 21 
 3458.00024414063 
 31 
 0 
 0 
LINE
 10 
 5797.04833984375 
 20 
 3458.00024414063 
 30 
 0 
 11 
 5800 
 21 
 3455 
 31 
 0 
 0 
LINE
 10 
 5800 
 20 
 3455 
 30 
 0 
 11 
 5797.263671875 
 21 
 3454.15185546875 
 31 
 0 
 0 
LINE
 10 
 5797.263671875 
 20 
 3454.15185546875 
 30 
 0 
 11 
 5789.63232421875 
 21 
 3453.97607421875 
 31 
 0 
 0 
LINE
 10 
 5789.63232421875 
 20 
 3453.97607421875 
 30 
 0 
 11 
 5777.96826171875 
 21 
 3454.42407226563 
 31 
 0 
 0 
LINE
 10 
 5777.96826171875 
 20 
 3454.42407226563 
 30 
 0 
 11 
 5763.13623046875 
 21 
 3455.44799804688 
 31 
 0 
 0 
LINE
 10 
 5763.13623046875 
 20 
 3455.44799804688 
 30 
 0 
 11 
 5746 
 21 
 3457 
 31 
 0 
 0 
LINE
 10 
 5746 
 20 
 3457 
 30 
 0 
 11 
 5721.8076171875 
 21 
 3459.095703125 
 31 
 0 
 0 
LINE
 10 
 5721.8076171875 
 20 
 3459.095703125 
 30 
 0 
 11 
 5705.583984375 
 21 
 3459.1279296875 
 31 
 0 
 0 
LINE
 10 
 5705.583984375 
 20 
 3459.1279296875 
 30 
 0 
 11 
 5695.4560546875 
 21 
 3456.7119140625 
 31 
 0 
 0 
LINE
 10 
 5695.4560546875 
 20 
 3456.7119140625 
 30 
 0 
 11 
 5689.55224609375 
 21 
 3451.46411132813 
 31 
 0 
 0 
LINE
 10 
 5689.55224609375 
 20 
 3451.46411132813 
 30 
 0 
 11 
 5686 
 21 
 3443 
 31 
 0 
 0 
LINE
 10 
 5686 
 20 
 3443 
 30 
 0 
 11 
 5684.3037109375 
 21 
 3435.22387695313 
 31 
 0 
 0 
LINE
 10 
 5684.3037109375 
 20 
 3435.22387695313 
 30 
 0 
 11 
 5683.9521484375 
 21 
 3425.67211914063 
 31 
 0 
 0 
LINE
 10 
 5683.9521484375 
 20 
 3425.67211914063 
 30 
 0 
 11 
 5684.84814453125 
 21 
 3415.2080078125 
 31 
 0 
 0 
LINE
 10 
 5684.84814453125 
 20 
 3415.2080078125 
 30 
 0 
 11 
 5686.89599609375 
 21 
 3404.69604492188 
 31 
 0 
 0 
LINE
 10 
 5686.89599609375 
 20 
 3404.69604492188 
 30 
 0 
 11 
 5690 
 21 
 3395 
 31 
 0 
 0 
LINE
 10 
 5690 
 20 
 3395 
 30 
 0 
 11 
 5693.22412109375 
 21 
 3386.19995117188 
 31 
 0 
 0 
LINE
 10 
 5693.22412109375 
 20 
 3386.19995117188 
 30 
 0 
 11 
 5695.6318359375 
 21 
 3378.11987304688 
 31 
 0 
 0 
LINE
 10 
 5695.6318359375 
 20 
 3378.11987304688 
 30 
 0 
 11 
 5697.12841796875 
 21 
 3371.23999023438 
 31 
 0 
 0 
LINE
 10 
 5697.12841796875 
 20 
 3371.23999023438 
 30 
 0 
 11 
 5697.6162109375 
 21 
 3366.0400390625 
 31 
 0 
 0 
LINE
 10 
 5697.6162109375 
 20 
 3366.0400390625 
 30 
 0 
 11 
 5697 
 21 
 3363 
 31 
 0 
 0 
LINE
 10 
 5697 
 20 
 3363 
 30 
 0 
 11 
 5683.07177734375 
 21 
 3369.91186523438 
 31 
 0 
 0 
LINE
 10 
 5683.07177734375 
 20 
 3369.91186523438 
 30 
 0 
 11 
 5658.5361328125 
 21 
 3395.01611328125 
 31 
 0 
 0 
LINE
 10 
 5658.5361328125 
 20 
 3395.01611328125 
 30 
 0 
 11 
 5631.26416015625 
 21 
 3428.6640625 
 31 
 0 
 0 
LINE
 10 
 5631.26416015625 
 20 
 3428.6640625 
 30 
 0 
 11 
 5609.1279296875 
 21 
 3461.2080078125 
 31 
 0 
 0 
LINE
 10 
 5609.1279296875 
 20 
 3461.2080078125 
 30 
 0 
 11 
 5600 
 21 
 3483 
 31 
 0 
 0 
LINE
 10 
 5600 
 20 
 3483 
 30 
 0 
 11 
 5606.9033203125 
 21 
 3511.40771484375 
 31 
 0 
 0 
LINE
 10 
 5606.9033203125 
 20 
 3511.40771484375 
 30 
 0 
 11 
 5626.4326171875 
 21 
 3526.90405273438 
 31 
 0 
 0 
LINE
 10 
 5626.4326171875 
 20 
 3526.90405273438 
 30 
 0 
 11 
 5656.80810546875 
 21 
 3529.29614257813 
 31 
 0 
 0 
LINE
 10 
 5656.80810546875 
 20 
 3529.29614257813 
 30 
 0 
 11 
 5696.25634765625 
 21 
 3518.39208984375 
 31 
 0 
 0 
LINE
 10 
 5696.25634765625 
 20 
 3518.39208984375 
 30 
 0 
 11 
 5743 
 21 
 3494 
 31 
 0 
 0 
LINE
 10 
 1420 
 20 
 3510 
 30 
 0 
 11 
 1523.10388183594 
 21 
 3498.21606445313 
 31 
 0 
 0 
LINE
 10 
 1523.10388183594 
 20 
 3498.21606445313 
 30 
 0 
 11 
 1651.79211425781 
 21 
 3479.56811523438 
 31 
 0 
 0 
LINE
 10 
 1651.79211425781 
 20 
 3479.56811523438 
 30 
 0 
 11 
 1806.92797851563 
 21 
 3453.912109375 
 31 
 0 
 0 
LINE
 10 
 1806.92797851563 
 20 
 3453.912109375 
 30 
 0 
 11 
 1989.37609863281 
 21 
 3421.10400390625 
 31 
 0 
 0 
LINE
 10 
 1989.37609863281 
 20 
 3421.10400390625 
 30 
 0 
 11 
 2200 
 21 
 3381 
 31 
 0 
 0 
LINE
 10 
 2200 
 20 
 3381 
 30 
 0 
 11 
 2408.56005859375 
 21 
 3340.97583007813 
 31 
 0 
 0 
LINE
 10 
 2408.56005859375 
 20 
 3340.97583007813 
 30 
 0 
 11 
 2560.47998046875 
 21 
 3314.00805664063 
 31 
 0 
 0 
LINE
 10 
 2560.47998046875 
 20 
 3314.00805664063 
 30 
 0 
 11 
 2672.32006835938 
 21 
 3297.55200195313 
 31 
 0 
 0 
LINE
 10 
 2672.32006835938 
 20 
 3297.55200195313 
 30 
 0 
 11 
 2760.64013671875 
 21 
 3289.06396484375 
 31 
 0 
 0 
LINE
 10 
 2760.64013671875 
 20 
 3289.06396484375 
 30 
 0 
 11 
 2842 
 21 
 3286 
 31 
 0 
 0 
LINE
 10 
 2842 
 20 
 3286 
 30 
 0 
 11 
 2878.39990234375 
 21 
 3285.55981445313 
 31 
 0 
 0 
LINE
 10 
 2878.39990234375 
 20 
 3285.55981445313 
 30 
 0 
 11 
 2909.52001953125 
 21 
 3284.39990234375 
 31 
 0 
 0 
LINE
 10 
 2909.52001953125 
 20 
 3284.39990234375 
 30 
 0 
 11 
 2933.43994140625 
 21 
 3282.76000976563 
 31 
 0 
 0 
LINE
 10 
 2933.43994140625 
 20 
 3282.76000976563 
 30 
 0 
 11 
 2948.23999023438 
 21 
 3280.88012695313 
 31 
 0 
 0 
LINE
 10 
 2948.23999023438 
 20 
 3280.88012695313 
 30 
 0 
 11 
 2952 
 21 
 3279 
 31 
 0 
 0 
LINE
 10 
 2952 
 20 
 3279 
 30 
 0 
 11 
 2947.4560546875 
 21 
 3276.64794921875 
 31 
 0 
 0 
LINE
 10 
 2947.4560546875 
 20 
 3276.64794921875 
 30 
 0 
 11 
 2939.16821289063 
 21 
 3273.38427734375 
 31 
 0 
 0 
LINE
 10 
 2939.16821289063 
 20 
 3273.38427734375 
 30 
 0 
 11 
 2927.9521484375 
 21 
 3269.49584960938 
 31 
 0 
 0 
LINE
 10 
 2927.9521484375 
 20 
 3269.49584960938 
 30 
 0 
 11 
 2914.6240234375 
 21 
 3265.27197265625 
 31 
 0 
 0 
LINE
 10 
 2914.6240234375 
 20 
 3265.27197265625 
 30 
 0 
 11 
 2900 
 21 
 3261 
 31 
 0 
 0 
LINE
 10 
 2900 
 20 
 3261 
 30 
 0 
 11 
 2801.60815429688 
 21 
 3221.416015625 
 31 
 0 
 0 
LINE
 10 
 2801.60815429688 
 20 
 3221.416015625 
 30 
 0 
 11 
 2688.86401367188 
 21 
 3155.52807617188 
 31 
 0 
 0 
LINE
 10 
 2688.86401367188 
 20 
 3155.52807617188 
 30 
 0 
 11 
 2561.81591796875 
 21 
 3063.43212890625 
 31 
 0 
 0 
LINE
 10 
 2561.81591796875 
 20 
 3063.43212890625 
 30 
 0 
 11 
 2420.51220703125 
 21 
 2945.22412109375 
 31 
 0 
 0 
LINE
 10 
 2420.51220703125 
 20 
 2945.22412109375 
 30 
 0 
 11 
 2265 
 21 
 2801 
 31 
 0 
 0 
LINE
 10 
 2265 
 20 
 2801 
 30 
 0 
 11 
 2092.53588867188 
 21 
 2634.671875 
 31 
 0 
 0 
LINE
 10 
 2092.53588867188 
 20 
 2634.671875 
 30 
 0 
 11 
 1973.92797851563 
 21 
 2522.29614257813 
 31 
 0 
 0 
LINE
 10 
 1973.92797851563 
 20 
 2522.29614257813 
 30 
 0 
 11 
 1895.35192871094 
 21 
 2451.583984375 
 31 
 0 
 0 
LINE
 10 
 1895.35192871094 
 20 
 2451.583984375 
 30 
 0 
 11 
 1842.98400878906 
 21 
 2410.248046875 
 31 
 0 
 0 
LINE
 10 
 1842.98400878906 
 20 
 2410.248046875 
 30 
 0 
 11 
 1803 
 21 
 2386 
 31 
 0 
 0 
LINE
 10 
 1803 
 20 
 2386 
 30 
 0 
 11 
 1784.01586914063 
 21 
 2378.27197265625 
 31 
 0 
 0 
LINE
 10 
 1784.01586914063 
 20 
 2378.27197265625 
 30 
 0 
 11 
 1773.04809570313 
 21 
 2377.21606445313 
 31 
 0 
 0 
LINE
 10 
 1773.04809570313 
 20 
 2377.21606445313 
 30 
 0 
 11 
 1770.67199707031 
 21 
 2381.82397460938 
 31 
 0 
 0 
LINE
 10 
 1770.67199707031 
 20 
 2381.82397460938 
 30 
 0 
 11 
 1777.46398925781 
 21 
 2391.08813476563 
 31 
 0 
 0 
LINE
 10 
 1777.46398925781 
 20 
 2391.08813476563 
 30 
 0 
 11 
 1794 
 21 
 2404 
 31 
 0 
 0 
LINE
 10 
 1794 
 20 
 2404 
 30 
 0 
 11 
 1812.52001953125 
 21 
 2420.583984375 
 31 
 0 
 0 
LINE
 10 
 1812.52001953125 
 20 
 2420.583984375 
 30 
 0 
 11 
 1849.76013183594 
 21 
 2457.9521484375 
 31 
 0 
 0 
LINE
 10 
 1849.76013183594 
 20 
 2457.9521484375 
 30 
 0 
 11 
 1901.64001464844 
 21 
 2511.92797851563 
 31 
 0 
 0 
LINE
 10 
 1901.64001464844 
 20 
 2511.92797851563 
 30 
 0 
 11 
 1964.080078125 
 21 
 2578.33618164063 
 31 
 0 
 0 
LINE
 10 
 1964.080078125 
 20 
 2578.33618164063 
 30 
 0 
 11 
 2033 
 21 
 2653 
 31 
 0 
 0 
LINE
 10 
 2033 
 20 
 2653 
 30 
 0 
 11 
 2198.51977539063 
 21 
 2828.80786132813 
 31 
 0 
 0 
LINE
 10 
 2198.51977539063 
 20 
 2828.80786132813 
 30 
 0 
 11 
 2336.44018554688 
 21 
 2965.78393554688 
 31 
 0 
 0 
LINE
 10 
 2336.44018554688 
 20 
 2965.78393554688 
 30 
 0 
 11 
 2454.19995117188 
 21 
 3070.4560546875 
 31 
 0 
 0 
LINE
 10 
 2454.19995117188 
 20 
 3070.4560546875 
 30 
 0 
 11 
 2559.23999023438 
 21 
 3149.35205078125 
 31 
 0 
 0 
LINE
 10 
 2559.23999023438 
 20 
 3149.35205078125 
 30 
 0 
 11 
 2659 
 21 
 3209 
 31 
 0 
 0 
LINE
 10 
 2659 
 20 
 3209 
 30 
 0 
 11 
 2733 
 21 
 3248 
 31 
 0 
 0 
LINE
 10 
 2733 
 20 
 3248 
 30 
 0 
 11 
 2614 
 21 
 3255 
 31 
 0 
 0 
LINE
 10 
 2614 
 20 
 3255 
 30 
 0 
 11 
 2541.32788085938 
 21 
 3257.63208007813 
 31 
 0 
 0 
LINE
 10 
 2541.32788085938 
 20 
 3257.63208007813 
 30 
 0 
 11 
 2488.3837890625 
 21 
 3253.97607421875 
 31 
 0 
 0 
LINE
 10 
 2488.3837890625 
 20 
 3253.97607421875 
 30 
 0 
 11 
 2445.3759765625 
 21 
 3241.10400390625 
 31 
 0 
 0 
LINE
 10 
 2445.3759765625 
 20 
 3241.10400390625 
 30 
 0 
 11 
 2402.51196289063 
 21 
 3216.08813476563 
 31 
 0 
 0 
LINE
 10 
 2402.51196289063 
 20 
 3216.08813476563 
 30 
 0 
 11 
 2350 
 21 
 3176 
 31 
 0 
 0 
LINE
 10 
 2350 
 20 
 3176 
 30 
 0 
 11 
 2308.0400390625 
 21 
 3138.35180664063 
 31 
 0 
 0 
LINE
 10 
 2308.0400390625 
 20 
 3138.35180664063 
 30 
 0 
 11 
 2258.40014648438 
 21 
 3087.69604492188 
 31 
 0 
 0 
LINE
 10 
 2258.40014648438 
 20 
 3087.69604492188 
 30 
 0 
 11 
 2205.63989257813 
 21 
 3029.26416015625 
 31 
 0 
 0 
LINE
 10 
 2205.63989257813 
 20 
 3029.26416015625 
 30 
 0 
 11 
 2154.32006835938 
 21 
 2968.2880859375 
 31 
 0 
 0 
LINE
 10 
 2154.32006835938 
 20 
 2968.2880859375 
 30 
 0 
 11 
 2109 
 21 
 2910 
 31 
 0 
 0 
LINE
 10 
 2109 
 20 
 2910 
 30 
 0 
 11 
 2031.85607910156 
 21 
 2804.73608398438 
 31 
 0 
 0 
LINE
 10 
 2031.85607910156 
 20 
 2804.73608398438 
 30 
 0 
 11 
 1976.16809082031 
 21 
 2728.84814453125 
 31 
 0 
 0 
LINE
 10 
 1976.16809082031 
 20 
 2728.84814453125 
 30 
 0 
 11 
 1939.15197753906 
 21 
 2678.59204101563 
 31 
 0 
 0 
LINE
 10 
 1939.15197753906 
 20 
 2678.59204101563 
 30 
 0 
 11 
 1918.02404785156 
 21 
 2650.22412109375 
 31 
 0 
 0 
LINE
 10 
 1918.02404785156 
 20 
 2650.22412109375 
 30 
 0 
 11 
 1910 
 21 
 2640 
 31 
 0 
 0 
LINE
 10 
 1910 
 20 
 2640 
 30 
 0 
 11 
 1906.74389648438 
 21 
 2636.27978515625 
 31 
 0 
 0 
LINE
 10 
 1906.74389648438 
 20 
 2636.27978515625 
 30 
 0 
 11 
 1900.99206542969 
 21 
 2629.2001953125 
 31 
 0 
 0 
LINE
 10 
 1900.99206542969 
 20 
 2629.2001953125 
 30 
 0 
 11 
 1893.36791992188 
 21 
 2619.47998046875 
 31 
 0 
 0 
LINE
 10 
 1893.36791992188 
 20 
 2619.47998046875 
 30 
 0 
 11 
 1884.49597167969 
 21 
 2607.84008789063 
 31 
 0 
 0 
LINE
 10 
 1884.49597167969 
 20 
 2607.84008789063 
 30 
 0 
 11 
 1875 
 21 
 2595 
 31 
 0 
 0 
LINE
 10 
 1875 
 20 
 2595 
 30 
 0 
 11 
 1842.28002929688 
 21 
 2551.77563476563 
 31 
 0 
 0 
LINE
 10 
 1842.28002929688 
 20 
 2551.77563476563 
 30 
 0 
 11 
 1812.44006347656 
 21 
 2514.64794921875 
 31 
 0 
 0 
LINE
 10 
 1812.44006347656 
 20 
 2514.64794921875 
 30 
 0 
 11 
 1787.16003417969 
 21 
 2485.63208007813 
 31 
 0 
 0 
LINE
 10 
 1787.16003417969 
 20 
 2485.63208007813 
 30 
 0 
 11 
 1768.11999511719 
 21 
 2466.744140625 
 31 
 0 
 0 
LINE
 10 
 1768.11999511719 
 20 
 2466.744140625 
 30 
 0 
 11 
 1757 
 21 
 2460 
 31 
 0 
 0 
LINE
 10 
 1757 
 20 
 2460 
 30 
 0 
 11 
 1754.67993164063 
 21 
 2461.14404296875 
 31 
 0 
 0 
LINE
 10 
 1754.67993164063 
 20 
 2461.14404296875 
 30 
 0 
 11 
 1754.76000976563 
 21 
 2464.35205078125 
 31 
 0 
 0 
LINE
 10 
 1754.76000976563 
 20 
 2464.35205078125 
 30 
 0 
 11 
 1757 
 21 
 2469.2880859375 
 31 
 0 
 0 
LINE
 10 
 1757 
 20 
 2469.2880859375 
 30 
 0 
 11 
 1761.16003417969 
 21 
 2475.61596679688 
 31 
 0 
 0 
LINE
 10 
 1761.16003417969 
 20 
 2475.61596679688 
 30 
 0 
 11 
 1767 
 21 
 2483 
 31 
 0 
 0 
LINE
 10 
 1767 
 20 
 2483 
 30 
 0 
 11 
 1788.255859375 
 21 
 2509.83984375 
 31 
 0 
 0 
LINE
 10 
 1788.255859375 
 20 
 2509.83984375 
 30 
 0 
 11 
 1817.04809570313 
 21 
 2551.080078125 
 31 
 0 
 0 
LINE
 10 
 1817.04809570313 
 20 
 2551.080078125 
 30 
 0 
 11 
 1851.31201171875 
 21 
 2603.60009765625 
 31 
 0 
 0 
LINE
 10 
 1851.31201171875 
 20 
 2603.60009765625 
 30 
 0 
 11 
 1888.98400878906 
 21 
 2664.28002929688 
 31 
 0 
 0 
LINE
 10 
 1888.98400878906 
 20 
 2664.28002929688 
 30 
 0 
 11 
 1928 
 21 
 2730 
 31 
 0 
 0 
LINE
 10 
 1928 
 20 
 2730 
 30 
 0 
 11 
 2021.98400878906 
 21 
 2882.74389648438 
 31 
 0 
 0 
LINE
 10 
 2021.98400878906 
 20 
 2882.74389648438 
 30 
 0 
 11 
 2117.31201171875 
 21 
 3020.03198242188 
 31 
 0 
 0 
LINE
 10 
 2117.31201171875 
 20 
 3020.03198242188 
 30 
 0 
 11 
 2207.64794921875 
 21 
 3133.84814453125 
 31 
 0 
 0 
LINE
 10 
 2207.64794921875 
 20 
 3133.84814453125 
 30 
 0 
 11 
 2286.65600585938 
 21 
 3216.17602539063 
 31 
 0 
 0 
LINE
 10 
 2286.65600585938 
 20 
 3216.17602539063 
 30 
 0 
 11 
 2348 
 21 
 3259 
 31 
 0 
 0 
LINE
 10 
 2348 
 20 
 3259 
 30 
 0 
 11 
 2367.3759765625 
 21 
 3268.99169921875 
 31 
 0 
 0 
LINE
 10 
 2367.3759765625 
 20 
 3268.99169921875 
 30 
 0 
 11 
 2372.44799804688 
 21 
 3277.49609375 
 31 
 0 
 0 
LINE
 10 
 2372.44799804688 
 20 
 3277.49609375 
 30 
 0 
 11 
 2362.83203125 
 21 
 3284.7041015625 
 31 
 0 
 0 
LINE
 10 
 2362.83203125 
 20 
 3284.7041015625 
 30 
 0 
 11 
 2338.14404296875 
 21 
 3290.80810546875 
 31 
 0 
 0 
LINE
 10 
 2338.14404296875 
 20 
 3290.80810546875 
 30 
 0 
 11 
 2298 
 21 
 3296 
 31 
 0 
 0 
LINE
 10 
 2298 
 20 
 3296 
 30 
 0 
 11 
 2266.84008789063 
 21 
 3298.51977539063 
 31 
 0 
 0 
LINE
 10 
 2266.84008789063 
 20 
 3298.51977539063 
 30 
 0 
 11 
 2243.83984375 
 21 
 3298.40014648438 
 31 
 0 
 0 
LINE
 10 
 2243.83984375 
 20 
 3298.40014648438 
 30 
 0 
 11 
 2224.919921875 
 21 
 3294.92016601563 
 31 
 0 
 0 
LINE
 10 
 2224.919921875 
 20 
 3294.92016601563 
 30 
 0 
 11 
 2206 
 21 
 3287.36010742188 
 31 
 0 
 0 
LINE
 10 
 2206 
 20 
 3287.36010742188 
 30 
 0 
 11 
 2183 
 21 
 3275 
 31 
 0 
 0 
LINE
 10 
 2183 
 20 
 3275 
 30 
 0 
 11 
 2137.22387695313 
 21 
 3241.35205078125 
 31 
 0 
 0 
LINE
 10 
 2137.22387695313 
 20 
 3241.35205078125 
 30 
 0 
 11 
 2075.751953125 
 21 
 3185.09594726563 
 31 
 0 
 0 
LINE
 10 
 2075.751953125 
 20 
 3185.09594726563 
 30 
 0 
 11 
 1998.96801757813 
 21 
 3106.6640625 
 31 
 0 
 0 
LINE
 10 
 1998.96801757813 
 20 
 3106.6640625 
 30 
 0 
 11 
 1907.25598144531 
 21 
 3006.48803710938 
 31 
 0 
 0 
LINE
 10 
 1907.25598144531 
 20 
 3006.48803710938 
 30 
 0 
 11 
 1801 
 21 
 2885 
 31 
 0 
 0 
LINE
 10 
 1801 
 20 
 2885 
 30 
 0 
 11 
 1709.39196777344 
 21 
 2778.83178710938 
 31 
 0 
 0 
LINE
 10 
 1709.39196777344 
 20 
 2778.83178710938 
 30 
 0 
 11 
 1640.53601074219 
 21 
 2700.93603515625 
 31 
 0 
 0 
LINE
 10 
 1640.53601074219 
 20 
 2700.93603515625 
 30 
 0 
 11 
 1591.98400878906 
 21 
 2648.6240234375 
 31 
 0 
 0 
LINE
 10 
 1591.98400878906 
 20 
 2648.6240234375 
 30 
 0 
 11 
 1561.28796386719 
 21 
 2619.2080078125 
 31 
 0 
 0 
LINE
 10 
 1561.28796386719 
 20 
 2619.2080078125 
 30 
 0 
 11 
 1546 
 21 
 2610 
 31 
 0 
 0 
LINE
 10 
 1546 
 20 
 2610 
 30 
 0 
 11 
 1544.16796875 
 21 
 2611.14404296875 
 31 
 0 
 0 
LINE
 10 
 1544.16796875 
 20 
 2611.14404296875 
 30 
 0 
 11 
 1544.5439453125 
 21 
 2614.35205078125 
 31 
 0 
 0 
LINE
 10 
 1544.5439453125 
 20 
 2614.35205078125 
 30 
 0 
 11 
 1546.93603515625 
 21 
 2619.2880859375 
 31 
 0 
 0 
LINE
 10 
 1546.93603515625 
 20 
 2619.2880859375 
 30 
 0 
 11 
 1551.15209960938 
 21 
 2625.61596679688 
 31 
 0 
 0 
LINE
 10 
 1551.15209960938 
 20 
 2625.61596679688 
 30 
 0 
 11 
 1557 
 21 
 2633 
 31 
 0 
 0 
LINE
 10 
 1557 
 20 
 2633 
 30 
 0 
 11 
 1580.25598144531 
 21 
 2661.0400390625 
 31 
 0 
 0 
LINE
 10 
 1580.25598144531 
 20 
 2661.0400390625 
 30 
 0 
 11 
 1619.68811035156 
 21 
 2713.080078125 
 31 
 0 
 0 
LINE
 10 
 1619.68811035156 
 20 
 2713.080078125 
 30 
 0 
 11 
 1672.99206542969 
 21 
 2786 
 31 
 0 
 0 
LINE
 10 
 1672.99206542969 
 20 
 2786 
 30 
 0 
 11 
 1737.86401367188 
 21 
 2876.68017578125 
 31 
 0 
 0 
LINE
 10 
 1737.86401367188 
 20 
 2876.68017578125 
 30 
 0 
 11 
 1812 
 21 
 2982 
 31 
 0 
 0 
LINE
 10 
 1812 
 20 
 2982 
 30 
 0 
 11 
 1874.40783691406 
 21 
 3067.78393554688 
 31 
 0 
 0 
LINE
 10 
 1874.40783691406 
 20 
 3067.78393554688 
 30 
 0 
 11 
 1932.06408691406 
 21 
 3141.47216796875 
 31 
 0 
 0 
LINE
 10 
 1932.06408691406 
 20 
 3141.47216796875 
 30 
 0 
 11 
 1985.01611328125 
 21 
 3202.96801757813 
 31 
 0 
 0 
LINE
 10 
 1985.01611328125 
 20 
 3202.96801757813 
 30 
 0 
 11 
 2033.31201171875 
 21 
 3252.17602539063 
 31 
 0 
 0 
LINE
 10 
 2033.31201171875 
 20 
 3252.17602539063 
 30 
 0 
 11 
 2077 
 21 
 3289 
 31 
 0 
 0 
LINE
 10 
 2077 
 20 
 3289 
 30 
 0 
 11 
 2128 
 21 
 3327 
 31 
 0 
 0 
LINE
 10 
 2128 
 20 
 3327 
 30 
 0 
 11 
 2012 
 21 
 3348 
 31 
 0 
 0 
LINE
 10 
 2012 
 20 
 3348 
 30 
 0 
 11 
 1960.01599121094 
 21 
 3356.68798828125 
 31 
 0 
 0 
LINE
 10 
 1960.01599121094 
 20 
 3356.68798828125 
 30 
 0 
 11 
 1923.48803710938 
 21 
 3361.34399414063 
 31 
 0 
 0 
LINE
 10 
 1923.48803710938 
 20 
 3361.34399414063 
 30 
 0 
 11 
 1897.95202636719 
 21 
 3362.25610351563 
 31 
 0 
 0 
LINE
 10 
 1897.95202636719 
 20 
 3362.25610351563 
 30 
 0 
 11 
 1878.94396972656 
 21 
 3359.71215820313 
 31 
 0 
 0 
LINE
 10 
 1878.94396972656 
 20 
 3359.71215820313 
 30 
 0 
 11 
 1862 
 21 
 3354 
 31 
 0 
 0 
LINE
 10 
 1862 
 20 
 3354 
 30 
 0 
 11 
 1827.51989746094 
 21 
 3333.32788085938 
 31 
 0 
 0 
LINE
 10 
 1827.51989746094 
 20 
 3333.32788085938 
 30 
 0 
 11 
 1781.76000976563 
 21 
 3294.22387695313 
 31 
 0 
 0 
LINE
 10 
 1781.76000976563 
 20 
 3294.22387695313 
 30 
 0 
 11 
 1723.0400390625 
 21 
 3235.05590820313 
 31 
 0 
 0 
LINE
 10 
 1723.0400390625 
 20 
 3235.05590820313 
 30 
 0 
 11 
 1649.68005371094 
 21 
 3154.19189453125 
 31 
 0 
 0 
LINE
 10 
 1649.68005371094 
 20 
 3154.19189453125 
 30 
 0 
 11 
 1560 
 21 
 3050 
 31 
 0 
 0 
LINE
 10 
 1560 
 20 
 3050 
 30 
 0 
 11 
 1475.50390625 
 21 
 2951.14404296875 
 31 
 0 
 0 
LINE
 10 
 1475.50390625 
 20 
 2951.14404296875 
 30 
 0 
 11 
 1413.95202636719 
 21 
 2881.47192382813 
 31 
 0 
 0 
LINE
 10 
 1413.95202636719 
 20 
 2881.47192382813 
 30 
 0 
 11 
 1378.84802246094 
 21 
 2844.72802734375 
 31 
 0 
 0 
LINE
 10 
 1378.84802246094 
 20 
 2844.72802734375 
 30 
 0 
 11 
 1373.69604492188 
 21 
 2844.65600585938 
 31 
 0 
 0 
LINE
 10 
 1373.69604492188 
 20 
 2844.65600585938 
 30 
 0 
 11 
 1402 
 21 
 2885 
 31 
 0 
 0 
LINE
 10 
 1402 
 20 
 2885 
 30 
 0 
 11 
 1419.80004882813 
 21 
 2909.263671875 
 31 
 0 
 0 
LINE
 10 
 1419.80004882813 
 20 
 2909.263671875 
 30 
 0 
 11 
 1441.92004394531 
 21 
 2940.63208007813 
 31 
 0 
 0 
LINE
 10 
 1441.92004394531 
 20 
 2940.63208007813 
 30 
 0 
 11 
 1466.43994140625 
 21 
 2976.36791992188 
 31 
 0 
 0 
LINE
 10 
 1466.43994140625 
 20 
 2976.36791992188 
 30 
 0 
 11 
 1491.44006347656 
 21 
 3013.73608398438 
 31 
 0 
 0 
LINE
 10 
 1491.44006347656 
 20 
 3013.73608398438 
 30 
 0 
 11 
 1515 
 21 
 3050 
 31 
 0 
 0 
LINE
 10 
 1515 
 20 
 3050 
 30 
 0 
 11 
 1569.35998535156 
 21 
 3131.67993164063 
 31 
 0 
 0 
LINE
 10 
 1569.35998535156 
 20 
 3131.67993164063 
 30 
 0 
 11 
 1620.35998535156 
 21 
 3203.28002929688 
 31 
 0 
 0 
LINE
 10 
 1620.35998535156 
 20 
 3203.28002929688 
 30 
 0 
 11 
 1667.28002929688 
 21 
 3263.83984375 
 31 
 0 
 0 
LINE
 10 
 1667.28002929688 
 20 
 3263.83984375 
 30 
 0 
 11 
 1709.40002441406 
 21 
 3312.40014648438 
 31 
 0 
 0 
LINE
 10 
 1709.40002441406 
 20 
 3312.40014648438 
 30 
 0 
 11 
 1746 
 21 
 3348 
 31 
 0 
 0 
LINE
 10 
 1746 
 20 
 3348 
 30 
 0 
 11 
 1793 
 21 
 3388 
 31 
 0 
 0 
LINE
 10 
 1793 
 20 
 3388 
 30 
 0 
 11 
 1728 
 21 
 3399 
 31 
 0 
 0 
LINE
 10 
 1728 
 20 
 3399 
 30 
 0 
 11 
 1655.07995605469 
 21 
 3408.79174804688 
 31 
 0 
 0 
LINE
 10 
 1655.07995605469 
 20 
 3408.79174804688 
 30 
 0 
 11 
 1597.04016113281 
 21 
 3402.69604492188 
 31 
 0 
 0 
LINE
 10 
 1597.04016113281 
 20 
 3402.69604492188 
 30 
 0 
 11 
 1537.56005859375 
 21 
 3372.50415039063 
 31 
 0 
 0 
LINE
 10 
 1537.56005859375 
 20 
 3372.50415039063 
 30 
 0 
 11 
 1460.32006835938 
 21 
 3310.00805664063 
 31 
 0 
 0 
LINE
 10 
 1460.32006835938 
 20 
 3310.00805664063 
 30 
 0 
 11 
 1349 
 21 
 3207 
 31 
 0 
 0 
LINE
 10 
 1349 
 20 
 3207 
 30 
 0 
 11 
 1300.11987304688 
 21 
 3161.42407226563 
 31 
 0 
 0 
LINE
 10 
 1300.11987304688 
 20 
 3161.42407226563 
 30 
 0 
 11 
 1257.23999023438 
 21 
 3122.23217773438 
 31 
 0 
 0 
LINE
 10 
 1257.23999023438 
 20 
 3122.23217773438 
 30 
 0 
 11 
 1223 
 21 
 3091.72802734375 
 31 
 0 
 0 
LINE
 10 
 1223 
 20 
 3091.72802734375 
 30 
 0 
 11 
 1200.0400390625 
 21 
 3072.21606445313 
 31 
 0 
 0 
LINE
 10 
 1200.0400390625 
 20 
 3072.21606445313 
 30 
 0 
 11 
 1191 
 21 
 3066 
 31 
 0 
 0 
LINE
 10 
 1191 
 20 
 3066 
 30 
 0 
 11 
 1190.91979980469 
 21 
 3068.8876953125 
 31 
 0 
 0 
LINE
 10 
 1190.91979980469 
 20 
 3068.8876953125 
 30 
 0 
 11 
 1193.96008300781 
 21 
 3074.7041015625 
 31 
 0 
 0 
LINE
 10 
 1193.96008300781 
 20 
 3074.7041015625 
 30 
 0 
 11 
 1199.64001464844 
 21 
 3082.77612304688 
 31 
 0 
 0 
LINE
 10 
 1199.64001464844 
 20 
 3082.77612304688 
 30 
 0 
 11 
 1207.47998046875 
 21 
 3092.43188476563 
 31 
 0 
 0 
LINE
 10 
 1207.47998046875 
 20 
 3092.43188476563 
 30 
 0 
 11 
 1217 
 21 
 3103 
 31 
 0 
 0 
LINE
 10 
 1217 
 20 
 3103 
 30 
 0 
 11 
 1230.1279296875 
 21 
 3117.74389648438 
 31 
 0 
 0 
LINE
 10 
 1230.1279296875 
 20 
 3117.74389648438 
 30 
 0 
 11 
 1249.06408691406 
 21 
 3140.07202148438 
 31 
 0 
 0 
LINE
 10 
 1249.06408691406 
 20 
 3140.07202148438 
 30 
 0 
 11 
 1271.93603515625 
 21 
 3167.72827148438 
 31 
 0 
 0 
LINE
 10 
 1271.93603515625 
 20 
 3167.72827148438 
 30 
 0 
 11 
 1296.8720703125 
 21 
 3198.4560546875 
 31 
 0 
 0 
LINE
 10 
 1296.8720703125 
 20 
 3198.4560546875 
 30 
 0 
 11 
 1322 
 21 
 3230 
 31 
 0 
 0 
LINE
 10 
 1322 
 20 
 3230 
 30 
 0 
 11 
 1348.39990234375 
 21 
 3262.47192382813 
 31 
 0 
 0 
LINE
 10 
 1348.39990234375 
 20 
 3262.47192382813 
 30 
 0 
 11 
 1376.96008300781 
 21 
 3295.85620117188 
 31 
 0 
 0 
LINE
 10 
 1376.96008300781 
 20 
 3295.85620117188 
 30 
 0 
 11 
 1405.52001953125 
 21 
 3327.7041015625 
 31 
 0 
 0 
LINE
 10 
 1405.52001953125 
 20 
 3327.7041015625 
 30 
 0 
 11 
 1431.92004394531 
 21 
 3355.56811523438 
 31 
 0 
 0 
LINE
 10 
 1431.92004394531 
 20 
 3355.56811523438 
 30 
 0 
 11 
 1454 
 21 
 3377 
 31 
 0 
 0 
LINE
 10 
 1454 
 20 
 3377 
 30 
 0 
 11 
 1511 
 21 
 3429 
 31 
 0 
 0 
LINE
 10 
 1511 
 20 
 3429 
 30 
 0 
 11 
 1483 
 21 
 3437 
 31 
 0 
 0 
LINE
 10 
 1483 
 20 
 3437 
 30 
 0 
 11 
 1469.67199707031 
 21 
 3439.26391601563 
 31 
 0 
 0 
LINE
 10 
 1469.67199707031 
 20 
 3439.26391601563 
 30 
 0 
 11 
 1449.09594726563 
 21 
 3441.19213867188 
 31 
 0 
 0 
LINE
 10 
 1449.09594726563 
 20 
 3441.19213867188 
 30 
 0 
 11 
 1423.38403320313 
 21 
 3442.68798828125 
 31 
 0 
 0 
LINE
 10 
 1423.38403320313 
 20 
 3442.68798828125 
 30 
 0 
 11 
 1394.64807128906 
 21 
 3443.65600585938 
 31 
 0 
 0 
LINE
 10 
 1394.64807128906 
 20 
 3443.65600585938 
 30 
 0 
 11 
 1365 
 21 
 3444 
 31 
 0 
 0 
LINE
 10 
 1365 
 20 
 3444 
 30 
 0 
 11 
 1322.64794921875 
 21 
 3443.93579101563 
 31 
 0 
 0 
LINE
 10 
 1322.64794921875 
 20 
 3443.93579101563 
 30 
 0 
 11 
 1291.38403320313 
 21 
 3441.80810546875 
 31 
 0 
 0 
LINE
 10 
 1291.38403320313 
 20 
 3441.80810546875 
 30 
 0 
 11 
 1265.49597167969 
 21 
 3436.51220703125 
 31 
 0 
 0 
LINE
 10 
 1265.49597167969 
 20 
 3436.51220703125 
 30 
 0 
 11 
 1239.27197265625 
 21 
 3426.94409179688 
 31 
 0 
 0 
LINE
 10 
 1239.27197265625 
 20 
 3426.94409179688 
 30 
 0 
 11 
 1207 
 21 
 3412 
 31 
 0 
 0 
LINE
 10 
 1207 
 20 
 3412 
 30 
 0 
 11 
 1181.83984375 
 21 
 3398.087890625 
 31 
 0 
 0 
LINE
 10 
 1181.83984375 
 20 
 3398.087890625 
 30 
 0 
 11 
 1152.35998535156 
 21 
 3380.14428710938 
 31 
 0 
 0 
LINE
 10 
 1152.35998535156 
 20 
 3380.14428710938 
 30 
 0 
 11 
 1120.9599609375 
 21 
 3359.65600585938 
 31 
 0 
 0 
LINE
 10 
 1120.9599609375 
 20 
 3359.65600585938 
 30 
 0 
 11 
 1090.0400390625 
 21 
 3338.11206054688 
 31 
 0 
 0 
LINE
 10 
 1090.0400390625 
 20 
 3338.11206054688 
 30 
 0 
 11 
 1062 
 21 
 3317 
 31 
 0 
 0 
LINE
 10 
 1062 
 20 
 3317 
 30 
 0 
 11 
 985 
 21 
 3256 
 31 
 0 
 0 
LINE
 10 
 985 
 20 
 3256 
 30 
 0 
 11 
 1027 
 21 
 3307 
 31 
 0 
 0 
LINE
 10 
 1027 
 20 
 3307 
 30 
 0 
 11 
 1055.11999511719 
 21 
 3338.70361328125 
 31 
 0 
 0 
LINE
 10 
 1055.11999511719 
 20 
 3338.70361328125 
 30 
 0 
 11 
 1084.67993164063 
 21 
 3369.35229492188 
 31 
 0 
 0 
LINE
 10 
 1084.67993164063 
 20 
 3369.35229492188 
 30 
 0 
 11 
 1114.47998046875 
 21 
 3397.64819335938 
 31 
 0 
 0 
LINE
 10 
 1114.47998046875 
 20 
 3397.64819335938 
 30 
 0 
 11 
 1143.31994628906 
 21 
 3422.29614257813 
 31 
 0 
 0 
LINE
 10 
 1143.31994628906 
 20 
 3422.29614257813 
 30 
 0 
 11 
 1170 
 21 
 3442 
 31 
 0 
 0 
LINE
 10 
 1170 
 20 
 3442 
 30 
 0 
 11 
 1181.50390625 
 21 
 3450.2958984375 
 31 
 0 
 0 
LINE
 10 
 1181.50390625 
 20 
 3450.2958984375 
 30 
 0 
 11 
 1184.51208496094 
 21 
 3455.328125 
 31 
 0 
 0 
LINE
 10 
 1184.51208496094 
 20 
 3455.328125 
 30 
 0 
 11 
 1176.76794433594 
 21 
 3457.912109375 
 31 
 0 
 0 
LINE
 10 
 1176.76794433594 
 20 
 3457.912109375 
 30 
 0 
 11 
 1156.01599121094 
 21 
 3458.86401367188 
 31 
 0 
 0 
LINE
 10 
 1156.01599121094 
 20 
 3458.86401367188 
 30 
 0 
 11 
 1120 
 21 
 3459 
 31 
 0 
 0 
LINE
 10 
 1120 
 20 
 3459 
 30 
 0 
 11 
 1056.28796386719 
 21 
 3456.423828125 
 31 
 0 
 0 
LINE
 10 
 1056.28796386719 
 20 
 3456.423828125 
 30 
 0 
 11 
 992.624084472656 
 21 
 3448.9521484375 
 31 
 0 
 0 
LINE
 10 
 992.624084472656 
 20 
 3448.9521484375 
 30 
 0 
 11 
 931.216003417969 
 21 
 3436.9677734375 
 31 
 0 
 0 
LINE
 10 
 931.216003417969 
 20 
 3436.9677734375 
 30 
 0 
 11 
 874.272033691406 
 21 
 3420.85595703125 
 31 
 0 
 0 
LINE
 10 
 874.272033691406 
 20 
 3420.85595703125 
 30 
 0 
 11 
 824 
 21 
 3401 
 31 
 0 
 0 
LINE
 10 
 824 
 20 
 3401 
 30 
 0 
 11 
 788.007934570313 
 21 
 3385.44775390625 
 31 
 0 
 0 
LINE
 10 
 788.007934570313 
 20 
 3385.44775390625 
 30 
 0 
 11 
 770.064025878906 
 21 
 3380.50415039063 
 31 
 0 
 0 
LINE
 10 
 770.064025878906 
 20 
 3380.50415039063 
 30 
 0 
 11 
 770.216003417969 
 21 
 3385.73608398438 
 31 
 0 
 0 
LINE
 10 
 770.216003417969 
 20 
 3385.73608398438 
 30 
 0 
 11 
 788.512023925781 
 21 
 3400.7119140625 
 31 
 0 
 0 
LINE
 10 
 788.512023925781 
 20 
 3400.7119140625 
 30 
 0 
 11 
 825 
 21 
 3425 
 31 
 0 
 0 
LINE
 10 
 825 
 20 
 3425 
 30 
 0 
 11 
 910.015991210938 
 21 
 3468.11206054688 
 31 
 0 
 0 
LINE
 10 
 910.015991210938 
 20 
 3468.11206054688 
 30 
 0 
 11 
 1010.248046875 
 21 
 3497.97607421875 
 31 
 0 
 0 
LINE
 10 
 1010.248046875 
 20 
 3497.97607421875 
 30 
 0 
 11 
 1127.47192382813 
 21 
 3514.7841796875 
 31 
 0 
 0 
LINE
 10 
 1127.47192382813 
 20 
 3514.7841796875 
 30 
 0 
 11 
 1263.46398925781 
 21 
 3518.72802734375 
 31 
 0 
 0 
LINE
 10 
 1263.46398925781 
 20 
 3518.72802734375 
 30 
 0 
 11 
 1420 
 21 
 3510 
 31 
 0 
 0 
LINE
 10 
 5257 
 20 
 3510 
 30 
 0 
 11 
 5335.72802734375 
 21 
 3501.30395507813 
 31 
 0 
 0 
LINE
 10 
 5335.72802734375 
 20 
 3501.30395507813 
 30 
 0 
 11 
 5404.904296875 
 21 
 3488.19189453125 
 31 
 0 
 0 
LINE
 10 
 5404.904296875 
 20 
 3488.19189453125 
 30 
 0 
 11 
 5466.01611328125 
 21 
 3470.328125 
 31 
 0 
 0 
LINE
 10 
 5466.01611328125 
 20 
 3470.328125 
 30 
 0 
 11 
 5520.55224609375 
 21 
 3447.37622070313 
 31 
 0 
 0 
LINE
 10 
 5520.55224609375 
 20 
 3447.37622070313 
 30 
 0 
 11 
 5570 
 21 
 3419 
 31 
 0 
 0 
LINE
 10 
 5570 
 20 
 3419 
 30 
 0 
 11 
 5602.11181640625 
 21 
 3396.11206054688 
 31 
 0 
 0 
LINE
 10 
 5602.11181640625 
 20 
 3396.11206054688 
 30 
 0 
 11 
 5620.97607421875 
 21 
 3380.13598632813 
 31 
 0 
 0 
LINE
 10 
 5620.97607421875 
 20 
 3380.13598632813 
 30 
 0 
 11 
 5625.58447265625 
 21 
 3372.70385742188 
 31 
 0 
 0 
LINE
 10 
 5625.58447265625 
 20 
 3372.70385742188 
 30 
 0 
 11 
 5614.92822265625 
 21 
 3375.44799804688 
 31 
 0 
 0 
LINE
 10 
 5614.92822265625 
 20 
 3375.44799804688 
 30 
 0 
 11 
 5588 
 21 
 3390 
 31 
 0 
 0 
LINE
 10 
 5588 
 20 
 3390 
 30 
 0 
 11 
 5548.19189453125 
 21 
 3408.09594726563 
 31 
 0 
 0 
LINE
 10 
 5548.19189453125 
 20 
 3408.09594726563 
 30 
 0 
 11 
 5494.89599609375 
 21 
 3424.60815429688 
 31 
 0 
 0 
LINE
 10 
 5494.89599609375 
 20 
 3424.60815429688 
 30 
 0 
 11 
 5431.904296875 
 21 
 3438.67211914063 
 31 
 0 
 0 
LINE
 10 
 5431.904296875 
 20 
 3438.67211914063 
 30 
 0 
 11 
 5363.0078125 
 21 
 3449.42407226563 
 31 
 0 
 0 
LINE
 10 
 5363.0078125 
 20 
 3449.42407226563 
 30 
 0 
 11 
 5292 
 21 
 3456 
 31 
 0 
 0 
LINE
 10 
 5292 
 20 
 3456 
 30 
 0 
 11 
 5185 
 21 
 3462 
 31 
 0 
 0 
LINE
 10 
 5185 
 20 
 3462 
 30 
 0 
 11 
 5220 
 21 
 3440 
 31 
 0 
 0 
LINE
 10 
 5220 
 20 
 3440 
 30 
 0 
 11 
 5252.65576171875 
 21 
 3413.85595703125 
 31 
 0 
 0 
LINE
 10 
 5252.65576171875 
 20 
 3413.85595703125 
 30 
 0 
 11 
 5296.68798828125 
 21 
 3372.68823242188 
 31 
 0 
 0 
LINE
 10 
 5296.68798828125 
 20 
 3372.68823242188 
 30 
 0 
 11 
 5341.39208984375 
 21 
 3327.39208984375 
 31 
 0 
 0 
LINE
 10 
 5341.39208984375 
 20 
 3327.39208984375 
 30 
 0 
 11 
 5376.06396484375 
 21 
 3288.86401367188 
 31 
 0 
 0 
LINE
 10 
 5376.06396484375 
 20 
 3288.86401367188 
 30 
 0 
 11 
 5390 
 21 
 3268 
 31 
 0 
 0 
LINE
 10 
 5390 
 20 
 3268 
 30 
 0 
 11 
 5387.15185546875 
 21 
 3267.65600585938 
 31 
 0 
 0 
LINE
 10 
 5387.15185546875 
 20 
 3267.65600585938 
 30 
 0 
 11 
 5379.2158203125 
 21 
 3272.2080078125 
 31 
 0 
 0 
LINE
 10 
 5379.2158203125 
 20 
 3272.2080078125 
 30 
 0 
 11 
 5367.10400390625 
 21 
 3281.03198242188 
 31 
 0 
 0 
LINE
 10 
 5367.10400390625 
 20 
 3281.03198242188 
 30 
 0 
 11 
 5351.72802734375 
 21 
 3293.50415039063 
 31 
 0 
 0 
LINE
 10 
 5351.72802734375 
 20 
 3293.50415039063 
 30 
 0 
 11 
 5334 
 21 
 3309 
 31 
 0 
 0 
LINE
 10 
 5334 
 20 
 3309 
 30 
 0 
 11 
 5292.49609375 
 21 
 3342.01586914063 
 31 
 0 
 0 
LINE
 10 
 5292.49609375 
 20 
 3342.01586914063 
 30 
 0 
 11 
 5244.84765625 
 21 
 3373.68798828125 
 31 
 0 
 0 
LINE
 10 
 5244.84765625 
 20 
 3373.68798828125 
 30 
 0 
 11 
 5194.751953125 
 21 
 3401.95190429688 
 31 
 0 
 0 
LINE
 10 
 5194.751953125 
 20 
 3401.95190429688 
 30 
 0 
 11 
 5145.904296875 
 21 
 3424.744140625 
 31 
 0 
 0 
LINE
 10 
 5145.904296875 
 20 
 3424.744140625 
 30 
 0 
 11 
 5102 
 21 
 3440 
 31 
 0 
 0 
LINE
 10 
 5102 
 20 
 3440 
 30 
 0 
 11 
 5081.8876953125 
 21 
 3443.83203125 
 31 
 0 
 0 
LINE
 10 
 5081.8876953125 
 20 
 3443.83203125 
 30 
 0 
 11 
 5059.90380859375 
 21 
 3445.69604492188 
 31 
 0 
 0 
LINE
 10 
 5059.90380859375 
 20 
 3445.69604492188 
 30 
 0 
 11 
 5034.17578125 
 21 
 3445.5439453125 
 31 
 0 
 0 
LINE
 10 
 5034.17578125 
 20 
 3445.5439453125 
 30 
 0 
 11 
 5002.83203125 
 21 
 3443.328125 
 31 
 0 
 0 
LINE
 10 
 5002.83203125 
 20 
 3443.328125 
 30 
 0 
 11 
 4964 
 21 
 3439 
 31 
 0 
 0 
LINE
 10 
 4964 
 20 
 3439 
 30 
 0 
 11 
 4870 
 21 
 3428 
 31 
 0 
 0 
LINE
 10 
 4870 
 20 
 3428 
 30 
 0 
 11 
 4908 
 21 
 3400 
 31 
 0 
 0 
LINE
 10 
 4908 
 20 
 3400 
 30 
 0 
 11 
 4938.16796875 
 21 
 3375.50390625 
 31 
 0 
 0 
LINE
 10 
 4938.16796875 
 20 
 3375.50390625 
 30 
 0 
 11 
 4970.06396484375 
 21 
 3344.67211914063 
 31 
 0 
 0 
LINE
 10 
 4970.06396484375 
 20 
 3344.67211914063 
 30 
 0 
 11 
 5007.576171875 
 21 
 3303.087890625 
 31 
 0 
 0 
LINE
 10 
 5007.576171875 
 20 
 3303.087890625 
 30 
 0 
 11 
 5054.591796875 
 21 
 3246.33618164063 
 31 
 0 
 0 
LINE
 10 
 5054.591796875 
 20 
 3246.33618164063 
 30 
 0 
 11 
 5115 
 21 
 3170 
 31 
 0 
 0 
LINE
 10 
 5115 
 20 
 3170 
 30 
 0 
 11 
 5164.02392578125 
 21 
 3106.44799804688 
 31 
 0 
 0 
LINE
 10 
 5164.02392578125 
 20 
 3106.44799804688 
 30 
 0 
 11 
 5182.47216796875 
 21 
 3078.22387695313 
 31 
 0 
 0 
LINE
 10 
 5182.47216796875 
 20 
 3078.22387695313 
 30 
 0 
 11 
 5166.408203125 
 21 
 3087.77612304688 
 31 
 0 
 0 
LINE
 10 
 5166.408203125 
 20 
 3087.77612304688 
 30 
 0 
 11 
 5111.89599609375 
 21 
 3137.55200195313 
 31 
 0 
 0 
LINE
 10 
 5111.89599609375 
 20 
 3137.55200195313 
 30 
 0 
 11 
 5015 
 21 
 3230 
 31 
 0 
 0 
LINE
 10 
 5015 
 20 
 3230 
 30 
 0 
 11 
 4945.02392578125 
 21 
 3295.18408203125 
 31 
 0 
 0 
LINE
 10 
 4945.02392578125 
 20 
 3295.18408203125 
 30 
 0 
 11 
 4886.232421875 
 21 
 3345.63208007813 
 31 
 0 
 0 
LINE
 10 
 4886.232421875 
 20 
 3345.63208007813 
 30 
 0 
 11 
 4838.52783203125 
 21 
 3381.48803710938 
 31 
 0 
 0 
LINE
 10 
 4838.52783203125 
 20 
 3381.48803710938 
 30 
 0 
 11 
 4801.81591796875 
 21 
 3402.89599609375 
 31 
 0 
 0 
LINE
 10 
 4801.81591796875 
 20 
 3402.89599609375 
 30 
 0 
 11 
 4776 
 21 
 3410 
 31 
 0 
 0 
LINE
 10 
 4776 
 20 
 3410 
 30 
 0 
 11 
 4765.3359375 
 21 
 3409.431640625 
 31 
 0 
 0 
LINE
 10 
 4765.3359375 
 20 
 3409.431640625 
 30 
 0 
 11 
 4748.76806640625 
 21 
 3407.85595703125 
 31 
 0 
 0 
LINE
 10 
 4748.76806640625 
 20 
 3407.85595703125 
 30 
 0 
 11 
 4727.83203125 
 21 
 3405.46411132813 
 31 
 0 
 0 
LINE
 10 
 4727.83203125 
 20 
 3405.46411132813 
 30 
 0 
 11 
 4704.06396484375 
 21 
 3402.44799804688 
 31 
 0 
 0 
LINE
 10 
 4704.06396484375 
 20 
 3402.44799804688 
 30 
 0 
 11 
 4679 
 21 
 3399 
 31 
 0 
 0 
LINE
 10 
 4679 
 20 
 3399 
 30 
 0 
 11 
 4602 
 21 
 3387 
 31 
 0 
 0 
LINE
 10 
 4602 
 20 
 3387 
 30 
 0 
 11 
 4669 
 21 
 3321 
 31 
 0 
 0 
LINE
 10 
 4669 
 20 
 3321 
 30 
 0 
 11 
 4696.16796875 
 21 
 3291.17578125 
 31 
 0 
 0 
LINE
 10 
 4696.16796875 
 20 
 3291.17578125 
 30 
 0 
 11 
 4729.6240234375 
 21 
 3250.16821289063 
 31 
 0 
 0 
LINE
 10 
 4729.6240234375 
 20 
 3250.16821289063 
 30 
 0 
 11 
 4767.49609375 
 21 
 3200.47192382813 
 31 
 0 
 0 
LINE
 10 
 4767.49609375 
 20 
 3200.47192382813 
 30 
 0 
 11 
 4807.912109375 
 21 
 3144.583984375 
 31 
 0 
 0 
LINE
 10 
 4807.912109375 
 20 
 3144.583984375 
 30 
 0 
 11 
 4849 
 21 
 3085 
 31 
 0 
 0 
LINE
 10 
 4849 
 20 
 3085 
 30 
 0 
 11 
 4886.64013671875 
 21 
 3029.56005859375 
 31 
 0 
 0 
LINE
 10 
 4886.64013671875 
 20 
 3029.56005859375 
 30 
 0 
 11 
 4922.3603515625 
 21 
 2977.23999023438 
 31 
 0 
 0 
LINE
 10 
 4922.3603515625 
 20 
 2977.23999023438 
 30 
 0 
 11 
 4953.76025390625 
 21 
 2931.63989257813 
 31 
 0 
 0 
LINE
 10 
 4953.76025390625 
 20 
 2931.63989257813 
 30 
 0 
 11 
 4978.43994140625 
 21 
 2896.36010742188 
 31 
 0 
 0 
LINE
 10 
 4978.43994140625 
 20 
 2896.36010742188 
 30 
 0 
 11 
 4994 
 21 
 2875 
 31 
 0 
 0 
LINE
 10 
 4994 
 20 
 2875 
 30 
 0 
 11 
 5024 
 21 
 2835 
 31 
 0 
 0 
LINE
 10 
 5024 
 20 
 2835 
 30 
 0 
 11 
 4991 
 21 
 2865 
 31 
 0 
 0 
LINE
 10 
 4991 
 20 
 2865 
 30 
 0 
 11 
 4974.0234375 
 21 
 2882.0478515625 
 31 
 0 
 0 
LINE
 10 
 4974.0234375 
 20 
 2882.0478515625 
 30 
 0 
 11 
 4947.591796875 
 21 
 2910.90405273438 
 31 
 0 
 0 
LINE
 10 
 4947.591796875 
 20 
 2910.90405273438 
 30 
 0 
 11 
 4914.248046875 
 21 
 2948.73608398438 
 31 
 0 
 0 
LINE
 10 
 4914.248046875 
 20 
 2948.73608398438 
 30 
 0 
 11 
 4876.5361328125 
 21 
 2992.7119140625 
 31 
 0 
 0 
LINE
 10 
 4876.5361328125 
 20 
 2992.7119140625 
 30 
 0 
 11 
 4837 
 21 
 3040 
 31 
 0 
 0 
LINE
 10 
 4837 
 20 
 3040 
 30 
 0 
 11 
 4754.2958984375 
 21 
 3137.1357421875 
 31 
 0 
 0 
LINE
 10 
 4754.2958984375 
 20 
 3137.1357421875 
 30 
 0 
 11 
 4680.328125 
 21 
 3218.52807617188 
 31 
 0 
 0 
LINE
 10 
 4680.328125 
 20 
 3218.52807617188 
 30 
 0 
 11 
 4617.1123046875 
 21 
 3282.35205078125 
 31 
 0 
 0 
LINE
 10 
 4617.1123046875 
 20 
 3282.35205078125 
 30 
 0 
 11 
 4566.6640625 
 21 
 3326.7841796875 
 31 
 0 
 0 
LINE
 10 
 4566.6640625 
 20 
 3326.7841796875 
 30 
 0 
 11 
 4531 
 21 
 3350 
 31 
 0 
 0 
LINE
 10 
 4531 
 20 
 3350 
 30 
 0 
 11 
 4514.07958984375 
 21 
 3355.62377929688 
 31 
 0 
 0 
LINE
 10 
 4514.07958984375 
 20 
 3355.62377929688 
 30 
 0 
 11 
 4495.240234375 
 21 
 3358.0322265625 
 31 
 0 
 0 
LINE
 10 
 4495.240234375 
 20 
 3358.0322265625 
 30 
 0 
 11 
 4470.16015625 
 21 
 3357.1279296875 
 31 
 0 
 0 
LINE
 10 
 4470.16015625 
 20 
 3357.1279296875 
 30 
 0 
 11 
 4434.52001953125 
 21 
 3352.81616210938 
 31 
 0 
 0 
LINE
 10 
 4434.52001953125 
 20 
 3352.81616210938 
 30 
 0 
 11 
 4384 
 21 
 3345 
 31 
 0 
 0 
LINE
 10 
 4384 
 20 
 3345 
 30 
 0 
 11 
 4347.9521484375 
 21 
 3338.83178710938 
 31 
 0 
 0 
LINE
 10 
 4347.9521484375 
 20 
 3338.83178710938 
 30 
 0 
 11 
 4316.65576171875 
 21 
 3332.6162109375 
 31 
 0 
 0 
LINE
 10 
 4316.65576171875 
 20 
 3332.6162109375 
 30 
 0 
 11 
 4291.984375 
 21 
 3326.78393554688 
 31 
 0 
 0 
LINE
 10 
 4291.984375 
 20 
 3326.78393554688 
 30 
 0 
 11 
 4275.80810546875 
 21 
 3321.76806640625 
 31 
 0 
 0 
LINE
 10 
 4275.80810546875 
 20 
 3321.76806640625 
 30 
 0 
 11 
 4270 
 21 
 3318 
 31 
 0 
 0 
LINE
 10 
 4270 
 20 
 3318 
 30 
 0 
 11 
 4270.4638671875 
 21 
 3315.6318359375 
 31 
 0 
 0 
LINE
 10 
 4270.4638671875 
 20 
 3315.6318359375 
 30 
 0 
 11 
 4271.7919921875 
 21 
 3313.4560546875 
 31 
 0 
 0 
LINE
 10 
 4271.7919921875 
 20 
 3313.4560546875 
 30 
 0 
 11 
 4273.88818359375 
 21 
 3311.66381835938 
 31 
 0 
 0 
LINE
 10 
 4273.88818359375 
 20 
 3311.66381835938 
 30 
 0 
 11 
 4276.65576171875 
 21 
 3310.44799804688 
 31 
 0 
 0 
LINE
 10 
 4276.65576171875 
 20 
 3310.44799804688 
 30 
 0 
 11 
 4280 
 21 
 3310 
 31 
 0 
 0 
LINE
 10 
 4280 
 20 
 3310 
 30 
 0 
 11 
 4286.49560546875 
 21 
 3306.58374023438 
 31 
 0 
 0 
LINE
 10 
 4286.49560546875 
 20 
 3306.58374023438 
 30 
 0 
 11 
 4299.087890625 
 21 
 3297.07202148438 
 31 
 0 
 0 
LINE
 10 
 4299.087890625 
 20 
 3297.07202148438 
 30 
 0 
 11 
 4316.43212890625 
 21 
 3282.56787109375 
 31 
 0 
 0 
LINE
 10 
 4316.43212890625 
 20 
 3282.56787109375 
 30 
 0 
 11 
 4337.18408203125 
 21 
 3264.17602539063 
 31 
 0 
 0 
LINE
 10 
 4337.18408203125 
 20 
 3264.17602539063 
 30 
 0 
 11 
 4360 
 21 
 3243 
 31 
 0 
 0 
LINE
 10 
 4360 
 20 
 3243 
 30 
 0 
 11 
 4408.98388671875 
 21 
 3192.86401367188 
 31 
 0 
 0 
LINE
 10 
 4408.98388671875 
 20 
 3192.86401367188 
 30 
 0 
 11 
 4465.7919921875 
 21 
 3126.31201171875 
 31 
 0 
 0 
LINE
 10 
 4465.7919921875 
 20 
 3126.31201171875 
 30 
 0 
 11 
 4532.0078125 
 21 
 3041.32788085938 
 31 
 0 
 0 
LINE
 10 
 4532.0078125 
 20 
 3041.32788085938 
 30 
 0 
 11 
 4609.2158203125 
 21 
 2935.89599609375 
 31 
 0 
 0 
LINE
 10 
 4609.2158203125 
 20 
 2935.89599609375 
 30 
 0 
 11 
 4699 
 21 
 2808 
 31 
 0 
 0 
LINE
 10 
 4699 
 20 
 2808 
 30 
 0 
 11 
 4731.2958984375 
 21 
 2761.31201171875 
 31 
 0 
 0 
LINE
 10 
 4731.2958984375 
 20 
 2761.31201171875 
 30 
 0 
 11 
 4760.8076171875 
 21 
 2719.13598632813 
 31 
 0 
 0 
LINE
 10 
 4760.8076171875 
 20 
 2719.13598632813 
 30 
 0 
 11 
 4785.47216796875 
 21 
 2684.30395507813 
 31 
 0 
 0 
LINE
 10 
 4785.47216796875 
 20 
 2684.30395507813 
 30 
 0 
 11 
 4803.22412109375 
 21 
 2659.64794921875 
 31 
 0 
 0 
LINE
 10 
 4803.22412109375 
 20 
 2659.64794921875 
 30 
 0 
 11 
 4812 
 21 
 2648 
 31 
 0 
 0 
LINE
 10 
 4812 
 20 
 2648 
 30 
 0 
 11 
 4816.83203125 
 21 
 2642.93579101563 
 31 
 0 
 0 
LINE
 10 
 4816.83203125 
 20 
 2642.93579101563 
 30 
 0 
 11 
 4822.576171875 
 21 
 2636.52807617188 
 31 
 0 
 0 
LINE
 10 
 4822.576171875 
 20 
 2636.52807617188 
 30 
 0 
 11 
 4828.7041015625 
 21 
 2629.35205078125 
 31 
 0 
 0 
LINE
 10 
 4828.7041015625 
 20 
 2629.35205078125 
 30 
 0 
 11 
 4834.68798828125 
 21 
 2621.98413085938 
 31 
 0 
 0 
LINE
 10 
 4834.68798828125 
 20 
 2621.98413085938 
 30 
 0 
 11 
 4840 
 21 
 2615 
 31 
 0 
 0 
LINE
 10 
 4840 
 20 
 2615 
 30 
 0 
 11 
 4850.98388671875 
 21 
 2597.03173828125 
 31 
 0 
 0 
LINE
 10 
 4850.98388671875 
 20 
 2597.03173828125 
 30 
 0 
 11 
 4829.71240234375 
 21 
 2616.4560546875 
 31 
 0 
 0 
LINE
 10 
 4829.71240234375 
 20 
 2616.4560546875 
 30 
 0 
 11 
 4779.4482421875 
 21 
 2669.86401367188 
 31 
 0 
 0 
LINE
 10 
 4779.4482421875 
 20 
 2669.86401367188 
 30 
 0 
 11 
 4703.4560546875 
 21 
 2753.84814453125 
 31 
 0 
 0 
LINE
 10 
 4703.4560546875 
 20 
 2753.84814453125 
 30 
 0 
 11 
 4605 
 21 
 2865 
 31 
 0 
 0 
LINE
 10 
 4605 
 20 
 2865 
 30 
 0 
 11 
 4454.45556640625 
 21 
 3033.50390625 
 31 
 0 
 0 
LINE
 10 
 4454.45556640625 
 20 
 3033.50390625 
 30 
 0 
 11 
 4338.08837890625 
 21 
 3156.7919921875 
 31 
 0 
 0 
LINE
 10 
 4338.08837890625 
 20 
 3156.7919921875 
 30 
 0 
 11 
 4251.19189453125 
 21 
 3239.328125 
 31 
 0 
 0 
LINE
 10 
 4251.19189453125 
 20 
 3239.328125 
 30 
 0 
 11 
 4189.06396484375 
 21 
 3285.57592773438 
 31 
 0 
 0 
LINE
 10 
 4189.06396484375 
 20 
 3285.57592773438 
 30 
 0 
 11 
 4147 
 21 
 3300 
 31 
 0 
 0 
LINE
 10 
 4147 
 20 
 3300 
 30 
 0 
 11 
 4137.39990234375 
 21 
 3299.43188476563 
 31 
 0 
 0 
LINE
 10 
 4137.39990234375 
 20 
 3299.43188476563 
 30 
 0 
 11 
 4122.76025390625 
 21 
 3297.85620117188 
 31 
 0 
 0 
LINE
 10 
 4122.76025390625 
 20 
 3297.85620117188 
 30 
 0 
 11 
 4104.52001953125 
 21 
 3295.46411132813 
 31 
 0 
 0 
LINE
 10 
 4104.52001953125 
 20 
 3295.46411132813 
 30 
 0 
 11 
 4084.1201171875 
 21 
 3292.44799804688 
 31 
 0 
 0 
LINE
 10 
 4084.1201171875 
 20 
 3292.44799804688 
 30 
 0 
 11 
 4063 
 21 
 3289 
 31 
 0 
 0 
LINE
 10 
 4063 
 20 
 3289 
 30 
 0 
 11 
 3999 
 21 
 3278 
 31 
 0 
 0 
LINE
 10 
 3999 
 20 
 3278 
 30 
 0 
 11 
 4039 
 21 
 3258 
 31 
 0 
 0 
LINE
 10 
 4039 
 20 
 3258 
 30 
 0 
 11 
 4074.41577148438 
 21 
 3235.27978515625 
 31 
 0 
 0 
LINE
 10 
 4074.41577148438 
 20 
 3235.27978515625 
 30 
 0 
 11 
 4117.1279296875 
 21 
 3199.36010742188 
 31 
 0 
 0 
LINE
 10 
 4117.1279296875 
 20 
 3199.36010742188 
 30 
 0 
 11 
 4163.6318359375 
 21 
 3153.60009765625 
 31 
 0 
 0 
LINE
 10 
 4163.6318359375 
 20 
 3153.60009765625 
 30 
 0 
 11 
 4210.42431640625 
 21 
 3101.36010742188 
 31 
 0 
 0 
LINE
 10 
 4210.42431640625 
 20 
 3101.36010742188 
 30 
 0 
 11 
 4254 
 21 
 3046 
 31 
 0 
 0 
LINE
 10 
 4254 
 20 
 3046 
 30 
 0 
 11 
 4293.4560546875 
 21 
 2990.23168945313 
 31 
 0 
 0 
LINE
 10 
 4293.4560546875 
 20 
 2990.23168945313 
 30 
 0 
 11 
 4344.52783203125 
 21 
 2913.29614257813 
 31 
 0 
 0 
LINE
 10 
 4344.52783203125 
 20 
 2913.29614257813 
 30 
 0 
 11 
 4403.47216796875 
 21 
 2821.14404296875 
 31 
 0 
 0 
LINE
 10 
 4403.47216796875 
 20 
 2821.14404296875 
 30 
 0 
 11 
 4466.54443359375 
 21 
 2719.72802734375 
 31 
 0 
 0 
LINE
 10 
 4466.54443359375 
 20 
 2719.72802734375 
 30 
 0 
 11 
 4530 
 21 
 2615 
 31 
 0 
 0 
LINE
 10 
 4530 
 20 
 2615 
 30 
 0 
 11 
 4547.99951171875 
 21 
 2585.1279296875 
 31 
 0 
 0 
LINE
 10 
 4547.99951171875 
 20 
 2585.1279296875 
 30 
 0 
 11 
 4566.240234375 
 21 
 2555.7841796875 
 31 
 0 
 0 
LINE
 10 
 4566.240234375 
 20 
 2555.7841796875 
 30 
 0 
 11 
 4583.27978515625 
 21 
 2529.17602539063 
 31 
 0 
 0 
LINE
 10 
 4583.27978515625 
 20 
 2529.17602539063 
 30 
 0 
 11 
 4597.68017578125 
 21 
 2507.51196289063 
 31 
 0 
 0 
LINE
 10 
 4597.68017578125 
 20 
 2507.51196289063 
 30 
 0 
 11 
 4608 
 21 
 2493 
 31 
 0 
 0 
LINE
 10 
 4608 
 20 
 2493 
 30 
 0 
 11 
 4615.255859375 
 21 
 2482.65576171875 
 31 
 0 
 0 
LINE
 10 
 4615.255859375 
 20 
 2482.65576171875 
 30 
 0 
 11 
 4621.16796875 
 21 
 2473.60791015625 
 31 
 0 
 0 
LINE
 10 
 4621.16796875 
 20 
 2473.60791015625 
 30 
 0 
 11 
 4625.35205078125 
 21 
 2466.43188476563 
 31 
 0 
 0 
LINE
 10 
 4625.35205078125 
 20 
 2466.43188476563 
 30 
 0 
 11 
 4627.423828125 
 21 
 2461.7041015625 
 31 
 0 
 0 
LINE
 10 
 4627.423828125 
 20 
 2461.7041015625 
 30 
 0 
 11 
 4627 
 21 
 2460 
 31 
 0 
 0 
LINE
 10 
 4627 
 20 
 2460 
 30 
 0 
 11 
 4609.27197265625 
 21 
 2476.7119140625 
 31 
 0 
 0 
LINE
 10 
 4609.27197265625 
 20 
 2476.7119140625 
 30 
 0 
 11 
 4571.81591796875 
 21 
 2520.73583984375 
 31 
 0 
 0 
LINE
 10 
 4571.81591796875 
 20 
 2520.73583984375 
 30 
 0 
 11 
 4522.02392578125 
 21 
 2582.90405273438 
 31 
 0 
 0 
LINE
 10 
 4522.02392578125 
 20 
 2582.90405273438 
 30 
 0 
 11 
 4467.2880859375 
 21 
 2654.04809570313 
 31 
 0 
 0 
LINE
 10 
 4467.2880859375 
 20 
 2654.04809570313 
 30 
 0 
 11 
 4415 
 21 
 2725 
 31 
 0 
 0 
LINE
 10 
 4415 
 20 
 2725 
 30 
 0 
 11 
 4296.12744140625 
 21 
 2886 
 31 
 0 
 0 
LINE
 10 
 4296.12744140625 
 20 
 2886 
 30 
 0 
 11 
 4191.9443359375 
 21 
 3015.80004882813 
 31 
 0 
 0 
LINE
 10 
 4191.9443359375 
 20 
 3015.80004882813 
 30 
 0 
 11 
 4101.2958984375 
 21 
 3115.60009765625 
 31 
 0 
 0 
LINE
 10 
 4101.2958984375 
 20 
 3115.60009765625 
 30 
 0 
 11 
 4023.03198242188 
 21 
 3186.60009765625 
 31 
 0 
 0 
LINE
 10 
 4023.03198242188 
 20 
 3186.60009765625 
 30 
 0 
 11 
 3956 
 21 
 3230 
 31 
 0 
 0 
LINE
 10 
 3956 
 20 
 3230 
 30 
 0 
 11 
 3925.53588867188 
 21 
 3244.19970703125 
 31 
 0 
 0 
LINE
 10 
 3925.53588867188 
 20 
 3244.19970703125 
 30 
 0 
 11 
 3900.4482421875 
 21 
 3252.64013671875 
 31 
 0 
 0 
LINE
 10 
 3900.4482421875 
 20 
 3252.64013671875 
 30 
 0 
 11 
 3872.19213867188 
 21 
 3256.27978515625 
 31 
 0 
 0 
LINE
 10 
 3872.19213867188 
 20 
 3256.27978515625 
 30 
 0 
 11 
 3832.22412109375 
 21 
 3256.080078125 
 31 
 0 
 0 
LINE
 10 
 3832.22412109375 
 20 
 3256.080078125 
 30 
 0 
 11 
 3772 
 21 
 3253 
 31 
 0 
 0 
LINE
 10 
 3772 
 20 
 3253 
 30 
 0 
 11 
 3648 
 21 
 3247 
 31 
 0 
 0 
LINE
 10 
 3648 
 20 
 3247 
 30 
 0 
 11 
 3717 
 21 
 3212 
 31 
 0 
 0 
LINE
 10 
 3717 
 20 
 3212 
 30 
 0 
 11 
 3811.55981445313 
 21 
 3157.85595703125 
 31 
 0 
 0 
LINE
 10 
 3811.55981445313 
 20 
 3157.85595703125 
 30 
 0 
 11 
 3909.23999023438 
 21 
 3088.20825195313 
 31 
 0 
 0 
LINE
 10 
 3909.23999023438 
 20 
 3088.20825195313 
 30 
 0 
 11 
 4013.64013671875 
 21 
 3000.0322265625 
 31 
 0 
 0 
LINE
 10 
 4013.64013671875 
 20 
 3000.0322265625 
 30 
 0 
 11 
 4128.35986328125 
 21 
 2890.30419921875 
 31 
 0 
 0 
LINE
 10 
 4128.35986328125 
 20 
 2890.30419921875 
 30 
 0 
 11 
 4257 
 21 
 2756 
 31 
 0 
 0 
LINE
 10 
 4257 
 20 
 2756 
 30 
 0 
 11 
 4312.18359375 
 21 
 2696.65600585938 
 31 
 0 
 0 
LINE
 10 
 4312.18359375 
 20 
 2696.65600585938 
 30 
 0 
 11 
 4370.39208984375 
 21 
 2634.52807617188 
 31 
 0 
 0 
LINE
 10 
 4370.39208984375 
 20 
 2634.52807617188 
 30 
 0 
 11 
 4427.2080078125 
 21 
 2574.27197265625 
 31 
 0 
 0 
LINE
 10 
 4427.2080078125 
 20 
 2574.27197265625 
 30 
 0 
 11 
 4478.21630859375 
 21 
 2520.5439453125 
 31 
 0 
 0 
LINE
 10 
 4478.21630859375 
 20 
 2520.5439453125 
 30 
 0 
 11 
 4519 
 21 
 2478 
 31 
 0 
 0 
LINE
 10 
 4519 
 20 
 2478 
 30 
 0 
 11 
 4551.744140625 
 21 
 2443.72802734375 
 31 
 0 
 0 
LINE
 10 
 4551.744140625 
 20 
 2443.72802734375 
 30 
 0 
 11 
 4579.35205078125 
 21 
 2414.06396484375 
 31 
 0 
 0 
LINE
 10 
 4579.35205078125 
 20 
 2414.06396484375 
 30 
 0 
 11 
 4600.2880859375 
 21 
 2390.73608398438 
 31 
 0 
 0 
LINE
 10 
 4600.2880859375 
 20 
 2390.73608398438 
 30 
 0 
 11 
 4613.01611328125 
 21 
 2375.47192382813 
 31 
 0 
 0 
LINE
 10 
 4613.01611328125 
 20 
 2375.47192382813 
 30 
 0 
 11 
 4616 
 21 
 2370 
 31 
 0 
 0 
LINE
 10 
 4616 
 20 
 2370 
 30 
 0 
 11 
 4601.4716796875 
 21 
 2374.744140625 
 31 
 0 
 0 
LINE
 10 
 4601.4716796875 
 20 
 2374.744140625 
 30 
 0 
 11 
 4577.7763671875 
 21 
 2387.7919921875 
 31 
 0 
 0 
LINE
 10 
 4577.7763671875 
 20 
 2387.7919921875 
 30 
 0 
 11 
 4547.744140625 
 21 
 2407.3681640625 
 31 
 0 
 0 
LINE
 10 
 4547.744140625 
 20 
 2407.3681640625 
 30 
 0 
 11 
 4514.2080078125 
 21 
 2431.69604492188 
 31 
 0 
 0 
LINE
 10 
 4514.2080078125 
 20 
 2431.69604492188 
 30 
 0 
 11 
 4480 
 21 
 2459 
 31 
 0 
 0 
LINE
 10 
 4480 
 20 
 2459 
 30 
 0 
 11 
 4451.72802734375 
 21 
 2484.087890625 
 31 
 0 
 0 
LINE
 10 
 4451.72802734375 
 20 
 2484.087890625 
 30 
 0 
 11 
 4405.98388671875 
 21 
 2526.50415039063 
 31 
 0 
 0 
LINE
 10 
 4405.98388671875 
 20 
 2526.50415039063 
 30 
 0 
 11 
 4347.3759765625 
 21 
 2581.97607421875 
 31 
 0 
 0 
LINE
 10 
 4347.3759765625 
 20 
 2581.97607421875 
 30 
 0 
 11 
 4280.51220703125 
 21 
 2646.23193359375 
 31 
 0 
 0 
LINE
 10 
 4280.51220703125 
 20 
 2646.23193359375 
 30 
 0 
 11 
 4210 
 21 
 2715 
 31 
 0 
 0 
LINE
 10 
 4210 
 20 
 2715 
 30 
 0 
 11 
 4017.94384765625 
 21 
 2897.7841796875 
 31 
 0 
 0 
LINE
 10 
 4017.94384765625 
 20 
 2897.7841796875 
 30 
 0 
 11 
 3857.23217773438 
 21 
 3037.9921875 
 31 
 0 
 0 
LINE
 10 
 3857.23217773438 
 20 
 3037.9921875 
 30 
 0 
 11 
 3721.04809570313 
 21 
 3140.80786132813 
 31 
 0 
 0 
LINE
 10 
 3721.04809570313 
 20 
 3140.80786132813 
 30 
 0 
 11 
 3602.576171875 
 21 
 3211.416015625 
 31 
 0 
 0 
LINE
 10 
 3602.576171875 
 20 
 3211.416015625 
 30 
 0 
 11 
 3495 
 21 
 3255 
 31 
 0 
 0 
LINE
 10 
 3495 
 20 
 3255 
 30 
 0 
 11 
 3425 
 21 
 3277 
 31 
 0 
 0 
LINE
 10 
 3425 
 20 
 3277 
 30 
 0 
 11 
 3565 
 21 
 3283 
 31 
 0 
 0 
LINE
 10 
 3565 
 20 
 3283 
 30 
 0 
 11 
 3656.14404296875 
 21 
 3288.7119140625 
 31 
 0 
 0 
LINE
 10 
 3656.14404296875 
 20 
 3288.7119140625 
 30 
 0 
 11 
 3751.9921875 
 21 
 3299.17602539063 
 31 
 0 
 0 
LINE
 10 
 3751.9921875 
 20 
 3299.17602539063 
 30 
 0 
 11 
 3868.76806640625 
 21 
 3316.98413085938 
 31 
 0 
 0 
LINE
 10 
 3868.76806640625 
 20 
 3316.98413085938 
 30 
 0 
 11 
 4022.69604492188 
 21 
 3344.72802734375 
 31 
 0 
 0 
LINE
 10 
 4022.69604492188 
 20 
 3344.72802734375 
 30 
 0 
 11 
 4230 
 21 
 3385 
 31 
 0 
 0 
LINE
 10 
 4230 
 20 
 3385 
 30 
 0 
 11 
 4465.15966796875 
 21 
 3430.087890625 
 31 
 0 
 0 
LINE
 10 
 4465.15966796875 
 20 
 3430.087890625 
 30 
 0 
 11 
 4658.56005859375 
 21 
 3464.18408203125 
 31 
 0 
 0 
LINE
 10 
 4658.56005859375 
 20 
 3464.18408203125 
 30 
 0 
 11 
 4817.8798828125 
 21 
 3488.5361328125 
 31 
 0 
 0 
LINE
 10 
 4817.8798828125 
 20 
 3488.5361328125 
 30 
 0 
 11 
 4950.80029296875 
 21 
 3504.39208984375 
 31 
 0 
 0 
LINE
 10 
 4950.80029296875 
 20 
 3504.39208984375 
 30 
 0 
 11 
 5065 
 21 
 3513 
 31 
 0 
 0 
LINE
 10 
 5065 
 20 
 3513 
 30 
 0 
 11 
 5084.4716796875 
 21 
 3514.19213867188 
 31 
 0 
 0 
LINE
 10 
 5084.4716796875 
 20 
 3514.19213867188 
 30 
 0 
 11 
 5102.4560546875 
 21 
 3515.33618164063 
 31 
 0 
 0 
LINE
 10 
 5102.4560546875 
 20 
 3515.33618164063 
 30 
 0 
 11 
 5117.7041015625 
 21 
 3516.38403320313 
 31 
 0 
 0 
LINE
 10 
 5117.7041015625 
 20 
 3516.38403320313 
 30 
 0 
 11 
 5128.96826171875 
 21 
 3517.2880859375 
 31 
 0 
 0 
LINE
 10 
 5128.96826171875 
 20 
 3517.2880859375 
 30 
 0 
 11 
 5135 
 21 
 3518 
 31 
 0 
 0 
LINE
 10 
 5135 
 20 
 3518 
 30 
 0 
 11 
 5144.0400390625 
 21 
 3518.12768554688 
 31 
 0 
 0 
LINE
 10 
 5144.0400390625 
 20 
 3518.12768554688 
 30 
 0 
 11 
 5162.68017578125 
 21 
 3517.34399414063 
 31 
 0 
 0 
LINE
 10 
 5162.68017578125 
 20 
 3517.34399414063 
 30 
 0 
 11 
 5189 
 21 
 3515.69604492188 
 31 
 0 
 0 
LINE
 10 
 5189 
 20 
 3515.69604492188 
 30 
 0 
 11 
 5221.080078125 
 21 
 3513.23193359375 
 31 
 0 
 0 
LINE
 10 
 5221.080078125 
 20 
 3513.23193359375 
 30 
 0 
 11 
 5257 
 21 
 3510 
 31 
 0 
 0 
LINE
 10 
 991 
 20 
 3390 
 30 
 0 
 11 
 1005.09600830078 
 21 
 3377.49584960938 
 31 
 0 
 0 
LINE
 10 
 1005.09600830078 
 20 
 3377.49584960938 
 30 
 0 
 11 
 1008.72802734375 
 21 
 3361.00805664063 
 31 
 0 
 0 
LINE
 10 
 1008.72802734375 
 20 
 3361.00805664063 
 30 
 0 
 11 
 1001.51202392578 
 21 
 3339.67211914063 
 31 
 0 
 0 
LINE
 10 
 1001.51202392578 
 20 
 3339.67211914063 
 30 
 0 
 11 
 983.064025878906 
 21 
 3312.6240234375 
 31 
 0 
 0 
LINE
 10 
 983.064025878906 
 20 
 3312.6240234375 
 30 
 0 
 11 
 953 
 21 
 3279 
 31 
 0 
 0 
LINE
 10 
 953 
 20 
 3279 
 30 
 0 
 11 
 935.055908203125 
 21 
 3260.69580078125 
 31 
 0 
 0 
LINE
 10 
 935.055908203125 
 20 
 3260.69580078125 
 30 
 0 
 11 
 919.127990722656 
 21 
 3244.88793945313 
 31 
 0 
 0 
LINE
 10 
 919.127990722656 
 20 
 3244.88793945313 
 30 
 0 
 11 
 906.27197265625 
 21 
 3232.6318359375 
 31 
 0 
 0 
LINE
 10 
 906.27197265625 
 20 
 3232.6318359375 
 30 
 0 
 11 
 897.544006347656 
 21 
 3224.98413085938 
 31 
 0 
 0 
LINE
 10 
 897.544006347656 
 20 
 3224.98413085938 
 30 
 0 
 11 
 894 
 21 
 3223 
 31 
 0 
 0 
LINE
 10 
 894 
 20 
 3223 
 30 
 0 
 11 
 893.487976074219 
 21 
 3225.91186523438 
 31 
 0 
 0 
LINE
 10 
 893.487976074219 
 20 
 3225.91186523438 
 30 
 0 
 11 
 894.224060058594 
 21 
 3231.89599609375 
 31 
 0 
 0 
LINE
 10 
 894.224060058594 
 20 
 3231.89599609375 
 30 
 0 
 11 
 896.015991210938 
 21 
 3240.42407226563 
 31 
 0 
 0 
LINE
 10 
 896.015991210938 
 20 
 3240.42407226563 
 30 
 0 
 11 
 898.671997070313 
 21 
 3250.96801757813 
 31 
 0 
 0 
LINE
 10 
 898.671997070313 
 20 
 3250.96801757813 
 30 
 0 
 11 
 902 
 21 
 3263 
 31 
 0 
 0 
LINE
 10 
 902 
 20 
 3263 
 30 
 0 
 11 
 907.879943847656 
 21 
 3290.97583007813 
 31 
 0 
 0 
LINE
 10 
 907.879943847656 
 20 
 3290.97583007813 
 30 
 0 
 11 
 904.640014648438 
 21 
 3310.64794921875 
 31 
 0 
 0 
LINE
 10 
 904.640014648438 
 20 
 3310.64794921875 
 30 
 0 
 11 
 891.559997558594 
 21 
 3322.83203125 
 31 
 0 
 0 
LINE
 10 
 891.559997558594 
 20 
 3322.83203125 
 30 
 0 
 11 
 867.920043945313 
 21 
 3328.34399414063 
 31 
 0 
 0 
LINE
 10 
 867.920043945313 
 20 
 3328.34399414063 
 30 
 0 
 11 
 833 
 21 
 3328 
 31 
 0 
 0 
LINE
 10 
 833 
 20 
 3328 
 30 
 0 
 11 
 780 
 21 
 3323 
 31 
 0 
 0 
LINE
 10 
 780 
 20 
 3323 
 30 
 0 
 11 
 813 
 21 
 3343 
 31 
 0 
 0 
LINE
 10 
 813 
 20 
 3343 
 30 
 0 
 11 
 841 
 21 
 3358.81567382813 
 31 
 0 
 0 
LINE
 10 
 841 
 20 
 3358.81567382813 
 30 
 0 
 11 
 873.080017089844 
 21 
 3374.00830078125 
 31 
 0 
 0 
LINE
 10 
 873.080017089844 
 20 
 3374.00830078125 
 30 
 0 
 11 
 905.160034179688 
 21 
 3386.99194335938 
 31 
 0 
 0 
LINE
 10 
 905.160034179688 
 20 
 3386.99194335938 
 30 
 0 
 11 
 933.160034179688 
 21 
 3396.18408203125 
 31 
 0 
 0 
LINE
 10 
 933.160034179688 
 20 
 3396.18408203125 
 30 
 0 
 11 
 953 
 21 
 3400 
 31 
 0 
 0 
LINE
 10 
 953 
 20 
 3400 
 30 
 0 
 11 
 959.735961914063 
 21 
 3399.43994140625 
 31 
 0 
 0 
LINE
 10 
 959.735961914063 
 20 
 3399.43994140625 
 30 
 0 
 11 
 967.528015136719 
 21 
 3397.919921875 
 31 
 0 
 0 
LINE
 10 
 967.528015136719 
 20 
 3397.919921875 
 30 
 0 
 11 
 975.752014160156 
 21 
 3395.67993164063 
 31 
 0 
 0 
LINE
 10 
 975.752014160156 
 20 
 3395.67993164063 
 30 
 0 
 11 
 983.783996582031 
 21 
 3392.96020507813 
 31 
 0 
 0 
LINE
 10 
 983.783996582031 
 20 
 3392.96020507813 
 30 
 0 
 11 
 991 
 21 
 3390 
 31 
 0 
 0 
LINE
 10 
 5538 
 20 
 3360 
 30 
 0 
 11 
 5557.50390625 
 21 
 3350.61572265625 
 31 
 0 
 0 
LINE
 10 
 5557.50390625 
 20 
 3350.61572265625 
 30 
 0 
 11 
 5574.51220703125 
 21 
 3342.0478515625 
 31 
 0 
 0 
LINE
 10 
 5574.51220703125 
 20 
 3342.0478515625 
 30 
 0 
 11 
 5587.9677734375 
 21 
 3334.8720703125 
 31 
 0 
 0 
LINE
 10 
 5587.9677734375 
 20 
 3334.8720703125 
 30 
 0 
 11 
 5596.81591796875 
 21 
 3329.6640625 
 31 
 0 
 0 
LINE
 10 
 5596.81591796875 
 20 
 3329.6640625 
 30 
 0 
 11 
 5600 
 21 
 3327 
 31 
 0 
 0 
LINE
 10 
 5600 
 20 
 3327 
 30 
 0 
 11 
 5597.49560546875 
 21 
 3326.0478515625 
 31 
 0 
 0 
LINE
 10 
 5597.49560546875 
 20 
 3326.0478515625 
 30 
 0 
 11 
 5590.5283203125 
 21 
 3325.6240234375 
 31 
 0 
 0 
LINE
 10 
 5590.5283203125 
 20 
 3325.6240234375 
 30 
 0 
 11 
 5579.912109375 
 21 
 3325.77612304688 
 31 
 0 
 0 
LINE
 10 
 5579.912109375 
 20 
 3325.77612304688 
 30 
 0 
 11 
 5566.46435546875 
 21 
 3326.55200195313 
 31 
 0 
 0 
LINE
 10 
 5566.46435546875 
 20 
 3326.55200195313 
 30 
 0 
 11 
 5551 
 21 
 3328 
 31 
 0 
 0 
LINE
 10 
 5551 
 20 
 3328 
 30 
 0 
 11 
 5529.103515625 
 21 
 3329.58374023438 
 31 
 0 
 0 
LINE
 10 
 5529.103515625 
 20 
 3329.58374023438 
 30 
 0 
 11 
 5513.83203125 
 21 
 3329.15209960938 
 31 
 0 
 0 
LINE
 10 
 5513.83203125 
 20 
 3329.15209960938 
 30 
 0 
 11 
 5503.408203125 
 21 
 3326.1279296875 
 31 
 0 
 0 
LINE
 10 
 5503.408203125 
 20 
 3326.1279296875 
 30 
 0 
 11 
 5496.05615234375 
 21 
 3319.93603515625 
 31 
 0 
 0 
LINE
 10 
 5496.05615234375 
 20 
 3319.93603515625 
 30 
 0 
 11 
 5490 
 21 
 3310 
 31 
 0 
 0 
LINE
 10 
 5490 
 20 
 3310 
 30 
 0 
 11 
 5486.0556640625 
 21 
 3300.55981445313 
 31 
 0 
 0 
LINE
 10 
 5486.0556640625 
 20 
 3300.55981445313 
 30 
 0 
 11 
 5483.88818359375 
 21 
 3291.1201171875 
 31 
 0 
 0 
LINE
 10 
 5483.88818359375 
 20 
 3291.1201171875 
 30 
 0 
 11 
 5483.591796875 
 21 
 3281.19995117188 
 31 
 0 
 0 
LINE
 10 
 5483.591796875 
 20 
 3281.19995117188 
 30 
 0 
 11 
 5485.26416015625 
 21 
 3270.32006835938 
 31 
 0 
 0 
LINE
 10 
 5485.26416015625 
 20 
 3270.32006835938 
 30 
 0 
 11 
 5489 
 21 
 3258 
 31 
 0 
 0 
LINE
 10 
 5489 
 20 
 3258 
 30 
 0 
 11 
 5492.32763671875 
 21 
 3248.03198242188 
 31 
 0 
 0 
LINE
 10 
 5492.32763671875 
 20 
 3248.03198242188 
 30 
 0 
 11 
 5494.98388671875 
 21 
 3238.97607421875 
 31 
 0 
 0 
LINE
 10 
 5494.98388671875 
 20 
 3238.97607421875 
 30 
 0 
 11 
 5496.77587890625 
 21 
 3231.50390625 
 31 
 0 
 0 
LINE
 10 
 5496.77587890625 
 20 
 3231.50390625 
 30 
 0 
 11 
 5497.51220703125 
 21 
 3226.2880859375 
 31 
 0 
 0 
LINE
 10 
 5497.51220703125 
 20 
 3226.2880859375 
 30 
 0 
 11 
 5497 
 21 
 3224 
 31 
 0 
 0 
LINE
 10 
 5497 
 20 
 3224 
 30 
 0 
 11 
 5483.85595703125 
 21 
 3229.4638671875 
 31 
 0 
 0 
LINE
 10 
 5483.85595703125 
 20 
 3229.4638671875 
 30 
 0 
 11 
 5459.04833984375 
 21 
 3250.43212890625 
 31 
 0 
 0 
LINE
 10 
 5459.04833984375 
 20 
 3250.43212890625 
 30 
 0 
 11 
 5430.1123046875 
 21 
 3279.3681640625 
 31 
 0 
 0 
LINE
 10 
 5430.1123046875 
 20 
 3279.3681640625 
 30 
 0 
 11 
 5404.583984375 
 21 
 3308.73608398438 
 31 
 0 
 0 
LINE
 10 
 5404.583984375 
 20 
 3308.73608398438 
 30 
 0 
 11 
 5390 
 21 
 3331 
 31 
 0 
 0 
LINE
 10 
 5390 
 20 
 3331 
 30 
 0 
 11 
 5383.93603515625 
 21 
 3346.09594726563 
 31 
 0 
 0 
LINE
 10 
 5383.93603515625 
 20 
 3346.09594726563 
 30 
 0 
 11 
 5381.568359375 
 21 
 3356.72802734375 
 31 
 0 
 0 
LINE
 10 
 5381.568359375 
 20 
 3356.72802734375 
 30 
 0 
 11 
 5383.23193359375 
 21 
 3364.91186523438 
 31 
 0 
 0 
LINE
 10 
 5383.23193359375 
 20 
 3364.91186523438 
 30 
 0 
 11 
 5389.26416015625 
 21 
 3372.6640625 
 31 
 0 
 0 
LINE
 10 
 5389.26416015625 
 20 
 3372.6640625 
 30 
 0 
 11 
 5400 
 21 
 3382 
 31 
 0 
 0 
LINE
 10 
 5400 
 20 
 3382 
 30 
 0 
 11 
 5416.4638671875 
 21 
 3392.47973632813 
 31 
 0 
 0 
LINE
 10 
 5416.4638671875 
 20 
 3392.47973632813 
 30 
 0 
 11 
 5434.751953125 
 21 
 3396 
 31 
 0 
 0 
LINE
 10 
 5434.751953125 
 20 
 3396 
 30 
 0 
 11 
 5458.60791015625 
 21 
 3392.07983398438 
 31 
 0 
 0 
LINE
 10 
 5458.60791015625 
 20 
 3392.07983398438 
 30 
 0 
 11 
 5491.7763671875 
 21 
 3380.240234375 
 31 
 0 
 0 
LINE
 10 
 5491.7763671875 
 20 
 3380.240234375 
 30 
 0 
 11 
 5538 
 21 
 3360 
 31 
 0 
 0 
LINE
 10 
 3048 
 20 
 3322 
 30 
 0 
 11 
 3048.671875 
 21 
 3304.95971679688 
 31 
 0 
 0 
LINE
 10 
 3048.671875 
 20 
 3304.95971679688 
 30 
 0 
 11 
 3048.09594726563 
 21 
 3292.9599609375 
 31 
 0 
 0 
LINE
 10 
 3048.09594726563 
 20 
 3292.9599609375 
 30 
 0 
 11 
 3045.98413085938 
 21 
 3285.28002929688 
 31 
 0 
 0 
LINE
 10 
 3045.98413085938 
 20 
 3285.28002929688 
 30 
 0 
 11 
 3042.04809570313 
 21 
 3281.19995117188 
 31 
 0 
 0 
LINE
 10 
 3042.04809570313 
 20 
 3281.19995117188 
 30 
 0 
 11 
 3036 
 21 
 3280 
 31 
 0 
 0 
LINE
 10 
 3036 
 20 
 3280 
 30 
 0 
 11 
 3029.72778320313 
 21 
 3281.423828125 
 31 
 0 
 0 
LINE
 10 
 3029.72778320313 
 20 
 3281.423828125 
 30 
 0 
 11 
 3025.18408203125 
 21 
 3286.11206054688 
 31 
 0 
 0 
LINE
 10 
 3025.18408203125 
 20 
 3286.11206054688 
 30 
 0 
 11 
 3022.17602539063 
 21 
 3294.68798828125 
 31 
 0 
 0 
LINE
 10 
 3022.17602539063 
 20 
 3294.68798828125 
 30 
 0 
 11 
 3020.51196289063 
 21 
 3307.77612304688 
 31 
 0 
 0 
LINE
 10 
 3020.51196289063 
 20 
 3307.77612304688 
 30 
 0 
 11 
 3020 
 21 
 3326 
 31 
 0 
 0 
LINE
 10 
 3020 
 20 
 3326 
 30 
 0 
 11 
 3022.52807617188 
 21 
 3353.90380859375 
 31 
 0 
 0 
LINE
 10 
 3022.52807617188 
 20 
 3353.90380859375 
 30 
 0 
 11 
 3028.7041015625 
 21 
 3367.07202148438 
 31 
 0 
 0 
LINE
 10 
 3028.7041015625 
 20 
 3367.07202148438 
 30 
 0 
 11 
 3036.416015625 
 21 
 3365.88793945313 
 31 
 0 
 0 
LINE
 10 
 3036.416015625 
 20 
 3365.88793945313 
 30 
 0 
 11 
 3043.55200195313 
 21 
 3350.73608398438 
 31 
 0 
 0 
LINE
 10 
 3043.55200195313 
 20 
 3350.73608398438 
 30 
 0 
 11 
 3048 
 21 
 3322 
 31 
 0 
 0 
LINE
 10 
 3370 
 20 
 3325 
 30 
 0 
 11 
 3369.49609375 
 21 
 3307.64770507813 
 31 
 0 
 0 
LINE
 10 
 3369.49609375 
 20 
 3307.64770507813 
 30 
 0 
 11 
 3367.88793945313 
 21 
 3294.90405273438 
 31 
 0 
 0 
LINE
 10 
 3367.88793945313 
 20 
 3294.90405273438 
 30 
 0 
 11 
 3365.03198242188 
 21 
 3286.3359375 
 31 
 0 
 0 
LINE
 10 
 3365.03198242188 
 20 
 3286.3359375 
 30 
 0 
 11 
 3360.7841796875 
 21 
 3281.51196289063 
 31 
 0 
 0 
LINE
 10 
 3360.7841796875 
 20 
 3281.51196289063 
 30 
 0 
 11 
 3355 
 21 
 3280 
 31 
 0 
 0 
LINE
 10 
 3355 
 20 
 3280 
 30 
 0 
 11 
 3349.2158203125 
 21 
 3281.51196289063 
 31 
 0 
 0 
LINE
 10 
 3349.2158203125 
 20 
 3281.51196289063 
 30 
 0 
 11 
 3344.96826171875 
 21 
 3286.3359375 
 31 
 0 
 0 
LINE
 10 
 3344.96826171875 
 20 
 3286.3359375 
 30 
 0 
 11 
 3342.11206054688 
 21 
 3294.90380859375 
 31 
 0 
 0 
LINE
 10 
 3342.11206054688 
 20 
 3294.90380859375 
 30 
 0 
 11 
 3340.50415039063 
 21 
 3307.64794921875 
 31 
 0 
 0 
LINE
 10 
 3340.50415039063 
 20 
 3307.64794921875 
 30 
 0 
 11 
 3340 
 21 
 3325 
 31 
 0 
 0 
LINE
 10 
 3340 
 20 
 3325 
 30 
 0 
 11 
 3340.50390625 
 21 
 3342.35180664063 
 31 
 0 
 0 
LINE
 10 
 3340.50390625 
 20 
 3342.35180664063 
 30 
 0 
 11 
 3342.11206054688 
 21 
 3355.09594726563 
 31 
 0 
 0 
LINE
 10 
 3342.11206054688 
 20 
 3355.09594726563 
 30 
 0 
 11 
 3344.96826171875 
 21 
 3363.6640625 
 31 
 0 
 0 
LINE
 10 
 3344.96826171875 
 20 
 3363.6640625 
 30 
 0 
 11 
 3349.21606445313 
 21 
 3368.48803710938 
 31 
 0 
 0 
LINE
 10 
 3349.21606445313 
 20 
 3368.48803710938 
 30 
 0 
 11 
 3355 
 21 
 3370 
 31 
 0 
 0 
LINE
 10 
 3355 
 20 
 3370 
 30 
 0 
 11 
 3360.78393554688 
 21 
 3368.48803710938 
 31 
 0 
 0 
LINE
 10 
 3360.78393554688 
 20 
 3368.48803710938 
 30 
 0 
 11 
 3365.03198242188 
 21 
 3363.6640625 
 31 
 0 
 0 
LINE
 10 
 3365.03198242188 
 20 
 3363.6640625 
 30 
 0 
 11 
 3367.88818359375 
 21 
 3355.09594726563 
 31 
 0 
 0 
LINE
 10 
 3367.88818359375 
 20 
 3355.09594726563 
 30 
 0 
 11 
 3369.49609375 
 21 
 3342.35205078125 
 31 
 0 
 0 
LINE
 10 
 3369.49609375 
 20 
 3342.35205078125 
 30 
 0 
 11 
 3370 
 21 
 3325 
 31 
 0 
 0 
LINE
 10 
 1178 
 20 
 3254 
 30 
 0 
 11 
 1196.24792480469 
 21 
 3227.6318359375 
 31 
 0 
 0 
LINE
 10 
 1196.24792480469 
 20 
 3227.6318359375 
 30 
 0 
 11 
 1197.98400878906 
 21 
 3189.21606445313 
 31 
 0 
 0 
LINE
 10 
 1197.98400878906 
 20 
 3189.21606445313 
 30 
 0 
 11 
 1184.69604492188 
 21 
 3143.98413085938 
 31 
 0 
 0 
LINE
 10 
 1184.69604492188 
 20 
 3143.98413085938 
 30 
 0 
 11 
 1157.87194824219 
 21 
 3097.16821289063 
 31 
 0 
 0 
LINE
 10 
 1157.87194824219 
 20 
 3097.16821289063 
 30 
 0 
 11 
 1119 
 21 
 3054 
 31 
 0 
 0 
LINE
 10 
 1119 
 20 
 3054 
 30 
 0 
 11 
 1108.69592285156 
 21 
 3044.88793945313 
 31 
 0 
 0 
LINE
 10 
 1108.69592285156 
 20 
 3044.88793945313 
 30 
 0 
 11 
 1102.56799316406 
 21 
 3040.38403320313 
 31 
 0 
 0 
LINE
 10 
 1102.56799316406 
 20 
 3040.38403320313 
 30 
 0 
 11 
 1099.99194335938 
 21 
 3040.5361328125 
 31 
 0 
 0 
LINE
 10 
 1099.99194335938 
 20 
 3040.5361328125 
 30 
 0 
 11 
 1100.34399414063 
 21 
 3045.39208984375 
 31 
 0 
 0 
LINE
 10 
 1100.34399414063 
 20 
 3045.39208984375 
 30 
 0 
 11 
 1103 
 21 
 3055 
 31 
 0 
 0 
LINE
 10 
 1103 
 20 
 3055 
 30 
 0 
 11 
 1112.43994140625 
 21 
 3088.63989257813 
 31 
 0 
 0 
LINE
 10 
 1112.43994140625 
 20 
 3088.63989257813 
 30 
 0 
 11 
 1116.59997558594 
 21 
 3111.72021484375 
 31 
 0 
 0 
LINE
 10 
 1116.59997558594 
 20 
 3111.72021484375 
 30 
 0 
 11 
 1115.23999023438 
 21 
 3128.080078125 
 31 
 0 
 0 
LINE
 10 
 1115.23999023438 
 20 
 3128.080078125 
 30 
 0 
 11 
 1108.11999511719 
 21 
 3141.56005859375 
 31 
 0 
 0 
LINE
 10 
 1108.11999511719 
 20 
 3141.56005859375 
 30 
 0 
 11 
 1095 
 21 
 3156 
 31 
 0 
 0 
LINE
 10 
 1095 
 20 
 3156 
 30 
 0 
 11 
 1082.05590820313 
 21 
 3167.88793945313 
 31 
 0 
 0 
LINE
 10 
 1082.05590820313 
 20 
 3167.88793945313 
 30 
 0 
 11 
 1070.16809082031 
 21 
 3175.26416015625 
 31 
 0 
 0 
LINE
 10 
 1070.16809082031 
 20 
 3175.26416015625 
 30 
 0 
 11 
 1056.55200195313 
 21 
 3178.89599609375 
 31 
 0 
 0 
LINE
 10 
 1056.55200195313 
 20 
 3178.89599609375 
 30 
 0 
 11 
 1038.42407226563 
 21 
 3179.55200195313 
 31 
 0 
 0 
LINE
 10 
 1038.42407226563 
 20 
 3179.55200195313 
 30 
 0 
 11 
 1013 
 21 
 3178 
 31 
 0 
 0 
LINE
 10 
 1013 
 20 
 3178 
 30 
 0 
 11 
 956 
 21 
 3173 
 31 
 0 
 0 
LINE
 10 
 956 
 20 
 3173 
 30 
 0 
 11 
 986 
 21 
 3197 
 31 
 0 
 0 
LINE
 10 
 986 
 20 
 3197 
 30 
 0 
 11 
 1014.79992675781 
 21 
 3218.31982421875 
 31 
 0 
 0 
LINE
 10 
 1014.79992675781 
 20 
 3218.31982421875 
 30 
 0 
 11 
 1047.20007324219 
 21 
 3237.96020507813 
 31 
 0 
 0 
LINE
 10 
 1047.20007324219 
 20 
 3237.96020507813 
 30 
 0 
 11 
 1079.59997558594 
 21 
 3254.23999023438 
 31 
 0 
 0 
LINE
 10 
 1079.59997558594 
 20 
 3254.23999023438 
 30 
 0 
 11 
 1108.40002441406 
 21 
 3265.47998046875 
 31 
 0 
 0 
LINE
 10 
 1108.40002441406 
 20 
 3265.47998046875 
 30 
 0 
 11 
 1130 
 21 
 3270 
 31 
 0 
 0 
LINE
 10 
 1130 
 20 
 3270 
 30 
 0 
 11 
 1139.21594238281 
 21 
 3269.19995117188 
 31 
 0 
 0 
LINE
 10 
 1139.21594238281 
 20 
 3269.19995117188 
 30 
 0 
 11 
 1149.48803710938 
 21 
 3266.96020507813 
 31 
 0 
 0 
LINE
 10 
 1149.48803710938 
 20 
 3266.96020507813 
 30 
 0 
 11 
 1159.95202636719 
 21 
 3263.52001953125 
 31 
 0 
 0 
LINE
 10 
 1159.95202636719 
 20 
 3263.52001953125 
 30 
 0 
 11 
 1169.74401855469 
 21 
 3259.1201171875 
 31 
 0 
 0 
LINE
 10 
 1169.74401855469 
 20 
 3259.1201171875 
 30 
 0 
 11 
 1178 
 21 
 3254 
 31 
 0 
 0 
LINE
 10 
 5330 
 20 
 3245 
 30 
 0 
 11 
 5339.7998046875 
 21 
 3239.47998046875 
 31 
 0 
 0 
LINE
 10 
 5339.7998046875 
 20 
 3239.47998046875 
 30 
 0 
 11 
 5351.759765625 
 21 
 3231.80004882813 
 31 
 0 
 0 
LINE
 10 
 5351.759765625 
 20 
 3231.80004882813 
 30 
 0 
 11 
 5364.919921875 
 21 
 3222.68017578125 
 31 
 0 
 0 
LINE
 10 
 5364.919921875 
 20 
 3222.68017578125 
 30 
 0 
 11 
 5378.31982421875 
 21 
 3212.84008789063 
 31 
 0 
 0 
LINE
 10 
 5378.31982421875 
 20 
 3212.84008789063 
 30 
 0 
 11 
 5391 
 21 
 3203 
 31 
 0 
 0 
LINE
 10 
 5391 
 20 
 3203 
 30 
 0 
 11 
 5427 
 21 
 3174 
 31 
 0 
 0 
LINE
 10 
 5427 
 20 
 3174 
 30 
 0 
 11 
 5369 
 21 
 3175 
 31 
 0 
 0 
LINE
 10 
 5369 
 20 
 3175 
 30 
 0 
 11 
 5326.17578125 
 21 
 3171.3359375 
 31 
 0 
 0 
LINE
 10 
 5326.17578125 
 20 
 3171.3359375 
 30 
 0 
 11 
 5296.88818359375 
 21 
 3159.60791015625 
 31 
 0 
 0 
LINE
 10 
 5296.88818359375 
 20 
 3159.60791015625 
 30 
 0 
 11 
 5280.51220703125 
 21 
 3138.71215820313 
 31 
 0 
 0 
LINE
 10 
 5280.51220703125 
 20 
 3138.71215820313 
 30 
 0 
 11 
 5276.423828125 
 21 
 3107.54418945313 
 31 
 0 
 0 
LINE
 10 
 5276.423828125 
 20 
 3107.54418945313 
 30 
 0 
 11 
 5284 
 21 
 3065 
 31 
 0 
 0 
LINE
 10 
 5284 
 20 
 3065 
 30 
 0 
 11 
 5291 
 21 
 3036 
 31 
 0 
 0 
LINE
 10 
 5291 
 20 
 3036 
 30 
 0 
 11 
 5269 
 21 
 3055 
 31 
 0 
 0 
LINE
 10 
 5269 
 20 
 3055 
 30 
 0 
 11 
 5246.19189453125 
 21 
 3079.4560546875 
 31 
 0 
 0 
LINE
 10 
 5246.19189453125 
 20 
 3079.4560546875 
 30 
 0 
 11 
 5224.7763671875 
 21 
 3109.52807617188 
 31 
 0 
 0 
LINE
 10 
 5224.7763671875 
 20 
 3109.52807617188 
 30 
 0 
 11 
 5206.8642578125 
 21 
 3141.47216796875 
 31 
 0 
 0 
LINE
 10 
 5206.8642578125 
 20 
 3141.47216796875 
 30 
 0 
 11 
 5194.56787109375 
 21 
 3171.54418945313 
 31 
 0 
 0 
LINE
 10 
 5194.56787109375 
 20 
 3171.54418945313 
 30 
 0 
 11 
 5190 
 21 
 3196 
 31 
 0 
 0 
LINE
 10 
 5190 
 20 
 3196 
 30 
 0 
 11 
 5194.607421875 
 21 
 3220.83203125 
 31 
 0 
 0 
LINE
 10 
 5194.607421875 
 20 
 3220.83203125 
 30 
 0 
 11 
 5207.18408203125 
 21 
 3241.5361328125 
 31 
 0 
 0 
LINE
 10 
 5207.18408203125 
 20 
 3241.5361328125 
 30 
 0 
 11 
 5225.85595703125 
 21 
 3256.62426757813 
 31 
 0 
 0 
LINE
 10 
 5225.85595703125 
 20 
 3256.62426757813 
 30 
 0 
 11 
 5248.751953125 
 21 
 3264.60791015625 
 31 
 0 
 0 
LINE
 10 
 5248.751953125 
 20 
 3264.60791015625 
 30 
 0 
 11 
 5274 
 21 
 3264 
 31 
 0 
 0 
LINE
 10 
 5274 
 20 
 3264 
 30 
 0 
 11 
 5285.0078125 
 21 
 3261.54370117188 
 31 
 0 
 0 
LINE
 10 
 5285.0078125 
 20 
 3261.54370117188 
 30 
 0 
 11 
 5297.0244140625 
 21 
 3258.0322265625 
 31 
 0 
 0 
LINE
 10 
 5297.0244140625 
 20 
 3258.0322265625 
 30 
 0 
 11 
 5309.13623046875 
 21 
 3253.84814453125 
 31 
 0 
 0 
LINE
 10 
 5309.13623046875 
 20 
 3253.84814453125 
 30 
 0 
 11 
 5320.43212890625 
 21 
 3249.37622070313 
 31 
 0 
 0 
LINE
 10 
 5320.43212890625 
 20 
 3249.37622070313 
 30 
 0 
 11 
 5330 
 21 
 3245 
 31 
 0 
 0 
LINE
 10 
 2920 
 20 
 3062 
 30 
 0 
 11 
 2907.02392578125 
 21 
 3051.61596679688 
 31 
 0 
 0 
LINE
 10 
 2907.02392578125 
 20 
 3051.61596679688 
 30 
 0 
 11 
 2891.79223632813 
 21 
 3039.16821289063 
 31 
 0 
 0 
LINE
 10 
 2891.79223632813 
 20 
 3039.16821289063 
 30 
 0 
 11 
 2875.64794921875 
 21 
 3025.7119140625 
 31 
 0 
 0 
LINE
 10 
 2875.64794921875 
 20 
 3025.7119140625 
 30 
 0 
 11 
 2859.93603515625 
 21 
 3012.30395507813 
 31 
 0 
 0 
LINE
 10 
 2859.93603515625 
 20 
 3012.30395507813 
 30 
 0 
 11 
 2846 
 21 
 3000 
 31 
 0 
 0 
LINE
 10 
 2846 
 20 
 3000 
 30 
 0 
 11 
 2795.40795898438 
 21 
 2949.3759765625 
 31 
 0 
 0 
LINE
 10 
 2795.40795898438 
 20 
 2949.3759765625 
 30 
 0 
 11 
 2714.6240234375 
 21 
 2862.60815429688 
 31 
 0 
 0 
LINE
 10 
 2714.6240234375 
 20 
 2862.60815429688 
 30 
 0 
 11 
 2621.93603515625 
 21 
 2759.9521484375 
 31 
 0 
 0 
LINE
 10 
 2621.93603515625 
 20 
 2759.9521484375 
 30 
 0 
 11 
 2535.63208007813 
 21 
 2661.6640625 
 31 
 0 
 0 
LINE
 10 
 2535.63208007813 
 20 
 2661.6640625 
 30 
 0 
 11 
 2474 
 21 
 2588 
 31 
 0 
 0 
LINE
 10 
 2474 
 20 
 2588 
 30 
 0 
 11 
 2406.3759765625 
 21 
 2507.583984375 
 31 
 0 
 0 
LINE
 10 
 2406.3759765625 
 20 
 2507.583984375 
 30 
 0 
 11 
 2329.72802734375 
 21 
 2422.75219726563 
 31 
 0 
 0 
LINE
 10 
 2329.72802734375 
 20 
 2422.75219726563 
 30 
 0 
 11 
 2251.59204101563 
 21 
 2341.328125 
 31 
 0 
 0 
LINE
 10 
 2251.59204101563 
 20 
 2341.328125 
 30 
 0 
 11 
 2179.50415039063 
 21 
 2271.13598632813 
 31 
 0 
 0 
LINE
 10 
 2179.50415039063 
 20 
 2271.13598632813 
 30 
 0 
 11 
 2121 
 21 
 2220 
 31 
 0 
 0 
LINE
 10 
 2121 
 20 
 2220 
 30 
 0 
 11 
 2064.91186523438 
 21 
 2176.5517578125 
 31 
 0 
 0 
LINE
 10 
 2064.91186523438 
 20 
 2176.5517578125 
 30 
 0 
 11 
 2032.05603027344 
 21 
 2152.97607421875 
 31 
 0 
 0 
LINE
 10 
 2032.05603027344 
 20 
 2152.97607421875 
 30 
 0 
 11 
 2022.14404296875 
 21 
 2149.22412109375 
 31 
 0 
 0 
LINE
 10 
 2022.14404296875 
 20 
 2149.22412109375 
 30 
 0 
 11 
 2034.88806152344 
 21 
 2165.248046875 
 31 
 0 
 0 
LINE
 10 
 2034.88806152344 
 20 
 2165.248046875 
 30 
 0 
 11 
 2070 
 21 
 2201 
 31 
 0 
 0 
LINE
 10 
 2070 
 20 
 2201 
 30 
 0 
 11 
 2096.49584960938 
 21 
 2228.26391601563 
 31 
 0 
 0 
LINE
 10 
 2096.49584960938 
 20 
 2228.26391601563 
 30 
 0 
 11 
 2130.76806640625 
 21 
 2265.751953125 
 31 
 0 
 0 
LINE
 10 
 2130.76806640625 
 20 
 2265.751953125 
 30 
 0 
 11 
 2169.7919921875 
 21 
 2310.00805664063 
 31 
 0 
 0 
LINE
 10 
 2169.7919921875 
 20 
 2310.00805664063 
 30 
 0 
 11 
 2210.5439453125 
 21 
 2357.57592773438 
 31 
 0 
 0 
LINE
 10 
 2210.5439453125 
 20 
 2357.57592773438 
 30 
 0 
 11 
 2250 
 21 
 2405 
 31 
 0 
 0 
LINE
 10 
 2250 
 20 
 2405 
 30 
 0 
 11 
 2421.47192382813 
 21 
 2611.47998046875 
 31 
 0 
 0 
LINE
 10 
 2421.47192382813 
 20 
 2611.47998046875 
 30 
 0 
 11 
 2557.61596679688 
 21 
 2767.80004882813 
 31 
 0 
 0 
LINE
 10 
 2557.61596679688 
 20 
 2767.80004882813 
 30 
 0 
 11 
 2667.02392578125 
 21 
 2883.080078125 
 31 
 0 
 0 
LINE
 10 
 2667.02392578125 
 20 
 2883.080078125 
 30 
 0 
 11 
 2758.2880859375 
 21 
 2966.43994140625 
 31 
 0 
 0 
LINE
 10 
 2758.2880859375 
 20 
 2966.43994140625 
 30 
 0 
 11 
 2840 
 21 
 3027 
 31 
 0 
 0 
LINE
 10 
 2840 
 20 
 3027 
 30 
 0 
 11 
 2858.26391601563 
 21 
 3039.10375976563 
 31 
 0 
 0 
LINE
 10 
 2858.26391601563 
 20 
 3039.10375976563 
 30 
 0 
 11 
 2876.19213867188 
 21 
 3050.8720703125 
 31 
 0 
 0 
LINE
 10 
 2876.19213867188 
 20 
 3050.8720703125 
 30 
 0 
 11 
 2892.48803710938 
 21 
 3061.48803710938 
 31 
 0 
 0 
LINE
 10 
 2892.48803710938 
 20 
 3061.48803710938 
 30 
 0 
 11 
 2905.85595703125 
 21 
 3070.13598632813 
 31 
 0 
 0 
LINE
 10 
 2905.85595703125 
 20 
 3070.13598632813 
 30 
 0 
 11 
 2915 
 21 
 3076 
 31 
 0 
 0 
LINE
 10 
 2915 
 20 
 3076 
 30 
 0 
 11 
 2933.087890625 
 21 
 3086.44775390625 
 31 
 0 
 0 
LINE
 10 
 2933.087890625 
 20 
 3086.44775390625 
 30 
 0 
 11 
 2942.82421875 
 21 
 3089.50415039063 
 31 
 0 
 0 
LINE
 10 
 2942.82421875 
 20 
 3089.50415039063 
 30 
 0 
 11 
 2944.01586914063 
 21 
 3085.93603515625 
 31 
 0 
 0 
LINE
 10 
 2944.01586914063 
 20 
 3085.93603515625 
 30 
 0 
 11 
 2936.47216796875 
 21 
 3076.51196289063 
 31 
 0 
 0 
LINE
 10 
 2936.47216796875 
 20 
 3076.51196289063 
 30 
 0 
 11 
 2920 
 21 
 3062 
 31 
 0 
 0 
LINE
 10 
 3498 
 20 
 3058 
 30 
 0 
 11 
 3588.087890625 
 21 
 2997.53588867188 
 31 
 0 
 0 
LINE
 10 
 3588.087890625 
 20 
 2997.53588867188 
 30 
 0 
 11 
 3688.06420898438 
 21 
 2911.96826171875 
 31 
 0 
 0 
LINE
 10 
 3688.06420898438 
 20 
 2911.96826171875 
 30 
 0 
 11 
 3803.49609375 
 21 
 2795.63208007813 
 31 
 0 
 0 
LINE
 10 
 3803.49609375 
 20 
 2795.63208007813 
 30 
 0 
 11 
 3939.9521484375 
 21 
 2642.86401367188 
 31 
 0 
 0 
LINE
 10 
 3939.9521484375 
 20 
 2642.86401367188 
 30 
 0 
 11 
 4103 
 21 
 2448 
 31 
 0 
 0 
LINE
 10 
 4103 
 20 
 2448 
 30 
 0 
 11 
 4161.60791015625 
 21 
 2377.11987304688 
 31 
 0 
 0 
LINE
 10 
 4161.60791015625 
 20 
 2377.11987304688 
 30 
 0 
 11 
 4218.34423828125 
 21 
 2310.32006835938 
 31 
 0 
 0 
LINE
 10 
 4218.34423828125 
 20 
 2310.32006835938 
 30 
 0 
 11 
 4269.17626953125 
 21 
 2252.16015625 
 31 
 0 
 0 
LINE
 10 
 4269.17626953125 
 20 
 2252.16015625 
 30 
 0 
 11 
 4310.072265625 
 21 
 2207.2001953125 
 31 
 0 
 0 
LINE
 10 
 4310.072265625 
 20 
 2207.2001953125 
 30 
 0 
 11 
 4337 
 21 
 2180 
 31 
 0 
 0 
LINE
 10 
 4337 
 20 
 2180 
 30 
 0 
 11 
 4395 
 21 
 2127 
 31 
 0 
 0 
LINE
 10 
 4395 
 20 
 2127 
 30 
 0 
 11 
 4330 
 21 
 2170 
 31 
 0 
 0 
LINE
 10 
 4330 
 20 
 2170 
 30 
 0 
 11 
 4269.7919921875 
 21 
 2217.72778320313 
 31 
 0 
 0 
LINE
 10 
 4269.7919921875 
 20 
 2217.72778320313 
 30 
 0 
 11 
 4187.6962890625 
 21 
 2293.58422851563 
 31 
 0 
 0 
LINE
 10 
 4187.6962890625 
 20 
 2293.58422851563 
 30 
 0 
 11 
 4094.70385742188 
 21 
 2386.57592773438 
 31 
 0 
 0 
LINE
 10 
 4094.70385742188 
 20 
 2386.57592773438 
 30 
 0 
 11 
 4001.80810546875 
 21 
 2485.7119140625 
 31 
 0 
 0 
LINE
 10 
 4001.80810546875 
 20 
 2485.7119140625 
 30 
 0 
 11 
 3920 
 21 
 2580 
 31 
 0 
 0 
LINE
 10 
 3920 
 20 
 2580 
 30 
 0 
 11 
 3799.31201171875 
 21 
 2723.23974609375 
 31 
 0 
 0 
LINE
 10 
 3799.31201171875 
 20 
 2723.23974609375 
 30 
 0 
 11 
 3690.3359375 
 21 
 2845.84008789063 
 31 
 0 
 0 
LINE
 10 
 3690.3359375 
 20 
 2845.84008789063 
 30 
 0 
 11 
 3594.70385742188 
 21 
 2946.1201171875 
 31 
 0 
 0 
LINE
 10 
 3594.70385742188 
 20 
 2946.1201171875 
 30 
 0 
 11 
 3514.04809570313 
 21 
 3022.40014648438 
 31 
 0 
 0 
LINE
 10 
 3514.04809570313 
 20 
 3022.40014648438 
 30 
 0 
 11 
 3450 
 21 
 3073 
 31 
 0 
 0 
LINE
 10 
 3450 
 20 
 3073 
 30 
 0 
 11 
 3433.58374023438 
 21 
 3085.84008789063 
 31 
 0 
 0 
LINE
 10 
 3433.58374023438 
 20 
 3085.84008789063 
 30 
 0 
 11 
 3432.19213867188 
 21 
 3090.0400390625 
 31 
 0 
 0 
LINE
 10 
 3432.19213867188 
 20 
 3090.0400390625 
 30 
 0 
 11 
 3443.80810546875 
 21 
 3086.32006835938 
 31 
 0 
 0 
LINE
 10 
 3443.80810546875 
 20 
 3086.32006835938 
 30 
 0 
 11 
 3466.416015625 
 21 
 3075.40014648438 
 31 
 0 
 0 
LINE
 10 
 3466.416015625 
 20 
 3075.40014648438 
 30 
 0 
 11 
 3498 
 21 
 3058 
 31 
 0 
 0 
LINE
 10 
 1370 
 20 
 3070 
 30 
 0 
 11 
 1385.70397949219 
 21 
 3055.50390625 
 31 
 0 
 0 
LINE
 10 
 1385.70397949219 
 20 
 3055.50390625 
 30 
 0 
 11 
 1394.35205078125 
 21 
 3033.47192382813 
 31 
 0 
 0 
LINE
 10 
 1394.35205078125 
 20 
 3033.47192382813 
 30 
 0 
 11 
 1395.84802246094 
 21 
 3005.48803710938 
 31 
 0 
 0 
LINE
 10 
 1395.84802246094 
 20 
 3005.48803710938 
 30 
 0 
 11 
 1390.09606933594 
 21 
 2973.13598632813 
 31 
 0 
 0 
LINE
 10 
 1390.09606933594 
 20 
 2973.13598632813 
 30 
 0 
 11 
 1377 
 21 
 2938 
 31 
 0 
 0 
LINE
 10 
 1377 
 20 
 2938 
 30 
 0 
 11 
 1368.37585449219 
 21 
 2920.095703125 
 31 
 0 
 0 
LINE
 10 
 1368.37585449219 
 20 
 2920.095703125 
 30 
 0 
 11 
 1358.64794921875 
 21 
 2902.04809570313 
 31 
 0 
 0 
LINE
 10 
 1358.64794921875 
 20 
 2902.04809570313 
 30 
 0 
 11 
 1348.63195800781 
 21 
 2885.15209960938 
 31 
 0 
 0 
LINE
 10 
 1348.63195800781 
 20 
 2885.15209960938 
 30 
 0 
 11 
 1339.14404296875 
 21 
 2870.7041015625 
 31 
 0 
 0 
LINE
 10 
 1339.14404296875 
 20 
 2870.7041015625 
 30 
 0 
 11 
 1331 
 21 
 2860 
 31 
 0 
 0 
LINE
 10 
 1331 
 20 
 2860 
 30 
 0 
 11 
 1310 
 21 
 2835 
 31 
 0 
 0 
LINE
 10 
 1310 
 20 
 2835 
 30 
 0 
 11 
 1316 
 21 
 2863 
 31 
 0 
 0 
LINE
 10 
 1316 
 20 
 2863 
 30 
 0 
 11 
 1317.83190917969 
 21 
 2886.7197265625 
 31 
 0 
 0 
LINE
 10 
 1317.83190917969 
 20 
 2886.7197265625 
 30 
 0 
 11 
 1313.13610839844 
 21 
 2909.9599609375 
 31 
 0 
 0 
LINE
 10 
 1313.13610839844 
 20 
 2909.9599609375 
 30 
 0 
 11 
 1302.82397460938 
 21 
 2931.0400390625 
 31 
 0 
 0 
LINE
 10 
 1302.82397460938 
 20 
 2931.0400390625 
 30 
 0 
 11 
 1287.80810546875 
 21 
 2948.28002929688 
 31 
 0 
 0 
LINE
 10 
 1287.80810546875 
 20 
 2948.28002929688 
 30 
 0 
 11 
 1269 
 21 
 2960 
 31 
 0 
 0 
LINE
 10 
 1269 
 20 
 2960 
 30 
 0 
 11 
 1257.05603027344 
 21 
 2963.7041015625 
 31 
 0 
 0 
LINE
 10 
 1257.05603027344 
 20 
 2963.7041015625 
 30 
 0 
 11 
 1242.32800292969 
 21 
 2966.35205078125 
 31 
 0 
 0 
LINE
 10 
 1242.32800292969 
 20 
 2966.35205078125 
 30 
 0 
 11 
 1225.87194824219 
 21 
 2967.84790039063 
 31 
 0 
 0 
LINE
 10 
 1225.87194824219 
 20 
 2967.84790039063 
 30 
 0 
 11 
 1208.74401855469 
 21 
 2968.09594726563 
 31 
 0 
 0 
LINE
 10 
 1208.74401855469 
 20 
 2968.09594726563 
 30 
 0 
 11 
 1192 
 21 
 2967 
 31 
 0 
 0 
LINE
 10 
 1192 
 20 
 2967 
 30 
 0 
 11 
 1145 
 21 
 2962 
 31 
 0 
 0 
LINE
 10 
 1145 
 20 
 2962 
 30 
 0 
 11 
 1190 
 21 
 3002 
 31 
 0 
 0 
LINE
 10 
 1190 
 20 
 3002 
 30 
 0 
 11 
 1234.44799804688 
 21 
 3037.77587890625 
 31 
 0 
 0 
LINE
 10 
 1234.44799804688 
 20 
 3037.77587890625 
 30 
 0 
 11 
 1274.38403320313 
 21 
 3062.36791992188 
 31 
 0 
 0 
LINE
 10 
 1274.38403320313 
 20 
 3062.36791992188 
 30 
 0 
 11 
 1310.09594726563 
 21 
 3075.8720703125 
 31 
 0 
 0 
LINE
 10 
 1310.09594726563 
 20 
 3075.8720703125 
 30 
 0 
 11 
 1341.8720703125 
 21 
 3078.38403320313 
 31 
 0 
 0 
LINE
 10 
 1341.8720703125 
 20 
 3078.38403320313 
 30 
 0 
 11 
 1370 
 21 
 3070 
 31 
 0 
 0 
LINE
 10 
 5114 
 20 
 3060 
 30 
 0 
 11 
 5129.36767578125 
 21 
 3051.76000976563 
 31 
 0 
 0 
LINE
 10 
 5129.36767578125 
 20 
 3051.76000976563 
 30 
 0 
 11 
 5146.94384765625 
 21 
 3040.88012695313 
 31 
 0 
 0 
LINE
 10 
 5146.94384765625 
 20 
 3040.88012695313 
 30 
 0 
 11 
 5165.3359375 
 21 
 3028.32006835938 
 31 
 0 
 0 
LINE
 10 
 5165.3359375 
 20 
 3028.32006835938 
 30 
 0 
 11 
 5183.15185546875 
 21 
 3015.0400390625 
 31 
 0 
 0 
LINE
 10 
 5183.15185546875 
 20 
 3015.0400390625 
 30 
 0 
 11 
 5199 
 21 
 3002 
 31 
 0 
 0 
LINE
 10 
 5199 
 20 
 3002 
 30 
 0 
 11 
 5243 
 21 
 2964 
 31 
 0 
 0 
LINE
 10 
 5243 
 20 
 2964 
 30 
 0 
 11 
 5181 
 21 
 2965 
 31 
 0 
 0 
LINE
 10 
 5181 
 20 
 2965 
 30 
 0 
 11 
 5152.16845703125 
 21 
 2964.47998046875 
 31 
 0 
 0 
LINE
 10 
 5152.16845703125 
 20 
 2964.47998046875 
 30 
 0 
 11 
 5132.0244140625 
 21 
 2962.2802734375 
 31 
 0 
 0 
LINE
 10 
 5132.0244140625 
 20 
 2962.2802734375 
 30 
 0 
 11 
 5117.49609375 
 21 
 2957.43994140625 
 31 
 0 
 0 
LINE
 10 
 5117.49609375 
 20 
 2957.43994140625 
 30 
 0 
 11 
 5105.51220703125 
 21 
 2949 
 31 
 0 
 0 
LINE
 10 
 5105.51220703125 
 20 
 2949 
 30 
 0 
 11 
 5093 
 21 
 2936 
 31 
 0 
 0 
LINE
 10 
 5093 
 20 
 2936 
 30 
 0 
 11 
 5082.4794921875 
 21 
 2922.3837890625 
 31 
 0 
 0 
LINE
 10 
 5082.4794921875 
 20 
 2922.3837890625 
 30 
 0 
 11 
 5075.80029296875 
 21 
 2910.35205078125 
 31 
 0 
 0 
LINE
 10 
 5075.80029296875 
 20 
 2910.35205078125 
 30 
 0 
 11 
 5072.47998046875 
 21 
 2898.12817382813 
 31 
 0 
 0 
LINE
 10 
 5072.47998046875 
 20 
 2898.12817382813 
 30 
 0 
 11 
 5072.0400390625 
 21 
 2883.93603515625 
 31 
 0 
 0 
LINE
 10 
 5072.0400390625 
 20 
 2883.93603515625 
 30 
 0 
 11 
 5074 
 21 
 2866 
 31 
 0 
 0 
LINE
 10 
 5074 
 20 
 2866 
 30 
 0 
 11 
 5081 
 21 
 2826 
 31 
 0 
 0 
LINE
 10 
 5081 
 20 
 2826 
 30 
 0 
 11 
 5061 
 21 
 2851 
 31 
 0 
 0 
LINE
 10 
 5061 
 20 
 2851 
 30 
 0 
 11 
 5043.087890625 
 21 
 2877.07983398438 
 31 
 0 
 0 
LINE
 10 
 5043.087890625 
 20 
 2877.07983398438 
 30 
 0 
 11 
 5026.18408203125 
 21 
 2906.76025390625 
 31 
 0 
 0 
LINE
 10 
 5026.18408203125 
 20 
 2906.76025390625 
 30 
 0 
 11 
 5011.5361328125 
 21 
 2937.40014648438 
 31 
 0 
 0 
LINE
 10 
 5011.5361328125 
 20 
 2937.40014648438 
 30 
 0 
 11 
 5000.39208984375 
 21 
 2966.36010742188 
 31 
 0 
 0 
LINE
 10 
 5000.39208984375 
 20 
 2966.36010742188 
 30 
 0 
 11 
 4994 
 21 
 2991 
 31 
 0 
 0 
LINE
 10 
 4994 
 20 
 2991 
 30 
 0 
 11 
 4992.591796875 
 21 
 3005.03198242188 
 31 
 0 
 0 
LINE
 10 
 4992.591796875 
 20 
 3005.03198242188 
 30 
 0 
 11 
 4993.29638671875 
 21 
 3017.576171875 
 31 
 0 
 0 
LINE
 10 
 4993.29638671875 
 20 
 3017.576171875 
 30 
 0 
 11 
 4996.3037109375 
 21 
 3029.30395507813 
 31 
 0 
 0 
LINE
 10 
 4996.3037109375 
 20 
 3029.30395507813 
 30 
 0 
 11 
 5001.80810546875 
 21 
 3040.88793945313 
 31 
 0 
 0 
LINE
 10 
 5001.80810546875 
 20 
 3040.88793945313 
 30 
 0 
 11 
 5010 
 21 
 3053 
 31 
 0 
 0 
LINE
 10 
 5010 
 20 
 3053 
 30 
 0 
 11 
 5025.61572265625 
 21 
 3068.60791015625 
 31 
 0 
 0 
LINE
 10 
 5025.61572265625 
 20 
 3068.60791015625 
 30 
 0 
 11 
 5042.2880859375 
 21 
 3077.06420898438 
 31 
 0 
 0 
LINE
 10 
 5042.2880859375 
 20 
 3077.06420898438 
 30 
 0 
 11 
 5061.55224609375 
 21 
 3078.416015625 
 31 
 0 
 0 
LINE
 10 
 5061.55224609375 
 20 
 3078.416015625 
 30 
 0 
 11 
 5084.94384765625 
 21 
 3072.7119140625 
 31 
 0 
 0 
LINE
 10 
 5084.94384765625 
 20 
 3072.7119140625 
 30 
 0 
 11 
 5114 
 21 
 3060 
 31 
 0 
 0 
LINE
 10 
 2941 
 20 
 2914 
 30 
 0 
 11 
 2892.86376953125 
 21 
 2799.90405273438 
 31 
 0 
 0 
LINE
 10 
 2892.86376953125 
 20 
 2799.90405273438 
 30 
 0 
 11 
 2838.15209960938 
 21 
 2669.15209960938 
 31 
 0 
 0 
LINE
 10 
 2838.15209960938 
 20 
 2669.15209960938 
 30 
 0 
 11 
 2785.40795898438 
 21 
 2542.04809570313 
 31 
 0 
 0 
LINE
 10 
 2785.40795898438 
 20 
 2542.04809570313 
 30 
 0 
 11 
 2743.17602539063 
 21 
 2438.89599609375 
 31 
 0 
 0 
LINE
 10 
 2743.17602539063 
 20 
 2438.89599609375 
 30 
 0 
 11 
 2720 
 21 
 2380 
 31 
 0 
 0 
LINE
 10 
 2720 
 20 
 2380 
 30 
 0 
 11 
 2663.47998046875 
 21 
 2245.82397460938 
 31 
 0 
 0 
LINE
 10 
 2663.47998046875 
 20 
 2245.82397460938 
 30 
 0 
 11 
 2577.68017578125 
 21 
 2055.15209960938 
 31 
 0 
 0 
LINE
 10 
 2577.68017578125 
 20 
 2055.15209960938 
 30 
 0 
 11 
 2485.63989257813 
 21 
 1857.56799316406 
 31 
 0 
 0 
LINE
 10 
 2485.63989257813 
 20 
 1857.56799316406 
 30 
 0 
 11 
 2410.40014648438 
 21 
 1702.65600585938 
 31 
 0 
 0 
LINE
 10 
 2410.40014648438 
 20 
 1702.65600585938 
 30 
 0 
 11 
 2375 
 21 
 1640 
 31 
 0 
 0 
LINE
 10 
 2375 
 20 
 1640 
 30 
 0 
 11 
 2374.12768554688 
 21 
 1641.93591308594 
 31 
 0 
 0 
LINE
 10 
 2374.12768554688 
 20 
 1641.93591308594 
 30 
 0 
 11 
 2374.98413085938 
 21 
 1647.32800292969 
 31 
 0 
 0 
LINE
 10 
 2374.98413085938 
 20 
 1647.32800292969 
 30 
 0 
 11 
 2377.3759765625 
 21 
 1655.55200195313 
 31 
 0 
 0 
LINE
 10 
 2377.3759765625 
 20 
 1655.55200195313 
 30 
 0 
 11 
 2381.11206054688 
 21 
 1665.98400878906 
 31 
 0 
 0 
LINE
 10 
 2381.11206054688 
 20 
 1665.98400878906 
 30 
 0 
 11 
 2386 
 21 
 1678 
 31 
 0 
 0 
LINE
 10 
 2386 
 20 
 1678 
 30 
 0 
 11 
 2418.55200195313 
 21 
 1755.95190429688 
 31 
 0 
 0 
LINE
 10 
 2418.55200195313 
 20 
 1755.95190429688 
 30 
 0 
 11 
 2459.69604492188 
 21 
 1858.09594726563 
 31 
 0 
 0 
LINE
 10 
 2459.69604492188 
 20 
 1858.09594726563 
 30 
 0 
 11 
 2503.86401367188 
 21 
 1970.46411132813 
 31 
 0 
 0 
LINE
 10 
 2503.86401367188 
 20 
 1970.46411132813 
 30 
 0 
 11 
 2545.48803710938 
 21 
 2079.08813476563 
 31 
 0 
 0 
LINE
 10 
 2545.48803710938 
 20 
 2079.08813476563 
 30 
 0 
 11 
 2579 
 21 
 2170 
 31 
 0 
 0 
LINE
 10 
 2579 
 20 
 2170 
 30 
 0 
 11 
 2612.4560546875 
 21 
 2259.23974609375 
 31 
 0 
 0 
LINE
 10 
 2612.4560546875 
 20 
 2259.23974609375 
 30 
 0 
 11 
 2652.248046875 
 21 
 2363.1201171875 
 31 
 0 
 0 
LINE
 10 
 2652.248046875 
 20 
 2363.1201171875 
 30 
 0 
 11 
 2693.91186523438 
 21 
 2469.8798828125 
 31 
 0 
 0 
LINE
 10 
 2693.91186523438 
 20 
 2469.8798828125 
 30 
 0 
 11 
 2732.98413085938 
 21 
 2567.76000976563 
 31 
 0 
 0 
LINE
 10 
 2732.98413085938 
 20 
 2567.76000976563 
 30 
 0 
 11 
 2765 
 21 
 2645 
 31 
 0 
 0 
LINE
 10 
 2765 
 20 
 2645 
 30 
 0 
 11 
 2774.71215820313 
 21 
 2670.15991210938 
 31 
 0 
 0 
LINE
 10 
 2774.71215820313 
 20 
 2670.15991210938 
 30 
 0 
 11 
 2773.3359375 
 21 
 2674.19995117188 
 31 
 0 
 0 
LINE
 10 
 2773.3359375 
 20 
 2674.19995117188 
 30 
 0 
 11 
 2760.10400390625 
 21 
 2656.15991210938 
 31 
 0 
 0 
LINE
 10 
 2760.10400390625 
 20 
 2656.15991210938 
 30 
 0 
 11 
 2734.248046875 
 21 
 2615.080078125 
 31 
 0 
 0 
LINE
 10 
 2734.248046875 
 20 
 2615.080078125 
 30 
 0 
 11 
 2695 
 21 
 2550 
 31 
 0 
 0 
LINE
 10 
 2695 
 20 
 2550 
 30 
 0 
 11 
 2596.68798828125 
 21 
 2393.71997070313 
 31 
 0 
 0 
LINE
 10 
 2596.68798828125 
 20 
 2393.71997070313 
 30 
 0 
 11 
 2490.98413085938 
 21 
 2240.80004882813 
 31 
 0 
 0 
LINE
 10 
 2490.98413085938 
 20 
 2240.80004882813 
 30 
 0 
 11 
 2386.3359375 
 21 
 2102.52001953125 
 31 
 0 
 0 
LINE
 10 
 2386.3359375 
 20 
 2102.52001953125 
 30 
 0 
 11 
 2291.19213867188 
 21 
 1990.16003417969 
 31 
 0 
 0 
LINE
 10 
 2291.19213867188 
 20 
 1990.16003417969 
 30 
 0 
 11 
 2214 
 21 
 1915 
 31 
 0 
 0 
LINE
 10 
 2214 
 20 
 1915 
 30 
 0 
 11 
 2165 
 21 
 1876 
 31 
 0 
 0 
LINE
 10 
 2165 
 20 
 1876 
 30 
 0 
 11 
 2205 
 21 
 1920 
 31 
 0 
 0 
LINE
 10 
 2205 
 20 
 1920 
 30 
 0 
 11 
 2265.43188476563 
 21 
 1992.34387207031 
 31 
 0 
 0 
LINE
 10 
 2265.43188476563 
 20 
 1992.34387207031 
 30 
 0 
 11 
 2333.97583007813 
 21 
 2085.23217773438 
 31 
 0 
 0 
LINE
 10 
 2333.97583007813 
 20 
 2085.23217773438 
 30 
 0 
 11 
 2412.50390625 
 21 
 2201.44799804688 
 31 
 0 
 0 
LINE
 10 
 2412.50390625 
 20 
 2201.44799804688 
 30 
 0 
 11 
 2502.88818359375 
 21 
 2343.77612304688 
 31 
 0 
 0 
LINE
 10 
 2502.88818359375 
 20 
 2343.77612304688 
 30 
 0 
 11 
 2607 
 21 
 2515 
 31 
 0 
 0 
LINE
 10 
 2607 
 20 
 2515 
 30 
 0 
 11 
 2680.583984375 
 21 
 2634.94384765625 
 31 
 0 
 0 
LINE
 10 
 2680.583984375 
 20 
 2634.94384765625 
 30 
 0 
 11 
 2755.9921875 
 21 
 2751.67211914063 
 31 
 0 
 0 
LINE
 10 
 2755.9921875 
 20 
 2751.67211914063 
 30 
 0 
 11 
 2827.60815429688 
 21 
 2856.92797851563 
 31 
 0 
 0 
LINE
 10 
 2827.60815429688 
 20 
 2856.92797851563 
 30 
 0 
 11 
 2889.81616210938 
 21 
 2942.4560546875 
 31 
 0 
 0 
LINE
 10 
 2889.81616210938 
 20 
 2942.4560546875 
 30 
 0 
 11 
 2937 
 21 
 3000 
 31 
 0 
 0 
LINE
 10 
 2937 
 20 
 3000 
 30 
 0 
 11 
 2954.47216796875 
 21 
 3018.7919921875 
 31 
 0 
 0 
LINE
 10 
 2954.47216796875 
 20 
 3018.7919921875 
 30 
 0 
 11 
 2970.21606445313 
 21 
 3034.89599609375 
 31 
 0 
 0 
LINE
 10 
 2970.21606445313 
 20 
 3034.89599609375 
 30 
 0 
 11 
 2983.22412109375 
 21 
 3047.30395507813 
 31 
 0 
 0 
LINE
 10 
 2983.22412109375 
 20 
 3047.30395507813 
 30 
 0 
 11 
 2992.48803710938 
 21 
 3055.00805664063 
 31 
 0 
 0 
LINE
 10 
 2992.48803710938 
 20 
 3055.00805664063 
 30 
 0 
 11 
 2997 
 21 
 3057 
 31 
 0 
 0 
LINE
 10 
 2997 
 20 
 3057 
 30 
 0 
 11 
 2995.11181640625 
 21 
 3048.65600585938 
 31 
 0 
 0 
LINE
 10 
 2995.11181640625 
 20 
 3048.65600585938 
 30 
 0 
 11 
 2987.65625 
 21 
 3027.68823242188 
 31 
 0 
 0 
LINE
 10 
 2987.65625 
 20 
 3027.68823242188 
 30 
 0 
 11 
 2975.5439453125 
 21 
 2996.59204101563 
 31 
 0 
 0 
LINE
 10 
 2975.5439453125 
 20 
 2996.59204101563 
 30 
 0 
 11 
 2959.68798828125 
 21 
 2957.86401367188 
 31 
 0 
 0 
LINE
 10 
 2959.68798828125 
 20 
 2957.86401367188 
 30 
 0 
 11 
 2941 
 21 
 2914 
 31 
 0 
 0 
LINE
 10 
 3457 
 20 
 2994 
 30 
 0 
 11 
 3503.2001953125 
 21 
 2936.39965820313 
 31 
 0 
 0 
LINE
 10 
 3503.2001953125 
 20 
 2936.39965820313 
 30 
 0 
 11 
 3558.0400390625 
 21 
 2861.0400390625 
 31 
 0 
 0 
LINE
 10 
 3558.0400390625 
 20 
 2861.0400390625 
 30 
 0 
 11 
 3620.080078125 
 21 
 2770.080078125 
 31 
 0 
 0 
LINE
 10 
 3620.080078125 
 20 
 2770.080078125 
 30 
 0 
 11 
 3687.88012695313 
 21 
 2665.67993164063 
 31 
 0 
 0 
LINE
 10 
 3687.88012695313 
 20 
 2665.67993164063 
 30 
 0 
 11 
 3760 
 21 
 2550 
 31 
 0 
 0 
LINE
 10 
 3760 
 20 
 2550 
 30 
 0 
 11 
 3895.31982421875 
 21 
 2328.85595703125 
 31 
 0 
 0 
LINE
 10 
 3895.31982421875 
 20 
 2328.85595703125 
 30 
 0 
 11 
 3991.0400390625 
 21 
 2176.44799804688 
 31 
 0 
 0 
LINE
 10 
 3991.0400390625 
 20 
 2176.44799804688 
 30 
 0 
 11 
 4060.60009765625 
 21 
 2072.7119140625 
 31 
 0 
 0 
LINE
 10 
 4060.60009765625 
 20 
 2072.7119140625 
 30 
 0 
 11 
 4117.43994140625 
 21 
 1997.583984375 
 31 
 0 
 0 
LINE
 10 
 4117.43994140625 
 20 
 1997.583984375 
 30 
 0 
 11 
 4175 
 21 
 1931 
 31 
 0 
 0 
LINE
 10 
 4175 
 20 
 1931 
 30 
 0 
 11 
 4199.927734375 
 21 
 1903.36804199219 
 31 
 0 
 0 
LINE
 10 
 4199.927734375 
 20 
 1903.36804199219 
 30 
 0 
 11 
 4213.8642578125 
 21 
 1887.06396484375 
 31 
 0 
 0 
LINE
 10 
 4213.8642578125 
 20 
 1887.06396484375 
 30 
 0 
 11 
 4217.3359375 
 21 
 1881.17602539063 
 31 
 0 
 0 
LINE
 10 
 4217.3359375 
 20 
 1881.17602539063 
 30 
 0 
 11 
 4210.8720703125 
 21 
 1884.79211425781 
 31 
 0 
 0 
LINE
 10 
 4210.8720703125 
 20 
 1884.79211425781 
 30 
 0 
 11 
 4195 
 21 
 1897 
 31 
 0 
 0 
LINE
 10 
 4195 
 20 
 1897 
 30 
 0 
 11 
 4163.74365234375 
 21 
 1923.79187011719 
 31 
 0 
 0 
LINE
 10 
 4163.74365234375 
 20 
 1923.79187011719 
 30 
 0 
 11 
 4127.59228515625 
 21 
 1958.4560546875 
 31 
 0 
 0 
LINE
 10 
 4127.59228515625 
 20 
 1958.4560546875 
 30 
 0 
 11 
 4088.36791992188 
 21 
 1999.02404785156 
 31 
 0 
 0 
LINE
 10 
 4088.36791992188 
 20 
 1999.02404785156 
 30 
 0 
 11 
 4047.89624023438 
 21 
 2043.52807617188 
 31 
 0 
 0 
LINE
 10 
 4047.89624023438 
 20 
 2043.52807617188 
 30 
 0 
 11 
 4008 
 21 
 2090 
 31 
 0 
 0 
LINE
 10 
 4008 
 20 
 2090 
 30 
 0 
 11 
 3942.45581054688 
 21 
 2176.30395507813 
 31 
 0 
 0 
LINE
 10 
 3942.45581054688 
 20 
 2176.30395507813 
 30 
 0 
 11 
 3857.08813476563 
 21 
 2298.27197265625 
 31 
 0 
 0 
LINE
 10 
 3857.08813476563 
 20 
 2298.27197265625 
 30 
 0 
 11 
 3767.59204101563 
 21 
 2432.2880859375 
 31 
 0 
 0 
LINE
 10 
 3767.59204101563 
 20 
 2432.2880859375 
 30 
 0 
 11 
 3689.6640625 
 21 
 2554.73608398438 
 31 
 0 
 0 
LINE
 10 
 3689.6640625 
 20 
 2554.73608398438 
 30 
 0 
 11 
 3639 
 21 
 2642 
 31 
 0 
 0 
LINE
 10 
 3639 
 20 
 2642 
 30 
 0 
 11 
 3632.36791992188 
 21 
 2654.3759765625 
 31 
 0 
 0 
LINE
 10 
 3632.36791992188 
 20 
 2654.3759765625 
 30 
 0 
 11 
 3626.02392578125 
 21 
 2664.68823242188 
 31 
 0 
 0 
LINE
 10 
 3626.02392578125 
 20 
 2664.68823242188 
 30 
 0 
 11 
 3620.49584960938 
 21 
 2672.31201171875 
 31 
 0 
 0 
LINE
 10 
 3620.49584960938 
 20 
 2672.31201171875 
 30 
 0 
 11 
 3616.31201171875 
 21 
 2676.6240234375 
 31 
 0 
 0 
LINE
 10 
 3616.31201171875 
 20 
 2676.6240234375 
 30 
 0 
 11 
 3614 
 21 
 2677 
 31 
 0 
 0 
LINE
 10 
 3614 
 20 
 2677 
 30 
 0 
 11 
 3613.24780273438 
 21 
 2673.3837890625 
 31 
 0 
 0 
LINE
 10 
 3613.24780273438 
 20 
 2673.3837890625 
 30 
 0 
 11 
 3614.4638671875 
 21 
 2666.55200195313 
 31 
 0 
 0 
LINE
 10 
 3614.4638671875 
 20 
 2666.55200195313 
 30 
 0 
 11 
 3617.4560546875 
 21 
 2657.1279296875 
 31 
 0 
 0 
LINE
 10 
 3617.4560546875 
 20 
 2657.1279296875 
 30 
 0 
 11 
 3622.03198242188 
 21 
 2645.73608398438 
 31 
 0 
 0 
LINE
 10 
 3622.03198242188 
 20 
 2645.73608398438 
 30 
 0 
 11 
 3628 
 21 
 2633 
 31 
 0 
 0 
LINE
 10 
 3628 
 20 
 2633 
 30 
 0 
 11 
 3647.4638671875 
 21 
 2589.49584960938 
 31 
 0 
 0 
LINE
 10 
 3647.4638671875 
 20 
 2589.49584960938 
 30 
 0 
 11 
 3680.27197265625 
 21 
 2508.16821289063 
 31 
 0 
 0 
LINE
 10 
 3680.27197265625 
 20 
 2508.16821289063 
 30 
 0 
 11 
 3725.84790039063 
 21 
 2390.7919921875 
 31 
 0 
 0 
LINE
 10 
 3725.84790039063 
 20 
 2390.7919921875 
 30 
 0 
 11 
 3783.6162109375 
 21 
 2239.14404296875 
 31 
 0 
 0 
LINE
 10 
 3783.6162109375 
 20 
 2239.14404296875 
 30 
 0 
 11 
 3853 
 21 
 2055 
 31 
 0 
 0 
LINE
 10 
 3853 
 20 
 2055 
 30 
 0 
 11 
 3879.53564453125 
 21 
 1985.93591308594 
 31 
 0 
 0 
LINE
 10 
 3879.53564453125 
 20 
 1985.93591308594 
 30 
 0 
 11 
 3907.3681640625 
 21 
 1914.328125 
 31 
 0 
 0 
LINE
 10 
 3907.3681640625 
 20 
 1914.328125 
 30 
 0 
 11 
 3934.43212890625 
 21 
 1845.55200195313 
 31 
 0 
 0 
LINE
 10 
 3934.43212890625 
 20 
 1845.55200195313 
 30 
 0 
 11 
 3958.6640625 
 21 
 1784.98400878906 
 31 
 0 
 0 
LINE
 10 
 3958.6640625 
 20 
 1784.98400878906 
 30 
 0 
 11 
 3978 
 21 
 1738 
 31 
 0 
 0 
LINE
 10 
 3978 
 20 
 1738 
 30 
 0 
 11 
 3993.44775390625 
 21 
 1700.76794433594 
 31 
 0 
 0 
LINE
 10 
 3993.44775390625 
 20 
 1700.76794433594 
 30 
 0 
 11 
 4006.7841796875 
 21 
 1668.38415527344 
 31 
 0 
 0 
LINE
 10 
 4006.7841796875 
 20 
 1668.38415527344 
 30 
 0 
 11 
 4017.09594726563 
 21 
 1642.81604003906 
 31 
 0 
 0 
LINE
 10 
 4017.09594726563 
 20 
 1642.81604003906 
 30 
 0 
 11 
 4023.47216796875 
 21 
 1626.03198242188 
 31 
 0 
 0 
LINE
 10 
 4023.47216796875 
 20 
 1626.03198242188 
 30 
 0 
 11 
 4025 
 21 
 1620 
 31 
 0 
 0 
LINE
 10 
 4025 
 20 
 1620 
 30 
 0 
 11 
 4012.6318359375 
 21 
 1637.55993652344 
 31 
 0 
 0 
LINE
 10 
 4012.6318359375 
 20 
 1637.55993652344 
 30 
 0 
 11 
 3987.25610351563 
 21 
 1683.68005371094 
 31 
 0 
 0 
LINE
 10 
 3987.25610351563 
 20 
 1683.68005371094 
 30 
 0 
 11 
 3953.86401367188 
 21 
 1748.52001953125 
 31 
 0 
 0 
LINE
 10 
 3953.86401367188 
 20 
 1748.52001953125 
 30 
 0 
 11 
 3917.4482421875 
 21 
 1822.23999023438 
 31 
 0 
 0 
LINE
 10 
 3917.4482421875 
 20 
 1822.23999023438 
 30 
 0 
 11 
 3883 
 21 
 1895 
 31 
 0 
 0 
LINE
 10 
 3883 
 20 
 1895 
 30 
 0 
 11 
 3817.44799804688 
 21 
 2039.583984375 
 31 
 0 
 0 
LINE
 10 
 3817.44799804688 
 20 
 2039.583984375 
 30 
 0 
 11 
 3752.18408203125 
 21 
 2187.67211914063 
 31 
 0 
 0 
LINE
 10 
 3752.18408203125 
 20 
 2187.67211914063 
 30 
 0 
 11 
 3682.69604492188 
 21 
 2349.96801757813 
 31 
 0 
 0 
LINE
 10 
 3682.69604492188 
 20 
 2349.96801757813 
 30 
 0 
 11 
 3604.47192382813 
 21 
 2537.17602539063 
 31 
 0 
 0 
LINE
 10 
 3604.47192382813 
 20 
 2537.17602539063 
 30 
 0 
 11 
 3513 
 21 
 2760 
 31 
 0 
 0 
LINE
 10 
 3513 
 20 
 2760 
 30 
 0 
 11 
 3488.76782226563 
 21 
 2819.77612304688 
 31 
 0 
 0 
LINE
 10 
 3488.76782226563 
 20 
 2819.77612304688 
 30 
 0 
 11 
 3466.26391601563 
 21 
 2874.36791992188 
 31 
 0 
 0 
LINE
 10 
 3466.26391601563 
 20 
 2874.36791992188 
 30 
 0 
 11 
 3446.97607421875 
 21 
 2920.27221679688 
 31 
 0 
 0 
LINE
 10 
 3446.97607421875 
 20 
 2920.27221679688 
 30 
 0 
 11 
 3432.39208984375 
 21 
 2953.98413085938 
 31 
 0 
 0 
LINE
 10 
 3432.39208984375 
 20 
 2953.98413085938 
 30 
 0 
 11 
 3424 
 21 
 2972 
 31 
 0 
 0 
LINE
 10 
 3424 
 20 
 2972 
 30 
 0 
 11 
 3410.94384765625 
 21 
 2998.5439453125 
 31 
 0 
 0 
LINE
 10 
 3410.94384765625 
 20 
 2998.5439453125 
 30 
 0 
 11 
 3401.8720703125 
 21 
 3020.19213867188 
 31 
 0 
 0 
LINE
 10 
 3401.8720703125 
 20 
 3020.19213867188 
 30 
 0 
 11 
 3396.92822265625 
 21 
 3036.36791992188 
 31 
 0 
 0 
LINE
 10 
 3396.92822265625 
 20 
 3036.36791992188 
 30 
 0 
 11 
 3396.25610351563 
 21 
 3046.49609375 
 31 
 0 
 0 
LINE
 10 
 3396.25610351563 
 20 
 3046.49609375 
 30 
 0 
 11 
 3400 
 21 
 3050 
 31 
 0 
 0 
LINE
 10 
 3400 
 20 
 3050 
 30 
 0 
 11 
 3405.255859375 
 21 
 3047.15161132813 
 31 
 0 
 0 
LINE
 10 
 3405.255859375 
 20 
 3047.15161132813 
 30 
 0 
 11 
 3414.4482421875 
 21 
 3039.21606445313 
 31 
 0 
 0 
LINE
 10 
 3414.4482421875 
 20 
 3039.21606445313 
 30 
 0 
 11 
 3426.71215820313 
 21 
 3027.10400390625 
 31 
 0 
 0 
LINE
 10 
 3426.71215820313 
 20 
 3027.10400390625 
 30 
 0 
 11 
 3441.18408203125 
 21 
 3011.72802734375 
 31 
 0 
 0 
LINE
 10 
 3441.18408203125 
 20 
 3011.72802734375 
 30 
 0 
 11 
 3457 
 21 
 2994 
 31 
 0 
 0 
LINE
 10 
 3010 
 20 
 2841 
 30 
 0 
 11 
 3004.27954101563 
 21 
 2790.58374023438 
 31 
 0 
 0 
LINE
 10 
 3004.27954101563 
 20 
 2790.58374023438 
 30 
 0 
 11 
 2994.96020507813 
 21 
 2720.39208984375 
 31 
 0 
 0 
LINE
 10 
 2994.96020507813 
 20 
 2720.39208984375 
 30 
 0 
 11 
 2983 
 21 
 2636.80786132813 
 31 
 0 
 0 
LINE
 10 
 2983 
 20 
 2636.80786132813 
 30 
 0 
 11 
 2969.36010742188 
 21 
 2546.21606445313 
 31 
 0 
 0 
LINE
 10 
 2969.36010742188 
 20 
 2546.21606445313 
 30 
 0 
 11 
 2955 
 21 
 2455 
 31 
 0 
 0 
LINE
 10 
 2955 
 20 
 2455 
 30 
 0 
 11 
 2925.01586914063 
 21 
 2269.03173828125 
 31 
 0 
 0 
LINE
 10 
 2925.01586914063 
 20 
 2269.03173828125 
 30 
 0 
 11 
 2905.92822265625 
 21 
 2143.49609375 
 31 
 0 
 0 
LINE
 10 
 2905.92822265625 
 20 
 2143.49609375 
 30 
 0 
 11 
 2894.23193359375 
 21 
 2051.94384765625 
 31 
 0 
 0 
LINE
 10 
 2894.23193359375 
 20 
 2051.94384765625 
 30 
 0 
 11 
 2886.42407226563 
 21 
 1967.92797851563 
 31 
 0 
 0 
LINE
 10 
 2886.42407226563 
 20 
 1967.92797851563 
 30 
 0 
 11 
 2879 
 21 
 1865 
 31 
 0 
 0 
LINE
 10 
 2879 
 20 
 1865 
 30 
 0 
 11 
 2875.06396484375 
 21 
 1789.34399414063 
 31 
 0 
 0 
LINE
 10 
 2875.06396484375 
 20 
 1789.34399414063 
 30 
 0 
 11 
 2872.9521484375 
 21 
 1720.55200195313 
 31 
 0 
 0 
LINE
 10 
 2872.9521484375 
 20 
 1720.55200195313 
 30 
 0 
 11 
 2872.80810546875 
 21 
 1654.68798828125 
 31 
 0 
 0 
LINE
 10 
 2872.80810546875 
 20 
 1654.68798828125 
 30 
 0 
 11 
 2874.77612304688 
 21 
 1587.81604003906 
 31 
 0 
 0 
LINE
 10 
 2874.77612304688 
 20 
 1587.81604003906 
 30 
 0 
 11 
 2879 
 21 
 1516 
 31 
 0 
 0 
LINE
 10 
 2879 
 20 
 1516 
 30 
 0 
 11 
 2882.22387695313 
 21 
 1462.48791503906 
 31 
 0 
 0 
LINE
 10 
 2882.22387695313 
 20 
 1462.48791503906 
 30 
 0 
 11 
 2884.63208007813 
 21 
 1415.50402832031 
 31 
 0 
 0 
LINE
 10 
 2884.63208007813 
 20 
 1415.50402832031 
 30 
 0 
 11 
 2886.1279296875 
 21 
 1377.97595214844 
 31 
 0 
 0 
LINE
 10 
 2886.1279296875 
 20 
 1377.97595214844 
 30 
 0 
 11 
 2886.61596679688 
 21 
 1352.83203125 
 31 
 0 
 0 
LINE
 10 
 2886.61596679688 
 20 
 1352.83203125 
 30 
 0 
 11 
 2886 
 21 
 1343 
 31 
 0 
 0 
LINE
 10 
 2886 
 20 
 1343 
 30 
 0 
 11 
 2884.01586914063 
 21 
 1347.27197265625 
 31 
 0 
 0 
LINE
 10 
 2884.01586914063 
 20 
 1347.27197265625 
 30 
 0 
 11 
 2880.68823242188 
 21 
 1361.33605957031 
 31 
 0 
 0 
LINE
 10 
 2880.68823242188 
 20 
 1361.33605957031 
 30 
 0 
 11 
 2876.35205078125 
 21 
 1383.46398925781 
 31 
 0 
 0 
LINE
 10 
 2876.35205078125 
 20 
 1383.46398925781 
 30 
 0 
 11 
 2871.34399414063 
 21 
 1411.92810058594 
 31 
 0 
 0 
LINE
 10 
 2871.34399414063 
 20 
 1411.92810058594 
 30 
 0 
 11 
 2866 
 21 
 1445 
 31 
 0 
 0 
LINE
 10 
 2866 
 20 
 1445 
 30 
 0 
 11 
 2853.27172851563 
 21 
 1543.56005859375 
 31 
 0 
 0 
LINE
 10 
 2853.27172851563 
 20 
 1543.56005859375 
 30 
 0 
 11 
 2843.13598632813 
 21 
 1654.11999511719 
 31 
 0 
 0 
LINE
 10 
 2843.13598632813 
 20 
 1654.11999511719 
 30 
 0 
 11 
 2836.26416015625 
 21 
 1765.40002441406 
 31 
 0 
 0 
LINE
 10 
 2836.26416015625 
 20 
 1765.40002441406 
 30 
 0 
 11 
 2833.328125 
 21 
 1866.11999511719 
 31 
 0 
 0 
LINE
 10 
 2833.328125 
 20 
 1866.11999511719 
 30 
 0 
 11 
 2835 
 21 
 1945 
 31 
 0 
 0 
LINE
 10 
 2835 
 20 
 1945 
 30 
 0 
 11 
 2840.23999023438 
 21 
 2019.52795410156 
 31 
 0 
 0 
LINE
 10 
 2840.23999023438 
 20 
 2019.52795410156 
 30 
 0 
 11 
 2846.92016601563 
 21 
 2101.54418945313 
 31 
 0 
 0 
LINE
 10 
 2846.92016601563 
 20 
 2101.54418945313 
 30 
 0 
 11 
 2854.080078125 
 21 
 2180.2958984375 
 31 
 0 
 0 
LINE
 10 
 2854.080078125 
 20 
 2180.2958984375 
 30 
 0 
 11 
 2860.76000976563 
 21 
 2245.03198242188 
 31 
 0 
 0 
LINE
 10 
 2860.76000976563 
 20 
 2245.03198242188 
 30 
 0 
 11 
 2866 
 21 
 2285 
 31 
 0 
 0 
LINE
 10 
 2866 
 20 
 2285 
 30 
 0 
 11 
 2865.09594726563 
 21 
 2296.5361328125 
 31 
 0 
 0 
LINE
 10 
 2865.09594726563 
 20 
 2296.5361328125 
 30 
 0 
 11 
 2854.2080078125 
 21 
 2275.2880859375 
 31 
 0 
 0 
LINE
 10 
 2854.2080078125 
 20 
 2275.2880859375 
 30 
 0 
 11 
 2833.671875 
 21 
 2222.07202148438 
 31 
 0 
 0 
LINE
 10 
 2833.671875 
 20 
 2222.07202148438 
 30 
 0 
 11 
 2803.82397460938 
 21 
 2137.7041015625 
 31 
 0 
 0 
LINE
 10 
 2803.82397460938 
 20 
 2137.7041015625 
 30 
 0 
 11 
 2765 
 21 
 2023 
 31 
 0 
 0 
LINE
 10 
 2765 
 20 
 2023 
 30 
 0 
 11 
 2724.32788085938 
 21 
 1899.80773925781 
 31 
 0 
 0 
LINE
 10 
 2724.32788085938 
 20 
 1899.80773925781 
 30 
 0 
 11 
 2692.10400390625 
 21 
 1796.82409667969 
 31 
 0 
 0 
LINE
 10 
 2692.10400390625 
 20 
 1796.82409667969 
 30 
 0 
 11 
 2666.2158203125 
 21 
 1707.13598632813 
 31 
 0 
 0 
LINE
 10 
 2666.2158203125 
 20 
 1707.13598632813 
 30 
 0 
 11 
 2644.55200195313 
 21 
 1623.83203125 
 31 
 0 
 0 
LINE
 10 
 2644.55200195313 
 20 
 1623.83203125 
 30 
 0 
 11 
 2625 
 21 
 1540 
 31 
 0 
 0 
LINE
 10 
 2625 
 20 
 1540 
 30 
 0 
 11 
 2610.75170898438 
 21 
 1481.39990234375 
 31 
 0 
 0 
LINE
 10 
 2610.75170898438 
 20 
 1481.39990234375 
 30 
 0 
 11 
 2602.93603515625 
 21 
 1461.20007324219 
 31 
 0 
 0 
LINE
 10 
 2602.93603515625 
 20 
 1461.20007324219 
 30 
 0 
 11 
 2601.744140625 
 21 
 1477 
 31 
 0 
 0 
LINE
 10 
 2601.744140625 
 20 
 1477 
 30 
 0 
 11 
 2607.3681640625 
 21 
 1526.40002441406 
 31 
 0 
 0 
LINE
 10 
 2607.3681640625 
 20 
 1526.40002441406 
 30 
 0 
 11 
 2620 
 21 
 1607 
 31 
 0 
 0 
LINE
 10 
 2620 
 20 
 1607 
 30 
 0 
 11 
 2649.248046875 
 21 
 1755.5439453125 
 31 
 0 
 0 
LINE
 10 
 2649.248046875 
 20 
 1755.5439453125 
 30 
 0 
 11 
 2688.62426757813 
 21 
 1918.39196777344 
 31 
 0 
 0 
LINE
 10 
 2688.62426757813 
 20 
 1918.39196777344 
 30 
 0 
 11 
 2739.3759765625 
 21 
 2099.76806640625 
 31 
 0 
 0 
LINE
 10 
 2739.3759765625 
 20 
 2099.76806640625 
 30 
 0 
 11 
 2802.75219726563 
 21 
 2303.89599609375 
 31 
 0 
 0 
LINE
 10 
 2802.75219726563 
 20 
 2303.89599609375 
 30 
 0 
 11 
 2880 
 21 
 2535 
 31 
 0 
 0 
LINE
 10 
 2880 
 20 
 2535 
 30 
 0 
 11 
 2917.8720703125 
 21 
 2646.80786132813 
 31 
 0 
 0 
LINE
 10 
 2917.8720703125 
 20 
 2646.80786132813 
 30 
 0 
 11 
 2947.5361328125 
 21 
 2740.423828125 
 31 
 0 
 0 
LINE
 10 
 2947.5361328125 
 20 
 2740.423828125 
 30 
 0 
 11 
 2970.86401367188 
 21 
 2822.13598632813 
 31 
 0 
 0 
LINE
 10 
 2970.86401367188 
 20 
 2822.13598632813 
 30 
 0 
 11 
 2989.72802734375 
 21 
 2898.23193359375 
 31 
 0 
 0 
LINE
 10 
 2989.72802734375 
 20 
 2898.23193359375 
 30 
 0 
 11 
 3006 
 21 
 2975 
 31 
 0 
 0 
LINE
 10 
 3006 
 20 
 2975 
 30 
 0 
 11 
 3009.93603515625 
 21 
 2993.32788085938 
 31 
 0 
 0 
LINE
 10 
 3009.93603515625 
 20 
 2993.32788085938 
 30 
 0 
 11 
 3012.52807617188 
 21 
 3003.06420898438 
 31 
 0 
 0 
LINE
 10 
 3012.52807617188 
 20 
 3003.06420898438 
 30 
 0 
 11 
 3014.35205078125 
 21 
 3004.73608398438 
 31 
 0 
 0 
LINE
 10 
 3014.35205078125 
 20 
 3004.73608398438 
 30 
 0 
 11 
 3015.98413085938 
 21 
 2998.8720703125 
 31 
 0 
 0 
LINE
 10 
 3015.98413085938 
 20 
 2998.8720703125 
 30 
 0 
 11 
 3018 
 21 
 2986 
 31 
 0 
 0 
LINE
 10 
 3018 
 20 
 2986 
 30 
 0 
 11 
 3018.60815429688 
 21 
 2970.43994140625 
 31 
 0 
 0 
LINE
 10 
 3018.60815429688 
 20 
 2970.43994140625 
 30 
 0 
 11 
 3018.06396484375 
 21 
 2945.76000976563 
 31 
 0 
 0 
LINE
 10 
 3018.06396484375 
 20 
 2945.76000976563 
 30 
 0 
 11 
 3016.416015625 
 21 
 2914.35986328125 
 31 
 0 
 0 
LINE
 10 
 3016.416015625 
 20 
 2914.35986328125 
 30 
 0 
 11 
 3013.7119140625 
 21 
 2878.64013671875 
 31 
 0 
 0 
LINE
 10 
 3013.7119140625 
 20 
 2878.64013671875 
 30 
 0 
 11 
 3010 
 21 
 2841 
 31 
 0 
 0 
LINE
 10 
 3399 
 20 
 2905 
 30 
 0 
 11 
 3409.3916015625 
 21 
 2861.423828125 
 31 
 0 
 0 
LINE
 10 
 3409.3916015625 
 20 
 2861.423828125 
 30 
 0 
 11 
 3426.21606445313 
 21 
 2800.47216796875 
 31 
 0 
 0 
LINE
 10 
 3426.21606445313 
 20 
 2800.47216796875 
 30 
 0 
 11 
 3447.744140625 
 21 
 2727.80810546875 
 31 
 0 
 0 
LINE
 10 
 3447.744140625 
 20 
 2727.80810546875 
 30 
 0 
 11 
 3472.248046875 
 21 
 2649.09594726563 
 31 
 0 
 0 
LINE
 10 
 3472.248046875 
 20 
 2649.09594726563 
 30 
 0 
 11 
 3498 
 21 
 2570 
 31 
 0 
 0 
LINE
 10 
 3498 
 20 
 2570 
 30 
 0 
 11 
 3584.5595703125 
 21 
 2307.31201171875 
 31 
 0 
 0 
LINE
 10 
 3584.5595703125 
 20 
 2307.31201171875 
 30 
 0 
 11 
 3651.92016601563 
 21 
 2090.416015625 
 31 
 0 
 0 
LINE
 10 
 3651.92016601563 
 20 
 2090.416015625 
 30 
 0 
 11 
 3703.19995117188 
 21 
 1908.46398925781 
 31 
 0 
 0 
LINE
 10 
 3703.19995117188 
 20 
 1908.46398925781 
 30 
 0 
 11 
 3741.52001953125 
 21 
 1750.60803222656 
 31 
 0 
 0 
LINE
 10 
 3741.52001953125 
 20 
 1750.60803222656 
 30 
 0 
 11 
 3770 
 21 
 1606 
 31 
 0 
 0 
LINE
 10 
 3770 
 20 
 1606 
 30 
 0 
 11 
 3780.34375 
 21 
 1538.32800292969 
 31 
 0 
 0 
LINE
 10 
 3780.34375 
 20 
 1538.32800292969 
 30 
 0 
 11 
 3786.9921875 
 21 
 1484.86401367188 
 31 
 0 
 0 
LINE
 10 
 3786.9921875 
 20 
 1484.86401367188 
 30 
 0 
 11 
 3789.3681640625 
 21 
 1452.13598632813 
 31 
 0 
 0 
LINE
 10 
 3789.3681640625 
 20 
 1452.13598632813 
 30 
 0 
 11 
 3786.89599609375 
 21 
 1446.67199707031 
 31 
 0 
 0 
LINE
 10 
 3786.89599609375 
 20 
 1446.67199707031 
 30 
 0 
 11 
 3779 
 21 
 1475 
 31 
 0 
 0 
LINE
 10 
 3779 
 20 
 1475 
 30 
 0 
 11 
 3758.64013671875 
 21 
 1563.51184082031 
 31 
 0 
 0 
LINE
 10 
 3758.64013671875 
 20 
 1563.51184082031 
 30 
 0 
 11 
 3738.04028320313 
 21 
 1646.69604492188 
 31 
 0 
 0 
LINE
 10 
 3738.04028320313 
 20 
 1646.69604492188 
 30 
 0 
 11 
 3716.71997070313 
 21 
 1726.42407226563 
 31 
 0 
 0 
LINE
 10 
 3716.71997070313 
 20 
 1726.42407226563 
 30 
 0 
 11 
 3694.2001953125 
 21 
 1804.56799316406 
 31 
 0 
 0 
LINE
 10 
 3694.2001953125 
 20 
 1804.56799316406 
 30 
 0 
 11 
 3670 
 21 
 1883 
 31 
 0 
 0 
LINE
 10 
 3670 
 20 
 1883 
 30 
 0 
 11 
 3634.759765625 
 21 
 1990.1279296875 
 31 
 0 
 0 
LINE
 10 
 3634.759765625 
 20 
 1990.1279296875 
 30 
 0 
 11 
 3594.48022460938 
 21 
 2106.90405273438 
 31 
 0 
 0 
LINE
 10 
 3594.48022460938 
 20 
 2106.90405273438 
 30 
 0 
 11 
 3557.32006835938 
 21 
 2210.81616210938 
 31 
 0 
 0 
LINE
 10 
 3557.32006835938 
 20 
 2210.81616210938 
 30 
 0 
 11 
 3531.44018554688 
 21 
 2279.35205078125 
 31 
 0 
 0 
LINE
 10 
 3531.44018554688 
 20 
 2279.35205078125 
 30 
 0 
 11 
 3525 
 21 
 2290 
 31 
 0 
 0 
LINE
 10 
 3525 
 20 
 2290 
 30 
 0 
 11 
 3527.087890625 
 21 
 2272.34399414063 
 31 
 0 
 0 
LINE
 10 
 3527.087890625 
 20 
 2272.34399414063 
 30 
 0 
 11 
 3530.6640625 
 21 
 2238.51220703125 
 31 
 0 
 0 
LINE
 10 
 3530.6640625 
 20 
 2238.51220703125 
 30 
 0 
 11 
 3535.29614257813 
 21 
 2192.00805664063 
 31 
 0 
 0 
LINE
 10 
 3535.29614257813 
 20 
 2192.00805664063 
 30 
 0 
 11 
 3540.55200195313 
 21 
 2136.33618164063 
 31 
 0 
 0 
LINE
 10 
 3540.55200195313 
 20 
 2136.33618164063 
 30 
 0 
 11 
 3546 
 21 
 2075 
 31 
 0 
 0 
LINE
 10 
 3546 
 20 
 2075 
 30 
 0 
 11 
 3553.77587890625 
 21 
 1957.66394042969 
 31 
 0 
 0 
LINE
 10 
 3553.77587890625 
 20 
 1957.66394042969 
 30 
 0 
 11 
 3556.60815429688 
 21 
 1848.39208984375 
 31 
 0 
 0 
LINE
 10 
 3556.60815429688 
 20 
 1848.39208984375 
 30 
 0 
 11 
 3554.35180664063 
 21 
 1742.28796386719 
 31 
 0 
 0 
LINE
 10 
 3554.35180664063 
 20 
 1742.28796386719 
 30 
 0 
 11 
 3546.8642578125 
 21 
 1634.4560546875 
 31 
 0 
 0 
LINE
 10 
 3546.8642578125 
 20 
 1634.4560546875 
 30 
 0 
 11 
 3534 
 21 
 1520 
 31 
 0 
 0 
LINE
 10 
 3534 
 20 
 1520 
 30 
 0 
 11 
 3523.78393554688 
 21 
 1445.61596679688 
 31 
 0 
 0 
LINE
 10 
 3523.78393554688 
 20 
 1445.61596679688 
 30 
 0 
 11 
 3514.43212890625 
 21 
 1389.56799316406 
 31 
 0 
 0 
LINE
 10 
 3514.43212890625 
 20 
 1389.56799316406 
 30 
 0 
 11 
 3507.2880859375 
 21 
 1357.71203613281 
 31 
 0 
 0 
LINE
 10 
 3507.2880859375 
 20 
 1357.71203613281 
 30 
 0 
 11 
 3503.69604492188 
 21 
 1355.90405273438 
 31 
 0 
 0 
LINE
 10 
 3503.69604492188 
 20 
 1355.90405273438 
 30 
 0 
 11 
 3505 
 21 
 1390 
 31 
 0 
 0 
LINE
 10 
 3505 
 20 
 1390 
 30 
 0 
 11 
 3514.7919921875 
 21 
 1560.34399414063 
 31 
 0 
 0 
LINE
 10 
 3514.7919921875 
 20 
 1560.34399414063 
 30 
 0 
 11 
 3516.37622070313 
 21 
 1725.31213378906 
 31 
 0 
 0 
LINE
 10 
 3516.37622070313 
 20 
 1725.31213378906 
 30 
 0 
 11 
 3509.4638671875 
 21 
 1889.60803222656 
 31 
 0 
 0 
LINE
 10 
 3509.4638671875 
 20 
 1889.60803222656 
 30 
 0 
 11 
 3493.76806640625 
 21 
 2057.93603515625 
 31 
 0 
 0 
LINE
 10 
 3493.76806640625 
 20 
 2057.93603515625 
 30 
 0 
 11 
 3469 
 21 
 2235 
 31 
 0 
 0 
LINE
 10 
 3469 
 20 
 2235 
 30 
 0 
 11 
 3453.24780273438 
 21 
 2333.78393554688 
 31 
 0 
 0 
LINE
 10 
 3453.24780273438 
 20 
 2333.78393554688 
 30 
 0 
 11 
 3439.7041015625 
 21 
 2419.03198242188 
 31 
 0 
 0 
LINE
 10 
 3439.7041015625 
 20 
 2419.03198242188 
 30 
 0 
 11 
 3426.73608398438 
 21 
 2501.68798828125 
 31 
 0 
 0 
LINE
 10 
 3426.73608398438 
 20 
 2501.68798828125 
 30 
 0 
 11 
 3412.71215820313 
 21 
 2592.69604492188 
 31 
 0 
 0 
LINE
 10 
 3412.71215820313 
 20 
 2592.69604492188 
 30 
 0 
 11 
 3396 
 21 
 2703 
 31 
 0 
 0 
LINE
 10 
 3396 
 20 
 2703 
 30 
 0 
 11 
 3386.59985351563 
 21 
 2775.63208007813 
 31 
 0 
 0 
LINE
 10 
 3386.59985351563 
 20 
 2775.63208007813 
 30 
 0 
 11 
 3378.40014648438 
 21 
 2858.2958984375 
 31 
 0 
 0 
LINE
 10 
 3378.40014648438 
 20 
 2858.2958984375 
 30 
 0 
 11 
 3372.60009765625 
 21 
 2935.34423828125 
 31 
 0 
 0 
LINE
 10 
 3372.60009765625 
 20 
 2935.34423828125 
 30 
 0 
 11 
 3370.40014648438 
 21 
 2991.1279296875 
 31 
 0 
 0 
LINE
 10 
 3370.40014648438 
 20 
 2991.1279296875 
 30 
 0 
 11 
 3373 
 21 
 3010 
 31 
 0 
 0 
LINE
 10 
 3373 
 20 
 3010 
 30 
 0 
 11 
 3375.7998046875 
 21 
 3003.20776367188 
 31 
 0 
 0 
LINE
 10 
 3375.7998046875 
 20 
 3003.20776367188 
 30 
 0 
 11 
 3380.28002929688 
 21 
 2987.583984375 
 31 
 0 
 0 
LINE
 10 
 3380.28002929688 
 20 
 2987.583984375 
 30 
 0 
 11 
 3385.9599609375 
 21 
 2964.85595703125 
 31 
 0 
 0 
LINE
 10 
 3385.9599609375 
 20 
 2964.85595703125 
 30 
 0 
 11 
 3392.36010742188 
 21 
 2936.751953125 
 31 
 0 
 0 
LINE
 10 
 3392.36010742188 
 20 
 2936.751953125 
 30 
 0 
 11 
 3399 
 21 
 2905 
 31 
 0 
 0 
LINE
 10 
 1594 
 20 
 2868 
 30 
 0 
 11 
 1603.99194335938 
 21 
 2838.43994140625 
 31 
 0 
 0 
LINE
 10 
 1603.99194335938 
 20 
 2838.43994140625 
 30 
 0 
 11 
 1600.97607421875 
 21 
 2799.52001953125 
 31 
 0 
 0 
LINE
 10 
 1600.97607421875 
 20 
 2799.52001953125 
 30 
 0 
 11 
 1585.86401367188 
 21 
 2753.88012695313 
 31 
 0 
 0 
LINE
 10 
 1585.86401367188 
 20 
 2753.88012695313 
 30 
 0 
 11 
 1559.56799316406 
 21 
 2704.16015625 
 31 
 0 
 0 
LINE
 10 
 1559.56799316406 
 20 
 2704.16015625 
 30 
 0 
 11 
 1523 
 21 
 2653 
 31 
 0 
 0 
LINE
 10 
 1523 
 20 
 2653 
 30 
 0 
 11 
 1502.8798828125 
 21 
 2629.86376953125 
 31 
 0 
 0 
LINE
 10 
 1502.8798828125 
 20 
 2629.86376953125 
 30 
 0 
 11 
 1486.83996582031 
 21 
 2615.0322265625 
 31 
 0 
 0 
LINE
 10 
 1486.83996582031 
 20 
 2615.0322265625 
 30 
 0 
 11 
 1476.56005859375 
 21 
 2609.36791992188 
 31 
 0 
 0 
LINE
 10 
 1476.56005859375 
 20 
 2609.36791992188 
 30 
 0 
 11 
 1473.72009277344 
 21 
 2613.73608398438 
 31 
 0 
 0 
LINE
 10 
 1473.72009277344 
 20 
 2613.73608398438 
 30 
 0 
 11 
 1480 
 21 
 2629 
 31 
 0 
 0 
LINE
 10 
 1480 
 20 
 2629 
 30 
 0 
 11 
 1488.69604492188 
 21 
 2652.927734375 
 31 
 0 
 0 
LINE
 10 
 1488.69604492188 
 20 
 2652.927734375 
 30 
 0 
 11 
 1491.00793457031 
 21 
 2677.86401367188 
 31 
 0 
 0 
LINE
 10 
 1491.00793457031 
 20 
 2677.86401367188 
 30 
 0 
 11 
 1487.27209472656 
 21 
 2701.93603515625 
 31 
 0 
 0 
LINE
 10 
 1487.27209472656 
 20 
 2701.93603515625 
 30 
 0 
 11 
 1477.82409667969 
 21 
 2723.27197265625 
 31 
 0 
 0 
LINE
 10 
 1477.82409667969 
 20 
 2723.27197265625 
 30 
 0 
 11 
 1463 
 21 
 2740 
 31 
 0 
 0 
LINE
 10 
 1463 
 20 
 2740 
 30 
 0 
 11 
 1448.35192871094 
 21 
 2750.2080078125 
 31 
 0 
 0 
LINE
 10 
 1448.35192871094 
 20 
 2750.2080078125 
 30 
 0 
 11 
 1434.37609863281 
 21 
 2755.6640625 
 31 
 0 
 0 
LINE
 10 
 1434.37609863281 
 20 
 2755.6640625 
 30 
 0 
 11 
 1417.42395019531 
 21 
 2756.416015625 
 31 
 0 
 0 
LINE
 10 
 1417.42395019531 
 20 
 2756.416015625 
 30 
 0 
 11 
 1393.84802246094 
 21 
 2752.51196289063 
 31 
 0 
 0 
LINE
 10 
 1393.84802246094 
 20 
 2752.51196289063 
 30 
 0 
 11 
 1360 
 21 
 2744 
 31 
 0 
 0 
LINE
 10 
 1360 
 20 
 2744 
 30 
 0 
 11 
 1349.7919921875 
 21 
 2741.927734375 
 31 
 0 
 0 
LINE
 10 
 1349.7919921875 
 20 
 2741.927734375 
 30 
 0 
 11 
 1346.01599121094 
 21 
 2743.744140625 
 31 
 0 
 0 
LINE
 10 
 1346.01599121094 
 20 
 2743.744140625 
 30 
 0 
 11 
 1349.34411621094 
 21 
 2750.69604492188 
 31 
 0 
 0 
LINE
 10 
 1349.34411621094 
 20 
 2750.69604492188 
 30 
 0 
 11 
 1360.44799804688 
 21 
 2764.03198242188 
 31 
 0 
 0 
LINE
 10 
 1360.44799804688 
 20 
 2764.03198242188 
 30 
 0 
 11 
 1380 
 21 
 2785 
 31 
 0 
 0 
LINE
 10 
 1380 
 20 
 2785 
 30 
 0 
 11 
 1434.31994628906 
 21 
 2835.48803710938 
 31 
 0 
 0 
LINE
 10 
 1434.31994628906 
 20 
 2835.48803710938 
 30 
 0 
 11 
 1485.28002929688 
 21 
 2869.94409179688 
 31 
 0 
 0 
LINE
 10 
 1485.28002929688 
 20 
 2869.94409179688 
 30 
 0 
 11 
 1530.48010253906 
 21 
 2887.4560546875 
 31 
 0 
 0 
LINE
 10 
 1530.48010253906 
 20 
 2887.4560546875 
 30 
 0 
 11 
 1567.52001953125 
 21 
 2887.11206054688 
 31 
 0 
 0 
LINE
 10 
 1567.52001953125 
 20 
 2887.11206054688 
 30 
 0 
 11 
 1594 
 21 
 2868 
 31 
 0 
 0 
LINE
 10 
 4898 
 20 
 2871 
 30 
 0 
 11 
 4912.60009765625 
 21 
 2861.9599609375 
 31 
 0 
 0 
LINE
 10 
 4912.60009765625 
 20 
 2861.9599609375 
 30 
 0 
 11 
 4931.2802734375 
 21 
 2848.84008789063 
 31 
 0 
 0 
LINE
 10 
 4931.2802734375 
 20 
 2848.84008789063 
 30 
 0 
 11 
 4952.35986328125 
 21 
 2832.84008789063 
 31 
 0 
 0 
LINE
 10 
 4952.35986328125 
 20 
 2832.84008789063 
 30 
 0 
 11 
 4974.16015625 
 21 
 2815.15991210938 
 31 
 0 
 0 
LINE
 10 
 4974.16015625 
 20 
 2815.15991210938 
 30 
 0 
 11 
 4995 
 21 
 2797 
 31 
 0 
 0 
LINE
 10 
 4995 
 20 
 2797 
 30 
 0 
 11 
 5055 
 21 
 2742 
 31 
 0 
 0 
LINE
 10 
 5055 
 20 
 2742 
 30 
 0 
 11 
 4999 
 21 
 2747 
 31 
 0 
 0 
LINE
 10 
 4999 
 20 
 2747 
 30 
 0 
 11 
 4972.93603515625 
 21 
 2749.11987304688 
 31 
 0 
 0 
LINE
 10 
 4972.93603515625 
 20 
 2749.11987304688 
 30 
 0 
 11 
 4955.1279296875 
 21 
 2748.84008789063 
 31 
 0 
 0 
LINE
 10 
 4955.1279296875 
 20 
 2748.84008789063 
 30 
 0 
 11 
 4942.55224609375 
 21 
 2745.19995117188 
 31 
 0 
 0 
LINE
 10 
 4942.55224609375 
 20 
 2745.19995117188 
 30 
 0 
 11 
 4932.18408203125 
 21 
 2737.23999023438 
 31 
 0 
 0 
LINE
 10 
 4932.18408203125 
 20 
 2737.23999023438 
 30 
 0 
 11 
 4921 
 21 
 2724 
 31 
 0 
 0 
LINE
 10 
 4921 
 20 
 2724 
 30 
 0 
 11 
 4909.82373046875 
 21 
 2706.423828125 
 31 
 0 
 0 
LINE
 10 
 4909.82373046875 
 20 
 2706.423828125 
 30 
 0 
 11 
 4903.83203125 
 21 
 2687.79223632813 
 31 
 0 
 0 
LINE
 10 
 4903.83203125 
 20 
 2687.79223632813 
 30 
 0 
 11 
 4902.92822265625 
 21 
 2667.04809570313 
 31 
 0 
 0 
LINE
 10 
 4902.92822265625 
 20 
 2667.04809570313 
 30 
 0 
 11 
 4907.01611328125 
 21 
 2643.13598632813 
 31 
 0 
 0 
LINE
 10 
 4907.01611328125 
 20 
 2643.13598632813 
 30 
 0 
 11 
 4916 
 21 
 2615 
 31 
 0 
 0 
LINE
 10 
 4916 
 20 
 2615 
 30 
 0 
 11 
 4915.5517578125 
 21 
 2604.19995117188 
 31 
 0 
 0 
LINE
 10 
 4915.5517578125 
 20 
 2604.19995117188 
 30 
 0 
 11 
 4900.17578125 
 21 
 2615.47998046875 
 31 
 0 
 0 
LINE
 10 
 4900.17578125 
 20 
 2615.47998046875 
 30 
 0 
 11 
 4875.82373046875 
 21 
 2642.36010742188 
 31 
 0 
 0 
LINE
 10 
 4875.82373046875 
 20 
 2642.36010742188 
 30 
 0 
 11 
 4848.4482421875 
 21 
 2678.36010742188 
 31 
 0 
 0 
LINE
 10 
 4848.4482421875 
 20 
 2678.36010742188 
 30 
 0 
 11 
 4824 
 21 
 2717 
 31 
 0 
 0 
LINE
 10 
 4824 
 20 
 2717 
 30 
 0 
 11 
 4793.2958984375 
 21 
 2787.83178710938 
 31 
 0 
 0 
LINE
 10 
 4793.2958984375 
 20 
 2787.83178710938 
 30 
 0 
 11 
 4787.408203125 
 21 
 2842.77587890625 
 31 
 0 
 0 
LINE
 10 
 4787.408203125 
 20 
 2842.77587890625 
 30 
 0 
 11 
 4804.27197265625 
 21 
 2877.70385742188 
 31 
 0 
 0 
LINE
 10 
 4804.27197265625 
 20 
 2877.70385742188 
 30 
 0 
 11 
 4841.82421875 
 21 
 2888.48803710938 
 31 
 0 
 0 
LINE
 10 
 4841.82421875 
 20 
 2888.48803710938 
 30 
 0 
 11 
 4898 
 21 
 2871 
 31 
 0 
 0 
LINE
 10 
 1796 
 20 
 2675 
 30 
 0 
 11 
 1802.36804199219 
 21 
 2663.94384765625 
 31 
 0 
 0 
LINE
 10 
 1802.36804199219 
 20 
 2663.94384765625 
 30 
 0 
 11 
 1805.90393066406 
 21 
 2653.751953125 
 31 
 0 
 0 
LINE
 10 
 1805.90393066406 
 20 
 2653.751953125 
 30 
 0 
 11 
 1806.65600585938 
 21 
 2642.88793945313 
 31 
 0 
 0 
LINE
 10 
 1806.65600585938 
 20 
 2642.88793945313 
 30 
 0 
 11 
 1804.67199707031 
 21 
 2629.81591796875 
 31 
 0 
 0 
LINE
 10 
 1804.67199707031 
 20 
 2629.81591796875 
 30 
 0 
 11 
 1800 
 21 
 2613 
 31 
 0 
 0 
LINE
 10 
 1800 
 20 
 2613 
 30 
 0 
 11 
 1785.3359375 
 21 
 2580.51196289063 
 31 
 0 
 0 
LINE
 10 
 1785.3359375 
 20 
 2580.51196289063 
 30 
 0 
 11 
 1761.40808105469 
 21 
 2537.65600585938 
 31 
 0 
 0 
LINE
 10 
 1761.40808105469 
 20 
 2537.65600585938 
 30 
 0 
 11 
 1733.11206054688 
 21 
 2492.5439453125 
 31 
 0 
 0 
LINE
 10 
 1733.11206054688 
 20 
 2492.5439453125 
 30 
 0 
 11 
 1705.34399414063 
 21 
 2453.2880859375 
 31 
 0 
 0 
LINE
 10 
 1705.34399414063 
 20 
 2453.2880859375 
 30 
 0 
 11 
 1683 
 21 
 2428 
 31 
 0 
 0 
LINE
 10 
 1683 
 20 
 2428 
 30 
 0 
 11 
 1674.59985351563 
 21 
 2420.86376953125 
 31 
 0 
 0 
LINE
 10 
 1674.59985351563 
 20 
 2420.86376953125 
 30 
 0 
 11 
 1669.32006835938 
 21 
 2419.8720703125 
 31 
 0 
 0 
LINE
 10 
 1669.32006835938 
 20 
 2419.8720703125 
 30 
 0 
 11 
 1666.43994140625 
 21 
 2426.84814453125 
 31 
 0 
 0 
LINE
 10 
 1666.43994140625 
 20 
 2426.84814453125 
 30 
 0 
 11 
 1665.23999023438 
 21 
 2443.61596679688 
 31 
 0 
 0 
LINE
 10 
 1665.23999023438 
 20 
 2443.61596679688 
 30 
 0 
 11 
 1665 
 21 
 2472 
 31 
 0 
 0 
LINE
 10 
 1665 
 20 
 2472 
 30 
 0 
 11 
 1662.74401855469 
 21 
 2509.416015625 
 31 
 0 
 0 
LINE
 10 
 1662.74401855469 
 20 
 2509.416015625 
 30 
 0 
 11 
 1655.11206054688 
 21 
 2534.92822265625 
 31 
 0 
 0 
LINE
 10 
 1655.11206054688 
 20 
 2534.92822265625 
 30 
 0 
 11 
 1640.80798339844 
 21 
 2549.83203125 
 31 
 0 
 0 
LINE
 10 
 1640.80798339844 
 20 
 2549.83203125 
 30 
 0 
 11 
 1618.53601074219 
 21 
 2555.42407226563 
 31 
 0 
 0 
LINE
 10 
 1618.53601074219 
 20 
 2555.42407226563 
 30 
 0 
 11 
 1587 
 21 
 2553 
 31 
 0 
 0 
LINE
 10 
 1587 
 20 
 2553 
 30 
 0 
 11 
 1569.2958984375 
 21 
 2550.70385742188 
 31 
 0 
 0 
LINE
 10 
 1569.2958984375 
 20 
 2550.70385742188 
 30 
 0 
 11 
 1558.64807128906 
 21 
 2550.23217773438 
 31 
 0 
 0 
LINE
 10 
 1558.64807128906 
 20 
 2550.23217773438 
 30 
 0 
 11 
 1553.95202636719 
 21 
 2552.2080078125 
 31 
 0 
 0 
LINE
 10 
 1553.95202636719 
 20 
 2552.2080078125 
 30 
 0 
 11 
 1554.10400390625 
 21 
 2557.25610351563 
 31 
 0 
 0 
LINE
 10 
 1554.10400390625 
 20 
 2557.25610351563 
 30 
 0 
 11 
 1558 
 21 
 2566 
 31 
 0 
 0 
LINE
 10 
 1558 
 20 
 2566 
 30 
 0 
 11 
 1563.05603027344 
 21 
 2573.40771484375 
 31 
 0 
 0 
LINE
 10 
 1563.05603027344 
 20 
 2573.40771484375 
 30 
 0 
 11 
 1570.60803222656 
 21 
 2583.02416992188 
 31 
 0 
 0 
LINE
 10 
 1570.60803222656 
 20 
 2583.02416992188 
 30 
 0 
 11 
 1580.03198242188 
 21 
 2593.93603515625 
 31 
 0 
 0 
LINE
 10 
 1580.03198242188 
 20 
 2593.93603515625 
 30 
 0 
 11 
 1590.70397949219 
 21 
 2605.23193359375 
 31 
 0 
 0 
LINE
 10 
 1590.70397949219 
 20 
 2605.23193359375 
 30 
 0 
 11 
 1602 
 21 
 2616 
 31 
 0 
 0 
LINE
 10 
 1602 
 20 
 2616 
 30 
 0 
 11 
 1653.75988769531 
 21 
 2658.99975585938 
 31 
 0 
 0 
LINE
 10 
 1653.75988769531 
 20 
 2658.99975585938 
 30 
 0 
 11 
 1700.23999023438 
 21 
 2686.88012695313 
 31 
 0 
 0 
LINE
 10 
 1700.23999023438 
 20 
 2686.88012695313 
 30 
 0 
 11 
 1740.23999023438 
 21 
 2699.15991210938 
 31 
 0 
 0 
LINE
 10 
 1740.23999023438 
 20 
 2699.15991210938 
 30 
 0 
 11 
 1772.56005859375 
 21 
 2695.36010742188 
 31 
 0 
 0 
LINE
 10 
 1772.56005859375 
 20 
 2695.36010742188 
 30 
 0 
 11 
 1796 
 21 
 2675 
 31 
 0 
 0 
LINE
 10 
 4694 
 20 
 2680 
 30 
 0 
 11 
 4710.05615234375 
 21 
 2670.73583984375 
 31 
 0 
 0 
LINE
 10 
 4710.05615234375 
 20 
 2670.73583984375 
 30 
 0 
 11 
 4729.56787109375 
 21 
 2657.00830078125 
 31 
 0 
 0 
LINE
 10 
 4729.56787109375 
 20 
 2657.00830078125 
 30 
 0 
 11 
 4750.9521484375 
 21 
 2640.11206054688 
 31 
 0 
 0 
LINE
 10 
 4750.9521484375 
 20 
 2640.11206054688 
 30 
 0 
 11 
 4772.6240234375 
 21 
 2621.34399414063 
 31 
 0 
 0 
LINE
 10 
 4772.6240234375 
 20 
 2621.34399414063 
 30 
 0 
 11 
 4793 
 21 
 2602 
 31 
 0 
 0 
LINE
 10 
 4793 
 20 
 2602 
 30 
 0 
 11 
 4851 
 21 
 2543 
 31 
 0 
 0 
LINE
 10 
 4851 
 20 
 2543 
 30 
 0 
 11 
 4797 
 21 
 2548 
 31 
 0 
 0 
LINE
 10 
 4797 
 20 
 2548 
 30 
 0 
 11 
 4772.27197265625 
 21 
 2549.583984375 
 31 
 0 
 0 
LINE
 10 
 4772.27197265625 
 20 
 2549.583984375 
 30 
 0 
 11 
 4755.41650390625 
 21 
 2549.15209960938 
 31 
 0 
 0 
LINE
 10 
 4755.41650390625 
 20 
 2549.15209960938 
 30 
 0 
 11 
 4744.22412109375 
 21 
 2546.1279296875 
 31 
 0 
 0 
LINE
 10 
 4744.22412109375 
 20 
 2546.1279296875 
 30 
 0 
 11 
 4736.48828125 
 21 
 2539.93603515625 
 31 
 0 
 0 
LINE
 10 
 4736.48828125 
 20 
 2539.93603515625 
 30 
 0 
 11 
 4730 
 21 
 2530 
 31 
 0 
 0 
LINE
 10 
 4730 
 20 
 2530 
 30 
 0 
 11 
 4725.912109375 
 21 
 2519.49584960938 
 31 
 0 
 0 
LINE
 10 
 4725.912109375 
 20 
 2519.49584960938 
 30 
 0 
 11 
 4723.2158203125 
 21 
 2506.2080078125 
 31 
 0 
 0 
LINE
 10 
 4723.2158203125 
 20 
 2506.2080078125 
 30 
 0 
 11 
 4721.8642578125 
 21 
 2490.47192382813 
 31 
 0 
 0 
LINE
 10 
 4721.8642578125 
 20 
 2490.47192382813 
 30 
 0 
 11 
 4721.80810546875 
 21 
 2472.6240234375 
 31 
 0 
 0 
LINE
 10 
 4721.80810546875 
 20 
 2472.6240234375 
 30 
 0 
 11 
 4723 
 21 
 2453 
 31 
 0 
 0 
LINE
 10 
 4723 
 20 
 2453 
 30 
 0 
 11 
 4729 
 21 
 2400 
 31 
 0 
 0 
LINE
 10 
 4729 
 20 
 2400 
 30 
 0 
 11 
 4706 
 21 
 2428 
 31 
 0 
 0 
LINE
 10 
 4706 
 20 
 2428 
 30 
 0 
 11 
 4663.65625 
 21 
 2484.00805664063 
 31 
 0 
 0 
LINE
 10 
 4663.65625 
 20 
 2484.00805664063 
 30 
 0 
 11 
 4628.1279296875 
 21 
 2539.82397460938 
 31 
 0 
 0 
LINE
 10 
 4628.1279296875 
 20 
 2539.82397460938 
 30 
 0 
 11 
 4601.671875 
 21 
 2590.93603515625 
 31 
 0 
 0 
LINE
 10 
 4601.671875 
 20 
 2590.93603515625 
 30 
 0 
 11 
 4586.5439453125 
 21 
 2632.83203125 
 31 
 0 
 0 
LINE
 10 
 4586.5439453125 
 20 
 2632.83203125 
 30 
 0 
 11 
 4585 
 21 
 2661 
 31 
 0 
 0 
LINE
 10 
 4585 
 20 
 2661 
 30 
 0 
 11 
 4591.03955078125 
 21 
 2671.76806640625 
 31 
 0 
 0 
LINE
 10 
 4591.03955078125 
 20 
 2671.76806640625 
 30 
 0 
 11 
 4601.16015625 
 21 
 2681.86401367188 
 31 
 0 
 0 
LINE
 10 
 4601.16015625 
 20 
 2681.86401367188 
 30 
 0 
 11 
 4614.16015625 
 21 
 2690.37622070313 
 31 
 0 
 0 
LINE
 10 
 4614.16015625 
 20 
 2690.37622070313 
 30 
 0 
 11 
 4628.84033203125 
 21 
 2696.39208984375 
 31 
 0 
 0 
LINE
 10 
 4628.84033203125 
 20 
 2696.39208984375 
 30 
 0 
 11 
 4644 
 21 
 2699 
 31 
 0 
 0 
LINE
 10 
 4644 
 20 
 2699 
 30 
 0 
 11 
 4649.0078125 
 21 
 2698.4638671875 
 31 
 0 
 0 
LINE
 10 
 4649.0078125 
 20 
 2698.4638671875 
 30 
 0 
 11 
 4657.423828125 
 21 
 2695.912109375 
 31 
 0 
 0 
LINE
 10 
 4657.423828125 
 20 
 2695.912109375 
 30 
 0 
 11 
 4668.3359375 
 21 
 2691.72802734375 
 31 
 0 
 0 
LINE
 10 
 4668.3359375 
 20 
 2691.72802734375 
 30 
 0 
 11 
 4680.83203125 
 21 
 2686.29614257813 
 31 
 0 
 0 
LINE
 10 
 4680.83203125 
 20 
 2686.29614257813 
 30 
 0 
 11 
 4694 
 21 
 2680 
 31 
 0 
 0 
LINE
 10 
 3104 
 20 
 2333 
 30 
 0 
 11 
 3106.49584960938 
 21 
 2284.42407226563 
 31 
 0 
 0 
LINE
 10 
 3106.49584960938 
 20 
 2284.42407226563 
 30 
 0 
 11 
 3109.08813476563 
 21 
 2239.11206054688 
 31 
 0 
 0 
LINE
 10 
 3109.08813476563 
 20 
 2239.11206054688 
 30 
 0 
 11 
 3111.63208007813 
 21 
 2200.087890625 
 31 
 0 
 0 
LINE
 10 
 3111.63208007813 
 20 
 2200.087890625 
 30 
 0 
 11 
 3113.98413085938 
 21 
 2170.3759765625 
 31 
 0 
 0 
LINE
 10 
 3113.98413085938 
 20 
 2170.3759765625 
 30 
 0 
 11 
 3116 
 21 
 2153 
 31 
 0 
 0 
LINE
 10 
 3116 
 20 
 2153 
 30 
 0 
 11 
 3118.01611328125 
 21 
 2137.66381835938 
 31 
 0 
 0 
LINE
 10 
 3118.01611328125 
 20 
 2137.66381835938 
 30 
 0 
 11 
 3117.48803710938 
 21 
 2127.99194335938 
 31 
 0 
 0 
LINE
 10 
 3117.48803710938 
 20 
 2127.99194335938 
 30 
 0 
 11 
 3113.55200195313 
 21 
 2122.68798828125 
 31 
 0 
 0 
LINE
 10 
 3113.55200195313 
 20 
 2122.68798828125 
 30 
 0 
 11 
 3105.34399414063 
 21 
 2120.4560546875 
 31 
 0 
 0 
LINE
 10 
 3105.34399414063 
 20 
 2120.4560546875 
 30 
 0 
 11 
 3092 
 21 
 2120 
 31 
 0 
 0 
LINE
 10 
 3092 
 20 
 2120 
 30 
 0 
 11 
 3077.7919921875 
 21 
 2120.61572265625 
 31 
 0 
 0 
LINE
 10 
 3077.7919921875 
 20 
 2120.61572265625 
 30 
 0 
 11 
 3068.81616210938 
 21 
 2124.92797851563 
 31 
 0 
 0 
LINE
 10 
 3068.81616210938 
 20 
 2124.92797851563 
 30 
 0 
 11 
 3063.34399414063 
 21 
 2136.63208007813 
 31 
 0 
 0 
LINE
 10 
 3063.34399414063 
 20 
 2136.63208007813 
 30 
 0 
 11 
 3059.64794921875 
 21 
 2159.42407226563 
 31 
 0 
 0 
LINE
 10 
 3059.64794921875 
 20 
 2159.42407226563 
 30 
 0 
 11 
 3056 
 21 
 2197 
 31 
 0 
 0 
LINE
 10 
 3056 
 20 
 2197 
 30 
 0 
 11 
 3054.22387695313 
 21 
 2226.3759765625 
 31 
 0 
 0 
LINE
 10 
 3054.22387695313 
 20 
 2226.3759765625 
 30 
 0 
 11 
 3052.59204101563 
 21 
 2262.08813476563 
 31 
 0 
 0 
LINE
 10 
 3052.59204101563 
 20 
 2262.08813476563 
 30 
 0 
 11 
 3051.248046875 
 21 
 2301.11206054688 
 31 
 0 
 0 
LINE
 10 
 3051.248046875 
 20 
 2301.11206054688 
 30 
 0 
 11 
 3050.3359375 
 21 
 2340.42407226563 
 31 
 0 
 0 
LINE
 10 
 3050.3359375 
 20 
 2340.42407226563 
 30 
 0 
 11 
 3050 
 21 
 2377 
 31 
 0 
 0 
LINE
 10 
 3050 
 20 
 2377 
 30 
 0 
 11 
 3050.19189453125 
 21 
 2426.88012695313 
 31 
 0 
 0 
LINE
 10 
 3050.19189453125 
 20 
 2426.88012695313 
 30 
 0 
 11 
 3051.5361328125 
 21 
 2457.32006835938 
 31 
 0 
 0 
LINE
 10 
 3051.5361328125 
 20 
 2457.32006835938 
 30 
 0 
 11 
 3055.18408203125 
 21 
 2473.11987304688 
 31 
 0 
 0 
LINE
 10 
 3055.18408203125 
 20 
 2473.11987304688 
 30 
 0 
 11 
 3062.2880859375 
 21 
 2479.080078125 
 31 
 0 
 0 
LINE
 10 
 3062.2880859375 
 20 
 2479.080078125 
 30 
 0 
 11 
 3074 
 21 
 2480 
 31 
 0 
 0 
LINE
 10 
 3074 
 20 
 2480 
 30 
 0 
 11 
 3085.76000976563 
 21 
 2478.82397460938 
 31 
 0 
 0 
LINE
 10 
 3085.76000976563 
 20 
 2478.82397460938 
 30 
 0 
 11 
 3093.19995117188 
 21 
 2470.59204101563 
 31 
 0 
 0 
LINE
 10 
 3093.19995117188 
 20 
 2470.59204101563 
 30 
 0 
 11 
 3097.76000976563 
 21 
 2448.248046875 
 31 
 0 
 0 
LINE
 10 
 3097.76000976563 
 20 
 2448.248046875 
 30 
 0 
 11 
 3100.88012695313 
 21 
 2404.73608398438 
 31 
 0 
 0 
LINE
 10 
 3100.88012695313 
 20 
 2404.73608398438 
 30 
 0 
 11 
 3104 
 21 
 2333 
 31 
 0 
 0 
LINE
 10 
 3340 
 20 
 2378 
 30 
 0 
 11 
 3339.65600585938 
 21 
 2341.19165039063 
 31 
 0 
 0 
LINE
 10 
 3339.65600585938 
 20 
 2341.19165039063 
 30 
 0 
 11 
 3338.68823242188 
 21 
 2301.21606445313 
 31 
 0 
 0 
LINE
 10 
 3338.68823242188 
 20 
 2301.21606445313 
 30 
 0 
 11 
 3337.19189453125 
 21 
 2261.14404296875 
 31 
 0 
 0 
LINE
 10 
 3337.19189453125 
 20 
 2261.14404296875 
 30 
 0 
 11 
 3335.26391601563 
 21 
 2224.04809570313 
 31 
 0 
 0 
LINE
 10 
 3335.26391601563 
 20 
 2224.04809570313 
 30 
 0 
 11 
 3333 
 21 
 2193 
 31 
 0 
 0 
LINE
 10 
 3333 
 20 
 2193 
 30 
 0 
 11 
 3327 
 21 
 2110 
 31 
 0 
 0 
LINE
 10 
 3327 
 20 
 2110 
 30 
 0 
 11 
 3299 
 21 
 2110 
 31 
 0 
 0 
LINE
 10 
 3299 
 20 
 2110 
 30 
 0 
 11 
 3289.83984375 
 21 
 2110.35205078125 
 31 
 0 
 0 
LINE
 10 
 3289.83984375 
 20 
 2110.35205078125 
 30 
 0 
 11 
 3281.88012695313 
 21 
 2111.37622070313 
 31 
 0 
 0 
LINE
 10 
 3281.88012695313 
 20 
 2111.37622070313 
 30 
 0 
 11 
 3275.60009765625 
 21 
 2113.02416992188 
 31 
 0 
 0 
LINE
 10 
 3275.60009765625 
 20 
 2113.02416992188 
 30 
 0 
 11 
 3271.47998046875 
 21 
 2115.248046875 
 31 
 0 
 0 
LINE
 10 
 3271.47998046875 
 20 
 2115.248046875 
 30 
 0 
 11 
 3270 
 21 
 2118 
 31 
 0 
 0 
LINE
 10 
 3270 
 20 
 2118 
 30 
 0 
 11 
 3270.7919921875 
 21 
 2128.4560546875 
 31 
 0 
 0 
LINE
 10 
 3270.7919921875 
 20 
 2128.4560546875 
 30 
 0 
 11 
 3272.97607421875 
 21 
 2153.16821289063 
 31 
 0 
 0 
LINE
 10 
 3272.97607421875 
 20 
 2153.16821289063 
 30 
 0 
 11 
 3276.26391601563 
 21 
 2189.35205078125 
 31 
 0 
 0 
LINE
 10 
 3276.26391601563 
 20 
 2189.35205078125 
 30 
 0 
 11 
 3280.3681640625 
 21 
 2234.22412109375 
 31 
 0 
 0 
LINE
 10 
 3280.3681640625 
 20 
 2234.22412109375 
 30 
 0 
 11 
 3285 
 21 
 2285 
 31 
 0 
 0 
LINE
 10 
 3285 
 20 
 2285 
 30 
 0 
 11 
 3289.6318359375 
 21 
 2336.34399414063 
 31 
 0 
 0 
LINE
 10 
 3289.6318359375 
 20 
 2336.34399414063 
 30 
 0 
 11 
 3293.73608398438 
 21 
 2382.79223632813 
 31 
 0 
 0 
LINE
 10 
 3293.73608398438 
 20 
 2382.79223632813 
 30 
 0 
 11 
 3297.02392578125 
 21 
 2421.36791992188 
 31 
 0 
 0 
LINE
 10 
 3297.02392578125 
 20 
 2421.36791992188 
 30 
 0 
 11 
 3299.2080078125 
 21 
 2449.09619140625 
 31 
 0 
 0 
LINE
 10 
 3299.2080078125 
 20 
 2449.09619140625 
 30 
 0 
 11 
 3300 
 21 
 2463 
 31 
 0 
 0 
LINE
 10 
 3300 
 20 
 2463 
 30 
 0 
 11 
 3300.92797851563 
 21 
 2468.60815429688 
 31 
 0 
 0 
LINE
 10 
 3300.92797851563 
 20 
 2468.60815429688 
 30 
 0 
 11 
 3303.58422851563 
 21 
 2473.30395507813 
 31 
 0 
 0 
LINE
 10 
 3303.58422851563 
 20 
 2473.30395507813 
 30 
 0 
 11 
 3307.77612304688 
 21 
 2476.89599609375 
 31 
 0 
 0 
LINE
 10 
 3307.77612304688 
 20 
 2476.89599609375 
 30 
 0 
 11 
 3313.31201171875 
 21 
 2479.19213867188 
 31 
 0 
 0 
LINE
 10 
 3313.31201171875 
 20 
 2479.19213867188 
 30 
 0 
 11 
 3320 
 21 
 2480 
 31 
 0 
 0 
LINE
 10 
 3320 
 20 
 2480 
 30 
 0 
 11 
 3329.37573242188 
 21 
 2478.51171875 
 31 
 0 
 0 
LINE
 10 
 3329.37573242188 
 20 
 2478.51171875 
 30 
 0 
 11 
 3335.24829101563 
 21 
 2471.4560546875 
 31 
 0 
 0 
LINE
 10 
 3335.24829101563 
 20 
 2471.4560546875 
 30 
 0 
 11 
 3338.43212890625 
 21 
 2454.94409179688 
 31 
 0 
 0 
LINE
 10 
 3338.43212890625 
 20 
 2454.94409179688 
 30 
 0 
 11 
 3339.744140625 
 21 
 2425.08813476563 
 31 
 0 
 0 
LINE
 10 
 3339.744140625 
 20 
 2425.08813476563 
 30 
 0 
 11 
 3340 
 21 
 2378 
 31 
 0 
 0 
LINE
 10 
 2258 
 20 
 2141 
 30 
 0 
 11 
 2254.83203125 
 21 
 2108.09594726563 
 31 
 0 
 0 
LINE
 10 
 2254.83203125 
 20 
 2108.09594726563 
 30 
 0 
 11 
 2240.576171875 
 21 
 2066.88793945313 
 31 
 0 
 0 
LINE
 10 
 2240.576171875 
 20 
 2066.88793945313 
 30 
 0 
 11 
 2217.10400390625 
 21 
 2020.83203125 
 31 
 0 
 0 
LINE
 10 
 2217.10400390625 
 20 
 2020.83203125 
 30 
 0 
 11 
 2186.2880859375 
 21 
 1973.38403320313 
 31 
 0 
 0 
LINE
 10 
 2186.2880859375 
 20 
 1973.38403320313 
 30 
 0 
 11 
 2150 
 21 
 1928 
 31 
 0 
 0 
LINE
 10 
 2150 
 20 
 1928 
 30 
 0 
 11 
 2120.81591796875 
 21 
 1896.54382324219 
 31 
 0 
 0 
LINE
 10 
 2120.81591796875 
 20 
 1896.54382324219 
 30 
 0 
 11 
 2100.36791992188 
 21 
 1877.7119140625 
 31 
 0 
 0 
LINE
 10 
 2100.36791992188 
 20 
 1877.7119140625 
 30 
 0 
 11 
 2088.51196289063 
 21 
 1871.40795898438 
 31 
 0 
 0 
LINE
 10 
 2088.51196289063 
 20 
 1871.40795898438 
 30 
 0 
 11 
 2085.10400390625 
 21 
 1877.53601074219 
 31 
 0 
 0 
LINE
 10 
 2085.10400390625 
 20 
 1877.53601074219 
 30 
 0 
 11 
 2090 
 21 
 1896 
 31 
 0 
 0 
LINE
 10 
 2090 
 20 
 1896 
 30 
 0 
 11 
 2096.48803710938 
 21 
 1920.96801757813 
 31 
 0 
 0 
LINE
 10 
 2096.48803710938 
 20 
 1920.96801757813 
 30 
 0 
 11 
 2099.18408203125 
 21 
 1949.583984375 
 31 
 0 
 0 
LINE
 10 
 2099.18408203125 
 20 
 1949.583984375 
 30 
 0 
 11 
 2098.13598632813 
 21 
 1979.01599121094 
 31 
 0 
 0 
LINE
 10 
 2098.13598632813 
 20 
 1979.01599121094 
 30 
 0 
 11 
 2093.39208984375 
 21 
 2006.43200683594 
 31 
 0 
 0 
LINE
 10 
 2093.39208984375 
 20 
 2006.43200683594 
 30 
 0 
 11 
 2085 
 21 
 2029 
 31 
 0 
 0 
LINE
 10 
 2085 
 20 
 2029 
 30 
 0 
 11 
 2071.9599609375 
 21 
 2047.41589355469 
 31 
 0 
 0 
LINE
 10 
 2071.9599609375 
 20 
 2047.41589355469 
 30 
 0 
 11 
 2053.64013671875 
 21 
 2062.32788085938 
 31 
 0 
 0 
LINE
 10 
 2053.64013671875 
 20 
 2062.32788085938 
 30 
 0 
 11 
 2032.44006347656 
 21 
 2072.63208007813 
 31 
 0 
 0 
LINE
 10 
 2032.44006347656 
 20 
 2072.63208007813 
 30 
 0 
 11 
 2010.76000976563 
 21 
 2077.22412109375 
 31 
 0 
 0 
LINE
 10 
 2010.76000976563 
 20 
 2077.22412109375 
 30 
 0 
 11 
 1991 
 21 
 2075 
 31 
 0 
 0 
LINE
 10 
 1991 
 20 
 2075 
 30 
 0 
 11 
 1970.61584472656 
 21 
 2072.28784179688 
 31 
 0 
 0 
LINE
 10 
 1970.61584472656 
 20 
 2072.28784179688 
 30 
 0 
 11 
 1979.84814453125 
 21 
 2084.50390625 
 31 
 0 
 0 
LINE
 10 
 1979.84814453125 
 20 
 2084.50390625 
 30 
 0 
 11 
 2010.8720703125 
 21 
 2106.17602539063 
 31 
 0 
 0 
LINE
 10 
 2010.8720703125 
 20 
 2106.17602539063 
 30 
 0 
 11 
 2055.86401367188 
 21 
 2131.83203125 
 31 
 0 
 0 
LINE
 10 
 2055.86401367188 
 20 
 2131.83203125 
 30 
 0 
 11 
 2107 
 21 
 2156 
 31 
 0 
 0 
LINE
 10 
 2107 
 20 
 2156 
 30 
 0 
 11 
 2129.423828125 
 21 
 2164.52807617188 
 31 
 0 
 0 
LINE
 10 
 2129.423828125 
 20 
 2164.52807617188 
 30 
 0 
 11 
 2151.03198242188 
 21 
 2170.94409179688 
 31 
 0 
 0 
LINE
 10 
 2151.03198242188 
 20 
 2170.94409179688 
 30 
 0 
 11 
 2171.72802734375 
 21 
 2175.29614257813 
 31 
 0 
 0 
LINE
 10 
 2171.72802734375 
 20 
 2175.29614257813 
 30 
 0 
 11 
 2191.416015625 
 21 
 2177.63208007813 
 31 
 0 
 0 
LINE
 10 
 2191.416015625 
 20 
 2177.63208007813 
 30 
 0 
 11 
 2210 
 21 
 2178 
 31 
 0 
 0 
LINE
 10 
 2210 
 20 
 2178 
 30 
 0 
 11 
 2231.2158203125 
 21 
 2176.16772460938 
 31 
 0 
 0 
LINE
 10 
 2231.2158203125 
 20 
 2176.16772460938 
 30 
 0 
 11 
 2244.60791015625 
 21 
 2173.18408203125 
 31 
 0 
 0 
LINE
 10 
 2244.60791015625 
 20 
 2173.18408203125 
 30 
 0 
 11 
 2252.19213867188 
 21 
 2167.416015625 
 31 
 0 
 0 
LINE
 10 
 2252.19213867188 
 20 
 2167.416015625 
 30 
 0 
 11 
 2255.98388671875 
 21 
 2157.23217773438 
 31 
 0 
 0 
LINE
 10 
 2255.98388671875 
 20 
 2157.23217773438 
 30 
 0 
 11 
 2258 
 21 
 2141 
 31 
 0 
 0 
LINE
 10 
 4312 
 20 
 2137 
 30 
 0 
 11 
 4335.97607421875 
 21 
 2125.26391601563 
 31 
 0 
 0 
LINE
 10 
 4335.97607421875 
 20 
 2125.26391601563 
 30 
 0 
 11 
 4358.84814453125 
 21 
 2113.43188476563 
 31 
 0 
 0 
LINE
 10 
 4358.84814453125 
 20 
 2113.43188476563 
 30 
 0 
 11 
 4379.0322265625 
 21 
 2102.36791992188 
 31 
 0 
 0 
LINE
 10 
 4379.0322265625 
 20 
 2102.36791992188 
 30 
 0 
 11 
 4394.94384765625 
 21 
 2092.93603515625 
 31 
 0 
 0 
LINE
 10 
 4394.94384765625 
 20 
 2092.93603515625 
 30 
 0 
 11 
 4405 
 21 
 2086 
 31 
 0 
 0 
LINE
 10 
 4405 
 20 
 2086 
 30 
 0 
 11 
 4413.84765625 
 21 
 2078.67211914063 
 31 
 0 
 0 
LINE
 10 
 4413.84765625 
 20 
 2078.67211914063 
 30 
 0 
 11 
 4416.984375 
 21 
 2074.17602539063 
 31 
 0 
 0 
LINE
 10 
 4416.984375 
 20 
 2074.17602539063 
 30 
 0 
 11 
 4413.49609375 
 21 
 2071.744140625 
 31 
 0 
 0 
LINE
 10 
 4413.49609375 
 20 
 2071.744140625 
 30 
 0 
 11 
 4402.47216796875 
 21 
 2070.60815429688 
 31 
 0 
 0 
LINE
 10 
 4402.47216796875 
 20 
 2070.60815429688 
 30 
 0 
 11 
 4383 
 21 
 2070 
 31 
 0 
 0 
LINE
 10 
 4383 
 20 
 2070 
 30 
 0 
 11 
 4364.98388671875 
 21 
 2069.16796875 
 31 
 0 
 0 
LINE
 10 
 4364.98388671875 
 20 
 2069.16796875 
 30 
 0 
 11 
 4350.71240234375 
 21 
 2066.22387695313 
 31 
 0 
 0 
LINE
 10 
 4350.71240234375 
 20 
 2066.22387695313 
 30 
 0 
 11 
 4338.64794921875 
 21 
 2060.49609375 
 31 
 0 
 0 
LINE
 10 
 4338.64794921875 
 20 
 2060.49609375 
 30 
 0 
 11 
 4327.25634765625 
 21 
 2051.31201171875 
 31 
 0 
 0 
LINE
 10 
 4327.25634765625 
 20 
 2051.31201171875 
 30 
 0 
 11 
 4315 
 21 
 2038 
 31 
 0 
 0 
LINE
 10 
 4315 
 20 
 2038 
 30 
 0 
 11 
 4303.01611328125 
 21 
 2022.89587402344 
 31 
 0 
 0 
LINE
 10 
 4303.01611328125 
 20 
 2022.89587402344 
 30 
 0 
 11 
 4295.4482421875 
 21 
 2009.32800292969 
 31 
 0 
 0 
LINE
 10 
 4295.4482421875 
 20 
 2009.32800292969 
 30 
 0 
 11 
 4291.67236328125 
 21 
 1994.51208496094 
 31 
 0 
 0 
LINE
 10 
 4291.67236328125 
 20 
 1994.51208496094 
 30 
 0 
 11 
 4291.06396484375 
 21 
 1975.6640625 
 31 
 0 
 0 
LINE
 10 
 4291.06396484375 
 20 
 1975.6640625 
 30 
 0 
 11 
 4293 
 21 
 1950 
 31 
 0 
 0 
LINE
 10 
 4293 
 20 
 1950 
 30 
 0 
 11 
 4294.52783203125 
 21 
 1931.73596191406 
 31 
 0 
 0 
LINE
 10 
 4294.52783203125 
 20 
 1931.73596191406 
 30 
 0 
 11 
 4296.583984375 
 21 
 1913.80810546875 
 31 
 0 
 0 
LINE
 10 
 4296.583984375 
 20 
 1913.80810546875 
 30 
 0 
 11 
 4298.97607421875 
 21 
 1897.51196289063 
 31 
 0 
 0 
LINE
 10 
 4298.97607421875 
 20 
 1897.51196289063 
 30 
 0 
 11 
 4301.51220703125 
 21 
 1884.14404296875 
 31 
 0 
 0 
LINE
 10 
 4301.51220703125 
 20 
 1884.14404296875 
 30 
 0 
 11 
 4304 
 21 
 1875 
 31 
 0 
 0 
LINE
 10 
 4304 
 20 
 1875 
 30 
 0 
 11 
 4298.15234375 
 21 
 1869.98388671875 
 31 
 0 
 0 
LINE
 10 
 4298.15234375 
 20 
 1869.98388671875 
 30 
 0 
 11 
 4269.21630859375 
 21 
 1897.51208496094 
 31 
 0 
 0 
LINE
 10 
 4269.21630859375 
 20 
 1897.51208496094 
 30 
 0 
 11 
 4228.90380859375 
 21 
 1944.04797363281 
 31 
 0 
 0 
LINE
 10 
 4228.90380859375 
 20 
 1944.04797363281 
 30 
 0 
 11 
 4188.92822265625 
 21 
 1996.05603027344 
 31 
 0 
 0 
LINE
 10 
 4188.92822265625 
 20 
 1996.05603027344 
 30 
 0 
 11 
 4161 
 21 
 2040 
 31 
 0 
 0 
LINE
 10 
 4161 
 20 
 2040 
 30 
 0 
 11 
 4144.72802734375 
 21 
 2077.93603515625 
 31 
 0 
 0 
LINE
 10 
 4144.72802734375 
 20 
 2077.93603515625 
 30 
 0 
 11 
 4134.50390625 
 21 
 2112.3681640625 
 31 
 0 
 0 
LINE
 10 
 4134.50390625 
 20 
 2112.3681640625 
 30 
 0 
 11 
 4130.6162109375 
 21 
 2141.23193359375 
 31 
 0 
 0 
LINE
 10 
 4130.6162109375 
 20 
 2141.23193359375 
 30 
 0 
 11 
 4133.35205078125 
 21 
 2162.46411132813 
 31 
 0 
 0 
LINE
 10 
 4133.35205078125 
 20 
 2162.46411132813 
 30 
 0 
 11 
 4143 
 21 
 2174 
 31 
 0 
 0 
LINE
 10 
 4143 
 20 
 2174 
 30 
 0 
 11 
 4164.31982421875 
 21 
 2178.02368164063 
 31 
 0 
 0 
LINE
 10 
 4164.31982421875 
 20 
 2178.02368164063 
 30 
 0 
 11 
 4194.27978515625 
 21 
 2175.9521484375 
 31 
 0 
 0 
LINE
 10 
 4194.27978515625 
 20 
 2175.9521484375 
 30 
 0 
 11 
 4230.47998046875 
 21 
 2168.16796875 
 31 
 0 
 0 
LINE
 10 
 4230.47998046875 
 20 
 2168.16796875 
 30 
 0 
 11 
 4270.52001953125 
 21 
 2155.05615234375 
 31 
 0 
 0 
LINE
 10 
 4270.52001953125 
 20 
 2155.05615234375 
 30 
 0 
 11 
 4312 
 21 
 2137 
 31 
 0 
 0 
LINE
 10 
 3130 
 20 
 2047 
 30 
 0 
 11 
 3130.80004882813 
 21 
 2036.77600097656 
 31 
 0 
 0 
LINE
 10 
 3130.80004882813 
 20 
 2036.77600097656 
 30 
 0 
 11 
 3133.0400390625 
 21 
 2022.56799316406 
 31 
 0 
 0 
LINE
 10 
 3133.0400390625 
 20 
 2022.56799316406 
 30 
 0 
 11 
 3136.47998046875 
 21 
 2005.67199707031 
 31 
 0 
 0 
LINE
 10 
 3136.47998046875 
 20 
 2005.67199707031 
 30 
 0 
 11 
 3140.88012695313 
 21 
 1987.38403320313 
 31 
 0 
 0 
LINE
 10 
 3140.88012695313 
 20 
 1987.38403320313 
 30 
 0 
 11 
 3146 
 21 
 1969 
 31 
 0 
 0 
LINE
 10 
 3146 
 20 
 1969 
 30 
 0 
 11 
 3165.07177734375 
 21 
 1917.88806152344 
 31 
 0 
 0 
LINE
 10 
 3165.07177734375 
 20 
 1917.88806152344 
 30 
 0 
 11 
 3183.85595703125 
 21 
 1894.18408203125 
 31 
 0 
 0 
LINE
 10 
 3183.85595703125 
 20 
 1894.18408203125 
 30 
 0 
 11 
 3202.30395507813 
 21 
 1897.93603515625 
 31 
 0 
 0 
LINE
 10 
 3202.30395507813 
 20 
 1897.93603515625 
 30 
 0 
 11 
 3220.36791992188 
 21 
 1929.19201660156 
 31 
 0 
 0 
LINE
 10 
 3220.36791992188 
 20 
 1929.19201660156 
 30 
 0 
 11 
 3238 
 21 
 1988 
 31 
 0 
 0 
LINE
 10 
 3238 
 20 
 1988 
 30 
 0 
 11 
 3255 
 21 
 2060 
 31 
 0 
 0 
LINE
 10 
 3255 
 20 
 2060 
 30 
 0 
 11 
 3293 
 21 
 2060 
 31 
 0 
 0 
LINE
 10 
 3293 
 20 
 2060 
 30 
 0 
 11 
 3309.90380859375 
 21 
 2059.583984375 
 31 
 0 
 0 
LINE
 10 
 3309.90380859375 
 20 
 2059.583984375 
 30 
 0 
 11 
 3320.71215820313 
 21 
 2057.63208007813 
 31 
 0 
 0 
LINE
 10 
 3320.71215820313 
 20 
 2057.63208007813 
 30 
 0 
 11 
 3326.76806640625 
 21 
 2053.087890625 
 31 
 0 
 0 
LINE
 10 
 3326.76806640625 
 20 
 2053.087890625 
 30 
 0 
 11 
 3329.416015625 
 21 
 2044.89611816406 
 31 
 0 
 0 
LINE
 10 
 3329.416015625 
 20 
 2044.89611816406 
 30 
 0 
 11 
 3330 
 21 
 2032 
 31 
 0 
 0 
LINE
 10 
 3330 
 20 
 2032 
 30 
 0 
 11 
 3326.31201171875 
 21 
 1971.35998535156 
 31 
 0 
 0 
LINE
 10 
 3326.31201171875 
 20 
 1971.35998535156 
 30 
 0 
 11 
 3316.33618164063 
 21 
 1886.96008300781 
 31 
 0 
 0 
LINE
 10 
 3316.33618164063 
 20 
 1886.96008300781 
 30 
 0 
 11 
 3301.70385742188 
 21 
 1790.07995605469 
 31 
 0 
 0 
LINE
 10 
 3301.70385742188 
 20 
 1790.07995605469 
 30 
 0 
 11 
 3284.04809570313 
 21 
 1692 
 31 
 0 
 0 
LINE
 10 
 3284.04809570313 
 20 
 1692 
 30 
 0 
 11 
 3265 
 21 
 1604 
 31 
 0 
 0 
LINE
 10 
 3265 
 20 
 1604 
 30 
 0 
 11 
 3253.48803710938 
 21 
 1552.23986816406 
 31 
 0 
 0 
LINE
 10 
 3253.48803710938 
 20 
 1552.23986816406 
 30 
 0 
 11 
 3242.26391601563 
 21 
 1498.07995605469 
 31 
 0 
 0 
LINE
 10 
 3242.26391601563 
 20 
 1498.07995605469 
 30 
 0 
 11 
 3232.09594726563 
 21 
 1445.59997558594 
 31 
 0 
 0 
LINE
 10 
 3232.09594726563 
 20 
 1445.59997558594 
 30 
 0 
 11 
 3223.751953125 
 21 
 1398.88000488281 
 31 
 0 
 0 
LINE
 10 
 3223.751953125 
 20 
 1398.88000488281 
 30 
 0 
 11 
 3218 
 21 
 1362 
 31 
 0 
 0 
LINE
 10 
 3218 
 20 
 1362 
 30 
 0 
 11 
 3213.60009765625 
 21 
 1332.58386230469 
 31 
 0 
 0 
LINE
 10 
 3213.60009765625 
 20 
 1332.58386230469 
 30 
 0 
 11 
 3208.9599609375 
 21 
 1307.63208007813 
 31 
 0 
 0 
LINE
 10 
 3208.9599609375 
 20 
 1307.63208007813 
 30 
 0 
 11 
 3204.32006835938 
 21 
 1288.48803710938 
 31 
 0 
 0 
LINE
 10 
 3204.32006835938 
 20 
 1288.48803710938 
 30 
 0 
 11 
 3199.92016601563 
 21 
 1276.49597167969 
 31 
 0 
 0 
LINE
 10 
 3199.92016601563 
 20 
 1276.49597167969 
 30 
 0 
 11 
 3196 
 21 
 1273 
 31 
 0 
 0 
LINE
 10 
 3196 
 20 
 1273 
 30 
 0 
 11 
 3191.98413085938 
 21 
 1278.51196289063 
 31 
 0 
 0 
LINE
 10 
 3191.98413085938 
 20 
 1278.51196289063 
 30 
 0 
 11 
 3187.39208984375 
 21 
 1291.65600585938 
 31 
 0 
 0 
LINE
 10 
 3187.39208984375 
 20 
 1291.65600585938 
 30 
 0 
 11 
 3182.60791015625 
 21 
 1310.94396972656 
 31 
 0 
 0 
LINE
 10 
 3182.60791015625 
 20 
 1310.94396972656 
 30 
 0 
 11 
 3178.01611328125 
 21 
 1334.88806152344 
 31 
 0 
 0 
LINE
 10 
 3178.01611328125 
 20 
 1334.88806152344 
 30 
 0 
 11 
 3174 
 21 
 1362 
 31 
 0 
 0 
LINE
 10 
 3174 
 20 
 1362 
 30 
 0 
 11 
 3168.59985351563 
 21 
 1394.7919921875 
 31 
 0 
 0 
LINE
 10 
 3168.59985351563 
 20 
 1394.7919921875 
 30 
 0 
 11 
 3161.28002929688 
 21 
 1434.49609375 
 31 
 0 
 0 
LINE
 10 
 3161.28002929688 
 20 
 1434.49609375 
 30 
 0 
 11 
 3152.76000976563 
 21 
 1477.70397949219 
 31 
 0 
 0 
LINE
 10 
 3152.76000976563 
 20 
 1477.70397949219 
 30 
 0 
 11 
 3143.76000976563 
 21 
 1521.00805664063 
 31 
 0 
 0 
LINE
 10 
 3143.76000976563 
 20 
 1521.00805664063 
 30 
 0 
 11 
 3135 
 21 
 1561 
 31 
 0 
 0 
LINE
 10 
 3135 
 20 
 1561 
 30 
 0 
 11 
 3114.28002929688 
 21 
 1654.57580566406 
 31 
 0 
 0 
LINE
 10 
 3114.28002929688 
 20 
 1654.57580566406 
 30 
 0 
 11 
 3096.67993164063 
 21 
 1744.64807128906 
 31 
 0 
 0 
LINE
 10 
 3096.67993164063 
 20 
 1744.64807128906 
 30 
 0 
 11 
 3082.43994140625 
 21 
 1829.63208007813 
 31 
 0 
 0 
LINE
 10 
 3082.43994140625 
 20 
 1829.63208007813 
 30 
 0 
 11 
 3071.80004882813 
 21 
 1907.94409179688 
 31 
 0 
 0 
LINE
 10 
 3071.80004882813 
 20 
 1907.94409179688 
 30 
 0 
 11 
 3065 
 21 
 1978 
 31 
 0 
 0 
LINE
 10 
 3065 
 20 
 1978 
 30 
 0 
 11 
 3058 
 21 
 2070 
 31 
 0 
 0 
LINE
 10 
 3058 
 20 
 2070 
 30 
 0 
 11 
 3094 
 21 
 2070 
 31 
 0 
 0 
LINE
 10 
 3094 
 20 
 2070 
 30 
 0 
 11 
 3109.64794921875 
 21 
 2069.52783203125 
 31 
 0 
 0 
LINE
 10 
 3109.64794921875 
 20 
 2069.52783203125 
 30 
 0 
 11 
 3120.06396484375 
 21 
 2067.6640625 
 31 
 0 
 0 
LINE
 10 
 3120.06396484375 
 20 
 2067.6640625 
 30 
 0 
 11 
 3126.25610351563 
 21 
 2063.73608398438 
 31 
 0 
 0 
LINE
 10 
 3126.25610351563 
 20 
 2063.73608398438 
 30 
 0 
 11 
 3129.23217773438 
 21 
 2057.07202148438 
 31 
 0 
 0 
LINE
 10 
 3129.23217773438 
 20 
 2057.07202148438 
 30 
 0 
 11 
 3130 
 21 
 2047 
 31 
 0 
 0 
LINE
 10 
 2382 
 20 
 1908 
 30 
 0 
 11 
 2380.85595703125 
 21 
 1861.48791503906 
 31 
 0 
 0 
LINE
 10 
 2380.85595703125 
 20 
 1861.48791503906 
 30 
 0 
 11 
 2369.48803710938 
 21 
 1796.78405761719 
 31 
 0 
 0 
LINE
 10 
 2369.48803710938 
 20 
 1796.78405761719 
 30 
 0 
 11 
 2350.39208984375 
 21 
 1723.53601074219 
 31 
 0 
 0 
LINE
 10 
 2350.39208984375 
 20 
 1723.53601074219 
 30 
 0 
 11 
 2326.06396484375 
 21 
 1651.39208984375 
 31 
 0 
 0 
LINE
 10 
 2326.06396484375 
 20 
 1651.39208984375 
 30 
 0 
 11 
 2299 
 21 
 1590 
 31 
 0 
 0 
LINE
 10 
 2299 
 20 
 1590 
 30 
 0 
 11 
 2281 
 21 
 1555 
 31 
 0 
 0 
LINE
 10 
 2281 
 20 
 1555 
 30 
 0 
 11 
 2280 
 21 
 1610 
 31 
 0 
 0 
LINE
 10 
 2280 
 20 
 1610 
 30 
 0 
 11 
 2276.35205078125 
 21 
 1650.25598144531 
 31 
 0 
 0 
LINE
 10 
 2276.35205078125 
 20 
 1650.25598144531 
 30 
 0 
 11 
 2266.17602539063 
 21 
 1688.92810058594 
 31 
 0 
 0 
LINE
 10 
 2266.17602539063 
 20 
 1688.92810058594 
 30 
 0 
 11 
 2250.6240234375 
 21 
 1723.47204589844 
 31 
 0 
 0 
LINE
 10 
 2250.6240234375 
 20 
 1723.47204589844 
 30 
 0 
 11 
 2230.84790039063 
 21 
 1751.34399414063 
 31 
 0 
 0 
LINE
 10 
 2230.84790039063 
 20 
 1751.34399414063 
 30 
 0 
 11 
 2208 
 21 
 1770 
 31 
 0 
 0 
LINE
 10 
 2208 
 20 
 1770 
 30 
 0 
 11 
 2195.6318359375 
 21 
 1775.78393554688 
 31 
 0 
 0 
LINE
 10 
 2195.6318359375 
 20 
 1775.78393554688 
 30 
 0 
 11 
 2183.93603515625 
 21 
 1778.83215332031 
 31 
 0 
 0 
LINE
 10 
 2183.93603515625 
 20 
 1778.83215332031 
 30 
 0 
 11 
 2171.42407226563 
 21 
 1779.28796386719 
 31 
 0 
 0 
LINE
 10 
 2171.42407226563 
 20 
 1779.28796386719 
 30 
 0 
 11 
 2156.60815429688 
 21 
 1777.29602050781 
 31 
 0 
 0 
LINE
 10 
 2156.60815429688 
 20 
 1777.29602050781 
 30 
 0 
 11 
 2138 
 21 
 1773 
 31 
 0 
 0 
LINE
 10 
 2138 
 20 
 1773 
 30 
 0 
 11 
 2095 
 21 
 1762 
 31 
 0 
 0 
LINE
 10 
 2095 
 20 
 1762 
 30 
 0 
 11 
 2160 
 21 
 1823 
 31 
 0 
 0 
LINE
 10 
 2160 
 20 
 1823 
 30 
 0 
 11 
 2202.87182617188 
 21 
 1860.62390136719 
 31 
 0 
 0 
LINE
 10 
 2202.87182617188 
 20 
 1860.62390136719 
 30 
 0 
 11 
 2243.53588867188 
 21 
 1890.47204589844 
 31 
 0 
 0 
LINE
 10 
 2243.53588867188 
 20 
 1890.47204589844 
 30 
 0 
 11 
 2281.46411132813 
 21 
 1912.2080078125 
 31 
 0 
 0 
LINE
 10 
 2281.46411132813 
 20 
 1912.2080078125 
 30 
 0 
 11 
 2316.1279296875 
 21 
 1925.49609375 
 31 
 0 
 0 
LINE
 10 
 2316.1279296875 
 20 
 1925.49609375 
 30 
 0 
 11 
 2347 
 21 
 1930 
 31 
 0 
 0 
LINE
 10 
 2347 
 20 
 1930 
 30 
 0 
 11 
 2359.95190429688 
 21 
 1929.34399414063 
 31 
 0 
 0 
LINE
 10 
 2359.95190429688 
 20 
 1929.34399414063 
 30 
 0 
 11 
 2369.25610351563 
 21 
 1927.15209960938 
 31 
 0 
 0 
LINE
 10 
 2369.25610351563 
 20 
 1927.15209960938 
 30 
 0 
 11 
 2375.583984375 
 21 
 1923.08801269531 
 31 
 0 
 0 
LINE
 10 
 2375.583984375 
 20 
 1923.08801269531 
 30 
 0 
 11 
 2379.60791015625 
 21 
 1916.81604003906 
 31 
 0 
 0 
LINE
 10 
 2379.60791015625 
 20 
 1916.81604003906 
 30 
 0 
 11 
 2382 
 21 
 1908 
 31 
 0 
 0 
LINE
 10 
 4116 
 20 
 1905 
 30 
 0 
 11 
 4152.255859375 
 21 
 1882.89599609375 
 31 
 0 
 0 
LINE
 10 
 4152.255859375 
 20 
 1882.89599609375 
 30 
 0 
 11 
 4195.328125 
 21 
 1851.2880859375 
 31 
 0 
 0 
LINE
 10 
 4195.328125 
 20 
 1851.2880859375 
 30 
 0 
 11 
 4236.671875 
 21 
 1817.23205566406 
 31 
 0 
 0 
LINE
 10 
 4236.671875 
 20 
 1817.23205566406 
 30 
 0 
 11 
 4267.744140625 
 21 
 1787.78405761719 
 31 
 0 
 0 
LINE
 10 
 4267.744140625 
 20 
 1787.78405761719 
 30 
 0 
 11 
 4280 
 21 
 1770 
 31 
 0 
 0 
LINE
 10 
 4280 
 20 
 1770 
 30 
 0 
 11 
 4278.408203125 
 21 
 1767.7119140625 
 31 
 0 
 0 
LINE
 10 
 4278.408203125 
 20 
 1767.7119140625 
 30 
 0 
 11 
 4273.98388671875 
 21 
 1766.81604003906 
 31 
 0 
 0 
LINE
 10 
 4273.98388671875 
 20 
 1766.81604003906 
 30 
 0 
 11 
 4267.255859375 
 21 
 1767.26403808594 
 31 
 0 
 0 
LINE
 10 
 4267.255859375 
 20 
 1767.26403808594 
 30 
 0 
 11 
 4258.751953125 
 21 
 1769.00805664063 
 31 
 0 
 0 
LINE
 10 
 4258.751953125 
 20 
 1769.00805664063 
 30 
 0 
 11 
 4249 
 21 
 1772 
 31 
 0 
 0 
LINE
 10 
 4249 
 20 
 1772 
 30 
 0 
 11 
 4207.36767578125 
 21 
 1775.20788574219 
 31 
 0 
 0 
LINE
 10 
 4207.36767578125 
 20 
 1775.20788574219 
 30 
 0 
 11 
 4169.6240234375 
 21 
 1757.10400390625 
 31 
 0 
 0 
LINE
 10 
 4169.6240234375 
 20 
 1757.10400390625 
 30 
 0 
 11 
 4138.6962890625 
 21 
 1721.09606933594 
 31 
 0 
 0 
LINE
 10 
 4138.6962890625 
 20 
 1721.09606933594 
 30 
 0 
 11 
 4117.51220703125 
 21 
 1670.59204101563 
 31 
 0 
 0 
LINE
 10 
 4117.51220703125 
 20 
 1670.59204101563 
 30 
 0 
 11 
 4109 
 21 
 1609 
 31 
 0 
 0 
LINE
 10 
 4109 
 20 
 1609 
 30 
 0 
 11 
 4108 
 21 
 1555 
 31 
 0 
 0 
LINE
 10 
 4108 
 20 
 1555 
 30 
 0 
 11 
 4079 
 21 
 1617 
 31 
 0 
 0 
LINE
 10 
 4079 
 20 
 1617 
 30 
 0 
 11 
 4050.18359375 
 21 
 1689.91186523438 
 31 
 0 
 0 
LINE
 10 
 4050.18359375 
 20 
 1689.91186523438 
 30 
 0 
 11 
 4027.51196289063 
 21 
 1766.61596679688 
 31 
 0 
 0 
LINE
 10 
 4027.51196289063 
 20 
 1766.61596679688 
 30 
 0 
 11 
 4013.04809570313 
 21 
 1837.46398925781 
 31 
 0 
 0 
LINE
 10 
 4013.04809570313 
 20 
 1837.46398925781 
 30 
 0 
 11 
 4008.85595703125 
 21 
 1892.80798339844 
 31 
 0 
 0 
LINE
 10 
 4008.85595703125 
 20 
 1892.80798339844 
 30 
 0 
 11 
 4017 
 21 
 1923 
 31 
 0 
 0 
LINE
 10 
 4017 
 20 
 1923 
 30 
 0 
 11 
 4027.58374023438 
 21 
 1928.51989746094 
 31 
 0 
 0 
LINE
 10 
 4027.58374023438 
 20 
 1928.51989746094 
 30 
 0 
 11 
 4043.35229492188 
 21 
 1929.48010253906 
 31 
 0 
 0 
LINE
 10 
 4043.35229492188 
 20 
 1929.48010253906 
 30 
 0 
 11 
 4063.72802734375 
 21 
 1925.88000488281 
 31 
 0 
 0 
LINE
 10 
 4063.72802734375 
 20 
 1925.88000488281 
 30 
 0 
 11 
 4088.13623046875 
 21 
 1917.71997070313 
 31 
 0 
 0 
LINE
 10 
 4088.13623046875 
 20 
 1917.71997070313 
 30 
 0 
 11 
 4116 
 21 
 1905 
 31 
 0 
 0 
LINE
 10 
 2576 
 20 
 1755 
 30 
 0 
 11 
 2583 
 21 
 1741.18395996094 
 31 
 0 
 0 
LINE
 10 
 2583 
 20 
 1741.18395996094 
 30 
 0 
 11 
 2587.36010742188 
 21 
 1723.67199707031 
 31 
 0 
 0 
LINE
 10 
 2587.36010742188 
 20 
 1723.67199707031 
 30 
 0 
 11 
 2589.32006835938 
 21 
 1698.76794433594 
 31 
 0 
 0 
LINE
 10 
 2589.32006835938 
 20 
 1698.76794433594 
 30 
 0 
 11 
 2589.1201171875 
 21 
 1662.77600097656 
 31 
 0 
 0 
LINE
 10 
 2589.1201171875 
 20 
 1662.77600097656 
 30 
 0 
 11 
 2587 
 21 
 1612 
 31 
 0 
 0 
LINE
 10 
 2587 
 20 
 1612 
 30 
 0 
 11 
 2584.416015625 
 21 
 1570.69592285156 
 31 
 0 
 0 
LINE
 10 
 2584.416015625 
 20 
 1570.69592285156 
 30 
 0 
 11 
 2580.48803710938 
 21 
 1525.88806152344 
 31 
 0 
 0 
LINE
 10 
 2580.48803710938 
 20 
 1525.88806152344 
 30 
 0 
 11 
 2575.55200195313 
 21 
 1481.03198242188 
 31 
 0 
 0 
LINE
 10 
 2575.55200195313 
 20 
 1481.03198242188 
 30 
 0 
 11 
 2569.94409179688 
 21 
 1439.583984375 
 31 
 0 
 0 
LINE
 10 
 2569.94409179688 
 20 
 1439.583984375 
 30 
 0 
 11 
 2564 
 21 
 1405 
 31 
 0 
 0 
LINE
 10 
 2564 
 20 
 1405 
 30 
 0 
 11 
 2547 
 21 
 1315 
 31 
 0 
 0 
LINE
 10 
 2547 
 20 
 1315 
 30 
 0 
 11 
 2535 
 21 
 1365 
 31 
 0 
 0 
LINE
 10 
 2535 
 20 
 1365 
 30 
 0 
 11 
 2524.61596679688 
 21 
 1403.66394042969 
 31 
 0 
 0 
LINE
 10 
 2524.61596679688 
 20 
 1403.66394042969 
 30 
 0 
 11 
 2514.328125 
 21 
 1433.59204101563 
 31 
 0 
 0 
LINE
 10 
 2514.328125 
 20 
 1433.59204101563 
 30 
 0 
 11 
 2503.03198242188 
 21 
 1457.08801269531 
 31 
 0 
 0 
LINE
 10 
 2503.03198242188 
 20 
 1457.08801269531 
 30 
 0 
 11 
 2489.6240234375 
 21 
 1476.4560546875 
 31 
 0 
 0 
LINE
 10 
 2489.6240234375 
 20 
 1476.4560546875 
 30 
 0 
 11 
 2473 
 21 
 1494 
 31 
 0 
 0 
LINE
 10 
 2473 
 20 
 1494 
 30 
 0 
 11 
 2453.00805664063 
 21 
 1509.11999511719 
 31 
 0 
 0 
LINE
 10 
 2453.00805664063 
 20 
 1509.11999511719 
 30 
 0 
 11 
 2432.34399414063 
 21 
 1517.28002929688 
 31 
 0 
 0 
LINE
 10 
 2432.34399414063 
 20 
 1517.28002929688 
 30 
 0 
 11 
 2410.57592773438 
 21 
 1518.47998046875 
 31 
 0 
 0 
LINE
 10 
 2410.57592773438 
 20 
 1518.47998046875 
 30 
 0 
 11 
 2387.27197265625 
 21 
 1512.71997070313 
 31 
 0 
 0 
LINE
 10 
 2387.27197265625 
 20 
 1512.71997070313 
 30 
 0 
 11 
 2362 
 21 
 1500 
 31 
 0 
 0 
LINE
 10 
 2362 
 20 
 1500 
 30 
 0 
 11 
 2330 
 21 
 1480 
 31 
 0 
 0 
LINE
 10 
 2330 
 20 
 1480 
 30 
 0 
 11 
 2345 
 21 
 1518 
 31 
 0 
 0 
LINE
 10 
 2345 
 20 
 1518 
 30 
 0 
 11 
 2378.99169921875 
 21 
 1583.26391601563 
 31 
 0 
 0 
LINE
 10 
 2378.99169921875 
 20 
 1583.26391601563 
 30 
 0 
 11 
 2424.93603515625 
 21 
 1652.99206542969 
 31 
 0 
 0 
LINE
 10 
 2424.93603515625 
 20 
 1652.99206542969 
 30 
 0 
 11 
 2474.38403320313 
 21 
 1716.28796386719 
 31 
 0 
 0 
LINE
 10 
 2474.38403320313 
 20 
 1716.28796386719 
 30 
 0 
 11 
 2518.88793945313 
 21 
 1762.25598144531 
 31 
 0 
 0 
LINE
 10 
 2518.88793945313 
 20 
 1762.25598144531 
 30 
 0 
 11 
 2550 
 21 
 1780 
 31 
 0 
 0 
LINE
 10 
 2550 
 20 
 1780 
 30 
 0 
 11 
 2553.759765625 
 21 
 1778.74389648438 
 31 
 0 
 0 
LINE
 10 
 2553.759765625 
 20 
 1778.74389648438 
 30 
 0 
 11 
 2558.72021484375 
 21 
 1775.23193359375 
 31 
 0 
 0 
LINE
 10 
 2558.72021484375 
 20 
 1775.23193359375 
 30 
 0 
 11 
 2564.39990234375 
 21 
 1769.84802246094 
 31 
 0 
 0 
LINE
 10 
 2564.39990234375 
 20 
 1769.84802246094 
 30 
 0 
 11 
 2570.32006835938 
 21 
 1762.97607421875 
 31 
 0 
 0 
LINE
 10 
 2570.32006835938 
 20 
 1762.97607421875 
 30 
 0 
 11 
 2576 
 21 
 1755 
 31 
 0 
 0 
LINE
 10 
 3915 
 20 
 1717 
 30 
 0 
 11 
 3946.20776367188 
 21 
 1676.95202636719 
 31 
 0 
 0 
LINE
 10 
 3946.20776367188 
 20 
 1676.95202636719 
 30 
 0 
 11 
 3984.18408203125 
 21 
 1619.57604980469 
 31 
 0 
 0 
LINE
 10 
 3984.18408203125 
 20 
 1619.57604980469 
 30 
 0 
 11 
 4021.05615234375 
 21 
 1558.02392578125 
 31 
 0 
 0 
LINE
 10 
 4021.05615234375 
 20 
 1558.02392578125 
 30 
 0 
 11 
 4048.9521484375 
 21 
 1505.44799804688 
 31 
 0 
 0 
LINE
 10 
 4048.9521484375 
 20 
 1505.44799804688 
 30 
 0 
 11 
 4060 
 21 
 1475 
 31 
 0 
 0 
LINE
 10 
 4060 
 20 
 1475 
 30 
 0 
 11 
 4058.744140625 
 21 
 1473.39196777344 
 31 
 0 
 0 
LINE
 10 
 4058.744140625 
 20 
 1473.39196777344 
 30 
 0 
 11 
 4055.23217773438 
 21 
 1474.3759765625 
 31 
 0 
 0 
LINE
 10 
 4055.23217773438 
 20 
 1474.3759765625 
 30 
 0 
 11 
 4049.84790039063 
 21 
 1477.6640625 
 31 
 0 
 0 
LINE
 10 
 4049.84790039063 
 20 
 1477.6640625 
 30 
 0 
 11 
 4042.97607421875 
 21 
 1482.96801757813 
 31 
 0 
 0 
LINE
 10 
 4042.97607421875 
 20 
 1482.96801757813 
 30 
 0 
 11 
 4035 
 21 
 1490 
 31 
 0 
 0 
LINE
 10 
 4035 
 20 
 1490 
 30 
 0 
 11 
 4005.2080078125 
 21 
 1508.82397460938 
 31 
 0 
 0 
LINE
 10 
 4005.2080078125 
 20 
 1508.82397460938 
 30 
 0 
 11 
 3972.82397460938 
 21 
 1514.11206054688 
 31 
 0 
 0 
LINE
 10 
 3972.82397460938 
 20 
 1514.11206054688 
 30 
 0 
 11 
 3940.53588867188 
 21 
 1506.48803710938 
 31 
 0 
 0 
LINE
 10 
 3940.53588867188 
 20 
 1506.48803710938 
 30 
 0 
 11 
 3911.03198242188 
 21 
 1486.57604980469 
 31 
 0 
 0 
LINE
 10 
 3911.03198242188 
 20 
 1486.57604980469 
 30 
 0 
 11 
 3887 
 21 
 1455 
 31 
 0 
 0 
LINE
 10 
 3887 
 20 
 1455 
 30 
 0 
 11 
 3882.751953125 
 21 
 1445.62390136719 
 31 
 0 
 0 
LINE
 10 
 3882.751953125 
 20 
 1445.62390136719 
 30 
 0 
 11 
 3877.49609375 
 21 
 1431.59204101563 
 31 
 0 
 0 
LINE
 10 
 3877.49609375 
 20 
 1431.59204101563 
 30 
 0 
 11 
 3871.6640625 
 21 
 1414.248046875 
 31 
 0 
 0 
LINE
 10 
 3871.6640625 
 20 
 1414.248046875 
 30 
 0 
 11 
 3865.68798828125 
 21 
 1394.93603515625 
 31 
 0 
 0 
LINE
 10 
 3865.68798828125 
 20 
 1394.93603515625 
 30 
 0 
 11 
 3860 
 21 
 1375 
 31 
 0 
 0 
LINE
 10 
 3860 
 20 
 1375 
 30 
 0 
 11 
 3843 
 21 
 1315 
 31 
 0 
 0 
LINE
 10 
 3843 
 20 
 1315 
 30 
 0 
 11 
 3826 
 21 
 1405 
 31 
 0 
 0 
LINE
 10 
 3826 
 20 
 1405 
 30 
 0 
 11 
 3813.86376953125 
 21 
 1483.19995117188 
 31 
 0 
 0 
LINE
 10 
 3813.86376953125 
 20 
 1483.19995117188 
 30 
 0 
 11 
 3805.47216796875 
 21 
 1568.35998535156 
 31 
 0 
 0 
LINE
 10 
 3805.47216796875 
 20 
 1568.35998535156 
 30 
 0 
 11 
 3801.44799804688 
 21 
 1648.71997070313 
 31 
 0 
 0 
LINE
 10 
 3801.44799804688 
 20 
 1648.71997070313 
 30 
 0 
 11 
 3802.416015625 
 21 
 1712.52001953125 
 31 
 0 
 0 
LINE
 10 
 3802.416015625 
 20 
 1712.52001953125 
 30 
 0 
 11 
 3809 
 21 
 1748 
 31 
 0 
 0 
LINE
 10 
 3809 
 20 
 1748 
 30 
 0 
 11 
 3822.0400390625 
 21 
 1764.16796875 
 31 
 0 
 0 
LINE
 10 
 3822.0400390625 
 20 
 1764.16796875 
 30 
 0 
 11 
 3838.68017578125 
 21 
 1769.34411621094 
 31 
 0 
 0 
LINE
 10 
 3838.68017578125 
 20 
 1769.34411621094 
 30 
 0 
 11 
 3859.40014648438 
 21 
 1763.33605957031 
 31 
 0 
 0 
LINE
 10 
 3859.40014648438 
 20 
 1763.33605957031 
 30 
 0 
 11 
 3884.67993164063 
 21 
 1745.95202636719 
 31 
 0 
 0 
LINE
 10 
 3884.67993164063 
 20 
 1745.95202636719 
 30 
 0 
 11 
 3915 
 21 
 1717 
 31 
 0 
 0 
LINE
 10 
 2764 
 20 
 1661 
 30 
 0 
 11 
 2785.84008789063 
 21 
 1624.06396484375 
 31 
 0 
 0 
LINE
 10 
 2785.84008789063 
 20 
 1624.06396484375 
 30 
 0 
 11 
 2806.47998046875 
 21 
 1564.47204589844 
 31 
 0 
 0 
LINE
 10 
 2806.47998046875 
 20 
 1564.47204589844 
 30 
 0 
 11 
 2825.19995117188 
 21 
 1485.24792480469 
 31 
 0 
 0 
LINE
 10 
 2825.19995117188 
 20 
 1485.24792480469 
 30 
 0 
 11 
 2841.28002929688 
 21 
 1389.416015625 
 31 
 0 
 0 
LINE
 10 
 2841.28002929688 
 20 
 1389.416015625 
 30 
 0 
 11 
 2854 
 21 
 1280 
 31 
 0 
 0 
LINE
 10 
 2854 
 20 
 1280 
 30 
 0 
 11 
 2860 
 21 
 1226 
 31 
 0 
 0 
LINE
 10 
 2860 
 20 
 1226 
 30 
 0 
 11 
 2815 
 21 
 1277 
 31 
 0 
 0 
LINE
 10 
 2815 
 20 
 1277 
 30 
 0 
 11 
 2774.52807617188 
 21 
 1315.39990234375 
 31 
 0 
 0 
LINE
 10 
 2774.52807617188 
 20 
 1315.39990234375 
 30 
 0 
 11 
 2736.98413085938 
 21 
 1334.60009765625 
 31 
 0 
 0 
LINE
 10 
 2736.98413085938 
 20 
 1334.60009765625 
 30 
 0 
 11 
 2702.17602539063 
 21 
 1334.59997558594 
 31 
 0 
 0 
LINE
 10 
 2702.17602539063 
 20 
 1334.59997558594 
 30 
 0 
 11 
 2669.912109375 
 21 
 1315.40002441406 
 31 
 0 
 0 
LINE
 10 
 2669.912109375 
 20 
 1315.40002441406 
 30 
 0 
 11 
 2640 
 21 
 1277 
 31 
 0 
 0 
LINE
 10 
 2640 
 20 
 1277 
 30 
 0 
 11 
 2620 
 21 
 1245 
 31 
 0 
 0 
LINE
 10 
 2620 
 20 
 1245 
 30 
 0 
 11 
 2620 
 21 
 1279 
 31 
 0 
 0 
LINE
 10 
 2620 
 20 
 1279 
 30 
 0 
 11 
 2623.28002929688 
 21 
 1327.26391601563 
 31 
 0 
 0 
LINE
 10 
 2623.28002929688 
 20 
 1327.26391601563 
 30 
 0 
 11 
 2631.84008789063 
 21 
 1392.47204589844 
 31 
 0 
 0 
LINE
 10 
 2631.84008789063 
 20 
 1392.47204589844 
 30 
 0 
 11 
 2643.76000976563 
 21 
 1463.248046875 
 31 
 0 
 0 
LINE
 10 
 2643.76000976563 
 20 
 1463.248046875 
 30 
 0 
 11 
 2657.1201171875 
 21 
 1528.21606445313 
 31 
 0 
 0 
LINE
 10 
 2657.1201171875 
 20 
 1528.21606445313 
 30 
 0 
 11 
 2670 
 21 
 1576 
 31 
 0 
 0 
LINE
 10 
 2670 
 20 
 1576 
 30 
 0 
 11 
 2689.85595703125 
 21 
 1627.65588378906 
 31 
 0 
 0 
LINE
 10 
 2689.85595703125 
 20 
 1627.65588378906 
 30 
 0 
 11 
 2708.12817382813 
 21 
 1660.92797851563 
 31 
 0 
 0 
LINE
 10 
 2708.12817382813 
 20 
 1660.92797851563 
 30 
 0 
 11 
 2725.8720703125 
 21 
 1676.8720703125 
 31 
 0 
 0 
LINE
 10 
 2725.8720703125 
 20 
 1676.8720703125 
 30 
 0 
 11 
 2744.14404296875 
 21 
 1676.54406738281 
 31 
 0 
 0 
LINE
 10 
 2744.14404296875 
 20 
 1676.54406738281 
 30 
 0 
 11 
 2764 
 21 
 1661 
 31 
 0 
 0 
LINE
 10 
 3709 
 20 
 1607 
 30 
 0 
 11 
 3724.0400390625 
 21 
 1560.2958984375 
 31 
 0 
 0 
LINE
 10 
 3724.0400390625 
 20 
 1560.2958984375 
 30 
 0 
 11 
 3737.64013671875 
 21 
 1506.00805664063 
 31 
 0 
 0 
LINE
 10 
 3737.64013671875 
 20 
 1506.00805664063 
 30 
 0 
 11 
 3749.31982421875 
 21 
 1446.8720703125 
 31 
 0 
 0 
LINE
 10 
 3749.31982421875 
 20 
 1446.8720703125 
 30 
 0 
 11 
 3758.60009765625 
 21 
 1385.6240234375 
 31 
 0 
 0 
LINE
 10 
 3758.60009765625 
 20 
 1385.6240234375 
 30 
 0 
 11 
 3765 
 21 
 1325 
 31 
 0 
 0 
LINE
 10 
 3765 
 20 
 1325 
 30 
 0 
 11 
 3772 
 21 
 1245 
 31 
 0 
 0 
LINE
 10 
 3772 
 20 
 1245 
 30 
 0 
 11 
 3751 
 21 
 1277 
 31 
 0 
 0 
LINE
 10 
 3751 
 20 
 1277 
 30 
 0 
 11 
 3736.36010742188 
 21 
 1297.10400390625 
 31 
 0 
 0 
LINE
 10 
 3736.36010742188 
 20 
 1297.10400390625 
 30 
 0 
 11 
 3720.76000976563 
 21 
 1312.07202148438 
 31 
 0 
 0 
LINE
 10 
 3720.76000976563 
 20 
 1312.07202148438 
 30 
 0 
 11 
 3703.48022460938 
 21 
 1322.28796386719 
 31 
 0 
 0 
LINE
 10 
 3703.48022460938 
 20 
 1322.28796386719 
 30 
 0 
 11 
 3683.80004882813 
 21 
 1328.13610839844 
 31 
 0 
 0 
LINE
 10 
 3683.80004882813 
 20 
 1328.13610839844 
 30 
 0 
 11 
 3661 
 21 
 1330 
 31 
 0 
 0 
LINE
 10 
 3661 
 20 
 1330 
 30 
 0 
 11 
 3639.02392578125 
 21 
 1325.69592285156 
 31 
 0 
 0 
LINE
 10 
 3639.02392578125 
 20 
 1325.69592285156 
 30 
 0 
 11 
 3615.27197265625 
 21 
 1313.80798339844 
 31 
 0 
 0 
LINE
 10 
 3615.27197265625 
 20 
 1313.80798339844 
 30 
 0 
 11 
 3591.80810546875 
 21 
 1295.87194824219 
 31 
 0 
 0 
LINE
 10 
 3591.80810546875 
 20 
 1295.87194824219 
 30 
 0 
 11 
 3570.69604492188 
 21 
 1273.42407226563 
 31 
 0 
 0 
LINE
 10 
 3570.69604492188 
 20 
 1273.42407226563 
 30 
 0 
 11 
 3554 
 21 
 1248 
 31 
 0 
 0 
LINE
 10 
 3554 
 20 
 1248 
 30 
 0 
 11 
 3548.759765625 
 21 
 1238.9599609375 
 31 
 0 
 0 
LINE
 10 
 3548.759765625 
 20 
 1238.9599609375 
 30 
 0 
 11 
 3544 
 21 
 1231.35998535156 
 31 
 0 
 0 
LINE
 10 
 3544 
 20 
 1231.35998535156 
 30 
 0 
 11 
 3539.9599609375 
 21 
 1225.67993164063 
 31 
 0 
 0 
LINE
 10 
 3539.9599609375 
 20 
 1225.67993164063 
 30 
 0 
 11 
 3536.88012695313 
 21 
 1222.40002441406 
 31 
 0 
 0 
LINE
 10 
 3536.88012695313 
 20 
 1222.40002441406 
 30 
 0 
 11 
 3535 
 21 
 1222 
 31 
 0 
 0 
LINE
 10 
 3535 
 20 
 1222 
 30 
 0 
 11 
 3534.22387695313 
 21 
 1247.51989746094 
 31 
 0 
 0 
LINE
 10 
 3534.22387695313 
 20 
 1247.51989746094 
 30 
 0 
 11 
 3539.11206054688 
 21 
 1304.23999023438 
 31 
 0 
 0 
LINE
 10 
 3539.11206054688 
 20 
 1304.23999023438 
 30 
 0 
 11 
 3547.88818359375 
 21 
 1376.80004882813 
 31 
 0 
 0 
LINE
 10 
 3547.88818359375 
 20 
 1376.80004882813 
 30 
 0 
 11 
 3558.77587890625 
 21 
 1449.84008789063 
 31 
 0 
 0 
LINE
 10 
 3558.77587890625 
 20 
 1449.84008789063 
 30 
 0 
 11 
 3570 
 21 
 1508 
 31 
 0 
 0 
LINE
 10 
 3570 
 20 
 1508 
 30 
 0 
 11 
 3596.744140625 
 21 
 1598.26391601563 
 31 
 0 
 0 
LINE
 10 
 3596.744140625 
 20 
 1598.26391601563 
 30 
 0 
 11 
 3624.83203125 
 21 
 1653.8720703125 
 31 
 0 
 0 
LINE
 10 
 3624.83203125 
 20 
 1653.8720703125 
 30 
 0 
 11 
 3653.44799804688 
 21 
 1674.248046875 
 31 
 0 
 0 
LINE
 10 
 3653.44799804688 
 20 
 1674.248046875 
 30 
 0 
 11 
 3681.77612304688 
 21 
 1658.81604003906 
 31 
 0 
 0 
LINE
 10 
 3681.77612304688 
 20 
 1658.81604003906 
 30 
 0 
 11 
 3709 
 21 
 1607 
 31 
 0 
 0 
LINE
 10 
 2597 
 20 
 1408 
 30 
 0 
 11 
 2595.22412109375 
 21 
 1404.49597167969 
 31 
 0 
 0 
LINE
 10 
 2595.22412109375 
 20 
 1404.49597167969 
 30 
 0 
 11 
 2593.59204101563 
 21 
 1403.48791503906 
 31 
 0 
 0 
LINE
 10 
 2593.59204101563 
 20 
 1403.48791503906 
 30 
 0 
 11 
 2592.248046875 
 21 
 1404.83203125 
 31 
 0 
 0 
LINE
 10 
 2592.248046875 
 20 
 1404.83203125 
 30 
 0 
 11 
 2591.33618164063 
 21 
 1408.38403320313 
 31 
 0 
 0 
LINE
 10 
 2591.33618164063 
 20 
 1408.38403320313 
 30 
 0 
 11 
 2591 
 21 
 1414 
 31 
 0 
 0 
LINE
 10 
 2591 
 20 
 1414 
 30 
 0 
 11 
 2590.84790039063 
 21 
 1419.9599609375 
 31 
 0 
 0 
LINE
 10 
 2590.84790039063 
 20 
 1419.9599609375 
 30 
 0 
 11 
 2591.46411132813 
 21 
 1424.47998046875 
 31 
 0 
 0 
LINE
 10 
 2591.46411132813 
 20 
 1424.47998046875 
 30 
 0 
 11 
 2592.65600585938 
 21 
 1427.32006835938 
 31 
 0 
 0 
LINE
 10 
 2592.65600585938 
 20 
 1427.32006835938 
 30 
 0 
 11 
 2594.23193359375 
 21 
 1428.23999023438 
 31 
 0 
 0 
LINE
 10 
 2594.23193359375 
 20 
 1428.23999023438 
 30 
 0 
 11 
 2596 
 21 
 1427 
 31 
 0 
 0 
LINE
 10 
 2596 
 20 
 1427 
 30 
 0 
 11 
 2597.54418945313 
 21 
 1424.5439453125 
 31 
 0 
 0 
LINE
 10 
 2597.54418945313 
 20 
 1424.5439453125 
 30 
 0 
 11 
 2598.51196289063 
 21 
 1421.03210449219 
 31 
 0 
 0 
LINE
 10 
 2598.51196289063 
 20 
 1421.03210449219 
 30 
 0 
 11 
 2598.80810546875 
 21 
 1416.84802246094 
 31 
 0 
 0 
LINE
 10 
 2598.80810546875 
 20 
 1416.84802246094 
 30 
 0 
 11 
 2598.33618164063 
 21 
 1412.3759765625 
 31 
 0 
 0 
LINE
 10 
 2598.33618164063 
 20 
 1412.3759765625 
 30 
 0 
 11 
 2597 
 21 
 1408 
 31 
 0 
 0 
LINE
 10 
 3797 
 20 
 1408 
 30 
 0 
 11 
 3795.22387695313 
 21 
 1404.49597167969 
 31 
 0 
 0 
LINE
 10 
 3795.22387695313 
 20 
 1404.49597167969 
 30 
 0 
 11 
 3793.59204101563 
 21 
 1403.48791503906 
 31 
 0 
 0 
LINE
 10 
 3793.59204101563 
 20 
 1403.48791503906 
 30 
 0 
 11 
 3792.248046875 
 21 
 1404.83203125 
 31 
 0 
 0 
LINE
 10 
 3792.248046875 
 20 
 1404.83203125 
 30 
 0 
 11 
 3791.33618164063 
 21 
 1408.38403320313 
 31 
 0 
 0 
LINE
 10 
 3791.33618164063 
 20 
 1408.38403320313 
 30 
 0 
 11 
 3791 
 21 
 1414 
 31 
 0 
 0 
LINE
 10 
 3791 
 20 
 1414 
 30 
 0 
 11 
 3790.84765625 
 21 
 1419.9599609375 
 31 
 0 
 0 
LINE
 10 
 3790.84765625 
 20 
 1419.9599609375 
 30 
 0 
 11 
 3791.46411132813 
 21 
 1424.47998046875 
 31 
 0 
 0 
LINE
 10 
 3791.46411132813 
 20 
 1424.47998046875 
 30 
 0 
 11 
 3792.65600585938 
 21 
 1427.32006835938 
 31 
 0 
 0 
LINE
 10 
 3792.65600585938 
 20 
 1427.32006835938 
 30 
 0 
 11 
 3794.23193359375 
 21 
 1428.23999023438 
 31 
 0 
 0 
LINE
 10 
 3794.23193359375 
 20 
 1428.23999023438 
 30 
 0 
 11 
 3796 
 21 
 1427 
 31 
 0 
 0 
LINE
 10 
 3796 
 20 
 1427 
 30 
 0 
 11 
 3797.5439453125 
 21 
 1424.5439453125 
 31 
 0 
 0 
LINE
 10 
 3797.5439453125 
 20 
 1424.5439453125 
 30 
 0 
 11 
 3798.51220703125 
 21 
 1421.03210449219 
 31 
 0 
 0 
LINE
 10 
 3798.51220703125 
 20 
 1421.03210449219 
 30 
 0 
 11 
 3798.80810546875 
 21 
 1416.84802246094 
 31 
 0 
 0 
LINE
 10 
 3798.80810546875 
 20 
 1416.84802246094 
 30 
 0 
 11 
 3798.33618164063 
 21 
 1412.3759765625 
 31 
 0 
 0 
LINE
 10 
 3798.33618164063 
 20 
 1412.3759765625 
 30 
 0 
 11 
 3797 
 21 
 1408 
 31 
 0 
 0 
ENDSEC
 0 
EOF
