  0
SECTION
  2
HEADER
  9
$ACADVER
  1
AC1009
  9
$DWGCODEPAGE
  3
ansi_1252
  9
$INSBASE
 10
0.0
 20
0.0
 30
0.0
  9
$EXTMIN
 10
0.0
 20
0.0
 30
0.0
  9
$EXTMAX
 10
48.0
 20
48.0
 30
0.0
  9
$LIMMIN
 10
0.0
 20
0.0
  9
$LIMMAX
 10
12.0
 20
9.0
  9
$ORTHOMODE
 70
     0
  9
$REGENMODE
 70
     1
  9
$FILLMODE
 70
     1
  9
$QTEXTMODE
 70
     0
  9
$MIRRTEXT
 70
     1
  9
$DRAGMODE
 70
     2
  9
$LTSCALE
 40
1.0
  9
$OSMODE
 70
   511
  9
$ATTMODE
 70
     1
  9
$TEXTSIZE
 40
0.2
  9
$TRACEWID
 40
0.05
  9
$TEXTSTYLE
  7
STANDARD
  9
$CLAYER
  8
0
  9
$CELTYPE
  6
BYBLOCK
  9
$CECOLOR
 62
   256
  9
$DIMSCALE
 40
1.0
  9
$DIMASZ
 40
0.18
  9
$DIMEXO
 40
0.0625
  9
$DIMDLI
 40
0.38
  9
$DIMRND
 40
0.0
  9
$DIMDLE
 40
0.0
  9
$DIMEXE
 40
0.18
  9
$DIMTP
 40
0.0
  9
$DIMTM
 40
0.0
  9
$DIMTXT
 40
0.18
  9
$DIMCEN
 40
0.09
  9
$DIMTSZ
 40
0.0
  9
$DIMTOL
 70
     0
  9
$DIMLIM
 70
     0
  9
$DIMTIH
 70
     1
  9
$DIMTOH
 70
     1
  9
$DIMSE1
 70
     0
  9
$DIMSE2
 70
     0
  9
$DIMTAD
 70
     0
  9
$DIMZIN
 70
     0
  9
$DIMBLK
  1

  9
$DIMASO
 70
     1
  9
$DIMSHO
 70
     1
  9
$DIMPOST
  1

  9
$DIMAPOST
  1

  9
$DIMALT
 70
     0
  9
$DIMALTD
 70
     2
  9
$DIMALTF
 40
25.4
  9
$DIMLFAC
 40
1.0
  9
$DIMTOFL
 70
     0
  9
$DIMTVP
 40
0.0
  9
$DIMTIX
 70
     0
  9
$DIMSOXD
 70
     0
  9
$DIMSAH
 70
     0
  9
$DIMBLK1
  1

  9
$DIMBLK2
  1

  9
$DIMSTYLE
  2
STANDARD
  9
$DIMCLRD
 70
     0
  9
$DIMCLRE
 70
     0
  9
$DIMCLRT
 70
     0
  9
$DIMTFAC
 40
1.0
  9
$DIMGAP
 40
0.09
  9
$LUNITS
 70
     2
  9
$LUPREC
 70
     4
  9
$SKETCHINC
 40
0.1
  9
$FILLETRAD
 40
0.5
  9
$AUNITS
 70
     0
  9
$AUPREC
 70
     0
  9
$MENU
  1
.
  9
$ELEVATION
 40
0.0
  9
$PELEVATION
 40
0.0
  9
$THICKNESS
 40
0.0
  9
$LIMCHECK
 70
     0
  9
$CHAMFERA
 40
0.0
  9
$CHAMFERB
 40
0.0
  9
$SKPOLY
 70
     0
  9
$TDCREATE
 40
2457047.857290706
  9
$TDUPDATE
 40
2457047.860204699
  9
$TDINDWG
 40
0.0029142477
  9
$TDUSRTIMER
 40
2457048.065625382
  9
$USRTIMER
 70
     1
  9
$ANGBASE
 50
0.0
  9
$ANGDIR
 70
     0
  9
$PDMODE
 70
     0
  9
$PDSIZE
 40
0.0
  9
$PLINEWID
 40
0.0
  9
$COORDS
 70
     1
  9
$SPLFRAME
 70
     0
  9
$SPLINETYPE
 70
     6
  9
$SPLINESEGS
 70
     8
  9
$ATTDIA
 70
     0
  9
$ATTREQ
 70
     1
  9
$HANDLING
 70
     1
  9
$HANDSEED
  5
2EE
  9
$SURFTAB1
 70
     6
  9
$SURFTAB2
 70
     6
  9
$SURFTYPE
 70
     6
  9
$SURFU
 70
     6
  9
$SURFV
 70
     6
  9
$UCSNAME
  2

  9
$UCSORG
 10
0.0
 20
0.0
 30
0.0
  9
$UCSXDIR
 10
1.0
 20
0.0
 30
0.0
  9
$UCSYDIR
 10
0.0
 20
1.0
 30
0.0
  9
$PUCSNAME
  2

  9
$PUCSORG
 10
0.0
 20
0.0
 30
0.0
  9
$PUCSXDIR
 10
1.0
 20
0.0
 30
0.0
  9
$PUCSYDIR
 10
0.0
 20
1.0
 30
0.0
  9
$USERI1
 70
     0
  9
$USERI2
 70
     0
  9
$USERI3
 70
     0
  9
$USERI4
 70
     0
  9
$USERI5
 70
     0
  9
$USERR1
 40
0.0
  9
$USERR2
 40
0.0
  9
$USERR3
 40
0.0
  9
$USERR4
 40
0.0
  9
$USERR5
 40
0.0
  9
$WORLDVIEW
 70
     1
  9
$SHADEDGE
 70
     3
  9
$SHADEDIF
 70
    70
  9
$TILEMODE
 70
     1
  9
$MAXACTVP
 70
    64
  9
$PLIMCHECK
 70
     0
  9
$PEXTMIN
 10
1.000000000000000E+20
 20
1.000000000000000E+20
 30
1.000000000000000E+20
  9
$PEXTMAX
 10
-1.000000000000000E+20
 20
-1.000000000000000E+20
 30
-1.000000000000000E+20
  9
$PLIMMIN
 10
0.0
 20
0.0
  9
$PLIMMAX
 10
0.0
 20
0.0
  9
$UNITMODE
 70
     0
  9
$VISRETAIN
 70
     1
  9
$PLINEGEN
 70
     0
  9
$PSLTSCALE
 70
     1
  0
ENDSEC
  0
SECTION
  2
TABLES
  0
TABLE
  2
VPORT
 70
     1
  0
VPORT
  2
*ACTIVE
 70
     0
 10
0.0
 20
0.0
 11
1.0
 21
1.0
 12
31.77192822386805
 22
19.56912534794001
 13
0.0
 23
0.0
 14
0.5
 24
0.5
 15
0.5
 25
0.5
 16
0.0
 26
0.0
 36
1.0
 17
0.0
 27
0.0
 37
0.0
 40
27.46582031250001
 41
2.099740932642487
 42
50.0
 43
0.0
 44
0.0
 50
0.0
 51
0.0
 71
    16
 72
   100
 73
     1
 74
     3
 75
     0
 76
     0
 77
     0
 78
     0
  0
ENDTAB
  0
TABLE
  2
LTYPE
 70
     2
  0
LTYPE
  2
CONTINUOUS
 70
     0
  3
Solid line
 72
    65
 73
     0
 40
0.0
  0
LTYPE
  2
0
 70
     0
  3
Solid Line
 72
    65
 73
     0
 40
0.0
  0
ENDTAB
  0
TABLE
  2
LAYER
 70
     2
  0
LAYER
  2
0
 70
     0
 62
     7
  6
CONTINUOUS
  0
LAYER
  2
1
 70
     0
 62
     7
  6
0
  0
ENDTAB
  0
TABLE
  2
STYLE
 70
     1
  0
STYLE
  2
STANDARD
 70
     0
 40
0.0
 41
1.0
 50
0.0
 71
     0
 42
0.2
  3
txt
  4

  0
ENDTAB
  0
TABLE
  2
VIEW
 70
     0
  0
ENDTAB
  0
TABLE
  2
UCS
 70
     0
  0
ENDTAB
  0
TABLE
  2
APPID
 70
     1
  0
APPID
  2
ACAD
 70
     0
  0
ENDTAB
  0
TABLE
  2
DIMSTYLE
 70
     1
  0
DIMSTYLE
  2
STANDARD
 70
     0
  3

  4

  5

  6

  7

 40
1.0
 41
0.18
 42
0.0625
 43
0.38
 44
0.18
 45
0.0
 46
0.0
 47
0.0
 48
0.0
140
0.18
141
0.09
142
0.0
143
25.4
144
1.0
145
0.0
146
1.0
147
0.09
 71
     0
 72
     0
 73
     1
 74
     1
 75
     0
 76
     0
 77
     0
 78
     0
170
     0
171
     2
172
     0
173
     0
174
     0
175
     0
176
     0
177
     0
178
     0
  0
ENDTAB
  0
ENDSEC
  0
SECTION
  2
BLOCKS
  0
BLOCK
  8
0
  2
$MODEL_SPACE
 70
     0
 10
0.0
 20
0.0
 30
0.0
  3
$MODEL_SPACE
  1

  0
ENDBLK
  5
2C9
  8
0
  0
BLOCK
 67
     1
  8
0
  2
$PAPER_SPACE
 70
     0
 10
0.0
 20
0.0
 30
0.0
  3
$PAPER_SPACE
  1

  0
ENDBLK
  5
2CB
 67
     1
  8
0
  0
ENDSEC
  0
SECTION
  2
ENTITIES
  0
ARC
  5
23
  8
1
 10
36.208973
 20
23.778116
 30
0.0
 40
1.063252
 50
16.103096
 51
163.583315
  0
LINE
  5
24
  8
1
 10
35.189068
 20
24.078613
 30
0.0
 11
34.933887
 21
24.079315
 31
0.0
  0
ARC
  5
25
  8
1
 10
36.209087
 20
23.820641
 30
0.0
 40
1.301172
 50
11.153025
 51
168.533123
  0
LINE
  5
26
  8
1
 10
37.485687
 20
24.072327
 30
0.0
 11
37.230507
 21
24.073027
 31
0.0
  0
CIRCLE
  5
27
  8
1
 10
35.994286
 20
23.821167
 30
0.0
 40
0.421606
  0
ARC
  5
28
  8
1
 10
38.892883
 20
19.954802
 30
0.0
 40
1.908904
 50
48.994398
 51
241.67496
  0
LINE
  5
29
  8
1
 10
37.98716
 20
18.27445
 30
0.0
 11
37.747356
 21
17.927681
 31
0.0
  0
ARC
  5
2A
  8
1
 10
39.031593
 20
19.858875
 30
0.0
 40
2.319219
 50
54.293137
 51
236.376248
  0
LINE
  5
2B
  8
1
 10
40.385178
 20
21.742111
 30
0.0
 11
40.145378
 21
21.395348
 31
0.0
  0
CIRCLE
  5
2C
  8
1
 10
34.353535
 20
21.620386
 30
0.0
 40
0.136361
  0
ARC
  5
2D
  8
1
 10
34.312248
 20
21.69241
 30
0.0
 40
0.458969
 50
259.022503
 51
15.465915
  0
ARC
  5
2E
  8
1
 10
34.185726
 20
21.68321
 30
0.0
 40
0.583892
 50
13.024455
 51
50.555516
  0
ARC
  5
2F
  8
1
 10
37.16856
 20
23.937275
 30
0.0
 40
3.173838
 50
190.870592
 51
214.620086
  0
LINE
  5
30
  8
1
 10
34.051674
 20
23.338717
 30
0.0
 11
34.021564
 21
23.269827
 31
0.0
  0
ARC
  5
31
  8
1
 10
37.130066
 20
23.90995
 30
0.0
 40
3.173726
 50
191.636075
 51
214.620185
  0
ARC
  5
32
  8
1
 10
34.147591
 20
21.656147
 30
0.0
 40
0.583568
 50
1.038263
 51
50.562862
  0
ARC
  5
33
  8
1
 10
34.30925
 20
21.692646
 30
0.0
 40
0.42261
 50
258.139766
 51
356.483026
  0
ARC
  5
34
  8
1
 10
34.35585
 20
21.734943
 30
0.0
 40
0.475018
 50
230.098376
 51
253.682973
  0
LINE
  5
35
  8
1
 10
34.05114
 20
21.370535
 30
0.0
 11
34.025425
 21
21.333033
 31
0.0
  0
ARC
  5
36
  8
1
 10
34.316738
 20
21.70643
 30
0.0
 40
0.473592
 50
232.039776
 51
258.812258
  0
ARC
  5
37
  8
1
 10
6.38965
 20
13.014867
 30
0.0
 40
5.015217
 50
268.404513
 51
283.170558
  0
ARC
  5
38
  8
1
 10
6.437652
 20
9.365386
 30
0.0
 40
1.649457
 50
263.327438
 51
311.581422
  0
LINE
  5
39
  8
1
 10
6.245993
 20
7.727101
 30
0.0
 11
6.241749
 21
6.175703
 31
0.0
  0
ARC
  5
3A
  8
1
 10
7.750744
 20
9.576268
 30
0.0
 40
3.720337
 50
113.615476
 51
246.070829
  0
LINE
  5
3B
  8
1
 10
6.260389
 20
12.985044
 30
0.0
 11
6.250011
 21
8.001595
 31
0.0
  0
ARC
  5
3C
  8
1
 10
7.667646
 20
10.079839
 30
0.0
 40
0.613304
 50
16.10288600000001
 51
163.58342
  0
LINE
  5
3D
  8
1
 10
7.079346
 20
10.25317
 30
0.0
 11
6.932148
 21
10.253574
 31
0.0
  0
ARC
  5
3E
  8
1
 10
7.667712
 20
10.104366
 30
0.0
 40
0.750545
 50
11.153027
 51
168.533214
  0
LINE
  5
3F
  8
1
 10
8.404081
 20
10.249544
 30
0.0
 11
8.256887
 21
10.249947
 31
0.0
  0
CIRCLE
  5
40
  8
1
 10
7.54381
 20
10.104748
 30
0.0
 40
0.243192
  0
ARC
  5
41
  8
1
 10
9.030425
 20
7.911539
 30
0.0
 40
1.101097
 50
48.99448199999999
 51
241.674818
  0
LINE
  5
42
  8
1
 10
8.507982
 20
6.942278
 30
0.0
 11
8.369658
 21
6.742254
 31
0.0
  0
ARC
  5
43
  8
1
 10
9.110434
 20
7.856208
 30
0.0
 40
1.337775
 50
54.293118
 51
236.376218
  0
LINE
  5
44
  8
1
 10
9.891211
 20
8.942499
 30
0.0
 11
9.75289
 21
8.742477
 31
0.0
  0
CIRCLE
  5
45
  8
1
 10
6.597393
 20
8.835168
 30
0.0
 40
0.078656
  0
ARC
  5
46
  8
1
 10
6.576191
 20
8.884904
 30
0.0
 40
0.273241
 50
232.043095
 51
258.809569
  0
LINE
  5
47
  8
1
 10
6.408129
 20
8.66946
 30
0.0
 11
6.42296
 21
8.691092
 31
0.0
  0
ARC
  5
48
  8
1
 10
6.576272
 20
8.859264
 30
0.0
 40
0.227566
 50
227.64663
 51
312.2367760000001
  0
ARC
  5
49
  8
1
 10
6.577115
 20
8.874286
 30
0.0
 40
0.238362
 50
309.6586710000001
 51
24.166964
  0
ARC
  5
4A
  8
1
 10
6.47842
 20
8.855705
 30
0.0
 40
0.336832
 50
20.17423
 51
50.553862
  0
ARC
  5
4B
  8
1
 10
8.198857
 20
10.155849
 30
0.0
 40
1.830575
 50
191.635676
 51
214.621064
  0
LINE
  5
4C
  8
1
 10
6.405901
 20
9.786644
 30
0.0
 11
6.423271
 21
9.826382
 31
0.0
  0
ARC
  5
4D
  8
1
 10
8.221066
 20
10.171604
 30
0.0
 40
1.83064
 50
190.869943
 51
214.620708
  0
ARC
  5
4E
  8
1
 10
6.510119
 20
8.878211
 30
0.0
 40
0.325544
 50
344.558306
 51
51.094125
  0
ARC
  5
4F
  8
1
 10
6.574203
 20
8.875226
 30
0.0
 40
0.263361
 50
258.825323
 51
341.470704
  0
LINE
  5
50
  8
1
 10
5.384556
 20
11.503
 30
0.0
 11
5.40172
 21
11.494362
 31
0.0
  0
LINE
  5
51
  8
1
 10
5.40172
 20
11.494362
 30
0.0
 11
5.891586
 21
11.493021
 31
0.0
  0
LINE
  5
52
  8
1
 10
5.891586
 20
11.493021
 30
0.0
 11
5.968515
 21
11.491655
 31
0.0
  0
LINE
  5
53
  8
1
 10
5.968515
 20
11.491655
 30
0.0
 11
5.908659
 21
11.450003
 31
0.0
  0
ARC
  5
54
  8
1
 10
1.96172
 20
16.565477
 30
0.0
 40
6.461146
 50
303.611887
 51
307.652649
  0
LINE
  5
55
  8
1
 10
5.53838
 20
11.184593
 30
0.0
 11
5.495314
 21
11.150331
 31
0.0
  0
LINE
  5
56
  8
1
 10
5.495314
 20
11.150331
 30
0.0
 11
5.65724
 21
10.651423
 31
0.0
  0
LINE
  5
57
  8
1
 10
5.65724
 20
10.651423
 30
0.0
 11
5.682219
 21
10.581768
 31
0.0
  0
LINE
  5
58
  8
1
 10
5.682219
 20
10.581768
 30
0.0
 11
5.621517
 21
10.626675
 31
0.0
  0
LINE
  5
59
  8
1
 10
5.621517
 20
10.626675
 30
0.0
 11
5.202522
 21
10.936281
 31
0.0
  0
ARC
  5
5A
  8
1
 10
9.013303
 20
5.158098
 30
0.0
 40
6.921665
 50
123.405324
 51
127.789506
  0
LINE
  5
5B
  8
1
 10
4.771967
 20
10.628063
 30
0.0
 11
4.718561
 21
10.593761
 31
0.0
  0
LINE
  5
5C
  8
1
 10
4.718561
 20
10.593761
 30
0.0
 11
4.737661
 21
10.65394
 31
0.0
  0
LINE
  5
5D
  8
1
 10
4.737661
 20
10.65394
 30
0.0
 11
4.858944
 21
11.005974
 31
0.0
  0
LINE
  5
5E
  8
1
 10
4.858944
 20
11.005974
 30
0.0
 11
4.893623
 21
11.117605
 31
0.0
  0
LINE
  5
5F
  8
1
 10
4.893623
 20
11.117605
 30
0.0
 11
4.902336
 21
11.160551
 31
0.0
  0
LINE
  5
60
  8
1
 10
4.902336
 20
11.160551
 30
0.0
 11
4.876602
 21
11.177811
 31
0.0
  0
LINE
  5
61
  8
1
 10
4.876602
 20
11.177811
 30
0.0
 11
4.619293
 21
11.367588
 31
0.0
  0
LINE
  5
62
  8
1
 10
4.619293
 20
11.367588
 30
0.0
 11
4.490639
 21
11.462477
 31
0.0
  0
LINE
  5
63
  8
1
 10
4.490639
 20
11.462477
 30
0.0
 11
4.443489
 21
11.50519
 31
0.0
  0
LINE
  5
64
  8
1
 10
4.443489
 20
11.50519
 30
0.0
 11
4.499352
 21
11.505424
 31
0.0
  0
LINE
  5
65
  8
1
 10
4.499352
 20
11.505424
 30
0.0
 11
5.023596
 21
11.503988
 31
0.0
  0
LINE
  5
66
  8
1
 10
5.023596
 20
11.503988
 30
0.0
 11
5.20912
 21
12.067585
 31
0.0
  0
LINE
  5
67
  8
1
 10
5.20912
 20
12.067585
 30
0.0
 11
5.384556
 21
11.503
 31
0.0
  0
LINE
  5
68
  8
1
 10
6.016689
 20
12.359669
 30
0.0
 11
6.026587
 21
12.354689
 31
0.0
  0
LINE
  5
69
  8
1
 10
6.026587
 20
12.354689
 30
0.0
 11
6.309082
 21
12.353914
 31
0.0
  0
LINE
  5
6A
  8
1
 10
6.309082
 20
12.353914
 30
0.0
 11
6.353443
 21
12.353127
 31
0.0
  0
ARC
  5
6B
  8
1
 10
-2.048538
 20
23.71398
 30
0.0
 40
14.13019
 50
305.120639
 51
306.484983
  0
LINE
  5
6C
  8
1
 10
6.080559
 20
12.156296
 30
0.0
 11
6.173937
 21
11.868586
 31
0.0
  0
LINE
  5
6D
  8
1
 10
6.173937
 20
11.868586
 30
0.0
 11
6.188343
 21
11.828417
 31
0.0
  0
LINE
  5
6E
  8
1
 10
6.188343
 20
11.828417
 30
0.0
 11
6.153337
 21
11.854313
 31
0.0
  0
LINE
  5
6F
  8
1
 10
6.153337
 20
11.854313
 30
0.0
 11
5.911715
 21
12.032856
 31
0.0
  0
ARC
  5
70
  8
1
 10
46.242126
 20
-45.247822
 30
0.0
 40
70.054394
 50
125.148762
 51
125.428404
  0
LINE
  5
71
  8
1
 10
5.632627
 20
11.835335
 30
0.0
 11
5.643642
 21
11.870039
 31
0.0
  0
LINE
  5
72
  8
1
 10
5.643642
 20
11.870039
 30
0.0
 11
5.713583
 21
12.073046
 31
0.0
  0
LINE
  5
73
  8
1
 10
5.713583
 20
12.073046
 30
0.0
 11
5.733583
 21
12.137419
 31
0.0
  0
LINE
  5
74
  8
1
 10
5.733583
 20
12.137419
 30
0.0
 11
5.738605
 21
12.162188
 31
0.0
  0
LINE
  5
75
  8
1
 10
5.738605
 20
12.162188
 30
0.0
 11
5.723766
 21
12.17214
 31
0.0
  0
LINE
  5
76
  8
1
 10
5.723766
 20
12.17214
 30
0.0
 11
5.575382
 21
12.281582
 31
0.0
  0
LINE
  5
77
  8
1
 10
5.575382
 20
12.281582
 30
0.0
 11
5.50119
 21
12.336298
 31
0.0
  0
LINE
  5
78
  8
1
 10
5.50119
 20
12.336298
 30
0.0
 11
5.473999
 21
12.360931
 31
0.0
  0
LINE
  5
79
  8
1
 10
5.473999
 20
12.360931
 30
0.0
 11
5.506214
 21
12.361065
 31
0.0
  0
LINE
  5
7A
  8
1
 10
5.506214
 20
12.361065
 30
0.0
 11
5.808533
 21
12.360239
 31
0.0
  0
LINE
  5
7B
  8
1
 10
5.808533
 20
12.360239
 30
0.0
 11
5.91552
 21
12.685249
 31
0.0
  0
LINE
  5
7C
  8
1
 10
5.91552
 20
12.685249
 30
0.0
 11
6.016689
 21
12.359669
 31
0.0
  0
LINE
  5
7D
  8
1
 10
5.253725
 20
8.237324
 30
0.0
 11
5.270887
 21
8.228686
 31
0.0
  0
LINE
  5
7E
  8
1
 10
5.270887
 20
8.228686
 30
0.0
 11
5.760757
 21
8.227345
 31
0.0
  0
LINE
  5
7F
  8
1
 10
5.760757
 20
8.227345
 30
0.0
 11
5.837685
 21
8.225981
 31
0.0
  0
LINE
  5
80
  8
1
 10
5.837685
 20
8.225981
 30
0.0
 11
5.777828
 21
8.184327
 31
0.0
  0
ARC
  5
81
  8
1
 10
1.830201
 20
13.300736
 30
0.0
 40
6.462306
 50
303.6123929999999
 51
307.652416
  0
LINE
  5
82
  8
1
 10
5.407551
 20
7.918918
 30
0.0
 11
5.364483
 21
7.884659
 31
0.0
  0
LINE
  5
83
  8
1
 10
5.364483
 20
7.884659
 30
0.0
 11
5.526409
 21
7.385749
 31
0.0
  0
LINE
  5
84
  8
1
 10
5.526409
 20
7.385749
 30
0.0
 11
5.55139
 21
7.316092
 31
0.0
  0
LINE
  5
85
  8
1
 10
5.55139
 20
7.316092
 30
0.0
 11
5.490686
 21
7.361
 31
0.0
  0
LINE
  5
86
  8
1
 10
5.490686
 20
7.361
 30
0.0
 11
5.071692
 21
7.670604
 31
0.0
  0
ARC
  5
87
  8
1
 10
8.881315
 20
1.893995
 30
0.0
 40
6.919714
 50
123.404505
 51
127.789893
  0
LINE
  5
88
  8
1
 10
4.641138
 20
7.36239
 30
0.0
 11
4.58773
 21
7.328088
 31
0.0
  0
LINE
  5
89
  8
1
 10
4.58773
 20
7.328088
 30
0.0
 11
4.606831
 21
7.388266
 31
0.0
  0
LINE
  5
8A
  8
1
 10
4.606831
 20
7.388266
 30
0.0
 11
4.728115
 21
7.740298
 31
0.0
  0
LINE
  5
8B
  8
1
 10
4.728115
 20
7.740298
 30
0.0
 11
4.762794
 21
7.851929
 31
0.0
  0
LINE
  5
8C
  8
1
 10
4.762794
 20
7.851929
 30
0.0
 11
4.771507
 21
7.894876
 31
0.0
  0
LINE
  5
8D
  8
1
 10
4.771507
 20
7.894876
 30
0.0
 11
4.745773
 21
7.912136
 31
0.0
  0
LINE
  5
8E
  8
1
 10
4.745773
 20
7.912136
 30
0.0
 11
4.488464
 21
8.101914
 31
0.0
  0
LINE
  5
8F
  8
1
 10
4.488464
 20
8.101914
 30
0.0
 11
4.359808
 21
8.196799
 31
0.0
  0
LINE
  5
90
  8
1
 10
4.359808
 20
8.196799
 30
0.0
 11
4.31266
 21
8.239513
 31
0.0
  0
LINE
  5
91
  8
1
 10
4.31266
 20
8.239513
 30
0.0
 11
4.368523
 21
8.239748
 31
0.0
  0
LINE
  5
92
  8
1
 10
4.368523
 20
8.239748
 30
0.0
 11
4.892767
 21
8.238312
 31
0.0
  0
LINE
  5
93
  8
1
 10
4.892767
 20
8.238312
 30
0.0
 11
5.078291
 21
8.801908
 31
0.0
  0
LINE
  5
94
  8
1
 10
5.078291
 20
8.801908
 30
0.0
 11
5.253725
 21
8.237324
 31
0.0
  0
LINE
  5
95
  8
1
 10
5.398817
 20
10.176653
 30
0.0
 11
5.409386
 21
10.171337
 31
0.0
  0
LINE
  5
96
  8
1
 10
5.409386
 20
10.171337
 30
0.0
 11
5.710997
 21
10.170511
 31
0.0
  0
LINE
  5
97
  8
1
 10
5.710997
 20
10.170511
 30
0.0
 11
5.75836
 21
10.169672
 31
0.0
  0
ARC
  5
98
  8
1
 10
-3.222915
 20
22.314068
 30
0.0
 40
15.104623
 50
305.121738
 51
306.484434
  0
LINE
  5
99
  8
1
 10
5.46701
 20
9.95952
 30
0.0
 11
5.566708
 21
9.65234
 31
0.0
  0
LINE
  5
9A
  8
1
 10
5.566708
 20
9.65234
 30
0.0
 11
5.582088
 21
9.609453
 31
0.0
  0
LINE
  5
9B
  8
1
 10
5.582088
 20
9.609453
 30
0.0
 11
5.544716
 21
9.637104
 31
0.0
  0
LINE
  5
9C
  8
1
 10
5.544716
 20
9.637104
 30
0.0
 11
5.286741
 21
9.827726
 31
0.0
  0
ARC
  5
9D
  8
1
 10
7.632655
 20
6.270601
 30
0.0
 40
4.261038
 50
123.404729
 51
127.789544
  0
LINE
  5
9E
  8
1
 10
5.021648
 20
9.637959
 30
0.0
 11
4.988768
 21
9.61684
 31
0.0
  0
LINE
  5
9F
  8
1
 10
4.988768
 20
9.61684
 30
0.0
 11
5.000526
 21
9.653891
 31
0.0
  0
LINE
  5
A0
  8
1
 10
5.000526
 20
9.653891
 30
0.0
 11
5.075203
 21
9.870638
 31
0.0
  0
LINE
  5
A1
  8
1
 10
5.075203
 20
9.870638
 30
0.0
 11
5.096554
 21
9.939367
 31
0.0
  0
LINE
  5
A2
  8
1
 10
5.096554
 20
9.939367
 30
0.0
 11
5.101917
 21
9.965811
 31
0.0
  0
LINE
  5
A3
  8
1
 10
5.101917
 20
9.965811
 30
0.0
 11
5.086073
 21
9.976437
 31
0.0
  0
LINE
  5
A4
  8
1
 10
5.086073
 20
9.976437
 30
0.0
 11
4.927649
 21
10.093283
 31
0.0
  0
LINE
  5
A5
  8
1
 10
4.927649
 20
10.093283
 30
0.0
 11
4.848434
 21
10.151703
 31
0.0
  0
LINE
  5
A6
  8
1
 10
4.848434
 20
10.151703
 30
0.0
 11
4.819407
 21
10.178003
 31
0.0
  0
LINE
  5
A7
  8
1
 10
4.819407
 20
10.178003
 30
0.0
 11
4.8538
 21
10.178146
 31
0.0
  0
LINE
  5
A8
  8
1
 10
4.8538
 20
10.178146
 30
0.0
 11
5.176577
 21
10.177263
 31
0.0
  0
LINE
  5
A9
  8
1
 10
5.176577
 20
10.177263
 30
0.0
 11
5.290802
 21
10.524267
 31
0.0
  0
LINE
  5
AA
  8
1
 10
5.290802
 20
10.524267
 30
0.0
 11
5.398817
 21
10.176653
 31
0.0
  0
LINE
  5
AB
  8
1
 10
5.945391
 20
7.119236
 30
0.0
 11
5.956211
 21
7.113791
 31
0.0
  0
LINE
  5
AC
  8
1
 10
5.956211
 20
7.113791
 30
0.0
 11
6.265034
 21
7.112946
 31
0.0
  0
LINE
  5
AD
  8
1
 10
6.265034
 20
7.112946
 30
0.0
 11
6.313526
 21
7.112085
 31
0.0
  0
ARC
  5
AE
  8
1
 10
-5.589155
 20
23.498629
 30
0.0
 40
20.253212
 50
305.050969
 51
305.993502
  0
LINE
  5
AF
  8
1
 10
6.042364
 20
6.918509
 30
0.0
 11
6.015217
 21
6.896913
 31
0.0
  0
LINE
  5
B0
  8
1
 10
6.015217
 20
6.896913
 30
0.0
 11
6.117294
 21
6.582393
 31
0.0
  0
LINE
  5
B1
  8
1
 10
6.117294
 20
6.582393
 30
0.0
 11
6.133043
 21
6.538479
 31
0.0
  0
LINE
  5
B2
  8
1
 10
6.133043
 20
6.538479
 30
0.0
 11
6.094776
 21
6.566791
 31
0.0
  0
LINE
  5
B3
  8
1
 10
6.094776
 20
6.566791
 30
0.0
 11
5.830635
 21
6.761969
 31
0.0
  0
ARC
  5
B4
  8
1
 10
8.232039
 20
3.120606
 30
0.0
 40
4.361911
 50
123.404035
 51
127.789787
  0
LINE
  5
B5
  8
1
 10
5.559208
 20
6.567668
 30
0.0
 11
5.525541
 21
6.546043
 31
0.0
  0
LINE
  5
B6
  8
1
 10
5.525541
 20
6.546043
 30
0.0
 11
5.53758
 21
6.58398
 31
0.0
  0
LINE
  5
B7
  8
1
 10
5.53758
 20
6.58398
 30
0.0
 11
5.614038
 21
6.805906
 31
0.0
  0
LINE
  5
B8
  8
1
 10
5.614038
 20
6.805906
 30
0.0
 11
5.635902
 21
6.876279
 31
0.0
  0
LINE
  5
B9
  8
1
 10
5.635902
 20
6.876279
 30
0.0
 11
5.641396
 21
6.903354
 31
0.0
  0
LINE
  5
BA
  8
1
 10
5.641396
 20
6.903354
 30
0.0
 11
5.625172
 21
6.914232
 31
0.0
  0
LINE
  5
BB
  8
1
 10
5.625172
 20
6.914232
 30
0.0
 11
5.462959
 21
7.033873
 31
0.0
  0
LINE
  5
BC
  8
1
 10
5.462959
 20
7.033873
 30
0.0
 11
5.381855
 21
7.093688
 31
0.0
  0
LINE
  5
BD
  8
1
 10
5.381855
 20
7.093688
 30
0.0
 11
5.352133
 21
7.120619
 31
0.0
  0
LINE
  5
BE
  8
1
 10
5.352133
 20
7.120619
 30
0.0
 11
5.387346
 21
7.120764
 31
0.0
  0
LINE
  5
BF
  8
1
 10
5.387346
 20
7.120764
 30
0.0
 11
5.717838
 21
7.11986
 31
0.0
  0
LINE
  5
C0
  8
1
 10
5.717838
 20
7.11986
 30
0.0
 11
5.834795
 21
7.475159
 31
0.0
  0
LINE
  5
C1
  8
1
 10
5.834795
 20
7.475159
 30
0.0
 11
5.945391
 21
7.119236
 31
0.0
  0
LINE
  5
C2
  8
1
 10
4.678436
 20
9.691933
 30
0.0
 11
4.691912
 21
9.68515
 31
0.0
  0
LINE
  5
C3
  8
1
 10
4.691912
 20
9.68515
 30
0.0
 11
5.076513
 21
9.684097
 31
0.0
  0
LINE
  5
C4
  8
1
 10
5.076513
 20
9.684097
 30
0.0
 11
5.136909
 21
9.683029
 31
0.0
  0
ARC
  5
C5
  8
1
 10
-9.641781
 20
30.027937
 30
0.0
 40
25.146072
 50
305.0495060000001
 51
305.994932
  0
LINE
  5
C6
  8
1
 10
4.799206
 20
9.44195
 30
0.0
 11
4.765394
 21
9.415051
 31
0.0
  0
LINE
  5
C7
  8
1
 10
4.765394
 20
9.415051
 30
0.0
 11
4.892525
 21
9.02335
 31
0.0
  0
LINE
  5
C8
  8
1
 10
4.892525
 20
9.02335
 30
0.0
 11
4.912138
 21
8.96866
 31
0.0
  0
LINE
  5
C9
  8
1
 10
4.912138
 20
8.96866
 30
0.0
 11
4.864479
 21
9.00392
 31
0.0
  0
LINE
  5
CA
  8
1
 10
4.864479
 20
9.00392
 30
0.0
 11
4.535521
 21
9.246992
 31
0.0
  0
ARC
  5
CB
  8
1
 10
7.52523
 20
4.713424
 30
0.0
 40
5.430617
 50
123.403272
 51
127.790401
  0
LINE
  5
CC
  8
1
 10
4.197485
 20
9.005011
 30
0.0
 11
4.155558
 21
8.978079
 31
0.0
  0
LINE
  5
CD
  8
1
 10
4.155558
 20
8.978079
 30
0.0
 11
4.170551
 21
9.025326
 31
0.0
  0
LINE
  5
CE
  8
1
 10
4.170551
 20
9.025326
 30
0.0
 11
4.265772
 21
9.301712
 31
0.0
  0
LINE
  5
CF
  8
1
 10
4.265772
 20
9.301712
 30
0.0
 11
4.293001
 21
9.389355
 31
0.0
  0
LINE
  5
D0
  8
1
 10
4.293001
 20
9.389355
 30
0.0
 11
4.299841
 21
9.423073
 31
0.0
  0
LINE
  5
D1
  8
1
 10
4.299841
 20
9.423073
 30
0.0
 11
4.279636
 21
9.436623
 31
0.0
  0
LINE
  5
D2
  8
1
 10
4.279636
 20
9.436623
 30
0.0
 11
4.077621
 21
9.585619
 31
0.0
  0
LINE
  5
D3
  8
1
 10
4.077621
 20
9.585619
 30
0.0
 11
3.976612
 21
9.660116
 31
0.0
  0
LINE
  5
D4
  8
1
 10
3.976612
 20
9.660116
 30
0.0
 11
3.939594
 21
9.693651
 31
0.0
  0
LINE
  5
D5
  8
1
 10
3.939594
 20
9.693651
 30
0.0
 11
3.983452
 21
9.693834
 31
0.0
  0
LINE
  5
D6
  8
1
 10
3.983452
 20
9.693834
 30
0.0
 11
4.395042
 21
9.692709
 31
0.0
  0
LINE
  5
D7
  8
1
 10
4.395042
 20
9.692709
 30
0.0
 11
4.540699
 21
10.135195
 31
0.0
  0
LINE
  5
D8
  8
1
 10
4.540699
 20
10.135195
 30
0.0
 11
4.678436
 21
9.691933
 31
0.0
  0
ARC
  5
D9
  8
1
 10
7.950864
 20
14.525352
 30
0.0
 40
1.227826
 50
139.689495
 51
226.503047
  0
ARC
  5
DA
  8
1
 10
6.01689
 20
15.948147
 30
0.0
 40
1.179144
 50
327.7920060000001
 51
32.15651600000001
  0
LINE
  5
DB
  8
1
 10
7.01515
 20
16.575727
 30
0.0
 11
7.018293
 21
16.53875
 31
0.0
  0
ARC
  5
DC
  8
1
 10
5.875745
 20
16.247299
 30
0.0
 40
1.179135
 50
311.595759
 51
14.310295
  0
ARC
  5
DD
  8
1
 10
7.336107
 20
14.341541
 30
0.0
 40
1.227828
 50
123.493523
 51
210.307181
  0
ARC
  5
DE
  8
1
 10
10.169236
 20
6.111767
 30
0.0
 40
1.227826
 50
27.453679
 51
114.267151
  0
ARC
  5
DF
  8
1
 10
12.218074
 20
7.363497
 30
0.0
 40
1.179136
 50
215.555882
 51
279.920863
  0
LINE
  5
E0
  8
1
 10
12.421225
 20
6.201993
 30
0.0
 11
12.385815
 21
6.213078
 31
0.0
  0
ARC
  5
E1
  8
1
 10
12.548398
 20
7.380956
 30
0.0
 40
1.179141
 50
199.360271
 51
262.074648
  0
ARC
  5
E2
  8
1
 10
10.23173
 20
6.750362
 30
0.0
 40
1.227829
 50
11.257763
 51
98.071031
  0
ARC
  5
E3
  8
1
 10
11.055534
 20
7.506366
 30
0.0
 40
1.227818
 50
45.538603
 51
132.352773
  0
ARC
  5
E4
  8
1
 10
12.614573
 20
9.332249
 30
0.0
 40
1.17912
 50
233.640539
 51
298.006496
  0
LINE
  5
E5
  8
1
 10
13.168255
 20
8.29121
 30
0.0
 11
13.131145
 21
8.290749
 31
0.0
  0
ARC
  5
E6
  8
1
 10
12.923162
 20
9.451391
 30
0.0
 40
1.17913
 50
217.444802
 51
280.159419
  0
ARC
  5
E7
  8
1
 10
10.916698
 20
8.132796
 30
0.0
 40
1.227836
 50
29.343128
 51
116.156118
  0
ARC
  5
E8
  8
1
 10
11.46763
 20
9.218002
 30
0.0
 40
1.227825
 50
64.751952
 51
151.565637
  0
ARC
  5
E9
  8
1
 10
12.338952
 20
11.455264
 30
0.0
 40
1.179133
 50
252.854492
 51
317.219646
  0
LINE
  5
EA
  8
1
 10
13.204391
 20
10.654409
 30
0.0
 11
13.169504
 21
10.641764
 31
0.0
  0
ARC
  5
EB
  8
1
 10
12.591147
 20
11.669291
 30
0.0
 40
1.179113
 50
236.657695
 51
299.373548
  0
ARC
  5
EC
  8
1
 10
11.130377
 20
9.763859
 30
0.0
 40
1.227839
 50
48.556508
 51
135.369305
  0
ARC
  5
ED
  8
1
 10
11.298005
 20
10.938143
 30
0.0
 40
1.227826
 50
83.54947000000001
 51
170.363233
  0
ARC
  5
EE
  8
1
 10
11.401962
 20
13.336839
 30
0.0
 40
1.179133
 50
271.651525
 51
336.0164659999999
  0
LINE
  5
EF
  8
1
 10
12.479292
 20
12.857552
 30
0.0
 11
12.450338
 21
12.834345
 31
0.0
  0
ARC
  5
F0
  8
1
 10
11.571725
 20
13.620734
 30
0.0
 40
1.179139
 50
255.455732
 51
318.170362
  0
ARC
  5
F1
  8
1
 10
10.802843
 20
11.346219
 30
0.0
 40
1.22783
 50
67.353606
 51
154.166925
  0
ARC
  5
F2
  8
1
 10
10.591272
 20
12.502141
 30
0.0
 40
1.227822
 50
102.692788
 51
189.506868
  0
ARC
  5
F3
  8
1
 10
9.902867
 20
14.802279
 30
0.0
 40
1.179136
 50
290.795044
 51
355.160257
  0
LINE
  5
F4
  8
1
 10
11.077799
 20
14.702797
 30
0.0
 11
11.058056
 21
14.671373
 31
0.0
  0
ARC
  5
F5
  8
1
 10
9.970164
 20
15.126127
 30
0.0
 40
1.179114
 50
274.598508
 51
337.3143919999999
  0
ARC
  5
F6
  8
1
 10
9.989681
 20
12.725269
 30
0.0
 40
1.227834
 50
86.49726
 51
173.310344
  0
ARC
  5
F7
  8
1
 10
9.371798
 20
13.777765
 30
0.0
 40
1.227822
 50
122.060959
 51
208.87474
  0
ARC
  5
F8
  8
1
 10
7.959542
 20
15.719427
 30
0.0
 40
1.17913
 50
310.163282
 51
14.528741
  0
LINE
  5
F9
  8
1
 10
9.100965
 20
16.01523
 30
0.0
 11
9.092766
 21
15.979038
 31
0.0
  0
ARC
  5
FA
  8
1
 10
7.915622
 20
16.047274
 30
0.0
 40
1.17912
 50
293.96685
 51
356.682452
  0
ARC
  5
FB
  8
1
 10
8.730244
 20
13.788761
 30
0.0
 40
1.227825
 50
105.865033
 51
192.67871
  0
ARC
  5
FC
  8
1
 10
5.594419
 20
4.3919
 30
0.0
 40
1.227826
 50
331.480294
 51
58.293843
  0
ARC
  5
FD
  8
1
 10
7.778305
 20
3.394309
 30
0.0
 40
1.179132
 50
159.582389
 51
223.947734
  0
LINE
  5
FE
  8
1
 10
6.929361
 20
2.57599
 30
0.0
 11
6.91873
 21
2.611544
 31
0.0
  0
ARC
  5
FF
  8
1
 10
7.977601
 20
3.130314
 30
0.0
 40
1.179123
 50
143.386114
 51
206.101511
  0
ARC
  5
100
  8
1
 10
6.158643
 20
4.697453
 30
0.0
 40
1.227832
 50
315.284473
 51
42.09750500000001
  0
ARC
  5
101
  8
1
 10
7.311799
 20
4.460354
 30
0.0
 40
1.22783
 50
350.3287129999999
 51
77.141882
  0
ARC
  5
102
  8
1
 10
9.700876
 20
4.221795
 30
0.0
 40
1.17914
 50
178.430814
 51
242.795522
  0
LINE
  5
103
  8
1
 10
9.161812
 20
3.173091
 30
0.0
 11
9.140265
 21
3.203303
 31
0.0
  0
ARC
  5
104
  8
1
 10
9.97476
 20
4.036337
 30
0.0
 40
1.179122
 50
162.23441
 51
224.949771
  0
ARC
  5
105
  8
1
 10
7.747056
 20
4.931805
 30
0.0
 40
1.227832
 50
334.1326250000001
 51
60.94594499999999
  0
ARC
  5
106
  8
1
 10
8.902536
 20
5.076746
 30
0.0
 40
1.227817
 50
8.956339
 51
95.77038900000001
  0
ARC
  5
107
  8
1
 10
11.242648
 20
5.61381
 30
0.0
 40
1.179145
 50
197.059267
 51
261.423809
  0
LINE
  5
108
  8
1
 10
11.066809
 20
4.447849
 30
0.0
 11
11.036737
 21
4.469597
 31
0.0
  0
ARC
  5
109
  8
1
 10
11.561419
 20
5.525542
 30
0.0
 40
1.179114
 50
180.862284
 51
243.577961
  0
ARC
  5
10A
  8
1
 10
9.164392
 20
5.662516
 30
0.0
 40
1.227833
 50
352.760955
 51
79.57412299999999
  0
LINE
  5
10B
  8
1
 10
6.261055
 20
13.228235
 30
0.0
 11
6.262386
 21
13.714615
 31
0.0
  0
LINE
  5
10C
  8
1
 10
6.262386
 20
13.714615
 30
0.0
 11
6.278156
 21
13.721689
 31
0.0
  0
ARC
  5
10D
  8
1
 10
6.25111
 20
9.580416
 30
0.0
 40
4.141362
 50
269.854999
 51
89.62581
  0
LINE
  5
10E
  8
1
 10
6.240629
 20
5.439068
 30
0.0
 11
6.241085
 21
5.932512
 31
0.0
  0
ARC
  5
10F
  8
1
 10
5.695004
 20
9.581896
 30
0.0
 40
3.690014
 50
81.175933
 51
278.510407
  0
LINE
  5
110
  8
1
 10
33.735039
 20
15.735403
 30
0.0
 11
33.735828
 21
16.588154
 31
0.0
  0
ARC
  5
111
  8
1
 10
32.789124
 20
22.914869
 30
0.0
 40
6.397154
 50
81.17594600000001
 51
278.510374
  0
LINE
  5
112
  8
1
 10
33.770451
 20
29.236303
 30
0.0
 11
33.772766
 21
30.07951
 31
0.0
  0
LINE
  5
113
  8
1
 10
33.772766
 20
30.07951
 30
0.0
 11
33.791386
 21
30.087864
 31
0.0
  0
ARC
  5
114
  8
1
 10
33.793034
 20
30.091106
 30
0.0
 40
0.003637
 50
243.058719
 51
17.475835
  0
ARC
  5
115
  8
1
 10
35.634205
 20
31.166372
 30
0.0
 40
2.128612
 50
123.493677
 51
210.307159
  0
ARC
  5
116
  8
1
 10
33.102444
 20
34.470276
 30
0.0
 40
2.044213
 50
311.5959199999999
 51
14.310006
  0
LINE
  5
117
  8
1
 10
35.083229
 20
34.97554
 30
0.0
 11
35.077782
 21
35.039642
 31
0.0
  0
ARC
  5
118
  8
1
 10
33.347198
 20
33.951649
 30
0.0
 40
2.044174
 50
327.791348
 51
32.157004
  0
ARC
  5
119
  8
1
 10
36.697475
 20
31.485849
 30
0.0
 40
2.126179
 50
139.662717
 51
226.786695
  0
LINE
  5
11A
  8
1
 10
35.241646
 20
29.93627
 30
0.0
 11
35.244198
 21
29.935207
 31
0.0
  0
ARC
  5
11B
  8
1
 10
33.43214
 20
21.657648
 30
0.0
 40
8.473579
 50
72.540836
 51
77.65205000000002
  0
ARC
  5
11C
  8
1
 10
38.051132
 20
30.208054
 30
0.0
 40
2.128602
 50
105.864956
 51
192.67877
  0
ARC
  5
11D
  8
1
 10
36.638851
 20
34.123501
 30
0.0
 40
2.044184
 50
293.967441
 51
356.682425
  0
LINE
  5
11E
  8
1
 10
38.679611
 20
34.005203
 30
0.0
 11
38.693832
 21
34.067947
 31
0.0
  0
ARC
  5
11F
  8
1
 10
36.715027
 20
33.55513
 30
0.0
 40
2.044175
 50
310.162997
 51
14.528858
  0
ARC
  5
120
  8
1
 10
39.16098
 20
30.19063
 30
0.0
 40
2.125951
 50
122.030205
 51
209.29015
  0
ARC
  5
121
  8
1
 10
33.531025
 20
22.559065
 30
0.0
 40
7.596333
 50
52.831642
 51
60.19461500000001
  0
ARC
  5
122
  8
1
 10
40.234547
 20
28.364342
 30
0.0
 40
2.12862
 50
86.49726
 51
173.310371
  0
ARC
  5
123
  8
1
 10
40.200706
 20
32.526566
 30
0.0
 40
2.044161
 50
274.5986339999999
 51
337.314247
  0
LINE
  5
124
  8
1
 10
42.08672
 20
31.73818
 30
0.0
 11
42.120949
 21
31.79266
 31
0.0
  0
ARC
  5
125
  8
1
 10
40.084007
 20
31.965151
 30
0.0
 40
2.044232
 50
290.795663
 51
355.159661
  0
ARC
  5
126
  8
1
 10
41.278957
 20
27.975498
 30
0.0
 40
2.130888
 50
102.719449
 51
189.764521
  0
ARC
  5
127
  8
1
 10
33.310364
 20
22.556349
 30
0.0
 40
7.747325
 50
34.098993
 51
40.75596
  0
LINE
  5
128
  8
1
 10
39.725693
 20
26.899689
 30
0.0
 11
39.727192
 21
26.900103
 31
0.0
  0
LINE
  5
129
  8
1
 10
39.727192
 20
26.900103
 30
0.0
 11
39.728378
 21
26.901112
 31
0.0
  0
ARC
  5
12A
  8
1
 10
41.644276
 20
25.973557
 30
0.0
 40
2.12862
 50
67.353808
 51
154.166696
  0
ARC
  5
12B
  8
1
 10
42.977234
 20
29.916758
 30
0.0
 40
2.044205
 50
255.455786
 51
318.17036
  0
LINE
  5
12C
  8
1
 10
44.500435
 20
28.55344
 30
0.0
 11
44.550629
 21
28.59367
 31
0.0
  0
ARC
  5
12D
  8
1
 10
42.682941
 20
29.424564
 30
0.0
 40
2.044172
 50
271.651207
 51
336.016733
  0
ARC
  5
12E
  8
1
 10
42.503139
 20
25.264692
 30
0.0
 40
2.129967
 50
83.56535999999998
 51
170.424781
  0
ARC
  5
12F
  8
1
 10
33.445782
 20
22.799511
 30
0.0
 40
7.506681
 50
14.892423
 51
22.061198
  0
ARC
  5
130
  8
1
 10
42.212139
 20
23.230417
 30
0.0
 40
2.128536
 50
48.555666
 51
135.256523
  0
ARC
  5
131
  8
1
 10
44.744553
 20
26.533676
 30
0.0
 40
2.044176
 50
236.657906
 51
299.373041
  0
LINE
  5
132
  8
1
 10
45.747208
 20
24.752291
 30
0.0
 11
45.807697
 21
24.774218
 31
0.0
  0
ARC
  5
133
  8
1
 10
44.307327
 20
26.162653
 30
0.0
 40
2.044227
 50
252.855124
 51
317.218973
  0
ARC
  5
134
  8
1
 10
42.796928
 20
22.287085
 30
0.0
 40
2.12576
 50
64.72017
 51
151.811948
  0
LINE
  5
135
  8
1
 10
40.923279
 20
23.291224
 30
0.0
 11
40.922947
 21
23.28797
 31
0.0
  0
LINE
  5
136
  8
1
 10
40.922947
 20
23.28797
 30
0.0
 11
40.922966
 21
23.284693
 31
0.0
  0
ARC
  5
137
  8
1
 10
33.21003
 20
22.904556
 30
0.0
 40
7.722298
 50
355.6635699999999
 51
2.821572000000001
  0
LINE
  5
138
  8
1
 10
40.910221
 20
22.320652
 30
0.0
 11
40.912304
 21
22.319197
 31
0.0
  0
LINE
  5
139
  8
1
 10
40.912304
 20
22.319197
 30
0.0
 11
40.914799
 21
22.318737
 31
0.0
  0
ARC
  5
13A
  8
1
 10
41.841831
 20
20.402853
 30
0.0
 40
2.12838
 50
29.340646
 51
115.82079
  0
ARC
  5
13B
  8
1
 10
45.320137
 20
22.688599
 30
0.0
 40
2.044167
 50
217.444488
 51
280.159514
  0
LINE
  5
13C
  8
1
 10
45.680706
 20
20.676483
 30
0.0
 11
45.745037
 21
20.677284
 31
0.0
  0
ARC
  5
13D
  8
1
 10
44.785156
 20
22.482077
 30
0.0
 40
2.044174
 50
233.640791
 51
298.006329
  0
ARC
  5
13E
  8
1
 10
42.081963
 20
19.315628
 30
0.0
 40
2.12959
 50
45.55036
 51
132.625983
  0
ARC
  5
13F
  8
1
 10
33.785961
 20
22.897774
 30
0.0
 40
7.143945
 50
337.073456
 51
343.615205
  0
ARC
  5
140
  8
1
 10
40.654373
 20
18.006147
 30
0.0
 40
2.128383
 50
11.255163
 51
97.79859499999999
  0
ARC
  5
141
  8
1
 10
44.670441
 20
19.099241
 30
0.0
 40
2.044217
 50
199.36048
 51
262.0745969999999
  0
LINE
  5
142
  8
1
 10
44.388577
 20
17.074551
 30
0.0
 11
44.449963
 21
17.055334
 31
0.0
  0
ARC
  5
143
  8
1
 10
44.097782
 20
19.068985
 30
0.0
 40
2.044216
 50
215.55622
 51
279.920493
  0
ARC
  5
144
  8
1
 10
40.54517
 20
16.898104
 30
0.0
 40
2.129565
 50
27.464899
 51
114.450305
  0
ARC
  5
145
  8
1
 10
33.425575
 20
23.151096
 30
0.0
 40
7.584769
 50
319.4269990000001
 51
325.331679
  0
LINE
  5
146
  8
1
 10
39.186798
 20
18.217838
 30
0.0
 11
39.187382
 21
18.215431
 31
0.0
  0
LINE
  5
147
  8
1
 10
39.187382
 20
18.215431
 30
0.0
 11
39.188992
 21
18.213551
 31
0.0
  0
ARC
  5
148
  8
1
 10
38.803802
 20
16.120087
 30
0.0
 40
2.128606
 50
352.760628
 51
79.574409
  0
ARC
  5
149
  8
1
 10
42.959404
 20
15.882637
 30
0.0
 40
2.044196
 50
180.862938
 51
243.5773610000001
  0
LINE
  5
14A
  8
1
 10
42.049759
 20
14.051986
 30
0.0
 11
42.101894
 21
14.014283
 31
0.0
  0
ARC
  5
14B
  8
1
 10
42.406746
 20
16.035645
 30
0.0
 40
2.04422
 50
197.059391
 51
261.423576
  0
ARC
  5
14C
  8
1
 10
38.352539
 20
15.10621
 30
0.0
 40
2.12566
 50
8.923873
 51
96.02219699999999
  0
LINE
  5
14D
  8
1
 10
38.129528
 20
17.220139
 30
0.0
 11
38.127586
 21
17.219053
 31
0.0
  0
ARC
  5
14E
  8
1
 10
33.207695
 20
23.693239
 30
0.0
 40
8.131446
 50
300.874113
 51
307.232087
  0
ARC
  5
14F
  8
1
 10
36.346638
 20
14.853284
 30
0.0
 40
2.128625
 50
334.132808
 51
60.945836
  0
ARC
  5
150
  8
1
 10
40.208683
 20
13.300867
 30
0.0
 40
2.044175
 50
162.234369
 51
224.949632
  0
LINE
  5
151
  8
1
 10
38.761963
 20
11.856688
 30
0.0
 11
38.79932
 21
11.804311
 31
0.0
  0
ARC
  5
152
  8
1
 10
39.73386
 20
13.622389
 30
0.0
 40
2.044205
 50
178.43091
 51
242.795651
  0
ARC
  5
153
  8
1
 10
35.592823
 20
14.036151
 30
0.0
 40
2.127894
 50
350.320226
 51
77.38121
  0
ARC
  5
154
  8
1
 10
33.740631
 20
22.943277
 30
0.0
 40
7.212925
 50
281.528859
 51
288.7377540000001
  0
ARC
  5
155
  8
1
 10
35.186314
 20
15.868881
 30
0.0
 40
0.008109
 50
120.34665
 51
192.39505
  0
ARC
  5
156
  8
1
 10
33.593082
 20
14.446923
 30
0.0
 40
2.128434
 50
315.282644
 51
41.855889
  0
ARC
  5
157
  8
1
 10
36.7463
 20
11.730158
 30
0.0
 40
2.044152
 50
143.385901
 51
206.101964
  0
LINE
  5
158
  8
1
 10
34.910625
 20
10.830792
 30
0.0
 11
34.929054
 21
10.769153
 31
0.0
  0
ARC
  5
159
  8
1
 10
36.400848
 20
12.187833
 30
0.0
 40
2.044219
 50
159.582968
 51
223.947283
  0
ARC
  5
15A
  8
1
 10
32.612091
 20
13.917603
 30
0.0
 40
2.131088
 50
331.506883
 51
58.17659500000001
  0
ARC
  5
15B
  8
1
 10
33.752132
 20
15.733722
 30
0.0
 40
0.017176
 50
174.382466
 51
198.255886
  0
LINE
  5
15C
  8
1
 10
33.741032
 20
18.489676
 30
0.0
 11
33.736977
 21
17.009758
 31
0.0
  0
ARC
  5
15D
  8
1
 10
36.341595
 20
22.886642
 30
0.0
 40
6.428204
 50
215.323228
 51
246.097222
  0
LINE
  5
15E
  8
1
 10
31.096802
 20
19.16993
 30
0.0
 11
31.097336
 21
19.170452
 31
0.0
  0
LINE
  5
15F
  8
1
 10
31.097336
 20
19.170452
 30
0.0
 11
31.424913
 21
19.408463
 31
0.0
  0
LINE
  5
160
  8
1
 10
31.424913
 20
19.408463
 30
0.0
 11
31.708525
 21
19.601374
 31
0.0
  0
LINE
  5
161
  8
1
 10
31.708525
 20
19.601374
 30
0.0
 11
32.43491
 21
19.064634
 31
0.0
  0
LINE
  5
162
  8
1
 10
32.43491
 20
19.064634
 30
0.0
 11
32.54015
 21
18.98678
 31
0.0
  0
LINE
  5
163
  8
1
 10
32.54015
 20
18.98678
 30
0.0
 11
32.496841
 21
19.10754
 31
0.0
  0
LINE
  5
164
  8
1
 10
32.496841
 20
19.10754
 30
0.0
 11
32.216118
 21
19.972471
 31
0.0
  0
LINE
  5
165
  8
1
 10
32.216118
 20
19.972471
 30
0.0
 11
32.290783
 21
20.031862
 31
0.0
  0
ARC
  5
166
  8
1
 10
27.266666
 20
27.659916
 30
0.0
 40
9.133945
 50
303.370371
 51
307.391053
  0
LINE
  5
167
  8
1
 10
32.813271
 20
20.40291
 30
0.0
 11
32.932713
 21
20.491985
 31
0.0
  0
LINE
  5
168
  8
1
 10
32.932713
 20
20.491985
 30
0.0
 11
33.036484
 21
20.564199
 31
0.0
  0
LINE
  5
169
  8
1
 10
33.036484
 20
20.564199
 30
0.0
 11
32.903114
 21
20.566565
 31
0.0
  0
LINE
  5
16A
  8
1
 10
32.903114
 20
20.566565
 30
0.0
 11
32.05386
 21
20.56889
 31
0.0
  0
LINE
  5
16B
  8
1
 10
32.05386
 20
20.56889
 30
0.0
 11
32.024105
 21
20.583864
 31
0.0
  0
LINE
  5
16C
  8
1
 10
32.024105
 20
20.583864
 30
0.0
 11
31.719967
 21
21.562651
 31
0.0
  0
LINE
  5
16D
  8
1
 10
31.719967
 20
21.562651
 30
0.0
 11
31.398335
 21
20.585579
 31
0.0
  0
LINE
  5
16E
  8
1
 10
31.398335
 20
20.585579
 30
0.0
 11
30.489485
 21
20.588066
 31
0.0
  0
LINE
  5
16F
  8
1
 10
30.489485
 20
20.588066
 30
0.0
 11
30.392635
 21
20.58766
 31
0.0
  0
LINE
  5
170
  8
1
 10
30.392635
 20
20.58766
 30
0.0
 11
30.474377
 21
20.513607
 31
0.0
  0
LINE
  5
171
  8
1
 10
30.474377
 20
20.513607
 30
0.0
 11
30.69742
 21
20.349112
 31
0.0
  0
LINE
  5
172
  8
1
 10
30.69742
 20
20.349112
 30
0.0
 11
31.143497
 21
20.020105
 31
0.0
  0
LINE
  5
173
  8
1
 10
31.143497
 20
20.020105
 30
0.0
 11
31.18811
 21
19.990183
 31
0.0
  0
LINE
  5
174
  8
1
 10
31.18811
 20
19.990183
 30
0.0
 11
31.173006
 21
19.915728
 31
0.0
  0
LINE
  5
175
  8
1
 10
31.173006
 20
19.915728
 30
0.0
 11
31.112885
 21
19.722198
 31
0.0
  0
LINE
  5
176
  8
1
 10
31.112885
 20
19.722198
 30
0.0
 11
30.980829
 21
19.338902
 31
0.0
  0
ARC
  5
177
  8
1
 10
30.97999
 20
19.33914
 30
0.0
 40
0.000872
 50
229.8739
 51
344.1406339999999
  0
ARC
  5
178
  8
1
 10
36.346596
 20
22.902836
 30
0.0
 40
6.442917
 50
179.304292
 51
213.58834
  0
ARC
  5
179
  8
1
 10
74.055725
 20
82.765816
 30
0.0
 40
74.320775
 50
233.553805
 51
233.999376
  0
LINE
  5
17A
  8
1
 10
30.370411
 20
22.639524
 30
0.0
 11
30.358553
 21
22.58107
 31
0.0
  0
LINE
  5
17B
  8
1
 10
30.358553
 20
22.58107
 30
0.0
 11
30.311352
 21
22.429129
 31
0.0
  0
LINE
  5
17C
  8
1
 10
30.311352
 20
22.429129
 30
0.0
 11
30.146273
 21
21.949976
 31
0.0
  0
LINE
  5
17D
  8
1
 10
30.146273
 20
21.949976
 30
0.0
 11
30.120275
 21
21.868061
 31
0.0
  0
LINE
  5
17E
  8
1
 10
30.120275
 20
21.868061
 30
0.0
 11
30.192966
 21
21.914757
 31
0.0
  0
LINE
  5
17F
  8
1
 10
30.192966
 20
21.914757
 30
0.0
 11
30.251585
 21
21.96138
 31
0.0
  0
LINE
  5
180
  8
1
 10
30.251585
 20
21.96138
 30
0.0
 11
30.556324
 21
22.182808
 31
0.0
  0
LINE
  5
181
  8
1
 10
30.556324
 20
22.182808
 30
0.0
 11
30.778997
 21
22.334265
 31
0.0
  0
LINE
  5
182
  8
1
 10
30.778997
 20
22.334265
 30
0.0
 11
31.349289
 21
21.912861
 31
0.0
  0
LINE
  5
183
  8
1
 10
31.349289
 20
21.912861
 30
0.0
 11
31.431917
 21
21.851738
 31
0.0
  0
LINE
  5
184
  8
1
 10
31.431917
 20
21.851738
 30
0.0
 11
31.397911
 21
21.946548
 31
0.0
  0
LINE
  5
185
  8
1
 10
31.397911
 20
21.946548
 30
0.0
 11
31.177517
 21
22.625618
 31
0.0
  0
LINE
  5
186
  8
1
 10
31.177517
 20
22.625618
 30
0.0
 11
31.236132
 21
22.672251
 31
0.0
  0
ARC
  5
187
  8
1
 10
26.374186
 20
29.987547
 30
0.0
 40
8.783626
 50
303.609102
 51
307.6547840000001
  0
LINE
  5
188
  8
1
 10
31.740124
 20
23.033499
 30
0.0
 11
31.821587
 21
23.090191
 31
0.0
  0
LINE
  5
189
  8
1
 10
31.821587
 20
23.090191
 30
0.0
 11
31.728292
 21
23.091846
 31
0.0
  0
ARC
  5
18A
  8
1
 10
31.728256
 20
23.092188
 30
0.0
 40
0.000343
 50
110.854455
 51
276.05899
  0
LINE
  5
18B
  8
1
 10
31.728134
 20
23.092508
 30
0.0
 11
31.906719
 21
23.222269
 31
0.0
  0
LINE
  5
18C
  8
1
 10
31.906719
 20
23.222269
 30
0.0
 11
32.081341
 21
23.341047
 31
0.0
  0
LINE
  5
18D
  8
1
 10
32.081341
 20
23.341047
 30
0.0
 11
32.528576
 21
23.010578
 31
0.0
  0
LINE
  5
18E
  8
1
 10
32.528576
 20
23.010578
 30
0.0
 11
32.593365
 21
22.962643
 31
0.0
  0
LINE
  5
18F
  8
1
 10
32.593365
 20
22.962643
 30
0.0
 11
32.566708
 21
23.036993
 31
0.0
  0
LINE
  5
190
  8
1
 10
32.566708
 20
23.036993
 30
0.0
 11
32.393867
 21
23.56953
 31
0.0
  0
LINE
  5
191
  8
1
 10
32.393867
 20
23.56953
 30
0.0
 11
32.439835
 21
23.606096
 31
0.0
  0
ARC
  5
192
  8
1
 10
28.622881
 20
29.348614
 30
0.0
 40
6.895335
 50
303.611312
 51
307.6528309999999
  0
LINE
  5
193
  8
1
 10
32.835072
 20
23.889393
 30
0.0
 11
32.89896
 21
23.933859
 31
0.0
  0
LINE
  5
194
  8
1
 10
32.89896
 20
23.933859
 30
0.0
 11
32.816849
 21
23.93531
 31
0.0
  0
LINE
  5
195
  8
1
 10
32.816849
 20
23.93531
 30
0.0
 11
32.293961
 21
23.936741
 31
0.0
  0
LINE
  5
196
  8
1
 10
32.293961
 20
23.936741
 30
0.0
 11
32.275642
 21
23.945961
 31
0.0
  0
LINE
  5
197
  8
1
 10
32.275642
 20
23.945961
 30
0.0
 11
32.088383
 21
24.548595
 31
0.0
  0
LINE
  5
198
  8
1
 10
32.088383
 20
24.548595
 30
0.0
 11
31.890358
 21
23.947016
 31
0.0
  0
LINE
  5
199
  8
1
 10
31.890358
 20
23.947016
 30
0.0
 11
31.33078
 21
23.948551
 31
0.0
  0
LINE
  5
19A
  8
1
 10
31.33078
 20
23.948551
 30
0.0
 11
31.271154
 21
23.948301
 31
0.0
  0
LINE
  5
19B
  8
1
 10
31.271154
 20
23.948301
 30
0.0
 11
31.32148
 21
23.902706
 31
0.0
  0
ARC
  5
19C
  8
1
 10
72.511986
 20
79.608948
 30
0.0
 40
69.2809
 50
233.51991
 51
233.9705869999999
  0
LINE
  5
19D
  8
1
 10
31.760923
 20
23.580437
 30
0.0
 11
31.751623
 21
23.534594
 31
0.0
  0
ARC
  5
19E
  8
1
 10
24.518923
 20
25.716034
 30
0.0
 40
7.554511
 50
339.680175
 51
343.2162690000001
  0
ARC
  5
19F
  8
1
 10
31.602589
 20
23.093359
 30
0.0
 40
0.001008
 50
261.946602
 51
315.536894
  0
LINE
  5
1A0
  8
1
 10
31.602448
 20
23.092361
 30
0.0
 11
31.050123
 21
23.093874
 31
0.0
  0
LINE
  5
1A1
  8
1
 10
31.050123
 20
23.093874
 30
0.0
 11
31.02676
 21
23.105627
 31
0.0
  0
LINE
  5
1A2
  8
1
 10
31.02676
 20
23.105627
 30
0.0
 11
30.787979
 21
23.874088
 31
0.0
  0
LINE
  5
1A3
  8
1
 10
30.787979
 20
23.874088
 30
0.0
 11
30.53546
 21
23.106974
 31
0.0
  0
LINE
  5
1A4
  8
1
 10
30.53546
 20
23.106974
 30
0.0
 11
29.90671
 21
23.10869
 31
0.0
  0
ARC
  5
1A5
  8
1
 10
29.977646
 20
23.117512
 30
0.0
 40
0.071483
 50
170.096075
 51
187.088803
  0
ARC
  5
1A6
  8
1
 10
36.321117
 20
22.910362
 30
0.0
 40
6.417642
 50
149.937926
 51
178.040446
  0
LINE
  5
1A7
  8
1
 10
30.766756
 20
26.125202
 30
0.0
 11
30.768566
 21
26.125088
 31
0.0
  0
LINE
  5
1A8
  8
1
 10
30.768566
 20
26.125088
 30
0.0
 11
30.77017
 21
26.124239
 31
0.0
  0
LINE
  5
1A9
  8
1
 10
30.77017
 20
26.124239
 30
0.0
 11
30.924232
 21
26.010612
 31
0.0
  0
LINE
  5
1AA
  8
1
 10
30.924232
 20
26.010612
 30
0.0
 11
31.370308
 21
25.681602
 31
0.0
  0
LINE
  5
1AB
  8
1
 10
31.370308
 20
25.681602
 30
0.0
 11
31.414927
 21
25.651684
 31
0.0
  0
LINE
  5
1AC
  8
1
 10
31.414927
 20
25.651684
 30
0.0
 11
31.399824
 21
25.577229
 31
0.0
  0
LINE
  5
1AD
  8
1
 10
31.399824
 20
25.577229
 30
0.0
 11
31.339701
 21
25.383703
 31
0.0
  0
LINE
  5
1AE
  8
1
 10
31.339701
 20
25.383703
 30
0.0
 11
31.129438
 21
24.773405
 31
0.0
  0
LINE
  5
1AF
  8
1
 10
31.129438
 20
24.773405
 30
0.0
 11
31.096325
 21
24.669077
 31
0.0
  0
LINE
  5
1B0
  8
1
 10
31.096325
 20
24.669077
 30
0.0
 11
31.188911
 21
24.728542
 31
0.0
  0
LINE
  5
1B1
  8
1
 10
31.188911
 20
24.728542
 30
0.0
 11
31.263569
 21
24.787937
 31
0.0
  0
LINE
  5
1B2
  8
1
 10
31.263569
 20
24.787937
 30
0.0
 11
31.651724
 21
25.069962
 31
0.0
  0
LINE
  5
1B3
  8
1
 10
31.651724
 20
25.069962
 30
0.0
 11
31.935335
 21
25.262878
 31
0.0
  0
LINE
  5
1B4
  8
1
 10
31.935335
 20
25.262878
 30
0.0
 11
32.661728
 21
24.726135
 31
0.0
  0
LINE
  5
1B5
  8
1
 10
32.661728
 20
24.726135
 30
0.0
 11
32.76696
 21
24.648281
 31
0.0
  0
LINE
  5
1B6
  8
1
 10
32.76696
 20
24.648281
 30
0.0
 11
32.723656
 21
24.769041
 31
0.0
  0
LINE
  5
1B7
  8
1
 10
32.723656
 20
24.769041
 30
0.0
 11
32.442932
 21
25.633968
 31
0.0
  0
LINE
  5
1B8
  8
1
 10
32.442932
 20
25.633968
 30
0.0
 11
32.51759
 21
25.693361
 31
0.0
  0
ARC
  5
1B9
  8
1
 10
27.519085
 20
33.28537
 30
0.0
 40
9.089755
 50
303.36052
 51
307.400784
  0
LINE
  5
1BA
  8
1
 10
33.040081
 20
26.064411
 30
0.0
 11
33.159527
 21
26.153488
 31
0.0
  0
LINE
  5
1BB
  8
1
 10
33.159527
 20
26.153488
 30
0.0
 11
33.263294
 21
26.2257
 31
0.0
  0
LINE
  5
1BC
  8
1
 10
33.263294
 20
26.2257
 30
0.0
 11
33.129929
 21
26.228067
 31
0.0
  0
LINE
  5
1BD
  8
1
 10
33.129929
 20
26.228067
 30
0.0
 11
32.280674
 21
26.230392
 31
0.0
  0
LINE
  5
1BE
  8
1
 10
32.280674
 20
26.230392
 30
0.0
 11
32.250916
 21
26.245369
 31
0.0
  0
LINE
  5
1BF
  8
1
 10
32.250916
 20
26.245369
 30
0.0
 11
31.946775
 21
27.224154
 31
0.0
  0
LINE
  5
1C0
  8
1
 10
31.946775
 20
27.224154
 30
0.0
 11
31.625145
 21
26.247082
 31
0.0
  0
LINE
  5
1C1
  8
1
 10
31.625145
 20
26.247082
 30
0.0
 11
30.843782
 21
26.249222
 31
0.0
  0
ARC
  5
1C2
  8
1
 10
30.843735
 20
26.252398
 30
0.0
 40
0.003176
 50
155.251294
 51
270.860235
  0
ARC
  5
1C3
  8
1
 10
36.352337
 20
22.906202
 30
0.0
 40
6.448442
 50
113.613678
 51
148.726655
  0
LINE
  5
1C4
  8
1
 10
33.769299
 20
28.814697
 30
0.0
 11
33.767044
 21
27.731001
 31
0.0
  0
ARC
  5
1C5
  8
1
 10
33.757828
 20
27.73007
 30
0.0
 40
0.009263
 50
270.424757
 51
5.766939999999999
  0
LINE
  5
1C6
  8
1
 10
33.757896
 20
27.720808
 30
0.0
 11
33.363968
 21
27.721886
 31
0.0
  0
LINE
  5
1C7
  8
1
 10
33.363968
 20
27.721886
 30
0.0
 11
33.346806
 21
27.730522
 31
0.0
  0
LINE
  5
1C8
  8
1
 10
33.346806
 20
27.730522
 30
0.0
 11
33.171413
 21
28.294958
 31
0.0
  0
LINE
  5
1C9
  8
1
 10
33.171413
 20
28.294958
 30
0.0
 11
32.985939
 21
27.731508
 31
0.0
  0
LINE
  5
1CA
  8
1
 10
32.985939
 20
27.731508
 30
0.0
 11
32.461826
 21
27.732939
 31
0.0
  0
LINE
  5
1CB
  8
1
 10
32.461826
 20
27.732939
 30
0.0
 11
32.405983
 21
27.732708
 31
0.0
  0
LINE
  5
1CC
  8
1
 10
32.405983
 20
27.732708
 30
0.0
 11
32.453125
 21
27.690006
 31
0.0
  0
ARC
  5
1CD
  8
1
 10
70.670319
 20
79.369713
 30
0.0
 40
64.275547
 50
233.517042
 51
233.972021
  0
LINE
  5
1CE
  8
1
 10
32.864708
 20
27.388161
 30
0.0
 11
32.856007
 21
27.345221
 31
0.0
  0
LINE
  5
1CF
  8
1
 10
32.856007
 20
27.345221
 30
0.0
 11
32.821335
 21
27.233622
 31
0.0
  0
LINE
  5
1D0
  8
1
 10
32.821335
 20
27.233622
 30
0.0
 11
32.700081
 21
26.881681
 31
0.0
  0
LINE
  5
1D1
  8
1
 10
32.700081
 20
26.881681
 30
0.0
 11
32.680984
 21
26.821516
 31
0.0
  0
LINE
  5
1D2
  8
1
 10
32.680984
 20
26.821516
 30
0.0
 11
32.734375
 21
26.85581
 31
0.0
  0
LINE
  5
1D3
  8
1
 10
32.734375
 20
26.85581
 30
0.0
 11
32.777431
 21
26.89006
 31
0.0
  0
LINE
  5
1D4
  8
1
 10
32.777431
 20
26.89006
 30
0.0
 11
33.001266
 21
27.052694
 31
0.0
  0
LINE
  5
1D5
  8
1
 10
33.001266
 20
27.052694
 30
0.0
 11
33.164822
 21
27.163948
 31
0.0
  0
LINE
  5
1D6
  8
1
 10
33.164822
 20
27.163948
 30
0.0
 11
33.58371
 21
26.854418
 31
0.0
  0
LINE
  5
1D7
  8
1
 10
33.58371
 20
26.854418
 30
0.0
 11
33.644394
 21
26.809525
 31
0.0
  0
LINE
  5
1D8
  8
1
 10
33.644394
 20
26.809525
 30
0.0
 11
33.619423
 21
26.879162
 31
0.0
  0
LINE
  5
1D9
  8
1
 10
33.619423
 20
26.879162
 30
0.0
 11
33.457531
 21
27.377947
 31
0.0
  0
LINE
  5
1DA
  8
1
 10
33.457531
 20
27.377947
 30
0.0
 11
33.500591
 21
27.412189
 31
0.0
  0
ARC
  5
1DB
  8
1
 10
29.736012
 20
33.067646
 30
0.0
 40
6.793839
 50
303.649899
 51
306.3277
  0
ARC
  5
1DC
  8
1
 10
33.760288
 20
27.587725
 30
0.0
 40
0.006532
 50
8.868263
 51
86.38400800000001
  0
LINE
  5
1DD
  8
1
 10
33.766743
 20
27.588732
 30
0.0
 11
33.751301
 21
20.175196
 31
0.0
  0
ARC
  5
1DE
  8
1
 10
33.99342
 20
28.866241
 30
0.0
 40
8.694418
 50
268.404245
 51
283.170597
  0
ARC
  5
1DF
  8
1
 10
34.086288
 20
22.522509
 30
0.0
 40
2.840421
 50
263.545774
 51
311.663006
  0
LINE
  5
1E0
  8
1
 10
33.766998
 20
19.70009
 30
0.0
 11
33.744339
 21
19.69932
 31
0.0
  0
LINE
  5
1E1
  8
1
 10
33.744339
 20
19.69932
 30
0.0
 11
33.741562
 21
18.684114
 31
0.0
  0
ARC
  5
1E2
  8
1
 10
33.739758
 20
18.683722
 30
0.0
 40
0.001847
 50
276.405555
 51
12.284888
  0
LINE
  5
1E3
  8
1
 10
33.739964
 20
18.681887
 30
0.0
 11
33.367939
 21
18.682905
 31
0.0
  0
LINE
  5
1E4
  8
1
 10
33.367939
 20
18.682905
 30
0.0
 11
33.349174
 21
18.692345
 31
0.0
  0
LINE
  5
1E5
  8
1
 10
33.349174
 20
18.692345
 30
0.0
 11
33.157444
 21
19.309391
 31
0.0
  0
LINE
  5
1E6
  8
1
 10
33.157444
 20
19.309391
 30
0.0
 11
32.954685
 21
18.693428
 31
0.0
  0
LINE
  5
1E7
  8
1
 10
32.954685
 20
18.693428
 30
0.0
 11
32.381737
 21
18.694994
 31
0.0
  0
LINE
  5
1E8
  8
1
 10
32.381737
 20
18.694994
 30
0.0
 11
32.320679
 21
18.694746
 31
0.0
  0
LINE
  5
1E9
  8
1
 10
32.320679
 20
18.694746
 30
0.0
 11
32.372208
 21
18.64806
 31
0.0
  0
ARC
  5
1EA
  8
1
 10
74.346001
 20
75.411392
 30
0.0
 40
70.596567
 50
233.518834
 51
233.971687
  0
LINE
  5
1EB
  8
1
 10
32.822159
 20
18.318085
 30
0.0
 11
32.812637
 21
18.271151
 31
0.0
  0
LINE
  5
1EC
  8
1
 10
32.812637
 20
18.271151
 30
0.0
 11
32.774727
 21
18.149149
 31
0.0
  0
LINE
  5
1ED
  8
1
 10
32.774727
 20
18.149149
 30
0.0
 11
32.643406
 21
17.767971
 31
0.0
  0
ARC
  5
1EE
  8
1
 10
32.642738
 20
17.768215
 30
0.0
 40
0.000711
 50
339.9118119999999
 51
339.9118119999999
  0
LINE
  5
1EF
  8
1
 10
32.643406
 20
17.767971
 30
0.0
 11
32.613922
 21
17.683662
 31
0.0
  0
LINE
  5
1F0
  8
1
 10
32.613922
 20
17.683662
 30
0.0
 11
32.683399
 21
17.737484
 31
0.0
  0
ARC
  5
1F1
  8
1
 10
32.68396
 20
17.738287
 30
0.0
 40
0.000979
 50
134.763564
 51
235.07197
  0
LINE
  5
1F2
  8
1
 10
32.68327
 20
17.738983
 30
0.0
 11
32.726746
 21
17.773569
 31
0.0
  0
LINE
  5
1F3
  8
1
 10
32.726746
 20
17.773569
 30
0.0
 11
32.971443
 21
17.951365
 31
0.0
  0
LINE
  5
1F4
  8
1
 10
32.971443
 20
17.951365
 30
0.0
 11
33.15023
 21
18.072977
 31
0.0
  0
LINE
  5
1F5
  8
1
 10
33.15023
 20
18.072977
 30
0.0
 11
33.608158
 21
17.734606
 31
0.0
  0
LINE
  5
1F6
  8
1
 10
33.608158
 20
17.734606
 30
0.0
 11
33.674503
 21
17.685526
 31
0.0
  0
LINE
  5
1F7
  8
1
 10
33.674503
 20
17.685526
 30
0.0
 11
33.647194
 21
17.761654
 31
0.0
  0
LINE
  5
1F8
  8
1
 10
33.647194
 20
17.761654
 30
0.0
 11
33.470222
 21
18.306919
 31
0.0
  0
LINE
  5
1F9
  8
1
 10
33.470222
 20
18.306919
 30
0.0
 11
33.517292
 21
18.344357
 31
0.0
  0
ARC
  5
1FA
  8
1
 10
30.904743
 20
22.316601
 30
0.0
 40
4.754381
 50
303.332959
 51
306.585265
  0
ARC
  5
1FB
  8
1
 10
33.724396
 20
18.490049
 30
0.0
 40
0.01664
 50
358.712671
 51
32.425858
  0
ARC
  5
1FC
  8
1
 10
13.300314
 20
26.813782
 30
0.0
 40
0.613304
 50
16.102972
 51
163.583335
  0
LINE
  5
1FD
  8
1
 10
12.712013
 20
26.987114
 30
0.0
 11
12.564816
 21
26.987518
 31
0.0
  0
ARC
  5
1FE
  8
1
 10
13.300379
 20
26.83831
 30
0.0
 40
0.750544
 50
11.15302
 51
168.533207
  0
LINE
  5
1FF
  8
1
 10
14.036749
 20
26.983488
 30
0.0
 11
13.889555
 21
26.983891
 31
0.0
  0
CIRCLE
  5
200
  8
1
 10
13.176477
 20
26.838692
 30
0.0
 40
0.243192
  0
ARC
  5
201
  8
1
 10
14.663093
 20
24.645483
 30
0.0
 40
1.101097
 50
48.994466
 51
241.67483
  0
LINE
  5
202
  8
1
 10
14.14065
 20
23.676222
 30
0.0
 11
14.002325
 21
23.476198
 31
0.0
  0
ARC
  5
203
  8
1
 10
14.743101
 20
24.590151
 30
0.0
 40
1.337774
 50
54.293154
 51
236.376184
  0
LINE
  5
204
  8
1
 10
15.523878
 20
25.676443
 30
0.0
 11
15.385557
 21
25.476421
 31
0.0
  0
CIRCLE
  5
205
  8
1
 10
12.212144
 20
25.591917
 30
0.0
 40
0.078656
  0
ARC
  5
206
  8
1
 10
12.208872
 20
25.618877
 30
0.0
 40
0.273273
 50
232.044701
 51
258.808026
  0
LINE
  5
207
  8
1
 10
12.040796
 20
25.403404
 30
0.0
 11
12.055628
 21
25.425037
 31
0.0
  0
ARC
  5
208
  8
1
 10
12.20894
 20
25.59321
 30
0.0
 40
0.227567
 50
227.646703
 51
312.236364
  0
ARC
  5
209
  8
1
 10
12.2108
 20
25.607388
 30
0.0
 40
0.237064
 50
309.599227
 51
21.923478
  0
ARC
  5
20A
  8
1
 10
12.111094
 20
25.589655
 30
0.0
 40
0.336823
 50
18.386931
 51
50.55405700000001
  0
ARC
  5
20B
  8
1
 10
13.831525
 20
26.889791
 30
0.0
 40
1.830574
 50
191.635647
 51
214.621039
  0
LINE
  5
20C
  8
1
 10
12.038568
 20
26.520588
 30
0.0
 11
12.055939
 21
26.560326
 31
0.0
  0
ARC
  5
20D
  8
1
 10
13.853733
 20
26.905548
 30
0.0
 40
1.83064
 50
190.869943
 51
214.620708
  0
ARC
  5
20E
  8
1
 10
12.142787
 20
25.612154
 30
0.0
 40
0.325544
 50
344.558467
 51
51.09423099999999
  0
ARC
  5
20F
  8
1
 10
12.206872
 20
25.609167
 30
0.0
 40
0.263359
 50
258.824795
 51
341.471163
  0
ARC
  5
210
  8
1
 10
12.840784
 20
23.979639
 30
0.0
 40
3.828236
 50
104.47686
 51
108.82265
  0
LINE
  5
211
  8
1
 10
11.605642
 20
27.603148
 30
0.0
 11
11.596483
 21
26.910397
 31
0.0
  0
LINE
  5
212
  8
1
 10
11.596483
 20
26.910397
 30
0.0
 11
11.598171
 21
26.812674
 31
0.0
  0
LINE
  5
213
  8
1
 10
11.598171
 20
26.812674
 30
0.0
 11
11.541299
 21
26.8946
 31
0.0
  0
LINE
  5
214
  8
1
 10
11.541299
 20
26.8946
 30
0.0
 11
11.148589
 21
27.45965
 31
0.0
  0
ARC
  5
215
  8
1
 10
13.463646
 20
18.614264
 30
0.0
 40
9.143323
 50
104.666739
 51
109.050445
  0
LINE
  5
216
  8
1
 10
10.47926
 20
27.256821
 30
0.0
 11
10.397904
 21
27.236576
 31
0.0
  0
LINE
  5
217
  8
1
 10
10.397904
 20
27.236576
 30
0.0
 11
10.447331
 21
27.303745
 31
0.0
  0
LINE
  5
218
  8
1
 10
10.447331
 20
27.303745
 30
0.0
 11
10.748409
 21
27.69261
 31
0.0
  0
LINE
  5
219
  8
1
 10
10.748409
 20
27.69261
 30
0.0
 11
10.839154
 21
27.817526
 31
0.0
  0
LINE
  5
21A
  8
1
 10
10.839154
 20
27.817526
 30
0.0
 11
10.868275
 21
27.867544
 31
0.0
  0
LINE
  5
21B
  8
1
 10
10.868275
 20
27.867544
 30
0.0
 11
10.84341
 21
27.900051
 31
0.0
  0
LINE
  5
21C
  8
1
 10
10.84341
 20
27.900051
 30
0.0
 11
10.602092
 21
28.246611
 31
0.0
  0
LINE
  5
21D
  8
1
 10
10.602092
 20
28.246611
 30
0.0
 11
10.481434
 21
28.419889
 31
0.0
  0
LINE
  5
21E
  8
1
 10
10.481434
 20
28.419889
 30
0.0
 11
10.440581
 21
28.493322
 31
0.0
  0
LINE
  5
21F
  8
1
 10
10.440581
 20
28.493322
 30
0.0
 11
10.510555
 21
28.469912
 31
0.0
  0
LINE
  5
220
  8
1
 10
10.510555
 20
28.469912
 30
0.0
 11
11.165677
 21
28.245667
 31
0.0
  0
LINE
  5
221
  8
1
 10
11.165677
 20
28.245667
 30
0.0
 11
11.636879
 21
28.871899
 31
0.0
  0
LINE
  5
222
  8
1
 10
11.636879
 20
28.871899
 30
0.0
 11
11.616751
 21
28.091267
 31
0.0
  0
LINE
  5
223
  8
1
 10
11.616751
 20
28.091267
 30
0.0
 11
11.634555
 21
28.073179
 31
0.0
  0
LINE
  5
224
  8
1
 10
11.634555
 20
28.073179
 30
0.0
 11
11.884647
 21
27.987574
 31
0.0
  0
ARC
  5
225
  8
1
 10
11.886321
 20
27.990414
 30
0.0
 40
0.003297
 50
239.488236
 51
17.790142
  0
LINE
  5
226
  8
1
 10
11.88946
 20
27.991421
 30
0.0
 11
11.893057
 21
29.718988
 31
0.0
  0
ARC
  5
227
  8
1
 10
13.380373
 20
26.313581
 30
0.0
 40
3.716034
 50
113.593362
 51
183.982742
  0
LINE
  5
228
  8
1
 10
9.673313
 20
26.055481
 30
0.0
 11
9.674294
 21
26.055584
 31
0.0
  0
LINE
  5
229
  8
1
 10
9.674294
 20
26.055584
 30
0.0
 11
9.975994
 21
26.167046
 31
0.0
  0
LINE
  5
22A
  8
1
 10
9.975994
 20
26.167046
 30
0.0
 11
9.949949
 21
26.84096
 31
0.0
  0
LINE
  5
22B
  8
1
 10
9.949949
 20
26.84096
 30
0.0
 11
10.360846
 21
26.309231
 31
0.0
  0
LINE
  5
22C
  8
1
 10
10.360846
 20
26.309231
 30
0.0
 11
10.382553
 21
26.306841
 31
0.0
  0
LINE
  5
22D
  8
1
 10
10.382553
 20
26.306841
 30
0.0
 11
10.904851
 21
26.4998
 31
0.0
  0
LINE
  5
22E
  8
1
 10
10.904851
 20
26.4998
 30
0.0
 11
10.987328
 21
26.528877
 31
0.0
  0
LINE
  5
22F
  8
1
 10
10.987328
 20
26.528877
 30
0.0
 11
10.940104
 21
26.460756
 31
0.0
  0
ARC
  5
230
  8
1
 10
4.706938
 20
30.342619
 30
0.0
 40
7.343106
 50
324.045167
 51
328.086364
  0
LINE
  5
231
  8
1
 10
10.651036
 20
26.031134
 30
0.0
 11
10.618761
 21
25.977554
 31
0.0
  0
LINE
  5
232
  8
1
 10
10.618761
 20
25.977554
 30
0.0
 11
10.989206
 21
25.510414
 31
0.0
  0
LINE
  5
233
  8
1
 10
10.989206
 20
25.510414
 30
0.0
 11
11.043457
 21
25.446135
 31
0.0
  0
LINE
  5
234
  8
1
 10
11.043457
 20
25.446135
 30
0.0
 11
10.96098
 21
25.469879
 31
0.0
  0
LINE
  5
235
  8
1
 10
10.96098
 20
25.469879
 30
0.0
 11
10.391845
 21
25.633377
 31
0.0
  0
ARC
  5
236
  8
1
 10
16.743105
 20
20.991549
 30
0.0
 40
7.866707
 50
143.838735
 51
148.22327
  0
LINE
  5
237
  8
1
 10
10.055565
 20
25.134239
 30
0.0
 11
10.012292
 21
25.076509
 31
0.0
  0
LINE
  5
238
  8
1
 10
10.012292
 20
25.076509
 30
0.0
 11
10.008756
 21
25.148188
 31
0.0
  0
LINE
  5
239
  8
1
 10
10.008756
 20
25.148188
 30
0.0
 11
9.998243
 21
25.571272
 31
0.0
  0
LINE
  5
23A
  8
1
 10
9.998243
 20
25.571272
 30
0.0
 11
9.990885
 21
25.70393
 31
0.0
  0
LINE
  5
23B
  8
1
 10
9.990885
 20
25.70393
 30
0.0
 11
9.983122
 21
25.75313
 31
0.0
  0
LINE
  5
23C
  8
1
 10
9.983122
 20
25.75313
 30
0.0
 11
9.948861
 21
25.761303
 31
0.0
  0
LINE
  5
23D
  8
1
 10
9.948861
 20
25.761303
 30
0.0
 11
9.697158
 21
25.833368
 31
0.0
  0
ARC
  5
23E
  8
1
 10
9.697272
 20
25.830359
 30
0.0
 40
0.003012
 50
92.17749499999998
 51
189.587596
  0
ARC
  5
23F
  8
1
 10
13.362865
 20
26.303837
 30
0.0
 40
3.699055
 50
187.361862
 51
222.153162
  0
LINE
  5
240
  8
1
 10
10.620558
 20
23.821346
 30
0.0
 11
10.621228
 21
23.822094
 31
0.0
  0
LINE
  5
241
  8
1
 10
10.621228
 20
23.822094
 30
0.0
 11
10.741186
 21
24.057579
 31
0.0
  0
LINE
  5
242
  8
1
 10
10.741186
 20
24.057579
 30
0.0
 11
10.339225
 21
24.460356
 31
0.0
  0
LINE
  5
243
  8
1
 10
10.339225
 20
24.460356
 30
0.0
 11
10.898313
 21
24.366035
 31
0.0
  0
LINE
  5
244
  8
1
 10
10.898313
 20
24.366035
 30
0.0
 11
10.913135
 21
24.376982
 31
0.0
  0
LINE
  5
245
  8
1
 10
10.913135
 20
24.376982
 30
0.0
 11
11.126381
 21
24.795595
 31
0.0
  0
LINE
  5
246
  8
1
 10
11.126381
 20
24.795595
 30
0.0
 11
11.160853
 21
24.860836
 31
0.0
  0
LINE
  5
247
  8
1
 10
11.160853
 20
24.860836
 30
0.0
 11
11.170584
 21
24.791578
 31
0.0
  0
ARC
  5
248
  8
1
 10
5.084504
 20
23.628933
 30
0.0
 40
6.196137
 50
6.774202000000001
 51
10.81511
  0
LINE
  5
249
  8
1
 10
11.237384
 20
24.35981
 30
0.0
 11
11.248054
 21
24.308123
 31
0.0
  0
LINE
  5
24A
  8
1
 10
11.248054
 20
24.308123
 30
0.0
 11
11.745094
 21
24.230677
 31
0.0
  0
LINE
  5
24B
  8
1
 10
11.745094
 20
24.230677
 30
0.0
 11
11.815519
 21
24.221895
 31
0.0
  0
LINE
  5
24C
  8
1
 10
11.815519
 20
24.221895
 30
0.0
 11
11.750806
 21
24.189394
 31
0.0
  0
LINE
  5
24D
  8
1
 10
11.750806
 20
24.189394
 30
0.0
 11
11.304457
 21
23.964895
 31
0.0
  0
ARC
  5
24E
  8
1
 10
17.899487
 20
24.724247
 30
0.0
 40
6.638602
 50
186.568118
 51
190.951926
  0
LINE
  5
24F
  8
1
 10
11.381794
 20
23.463011
 30
0.0
 11
11.388023
 21
23.402454
 31
0.0
  0
LINE
  5
250
  8
1
 10
11.388023
 20
23.402454
 30
0.0
 11
11.344796
 21
23.444855
 31
0.0
  0
LINE
  5
251
  8
1
 10
11.344796
 20
23.444855
 30
0.0
 11
11.096062
 21
23.701061
 31
0.0
  0
LINE
  5
252
  8
1
 10
11.096062
 20
23.701061
 30
0.0
 11
11.015553
 21
23.779068
 31
0.0
  0
LINE
  5
253
  8
1
 10
11.015553
 20
23.779068
 30
0.0
 11
10.982574
 21
23.805119
 31
0.0
  0
LINE
  5
254
  8
1
 10
10.982574
 20
23.805119
 30
0.0
 11
10.956661
 21
23.790569
 31
0.0
  0
LINE
  5
255
  8
1
 10
10.956661
 20
23.790569
 30
0.0
 11
10.750255
 21
23.686522
 31
0.0
  0
ARC
  5
256
  8
1
 10
10.752893
 20
23.684282
 30
0.0
 40
0.003461
 50
139.682977
 51
230.299555
  0
ARC
  5
257
  8
1
 10
13.38312
 20
26.309689
 30
0.0
 40
3.719741
 50
224.952431
 51
246.071667
  0
LINE
  5
258
  8
1
 10
11.874416
 20
22.909647
 30
0.0
 11
11.87866
 21
24.461044
 31
0.0
  0
ARC
  5
259
  8
1
 10
12.070168
 20
26.099808
 30
0.0
 40
1.649915
 50
263.334567
 51
311.574302
  0
ARC
  5
25A
  8
1
 10
12.022326
 20
29.748755
 30
0.0
 40
5.015161
 50
268.404391
 51
283.170602
  0
LINE
  5
25B
  8
1
 10
11.882679
 20
24.735538
 30
0.0
 11
11.88882
 21
27.684242
 31
0.0
  0
ARC
  5
25C
  8
1
 10
11.885344
 20
27.682978
 30
0.0
 40
0.003699
 50
19.990678
 51
115.230217
  0
LINE
  5
25D
  8
1
 10
11.87228
 20
22.18408
 30
0.0
 11
11.872736
 21
22.675966
 31
0.0
  0
ARC
  5
25E
  8
1
 10
11.326656
 20
26.32535
 30
0.0
 40
3.690014
 50
81.175962
 51
278.510377
  0
LINE
  5
25F
  8
1
 10
11.892706
 20
29.971689
 30
0.0
 11
11.894043
 21
30.458071
 31
0.0
  0
LINE
  5
260
  8
1
 10
11.894043
 20
30.458071
 30
0.0
 11
11.904781
 21
30.462889
 31
0.0
  0
ARC
  5
261
  8
1
 10
11.905735
 20
30.464758
 30
0.0
 40
0.002098
 50
242.969143
 51
17.46281
  0
ARC
  5
262
  8
1
 10
12.967764
 20
31.084995
 30
0.0
 40
1.227833
 50
123.493839
 51
210.307157
  0
ARC
  5
263
  8
1
 10
11.507404
 20
32.990753
 30
0.0
 40
1.179129
 50
311.595396
 51
14.310392
  0
LINE
  5
264
  8
1
 10
12.649944
 20
33.282204
 30
0.0
 11
12.646803
 21
33.319176
 31
0.0
  0
ARC
  5
265
  8
1
 10
11.648568
 20
32.691601
 30
0.0
 40
1.17912
 50
327.791417
 51
32.156946
  0
ARC
  5
266
  8
1
 10
13.579884
 20
31.269615
 30
0.0
 40
1.225297
 50
139.638596
 51
226.907984
  0
ARC
  5
267
  8
1
 10
11.697584
 20
25.600313
 30
0.0
 40
4.887588
 50
72.54054600000002
 51
77.651917
  0
ARC
  5
268
  8
1
 10
14.361897
 20
30.532215
 30
0.0
 40
1.227825
 50
105.865033
 51
192.67871
  0
ARC
  5
269
  8
1
 10
13.547277
 20
32.790722
 30
0.0
 40
1.179114
 50
293.966857
 51
356.6825269999999
  0
LINE
  5
26A
  8
1
 10
14.724415
 20
32.722488
 30
0.0
 11
14.732618
 21
32.758682
 31
0.0
  0
ARC
  5
26B
  8
1
 10
13.591201
 20
32.462879
 30
0.0
 40
1.179124
 50
310.162998
 51
14.528811
  0
ARC
  5
26C
  8
1
 10
15.002079
 20
30.522163
 30
0.0
 40
1.226294
 50
122.030195
 51
209.290149
  0
ARC
  5
26D
  8
1
 10
11.755292
 20
26.121147
 30
0.0
 40
4.380486
 50
52.83068200000001
 51
60.195744
  0
ARC
  5
26E
  8
1
 10
15.621332
 20
29.468725
 30
0.0
 40
1.22783
 50
86.49707200000002
 51
173.3105
  0
ARC
  5
26F
  8
1
 10
15.60181
 20
31.869591
 30
0.0
 40
1.179125
 50
274.598879
 51
337.3139180000001
  0
LINE
  5
270
  8
1
 10
16.689709
 20
31.414824
 30
0.0
 11
16.709452
 21
31.446253
 31
0.0
  0
ARC
  5
271
  8
1
 10
15.534508
 20
31.545738
 30
0.0
 40
1.179148
 50
290.7954590000001
 51
355.1601700000001
  0
ARC
  5
272
  8
1
 10
16.223778
 20
29.244427
 30
0.0
 40
1.229145
 50
102.719633
 51
189.764236
  0
ARC
  5
273
  8
1
 10
11.347816
 20
25.89473
 30
0.0
 40
4.826681
 50
34.435565
 51
40.602521
  0
LINE
  5
274
  8
1
 10
15.328682
 20
28.624117
 30
0.0
 11
15.329367
 21
28.624701
 31
0.0
  0
ARC
  5
275
  8
1
 10
16.4345
 20
28.089664
 30
0.0
 40
1.227837
 50
67.354041
 51
154.166642
  0
ARC
  5
276
  8
1
 10
17.203379
 20
30.364189
 30
0.0
 40
1.179139
 50
255.455586
 51
318.170296
  0
LINE
  5
277
  8
1
 10
18.081991
 20
29.577799
 30
0.0
 11
18.110945
 21
29.601004
 31
0.0
  0
ARC
  5
278
  8
1
 10
17.033621
 20
30.080282
 30
0.0
 40
1.179125
 50
271.65126
 51
336.016734
  0
ARC
  5
279
  8
1
 10
16.929907
 20
27.680779
 30
0.0
 40
1.228609
 50
83.565282
 51
170.424739
  0
ARC
  5
27A
  8
1
 10
11.705017
 20
26.258671
 30
0.0
 40
4.330449
 50
14.892794
 51
22.060852
  0
ARC
  5
27B
  8
1
 10
16.762051
 20
26.507374
 30
0.0
 40
1.227778
 50
48.555297
 51
135.256724
  0
ARC
  5
27C
  8
1
 10
18.222803
 20
28.412764
 30
0.0
 40
1.179132
 50
236.658139
 51
299.3728809999999
  0
LINE
  5
27D
  8
1
 10
18.801157
 20
27.385214
 30
0.0
 11
18.836046
 21
27.397863
 31
0.0
  0
ARC
  5
27E
  8
1
 10
17.9706
 20
28.198738
 30
0.0
 40
1.179151
 50
252.855205
 51
317.219152
  0
ARC
  5
27F
  8
1
 10
17.099442
 20
25.96467
 30
0.0
 40
1.224852
 50
64.69432500000002
 51
151.954412
  0
ARC
  5
280
  8
1
 10
11.638642
 20
26.319157
 30
0.0
 40
4.38537
 50
355.598429
 51
2.893959
  0
LINE
  5
281
  8
1
 10
16.011078
 20
25.982595
 30
0.0
 11
16.01228
 21
25.981752
 31
0.0
  0
LINE
  5
282
  8
1
 10
16.01228
 20
25.981752
 30
0.0
 11
16.01372
 21
25.981489
 31
0.0
  0
ARC
  5
283
  8
1
 10
16.548452
 20
24.876369
 30
0.0
 40
1.227692
 50
29.34052399999999
 51
115.820883
  0
ARC
  5
284
  8
1
 10
18.554817
 20
26.194839
 30
0.0
 40
1.179126
 50
217.44461
 51
280.159133
  0
LINE
  5
285
  8
1
 10
18.762794
 20
25.034201
 30
0.0
 11
18.799902
 21
25.034662
 31
0.0
  0
ARC
  5
286
  8
1
 10
18.246223
 20
26.075699
 30
0.0
 40
1.179117
 50
233.640624
 51
298.006417
  0
ARC
  5
287
  8
1
 10
16.686964
 20
24.249241
 30
0.0
 40
1.228386
 50
45.550008
 51
132.626319
  0
ARC
  5
288
  8
1
 10
11.901131
 20
26.315668
 30
0.0
 40
4.121332
 50
337.0739859999999
 51
343.614857
  0
ARC
  5
289
  8
1
 10
15.863502
 20
23.493896
 30
0.0
 40
1.227694
 50
11.255003
 51
97.798659
  0
ARC
  5
28A
  8
1
 10
18.180048
 20
24.124411
 30
0.0
 40
1.179142
 50
199.360483
 51
262.074789
  0
LINE
  5
28B
  8
1
 10
18.017467
 20
22.956532
 30
0.0
 11
18.052876
 21
22.945446
 31
0.0
  0
ARC
  5
28C
  8
1
 10
17.849731
 20
24.106964
 30
0.0
 40
1.179149
 50
215.556331
 51
279.920428
  0
ARC
  5
28D
  8
1
 10
15.800508
 20
22.854748
 30
0.0
 40
1.228381
 50
27.465016
 51
114.450239
  0
ARC
  5
28E
  8
1
 10
11.152261
 20
26.862665
 30
0.0
 40
5.048607
 50
319.957458
 51
325.083995
  0
LINE
  5
28F
  8
1
 10
15.017307
 20
23.614613
 30
0.0
 11
15.018236
 21
23.613531
 31
0.0
  0
ARC
  5
290
  8
1
 10
14.796046
 20
22.405972
 30
0.0
 40
1.227831
 50
352.760761
 51
79.574238
  0
ARC
  5
291
  8
1
 10
17.193087
 20
22.269005
 30
0.0
 40
1.179131
 50
180.862805
 51
243.577493
  0
LINE
  5
292
  8
1
 10
16.668388
 20
21.213049
 30
0.0
 11
16.698462
 21
21.191303
 31
0.0
  0
ARC
  5
293
  8
1
 10
16.874302
 20
22.357264
 30
0.0
 40
1.179145
 50
197.059369
 51
261.423763
  0
ARC
  5
294
  8
1
 10
14.536695
 20
21.821775
 30
0.0
 40
1.225098
 50
8.901701
 51
96.12422799999999
  0
ARC
  5
295
  8
1
 10
11.567905
 20
26.77463
 30
0.0
 40
4.690746
 50
300.874243
 51
307.231755
  0
ARC
  5
296
  8
1
 10
13.378706
 20
21.675255
 30
0.0
 40
1.227837
 50
334.1328119999999
 51
60.945896
  0
ARC
  5
297
  8
1
 10
15.60641
 20
20.779785
 30
0.0
 40
1.179118
 50
162.234163
 51
224.94977
  0
LINE
  5
298
  8
1
 10
14.771917
 20
19.946754
 30
0.0
 11
14.793467
 21
19.916544
 31
0.0
  0
ARC
  5
299
  8
1
 10
15.332529
 20
20.965252
 30
0.0
 40
1.179142
 50
178.431095
 51
242.795689
  0
ARC
  5
29A
  8
1
 10
12.943888
 20
21.203913
 30
0.0
 40
1.227416
 50
350.320343
 51
77.381166
  0
ARC
  5
29B
  8
1
 10
11.79343
 20
26.613163
 30
0.0
 40
4.443986
 50
281.844769
 51
288.615691
  0
LINE
  5
29C
  8
1
 10
12.705606
 20
22.263802
 30
0.0
 11
12.704823
 21
22.262016
 31
0.0
  0
LINE
  5
29D
  8
1
 10
12.704823
 20
22.262016
 30
0.0
 11
12.704838
 21
22.260069
 31
0.0
  0
ARC
  5
29E
  8
1
 10
11.790397
 20
21.440857
 30
0.0
 40
1.227726
 50
315.282641
 51
41.855915
  0
ARC
  5
29F
  8
1
 10
13.609236
 20
19.873772
 30
0.0
 40
1.179106
 50
143.385904
 51
206.102106
  0
LINE
  5
2A0
  8
1
 10
12.550385
 20
19.354998
 30
0.0
 11
12.561014
 21
19.319441
 31
0.0
  0
ARC
  5
2A1
  8
1
 10
13.409973
 20
20.137766
 30
0.0
 40
1.179147
 50
159.582851
 51
223.947395
  0
ARC
  5
2A2
  8
1
 10
11.222541
 20
21.135723
 30
0.0
 40
1.231104
 50
331.543593
 51
58.13899299999999
  0
LINE
  5
2A3
  8
1
 10
11.872393
 20
22.181339
 30
0.0
 11
11.87224
 21
22.182707
 31
0.0
  0
LINE
  5
2A4
  8
1
 10
11.87224
 20
22.182707
 30
0.0
 11
11.87228
 21
22.18408
 31
0.0
  0
ENDSEC
  0
EOF
