  0
SECTION
  2
HEADER
  9
$ACADVER
  1
AC1021
  9
$ACADMAINTVER
 70
    25
  9
$DWGCODEPAGE
  3
ANSI_1252
  9
$INSBASE
 10
0.0
 20
0.0
 30
0.0
  9
$EXTMIN
 10
-223.2699
 20
-125.3407
 30
0.0
  9
$EXTMAX
 10
223.27
 20
125.3407
 30
0.0
  9
$LIMMIN
 10
0.0
 20
0.0
  9
$LIMMAX
 10
12.0
 20
9.0
  9
$ORTHOMODE
 70
     0
  9
$REGENMODE
 70
     1
  9
$FILLMODE
 70
     1
  9
$QTEXTMODE
 70
     0
  9
$MIRRTEXT
 70
     1
  9
$LTSCALE
 40
1.0
  9
$ATTMODE
 70
     1
  9
$TEXTSIZE
 40
0.2
  9
$TRACEWID
 40
0.05
  9
$TEXTSTYLE
  7
Standard
  9
$CLAYER
  8
0
  9
$CELTYPE
  6
ByLayer
  9
$CECOLOR
 62
   256
  9
$CELTSCALE
 40
1.0
  9
$DISPSILH
 70
     0
  9
$DIMSCALE
 40
1.0
  9
$DIMASZ
 40
0.18
  9
$DIMEXO
 40
0.0625
  9
$DIMDLI
 40
0.38
  9
$DIMRND
 40
0.0
  9
$DIMDLE
 40
0.0
  9
$DIMEXE
 40
0.18
  9
$DIMTP
 40
0.0
  9
$DIMTM
 40
0.0
  9
$DIMTXT
 40
0.18
  9
$DIMCEN
 40
0.09
  9
$DIMTSZ
 40
0.0
  9
$DIMTOL
 70
     0
  9
$DIMLIM
 70
     0
  9
$DIMTIH
 70
     1
  9
$DIMTOH
 70
     1
  9
$DIMSE1
 70
     0
  9
$DIMSE2
 70
     0
  9
$DIMTAD
 70
     0
  9
$DIMZIN
 70
     0
  9
$DIMBLK
  1

  9
$DIMASO
 70
     1
  9
$DIMSHO
 70
     1
  9
$DIMPOST
  1

  9
$DIMAPOST
  1

  9
$DIMALT
 70
     0
  9
$DIMALTD
 70
     2
  9
$DIMALTF
 40
25.4
  9
$DIMLFAC
 40
1.0
  9
$DIMTOFL
 70
     0
  9
$DIMTVP
 40
0.0
  9
$DIMTIX
 70
     0
  9
$DIMSOXD
 70
     0
  9
$DIMSAH
 70
     0
  9
$DIMBLK1
  1

  9
$DIMBLK2
  1

  9
$DIMSTYLE
  2
Standard
  9
$DIMCLRD
 70
     0
  9
$DIMCLRE
 70
     0
  9
$DIMCLRT
 70
     0
  9
$DIMTFAC
 40
1.0
  9
$DIMGAP
 40
0.09
  9
$DIMJUST
 70
     0
  9
$DIMSD1
 70
     0
  9
$DIMSD2
 70
     0
  9
$DIMTOLJ
 70
     1
  9
$DIMTZIN
 70
     0
  9
$DIMALTZ
 70
     0
  9
$DIMALTTZ
 70
     0
  9
$DIMUPT
 70
     0
  9
$DIMDEC
 70
     4
  9
$DIMTDEC
 70
     4
  9
$DIMALTU
 70
     2
  9
$DIMALTTD
 70
     2
  9
$DIMTXSTY
  7
Standard
  9
$DIMAUNIT
 70
     0
  9
$DIMADEC
 70
     0
  9
$DIMALTRND
 40
0.0
  9
$DIMAZIN
 70
     0
  9
$DIMDSEP
 70
    46
  9
$DIMATFIT
 70
     3
  9
$DIMFRAC
 70
     0
  9
$DIMLDRBLK
  1

  9
$DIMLUNIT
 70
     2
  9
$DIMLWD
 70
    -2
  9
$DIMLWE
 70
    -2
  9
$DIMTMOVE
 70
     0
  9
$DIMFXL
 40
1.0
  9
$DIMFXLON
 70
     0
  9
$DIMJOGANG
 40
0.7853981633974483
  9
$DIMTFILL
 70
     0
  9
$DIMTFILLCLR
 70
     0
  9
$DIMARCSYM
 70
     0
  9
$DIMLTYPE
  6

  9
$DIMLTEX1
  6

  9
$DIMLTEX2
  6

  9
$LUNITS
 70
     2
  9
$LUPREC
 70
     4
  9
$SKETCHINC
 40
0.1
  9
$FILLETRAD
 40
0.5
  9
$AUNITS
 70
     0
  9
$AUPREC
 70
     0
  9
$MENU
  1
.
  9
$ELEVATION
 40
0.0
  9
$PELEVATION
 40
0.0
  9
$THICKNESS
 40
0.0
  9
$LIMCHECK
 70
     0
  9
$CHAMFERA
 40
0.0
  9
$CHAMFERB
 40
0.0
  9
$CHAMFERC
 40
0.0
  9
$CHAMFERD
 40
0.0
  9
$SKPOLY
 70
     0
  9
$TDCREATE
 40
2457515.765953727
  9
$TDUCREATE
 40
2457515.890953727
  9
$TDUPDATE
 40
2457515.765953762
  9
$TDUUPDATE
 40
2457515.890953762
  9
$TDINDWG
 40
0.0000000116
  9
$TDUSRTIMER
 40
0.0000000116
  9
$USRTIMER
 70
     1
  9
$ANGBASE
 50
0.0
  9
$ANGDIR
 70
     0
  9
$PDMODE
 70
     0
  9
$PDSIZE
 40
0.0
  9
$PLINEWID
 40
0.0
  9
$SPLFRAME
 70
     0
  9
$SPLINETYPE
 70
     6
  9
$SPLINESEGS
 70
     8
  9
$HANDSEED
  5
11C
  9
$SURFTAB1
 70
     6
  9
$SURFTAB2
 70
     6
  9
$SURFTYPE
 70
     6
  9
$SURFU
 70
     6
  9
$SURFV
 70
     6
  9
$UCSBASE
  2

  9
$UCSNAME
  2

  9
$UCSORG
 10
0.0
 20
0.0
 30
0.0
  9
$UCSXDIR
 10
1.0
 20
0.0
 30
0.0
  9
$UCSYDIR
 10
0.0
 20
1.0
 30
0.0
  9
$UCSORTHOREF
  2

  9
$UCSORTHOVIEW
 70
     0
  9
$UCSORGTOP
 10
0.0
 20
0.0
 30
0.0
  9
$UCSORGBOTTOM
 10
0.0
 20
0.0
 30
0.0
  9
$UCSORGLEFT
 10
0.0
 20
0.0
 30
0.0
  9
$UCSORGRIGHT
 10
0.0
 20
0.0
 30
0.0
  9
$UCSORGFRONT
 10
0.0
 20
0.0
 30
0.0
  9
$UCSORGBACK
 10
0.0
 20
0.0
 30
0.0
  9
$PUCSBASE
  2

  9
$PUCSNAME
  2

  9
$PUCSORG
 10
0.0
 20
0.0
 30
0.0
  9
$PUCSXDIR
 10
1.0
 20
0.0
 30
0.0
  9
$PUCSYDIR
 10
0.0
 20
1.0
 30
0.0
  9
$PUCSORTHOREF
  2

  9
$PUCSORTHOVIEW
 70
     0
  9
$PUCSORGTOP
 10
0.0
 20
0.0
 30
0.0
  9
$PUCSORGBOTTOM
 10
0.0
 20
0.0
 30
0.0
  9
$PUCSORGLEFT
 10
0.0
 20
0.0
 30
0.0
  9
$PUCSORGRIGHT
 10
0.0
 20
0.0
 30
0.0
  9
$PUCSORGFRONT
 10
0.0
 20
0.0
 30
0.0
  9
$PUCSORGBACK
 10
0.0
 20
0.0
 30
0.0
  9
$USERI1
 70
     0
  9
$USERI2
 70
     0
  9
$USERI3
 70
     0
  9
$USERI4
 70
     0
  9
$USERI5
 70
     0
  9
$USERR1
 40
0.0
  9
$USERR2
 40
0.0
  9
$USERR3
 40
0.0
  9
$USERR4
 40
0.0
  9
$USERR5
 40
0.0
  9
$WORLDVIEW
 70
     1
  9
$SHADEDGE
 70
     3
  9
$SHADEDIF
 70
    70
  9
$TILEMODE
 70
     1
  9
$MAXACTVP
 70
    64
  9
$PINSBASE
 10
0.0
 20
0.0
 30
0.0
  9
$PLIMCHECK
 70
     0
  9
$PEXTMIN
 10
1.000000000000000E+20
 20
1.000000000000000E+20
 30
1.000000000000000E+20
  9
$PEXTMAX
 10
-1.000000000000000E+20
 20
-1.000000000000000E+20
 30
-1.000000000000000E+20
  9
$PLIMMIN
 10
0.0
 20
0.0
  9
$PLIMMAX
 10
12.0
 20
9.0
  9
$UNITMODE
 70
     0
  9
$VISRETAIN
 70
     1
  9
$PLINEGEN
 70
     0
  9
$PSLTSCALE
 70
     1
  9
$TREEDEPTH
 70
  3020
  9
$CMLSTYLE
  2
Standard
  9
$CMLJUST
 70
     0
  9
$CMLSCALE
 40
1.0
  9
$PROXYGRAPHICS
 70
     1
  9
$MEASUREMENT
 70
     0
  9
$CELWEIGHT
370
    -1
  9
$ENDCAPS
280
     0
  9
$JOINSTYLE
280
     0
  9
$LWDISPLAY
290
     0
  9
$INSUNITS
 70
     4
  9
$HYPERLINKBASE
  1

  9
$STYLESHEET
  1

  9
$XEDIT
290
     1
  9
$CEPSNTYPE
380
     0
  9
$PSTYLEMODE
290
     1
  9
$FINGERPRINTGUID
  2
{4BE6ABD9-F244-4ECE-A560-29AF8085E8BB}
  9
$VERSIONGUID
  2
{FAEB1C32-E019-11D5-929B-00C0DF256EC4}
  9
$EXTNAMES
290
     1
  9
$PSVPSCALE
 40
0.0
  9
$OLESTARTUP
290
     0
  9
$SORTENTS
280
   127
  9
$INDEXCTL
280
     0
  9
$HIDETEXT
280
     1
  9
$XCLIPFRAME
290
     0
  9
$HALOGAP
280
     0
  9
$OBSCOLOR
 70
   257
  9
$OBSLTYPE
280
     0
  9
$INTERSECTIONDISPLAY
280
     0
  9
$INTERSECTIONCOLOR
 70
   257
  9
$DIMASSOC
280
     2
  9
$PROJECTNAME
  1

  9
$CAMERADISPLAY
290
     0
  9
$LENSLENGTH
 40
50.0
  9
$CAMERAHEIGHT
 40
0.0
  9
$STEPSPERSEC
 40
2.0
  9
$STEPSIZE
 40
6.0
  9
$3DDWFPREC
 40
2.0
  9
$PSOLWIDTH
 40
0.25
  9
$PSOLHEIGHT
 40
4.0
  9
$LOFTANG1
 40
1.570796326794897
  9
$LOFTANG2
 40
1.570796326794897
  9
$LOFTMAG1
 40
0.0
  9
$LOFTMAG2
 40
0.0
  9
$LOFTPARAM
 70
     7
  9
$LOFTNORMALS
280
     1
  9
$LATITUDE
 40
37.795
  9
$LONGITUDE
 40
-122.394
  9
$NORTHDIRECTION
 40
0.0
  9
$TIMEZONE
 70
 -8000
  9
$LIGHTGLYPHDISPLAY
280
     1
  9
$TILEMODELIGHTSYNCH
280
     1
  9
$CMATERIAL
347
44
  9
$SOLIDHIST
280
     0
  9
$SHOWHIST
280
     1
  9
$DWFFRAME
280
     2
  9
$DGNFRAME
280
     2
  9
$REALWORLDSCALE
290
     1
  9
$INTERFERECOLOR
 62
   256
  9
$CSHADOW
280
     0
  9
$SHADOWPLANELOCATION
 40
0.0
  0
ENDSEC
  0
SECTION
  2
CLASSES
  0
CLASS
  1
ACDBDICTIONARYWDFLT
  2
AcDbDictionaryWithDefault
  3
ObjectDBX Classes
 90
        0
 91
        4
280
     0
281
     0
  0
CLASS
  1
VISUALSTYLE
  2
AcDbVisualStyle
  3
ObjectDBX Classes
 90
     4095
 91
        4
280
     0
281
     0
  0
CLASS
  1
MATERIAL
  2
AcDbMaterial
  3
ObjectDBX Classes
 90
     1153
 91
        4
280
     0
281
     0
  0
CLASS
  1
SCALE
  2
AcDbScale
  3
ObjectDBX Classes
 90
     1153
 91
        4
280
     0
281
     0
  0
CLASS
  1
TABLESTYLE
  2
AcDbTableStyle
  3
ObjectDBX Classes
 90
     4095
 91
        4
280
     0
281
     0
  0
CLASS
  1
MLEADERSTYLE
  2
AcDbMLeaderStyle
  3
ACDB_MLEADERSTYLE_CLASS
 90
     4095
 91
        4
280
     0
281
     0
  0
CLASS
  1
SUN
  2
AcDbSun
  3
SCENEOE
 90
     1153
 91
        4
280
     0
281
     0
  0
CLASS
  1
DICTIONARYVAR
  2
AcDbDictionaryVar
  3
ObjectDBX Classes
 90
        0
 91
        4
280
     0
281
     0
  0
CLASS
  1
CELLSTYLEMAP
  2
AcDbCellStyleMap
  3
ObjectDBX Classes
 90
     1152
 91
        4
280
     0
281
     0
  0
ENDSEC
  0
SECTION
  2
TABLES
  0
TABLE
  2
VPORT
  5
8
330
0
100
AcDbSymbolTable
 70
     1
  0
VPORT
  5
29
330
8
100
AcDbSymbolTableRecord
100
AcDbViewportTableRecord
  2
*Active
 70
     0
 10
0.0
 20
0.0
 11
1.0
 21
1.0
 12
10.42990654205607
 22
4.5
 13
0.0
 23
0.0
 14
0.5
 24
0.5
 15
0.5
 25
0.5
 16
0.0
 26
0.0
 36
1.0
 17
0.0
 27
0.0
 37
0.0
 40
9.0
 41
1.972972972850329
 42
50.0
 43
0.0
 44
0.0
 50
0.0
 51
0.0
 71
     0
 72
   100
 73
     1
 74
     3
 75
     0
 76
     0
 77
     0
 78
     0
281
     0
 65
     1
110
0.0
120
0.0
130
0.0
111
1.0
121
0.0
131
0.0
112
0.0
122
1.0
132
0.0
 79
     0
146
0.0
348
2F
 60
     3
 61
     5
292
     1
282
     1
141
0.0
142
0.0
 63
   250
361
6D
  0
ENDTAB
  0
TABLE
  2
LTYPE
  5
5
330
0
100
AcDbSymbolTable
 70
     1
  0
LTYPE
  5
14
330
5
100
AcDbSymbolTableRecord
100
AcDbLinetypeTableRecord
  2
ByBlock
 70
     0
  3

 72
    65
 73
     0
 40
0.0
  0
LTYPE
  5
15
330
5
100
AcDbSymbolTableRecord
100
AcDbLinetypeTableRecord
  2
ByLayer
 70
     0
  3

 72
    65
 73
     0
 40
0.0
  0
LTYPE
  5
16
330
5
100
AcDbSymbolTableRecord
100
AcDbLinetypeTableRecord
  2
Continuous
 70
     0
  3
Solid line
 72
    65
 73
     0
 40
0.0
  0
ENDTAB
  0
TABLE
  2
LAYER
  5
2
330
0
100
AcDbSymbolTable
 70
     2
  0
LAYER
  5
10
330
2
100
AcDbSymbolTableRecord
100
AcDbLayerTableRecord
  2
0
 70
     0
 62
     7
  6
Continuous
370
    -3
390
F
347
46
  0
LAYER
  5
6F
330
2
100
AcDbSymbolTableRecord
100
AcDbLayerTableRecord
  2
Camada 1
 70
     0
 62
     7
  6
Continuous
370
    -3
390
F
347
46
  0
ENDTAB
  0
TABLE
  2
STYLE
  5
3
330
0
100
AcDbSymbolTable
 70
     1
  0
STYLE
  5
11
330
3
100
AcDbSymbolTableRecord
100
AcDbTextStyleTableRecord
  2
Standard
 70
     0
 40
0.0
 41
1.0
 50
0.0
 71
     0
 42
0.2
  3
txt
  4

  0
ENDTAB
  0
TABLE
  2
VIEW
  5
6
330
0
100
AcDbSymbolTable
 70
     0
  0
ENDTAB
  0
TABLE
  2
UCS
  5
7
330
0
100
AcDbSymbolTable
 70
     0
  0
ENDTAB
  0
TABLE
  2
APPID
  5
9
330
0
100
AcDbSymbolTable
 70
     3
  0
APPID
  5
12
330
9
100
AcDbSymbolTableRecord
100
AcDbRegAppTableRecord
  2
ACAD
 70
     0
  0
APPID
  5
6E
330
9
100
AcDbSymbolTableRecord
100
AcDbRegAppTableRecord
  2
ODA
 70
     0
  0
APPID
  5
114
330
9
100
AcDbSymbolTableRecord
100
AcDbRegAppTableRecord
  2
ACAD_MLEADERVER
 70
     0
  0
ENDTAB
  0
TABLE
  2
DIMSTYLE
  5
A
330
0
100
AcDbSymbolTable
 70
     1
100
AcDbDimStyleTable
  0
DIMSTYLE
105
27
330
A
100
AcDbSymbolTableRecord
100
AcDbDimStyleTableRecord
  2
Standard
 70
     0
178
     0
340
11
  0
ENDTAB
  0
TABLE
  2
BLOCK_RECORD
  5
1
330
0
100
AcDbSymbolTable
 70
     1
  0
BLOCK_RECORD
  5
1F
330
1
100
AcDbSymbolTableRecord
100
AcDbBlockTableRecord
  2
*Model_Space
340
22
 70
     0
280
     1
281
     0
  0
BLOCK_RECORD
  5
1B
330
1
100
AcDbSymbolTableRecord
100
AcDbBlockTableRecord
  2
*Paper_Space
340
1E
 70
     0
280
     1
281
     0
  0
BLOCK_RECORD
  5
23
330
1
100
AcDbSymbolTableRecord
100
AcDbBlockTableRecord
  2
*Paper_Space0
340
26
 70
     0
280
     1
281
     0
  0
ENDTAB
  0
ENDSEC
  0
SECTION
  2
BLOCKS
  0
BLOCK
  5
20
330
1F
100
AcDbEntity
  8
0
100
AcDbBlockBegin
  2
*Model_Space
 70
     0
 10
0.0
 20
0.0
 30
0.0
  3
*Model_Space
  1

  0
ENDBLK
  5
21
330
1F
100
AcDbEntity
  8
0
100
AcDbBlockEnd
  0
BLOCK
  5
1C
330
1B
100
AcDbEntity
 67
     1
  8
0
100
AcDbBlockBegin
  2
*Paper_Space
 70
     0
 10
0.0
 20
0.0
 30
0.0
  3
*Paper_Space
  1

  0
ENDBLK
  5
1D
330
1B
100
AcDbEntity
 67
     1
  8
0
100
AcDbBlockEnd
  0
BLOCK
  5
24
330
23
100
AcDbEntity
  8
0
100
AcDbBlockBegin
  2
*Paper_Space0
 70
     0
 10
0.0
 20
0.0
 30
0.0
  3
*Paper_Space0
  1

  0
ENDBLK
  5
25
330
23
100
AcDbEntity
  8
0
100
AcDbBlockEnd
  0
ENDSEC
  0
SECTION
  2
ENTITIES
  0
SPLINE
  5
70
330
1F
100
AcDbEntity
  8
Camada 1
 62
   250
370
    20
100
AcDbSpline
210
0.0
220
0.0
230
1.0
 70
    11
 71
     3
 72
    64
 73
    60
 74
     0
 42
0.000000001
 43
0.0000000001
 40
0.0
 40
0.0
 40
0.0
 40
0.0
 40
0.0625
 40
0.0625
 40
0.0625
 40
0.0625
 40
0.125
 40
0.125
 40
0.125
 40
0.125
 40
0.1875
 40
0.1875
 40
0.1875
 40
0.1875
 40
0.25
 40
0.25
 40
0.25
 40
0.25
 40
0.3125
 40
0.3125
 40
0.3125
 40
0.3125
 40
0.375
 40
0.375
 40
0.375
 40
0.375
 40
0.4375
 40
0.4375
 40
0.4375
 40
0.4375
 40
0.5
 40
0.5
 40
0.5
 40
0.5
 40
0.5625
 40
0.5625
 40
0.5625
 40
0.5625
 40
0.625
 40
0.625
 40
0.625
 40
0.625
 40
0.6875
 40
0.6875
 40
0.6875
 40
0.6875
 40
0.75
 40
0.75
 40
0.75
 40
0.75
 40
0.8125
 40
0.8125
 40
0.8125
 40
0.8125
 40
0.875
 40
0.875
 40
0.875
 40
0.875
 40
1.0
 40
1.0
 40
1.0
 40
1.0
 10
-71.7953
 20
-125.2407
 30
0.0
 10
-71.7953
 20
-125.2407
 30
0.0
 10
-71.7953
 20
-125.2021
 30
0.0
 10
-71.7953
 20
-125.2021
 30
0.0
 10
-71.7953
 20
-125.2021
 30
0.0
 10
-69.8064
 20
-125.2279
 30
0.0
 10
-67.8056
 20
-125.2407
 30
0.0
 10
-65.7953
 20
-125.2407
 30
0.0
 10
-65.7953
 20
-125.2407
 30
0.0
 10
-65.7953
 20
-125.2407
 30
0.0
 10
-65.7953
 20
-115.8922
 30
0.0
 10
-65.7953
 20
-115.8922
 30
0.0
 10
-65.7953
 20
-115.8922
 30
0.0
 10
-65.7953
 20
-115.8922
 30
0.0
 10
-71.7953
 20
-115.8922
 30
0.0
 10
-71.7953
 20
-115.8922
 30
0.0
 10
-71.7953
 20
-115.8922
 30
0.0
 10
-71.7953
 20
-115.8922
 30
0.0
 10
-71.7953
 20
-104.8659
 30
0.0
 10
-71.7953
 20
-104.8659
 30
0.0
 10
-71.7953
 20
-104.8659
 30
0.0
 10
-71.7953
 20
-104.8659
 30
0.0
 10
-65.7953
 20
-104.8659
 30
0.0
 10
-65.7953
 20
-104.8659
 30
0.0
 10
-65.7953
 20
-104.8659
 30
0.0
 10
-65.7953
 20
-104.8659
 30
0.0
 10
-65.7953
 20
-89.5239
 30
0.0
 10
-65.7953
 20
-89.5239
 30
0.0
 10
-65.7953
 20
-89.5239
 30
0.0
 10
-65.7953
 20
-89.5239
 30
0.0
 10
-71.7953
 20
-89.5239
 30
0.0
 10
-71.7953
 20
-89.5239
 30
0.0
 10
-71.7953
 20
-89.5239
 30
0.0
 10
-71.7953
 20
-89.5239
 30
0.0
 10
-71.7953
 20
-78.4977
 30
0.0
 10
-71.7953
 20
-78.4977
 30
0.0
 10
-71.7953
 20
-78.4977
 30
0.0
 10
-71.7953
 20
-78.4977
 30
0.0
 10
-65.7953
 20
-78.4977
 30
0.0
 10
-65.7953
 20
-78.4977
 30
0.0
 10
-65.7953
 20
-78.4977
 30
0.0
 10
-65.7953
 20
-78.4977
 30
0.0
 10
-65.7953
 20
-69.1491
 30
0.0
 10
-65.7953
 20
-69.1491
 30
0.0
 10
-65.7953
 20
-69.1491
 30
0.0
 10
-67.8134
 20
-69.1491
 30
0.0
 10
-69.8139
 20
-69.1605
 30
0.0
 10
-71.7953
 20
-69.1835
 30
0.0
 10
-71.7953
 20
-69.1835
 30
0.0
 10
-71.7953
 20
-69.1835
 30
0.0
 10
-71.7953
 20
-69.1491
 30
0.0
 10
-71.7953
 20
-69.1491
 30
0.0
 10
-71.7953
 20
-69.1491
 30
0.0
 10
-155.3971
 20
-69.1491
 30
0.0
 10
-223.1699
 20
-81.7056
 30
0.0
 10
-223.1699
 20
-97.1949
 30
0.0
 10
-223.1699
 20
-97.1949
 30
0.0
 10
-223.1699
 20
-112.6842
 30
0.0
 10
-155.3971
 20
-125.2407
 30
0.0
 10
-71.7953
 20
-125.2407
 30
0.0
  0
SPLINE
  5
71
330
1F
100
AcDbEntity
  8
Camada 1
 62
   250
370
    20
100
AcDbSpline
210
0.0
220
0.0
230
1.0
 70
    11
 71
     3
 72
    20
 73
    16
 74
     0
 42
0.000000001
 43
0.0000000001
 40
0.0
 40
0.0
 40
0.0
 40
0.0
 40
0.2
 40
0.2
 40
0.2
 40
0.2
 40
0.4
 40
0.4
 40
0.4
 40
0.4
 40
0.6
 40
0.6
 40
0.6
 40
0.6
 40
1.0
 40
1.0
 40
1.0
 40
1.0
 10
-94.5117
 20
-100.1949
 30
0.0
 10
-94.5117
 20
-100.1949
 30
0.0
 10
-117.2282
 20
-100.1949
 30
0.0
 10
-117.2282
 20
-100.1949
 30
0.0
 10
-117.2282
 20
-100.1949
 30
0.0
 10
-117.2282
 20
-100.1949
 30
0.0
 10
-117.2282
 20
-97.1949
 30
0.0
 10
-117.2282
 20
-97.1949
 30
0.0
 10
-117.2282
 20
-97.1949
 30
0.0
 10
-117.2282
 20
-97.1949
 30
0.0
 10
-94.5117
 20
-97.1949
 30
0.0
 10
-94.5117
 20
-97.1949
 30
0.0
 10
-94.5117
 20
-97.1949
 30
0.0
 10
-94.5117
 20
-97.1949
 30
0.0
 10
-94.5117
 20
-100.1949
 30
0.0
 10
-94.5117
 20
-100.1949
 30
0.0
  0
SPLINE
  5
72
330
1F
100
AcDbEntity
  8
Camada 1
 62
   250
370
    20
100
AcDbSpline
210
0.0
220
0.0
230
1.0
 70
    11
 71
     3
 72
    20
 73
    16
 74
     0
 42
0.000000001
 43
0.0000000001
 40
0.0
 40
0.0
 40
0.0
 40
0.0
 40
0.2
 40
0.2
 40
0.2
 40
0.2
 40
0.4
 40
0.4
 40
0.4
 40
0.4
 40
0.6
 40
0.6
 40
0.6
 40
0.6
 40
1.0
 40
1.0
 40
1.0
 40
1.0
 10
-139.9446
 20
-100.1949
 30
0.0
 10
-139.9446
 20
-100.1949
 30
0.0
 10
-162.661
 20
-100.1949
 30
0.0
 10
-162.661
 20
-100.1949
 30
0.0
 10
-162.661
 20
-100.1949
 30
0.0
 10
-162.661
 20
-100.1949
 30
0.0
 10
-162.661
 20
-97.1949
 30
0.0
 10
-162.661
 20
-97.1949
 30
0.0
 10
-162.661
 20
-97.1949
 30
0.0
 10
-162.661
 20
-97.1949
 30
0.0
 10
-139.9446
 20
-97.1949
 30
0.0
 10
-139.9446
 20
-97.1949
 30
0.0
 10
-139.9446
 20
-97.1949
 30
0.0
 10
-139.9446
 20
-97.1949
 30
0.0
 10
-139.9446
 20
-100.1949
 30
0.0
 10
-139.9446
 20
-100.1949
 30
0.0
  0
SPLINE
  5
73
330
1F
100
AcDbEntity
  8
Camada 1
 62
   250
370
    20
100
AcDbSpline
210
0.0
220
0.0
230
1.0
 70
    11
 71
     3
 72
    20
 73
    16
 74
     0
 42
0.000000001
 43
0.0000000001
 40
0.0
 40
0.0
 40
0.0
 40
0.0
 40
0.2
 40
0.2
 40
0.2
 40
0.2
 40
0.4
 40
0.4
 40
0.4
 40
0.4
 40
0.6
 40
0.6
 40
0.6
 40
0.6
 40
1.0
 40
1.0
 40
1.0
 40
1.0
 10
-185.3775
 20
-97.1949
 30
0.0
 10
-185.3775
 20
-97.1949
 30
0.0
 10
-185.3775
 20
-100.1949
 30
0.0
 10
-185.3775
 20
-100.1949
 30
0.0
 10
-185.3775
 20
-100.1949
 30
0.0
 10
-185.3775
 20
-100.1949
 30
0.0
 10
-208.0939
 20
-100.1949
 30
0.0
 10
-208.0939
 20
-100.1949
 30
0.0
 10
-208.0939
 20
-100.1949
 30
0.0
 10
-208.0939
 20
-100.1949
 30
0.0
 10
-208.0939
 20
-97.1949
 30
0.0
 10
-208.0939
 20
-97.1949
 30
0.0
 10
-208.0939
 20
-97.1949
 30
0.0
 10
-208.0939
 20
-97.1949
 30
0.0
 10
-185.3775
 20
-97.1949
 30
0.0
 10
-185.3775
 20
-97.1949
 30
0.0
  0
SPLINE
  5
74
330
1F
100
AcDbEntity
  8
Camada 1
 62
   250
370
    20
100
AcDbSpline
210
0.0
220
0.0
230
1.0
 70
    11
 71
     3
 72
    56
 73
    52
 74
     0
 42
0.000000001
 43
0.0000000001
 40
0.0
 40
0.0
 40
0.0
 40
0.0
 40
0.0714285714285714
 40
0.0714285714285714
 40
0.0714285714285714
 40
0.0714285714285714
 40
0.1428571428571428
 40
0.1428571428571428
 40
0.1428571428571428
 40
0.1428571428571428
 40
0.2142857142857143
 40
0.2142857142857143
 40
0.2142857142857143
 40
0.2142857142857143
 40
0.2857142857142857
 40
0.2857142857142857
 40
0.2857142857142857
 40
0.2857142857142857
 40
0.3571428571428572
 40
0.3571428571428572
 40
0.3571428571428572
 40
0.3571428571428572
 40
0.4285714285714285
 40
0.4285714285714285
 40
0.4285714285714285
 40
0.4285714285714285
 40
0.5
 40
0.5
 40
0.5
 40
0.5
 40
0.5714285714285714
 40
0.5714285714285714
 40
0.5714285714285714
 40
0.5714285714285714
 40
0.6428571428571429
 40
0.6428571428571429
 40
0.6428571428571429
 40
0.6428571428571429
 40
0.7142857142857143
 40
0.7142857142857143
 40
0.7142857142857143
 40
0.7142857142857143
 40
0.7857142857142857
 40
0.7857142857142857
 40
0.7857142857142857
 40
0.7857142857142857
 40
0.8571428571428571
 40
0.8571428571428571
 40
0.8571428571428571
 40
0.8571428571428571
 40
1.0
 40
1.0
 40
1.0
 40
1.0
 10
71.7954
 20
-78.4977
 30
0.0
 10
71.7954
 20
-78.4977
 30
0.0
 10
71.7954
 20
-89.5239
 30
0.0
 10
71.7954
 20
-89.5239
 30
0.0
 10
71.7954
 20
-89.5239
 30
0.0
 10
71.7954
 20
-89.5239
 30
0.0
 10
65.7954
 20
-89.5239
 30
0.0
 10
65.7954
 20
-89.5239
 30
0.0
 10
65.7954
 20
-89.5239
 30
0.0
 10
65.7954
 20
-89.5239
 30
0.0
 10
65.7954
 20
-104.8659
 30
0.0
 10
65.7954
 20
-104.8659
 30
0.0
 10
65.7954
 20
-104.8659
 30
0.0
 10
65.7954
 20
-104.8659
 30
0.0
 10
71.7954
 20
-104.8659
 30
0.0
 10
71.7954
 20
-104.8659
 30
0.0
 10
71.7954
 20
-104.8659
 30
0.0
 10
71.7954
 20
-104.8659
 30
0.0
 10
71.7954
 20
-115.8922
 30
0.0
 10
71.7954
 20
-115.8922
 30
0.0
 10
71.7954
 20
-115.8922
 30
0.0
 10
71.7954
 20
-115.8922
 30
0.0
 10
65.7954
 20
-115.8922
 30
0.0
 10
65.7954
 20
-115.8922
 30
0.0
 10
65.7954
 20
-115.8922
 30
0.0
 10
65.7954
 20
-115.8922
 30
0.0
 10
65.7954
 20
-125.2021
 30
0.0
 10
65.7954
 20
-125.2021
 30
0.0
 10
65.7954
 20
-125.2021
 30
0.0
 10
67.7843
 20
-125.2279
 30
0.0
 10
69.7851
 20
-125.2407
 30
0.0
 10
71.7954
 20
-125.2407
 30
0.0
 10
71.7954
 20
-125.2407
 30
0.0
 10
155.3972
 20
-125.2407
 30
0.0
 10
223.17
 20
-112.6842
 30
0.0
 10
223.17
 20
-97.1949
 30
0.0
 10
223.17
 20
-97.1949
 30
0.0
 10
223.17
 20
-81.7056
 30
0.0
 10
155.3972
 20
-69.1491
 30
0.0
 10
71.7954
 20
-69.1491
 30
0.0
 10
71.7954
 20
-69.1491
 30
0.0
 10
69.7773
 20
-69.1491
 30
0.0
 10
67.7768
 20
-69.1605
 30
0.0
 10
65.7954
 20
-69.1835
 30
0.0
 10
65.7954
 20
-69.1835
 30
0.0
 10
65.7954
 20
-69.1835
 30
0.0
 10
65.7954
 20
-78.4977
 30
0.0
 10
65.7954
 20
-78.4977
 30
0.0
 10
65.7954
 20
-78.4977
 30
0.0
 10
65.7954
 20
-78.4977
 30
0.0
 10
71.7954
 20
-78.4977
 30
0.0
 10
71.7954
 20
-78.4977
 30
0.0
  0
SPLINE
  5
75
330
1F
100
AcDbEntity
  8
Camada 1
 62
   250
370
    20
100
AcDbSpline
210
0.0
220
0.0
230
1.0
 70
    11
 71
     3
 72
    20
 73
    16
 74
     0
 42
0.000000001
 43
0.0000000001
 40
0.0
 40
0.0
 40
0.0
 40
0.0
 40
0.2
 40
0.2
 40
0.2
 40
0.2
 40
0.4
 40
0.4
 40
0.4
 40
0.4
 40
0.6
 40
0.6
 40
0.6
 40
0.6
 40
1.0
 40
1.0
 40
1.0
 40
1.0
 10
176.0993
 20
-100.1949
 30
0.0
 10
176.0993
 20
-100.1949
 30
0.0
 10
133.9949
 20
-100.1949
 30
0.0
 10
133.9949
 20
-100.1949
 30
0.0
 10
133.9949
 20
-100.1949
 30
0.0
 10
133.9949
 20
-100.1949
 30
0.0
 10
133.9949
 20
-97.1949
 30
0.0
 10
133.9949
 20
-97.1949
 30
0.0
 10
133.9949
 20
-97.1949
 30
0.0
 10
133.9949
 20
-97.1949
 30
0.0
 10
176.0993
 20
-97.1949
 30
0.0
 10
176.0993
 20
-97.1949
 30
0.0
 10
176.0993
 20
-97.1949
 30
0.0
 10
176.0993
 20
-97.1949
 30
0.0
 10
176.0993
 20
-100.1949
 30
0.0
 10
176.0993
 20
-100.1949
 30
0.0
  0
SPLINE
  5
76
330
1F
100
AcDbEntity
  8
Camada 1
 62
   250
370
    20
100
AcDbSpline
210
0.0
220
0.0
230
1.0
 70
     8
 71
     3
 72
    52
 73
    48
 74
     0
 42
0.000000001
 43
0.0000000001
 40
0.0
 40
0.0
 40
0.0
 40
0.0
 40
0.0769230769230769
 40
0.0769230769230769
 40
0.0769230769230769
 40
0.0769230769230769
 40
0.1538461538461539
 40
0.1538461538461539
 40
0.1538461538461539
 40
0.1538461538461539
 40
0.2307692307692308
 40
0.2307692307692308
 40
0.2307692307692308
 40
0.2307692307692308
 40
0.3076923076923077
 40
0.3076923076923077
 40
0.3076923076923077
 40
0.3076923076923077
 40
0.3846153846153846
 40
0.3846153846153846
 40
0.3846153846153846
 40
0.3846153846153846
 40
0.4615384615384616
 40
0.4615384615384616
 40
0.4615384615384616
 40
0.4615384615384616
 40
0.5384615384615384
 40
0.5384615384615384
 40
0.5384615384615384
 40
0.5384615384615384
 40
0.6153846153846154
 40
0.6153846153846154
 40
0.6153846153846154
 40
0.6153846153846154
 40
0.6923076923076923
 40
0.6923076923076923
 40
0.6923076923076923
 40
0.6923076923076923
 40
0.7692307692307693
 40
0.7692307692307693
 40
0.7692307692307693
 40
0.7692307692307693
 40
0.8461538461538461
 40
0.8461538461538461
 40
0.8461538461538461
 40
0.8461538461538461
 40
1.0
 40
1.0
 40
1.0
 40
1.0
 10
-29.3536
 20
-117.5058
 30
0.0
 10
-29.3536
 20
-117.5058
 30
0.0
 10
-23.1826
 20
-117.5058
 30
0.0
 10
-23.1826
 20
-117.5058
 30
0.0
 10
-23.1826
 20
-117.5058
 30
0.0
 10
-23.1826
 20
-117.5058
 30
0.0
 10
-23.1826
 20
-123.5058
 30
0.0
 10
-23.1826
 20
-123.5058
 30
0.0
 10
-23.1826
 20
-123.5058
 30
0.0
 10
-23.1826
 20
-123.5058
 30
0.0
 10
-12.1563
 20
-123.5058
 30
0.0
 10
-12.1563
 20
-123.5058
 30
0.0
 10
-12.1563
 20
-123.5058
 30
0.0
 10
-12.1563
 20
-123.5058
 30
0.0
 10
-12.1563
 20
-117.5058
 30
0.0
 10
-12.1563
 20
-117.5058
 30
0.0
 10
-12.1563
 20
-117.5058
 30
0.0
 10
-12.1563
 20
-117.5058
 30
0.0
 10
-2.8464
 20
-117.5058
 30
0.0
 10
-2.8464
 20
-117.5058
 30
0.0
 10
-2.8464
 20
-117.5058
 30
0.0
 10
-2.8464
 20
-113.9334
 30
0.0
 10
-7.4303
 20
-19.0278
 30
0.0
 10
-30.8729
 20
-19.0278
 30
0.0
 10
-30.8729
 20
-19.0278
 30
0.0
 10
-54.3
 20
-19.0278
 30
0.0
 10
-58.8994
 20
-113.7105
 30
0.0
 10
-58.8994
 20
-117.5058
 30
0.0
 10
-58.8994
 20
-117.5058
 30
0.0
 10
-58.8994
 20
-117.5058
 30
0.0
 10
-49.5508
 20
-117.5058
 30
0.0
 10
-49.5508
 20
-117.5058
 30
0.0
 10
-49.5508
 20
-117.5058
 30
0.0
 10
-49.5508
 20
-117.5058
 30
0.0
 10
-49.5508
 20
-123.5058
 30
0.0
 10
-49.5508
 20
-123.5058
 30
0.0
 10
-49.5508
 20
-123.5058
 30
0.0
 10
-49.5508
 20
-123.5058
 30
0.0
 10
-38.5246
 20
-123.5058
 30
0.0
 10
-38.5246
 20
-123.5058
 30
0.0
 10
-38.5246
 20
-123.5058
 30
0.0
 10
-38.5246
 20
-123.5058
 30
0.0
 10
-38.5246
 20
-117.5058
 30
0.0
 10
-38.5246
 20
-117.5058
 30
0.0
 10
-38.5246
 20
-117.5058
 30
0.0
 10
-38.5246
 20
-117.5058
 30
0.0
 10
-32.3536
 20
-117.5058
 30
0.0
 10
-32.3536
 20
-117.5058
 30
0.0
  0
SPLINE
  5
77
330
1F
100
AcDbEntity
  8
Camada 1
 62
   250
370
    20
100
AcDbSpline
210
0.0
220
0.0
230
1.0
 70
    11
 71
     3
 72
    20
 73
    16
 74
     0
 42
0.000000001
 43
0.0000000001
 40
0.0
 40
0.0
 40
0.0
 40
0.0
 40
0.2
 40
0.2
 40
0.2
 40
0.2
 40
0.4
 40
0.4
 40
0.4
 40
0.4
 40
0.6
 40
0.6
 40
0.6
 40
0.6
 40
1.0
 40
1.0
 40
1.0
 40
1.0
 10
-32.3536
 20
-47.5139
 30
0.0
 10
-32.3536
 20
-47.5139
 30
0.0
 10
-29.3536
 20
-47.5139
 30
0.0
 10
-29.3536
 20
-47.5139
 30
0.0
 10
-29.3536
 20
-47.5139
 30
0.0
 10
-29.3536
 20
-47.5139
 30
0.0
 10
-29.3536
 20
-70.8445
 30
0.0
 10
-29.3536
 20
-70.8445
 30
0.0
 10
-29.3536
 20
-70.8445
 30
0.0
 10
-29.3536
 20
-70.8445
 30
0.0
 10
-32.3536
 20
-70.8445
 30
0.0
 10
-32.3536
 20
-70.8445
 30
0.0
 10
-32.3536
 20
-70.8445
 30
0.0
 10
-32.3536
 20
-70.8445
 30
0.0
 10
-32.3536
 20
-47.5139
 30
0.0
 10
-32.3536
 20
-47.5139
 30
0.0
  0
SPLINE
  5
78
330
1F
100
AcDbEntity
  8
Camada 1
 62
   250
370
    20
100
AcDbSpline
210
0.0
220
0.0
230
1.0
 70
     8
 71
     3
 72
    16
 73
    12
 74
     0
 42
0.000000001
 43
0.0000000001
 40
0.0
 40
0.0
 40
0.0
 40
0.0
 40
0.25
 40
0.25
 40
0.25
 40
0.25
 40
0.5
 40
0.5
 40
0.5
 40
0.5
 40
1.0
 40
1.0
 40
1.0
 40
1.0
 10
-32.3536
 20
-117.5057
 30
0.0
 10
-32.3536
 20
-117.5057
 30
0.0
 10
-32.3536
 20
-94.1751
 30
0.0
 10
-32.3536
 20
-94.1751
 30
0.0
 10
-32.3536
 20
-94.1751
 30
0.0
 10
-32.3536
 20
-94.1751
 30
0.0
 10
-29.3536
 20
-94.1751
 30
0.0
 10
-29.3536
 20
-94.1751
 30
0.0
 10
-29.3536
 20
-94.1751
 30
0.0
 10
-29.3536
 20
-94.1751
 30
0.0
 10
-29.3536
 20
-117.5057
 30
0.0
 10
-29.3536
 20
-117.5057
 30
0.0
  0
SPLINE
  5
79
330
1F
100
AcDbEntity
  8
Camada 1
 62
   250
370
    20
100
AcDbSpline
210
0.0
220
0.0
230
1.0
 70
    11
 71
     3
 72
    48
 73
    44
 74
     0
 42
0.000000001
 43
0.0000000001
 40
0.0
 40
0.0
 40
0.0
 40
0.0
 40
0.0833333333333333
 40
0.0833333333333333
 40
0.0833333333333333
 40
0.0833333333333333
 40
0.1666666666666667
 40
0.1666666666666667
 40
0.1666666666666667
 40
0.1666666666666667
 40
0.25
 40
0.25
 40
0.25
 40
0.25
 40
0.3333333333333333
 40
0.3333333333333333
 40
0.3333333333333333
 40
0.3333333333333333
 40
0.4166666666666667
 40
0.4166666666666667
 40
0.4166666666666667
 40
0.4166666666666667
 40
0.5
 40
0.5
 40
0.5
 40
0.5
 40
0.5833333333333334
 40
0.5833333333333334
 40
0.5833333333333334
 40
0.5833333333333334
 40
0.6666666666666666
 40
0.6666666666666666
 40
0.6666666666666666
 40
0.6666666666666666
 40
0.75
 40
0.75
 40
0.75
 40
0.75
 40
0.8333333333333334
 40
0.8333333333333334
 40
0.8333333333333334
 40
0.8333333333333334
 40
1.0
 40
1.0
 40
1.0
 40
1.0
 10
41.3757
 20
-117.5058
 30
0.0
 10
41.3757
 20
-117.5058
 30
0.0
 10
41.3757
 20
-123.5058
 30
0.0
 10
41.3757
 20
-123.5058
 30
0.0
 10
41.3757
 20
-123.5058
 30
0.0
 10
41.3757
 20
-123.5058
 30
0.0
 10
52.402
 20
-123.5058
 30
0.0
 10
52.402
 20
-123.5058
 30
0.0
 10
52.402
 20
-123.5058
 30
0.0
 10
52.402
 20
-123.5058
 30
0.0
 10
52.402
 20
-117.5058
 30
0.0
 10
52.402
 20
-117.5058
 30
0.0
 10
52.402
 20
-117.5058
 30
0.0
 10
52.402
 20
-117.5058
 30
0.0
 10
61.7119
 20
-117.5058
 30
0.0
 10
61.7119
 20
-117.5058
 30
0.0
 10
61.7119
 20
-117.5058
 30
0.0
 10
61.7119
 20
-113.9334
 30
0.0
 10
57.128
 20
-19.0278
 30
0.0
 10
33.6854
 20
-19.0278
 30
0.0
 10
33.6854
 20
-19.0278
 30
0.0
 10
10.2583
 20
-19.0278
 30
0.0
 10
5.6589
 20
-113.7105
 30
0.0
 10
5.6589
 20
-117.5058
 30
0.0
 10
5.6589
 20
-117.5058
 30
0.0
 10
5.6589
 20
-117.5058
 30
0.0
 10
15.0075
 20
-117.5058
 30
0.0
 10
15.0075
 20
-117.5058
 30
0.0
 10
15.0075
 20
-117.5058
 30
0.0
 10
15.0075
 20
-117.5058
 30
0.0
 10
15.0075
 20
-123.5058
 30
0.0
 10
15.0075
 20
-123.5058
 30
0.0
 10
15.0075
 20
-123.5058
 30
0.0
 10
15.0075
 20
-123.5058
 30
0.0
 10
26.0337
 20
-123.5058
 30
0.0
 10
26.0337
 20
-123.5058
 30
0.0
 10
26.0337
 20
-123.5058
 30
0.0
 10
26.0337
 20
-123.5058
 30
0.0
 10
26.0337
 20
-117.5058
 30
0.0
 10
26.0337
 20
-117.5058
 30
0.0
 10
26.0337
 20
-117.5058
 30
0.0
 10
26.0337
 20
-117.5058
 30
0.0
 10
41.3757
 20
-117.5058
 30
0.0
 10
41.3757
 20
-117.5058
 30
0.0
  0
SPLINE
  5
7A
330
1F
100
AcDbEntity
  8
Camada 1
 62
   250
370
    20
100
AcDbSpline
210
0.0
220
0.0
230
1.0
 70
    11
 71
     3
 72
   728
 73
   724
 74
     0
 42
0.000000001
 43
0.0000000001
 40
0.0
 40
0.0
 40
0.0
 40
0.0
 40
0.0054945054945055
 40
0.0054945054945055
 40
0.0054945054945055
 40
0.0054945054945055
 40
0.010989010989011
 40
0.010989010989011
 40
0.010989010989011
 40
0.010989010989011
 40
0.0164835164835165
 40
0.0164835164835165
 40
0.0164835164835165
 40
0.0164835164835165
 40
0.021978021978022
 40
0.021978021978022
 40
0.021978021978022
 40
0.021978021978022
 40
0.0274725274725275
 40
0.0274725274725275
 40
0.0274725274725275
 40
0.0274725274725275
 40
0.032967032967033
 40
0.032967032967033
 40
0.032967032967033
 40
0.032967032967033
 40
0.0384615384615385
 40
0.0384615384615385
 40
0.0384615384615385
 40
0.0384615384615385
 40
0.043956043956044
 40
0.043956043956044
 40
0.043956043956044
 40
0.043956043956044
 40
0.0494505494505494
 40
0.0494505494505494
 40
0.0494505494505494
 40
0.0494505494505494
 40
0.0549450549450549
 40
0.0549450549450549
 40
0.0549450549450549
 40
0.0549450549450549
 40
0.0604395604395604
 40
0.0604395604395604
 40
0.0604395604395604
 40
0.0604395604395604
 40
0.0659340659340659
 40
0.0659340659340659
 40
0.0659340659340659
 40
0.0659340659340659
 40
0.0714285714285714
 40
0.0714285714285714
 40
0.0714285714285714
 40
0.0714285714285714
 40
0.0769230769230769
 40
0.0769230769230769
 40
0.0769230769230769
 40
0.0769230769230769
 40
0.0824175824175824
 40
0.0824175824175824
 40
0.0824175824175824
 40
0.0824175824175824
 40
0.0879120879120879
 40
0.0879120879120879
 40
0.0879120879120879
 40
0.0879120879120879
 40
0.0934065934065934
 40
0.0934065934065934
 40
0.0934065934065934
 40
0.0934065934065934
 40
0.0989010989010989
 40
0.0989010989010989
 40
0.0989010989010989
 40
0.0989010989010989
 40
0.1043956043956044
 40
0.1043956043956044
 40
0.1043956043956044
 40
0.1043956043956044
 40
0.1098901098901099
 40
0.1098901098901099
 40
0.1098901098901099
 40
0.1098901098901099
 40
0.1153846153846154
 40
0.1153846153846154
 40
0.1153846153846154
 40
0.1153846153846154
 40
0.1208791208791209
 40
0.1208791208791209
 40
0.1208791208791209
 40
0.1208791208791209
 40
0.1263736263736264
 40
0.1263736263736264
 40
0.1263736263736264
 40
0.1263736263736264
 40
0.1318681318681319
 40
0.1318681318681319
 40
0.1318681318681319
 40
0.1318681318681319
 40
0.1373626373626374
 40
0.1373626373626374
 40
0.1373626373626374
 40
0.1373626373626374
 40
0.1428571428571428
 40
0.1428571428571428
 40
0.1428571428571428
 40
0.1428571428571428
 40
0.1483516483516484
 40
0.1483516483516484
 40
0.1483516483516484
 40
0.1483516483516484
 40
0.1538461538461539
 40
0.1538461538461539
 40
0.1538461538461539
 40
0.1538461538461539
 40
0.1593406593406593
 40
0.1593406593406593
 40
0.1593406593406593
 40
0.1593406593406593
 40
0.1648351648351648
 40
0.1648351648351648
 40
0.1648351648351648
 40
0.1648351648351648
 40
0.1703296703296703
 40
0.1703296703296703
 40
0.1703296703296703
 40
0.1703296703296703
 40
0.1758241758241758
 40
0.1758241758241758
 40
0.1758241758241758
 40
0.1758241758241758
 40
0.1813186813186813
 40
0.1813186813186813
 40
0.1813186813186813
 40
0.1813186813186813
 40
0.1868131868131868
 40
0.1868131868131868
 40
0.1868131868131868
 40
0.1868131868131868
 40
0.1923076923076923
 40
0.1923076923076923
 40
0.1923076923076923
 40
0.1923076923076923
 40
0.1978021978021978
 40
0.1978021978021978
 40
0.1978021978021978
 40
0.1978021978021978
 40
0.2032967032967033
 40
0.2032967032967033
 40
0.2032967032967033
 40
0.2032967032967033
 40
0.2087912087912088
 40
0.2087912087912088
 40
0.2087912087912088
 40
0.2087912087912088
 40
0.2142857142857143
 40
0.2142857142857143
 40
0.2142857142857143
 40
0.2142857142857143
 40
0.2197802197802198
 40
0.2197802197802198
 40
0.2197802197802198
 40
0.2197802197802198
 40
0.2252747252747253
 40
0.2252747252747253
 40
0.2252747252747253
 40
0.2252747252747253
 40
0.2307692307692308
 40
0.2307692307692308
 40
0.2307692307692308
 40
0.2307692307692308
 40
0.2362637362637363
 40
0.2362637362637363
 40
0.2362637362637363
 40
0.2362637362637363
 40
0.2417582417582418
 40
0.2417582417582418
 40
0.2417582417582418
 40
0.2417582417582418
 40
0.2472527472527473
 40
0.2472527472527473
 40
0.2472527472527473
 40
0.2472527472527473
 40
0.2527472527472527
 40
0.2527472527472527
 40
0.2527472527472527
 40
0.2527472527472527
 40
0.2582417582417583
 40
0.2582417582417583
 40
0.2582417582417583
 40
0.2582417582417583
 40
0.2637362637362637
 40
0.2637362637362637
 40
0.2637362637362637
 40
0.2637362637362637
 40
0.2692307692307692
 40
0.2692307692307692
 40
0.2692307692307692
 40
0.2692307692307692
 40
0.2747252747252747
 40
0.2747252747252747
 40
0.2747252747252747
 40
0.2747252747252747
 40
0.2802197802197802
 40
0.2802197802197802
 40
0.2802197802197802
 40
0.2802197802197802
 40
0.2857142857142857
 40
0.2857142857142857
 40
0.2857142857142857
 40
0.2857142857142857
 40
0.2912087912087912
 40
0.2912087912087912
 40
0.2912087912087912
 40
0.2912087912087912
 40
0.2967032967032967
 40
0.2967032967032967
 40
0.2967032967032967
 40
0.2967032967032967
 40
0.3021978021978022
 40
0.3021978021978022
 40
0.3021978021978022
 40
0.3021978021978022
 40
0.3076923076923077
 40
0.3076923076923077
 40
0.3076923076923077
 40
0.3076923076923077
 40
0.3131868131868132
 40
0.3131868131868132
 40
0.3131868131868132
 40
0.3131868131868132
 40
0.3186813186813187
 40
0.3186813186813187
 40
0.3186813186813187
 40
0.3186813186813187
 40
0.3241758241758242
 40
0.3241758241758242
 40
0.3241758241758242
 40
0.3241758241758242
 40
0.3296703296703297
 40
0.3296703296703297
 40
0.3296703296703297
 40
0.3296703296703297
 40
0.3351648351648351
 40
0.3351648351648351
 40
0.3351648351648351
 40
0.3351648351648351
 40
0.3406593406593407
 40
0.3406593406593407
 40
0.3406593406593407
 40
0.3406593406593407
 40
0.3461538461538461
 40
0.3461538461538461
 40
0.3461538461538461
 40
0.3461538461538461
 40
0.3516483516483517
 40
0.3516483516483517
 40
0.3516483516483517
 40
0.3516483516483517
 40
0.3571428571428572
 40
0.3571428571428572
 40
0.3571428571428572
 40
0.3571428571428572
 40
0.3626373626373626
 40
0.3626373626373626
 40
0.3626373626373626
 40
0.3626373626373626
 40
0.3681318681318682
 40
0.3681318681318682
 40
0.3681318681318682
 40
0.3681318681318682
 40
0.3736263736263736
 40
0.3736263736263736
 40
0.3736263736263736
 40
0.3736263736263736
 40
0.3791208791208791
 40
0.3791208791208791
 40
0.3791208791208791
 40
0.3791208791208791
 40
0.3846153846153846
 40
0.3846153846153846
 40
0.3846153846153846
 40
0.3846153846153846
 40
0.3901098901098901
 40
0.3901098901098901
 40
0.3901098901098901
 40
0.3901098901098901
 40
0.3956043956043956
 40
0.3956043956043956
 40
0.3956043956043956
 40
0.3956043956043956
 40
0.4010989010989011
 40
0.4010989010989011
 40
0.4010989010989011
 40
0.4010989010989011
 40
0.4065934065934066
 40
0.4065934065934066
 40
0.4065934065934066
 40
0.4065934065934066
 40
0.4120879120879121
 40
0.4120879120879121
 40
0.4120879120879121
 40
0.4120879120879121
 40
0.4175824175824176
 40
0.4175824175824176
 40
0.4175824175824176
 40
0.4175824175824176
 40
0.4230769230769231
 40
0.4230769230769231
 40
0.4230769230769231
 40
0.4230769230769231
 40
0.4285714285714285
 40
0.4285714285714285
 40
0.4285714285714285
 40
0.4285714285714285
 40
0.4340659340659341
 40
0.4340659340659341
 40
0.4340659340659341
 40
0.4340659340659341
 40
0.4395604395604396
 40
0.4395604395604396
 40
0.4395604395604396
 40
0.4395604395604396
 40
0.445054945054945
 40
0.445054945054945
 40
0.445054945054945
 40
0.445054945054945
 40
0.4505494505494506
 40
0.4505494505494506
 40
0.4505494505494506
 40
0.4505494505494506
 40
0.456043956043956
 40
0.456043956043956
 40
0.456043956043956
 40
0.456043956043956
 40
0.4615384615384616
 40
0.4615384615384616
 40
0.4615384615384616
 40
0.4615384615384616
 40
0.467032967032967
 40
0.467032967032967
 40
0.467032967032967
 40
0.467032967032967
 40
0.4725274725274725
 40
0.4725274725274725
 40
0.4725274725274725
 40
0.4725274725274725
 40
0.478021978021978
 40
0.478021978021978
 40
0.478021978021978
 40
0.478021978021978
 40
0.4835164835164835
 40
0.4835164835164835
 40
0.4835164835164835
 40
0.4835164835164835
 40
0.489010989010989
 40
0.489010989010989
 40
0.489010989010989
 40
0.489010989010989
 40
0.4945054945054945
 40
0.4945054945054945
 40
0.4945054945054945
 40
0.4945054945054945
 40
0.5
 40
0.5
 40
0.5
 40
0.5
 40
0.5054945054945055
 40
0.5054945054945055
 40
0.5054945054945055
 40
0.5054945054945055
 40
0.510989010989011
 40
0.510989010989011
 40
0.510989010989011
 40
0.510989010989011
 40
0.5164835164835165
 40
0.5164835164835165
 40
0.5164835164835165
 40
0.5164835164835165
 40
0.521978021978022
 40
0.521978021978022
 40
0.521978021978022
 40
0.521978021978022
 40
0.5274725274725275
 40
0.5274725274725275
 40
0.5274725274725275
 40
0.5274725274725275
 40
0.532967032967033
 40
0.532967032967033
 40
0.532967032967033
 40
0.532967032967033
 40
0.5384615384615384
 40
0.5384615384615384
 40
0.5384615384615384
 40
0.5384615384615384
 40
0.5439560439560439
 40
0.5439560439560439
 40
0.5439560439560439
 40
0.5439560439560439
 40
0.5494505494505495
 40
0.5494505494505495
 40
0.5494505494505495
 40
0.5494505494505495
 40
0.554945054945055
 40
0.554945054945055
 40
0.554945054945055
 40
0.554945054945055
 40
0.5604395604395604
 40
0.5604395604395604
 40
0.5604395604395604
 40
0.5604395604395604
 40
0.5659340659340659
 40
0.5659340659340659
 40
0.5659340659340659
 40
0.5659340659340659
 40
0.5714285714285714
 40
0.5714285714285714
 40
0.5714285714285714
 40
0.5714285714285714
 40
0.5769230769230769
 40
0.5769230769230769
 40
0.5769230769230769
 40
0.5769230769230769
 40
0.5824175824175825
 40
0.5824175824175825
 40
0.5824175824175825
 40
0.5824175824175825
 40
0.5879120879120879
 40
0.5879120879120879
 40
0.5879120879120879
 40
0.5879120879120879
 40
0.5934065934065934
 40
0.5934065934065934
 40
0.5934065934065934
 40
0.5934065934065934
 40
0.5989010989010989
 40
0.5989010989010989
 40
0.5989010989010989
 40
0.5989010989010989
 40
0.6043956043956044
 40
0.6043956043956044
 40
0.6043956043956044
 40
0.6043956043956044
 40
0.6098901098901099
 40
0.6098901098901099
 40
0.6098901098901099
 40
0.6098901098901099
 40
0.6153846153846154
 40
0.6153846153846154
 40
0.6153846153846154
 40
0.6153846153846154
 40
0.6208791208791209
 40
0.6208791208791209
 40
0.6208791208791209
 40
0.6208791208791209
 40
0.6263736263736264
 40
0.6263736263736264
 40
0.6263736263736264
 40
0.6263736263736264
 40
0.6318681318681318
 40
0.6318681318681318
 40
0.6318681318681318
 40
0.6318681318681318
 40
0.6373626373626373
 40
0.6373626373626373
 40
0.6373626373626373
 40
0.6373626373626373
 40
0.6428571428571429
 40
0.6428571428571429
 40
0.6428571428571429
 40
0.6428571428571429
 40
0.6483516483516484
 40
0.6483516483516484
 40
0.6483516483516484
 40
0.6483516483516484
 40
0.6538461538461539
 40
0.6538461538461539
 40
0.6538461538461539
 40
0.6538461538461539
 40
0.6593406593406593
 40
0.6593406593406593
 40
0.6593406593406593
 40
0.6593406593406593
 40
0.6648351648351648
 40
0.6648351648351648
 40
0.6648351648351648
 40
0.6648351648351648
 40
0.6703296703296703
 40
0.6703296703296703
 40
0.6703296703296703
 40
0.6703296703296703
 40
0.6758241758241759
 40
0.6758241758241759
 40
0.6758241758241759
 40
0.6758241758241759
 40
0.6813186813186813
 40
0.6813186813186813
 40
0.6813186813186813
 40
0.6813186813186813
 40
0.6868131868131868
 40
0.6868131868131868
 40
0.6868131868131868
 40
0.6868131868131868
 40
0.6923076923076923
 40
0.6923076923076923
 40
0.6923076923076923
 40
0.6923076923076923
 40
0.6978021978021978
 40
0.6978021978021978
 40
0.6978021978021978
 40
0.6978021978021978
 40
0.7032967032967034
 40
0.7032967032967034
 40
0.7032967032967034
 40
0.7032967032967034
 40
0.7087912087912088
 40
0.7087912087912088
 40
0.7087912087912088
 40
0.7087912087912088
 40
0.7142857142857143
 40
0.7142857142857143
 40
0.7142857142857143
 40
0.7142857142857143
 40
0.7197802197802198
 40
0.7197802197802198
 40
0.7197802197802198
 40
0.7197802197802198
 40
0.7252747252747253
 40
0.7252747252747253
 40
0.7252747252747253
 40
0.7252747252747253
 40
0.7307692307692307
 40
0.7307692307692307
 40
0.7307692307692307
 40
0.7307692307692307
 40
0.7362637362637363
 40
0.7362637362637363
 40
0.7362637362637363
 40
0.7362637362637363
 40
0.7417582417582418
 40
0.7417582417582418
 40
0.7417582417582418
 40
0.7417582417582418
 40
0.7472527472527473
 40
0.7472527472527473
 40
0.7472527472527473
 40
0.7472527472527473
 40
0.7527472527472527
 40
0.7527472527472527
 40
0.7527472527472527
 40
0.7527472527472527
 40
0.7582417582417582
 40
0.7582417582417582
 40
0.7582417582417582
 40
0.7582417582417582
 40
0.7637362637362637
 40
0.7637362637362637
 40
0.7637362637362637
 40
0.7637362637362637
 40
0.7692307692307693
 40
0.7692307692307693
 40
0.7692307692307693
 40
0.7692307692307693
 40
0.7747252747252747
 40
0.7747252747252747
 40
0.7747252747252747
 40
0.7747252747252747
 40
0.7802197802197802
 40
0.7802197802197802
 40
0.7802197802197802
 40
0.7802197802197802
 40
0.7857142857142857
 40
0.7857142857142857
 40
0.7857142857142857
 40
0.7857142857142857
 40
0.7912087912087912
 40
0.7912087912087912
 40
0.7912087912087912
 40
0.7912087912087912
 40
0.7967032967032966
 40
0.7967032967032966
 40
0.7967032967032966
 40
0.7967032967032966
 40
0.8021978021978022
 40
0.8021978021978022
 40
0.8021978021978022
 40
0.8021978021978022
 40
0.8076923076923077
 40
0.8076923076923077
 40
0.8076923076923077
 40
0.8076923076923077
 40
0.8131868131868132
 40
0.8131868131868132
 40
0.8131868131868132
 40
0.8131868131868132
 40
0.8186813186813187
 40
0.8186813186813187
 40
0.8186813186813187
 40
0.8186813186813187
 40
0.8241758241758241
 40
0.8241758241758241
 40
0.8241758241758241
 40
0.8241758241758241
 40
0.8296703296703297
 40
0.8296703296703297
 40
0.8296703296703297
 40
0.8296703296703297
 40
0.8351648351648352
 40
0.8351648351648352
 40
0.8351648351648352
 40
0.8351648351648352
 40
0.8406593406593407
 40
0.8406593406593407
 40
0.8406593406593407
 40
0.8406593406593407
 40
0.8461538461538461
 40
0.8461538461538461
 40
0.8461538461538461
 40
0.8461538461538461
 40
0.8516483516483516
 40
0.8516483516483516
 40
0.8516483516483516
 40
0.8516483516483516
 40
0.8571428571428571
 40
0.8571428571428571
 40
0.8571428571428571
 40
0.8571428571428571
 40
0.8626373626373627
 40
0.8626373626373627
 40
0.8626373626373627
 40
0.8626373626373627
 40
0.8681318681318682
 40
0.8681318681318682
 40
0.8681318681318682
 40
0.8681318681318682
 40
0.8736263736263736
 40
0.8736263736263736
 40
0.8736263736263736
 40
0.8736263736263736
 40
0.8791208791208791
 40
0.8791208791208791
 40
0.8791208791208791
 40
0.8791208791208791
 40
0.8846153846153846
 40
0.8846153846153846
 40
0.8846153846153846
 40
0.8846153846153846
 40
0.8901098901098901
 40
0.8901098901098901
 40
0.8901098901098901
 40
0.8901098901098901
 40
0.8956043956043956
 40
0.8956043956043956
 40
0.8956043956043956
 40
0.8956043956043956
 40
0.9010989010989011
 40
0.9010989010989011
 40
0.9010989010989011
 40
0.9010989010989011
 40
0.9065934065934066
 40
0.9065934065934066
 40
0.9065934065934066
 40
0.9065934065934066
 40
0.9120879120879121
 40
0.9120879120879121
 40
0.9120879120879121
 40
0.9120879120879121
 40
0.9175824175824175
 40
0.9175824175824175
 40
0.9175824175824175
 40
0.9175824175824175
 40
0.9230769230769231
 40
0.9230769230769231
 40
0.9230769230769231
 40
0.9230769230769231
 40
0.9285714285714286
 40
0.9285714285714286
 40
0.9285714285714286
 40
0.9285714285714286
 40
0.9340659340659341
 40
0.9340659340659341
 40
0.9340659340659341
 40
0.9340659340659341
 40
0.9395604395604396
 40
0.9395604395604396
 40
0.9395604395604396
 40
0.9395604395604396
 40
0.945054945054945
 40
0.945054945054945
 40
0.945054945054945
 40
0.945054945054945
 40
0.9505494505494505
 40
0.9505494505494505
 40
0.9505494505494505
 40
0.9505494505494505
 40
0.9560439560439561
 40
0.9560439560439561
 40
0.9560439560439561
 40
0.9560439560439561
 40
0.9615384615384616
 40
0.9615384615384616
 40
0.9615384615384616
 40
0.9615384615384616
 40
0.967032967032967
 40
0.967032967032967
 40
0.967032967032967
 40
0.967032967032967
 40
0.9725274725274725
 40
0.9725274725274725
 40
0.9725274725274725
 40
0.9725274725274725
 40
0.978021978021978
 40
0.978021978021978
 40
0.978021978021978
 40
0.978021978021978
 40
0.9835164835164835
 40
0.9835164835164835
 40
0.9835164835164835
 40
0.9835164835164835
 40
0.989010989010989
 40
0.989010989010989
 40
0.989010989010989
 40
0.989010989010989
 40
1.0
 40
1.0
 40
1.0
 40
1.0
 10
-208.0939
 20
-43.8182
 30
0.0
 10
-208.0939
 20
-43.8182
 30
0.0
 10
-213.1284
 20
-43.8182
 30
0.0
 10
-213.1284
 20
-43.8182
 30
0.0
 10
-213.1284
 20
-43.8182
 30
0.0
 10
-213.1284
 20
-43.8182
 30
0.0
 10
-213.1284
 20
-39.8473
 30
0.0
 10
-213.1284
 20
-39.8473
 30
0.0
 10
-213.1284
 20
-39.8473
 30
0.0
 10
-213.2187
 20
-35.1376
 30
0.0
 10
-199.2638
 20
-32.0758
 30
0.0
 10
-187.9442
 20
-31.0789
 30
0.0
 10
-187.9442
 20
-31.0789
 30
0.0
 10
-187.9442
 20
-31.0789
 30
0.0
 10
-187.9442
 20
-24.549
 30
0.0
 10
-187.9442
 20
-24.549
 30
0.0
 10
-187.9442
 20
-24.549
 30
0.0
 10
-187.9442
 20
-24.549
 30
0.0
 10
-187.968
 20
-24.5275
 30
0.0
 10
-187.968
 20
-24.5275
 30
0.0
 10
-187.968
 20
-24.5275
 30
0.0
 10
-187.968
 20
-24.5275
 30
0.0
 10
-187.968
 20
-18.2666
 30
0.0
 10
-187.968
 20
-18.2666
 30
0.0
 10
-187.968
 20
-18.2666
 30
0.0
 10
-187.968
 20
-18.2666
 30
0.0
 10
-187.8404
 20
-18.1511
 30
0.0
 10
-187.8404
 20
-18.1511
 30
0.0
 10
-187.8404
 20
-18.1511
 30
0.0
 10
-187.8404
 20
-18.1511
 30
0.0
 10
-187.7778
 20
-18.0878
 30
0.0
 10
-187.7778
 20
-18.0878
 30
0.0
 10
-187.7778
 20
-18.0878
 30
0.0
 10
-187.7778
 20
-18.0878
 30
0.0
 10
-187.7778
 20
-17.8639
 30
0.0
 10
-187.7778
 20
-17.8639
 30
0.0
 10
-187.7778
 20
-17.8639
 30
0.0
 10
-187.7778
 20
-17.8639
 30
0.0
 10
-186.4722
 20
-17.8132
 30
0.0
 10
-186.4722
 20
-17.8132
 30
0.0
 10
-186.4722
 20
-17.8132
 30
0.0
 10
-186.4722
 20
-17.8132
 30
0.0
 10
-186.468
 20
-17.8083
 30
0.0
 10
-186.468
 20
-17.8083
 30
0.0
 10
-186.468
 20
-17.8083
 30
0.0
 10
-186.468
 20
-17.8083
 30
0.0
 10
-186.2989
 20
-17.8065
 30
0.0
 10
-186.2989
 20
-17.8065
 30
0.0
 10
-186.2989
 20
-17.8065
 30
0.0
 10
-186.2989
 20
-17.8065
 30
0.0
 10
-186.1093
 20
-17.7991
 30
0.0
 10
-186.1093
 20
-17.7991
 30
0.0
 10
-186.1093
 20
-17.7991
 30
0.0
 10
-186.1093
 20
-17.7991
 30
0.0
 10
-186.1048
 20
-17.8044
 30
0.0
 10
-186.1048
 20
-17.8044
 30
0.0
 10
-186.1048
 20
-17.8044
 30
0.0
 10
-186.1048
 20
-17.8044
 30
0.0
 10
-181.6064
 20
-17.7557
 30
0.0
 10
-181.6064
 20
-17.7557
 30
0.0
 10
-181.6064
 20
-17.7557
 30
0.0
 10
-181.6064
 20
-17.7557
 30
0.0
 10
-173.9454
 20
-17.7199
 30
0.0
 10
-173.9454
 20
-17.7199
 30
0.0
 10
-173.9454
 20
-17.7199
 30
0.0
 10
-173.9454
 20
-17.7199
 30
0.0
 10
-166.758
 20
-17.7069
 30
0.0
 10
-166.758
 20
-17.7069
 30
0.0
 10
-166.758
 20
-17.7069
 30
0.0
 10
-166.758
 20
-17.7069
 30
0.0
 10
-166.0682
 20
-9.8003
 30
0.0
 10
-166.0682
 20
-9.8003
 30
0.0
 10
-166.0682
 20
-9.8003
 30
0.0
 10
-166.0682
 20
-9.8003
 30
0.0
 10
-168.1428
 20
-9.8003
 30
0.0
 10
-168.1428
 20
-9.8003
 30
0.0
 10
-168.1428
 20
-9.8003
 30
0.0
 10
-168.1428
 20
-9.8003
 30
0.0
 10
-168.1428
 20
-7.3935
 30
0.0
 10
-168.1428
 20
-7.3935
 30
0.0
 10
-168.1428
 20
-7.3935
 30
0.0
 10
-168.1428
 20
-7.3935
 30
0.0
 10
-165.8582
 20
-7.3935
 30
0.0
 10
-165.8582
 20
-7.3935
 30
0.0
 10
-165.8582
 20
-7.3935
 30
0.0
 10
-165.8582
 20
-7.3935
 30
0.0
 10
-164.2691
 20
10.8214
 30
0.0
 10
-164.2691
 20
10.8214
 30
0.0
 10
-164.2691
 20
10.8214
 30
0.0
 10
-164.2691
 20
10.8214
 30
0.0
 10
-160.6527
 20
13.473
 30
0.0
 10
-160.6527
 20
13.473
 30
0.0
 10
-160.6527
 20
13.473
 30
0.0
 10
-160.6527
 20
13.473
 30
0.0
 10
-158.8629
 20
33.4259
 30
0.0
 10
-158.8629
 20
33.4259
 30
0.0
 10
-158.8629
 20
33.4259
 30
0.0
 10
-158.8629
 20
33.4259
 30
0.0
 10
-159.7868
 20
33.4259
 30
0.0
 10
-159.7868
 20
33.4259
 30
0.0
 10
-159.7868
 20
33.4259
 30
0.0
 10
-159.7868
 20
33.4259
 30
0.0
 10
-159.7868
 20
35.8334
 30
0.0
 10
-159.7868
 20
35.8334
 30
0.0
 10
-159.7868
 20
35.8334
 30
0.0
 10
-159.7868
 20
35.8334
 30
0.0
 10
-158.6469
 20
35.8334
 30
0.0
 10
-158.6469
 20
35.8334
 30
0.0
 10
-158.6469
 20
35.8334
 30
0.0
 10
-158.6469
 20
35.8334
 30
0.0
 10
-155.0431
 20
76.0086
 30
0.0
 10
-155.0431
 20
76.0086
 30
0.0
 10
-155.0431
 20
76.0086
 30
0.0
 10
-155.0431
 20
76.0086
 30
0.0
 10
-161.0443
 20
79.8665
 30
0.0
 10
-161.0443
 20
79.8665
 30
0.0
 10
-161.0443
 20
79.8665
 30
0.0
 10
-161.0443
 20
79.8665
 30
0.0
 10
-163.2015
 20
79.8665
 30
0.0
 10
-163.2015
 20
79.8665
 30
0.0
 10
-163.2015
 20
79.8665
 30
0.0
 10
-163.2015
 20
79.8665
 30
0.0
 10
-163.2015
 20
81.8718
 30
0.0
 10
-163.2015
 20
81.8718
 30
0.0
 10
-163.2015
 20
81.8718
 30
0.0
 10
-163.2015
 20
81.8718
 30
0.0
 10
-162.7967
 20
81.8718
 30
0.0
 10
-162.7967
 20
81.8718
 30
0.0
 10
-162.7967
 20
81.8718
 30
0.0
 10
-162.7967
 20
81.8718
 30
0.0
 10
-162.7967
 20
83.0
 30
0.0
 10
-162.7967
 20
83.0
 30
0.0
 10
-162.7967
 20
83.0
 30
0.0
 10
-162.7967
 20
83.0
 30
0.0
 10
-163.4427
 20
83.0
 30
0.0
 10
-163.4427
 20
83.0
 30
0.0
 10
-163.4427
 20
83.0
 30
0.0
 10
-163.4427
 20
83.0
 30
0.0
 10
-163.4427
 20
84.1615
 30
0.0
 10
-163.4427
 20
84.1615
 30
0.0
 10
-163.4427
 20
84.1615
 30
0.0
 10
-163.4427
 20
84.1615
 30
0.0
 10
-162.7967
 20
84.1615
 30
0.0
 10
-162.7967
 20
84.1615
 30
0.0
 10
-162.7967
 20
84.1615
 30
0.0
 10
-162.7967
 20
84.1615
 30
0.0
 10
-162.7967
 20
84.8078
 30
0.0
 10
-162.7967
 20
84.8078
 30
0.0
 10
-162.7967
 20
84.8078
 30
0.0
 10
-162.7967
 20
84.8078
 30
0.0
 10
-163.4427
 20
84.8078
 30
0.0
 10
-163.4427
 20
84.8078
 30
0.0
 10
-163.4427
 20
84.8078
 30
0.0
 10
-163.4427
 20
84.8078
 30
0.0
 10
-163.4427
 20
85.9694
 30
0.0
 10
-163.4427
 20
85.9694
 30
0.0
 10
-163.4427
 20
85.9694
 30
0.0
 10
-163.4427
 20
85.9694
 30
0.0
 10
-162.7967
 20
85.9694
 30
0.0
 10
-162.7967
 20
85.9694
 30
0.0
 10
-162.7967
 20
85.9694
 30
0.0
 10
-162.7967
 20
85.9694
 30
0.0
 10
-162.7967
 20
86.8733
 30
0.0
 10
-162.7967
 20
86.8733
 30
0.0
 10
-162.7967
 20
86.8733
 30
0.0
 10
-162.7967
 20
86.8733
 30
0.0
 10
-161.6012
 20
86.8733
 30
0.0
 10
-161.6012
 20
86.8733
 30
0.0
 10
-161.6012
 20
86.8733
 30
0.0
 10
-161.6012
 20
86.8733
 30
0.0
 10
-161.6012
 20
85.9694
 30
0.0
 10
-161.6012
 20
85.9694
 30
0.0
 10
-161.6012
 20
85.9694
 30
0.0
 10
-161.6012
 20
85.9694
 30
0.0
 10
-160.7476
 20
85.9694
 30
0.0
 10
-160.7476
 20
85.9694
 30
0.0
 10
-160.7476
 20
85.9694
 30
0.0
 10
-160.7476
 20
85.9694
 30
0.0
 10
-160.7476
 20
86.8733
 30
0.0
 10
-160.7476
 20
86.8733
 30
0.0
 10
-160.7476
 20
86.8733
 30
0.0
 10
-160.7476
 20
86.8733
 30
0.0
 10
-159.5521
 20
86.8733
 30
0.0
 10
-159.5521
 20
86.8733
 30
0.0
 10
-159.5521
 20
86.8733
 30
0.0
 10
-159.5521
 20
86.8733
 30
0.0
 10
-159.5521
 20
85.9694
 30
0.0
 10
-159.5521
 20
85.9694
 30
0.0
 10
-159.5521
 20
85.9694
 30
0.0
 10
-159.5521
 20
85.9694
 30
0.0
 10
-158.6988
 20
85.9694
 30
0.0
 10
-158.6988
 20
85.9694
 30
0.0
 10
-158.6988
 20
85.9694
 30
0.0
 10
-158.6988
 20
85.9694
 30
0.0
 10
-158.6988
 20
86.8733
 30
0.0
 10
-158.6988
 20
86.8733
 30
0.0
 10
-158.6988
 20
86.8733
 30
0.0
 10
-158.6988
 20
86.8733
 30
0.0
 10
-157.5033
 20
86.8733
 30
0.0
 10
-157.5033
 20
86.8733
 30
0.0
 10
-157.5033
 20
86.8733
 30
0.0
 10
-157.5033
 20
86.8733
 30
0.0
 10
-157.5033
 20
85.9694
 30
0.0
 10
-157.5033
 20
85.9694
 30
0.0
 10
-157.5033
 20
85.9694
 30
0.0
 10
-157.5033
 20
85.9694
 30
0.0
 10
-156.65
 20
85.9694
 30
0.0
 10
-156.65
 20
85.9694
 30
0.0
 10
-156.65
 20
85.9694
 30
0.0
 10
-156.65
 20
85.9694
 30
0.0
 10
-156.65
 20
86.8733
 30
0.0
 10
-156.65
 20
86.8733
 30
0.0
 10
-156.65
 20
86.8733
 30
0.0
 10
-156.65
 20
86.8733
 30
0.0
 10
-155.4545
 20
86.8733
 30
0.0
 10
-155.4545
 20
86.8733
 30
0.0
 10
-155.4545
 20
86.8733
 30
0.0
 10
-155.4545
 20
86.8733
 30
0.0
 10
-155.4545
 20
85.9694
 30
0.0
 10
-155.4545
 20
85.9694
 30
0.0
 10
-155.4545
 20
85.9694
 30
0.0
 10
-155.4545
 20
85.9694
 30
0.0
 10
-154.1496
 20
85.9694
 30
0.0
 10
-154.1496
 20
85.9694
 30
0.0
 10
-154.1496
 20
85.9694
 30
0.0
 10
-154.1496
 20
85.9694
 30
0.0
 10
-154.128
 20
86.2103
 30
0.0
 10
-154.128
 20
86.2103
 30
0.0
 10
-154.128
 20
86.2103
 30
0.0
 10
-154.128
 20
86.2103
 30
0.0
 10
-154.1172
 20
86.2103
 30
0.0
 10
-154.1172
 20
86.2103
 30
0.0
 10
-154.1172
 20
86.2103
 30
0.0
 10
-154.1172
 20
86.2103
 30
0.0
 10
-154.1172
 20
98.2818
 30
0.0
 10
-154.1172
 20
98.2818
 30
0.0
 10
-154.1172
 20
98.2818
 30
0.0
 10
-154.1172
 20
98.2818
 30
0.0
 10
-155.2471
 20
98.2818
 30
0.0
 10
-155.2471
 20
98.2818
 30
0.0
 10
-155.2471
 20
98.2818
 30
0.0
 10
-155.2471
 20
98.2818
 30
0.0
 10
-155.2471
 20
99.2623
 30
0.0
 10
-155.2471
 20
99.2623
 30
0.0
 10
-155.2471
 20
99.2623
 30
0.0
 10
-155.2471
 20
99.2623
 30
0.0
 10
-154.1172
 20
99.2623
 30
0.0
 10
-154.1172
 20
99.2623
 30
0.0
 10
-154.1172
 20
99.2623
 30
0.0
 10
-154.1172
 20
99.2623
 30
0.0
 10
-154.1172
 20
99.8506
 30
0.0
 10
-154.1172
 20
99.8506
 30
0.0
 10
-154.1172
 20
99.8506
 30
0.0
 10
-154.1172
 20
99.8506
 30
0.0
 10
-154.8175
 20
99.8506
 30
0.0
 10
-154.8175
 20
99.8506
 30
0.0
 10
-154.8175
 20
99.8506
 30
0.0
 10
-154.8175
 20
99.8506
 30
0.0
 10
-154.8175
 20
100.837
 30
0.0
 10
-154.8175
 20
100.837
 30
0.0
 10
-154.8175
 20
100.837
 30
0.0
 10
-154.8175
 20
100.837
 30
0.0
 10
-155.006
 20
100.837
 30
0.0
 10
-155.006
 20
100.837
 30
0.0
 10
-155.006
 20
100.837
 30
0.0
 10
-155.006
 20
100.837
 30
0.0
 10
-155.006
 20
103.1269
 30
0.0
 10
-155.006
 20
103.1269
 30
0.0
 10
-155.006
 20
103.1269
 30
0.0
 10
-155.006
 20
103.1269
 30
0.0
 10
-159.6159
 20
103.1269
 30
0.0
 10
-159.6159
 20
103.1269
 30
0.0
 10
-159.6159
 20
103.1269
 30
0.0
 10
-159.6159
 20
103.1269
 30
0.0
 10
-159.6159
 20
105.0116
 30
0.0
 10
-159.6159
 20
105.0116
 30
0.0
 10
-159.6159
 20
105.0116
 30
0.0
 10
-159.6159
 20
105.0116
 30
0.0
 10
-157.2245
 20
105.0116
 30
0.0
 10
-157.2245
 20
105.0116
 30
0.0
 10
-157.2245
 20
105.0116
 30
0.0
 10
-157.2245
 20
105.0116
 30
0.0
 10
-145.3683
 20
110.5238
 30
0.0
 10
-145.3683
 20
110.5238
 30
0.0
 10
-145.3683
 20
110.5238
 30
0.0
 10
-145.3683
 20
110.5238
 30
0.0
 10
-145.3481
 20
111.4658
 30
0.0
 10
-145.3481
 20
111.4658
 30
0.0
 10
-145.3481
 20
111.4658
 30
0.0
 10
-146.0482
 20
111.7629
 30
0.0
 10
-146.5204
 20
112.4561
 30
0.0
 10
-146.5204
 20
113.2383
 30
0.0
 10
-146.5204
 20
113.2383
 30
0.0
 10
-146.5204
 20
114.0511
 30
0.0
 10
-146.0113
 20
114.7647
 30
0.0
 10
-145.2718
 20
115.0417
 30
0.0
 10
-145.2718
 20
115.0417
 30
0.0
 10
-145.2718
 20
115.0417
 30
0.0
 10
-145.1813
 20
119.277
 30
0.0
 10
-145.1813
 20
119.277
 30
0.0
 10
-145.1813
 20
119.277
 30
0.0
 10
-145.1813
 20
119.277
 30
0.0
 10
-146.6006
 20
119.277
 30
0.0
 10
-146.6006
 20
119.277
 30
0.0
 10
-146.6006
 20
119.277
 30
0.0
 10
-146.8016
 20
118.9143
 30
0.0
 10
-147.1879
 20
118.6764
 30
0.0
 10
-147.6197
 20
118.6764
 30
0.0
 10
-147.6197
 20
118.6764
 30
0.0
 10
-148.2629
 20
118.6764
 30
0.0
 10
-148.7841
 20
119.1978
 30
0.0
 10
-148.7841
 20
119.841
 30
0.0
 10
-148.7841
 20
119.841
 30
0.0
 10
-148.7841
 20
120.4841
 30
0.0
 10
-148.2628
 20
121.0055
 30
0.0
 10
-147.6197
 20
121.0055
 30
0.0
 10
-147.6197
 20
121.0055
 30
0.0
 10
-147.1878
 20
121.0055
 30
0.0
 10
-146.8014
 20
120.7674
 30
0.0
 10
-146.6005
 20
120.4046
 30
0.0
 10
-146.6005
 20
120.4046
 30
0.0
 10
-146.6005
 20
120.4046
 30
0.0
 10
-145.1573
 20
120.4046
 30
0.0
 10
-145.1573
 20
120.4046
 30
0.0
 10
-145.1573
 20
120.4046
 30
0.0
 10
-145.1573
 20
120.4046
 30
0.0
 10
-145.0948
 20
123.3301
 30
0.0
 10
-145.0948
 20
123.3301
 30
0.0
 10
-145.0948
 20
123.3301
 30
0.0
 10
-145.4317
 20
123.4932
 30
0.0
 10
-145.6627
 20
123.8383
 30
0.0
 10
-145.6627
 20
124.2347
 30
0.0
 10
-145.6627
 20
124.2347
 30
0.0
 10
-145.6627
 20
124.7897
 30
0.0
 10
-145.2124
 20
125.2407
 30
0.0
 10
-144.6573
 20
125.2407
 30
0.0
 10
-144.6573
 20
125.2407
 30
0.0
 10
-144.1021
 20
125.2407
 30
0.0
 10
-143.652
 20
124.7898
 30
0.0
 10
-143.652
 20
124.2347
 30
0.0
 10
-143.652
 20
124.2347
 30
0.0
 10
-143.652
 20
123.8732
 30
0.0
 10
-143.8451
 20
123.5498
 30
0.0
 10
-144.1409
 20
123.3726
 30
0.0
 10
-144.1409
 20
123.3726
 30
0.0
 10
-144.1409
 20
123.3726
 30
0.0
 10
-144.0774
 20
120.4046
 30
0.0
 10
-144.0774
 20
120.4046
 30
0.0
 10
-144.0774
 20
120.4046
 30
0.0
 10
-144.0774
 20
120.4046
 30
0.0
 10
-142.7442
 20
120.4046
 30
0.0
 10
-142.7442
 20
120.4046
 30
0.0
 10
-142.7442
 20
120.4046
 30
0.0
 10
-142.5365
 20
120.8131
 30
0.0
 10
-142.1125
 20
121.0845
 30
0.0
 10
-141.6354
 20
121.0845
 30
0.0
 10
-141.6354
 20
121.0845
 30
0.0
 10
-141.233
 20
121.0845
 30
0.0
 10
-140.8606
 20
120.8905
 30
0.0
 10
-140.629
 20
120.5718
 30
0.0
 10
-140.629
 20
120.5718
 30
0.0
 10
-140.629
 20
120.5718
 30
0.0
 10
-135.4678
 20
119.4966
 30
0.0
 10
-135.4678
 20
119.4966
 30
0.0
 10
-135.4678
 20
119.4966
 30
0.0
 10
-135.4678
 20
119.4966
 30
0.0
 10
-140.7375
 20
118.9805
 30
0.0
 10
-140.7375
 20
118.9805
 30
0.0
 10
-140.7375
 20
118.9805
 30
0.0
 10
-140.9699
 20
118.7378
 30
0.0
 10
-141.2927
 20
118.5973
 30
0.0
 10
-141.6354
 20
118.5973
 30
0.0
 10
-141.6354
 20
118.5973
 30
0.0
 10
-142.1124
 20
118.5973
 30
0.0
 10
-142.5363
 20
118.8687
 30
0.0
 10
-142.744
 20
119.277
 30
0.0
 10
-142.744
 20
119.277
 30
0.0
 10
-142.744
 20
119.277
 30
0.0
 10
-144.0532
 20
119.277
 30
0.0
 10
-144.0532
 20
119.277
 30
0.0
 10
-144.0532
 20
119.277
 30
0.0
 10
-144.0532
 20
119.277
 30
0.0
 10
-143.9629
 20
115.0573
 30
0.0
 10
-143.9629
 20
115.0573
 30
0.0
 10
-143.9629
 20
115.0573
 30
0.0
 10
-143.2018
 20
114.7929
 30
0.0
 10
-142.6709
 20
114.0687
 30
0.0
 10
-142.6709
 20
113.2383
 30
0.0
 10
-142.6709
 20
113.2383
 30
0.0
 10
-142.6709
 20
112.4388
 30
0.0
 10
-143.1639
 20
111.7346
 30
0.0
 10
-143.8856
 20
111.4484
 30
0.0
 10
-143.8856
 20
111.4484
 30
0.0
 10
-143.8856
 20
111.4484
 30
0.0
 10
-143.8648
 20
110.4715
 30
0.0
 10
-143.8648
 20
110.4715
 30
0.0
 10
-143.8648
 20
110.4715
 30
0.0
 10
-143.8648
 20
110.4715
 30
0.0
 10
-131.3387
 20
105.0116
 30
0.0
 10
-131.3387
 20
105.0116
 30
0.0
 10
-131.3387
 20
105.0116
 30
0.0
 10
-131.3387
 20
105.0116
 30
0.0
 10
-129.4091
 20
105.0116
 30
0.0
 10
-129.4091
 20
105.0116
 30
0.0
 10
-129.4091
 20
105.0116
 30
0.0
 10
-129.4091
 20
105.0116
 30
0.0
 10
-129.4091
 20
103.1269
 30
0.0
 10
-129.4091
 20
103.1269
 30
0.0
 10
-129.4091
 20
103.1269
 30
0.0
 10
-129.4091
 20
103.1269
 30
0.0
 10
-133.8385
 20
103.1269
 30
0.0
 10
-133.8385
 20
103.1269
 30
0.0
 10
-133.8385
 20
103.1269
 30
0.0
 10
-133.8385
 20
103.1269
 30
0.0
 10
-133.8385
 20
100.9218
 30
0.0
 10
-133.8385
 20
100.9218
 30
0.0
 10
-133.8385
 20
100.9218
 30
0.0
 10
-133.8385
 20
100.9218
 30
0.0
 10
-132.8063
 20
100.9218
 30
0.0
 10
-132.8063
 20
100.9218
 30
0.0
 10
-132.8063
 20
100.9218
 30
0.0
 10
-132.8063
 20
100.9218
 30
0.0
 10
-132.8063
 20
99.8506
 30
0.0
 10
-132.8063
 20
99.8506
 30
0.0
 10
-132.8063
 20
99.8506
 30
0.0
 10
-132.8063
 20
99.8506
 30
0.0
 10
-134.1247
 20
99.8506
 30
0.0
 10
-134.1247
 20
99.8506
 30
0.0
 10
-134.1247
 20
99.8506
 30
0.0
 10
-134.1247
 20
99.8506
 30
0.0
 10
-134.1247
 20
99.2623
 30
0.0
 10
-134.1247
 20
99.2623
 30
0.0
 10
-134.1247
 20
99.2623
 30
0.0
 10
-134.1247
 20
99.2623
 30
0.0
 10
-133.2359
 20
99.2623
 30
0.0
 10
-133.2359
 20
99.2623
 30
0.0
 10
-133.2359
 20
99.2623
 30
0.0
 10
-133.2359
 20
99.2623
 30
0.0
 10
-133.2359
 20
98.2818
 30
0.0
 10
-133.2359
 20
98.2818
 30
0.0
 10
-133.2359
 20
98.2818
 30
0.0
 10
-133.2359
 20
98.2818
 30
0.0
 10
-134.1247
 20
98.2818
 30
0.0
 10
-134.1247
 20
98.2818
 30
0.0
 10
-134.1247
 20
98.2818
 30
0.0
 10
-134.1247
 20
98.2818
 30
0.0
 10
-134.1247
 20
86.2103
 30
0.0
 10
-134.1247
 20
86.2103
 30
0.0
 10
-134.1247
 20
86.2103
 30
0.0
 10
-134.1247
 20
86.2103
 30
0.0
 10
-134.1101
 20
86.2103
 30
0.0
 10
-134.1101
 20
86.2103
 30
0.0
 10
-134.1101
 20
86.2103
 30
0.0
 10
-134.1101
 20
86.2103
 30
0.0
 10
-134.0908
 20
85.9694
 30
0.0
 10
-134.0908
 20
85.9694
 30
0.0
 10
-134.0908
 20
85.9694
 30
0.0
 10
-134.0908
 20
85.9694
 30
0.0
 10
-133.7513
 20
85.9694
 30
0.0
 10
-133.7513
 20
85.9694
 30
0.0
 10
-133.7513
 20
85.9694
 30
0.0
 10
-133.7513
 20
85.9694
 30
0.0
 10
-133.7513
 20
86.8733
 30
0.0
 10
-133.7513
 20
86.8733
 30
0.0
 10
-133.7513
 20
86.8733
 30
0.0
 10
-133.7513
 20
86.8733
 30
0.0
 10
-132.5558
 20
86.8733
 30
0.0
 10
-132.5558
 20
86.8733
 30
0.0
 10
-132.5558
 20
86.8733
 30
0.0
 10
-132.5558
 20
86.8733
 30
0.0
 10
-132.5558
 20
85.9694
 30
0.0
 10
-132.5558
 20
85.9694
 30
0.0
 10
-132.5558
 20
85.9694
 30
0.0
 10
-132.5558
 20
85.9694
 30
0.0
 10
-131.7025
 20
85.9694
 30
0.0
 10
-131.7025
 20
85.9694
 30
0.0
 10
-131.7025
 20
85.9694
 30
0.0
 10
-131.7025
 20
85.9694
 30
0.0
 10
-131.7025
 20
86.8733
 30
0.0
 10
-131.7025
 20
86.8733
 30
0.0
 10
-131.7025
 20
86.8733
 30
0.0
 10
-131.7025
 20
86.8733
 30
0.0
 10
-130.507
 20
86.8733
 30
0.0
 10
-130.507
 20
86.8733
 30
0.0
 10
-130.507
 20
86.8733
 30
0.0
 10
-130.507
 20
86.8733
 30
0.0
 10
-130.507
 20
85.9694
 30
0.0
 10
-130.507
 20
85.9694
 30
0.0
 10
-130.507
 20
85.9694
 30
0.0
 10
-130.507
 20
85.9694
 30
0.0
 10
-129.6537
 20
85.9694
 30
0.0
 10
-129.6537
 20
85.9694
 30
0.0
 10
-129.6537
 20
85.9694
 30
0.0
 10
-129.6537
 20
85.9694
 30
0.0
 10
-129.6537
 20
86.8733
 30
0.0
 10
-129.6537
 20
86.8733
 30
0.0
 10
-129.6537
 20
86.8733
 30
0.0
 10
-129.6537
 20
86.8733
 30
0.0
 10
-128.4582
 20
86.8733
 30
0.0
 10
-128.4582
 20
86.8733
 30
0.0
 10
-128.4582
 20
86.8733
 30
0.0
 10
-128.4582
 20
86.8733
 30
0.0
 10
-128.4582
 20
85.9694
 30
0.0
 10
-128.4582
 20
85.9694
 30
0.0
 10
-128.4582
 20
85.9694
 30
0.0
 10
-128.4582
 20
85.9694
 30
0.0
 10
-127.6049
 20
85.9694
 30
0.0
 10
-127.6049
 20
85.9694
 30
0.0
 10
-127.6049
 20
85.9694
 30
0.0
 10
-127.6049
 20
85.9694
 30
0.0
 10
-127.6049
 20
86.8733
 30
0.0
 10
-127.6049
 20
86.8733
 30
0.0
 10
-127.6049
 20
86.8733
 30
0.0
 10
-127.6049
 20
86.8733
 30
0.0
 10
-126.4094
 20
86.8733
 30
0.0
 10
-126.4094
 20
86.8733
 30
0.0
 10
-126.4094
 20
86.8733
 30
0.0
 10
-126.4094
 20
86.8733
 30
0.0
 10
-126.4094
 20
85.9694
 30
0.0
 10
-126.4094
 20
85.9694
 30
0.0
 10
-126.4094
 20
85.9694
 30
0.0
 10
-126.4094
 20
85.9694
 30
0.0
 10
-126.2454
 20
85.9694
 30
0.0
 10
-126.2454
 20
85.9694
 30
0.0
 10
-126.2454
 20
85.9694
 30
0.0
 10
-126.2454
 20
85.9694
 30
0.0
 10
-126.2454
 20
84.8078
 30
0.0
 10
-126.2454
 20
84.8078
 30
0.0
 10
-126.2454
 20
84.8078
 30
0.0
 10
-126.2454
 20
84.8078
 30
0.0
 10
-126.4094
 20
84.8078
 30
0.0
 10
-126.4094
 20
84.8078
 30
0.0
 10
-126.4094
 20
84.8078
 30
0.0
 10
-126.4094
 20
84.8078
 30
0.0
 10
-126.4094
 20
84.1615
 30
0.0
 10
-126.4094
 20
84.1615
 30
0.0
 10
-126.4094
 20
84.1615
 30
0.0
 10
-126.4094
 20
84.1615
 30
0.0
 10
-126.2454
 20
84.1615
 30
0.0
 10
-126.2454
 20
84.1615
 30
0.0
 10
-126.2454
 20
84.1615
 30
0.0
 10
-126.2454
 20
84.1615
 30
0.0
 10
-126.2454
 20
83.0
 30
0.0
 10
-126.2454
 20
83.0
 30
0.0
 10
-126.2454
 20
83.0
 30
0.0
 10
-126.2454
 20
83.0
 30
0.0
 10
-126.4094
 20
83.0
 30
0.0
 10
-126.4094
 20
83.0
 30
0.0
 10
-126.4094
 20
83.0
 30
0.0
 10
-126.4094
 20
83.0
 30
0.0
 10
-126.4094
 20
81.8718
 30
0.0
 10
-126.4094
 20
81.8718
 30
0.0
 10
-126.4094
 20
81.8718
 30
0.0
 10
-126.4094
 20
81.8718
 30
0.0
 10
-125.2815
 20
81.8718
 30
0.0
 10
-125.2815
 20
81.8718
 30
0.0
 10
-125.2815
 20
81.8718
 30
0.0
 10
-125.2815
 20
81.8718
 30
0.0
 10
-125.2815
 20
79.8665
 30
0.0
 10
-125.2815
 20
79.8665
 30
0.0
 10
-125.2815
 20
79.8665
 30
0.0
 10
-125.2815
 20
79.8665
 30
0.0
 10
-127.3807
 20
79.8665
 30
0.0
 10
-127.3807
 20
79.8665
 30
0.0
 10
-127.3807
 20
79.8665
 30
0.0
 10
-127.3807
 20
79.8665
 30
0.0
 10
-133.2954
 20
76.0271
 30
0.0
 10
-133.2954
 20
76.0271
 30
0.0
 10
-133.2954
 20
76.0271
 30
0.0
 10
-133.2954
 20
76.0271
 30
0.0
 10
-130.08
 20
35.8334
 30
0.0
 10
-130.08
 20
35.8334
 30
0.0
 10
-130.08
 20
35.8334
 30
0.0
 10
-130.08
 20
35.8334
 30
0.0
 10
-128.616
 20
35.8334
 30
0.0
 10
-128.616
 20
35.8334
 30
0.0
 10
-128.616
 20
35.8334
 30
0.0
 10
-128.616
 20
35.8334
 30
0.0
 10
-128.616
 20
33.4259
 30
0.0
 10
-128.616
 20
33.4259
 30
0.0
 10
-128.616
 20
33.4259
 30
0.0
 10
-128.616
 20
33.4259
 30
0.0
 10
-129.8874
 20
33.4259
 30
0.0
 10
-129.8874
 20
33.4259
 30
0.0
 10
-129.8874
 20
33.4259
 30
0.0
 10
-129.8874
 20
33.4259
 30
0.0
 10
-128.3108
 20
13.7172
 30
0.0
 10
-128.3108
 20
13.7172
 30
0.0
 10
-128.3108
 20
13.7172
 30
0.0
 10
-128.3108
 20
13.7172
 30
0.0
 10
-124.2131
 20
10.8249
 30
0.0
 10
-124.2131
 20
10.8249
 30
0.0
 10
-124.2131
 20
10.8249
 30
0.0
 10
-124.2131
 20
10.8249
 30
0.0
 10
-122.7259
 20
-7.3935
 30
0.0
 10
-122.7259
 20
-7.3935
 30
0.0
 10
-122.7259
 20
-7.3935
 30
0.0
 10
-122.7259
 20
-7.3935
 30
0.0
 10
-121.3848
 20
-7.3935
 30
0.0
 10
-121.3848
 20
-7.3935
 30
0.0
 10
-121.3848
 20
-7.3935
 30
0.0
 10
-121.3848
 20
-7.3935
 30
0.0
 10
-121.3848
 20
-9.8003
 30
0.0
 10
-121.3848
 20
-9.8003
 30
0.0
 10
-121.3848
 20
-9.8003
 30
0.0
 10
-121.3848
 20
-9.8003
 30
0.0
 10
-122.5295
 20
-9.8003
 30
0.0
 10
-122.5295
 20
-9.8003
 30
0.0
 10
-122.5295
 20
-9.8003
 30
0.0
 10
-122.5295
 20
-9.8003
 30
0.0
 10
-121.9128
 20
-17.3559
 30
0.0
 10
-121.9128
 20
-17.3559
 30
0.0
 10
-121.9128
 20
-17.3559
 30
0.0
 10
-121.9128
 20
-17.3559
 30
0.0
 10
-115.5996
 20
-17.3671
 30
0.0
 10
-115.5996
 20
-17.3671
 30
0.0
 10
-115.5996
 20
-17.3671
 30
0.0
 10
-115.5996
 20
-17.3671
 30
0.0
 10
-107.8231
 20
-17.4033
 30
0.0
 10
-107.8231
 20
-17.4033
 30
0.0
 10
-107.8231
 20
-17.4033
 30
0.0
 10
-107.8231
 20
-17.4033
 30
0.0
 10
-103.2525
 20
-17.4517
 30
0.0
 10
-103.2525
 20
-17.4517
 30
0.0
 10
-103.2525
 20
-17.4517
 30
0.0
 10
-103.2525
 20
-17.4517
 30
0.0
 10
-103.248
 20
-17.4467
 30
0.0
 10
-103.248
 20
-17.4467
 30
0.0
 10
-103.248
 20
-17.4467
 30
0.0
 10
-103.248
 20
-17.4467
 30
0.0
 10
-103.0635
 20
-17.4538
 30
0.0
 10
-103.0635
 20
-17.4538
 30
0.0
 10
-103.0635
 20
-17.4538
 30
0.0
 10
-103.0635
 20
-17.4538
 30
0.0
 10
-102.8944
 20
-17.4555
 30
0.0
 10
-102.8944
 20
-17.4555
 30
0.0
 10
-102.8944
 20
-17.4555
 30
0.0
 10
-102.8944
 20
-17.4555
 30
0.0
 10
-102.8902
 20
-17.4604
 30
0.0
 10
-102.8902
 20
-17.4604
 30
0.0
 10
-102.8902
 20
-17.4604
 30
0.0
 10
-102.8902
 20
-17.4604
 30
0.0
 10
-101.5679
 20
-17.511
 30
0.0
 10
-101.5679
 20
-17.511
 30
0.0
 10
-101.5679
 20
-17.511
 30
0.0
 10
-101.5679
 20
-17.511
 30
0.0
 10
-101.5679
 20
-17.7331
 30
0.0
 10
-101.5679
 20
-17.7331
 30
0.0
 10
-101.5679
 20
-17.7331
 30
0.0
 10
-101.5679
 20
-17.7331
 30
0.0
 10
-101.375
 20
-17.925
 30
0.0
 10
-101.375
 20
-17.925
 30
0.0
 10
-101.375
 20
-17.925
 30
0.0
 10
-101.375
 20
-17.925
 30
0.0
 10
-101.375
 20
-23.7385
 30
0.0
 10
-101.375
 20
-23.7385
 30
0.0
 10
-101.375
 20
-23.7385
 30
0.0
 10
-101.375
 20
-23.7385
 30
0.0
 10
-101.0212
 20
-23.7385
 30
0.0
 10
-101.0212
 20
-23.7385
 30
0.0
 10
-101.0212
 20
-23.7385
 30
0.0
 10
-101.0212
 20
-23.7385
 30
0.0
 10
-101.0212
 20
-30.5413
 30
0.0
 10
-101.0212
 20
-30.5413
 30
0.0
 10
-101.0212
 20
-30.5413
 30
0.0
 10
-96.6711
 20
-31.0383
 30
0.0
 10
-75.121
 20
-34.1684
 30
0.0
 10
-71.7953
 20
-35.5226
 30
0.0
 10
-71.7953
 20
-35.5226
 30
0.0
 10
-71.7953
 20
-35.5226
 30
0.0
 10
-71.5461
 20
-35.6241
 30
0.0
 10
-71.5461
 20
-35.6241
 30
0.0
 10
-71.5461
 20
-35.6241
 30
0.0
 10
-71.5461
 20
-35.6241
 30
0.0
 10
-71.5461
 20
-43.8182
 30
0.0
 10
-71.5461
 20
-43.8182
 30
0.0
 10
-71.5461
 20
-43.8182
 30
0.0
 10
-71.5461
 20
-43.8182
 30
0.0
 10
-94.5117
 20
-43.8182
 30
0.0
 10
-94.5117
 20
-43.8182
 30
0.0
 10
-94.5117
 20
-43.8182
 30
0.0
 10
-94.5117
 20
-43.8182
 30
0.0
 10
-94.5117
 20
-49.8182
 30
0.0
 10
-94.5117
 20
-49.8182
 30
0.0
 10
-94.5117
 20
-49.8182
 30
0.0
 10
-94.5117
 20
-49.8182
 30
0.0
 10
-117.2282
 20
-49.8182
 30
0.0
 10
-117.2282
 20
-49.8182
 30
0.0
 10
-117.2282
 20
-49.8182
 30
0.0
 10
-117.2282
 20
-49.8182
 30
0.0
 10
-117.2282
 20
-43.8182
 30
0.0
 10
-117.2282
 20
-43.8182
 30
0.0
 10
-117.2282
 20
-43.8182
 30
0.0
 10
-117.2282
 20
-43.8182
 30
0.0
 10
-139.9446
 20
-43.8182
 30
0.0
 10
-139.9446
 20
-43.8182
 30
0.0
 10
-139.9446
 20
-43.8182
 30
0.0
 10
-139.9446
 20
-43.8182
 30
0.0
 10
-139.9446
 20
-49.8182
 30
0.0
 10
-139.9446
 20
-49.8182
 30
0.0
 10
-139.9446
 20
-49.8182
 30
0.0
 10
-139.9446
 20
-49.8182
 30
0.0
 10
-162.661
 20
-49.8182
 30
0.0
 10
-162.661
 20
-49.8182
 30
0.0
 10
-162.661
 20
-49.8182
 30
0.0
 10
-162.661
 20
-49.8182
 30
0.0
 10
-162.661
 20
-43.8182
 30
0.0
 10
-162.661
 20
-43.8182
 30
0.0
 10
-162.661
 20
-43.8182
 30
0.0
 10
-162.661
 20
-43.8182
 30
0.0
 10
-185.3775
 20
-43.8182
 30
0.0
 10
-185.3775
 20
-43.8182
 30
0.0
 10
-185.3775
 20
-43.8182
 30
0.0
 10
-185.3775
 20
-43.8182
 30
0.0
 10
-185.3775
 20
-49.8182
 30
0.0
 10
-185.3775
 20
-49.8182
 30
0.0
 10
-185.3775
 20
-49.8182
 30
0.0
 10
-185.3775
 20
-49.8182
 30
0.0
 10
-208.0939
 20
-49.8182
 30
0.0
 10
-208.0939
 20
-49.8182
 30
0.0
 10
-208.0939
 20
-49.8182
 30
0.0
 10
-208.0939
 20
-49.8182
 30
0.0
 10
-208.0939
 20
-43.8182
 30
0.0
 10
-208.0939
 20
-43.8182
 30
0.0
  0
SPLINE
  5
7B
330
1F
100
AcDbEntity
  8
Camada 1
 62
   250
370
    20
100
AcDbSpline
210
0.0
220
0.0
230
1.0
 70
    11
 71
     3
 72
    20
 73
    16
 74
     0
 42
0.000000001
 43
0.0000000001
 40
0.0
 40
0.0
 40
0.0
 40
0.0
 40
0.2
 40
0.2
 40
0.2
 40
0.2
 40
0.4
 40
0.4
 40
0.4
 40
0.4
 40
0.6
 40
0.6
 40
0.6
 40
0.6
 40
1.0
 40
1.0
 40
1.0
 40
1.0
 10
-135.5573
 20
99.8506
 30
0.0
 10
-135.5573
 20
99.8506
 30
0.0
 10
-136.8946
 20
99.8506
 30
0.0
 10
-136.8946
 20
99.8506
 30
0.0
 10
-136.8946
 20
99.8506
 30
0.0
 10
-136.8946
 20
99.8506
 30
0.0
 10
-136.8946
 20
99.2623
 30
0.0
 10
-136.8946
 20
99.2623
 30
0.0
 10
-136.8946
 20
99.2623
 30
0.0
 10
-136.8946
 20
99.2623
 30
0.0
 10
-135.5573
 20
99.2623
 30
0.0
 10
-135.5573
 20
99.2623
 30
0.0
 10
-135.5573
 20
99.2623
 30
0.0
 10
-135.5573
 20
99.2623
 30
0.0
 10
-135.5573
 20
99.8506
 30
0.0
 10
-135.5573
 20
99.8506
 30
0.0
  0
SPLINE
  5
7C
330
1F
100
AcDbEntity
  8
Camada 1
 62
   250
370
    20
100
AcDbSpline
210
0.0
220
0.0
230
1.0
 70
    11
 71
     3
 72
    20
 73
    16
 74
     0
 42
0.000000001
 43
0.0000000001
 40
0.0
 40
0.0
 40
0.0
 40
0.0
 40
0.2
 40
0.2
 40
0.2
 40
0.2
 40
0.4
 40
0.4
 40
0.4
 40
0.4
 40
0.6
 40
0.6
 40
0.6
 40
0.6
 40
1.0
 40
1.0
 40
1.0
 40
1.0
 10
-135.5573
 20
98.2818
 30
0.0
 10
-135.5573
 20
98.2818
 30
0.0
 10
-136.8946
 20
98.2818
 30
0.0
 10
-136.8946
 20
98.2818
 30
0.0
 10
-136.8946
 20
98.2818
 30
0.0
 10
-136.8946
 20
98.2818
 30
0.0
 10
-136.8946
 20
86.2103
 30
0.0
 10
-136.8946
 20
86.2103
 30
0.0
 10
-136.8946
 20
86.2103
 30
0.0
 10
-136.8946
 20
86.2103
 30
0.0
 10
-135.5573
 20
86.2103
 30
0.0
 10
-135.5573
 20
86.2103
 30
0.0
 10
-135.5573
 20
86.2103
 30
0.0
 10
-135.5573
 20
86.2103
 30
0.0
 10
-135.5573
 20
98.2818
 30
0.0
 10
-135.5573
 20
98.2818
 30
0.0
  0
SPLINE
  5
7D
330
1F
100
AcDbEntity
  8
Camada 1
 62
   250
370
    20
100
AcDbSpline
210
0.0
220
0.0
230
1.0
 70
    11
 71
     3
 72
    20
 73
    16
 74
     0
 42
0.000000001
 43
0.0000000001
 40
0.0
 40
0.0
 40
0.0
 40
0.0
 40
0.2
 40
0.2
 40
0.2
 40
0.2
 40
0.4
 40
0.4
 40
0.4
 40
0.4
 40
0.6
 40
0.6
 40
0.6
 40
0.6
 40
1.0
 40
1.0
 40
1.0
 40
1.0
 10
-131.7025
 20
81.8718
 30
0.0
 10
-131.7025
 20
81.8718
 30
0.0
 10
-131.7025
 20
83.0
 30
0.0
 10
-131.7025
 20
83.0
 30
0.0
 10
-131.7025
 20
83.0
 30
0.0
 10
-131.7025
 20
83.0
 30
0.0
 10
-132.5558
 20
83.0
 30
0.0
 10
-132.5558
 20
83.0
 30
0.0
 10
-132.5558
 20
83.0
 30
0.0
 10
-132.5558
 20
83.0
 30
0.0
 10
-132.5558
 20
81.8718
 30
0.0
 10
-132.5558
 20
81.8718
 30
0.0
 10
-132.5558
 20
81.8718
 30
0.0
 10
-132.5558
 20
81.8718
 30
0.0
 10
-131.7025
 20
81.8718
 30
0.0
 10
-131.7025
 20
81.8718
 30
0.0
  0
SPLINE
  5
7E
330
1F
100
AcDbEntity
  8
Camada 1
 62
   250
370
    20
100
AcDbSpline
210
0.0
220
0.0
230
1.0
 70
    11
 71
     3
 72
    20
 73
    16
 74
     0
 42
0.000000001
 43
0.0000000001
 40
0.0
 40
0.0
 40
0.0
 40
0.0
 40
0.2
 40
0.2
 40
0.2
 40
0.2
 40
0.4
 40
0.4
 40
0.4
 40
0.4
 40
0.6
 40
0.6
 40
0.6
 40
0.6
 40
1.0
 40
1.0
 40
1.0
 40
1.0
 10
-131.7025
 20
84.1615
 30
0.0
 10
-131.7025
 20
84.1615
 30
0.0
 10
-131.7025
 20
84.8078
 30
0.0
 10
-131.7025
 20
84.8078
 30
0.0
 10
-131.7025
 20
84.8078
 30
0.0
 10
-131.7025
 20
84.8078
 30
0.0
 10
-132.5558
 20
84.8078
 30
0.0
 10
-132.5558
 20
84.8078
 30
0.0
 10
-132.5558
 20
84.8078
 30
0.0
 10
-132.5558
 20
84.8078
 30
0.0
 10
-132.5558
 20
84.1615
 30
0.0
 10
-132.5558
 20
84.1615
 30
0.0
 10
-132.5558
 20
84.1615
 30
0.0
 10
-132.5558
 20
84.1615
 30
0.0
 10
-131.7025
 20
84.1615
 30
0.0
 10
-131.7025
 20
84.1615
 30
0.0
  0
SPLINE
  5
7F
330
1F
100
AcDbEntity
  8
Camada 1
 62
   250
370
    20
100
AcDbSpline
210
0.0
220
0.0
230
1.0
 70
    11
 71
     3
 72
    20
 73
    16
 74
     0
 42
0.000000001
 43
0.0000000001
 40
0.0
 40
0.0
 40
0.0
 40
0.0
 40
0.2
 40
0.2
 40
0.2
 40
0.2
 40
0.4
 40
0.4
 40
0.4
 40
0.4
 40
0.6
 40
0.6
 40
0.6
 40
0.6
 40
1.0
 40
1.0
 40
1.0
 40
1.0
 10
-133.7513
 20
84.8078
 30
0.0
 10
-133.7513
 20
84.8078
 30
0.0
 10
-133.9978
 20
84.8078
 30
0.0
 10
-133.9978
 20
84.8078
 30
0.0
 10
-133.9978
 20
84.8078
 30
0.0
 10
-133.9978
 20
84.8078
 30
0.0
 10
-133.9461
 20
84.1615
 30
0.0
 10
-133.9461
 20
84.1615
 30
0.0
 10
-133.9461
 20
84.1615
 30
0.0
 10
-133.9461
 20
84.1615
 30
0.0
 10
-133.7513
 20
84.1615
 30
0.0
 10
-133.7513
 20
84.1615
 30
0.0
 10
-133.7513
 20
84.1615
 30
0.0
 10
-133.7513
 20
84.1615
 30
0.0
 10
-133.7513
 20
84.8078
 30
0.0
 10
-133.7513
 20
84.8078
 30
0.0
  0
SPLINE
  5
80
330
1F
100
AcDbEntity
  8
Camada 1
 62
   250
370
    20
100
AcDbSpline
210
0.0
220
0.0
230
1.0
 70
    11
 71
     3
 72
    20
 73
    16
 74
     0
 42
0.000000001
 43
0.0000000001
 40
0.0
 40
0.0
 40
0.0
 40
0.0
 40
0.2
 40
0.2
 40
0.2
 40
0.2
 40
0.4
 40
0.4
 40
0.4
 40
0.4
 40
0.6
 40
0.6
 40
0.6
 40
0.6
 40
1.0
 40
1.0
 40
1.0
 40
1.0
 10
-133.7513
 20
83.0
 30
0.0
 10
-133.7513
 20
83.0
 30
0.0
 10
-133.8532
 20
83.0
 30
0.0
 10
-133.8532
 20
83.0
 30
0.0
 10
-133.8532
 20
83.0
 30
0.0
 10
-133.8532
 20
83.0
 30
0.0
 10
-133.7629
 20
81.8718
 30
0.0
 10
-133.7629
 20
81.8718
 30
0.0
 10
-133.7629
 20
81.8718
 30
0.0
 10
-133.7629
 20
81.8718
 30
0.0
 10
-133.7513
 20
81.8718
 30
0.0
 10
-133.7513
 20
81.8718
 30
0.0
 10
-133.7513
 20
81.8718
 30
0.0
 10
-133.7513
 20
81.8718
 30
0.0
 10
-133.7513
 20
83.0
 30
0.0
 10
-133.7513
 20
83.0
 30
0.0
  0
SPLINE
  5
81
330
1F
100
AcDbEntity
  8
Camada 1
 62
   250
370
    20
100
AcDbSpline
210
0.0
220
0.0
230
1.0
 70
    11
 71
     3
 72
    20
 73
    16
 74
     0
 42
0.000000001
 43
0.0000000001
 40
0.0
 40
0.0
 40
0.0
 40
0.0
 40
0.2
 40
0.2
 40
0.2
 40
0.2
 40
0.4
 40
0.4
 40
0.4
 40
0.4
 40
0.6
 40
0.6
 40
0.6
 40
0.6
 40
1.0
 40
1.0
 40
1.0
 40
1.0
 10
-138.0901
 20
99.8506
 30
0.0
 10
-138.0901
 20
99.8506
 30
0.0
 10
-140.2994
 20
99.8506
 30
0.0
 10
-140.2994
 20
99.8506
 30
0.0
 10
-140.2994
 20
99.8506
 30
0.0
 10
-140.2994
 20
99.8506
 30
0.0
 10
-140.2994
 20
99.2623
 30
0.0
 10
-140.2994
 20
99.2623
 30
0.0
 10
-140.2994
 20
99.2623
 30
0.0
 10
-140.2994
 20
99.2623
 30
0.0
 10
-138.0901
 20
99.2623
 30
0.0
 10
-138.0901
 20
99.2623
 30
0.0
 10
-138.0901
 20
99.2623
 30
0.0
 10
-138.0901
 20
99.2623
 30
0.0
 10
-138.0901
 20
99.8506
 30
0.0
 10
-138.0901
 20
99.8506
 30
0.0
  0
SPLINE
  5
82
330
1F
100
AcDbEntity
  8
Camada 1
 62
   250
370
    20
100
AcDbSpline
210
0.0
220
0.0
230
1.0
 70
    11
 71
     3
 72
    20
 73
    16
 74
     0
 42
0.000000001
 43
0.0000000001
 40
0.0
 40
0.0
 40
0.0
 40
0.0
 40
0.2
 40
0.2
 40
0.2
 40
0.2
 40
0.4
 40
0.4
 40
0.4
 40
0.4
 40
0.6
 40
0.6
 40
0.6
 40
0.6
 40
1.0
 40
1.0
 40
1.0
 40
1.0
 10
-136.5453
 20
70.4281
 30
0.0
 10
-136.5453
 20
70.4281
 30
0.0
 10
-137.0679
 20
70.4281
 30
0.0
 10
-137.0679
 20
70.4281
 30
0.0
 10
-137.0679
 20
70.4281
 30
0.0
 10
-137.0679
 20
70.4281
 30
0.0
 10
-137.0679
 20
66.2893
 30
0.0
 10
-137.0679
 20
66.2893
 30
0.0
 10
-137.0679
 20
66.2893
 30
0.0
 10
-137.0679
 20
66.2893
 30
0.0
 10
-136.5453
 20
66.2893
 30
0.0
 10
-136.5453
 20
66.2893
 30
0.0
 10
-136.5453
 20
66.2893
 30
0.0
 10
-136.5453
 20
66.2893
 30
0.0
 10
-136.5453
 20
70.4281
 30
0.0
 10
-136.5453
 20
70.4281
 30
0.0
  0
SPLINE
  5
83
330
1F
100
AcDbEntity
  8
Camada 1
 62
   250
370
    20
100
AcDbSpline
210
0.0
220
0.0
230
1.0
 70
    11
 71
     3
 72
    28
 73
    24
 74
     0
 42
0.000000001
 43
0.0000000001
 40
0.0
 40
0.0
 40
0.0
 40
0.0
 40
0.1428571428571428
 40
0.1428571428571428
 40
0.1428571428571428
 40
0.1428571428571428
 40
0.2857142857142857
 40
0.2857142857142857
 40
0.2857142857142857
 40
0.2857142857142857
 40
0.4285714285714285
 40
0.4285714285714285
 40
0.4285714285714285
 40
0.4285714285714285
 40
0.5714285714285714
 40
0.5714285714285714
 40
0.5714285714285714
 40
0.5714285714285714
 40
0.7142857142857143
 40
0.7142857142857143
 40
0.7142857142857143
 40
0.7142857142857143
 40
1.0
 40
1.0
 40
1.0
 40
1.0
 10
-138.0901
 20
98.2818
 30
0.0
 10
-138.0901
 20
98.2818
 30
0.0
 10
-140.2994
 20
98.2818
 30
0.0
 10
-140.2994
 20
98.2818
 30
0.0
 10
-140.2994
 20
98.2818
 30
0.0
 10
-140.2994
 20
98.2818
 30
0.0
 10
-140.2994
 20
88.1387
 30
0.0
 10
-140.2994
 20
88.1387
 30
0.0
 10
-140.2994
 20
88.1387
 30
0.0
 10
-140.2994
 20
88.1387
 30
0.0
 10
-139.8642
 20
88.1387
 30
0.0
 10
-139.8642
 20
88.1387
 30
0.0
 10
-139.8642
 20
88.1387
 30
0.0
 10
-139.8642
 20
88.1387
 30
0.0
 10
-139.8642
 20
86.2103
 30
0.0
 10
-139.8642
 20
86.2103
 30
0.0
 10
-139.8642
 20
86.2103
 30
0.0
 10
-139.8642
 20
86.2103
 30
0.0
 10
-138.0901
 20
86.2103
 30
0.0
 10
-138.0901
 20
86.2103
 30
0.0
 10
-138.0901
 20
86.2103
 30
0.0
 10
-138.0901
 20
86.2103
 30
0.0
 10
-138.0901
 20
98.2818
 30
0.0
 10
-138.0901
 20
98.2818
 30
0.0
  0
SPLINE
  5
84
330
1F
100
AcDbEntity
  8
Camada 1
 62
   250
370
    20
100
AcDbSpline
210
0.0
220
0.0
230
1.0
 70
    11
 71
     3
 72
    20
 73
    16
 74
     0
 42
0.000000001
 43
0.0000000001
 40
0.0
 40
0.0
 40
0.0
 40
0.0
 40
0.2
 40
0.2
 40
0.2
 40
0.2
 40
0.4
 40
0.4
 40
0.4
 40
0.4
 40
0.6
 40
0.6
 40
0.6
 40
0.6
 40
1.0
 40
1.0
 40
1.0
 40
1.0
 10
-136.5453
 20
44.0874
 30
0.0
 10
-136.5453
 20
44.0874
 30
0.0
 10
-137.0679
 20
44.0874
 30
0.0
 10
-137.0679
 20
44.0874
 30
0.0
 10
-137.0679
 20
44.0874
 30
0.0
 10
-137.0679
 20
44.0874
 30
0.0
 10
-137.0679
 20
39.9486
 30
0.0
 10
-137.0679
 20
39.9486
 30
0.0
 10
-137.0679
 20
39.9486
 30
0.0
 10
-137.0679
 20
39.9486
 30
0.0
 10
-136.5453
 20
39.9486
 30
0.0
 10
-136.5453
 20
39.9486
 30
0.0
 10
-136.5453
 20
39.9486
 30
0.0
 10
-136.5453
 20
39.9486
 30
0.0
 10
-136.5453
 20
44.0874
 30
0.0
 10
-136.5453
 20
44.0874
 30
0.0
  0
SPLINE
  5
85
330
1F
100
AcDbEntity
  8
Camada 1
 62
   250
370
    20
100
AcDbSpline
210
0.0
220
0.0
230
1.0
 70
    11
 71
     3
 72
    20
 73
    16
 74
     0
 42
0.000000001
 43
0.0000000001
 40
0.0
 40
0.0
 40
0.0
 40
0.0
 40
0.2
 40
0.2
 40
0.2
 40
0.2
 40
0.4
 40
0.4
 40
0.4
 40
0.4
 40
0.6
 40
0.6
 40
0.6
 40
0.6
 40
1.0
 40
1.0
 40
1.0
 40
1.0
 10
-141.4949
 20
99.8506
 30
0.0
 10
-141.4949
 20
99.8506
 30
0.0
 10
-143.3258
 20
99.8506
 30
0.0
 10
-143.3258
 20
99.8506
 30
0.0
 10
-143.3258
 20
99.8506
 30
0.0
 10
-143.3258
 20
99.8506
 30
0.0
 10
-143.3249
 20
99.2623
 30
0.0
 10
-143.3249
 20
99.2623
 30
0.0
 10
-143.3249
 20
99.2623
 30
0.0
 10
-143.3249
 20
99.2623
 30
0.0
 10
-141.4949
 20
99.2623
 30
0.0
 10
-141.4949
 20
99.2623
 30
0.0
 10
-141.4949
 20
99.2623
 30
0.0
 10
-141.4949
 20
99.2623
 30
0.0
 10
-141.4949
 20
99.8506
 30
0.0
 10
-141.4949
 20
99.8506
 30
0.0
  0
SPLINE
  5
86
330
1F
100
AcDbEntity
  8
Camada 1
 62
   250
370
    20
100
AcDbSpline
210
0.0
220
0.0
230
1.0
 70
    11
 71
     3
 72
    24
 73
    20
 74
     0
 42
0.000000001
 43
0.0000000001
 40
0.0
 40
0.0
 40
0.0
 40
0.0
 40
0.1666666666666667
 40
0.1666666666666667
 40
0.1666666666666667
 40
0.1666666666666667
 40
0.3333333333333333
 40
0.3333333333333333
 40
0.3333333333333333
 40
0.3333333333333333
 40
0.5
 40
0.5
 40
0.5
 40
0.5
 40
0.6666666666666666
 40
0.6666666666666666
 40
0.6666666666666666
 40
0.6666666666666666
 40
1.0
 40
1.0
 40
1.0
 40
1.0
 10
-141.4949
 20
98.2818
 30
0.0
 10
-141.4949
 20
98.2818
 30
0.0
 10
-143.3232
 20
98.2818
 30
0.0
 10
-143.3232
 20
98.2818
 30
0.0
 10
-143.3232
 20
98.2818
 30
0.0
 10
-143.3232
 20
98.2818
 30
0.0
 10
-143.3219
 20
97.4696
 30
0.0
 10
-143.3219
 20
97.4696
 30
0.0
 10
-143.3219
 20
97.4696
 30
0.0
 10
-143.3219
 20
97.4696
 30
0.0
 10
-142.3348
 20
97.3719
 30
0.0
 10
-142.3348
 20
97.3719
 30
0.0
 10
-142.3348
 20
97.3719
 30
0.0
 10
-141.9855
 20
97.3373
 30
0.0
 10
-141.7028
 20
97.096
 30
0.0
 10
-141.4949
 20
96.8122
 30
0.0
 10
-141.4949
 20
96.8122
 30
0.0
 10
-141.4949
 20
96.8122
 30
0.0
 10
-141.4949
 20
98.2818
 30
0.0
 10
-141.4949
 20
98.2818
 30
0.0
  0
SPLINE
  5
87
330
1F
100
AcDbEntity
  8
Camada 1
 62
   250
370
    20
100
AcDbSpline
210
0.0
220
0.0
230
1.0
 70
    11
 71
     3
 72
    24
 73
    20
 74
     0
 42
0.000000001
 43
0.0000000001
 40
0.0
 40
0.0
 40
0.0
 40
0.0
 40
0.1666666666666667
 40
0.1666666666666667
 40
0.1666666666666667
 40
0.1666666666666667
 40
0.3333333333333333
 40
0.3333333333333333
 40
0.3333333333333333
 40
0.3333333333333333
 40
0.5
 40
0.5
 40
0.5
 40
0.5
 40
0.6666666666666666
 40
0.6666666666666666
 40
0.6666666666666666
 40
0.6666666666666666
 40
1.0
 40
1.0
 40
1.0
 40
1.0
 10
-141.4949
 20
92.1481
 30
0.0
 10
-141.7034
 20
91.8637
 30
0.0
 10
-141.9869
 20
91.6217
 30
0.0
 10
-142.337
 20
91.587
 30
0.0
 10
-142.337
 20
91.587
 30
0.0
 10
-142.337
 20
91.587
 30
0.0
 10
-143.3114
 20
91.4907
 30
0.0
 10
-143.3114
 20
91.4907
 30
0.0
 10
-143.3114
 20
91.4907
 30
0.0
 10
-143.3114
 20
91.4907
 30
0.0
 10
-143.3072
 20
88.1387
 30
0.0
 10
-143.3072
 20
88.1387
 30
0.0
 10
-143.3072
 20
88.1387
 30
0.0
 10
-143.3072
 20
88.1387
 30
0.0
 10
-141.4949
 20
88.1387
 30
0.0
 10
-141.4949
 20
88.1387
 30
0.0
 10
-141.4949
 20
88.1387
 30
0.0
 10
-141.4949
 20
88.1387
 30
0.0
 10
-141.4949
 20
92.1481
 30
0.0
 10
-141.4949
 20
92.1481
 30
0.0
  0
SPLINE
  5
88
330
1F
100
AcDbEntity
  8
Camada 1
 62
   250
370
    20
100
AcDbSpline
210
0.0
220
0.0
230
1.0
 70
    11
 71
     3
 72
    20
 73
    16
 74
     0
 42
0.000000001
 43
0.0000000001
 40
0.0
 40
0.0
 40
0.0
 40
0.0
 40
0.2
 40
0.2
 40
0.2
 40
0.2
 40
0.4
 40
0.4
 40
0.4
 40
0.4
 40
0.6
 40
0.6
 40
0.6
 40
0.6
 40
1.0
 40
1.0
 40
1.0
 40
1.0
 10
-144.8996
 20
99.8506
 30
0.0
 10
-144.8996
 20
99.8506
 30
0.0
 10
-147.1084
 20
99.8506
 30
0.0
 10
-147.1084
 20
99.8506
 30
0.0
 10
-147.1084
 20
99.8506
 30
0.0
 10
-147.1084
 20
99.8506
 30
0.0
 10
-147.1084
 20
99.2623
 30
0.0
 10
-147.1084
 20
99.2623
 30
0.0
 10
-147.1084
 20
99.2623
 30
0.0
 10
-147.1084
 20
99.2623
 30
0.0
 10
-144.8996
 20
99.2623
 30
0.0
 10
-144.8996
 20
99.2623
 30
0.0
 10
-144.8996
 20
99.2623
 30
0.0
 10
-144.8996
 20
99.2623
 30
0.0
 10
-144.8996
 20
99.8506
 30
0.0
 10
-144.8996
 20
99.8506
 30
0.0
  0
SPLINE
  5
89
330
1F
100
AcDbEntity
  8
Camada 1
 62
   250
370
    20
100
AcDbSpline
210
0.0
220
0.0
230
1.0
 70
    11
 71
     3
 72
    28
 73
    24
 74
     0
 42
0.000000001
 43
0.0000000001
 40
0.0
 40
0.0
 40
0.0
 40
0.0
 40
0.1428571428571428
 40
0.1428571428571428
 40
0.1428571428571428
 40
0.1428571428571428
 40
0.2857142857142857
 40
0.2857142857142857
 40
0.2857142857142857
 40
0.2857142857142857
 40
0.4285714285714285
 40
0.4285714285714285
 40
0.4285714285714285
 40
0.4285714285714285
 40
0.5714285714285714
 40
0.5714285714285714
 40
0.5714285714285714
 40
0.5714285714285714
 40
0.7142857142857143
 40
0.7142857142857143
 40
0.7142857142857143
 40
0.7142857142857143
 40
1.0
 40
1.0
 40
1.0
 40
1.0
 10
-144.8996
 20
98.2818
 30
0.0
 10
-144.8996
 20
98.2818
 30
0.0
 10
-147.1084
 20
98.2818
 30
0.0
 10
-147.1084
 20
98.2818
 30
0.0
 10
-147.1084
 20
98.2818
 30
0.0
 10
-147.1084
 20
98.2818
 30
0.0
 10
-147.1084
 20
97.4422
 30
0.0
 10
-147.1084
 20
97.4422
 30
0.0
 10
-147.1084
 20
97.4422
 30
0.0
 10
-146.9356
 20
97.6498
 30
0.0
 10
-146.7209
 20
97.778
 30
0.0
 10
-146.4546
 20
97.778
 30
0.0
 10
-146.4546
 20
97.778
 30
0.0
 10
-146.4546
 20
97.778
 30
0.0
 10
-146.4349
 20
97.778
 30
0.0
 10
-146.4349
 20
97.778
 30
0.0
 10
-146.4349
 20
97.778
 30
0.0
 10
-146.4349
 20
97.778
 30
0.0
 10
-144.8996
 20
97.6259
 30
0.0
 10
-144.8996
 20
97.6259
 30
0.0
 10
-144.8996
 20
97.6259
 30
0.0
 10
-144.8996
 20
97.6259
 30
0.0
 10
-144.8996
 20
98.2818
 30
0.0
 10
-144.8996
 20
98.2818
 30
0.0
  0
SPLINE
  5
8A
330
1F
100
AcDbEntity
  8
Camada 1
 62
   250
370
    20
100
AcDbSpline
210
0.0
220
0.0
230
1.0
 70
    11
 71
     3
 72
    36
 73
    32
 74
     0
 42
0.000000001
 43
0.0000000001
 40
0.0
 40
0.0
 40
0.0
 40
0.0
 40
0.1111111111111111
 40
0.1111111111111111
 40
0.1111111111111111
 40
0.1111111111111111
 40
0.2222222222222222
 40
0.2222222222222222
 40
0.2222222222222222
 40
0.2222222222222222
 40
0.3333333333333333
 40
0.3333333333333333
 40
0.3333333333333333
 40
0.3333333333333333
 40
0.4444444444444444
 40
0.4444444444444444
 40
0.4444444444444444
 40
0.4444444444444444
 40
0.5555555555555556
 40
0.5555555555555556
 40
0.5555555555555556
 40
0.5555555555555556
 40
0.6666666666666666
 40
0.6666666666666666
 40
0.6666666666666666
 40
0.6666666666666666
 40
0.7777777777777778
 40
0.7777777777777778
 40
0.7777777777777778
 40
0.7777777777777778
 40
1.0
 40
1.0
 40
1.0
 40
1.0
 10
-147.1084
 20
91.5174
 30
0.0
 10
-147.1084
 20
91.5174
 30
0.0
 10
-147.1084
 20
88.1387
 30
0.0
 10
-147.1084
 20
88.1387
 30
0.0
 10
-147.1084
 20
88.1387
 30
0.0
 10
-147.1084
 20
88.1387
 30
0.0
 10
-144.8996
 20
88.1387
 30
0.0
 10
-144.8996
 20
88.1387
 30
0.0
 10
-144.8996
 20
88.1387
 30
0.0
 10
-144.8996
 20
88.1387
 30
0.0
 10
-144.8996
 20
91.3335
 30
0.0
 10
-144.8996
 20
91.3335
 30
0.0
 10
-144.8996
 20
91.3335
 30
0.0
 10
-144.8996
 20
91.3335
 30
0.0
 10
-146.3359
 20
91.1914
 30
0.0
 10
-146.3359
 20
91.1914
 30
0.0
 10
-146.3359
 20
91.1914
 30
0.0
 10
-146.345
 20
91.1902
 30
0.0
 10
-146.3542
 20
91.1893
 30
0.0
 10
-146.3634
 20
91.1887
 30
0.0
 10
-146.3634
 20
91.1887
 30
0.0
 10
-146.3634
 20
91.1887
 30
0.0
 10
-146.4347
 20
91.1816
 30
0.0
 10
-146.4347
 20
91.1816
 30
0.0
 10
-146.4347
 20
91.1816
 30
0.0
 10
-146.4347
 20
91.1816
 30
0.0
 10
-146.4546
 20
91.1816
 30
0.0
 10
-146.4546
 20
91.1816
 30
0.0
 10
-146.4546
 20
91.1816
 30
0.0
 10
-146.7209
 20
91.1816
 30
0.0
 10
-146.9356
 20
91.3098
 30
0.0
 10
-147.1084
 20
91.5174
 30
0.0
  0
SPLINE
  5
8B
330
1F
100
AcDbEntity
  8
Camada 1
 62
   250
370
    20
100
AcDbSpline
210
0.0
220
0.0
230
1.0
 70
    11
 71
     3
 72
    20
 73
    16
 74
     0
 42
0.000000001
 43
0.0000000001
 40
0.0
 40
0.0
 40
0.0
 40
0.0
 40
0.2
 40
0.2
 40
0.2
 40
0.2
 40
0.4
 40
0.4
 40
0.4
 40
0.4
 40
0.6
 40
0.6
 40
0.6
 40
0.6
 40
1.0
 40
1.0
 40
1.0
 40
1.0
 10
-142.4981
 20
57.7281
 30
0.0
 10
-142.4981
 20
57.7281
 30
0.0
 10
-144.0496
 20
57.7281
 30
0.0
 10
-144.0496
 20
57.7281
 30
0.0
 10
-144.0496
 20
57.7281
 30
0.0
 10
-144.0496
 20
57.7281
 30
0.0
 10
-144.0496
 20
51.2376
 30
0.0
 10
-144.0496
 20
51.2376
 30
0.0
 10
-144.0496
 20
51.2376
 30
0.0
 10
-144.0496
 20
51.2376
 30
0.0
 10
-142.4981
 20
51.2376
 30
0.0
 10
-142.4981
 20
51.2376
 30
0.0
 10
-142.4981
 20
51.2376
 30
0.0
 10
-142.4981
 20
51.2376
 30
0.0
 10
-142.4981
 20
57.7281
 30
0.0
 10
-142.4981
 20
57.7281
 30
0.0
  0
SPLINE
  5
8C
330
1F
100
AcDbEntity
  8
Camada 1
 62
   250
370
    20
100
AcDbSpline
210
0.0
220
0.0
230
1.0
 70
    11
 71
     3
 72
    20
 73
    16
 74
     0
 42
0.000000001
 43
0.0000000001
 40
0.0
 40
0.0
 40
0.0
 40
0.0
 40
0.2
 40
0.2
 40
0.2
 40
0.2
 40
0.4
 40
0.4
 40
0.4
 40
0.4
 40
0.6
 40
0.6
 40
0.6
 40
0.6
 40
1.0
 40
1.0
 40
1.0
 40
1.0
 10
-142.4981
 20
27.5748
 30
0.0
 10
-142.4981
 20
27.5748
 30
0.0
 10
-144.0496
 20
27.5748
 30
0.0
 10
-144.0496
 20
27.5748
 30
0.0
 10
-144.0496
 20
27.5748
 30
0.0
 10
-144.0496
 20
27.5748
 30
0.0
 10
-144.0496
 20
21.0839
 30
0.0
 10
-144.0496
 20
21.0839
 30
0.0
 10
-144.0496
 20
21.0839
 30
0.0
 10
-144.0496
 20
21.0839
 30
0.0
 10
-142.4981
 20
21.0839
 30
0.0
 10
-142.4981
 20
21.0839
 30
0.0
 10
-142.4981
 20
21.0839
 30
0.0
 10
-142.4981
 20
21.0839
 30
0.0
 10
-142.4981
 20
27.5748
 30
0.0
 10
-142.4981
 20
27.5748
 30
0.0
  0
SPLINE
  5
8D
330
1F
100
AcDbEntity
  8
Camada 1
 62
   250
370
    20
100
AcDbSpline
210
0.0
220
0.0
230
1.0
 70
    11
 71
     3
 72
    36
 73
    32
 74
     0
 42
0.000000001
 43
0.0000000001
 40
0.0
 40
0.0
 40
0.0
 40
0.0
 40
0.1111111111111111
 40
0.1111111111111111
 40
0.1111111111111111
 40
0.1111111111111111
 40
0.2222222222222222
 40
0.2222222222222222
 40
0.2222222222222222
 40
0.2222222222222222
 40
0.3333333333333333
 40
0.3333333333333333
 40
0.3333333333333333
 40
0.3333333333333333
 40
0.4444444444444444
 40
0.4444444444444444
 40
0.4444444444444444
 40
0.4444444444444444
 40
0.5555555555555556
 40
0.5555555555555556
 40
0.5555555555555556
 40
0.5555555555555556
 40
0.6666666666666666
 40
0.6666666666666666
 40
0.6666666666666666
 40
0.6666666666666666
 40
0.7777777777777778
 40
0.7777777777777778
 40
0.7777777777777778
 40
0.7777777777777778
 40
1.0
 40
1.0
 40
1.0
 40
1.0
 10
-146.4545
 20
96.7305
 30
0.0
 10
-146.5759
 20
96.6059
 30
0.0
 10
-146.702
 20
96.2207
 30
0.0
 10
-146.7356
 20
96.099
 30
0.0
 10
-146.7356
 20
96.099
 30
0.0
 10
-146.8773
 20
95.5865
 30
0.0
 10
-146.9275
 20
95.0095
 30
0.0
 10
-146.9275
 20
94.4794
 30
0.0
 10
-146.9275
 20
94.4794
 30
0.0
 10
-146.9275
 20
93.9494
 30
0.0
 10
-146.8772
 20
93.3726
 30
0.0
 10
-146.7356
 20
92.8604
 30
0.0
 10
-146.7356
 20
92.8604
 30
0.0
 10
-146.702
 20
92.7386
 30
0.0
 10
-146.5759
 20
92.3534
 30
0.0
 10
-146.4545
 20
92.2289
 30
0.0
 10
-146.4545
 20
92.2289
 30
0.0
 10
-146.3331
 20
92.3533
 30
0.0
 10
-146.2071
 20
92.7385
 30
0.0
 10
-146.1735
 20
92.8602
 30
0.0
 10
-146.1735
 20
92.8602
 30
0.0
 10
-146.0319
 20
93.3725
 30
0.0
 10
-145.9817
 20
93.9494
 30
0.0
 10
-145.9817
 20
94.4794
 30
0.0
 10
-145.9817
 20
94.4794
 30
0.0
 10
-145.9817
 20
95.0096
 30
0.0
 10
-146.0319
 20
95.5867
 30
0.0
 10
-146.1735
 20
96.0991
 30
0.0
 10
-146.1735
 20
96.0991
 30
0.0
 10
-146.2071
 20
96.2208
 30
0.0
 10
-146.3331
 20
96.606
 30
0.0
 10
-146.4545
 20
96.7305
 30
0.0
  0
SPLINE
  5
8E
330
1F
100
AcDbEntity
  8
Camada 1
 62
   250
370
    20
100
AcDbSpline
210
0.0
220
0.0
230
1.0
 70
    11
 71
     3
 72
    20
 73
    16
 74
     0
 42
0.000000001
 43
0.0000000001
 40
0.0
 40
0.0
 40
0.0
 40
0.0
 40
0.2
 40
0.2
 40
0.2
 40
0.2
 40
0.4
 40
0.4
 40
0.4
 40
0.4
 40
0.6
 40
0.6
 40
0.6
 40
0.6
 40
1.0
 40
1.0
 40
1.0
 40
1.0
 10
-148.3039
 20
99.8506
 30
0.0
 10
-148.3039
 20
99.8506
 30
0.0
 10
-150.5132
 20
99.8506
 30
0.0
 10
-150.5132
 20
99.8506
 30
0.0
 10
-150.5132
 20
99.8506
 30
0.0
 10
-150.5132
 20
99.8506
 30
0.0
 10
-150.5132
 20
99.2623
 30
0.0
 10
-150.5132
 20
99.2623
 30
0.0
 10
-150.5132
 20
99.2623
 30
0.0
 10
-150.5132
 20
99.2623
 30
0.0
 10
-148.3039
 20
99.2623
 30
0.0
 10
-148.3039
 20
99.2623
 30
0.0
 10
-148.3039
 20
99.2623
 30
0.0
 10
-148.3039
 20
99.2623
 30
0.0
 10
-148.3039
 20
99.8506
 30
0.0
 10
-148.3039
 20
99.8506
 30
0.0
  0
SPLINE
  5
8F
330
1F
100
AcDbEntity
  8
Camada 1
 62
   250
370
    20
100
AcDbSpline
210
0.0
220
0.0
230
1.0
 70
    11
 71
     3
 72
    28
 73
    24
 74
     0
 42
0.000000001
 43
0.0000000001
 40
0.0
 40
0.0
 40
0.0
 40
0.0
 40
0.1428571428571428
 40
0.1428571428571428
 40
0.1428571428571428
 40
0.1428571428571428
 40
0.2857142857142857
 40
0.2857142857142857
 40
0.2857142857142857
 40
0.2857142857142857
 40
0.4285714285714285
 40
0.4285714285714285
 40
0.4285714285714285
 40
0.4285714285714285
 40
0.5714285714285714
 40
0.5714285714285714
 40
0.5714285714285714
 40
0.5714285714285714
 40
0.7142857142857143
 40
0.7142857142857143
 40
0.7142857142857143
 40
0.7142857142857143
 40
1.0
 40
1.0
 40
1.0
 40
1.0
 10
-148.3039
 20
98.2818
 30
0.0
 10
-148.3039
 20
98.2818
 30
0.0
 10
-150.5132
 20
98.2818
 30
0.0
 10
-150.5132
 20
98.2818
 30
0.0
 10
-150.5132
 20
98.2818
 30
0.0
 10
-150.5132
 20
98.2818
 30
0.0
 10
-150.5132
 20
86.2103
 30
0.0
 10
-150.5132
 20
86.2103
 30
0.0
 10
-150.5132
 20
86.2103
 30
0.0
 10
-150.5132
 20
86.2103
 30
0.0
 10
-148.739
 20
86.2103
 30
0.0
 10
-148.739
 20
86.2103
 30
0.0
 10
-148.739
 20
86.2103
 30
0.0
 10
-148.739
 20
86.2103
 30
0.0
 10
-148.739
 20
88.1387
 30
0.0
 10
-148.739
 20
88.1387
 30
0.0
 10
-148.739
 20
88.1387
 30
0.0
 10
-148.739
 20
88.1387
 30
0.0
 10
-148.3039
 20
88.1387
 30
0.0
 10
-148.3039
 20
88.1387
 30
0.0
 10
-148.3039
 20
88.1387
 30
0.0
 10
-148.3039
 20
88.1387
 30
0.0
 10
-148.3039
 20
98.2818
 30
0.0
 10
-148.3039
 20
98.2818
 30
0.0
  0
SPLINE
  5
90
330
1F
100
AcDbEntity
  8
Camada 1
 62
   250
370
    20
100
AcDbSpline
210
0.0
220
0.0
230
1.0
 70
    11
 71
     3
 72
    20
 73
    16
 74
     0
 42
0.000000001
 43
0.0000000001
 40
0.0
 40
0.0
 40
0.0
 40
0.0
 40
0.2
 40
0.2
 40
0.2
 40
0.2
 40
0.4
 40
0.4
 40
0.4
 40
0.4
 40
0.6
 40
0.6
 40
0.6
 40
0.6
 40
1.0
 40
1.0
 40
1.0
 40
1.0
 10
-151.7087
 20
99.8506
 30
0.0
 10
-151.7087
 20
99.8506
 30
0.0
 10
-152.6846
 20
99.8506
 30
0.0
 10
-152.6846
 20
99.8506
 30
0.0
 10
-152.6846
 20
99.8506
 30
0.0
 10
-152.6846
 20
99.8506
 30
0.0
 10
-152.6846
 20
99.2623
 30
0.0
 10
-152.6846
 20
99.2623
 30
0.0
 10
-152.6846
 20
99.2623
 30
0.0
 10
-152.6846
 20
99.2623
 30
0.0
 10
-151.7087
 20
99.2623
 30
0.0
 10
-151.7087
 20
99.2623
 30
0.0
 10
-151.7087
 20
99.2623
 30
0.0
 10
-151.7087
 20
99.2623
 30
0.0
 10
-151.7087
 20
99.8506
 30
0.0
 10
-151.7087
 20
99.8506
 30
0.0
  0
SPLINE
  5
91
330
1F
100
AcDbEntity
  8
Camada 1
 62
   250
370
    20
100
AcDbSpline
210
0.0
220
0.0
230
1.0
 70
    11
 71
     3
 72
    44
 73
    40
 74
     0
 42
0.000000001
 43
0.0000000001
 40
0.0
 40
0.0
 40
0.0
 40
0.0
 40
0.0909090909090909
 40
0.0909090909090909
 40
0.0909090909090909
 40
0.0909090909090909
 40
0.1818181818181818
 40
0.1818181818181818
 40
0.1818181818181818
 40
0.1818181818181818
 40
0.2727272727272727
 40
0.2727272727272727
 40
0.2727272727272727
 40
0.2727272727272727
 40
0.3636363636363636
 40
0.3636363636363636
 40
0.3636363636363636
 40
0.3636363636363636
 40
0.4545454545454545
 40
0.4545454545454545
 40
0.4545454545454545
 40
0.4545454545454545
 40
0.5454545454545454
 40
0.5454545454545454
 40
0.5454545454545454
 40
0.5454545454545454
 40
0.6363636363636364
 40
0.6363636363636364
 40
0.6363636363636364
 40
0.6363636363636364
 40
0.7272727272727273
 40
0.7272727272727273
 40
0.7272727272727273
 40
0.7272727272727273
 40
0.8181818181818182
 40
0.8181818181818182
 40
0.8181818181818182
 40
0.8181818181818182
 40
1.0
 40
1.0
 40
1.0
 40
1.0
 10
-151.7087
 20
98.2818
 30
0.0
 10
-151.7087
 20
98.2818
 30
0.0
 10
-152.6846
 20
98.2818
 30
0.0
 10
-152.6846
 20
98.2818
 30
0.0
 10
-152.6846
 20
98.2818
 30
0.0
 10
-152.6846
 20
98.2818
 30
0.0
 10
-152.6846
 20
86.4305
 30
0.0
 10
-152.6846
 20
86.4305
 30
0.0
 10
-152.6846
 20
86.4305
 30
0.0
 10
-152.6846
 20
86.4305
 30
0.0
 10
-152.2251
 20
86.5618
 30
0.0
 10
-152.2251
 20
86.5618
 30
0.0
 10
-152.2251
 20
86.5618
 30
0.0
 10
-152.2251
 20
86.5618
 30
0.0
 10
-152.2251
 20
86.2103
 30
0.0
 10
-152.2251
 20
86.2103
 30
0.0
 10
-152.2251
 20
86.2103
 30
0.0
 10
-152.2251
 20
86.2103
 30
0.0
 10
-151.7087
 20
86.2103
 30
0.0
 10
-151.7087
 20
86.2103
 30
0.0
 10
-151.7087
 20
86.2103
 30
0.0
 10
-151.7087
 20
86.2103
 30
0.0
 10
-151.7087
 20
88.2961
 30
0.0
 10
-151.7087
 20
88.2961
 30
0.0
 10
-151.7087
 20
88.2961
 30
0.0
 10
-151.7087
 20
88.2961
 30
0.0
 10
-151.9964
 20
88.3496
 30
0.0
 10
-151.9964
 20
88.3496
 30
0.0
 10
-151.9964
 20
88.3496
 30
0.0
 10
-151.9964
 20
88.3496
 30
0.0
 10
-151.9964
 20
90.8212
 30
0.0
 10
-151.9964
 20
90.8212
 30
0.0
 10
-151.9964
 20
90.8212
 30
0.0
 10
-151.9964
 20
90.8212
 30
0.0
 10
-151.7087
 20
90.8573
 30
0.0
 10
-151.7087
 20
90.8573
 30
0.0
 10
-151.7087
 20
90.8573
 30
0.0
 10
-151.7087
 20
90.8573
 30
0.0
 10
-151.7087
 20
98.2818
 30
0.0
 10
-151.7087
 20
98.2818
 30
0.0
  0
SPLINE
  5
92
330
1F
100
AcDbEntity
  8
Camada 1
 62
   250
370
    20
100
AcDbSpline
210
0.0
220
0.0
230
1.0
 70
    11
 71
     3
 72
    20
 73
    16
 74
     0
 42
0.000000001
 43
0.0000000001
 40
0.0
 40
0.0
 40
0.0
 40
0.0
 40
0.2
 40
0.2
 40
0.2
 40
0.2
 40
0.4
 40
0.4
 40
0.4
 40
0.4
 40
0.6
 40
0.6
 40
0.6
 40
0.6
 40
1.0
 40
1.0
 40
1.0
 40
1.0
 10
-151.1264
 20
70.4281
 30
0.0
 10
-151.1264
 20
70.4281
 30
0.0
 10
-151.649
 20
70.4281
 30
0.0
 10
-151.649
 20
70.4281
 30
0.0
 10
-151.649
 20
70.4281
 30
0.0
 10
-151.649
 20
70.4281
 30
0.0
 10
-151.649
 20
66.2893
 30
0.0
 10
-151.649
 20
66.2893
 30
0.0
 10
-151.649
 20
66.2893
 30
0.0
 10
-151.649
 20
66.2893
 30
0.0
 10
-151.1264
 20
66.2893
 30
0.0
 10
-151.1264
 20
66.2893
 30
0.0
 10
-151.1264
 20
66.2893
 30
0.0
 10
-151.1264
 20
66.2893
 30
0.0
 10
-151.1264
 20
70.4281
 30
0.0
 10
-151.1264
 20
70.4281
 30
0.0
  0
SPLINE
  5
93
330
1F
100
AcDbEntity
  8
Camada 1
 62
   250
370
    20
100
AcDbSpline
210
0.0
220
0.0
230
1.0
 70
    11
 71
     3
 72
    20
 73
    16
 74
     0
 42
0.000000001
 43
0.0000000001
 40
0.0
 40
0.0
 40
0.0
 40
0.0
 40
0.2
 40
0.2
 40
0.2
 40
0.2
 40
0.4
 40
0.4
 40
0.4
 40
0.4
 40
0.6
 40
0.6
 40
0.6
 40
0.6
 40
1.0
 40
1.0
 40
1.0
 40
1.0
 10
-151.1264
 20
44.0874
 30
0.0
 10
-151.1264
 20
44.0874
 30
0.0
 10
-151.649
 20
44.0874
 30
0.0
 10
-151.649
 20
44.0874
 30
0.0
 10
-151.649
 20
44.0874
 30
0.0
 10
-151.649
 20
44.0874
 30
0.0
 10
-151.649
 20
39.9486
 30
0.0
 10
-151.649
 20
39.9486
 30
0.0
 10
-151.649
 20
39.9486
 30
0.0
 10
-151.649
 20
39.9486
 30
0.0
 10
-151.1264
 20
39.9486
 30
0.0
 10
-151.1264
 20
39.9486
 30
0.0
 10
-151.1264
 20
39.9486
 30
0.0
 10
-151.1264
 20
39.9486
 30
0.0
 10
-151.1264
 20
44.0874
 30
0.0
 10
-151.1264
 20
44.0874
 30
0.0
  0
SPLINE
  5
94
330
1F
100
AcDbEntity
  8
Camada 1
 62
   250
370
    20
100
AcDbSpline
210
0.0
220
0.0
230
1.0
 70
    11
 71
     3
 72
    20
 73
    16
 74
     0
 42
0.000000001
 43
0.0000000001
 40
0.0
 40
0.0
 40
0.0
 40
0.0
 40
0.2
 40
0.2
 40
0.2
 40
0.2
 40
0.4
 40
0.4
 40
0.4
 40
0.4
 40
0.6
 40
0.6
 40
0.6
 40
0.6
 40
1.0
 40
1.0
 40
1.0
 40
1.0
 10
-127.6049
 20
81.8718
 30
0.0
 10
-127.6049
 20
81.8718
 30
0.0
 10
-127.6049
 20
83.0
 30
0.0
 10
-127.6049
 20
83.0
 30
0.0
 10
-127.6049
 20
83.0
 30
0.0
 10
-127.6049
 20
83.0
 30
0.0
 10
-128.4582
 20
83.0
 30
0.0
 10
-128.4582
 20
83.0
 30
0.0
 10
-128.4582
 20
83.0
 30
0.0
 10
-128.4582
 20
83.0
 30
0.0
 10
-128.4582
 20
81.8718
 30
0.0
 10
-128.4582
 20
81.8718
 30
0.0
 10
-128.4582
 20
81.8718
 30
0.0
 10
-128.4582
 20
81.8718
 30
0.0
 10
-127.6049
 20
81.8718
 30
0.0
 10
-127.6049
 20
81.8718
 30
0.0
  0
SPLINE
  5
95
330
1F
100
AcDbEntity
  8
Camada 1
 62
   250
370
    20
100
AcDbSpline
210
0.0
220
0.0
230
1.0
 70
    11
 71
     3
 72
    20
 73
    16
 74
     0
 42
0.000000001
 43
0.0000000001
 40
0.0
 40
0.0
 40
0.0
 40
0.0
 40
0.2
 40
0.2
 40
0.2
 40
0.2
 40
0.4
 40
0.4
 40
0.4
 40
0.4
 40
0.6
 40
0.6
 40
0.6
 40
0.6
 40
1.0
 40
1.0
 40
1.0
 40
1.0
 10
-129.6537
 20
81.8718
 30
0.0
 10
-129.6537
 20
81.8718
 30
0.0
 10
-129.6537
 20
83.0
 30
0.0
 10
-129.6537
 20
83.0
 30
0.0
 10
-129.6537
 20
83.0
 30
0.0
 10
-129.6537
 20
83.0
 30
0.0
 10
-130.507
 20
83.0
 30
0.0
 10
-130.507
 20
83.0
 30
0.0
 10
-130.507
 20
83.0
 30
0.0
 10
-130.507
 20
83.0
 30
0.0
 10
-130.507
 20
81.8718
 30
0.0
 10
-130.507
 20
81.8718
 30
0.0
 10
-130.507
 20
81.8718
 30
0.0
 10
-130.507
 20
81.8718
 30
0.0
 10
-129.6537
 20
81.8718
 30
0.0
 10
-129.6537
 20
81.8718
 30
0.0
  0
SPLINE
  5
96
330
1F
100
AcDbEntity
  8
Camada 1
 62
   250
370
    20
100
AcDbSpline
210
0.0
220
0.0
230
1.0
 70
    11
 71
     3
 72
    20
 73
    16
 74
     0
 42
0.000000001
 43
0.0000000001
 40
0.0
 40
0.0
 40
0.0
 40
0.0
 40
0.2
 40
0.2
 40
0.2
 40
0.2
 40
0.4
 40
0.4
 40
0.4
 40
0.4
 40
0.6
 40
0.6
 40
0.6
 40
0.6
 40
1.0
 40
1.0
 40
1.0
 40
1.0
 10
-127.6156
 20
3.9656
 30
0.0
 10
-127.6156
 20
3.9656
 30
0.0
 10
-127.0727
 20
3.9656
 30
0.0
 10
-127.0727
 20
3.9656
 30
0.0
 10
-127.0727
 20
3.9656
 30
0.0
 10
-127.0727
 20
3.9656
 30
0.0
 10
-127.0727
 20
8.1045
 30
0.0
 10
-127.0727
 20
8.1045
 30
0.0
 10
-127.0727
 20
8.1045
 30
0.0
 10
-127.0727
 20
8.1045
 30
0.0
 10
-127.6156
 20
8.1045
 30
0.0
 10
-127.6156
 20
8.1045
 30
0.0
 10
-127.6156
 20
8.1045
 30
0.0
 10
-127.6156
 20
8.1045
 30
0.0
 10
-127.6156
 20
3.9656
 30
0.0
 10
-127.6156
 20
3.9656
 30
0.0
  0
SPLINE
  5
97
330
1F
100
AcDbEntity
  8
Camada 1
 62
   250
370
    20
100
AcDbSpline
210
0.0
220
0.0
230
1.0
 70
    11
 71
     3
 72
    20
 73
    16
 74
     0
 42
0.000000001
 43
0.0000000001
 40
0.0
 40
0.0
 40
0.0
 40
0.0
 40
0.2
 40
0.2
 40
0.2
 40
0.2
 40
0.4
 40
0.4
 40
0.4
 40
0.4
 40
0.6
 40
0.6
 40
0.6
 40
0.6
 40
1.0
 40
1.0
 40
1.0
 40
1.0
 10
-127.6049
 20
84.1615
 30
0.0
 10
-127.6049
 20
84.1615
 30
0.0
 10
-127.6049
 20
84.8078
 30
0.0
 10
-127.6049
 20
84.8078
 30
0.0
 10
-127.6049
 20
84.8078
 30
0.0
 10
-127.6049
 20
84.8078
 30
0.0
 10
-128.4582
 20
84.8078
 30
0.0
 10
-128.4582
 20
84.8078
 30
0.0
 10
-128.4582
 20
84.8078
 30
0.0
 10
-128.4582
 20
84.8078
 30
0.0
 10
-128.4582
 20
84.1615
 30
0.0
 10
-128.4582
 20
84.1615
 30
0.0
 10
-128.4582
 20
84.1615
 30
0.0
 10
-128.4582
 20
84.1615
 30
0.0
 10
-127.6049
 20
84.1615
 30
0.0
 10
-127.6049
 20
84.1615
 30
0.0
  0
SPLINE
  5
98
330
1F
100
AcDbEntity
  8
Camada 1
 62
   250
370
    20
100
AcDbSpline
210
0.0
220
0.0
230
1.0
 70
    11
 71
     3
 72
    20
 73
    16
 74
     0
 42
0.000000001
 43
0.0000000001
 40
0.0
 40
0.0
 40
0.0
 40
0.0
 40
0.2
 40
0.2
 40
0.2
 40
0.2
 40
0.4
 40
0.4
 40
0.4
 40
0.4
 40
0.6
 40
0.6
 40
0.6
 40
0.6
 40
1.0
 40
1.0
 40
1.0
 40
1.0
 10
-129.6537
 20
84.1615
 30
0.0
 10
-129.6537
 20
84.1615
 30
0.0
 10
-129.6537
 20
84.8078
 30
0.0
 10
-129.6537
 20
84.8078
 30
0.0
 10
-129.6537
 20
84.8078
 30
0.0
 10
-129.6537
 20
84.8078
 30
0.0
 10
-130.507
 20
84.8078
 30
0.0
 10
-130.507
 20
84.8078
 30
0.0
 10
-130.507
 20
84.8078
 30
0.0
 10
-130.507
 20
84.8078
 30
0.0
 10
-130.507
 20
84.1615
 30
0.0
 10
-130.507
 20
84.1615
 30
0.0
 10
-130.507
 20
84.1615
 30
0.0
 10
-130.507
 20
84.1615
 30
0.0
 10
-129.6537
 20
84.1615
 30
0.0
 10
-129.6537
 20
84.1615
 30
0.0
  0
SPLINE
  5
99
330
1F
100
AcDbEntity
  8
Camada 1
 62
   250
370
    20
100
AcDbSpline
210
0.0
220
0.0
230
1.0
 70
    11
 71
     3
 72
    20
 73
    16
 74
     0
 42
0.000000001
 43
0.0000000001
 40
0.0
 40
0.0
 40
0.0
 40
0.0
 40
0.2
 40
0.2
 40
0.2
 40
0.2
 40
0.4
 40
0.4
 40
0.4
 40
0.4
 40
0.6
 40
0.6
 40
0.6
 40
0.6
 40
1.0
 40
1.0
 40
1.0
 40
1.0
 10
-154.416
 20
83.0
 30
0.0
 10
-154.416
 20
83.0
 30
0.0
 10
-155.4545
 20
83.0
 30
0.0
 10
-155.4545
 20
83.0
 30
0.0
 10
-155.4545
 20
83.0
 30
0.0
 10
-155.4545
 20
83.0
 30
0.0
 10
-155.4545
 20
81.8718
 30
0.0
 10
-155.4545
 20
81.8718
 30
0.0
 10
-155.4545
 20
81.8718
 30
0.0
 10
-155.4545
 20
81.8718
 30
0.0
 10
-154.5172
 20
81.8718
 30
0.0
 10
-154.5172
 20
81.8718
 30
0.0
 10
-154.5172
 20
81.8718
 30
0.0
 10
-154.5172
 20
81.8718
 30
0.0
 10
-154.416
 20
83.0
 30
0.0
 10
-154.416
 20
83.0
 30
0.0
  0
SPLINE
  5
9A
330
1F
100
AcDbEntity
  8
Camada 1
 62
   250
370
    20
100
AcDbSpline
210
0.0
220
0.0
230
1.0
 70
    11
 71
     3
 72
    20
 73
    16
 74
     0
 42
0.000000001
 43
0.0000000001
 40
0.0
 40
0.0
 40
0.0
 40
0.0
 40
0.2
 40
0.2
 40
0.2
 40
0.2
 40
0.4
 40
0.4
 40
0.4
 40
0.4
 40
0.6
 40
0.6
 40
0.6
 40
0.6
 40
1.0
 40
1.0
 40
1.0
 40
1.0
 10
-154.2538
 20
84.8078
 30
0.0
 10
-154.2538
 20
84.8078
 30
0.0
 10
-155.4545
 20
84.8078
 30
0.0
 10
-155.4545
 20
84.8078
 30
0.0
 10
-155.4545
 20
84.8078
 30
0.0
 10
-155.4545
 20
84.8078
 30
0.0
 10
-155.4545
 20
84.1615
 30
0.0
 10
-155.4545
 20
84.1615
 30
0.0
 10
-155.4545
 20
84.1615
 30
0.0
 10
-155.4545
 20
84.1615
 30
0.0
 10
-154.3118
 20
84.1615
 30
0.0
 10
-154.3118
 20
84.1615
 30
0.0
 10
-154.3118
 20
84.1615
 30
0.0
 10
-154.3118
 20
84.1615
 30
0.0
 10
-154.2538
 20
84.8078
 30
0.0
 10
-154.2538
 20
84.8078
 30
0.0
  0
SPLINE
  5
9B
330
1F
100
AcDbEntity
  8
Camada 1
 62
   250
370
    20
100
AcDbSpline
210
0.0
220
0.0
230
1.0
 70
    11
 71
     3
 72
    20
 73
    16
 74
     0
 42
0.000000001
 43
0.0000000001
 40
0.0
 40
0.0
 40
0.0
 40
0.0
 40
0.2
 40
0.2
 40
0.2
 40
0.2
 40
0.4
 40
0.4
 40
0.4
 40
0.4
 40
0.6
 40
0.6
 40
0.6
 40
0.6
 40
1.0
 40
1.0
 40
1.0
 40
1.0
 10
-156.65
 20
84.8078
 30
0.0
 10
-156.65
 20
84.8078
 30
0.0
 10
-157.5033
 20
84.8078
 30
0.0
 10
-157.5033
 20
84.8078
 30
0.0
 10
-157.5033
 20
84.8078
 30
0.0
 10
-157.5033
 20
84.8078
 30
0.0
 10
-157.5033
 20
84.1615
 30
0.0
 10
-157.5033
 20
84.1615
 30
0.0
 10
-157.5033
 20
84.1615
 30
0.0
 10
-157.5033
 20
84.1615
 30
0.0
 10
-156.65
 20
84.1615
 30
0.0
 10
-156.65
 20
84.1615
 30
0.0
 10
-156.65
 20
84.1615
 30
0.0
 10
-156.65
 20
84.1615
 30
0.0
 10
-156.65
 20
84.8078
 30
0.0
 10
-156.65
 20
84.8078
 30
0.0
  0
SPLINE
  5
9C
330
1F
100
AcDbEntity
  8
Camada 1
 62
   250
370
    20
100
AcDbSpline
210
0.0
220
0.0
230
1.0
 70
    11
 71
     3
 72
    20
 73
    16
 74
     0
 42
0.000000001
 43
0.0000000001
 40
0.0
 40
0.0
 40
0.0
 40
0.0
 40
0.2
 40
0.2
 40
0.2
 40
0.2
 40
0.4
 40
0.4
 40
0.4
 40
0.4
 40
0.6
 40
0.6
 40
0.6
 40
0.6
 40
1.0
 40
1.0
 40
1.0
 40
1.0
 10
-156.65
 20
83.0
 30
0.0
 10
-156.65
 20
83.0
 30
0.0
 10
-157.5033
 20
83.0
 30
0.0
 10
-157.5033
 20
83.0
 30
0.0
 10
-157.5033
 20
83.0
 30
0.0
 10
-157.5033
 20
83.0
 30
0.0
 10
-157.5033
 20
81.8718
 30
0.0
 10
-157.5033
 20
81.8718
 30
0.0
 10
-157.5033
 20
81.8718
 30
0.0
 10
-157.5033
 20
81.8718
 30
0.0
 10
-156.65
 20
81.8718
 30
0.0
 10
-156.65
 20
81.8718
 30
0.0
 10
-156.65
 20
81.8718
 30
0.0
 10
-156.65
 20
81.8718
 30
0.0
 10
-156.65
 20
83.0
 30
0.0
 10
-156.65
 20
83.0
 30
0.0
  0
SPLINE
  5
9D
330
1F
100
AcDbEntity
  8
Camada 1
 62
   250
370
    20
100
AcDbSpline
210
0.0
220
0.0
230
1.0
 70
    11
 71
     3
 72
    20
 73
    16
 74
     0
 42
0.000000001
 43
0.0000000001
 40
0.0
 40
0.0
 40
0.0
 40
0.0
 40
0.2
 40
0.2
 40
0.2
 40
0.2
 40
0.4
 40
0.4
 40
0.4
 40
0.4
 40
0.6
 40
0.6
 40
0.6
 40
0.6
 40
1.0
 40
1.0
 40
1.0
 40
1.0
 10
-158.6988
 20
83.0
 30
0.0
 10
-158.6988
 20
83.0
 30
0.0
 10
-159.5521
 20
83.0
 30
0.0
 10
-159.5521
 20
83.0
 30
0.0
 10
-159.5521
 20
83.0
 30
0.0
 10
-159.5521
 20
83.0
 30
0.0
 10
-159.5521
 20
81.8718
 30
0.0
 10
-159.5521
 20
81.8718
 30
0.0
 10
-159.5521
 20
81.8718
 30
0.0
 10
-159.5521
 20
81.8718
 30
0.0
 10
-158.6988
 20
81.8718
 30
0.0
 10
-158.6988
 20
81.8718
 30
0.0
 10
-158.6988
 20
81.8718
 30
0.0
 10
-158.6988
 20
81.8718
 30
0.0
 10
-158.6988
 20
83.0
 30
0.0
 10
-158.6988
 20
83.0
 30
0.0
  0
SPLINE
  5
9E
330
1F
100
AcDbEntity
  8
Camada 1
 62
   250
370
    20
100
AcDbSpline
210
0.0
220
0.0
230
1.0
 70
    11
 71
     3
 72
    20
 73
    16
 74
     0
 42
0.000000001
 43
0.0000000001
 40
0.0
 40
0.0
 40
0.0
 40
0.0
 40
0.2
 40
0.2
 40
0.2
 40
0.2
 40
0.4
 40
0.4
 40
0.4
 40
0.4
 40
0.6
 40
0.6
 40
0.6
 40
0.6
 40
1.0
 40
1.0
 40
1.0
 40
1.0
 10
-158.6988
 20
84.8078
 30
0.0
 10
-158.6988
 20
84.8078
 30
0.0
 10
-159.5521
 20
84.8078
 30
0.0
 10
-159.5521
 20
84.8078
 30
0.0
 10
-159.5521
 20
84.8078
 30
0.0
 10
-159.5521
 20
84.8078
 30
0.0
 10
-159.5521
 20
84.1615
 30
0.0
 10
-159.5521
 20
84.1615
 30
0.0
 10
-159.5521
 20
84.1615
 30
0.0
 10
-159.5521
 20
84.1615
 30
0.0
 10
-158.6988
 20
84.1615
 30
0.0
 10
-158.6988
 20
84.1615
 30
0.0
 10
-158.6988
 20
84.1615
 30
0.0
 10
-158.6988
 20
84.1615
 30
0.0
 10
-158.6988
 20
84.8078
 30
0.0
 10
-158.6988
 20
84.8078
 30
0.0
  0
SPLINE
  5
9F
330
1F
100
AcDbEntity
  8
Camada 1
 62
   250
370
    20
100
AcDbSpline
210
0.0
220
0.0
230
1.0
 70
    11
 71
     3
 72
    20
 73
    16
 74
     0
 42
0.000000001
 43
0.0000000001
 40
0.0
 40
0.0
 40
0.0
 40
0.0
 40
0.2
 40
0.2
 40
0.2
 40
0.2
 40
0.4
 40
0.4
 40
0.4
 40
0.4
 40
0.6
 40
0.6
 40
0.6
 40
0.6
 40
1.0
 40
1.0
 40
1.0
 40
1.0
 10
-160.7476
 20
84.8078
 30
0.0
 10
-160.7476
 20
84.8078
 30
0.0
 10
-161.6012
 20
84.8078
 30
0.0
 10
-161.6012
 20
84.8078
 30
0.0
 10
-161.6012
 20
84.8078
 30
0.0
 10
-161.6012
 20
84.8078
 30
0.0
 10
-161.6012
 20
84.1615
 30
0.0
 10
-161.6012
 20
84.1615
 30
0.0
 10
-161.6012
 20
84.1615
 30
0.0
 10
-161.6012
 20
84.1615
 30
0.0
 10
-160.7476
 20
84.1615
 30
0.0
 10
-160.7476
 20
84.1615
 30
0.0
 10
-160.7476
 20
84.1615
 30
0.0
 10
-160.7476
 20
84.1615
 30
0.0
 10
-160.7476
 20
84.8078
 30
0.0
 10
-160.7476
 20
84.8078
 30
0.0
  0
SPLINE
  5
A0
330
1F
100
AcDbEntity
  8
Camada 1
 62
   250
370
    20
100
AcDbSpline
210
0.0
220
0.0
230
1.0
 70
    11
 71
     3
 72
    20
 73
    16
 74
     0
 42
0.000000001
 43
0.0000000001
 40
0.0
 40
0.0
 40
0.0
 40
0.0
 40
0.2
 40
0.2
 40
0.2
 40
0.2
 40
0.4
 40
0.4
 40
0.4
 40
0.4
 40
0.6
 40
0.6
 40
0.6
 40
0.6
 40
1.0
 40
1.0
 40
1.0
 40
1.0
 10
-160.7476
 20
83.0
 30
0.0
 10
-160.7476
 20
83.0
 30
0.0
 10
-161.6012
 20
83.0
 30
0.0
 10
-161.6012
 20
83.0
 30
0.0
 10
-161.6012
 20
83.0
 30
0.0
 10
-161.6012
 20
83.0
 30
0.0
 10
-161.6012
 20
81.8718
 30
0.0
 10
-161.6012
 20
81.8718
 30
0.0
 10
-161.6012
 20
81.8718
 30
0.0
 10
-161.6012
 20
81.8718
 30
0.0
 10
-160.7476
 20
81.8718
 30
0.0
 10
-160.7476
 20
81.8718
 30
0.0
 10
-160.7476
 20
81.8718
 30
0.0
 10
-160.7476
 20
81.8718
 30
0.0
 10
-160.7476
 20
83.0
 30
0.0
 10
-160.7476
 20
83.0
 30
0.0
  0
SPLINE
  5
A1
330
1F
100
AcDbEntity
  8
Camada 1
 62
   250
370
    20
100
AcDbSpline
210
0.0
220
0.0
230
1.0
 70
    11
 71
     3
 72
    20
 73
    16
 74
     0
 42
0.000000001
 43
0.0000000001
 40
0.0
 40
0.0
 40
0.0
 40
0.0
 40
0.2
 40
0.2
 40
0.2
 40
0.2
 40
0.4
 40
0.4
 40
0.4
 40
0.4
 40
0.6
 40
0.6
 40
0.6
 40
0.6
 40
1.0
 40
1.0
 40
1.0
 40
1.0
 10
-159.0467
 20
8.1045
 30
0.0
 10
-159.0467
 20
8.1045
 30
0.0
 10
-159.5897
 20
8.1045
 30
0.0
 10
-159.5897
 20
8.1045
 30
0.0
 10
-159.5897
 20
8.1045
 30
0.0
 10
-159.5897
 20
8.1045
 30
0.0
 10
-159.5897
 20
3.9656
 30
0.0
 10
-159.5897
 20
3.9656
 30
0.0
 10
-159.5897
 20
3.9656
 30
0.0
 10
-159.5897
 20
3.9656
 30
0.0
 10
-159.0467
 20
3.9656
 30
0.0
 10
-159.0467
 20
3.9656
 30
0.0
 10
-159.0467
 20
3.9656
 30
0.0
 10
-159.0467
 20
3.9656
 30
0.0
 10
-159.0467
 20
8.1045
 30
0.0
 10
-159.0467
 20
8.1045
 30
0.0
  0
SPLINE
  5
A2
330
1F
100
AcDbEntity
  8
Camada 1
 62
   250
370
    20
100
AcDbSpline
210
0.0
220
0.0
230
1.0
 70
    11
 71
     3
 72
    20
 73
    16
 74
     0
 42
0.000000001
 43
0.0000000001
 40
0.0
 40
0.0
 40
0.0
 40
0.0
 40
0.2
 40
0.2
 40
0.2
 40
0.2
 40
0.4
 40
0.4
 40
0.4
 40
0.4
 40
0.6
 40
0.6
 40
0.6
 40
0.6
 40
1.0
 40
1.0
 40
1.0
 40
1.0
 10
-159.0467
 20
-9.2212
 30
0.0
 10
-159.0467
 20
-9.2212
 30
0.0
 10
-159.5897
 20
-9.2212
 30
0.0
 10
-159.5897
 20
-9.2212
 30
0.0
 10
-159.5897
 20
-9.2212
 30
0.0
 10
-159.5897
 20
-9.2212
 30
0.0
 10
-159.5897
 20
-13.3601
 30
0.0
 10
-159.5897
 20
-13.3601
 30
0.0
 10
-159.5897
 20
-13.3601
 30
0.0
 10
-159.5897
 20
-13.3601
 30
0.0
 10
-159.0467
 20
-13.3601
 30
0.0
 10
-159.0467
 20
-13.3601
 30
0.0
 10
-159.0467
 20
-13.3601
 30
0.0
 10
-159.0467
 20
-13.3601
 30
0.0
 10
-159.0467
 20
-9.2212
 30
0.0
 10
-159.0467
 20
-9.2212
 30
0.0
  0
SPLINE
  5
A3
330
1F
100
AcDbEntity
  8
Camada 1
 62
   250
370
    20
100
AcDbSpline
210
0.0
220
0.0
230
1.0
 70
    11
 71
     3
 72
    20
 73
    16
 74
     0
 42
0.000000001
 43
0.0000000001
 40
0.0
 40
0.0
 40
0.0
 40
0.0
 40
0.2
 40
0.2
 40
0.2
 40
0.2
 40
0.4
 40
0.4
 40
0.4
 40
0.4
 40
0.6
 40
0.6
 40
0.6
 40
0.6
 40
1.0
 40
1.0
 40
1.0
 40
1.0
 10
-142.3217
 20
-9.123
 30
0.0
 10
-142.3217
 20
-9.123
 30
0.0
 10
-143.8732
 20
-9.123
 30
0.0
 10
-143.8732
 20
-9.123
 30
0.0
 10
-143.8732
 20
-9.123
 30
0.0
 10
-143.8732
 20
-9.123
 30
0.0
 10
-143.8732
 20
-15.6139
 30
0.0
 10
-143.8732
 20
-15.6139
 30
0.0
 10
-143.8732
 20
-15.6139
 30
0.0
 10
-143.8732
 20
-15.6139
 30
0.0
 10
-142.3217
 20
-15.6139
 30
0.0
 10
-142.3217
 20
-15.6139
 30
0.0
 10
-142.3217
 20
-15.6139
 30
0.0
 10
-142.3217
 20
-15.6139
 30
0.0
 10
-142.3217
 20
-9.123
 30
0.0
 10
-142.3217
 20
-9.123
 30
0.0
  0
SPLINE
  5
A4
330
1F
100
AcDbEntity
  8
Camada 1
 62
   250
370
    20
100
AcDbSpline
210
0.0
220
0.0
230
1.0
 70
    11
 71
     3
 72
    20
 73
    16
 74
     0
 42
0.000000001
 43
0.0000000001
 40
0.0
 40
0.0
 40
0.0
 40
0.0
 40
0.2
 40
0.2
 40
0.2
 40
0.2
 40
0.4
 40
0.4
 40
0.4
 40
0.4
 40
0.6
 40
0.6
 40
0.6
 40
0.6
 40
1.0
 40
1.0
 40
1.0
 40
1.0
 10
-127.6156
 20
-9.2212
 30
0.0
 10
-127.6156
 20
-9.2212
 30
0.0
 10
-127.6156
 20
-13.3601
 30
0.0
 10
-127.6156
 20
-13.3601
 30
0.0
 10
-127.6156
 20
-13.3601
 30
0.0
 10
-127.6156
 20
-13.3601
 30
0.0
 10
-127.0727
 20
-13.3601
 30
0.0
 10
-127.0727
 20
-13.3601
 30
0.0
 10
-127.0727
 20
-13.3601
 30
0.0
 10
-127.0727
 20
-13.3601
 30
0.0
 10
-127.0727
 20
-9.2212
 30
0.0
 10
-127.0727
 20
-9.2212
 30
0.0
 10
-127.0727
 20
-9.2212
 30
0.0
 10
-127.0727
 20
-9.2212
 30
0.0
 10
-127.6156
 20
-9.2212
 30
0.0
 10
-127.6156
 20
-9.2212
 30
0.0
  0
SPLINE
  5
A5
330
1F
100
AcDbEntity
  8
Camada 1
 62
   250
370
    20
100
AcDbSpline
210
0.0
220
0.0
230
1.0
 70
    11
 71
     3
 72
    16
 73
    12
 74
     0
 42
0.000000001
 43
0.0000000001
 40
0.0
 40
0.0
 40
0.0
 40
0.0
 40
0.25
 40
0.25
 40
0.25
 40
0.25
 40
0.5
 40
0.5
 40
0.5
 40
0.5
 40
1.0
 40
1.0
 40
1.0
 40
1.0
 10
-179.8921
 20
-18.9388
 30
0.0
 10
-179.8921
 20
-18.9388
 30
0.0
 10
-177.7861
 20
-20.5881
 30
0.0
 10
-177.7861
 20
-20.5881
 30
0.0
 10
-177.7861
 20
-20.5881
 30
0.0
 10
-177.7861
 20
-20.5881
 30
0.0
 10
-175.6677
 20
-18.9188
 30
0.0
 10
-175.6677
 20
-18.9188
 30
0.0
 10
-175.6677
 20
-18.9188
 30
0.0
 10
-175.6677
 20
-18.9188
 30
0.0
 10
-179.8921
 20
-18.9388
 30
0.0
 10
-179.8921
 20
-18.9388
 30
0.0
  0
SPLINE
  5
A6
330
1F
100
AcDbEntity
  8
Camada 1
 62
   250
370
    20
100
AcDbSpline
210
0.0
220
0.0
230
1.0
 70
    11
 71
     3
 72
    16
 73
    12
 74
     0
 42
0.000000001
 43
0.0000000001
 40
0.0
 40
0.0
 40
0.0
 40
0.0
 40
0.25
 40
0.25
 40
0.25
 40
0.25
 40
0.5
 40
0.5
 40
0.5
 40
0.5
 40
1.0
 40
1.0
 40
1.0
 40
1.0
 10
-181.0075
 20
-19.5777
 30
0.0
 10
-181.0075
 20
-19.5777
 30
0.0
 10
-181.0075
 20
-23.1262
 30
0.0
 10
-181.0075
 20
-23.1262
 30
0.0
 10
-181.0075
 20
-23.1262
 30
0.0
 10
-181.0075
 20
-23.1262
 30
0.0
 10
-178.749
 20
-21.3462
 30
0.0
 10
-178.749
 20
-21.3462
 30
0.0
 10
-178.749
 20
-21.3462
 30
0.0
 10
-178.749
 20
-21.3462
 30
0.0
 10
-181.0075
 20
-19.5777
 30
0.0
 10
-181.0075
 20
-19.5777
 30
0.0
  0
SPLINE
  5
A7
330
1F
100
AcDbEntity
  8
Camada 1
 62
   250
370
    20
100
AcDbSpline
210
0.0
220
0.0
230
1.0
 70
    11
 71
     3
 72
    16
 73
    12
 74
     0
 42
0.000000001
 43
0.0000000001
 40
0.0
 40
0.0
 40
0.0
 40
0.0
 40
0.25
 40
0.25
 40
0.25
 40
0.25
 40
0.5
 40
0.5
 40
0.5
 40
0.5
 40
1.0
 40
1.0
 40
1.0
 40
1.0
 10
-182.1988
 20
-20.0844
 30
0.0
 10
-182.1988
 20
-20.0844
 30
0.0
 10
-183.1959
 20
-21.3637
 30
0.0
 10
-183.1959
 20
-21.3637
 30
0.0
 10
-183.1959
 20
-21.3637
 30
0.0
 10
-183.1959
 20
-21.3637
 30
0.0
 10
-182.1988
 20
-22.6321
 30
0.0
 10
-182.1988
 20
-22.6321
 30
0.0
 10
-182.1988
 20
-22.6321
 30
0.0
 10
-182.1988
 20
-22.6321
 30
0.0
 10
-182.1988
 20
-20.0844
 30
0.0
 10
-182.1988
 20
-20.0844
 30
0.0
  0
SPLINE
  5
A8
330
1F
100
AcDbEntity
  8
Camada 1
 62
   250
370
    20
100
AcDbSpline
210
0.0
220
0.0
230
1.0
 70
    11
 71
     3
 72
    16
 73
    12
 74
     0
 42
0.000000001
 43
0.0000000001
 40
0.0
 40
0.0
 40
0.0
 40
0.0
 40
0.25
 40
0.25
 40
0.25
 40
0.25
 40
0.5
 40
0.5
 40
0.5
 40
0.5
 40
1.0
 40
1.0
 40
1.0
 40
1.0
 10
-183.9496
 20
-22.3321
 30
0.0
 10
-183.9496
 20
-22.3321
 30
0.0
 10
-185.0454
 20
-23.7385
 30
0.0
 10
-185.0454
 20
-23.7385
 30
0.0
 10
-185.0454
 20
-23.7385
 30
0.0
 10
-185.0454
 20
-23.7385
 30
0.0
 10
-182.8442
 20
-23.7385
 30
0.0
 10
-182.8442
 20
-23.7385
 30
0.0
 10
-182.8442
 20
-23.7385
 30
0.0
 10
-182.8442
 20
-23.7385
 30
0.0
 10
-183.9496
 20
-22.3321
 30
0.0
 10
-183.9496
 20
-22.3321
 30
0.0
  0
SPLINE
  5
A9
330
1F
100
AcDbEntity
  8
Camada 1
 62
   250
370
    20
100
AcDbSpline
210
0.0
220
0.0
230
1.0
 70
    11
 71
     3
 72
    16
 73
    12
 74
     0
 42
0.000000001
 43
0.0000000001
 40
0.0
 40
0.0
 40
0.0
 40
0.0
 40
0.25
 40
0.25
 40
0.25
 40
0.25
 40
0.5
 40
0.5
 40
0.5
 40
0.5
 40
1.0
 40
1.0
 40
1.0
 40
1.0
 10
-184.7083
 20
-21.3673
 30
0.0
 10
-184.7083
 20
-21.3673
 30
0.0
 10
-185.6835
 20
-20.1264
 30
0.0
 10
-185.6835
 20
-20.1264
 30
0.0
 10
-185.6835
 20
-20.1264
 30
0.0
 10
-185.6835
 20
-20.1264
 30
0.0
 10
-185.6835
 20
-22.6195
 30
0.0
 10
-185.6835
 20
-22.6195
 30
0.0
 10
-185.6835
 20
-22.6195
 30
0.0
 10
-185.6835
 20
-22.6195
 30
0.0
 10
-184.7083
 20
-21.3673
 30
0.0
 10
-184.7083
 20
-21.3673
 30
0.0
  0
SPLINE
  5
AA
330
1F
100
AcDbEntity
  8
Camada 1
 62
   250
370
    20
100
AcDbSpline
210
0.0
220
0.0
230
1.0
 70
    11
 71
     3
 72
    16
 73
    12
 74
     0
 42
0.000000001
 43
0.0000000001
 40
0.0
 40
0.0
 40
0.0
 40
0.0
 40
0.25
 40
0.25
 40
0.25
 40
0.25
 40
0.5
 40
0.5
 40
0.5
 40
0.5
 40
1.0
 40
1.0
 40
1.0
 40
1.0
 10
-182.8322
 20
-18.96
 30
0.0
 10
-182.8322
 20
-18.96
 30
0.0
 10
-185.0662
 20
-18.9839
 30
0.0
 10
-185.0662
 20
-18.9839
 30
0.0
 10
-185.0662
 20
-18.9839
 30
0.0
 10
-185.0662
 20
-18.9839
 30
0.0
 10
-183.9537
 20
-20.3992
 30
0.0
 10
-183.9537
 20
-20.3992
 30
0.0
 10
-183.9537
 20
-20.3992
 30
0.0
 10
-183.9537
 20
-20.3992
 30
0.0
 10
-182.8322
 20
-18.96
 30
0.0
 10
-182.8322
 20
-18.96
 30
0.0
  0
SPLINE
  5
AB
330
1F
100
AcDbEntity
  8
Camada 1
 62
   250
370
    20
100
AcDbSpline
210
0.0
220
0.0
230
1.0
 70
    11
 71
     3
 72
    20
 73
    16
 74
     0
 42
0.000000001
 43
0.0000000001
 40
0.0
 40
0.0
 40
0.0
 40
0.0
 40
0.2
 40
0.2
 40
0.2
 40
0.2
 40
0.4
 40
0.4
 40
0.4
 40
0.4
 40
0.6
 40
0.6
 40
0.6
 40
0.6
 40
1.0
 40
1.0
 40
1.0
 40
1.0
 10
-171.9076
 20
-18.9071
 30
0.0
 10
-171.9076
 20
-18.9071
 30
0.0
 10
-169.207
 20
-20.6236
 30
0.0
 10
-169.207
 20
-20.6236
 30
0.0
 10
-169.207
 20
-20.6236
 30
0.0
 10
-169.207
 20
-20.6236
 30
0.0
 10
-166.883
 20
-19.1404
 30
0.0
 10
-166.883
 20
-19.1404
 30
0.0
 10
-166.883
 20
-19.1404
 30
0.0
 10
-166.883
 20
-19.1404
 30
0.0
 10
-166.8619
 20
-18.8982
 30
0.0
 10
-166.8619
 20
-18.8982
 30
0.0
 10
-166.8619
 20
-18.8982
 30
0.0
 10
-166.8619
 20
-18.8982
 30
0.0
 10
-171.9076
 20
-18.9071
 30
0.0
 10
-171.9076
 20
-18.9071
 30
0.0
  0
SPLINE
  5
AC
330
1F
100
AcDbEntity
  8
Camada 1
 62
   250
370
    20
100
AcDbSpline
210
0.0
220
0.0
230
1.0
 70
    11
 71
     3
 72
    16
 73
    12
 74
     0
 42
0.000000001
 43
0.0000000001
 40
0.0
 40
0.0
 40
0.0
 40
0.0
 40
0.25
 40
0.25
 40
0.25
 40
0.25
 40
0.5
 40
0.5
 40
0.5
 40
0.5
 40
1.0
 40
1.0
 40
1.0
 40
1.0
 10
-173.3483
 20
-19.4031
 30
0.0
 10
-173.3483
 20
-19.4031
 30
0.0
 10
-173.3483
 20
-23.2665
 30
0.0
 10
-173.3483
 20
-23.2665
 30
0.0
 10
-173.3483
 20
-23.2665
 30
0.0
 10
-173.3483
 20
-23.2665
 30
0.0
 10
-170.3151
 20
-21.3311
 30
0.0
 10
-170.3151
 20
-21.3311
 30
0.0
 10
-170.3151
 20
-21.3311
 30
0.0
 10
-170.3151
 20
-21.3311
 30
0.0
 10
-173.3483
 20
-19.4031
 30
0.0
 10
-173.3483
 20
-19.4031
 30
0.0
  0
SPLINE
  5
AD
330
1F
100
AcDbEntity
  8
Camada 1
 62
   250
370
    20
100
AcDbSpline
210
0.0
220
0.0
230
1.0
 70
    11
 71
     3
 72
    16
 73
    12
 74
     0
 42
0.000000001
 43
0.0000000001
 40
0.0
 40
0.0
 40
0.0
 40
0.0
 40
0.25
 40
0.25
 40
0.25
 40
0.25
 40
0.5
 40
0.5
 40
0.5
 40
0.5
 40
1.0
 40
1.0
 40
1.0
 40
1.0
 10
-174.539
 20
-19.5455
 30
0.0
 10
-174.539
 20
-19.5455
 30
0.0
 10
-176.8208
 20
-21.3435
 30
0.0
 10
-176.8208
 20
-21.3435
 30
0.0
 10
-176.8208
 20
-21.3435
 30
0.0
 10
-176.8208
 20
-21.3435
 30
0.0
 10
-174.539
 20
-23.1305
 30
0.0
 10
-174.539
 20
-23.1305
 30
0.0
 10
-174.539
 20
-23.1305
 30
0.0
 10
-174.539
 20
-23.1305
 30
0.0
 10
-174.539
 20
-19.5455
 30
0.0
 10
-174.539
 20
-19.5455
 30
0.0
  0
SPLINE
  5
AE
330
1F
100
AcDbEntity
  8
Camada 1
 62
   250
370
    20
100
AcDbSpline
210
0.0
220
0.0
230
1.0
 70
    11
 71
     3
 72
    16
 73
    12
 74
     0
 42
0.000000001
 43
0.0000000001
 40
0.0
 40
0.0
 40
0.0
 40
0.0
 40
0.25
 40
0.25
 40
0.25
 40
0.25
 40
0.5
 40
0.5
 40
0.5
 40
0.5
 40
1.0
 40
1.0
 40
1.0
 40
1.0
 10
-177.7839
 20
-22.1023
 30
0.0
 10
-177.7839
 20
-22.1023
 30
0.0
 10
-179.8607
 20
-23.7385
 30
0.0
 10
-179.8607
 20
-23.7385
 30
0.0
 10
-179.8607
 20
-23.7385
 30
0.0
 10
-179.8607
 20
-23.7385
 30
0.0
 10
-175.6947
 20
-23.7385
 30
0.0
 10
-175.6947
 20
-23.7385
 30
0.0
 10
-175.6947
 20
-23.7385
 30
0.0
 10
-175.6947
 20
-23.7385
 30
0.0
 10
-177.7839
 20
-22.1023
 30
0.0
 10
-177.7839
 20
-22.1023
 30
0.0
  0
SPLINE
  5
AF
330
1F
100
AcDbEntity
  8
Camada 1
 62
   250
370
    20
100
AcDbSpline
210
0.0
220
0.0
230
1.0
 70
    11
 71
     3
 72
    16
 73
    12
 74
     0
 42
0.000000001
 43
0.0000000001
 40
0.0
 40
0.0
 40
0.0
 40
0.0
 40
0.25
 40
0.25
 40
0.25
 40
0.25
 40
0.5
 40
0.5
 40
0.5
 40
0.5
 40
1.0
 40
1.0
 40
1.0
 40
1.0
 10
-167.0137
 20
-20.6373
 30
0.0
 10
-167.0137
 20
-20.6373
 30
0.0
 10
-168.0977
 20
-21.3293
 30
0.0
 10
-168.0977
 20
-21.3293
 30
0.0
 10
-168.0977
 20
-21.3293
 30
0.0
 10
-168.0977
 20
-21.3293
 30
0.0
 10
-167.1278
 20
-21.9459
 30
0.0
 10
-167.1278
 20
-21.9459
 30
0.0
 10
-167.1278
 20
-21.9459
 30
0.0
 10
-167.1278
 20
-21.9459
 30
0.0
 10
-167.0137
 20
-20.6373
 30
0.0
 10
-167.0137
 20
-20.6373
 30
0.0
  0
SPLINE
  5
B0
330
1F
100
AcDbEntity
  8
Camada 1
 62
   250
370
    20
100
AcDbSpline
210
0.0
220
0.0
230
1.0
 70
    11
 71
     3
 72
    20
 73
    16
 74
     0
 42
0.000000001
 43
0.0000000001
 40
0.0
 40
0.0
 40
0.0
 40
0.0
 40
0.2
 40
0.2
 40
0.2
 40
0.2
 40
0.4
 40
0.4
 40
0.4
 40
0.4
 40
0.6
 40
0.6
 40
0.6
 40
0.6
 40
1.0
 40
1.0
 40
1.0
 40
1.0
 10
-169.2056
 20
-22.0361
 30
0.0
 10
-169.2056
 20
-22.0361
 30
0.0
 10
-171.8731
 20
-23.7385
 30
0.0
 10
-171.8731
 20
-23.7385
 30
0.0
 10
-171.8731
 20
-23.7385
 30
0.0
 10
-171.8731
 20
-23.7385
 30
0.0
 10
-167.2842
 20
-23.7385
 30
0.0
 10
-167.2842
 20
-23.7385
 30
0.0
 10
-167.2842
 20
-23.7385
 30
0.0
 10
-167.2842
 20
-23.7385
 30
0.0
 10
-167.2444
 20
-23.2828
 30
0.0
 10
-167.2444
 20
-23.2828
 30
0.0
 10
-167.2444
 20
-23.2828
 30
0.0
 10
-167.2444
 20
-23.2828
 30
0.0
 10
-169.2056
 20
-22.0361
 30
0.0
 10
-169.2056
 20
-22.0361
 30
0.0
  0
SPLINE
  5
B1
330
1F
100
AcDbEntity
  8
Camada 1
 62
   250
370
    20
100
AcDbSpline
210
0.0
220
0.0
230
1.0
 70
    11
 71
     3
 72
    16
 73
    12
 74
     0
 42
0.000000001
 43
0.0000000001
 40
0.0
 40
0.0
 40
0.0
 40
0.0
 40
0.25
 40
0.25
 40
0.25
 40
0.25
 40
0.5
 40
0.5
 40
0.5
 40
0.5
 40
1.0
 40
1.0
 40
1.0
 40
1.0
 10
-121.6218
 20
-20.9205
 30
0.0
 10
-121.6218
 20
-20.9205
 30
0.0
 10
-121.6131
 20
-21.0269
 30
0.0
 10
-121.6131
 20
-21.0269
 30
0.0
 10
-121.6131
 20
-21.0269
 30
0.0
 10
-121.6131
 20
-21.0269
 30
0.0
 10
-121.5327
 20
-20.9765
 30
0.0
 10
-121.5327
 20
-20.9765
 30
0.0
 10
-121.5327
 20
-20.9765
 30
0.0
 10
-121.5327
 20
-20.9765
 30
0.0
 10
-121.6218
 20
-20.9205
 30
0.0
 10
-121.6218
 20
-20.9205
 30
0.0
  0
SPLINE
  5
B2
330
1F
100
AcDbEntity
  8
Camada 1
 62
   250
370
    20
100
AcDbSpline
210
0.0
220
0.0
230
1.0
 70
    11
 71
     3
 72
    20
 73
    16
 74
     0
 42
0.000000001
 43
0.0000000001
 40
0.0
 40
0.0
 40
0.0
 40
0.0
 40
0.2
 40
0.2
 40
0.2
 40
0.2
 40
0.4
 40
0.4
 40
0.4
 40
0.4
 40
0.6
 40
0.6
 40
0.6
 40
0.6
 40
1.0
 40
1.0
 40
1.0
 40
1.0
 10
-121.8155
 20
-18.5471
 30
0.0
 10
-121.8155
 20
-18.5471
 30
0.0
 10
-121.743
 20
-19.4345
 30
0.0
 10
-121.743
 20
-19.4345
 30
0.0
 10
-121.743
 20
-19.4345
 30
0.0
 10
-121.743
 20
-19.4345
 30
0.0
 10
-120.4101
 20
-20.2728
 30
0.0
 10
-120.4101
 20
-20.2728
 30
0.0
 10
-120.4101
 20
-20.2728
 30
0.0
 10
-120.4101
 20
-20.2728
 30
0.0
 10
-117.6659
 20
-18.5543
 30
0.0
 10
-117.6659
 20
-18.5543
 30
0.0
 10
-117.6659
 20
-18.5543
 30
0.0
 10
-117.6659
 20
-18.5543
 30
0.0
 10
-121.8155
 20
-18.5471
 30
0.0
 10
-121.8155
 20
-18.5471
 30
0.0
  0
SPLINE
  5
B3
330
1F
100
AcDbEntity
  8
Camada 1
 62
   250
370
    20
100
AcDbSpline
210
0.0
220
0.0
230
1.0
 70
    11
 71
     3
 72
    16
 73
    12
 74
     0
 42
0.000000001
 43
0.0000000001
 40
0.0
 40
0.0
 40
0.0
 40
0.0
 40
0.25
 40
0.25
 40
0.25
 40
0.25
 40
0.5
 40
0.5
 40
0.5
 40
0.5
 40
1.0
 40
1.0
 40
1.0
 40
1.0
 10
-119.2886
 20
-20.9783
 30
0.0
 10
-119.2886
 20
-20.9783
 30
0.0
 10
-116.201
 20
-22.9194
 30
0.0
 10
-116.201
 20
-22.9194
 30
0.0
 10
-116.201
 20
-22.9194
 30
0.0
 10
-116.201
 20
-22.9194
 30
0.0
 10
-116.201
 20
-19.0446
 30
0.0
 10
-116.201
 20
-19.0446
 30
0.0
 10
-116.201
 20
-19.0446
 30
0.0
 10
-116.201
 20
-19.0446
 30
0.0
 10
-119.2886
 20
-20.9783
 30
0.0
 10
-119.2886
 20
-20.9783
 30
0.0
  0
SPLINE
  5
B4
330
1F
100
AcDbEntity
  8
Camada 1
 62
   250
370
    20
100
AcDbSpline
210
0.0
220
0.0
230
1.0
 70
    11
 71
     3
 72
    20
 73
    16
 74
     0
 42
0.000000001
 43
0.0000000001
 40
0.0
 40
0.0
 40
0.0
 40
0.0
 40
0.2
 40
0.2
 40
0.2
 40
0.2
 40
0.4
 40
0.4
 40
0.4
 40
0.4
 40
0.6
 40
0.6
 40
0.6
 40
0.6
 40
1.0
 40
1.0
 40
1.0
 40
1.0
 10
-121.4192
 20
-23.4019
 30
0.0
 10
-121.4192
 20
-23.4019
 30
0.0
 10
-117.6754
 20
-23.4019
 30
0.0
 10
-117.6754
 20
-23.4019
 30
0.0
 10
-117.6754
 20
-23.4019
 30
0.0
 10
-117.6754
 20
-23.4019
 30
0.0
 10
-120.4116
 20
-21.6813
 30
0.0
 10
-120.4116
 20
-21.6813
 30
0.0
 10
-120.4116
 20
-21.6813
 30
0.0
 10
-120.4116
 20
-21.6813
 30
0.0
 10
-121.5038
 20
-22.3655
 30
0.0
 10
-121.5038
 20
-22.3655
 30
0.0
 10
-121.5038
 20
-22.3655
 30
0.0
 10
-121.5038
 20
-22.3655
 30
0.0
 10
-121.4192
 20
-23.4019
 30
0.0
 10
-121.4192
 20
-23.4019
 30
0.0
  0
SPLINE
  5
B5
330
1F
100
AcDbEntity
  8
Camada 1
 62
   250
370
    20
100
AcDbSpline
210
0.0
220
0.0
230
1.0
 70
    11
 71
     3
 72
    16
 73
    12
 74
     0
 42
0.000000001
 43
0.0000000001
 40
0.0
 40
0.0
 40
0.0
 40
0.0
 40
0.25
 40
0.25
 40
0.25
 40
0.25
 40
0.5
 40
0.5
 40
0.5
 40
0.5
 40
1.0
 40
1.0
 40
1.0
 40
1.0
 10
-113.8565
 20
-18.5661
 30
0.0
 10
-113.8565
 20
-18.5661
 30
0.0
 10
-111.7029
 20
-20.2382
 30
0.0
 10
-111.7029
 20
-20.2382
 30
0.0
 10
-111.7029
 20
-20.2382
 30
0.0
 10
-111.7029
 20
-20.2382
 30
0.0
 10
-109.5619
 20
-18.5862
 30
0.0
 10
-109.5619
 20
-18.5862
 30
0.0
 10
-109.5619
 20
-18.5862
 30
0.0
 10
-109.5619
 20
-18.5862
 30
0.0
 10
-113.8565
 20
-18.5661
 30
0.0
 10
-113.8565
 20
-18.5661
 30
0.0
  0
SPLINE
  5
B6
330
1F
100
AcDbEntity
  8
Camada 1
 62
   250
370
    20
100
AcDbSpline
210
0.0
220
0.0
230
1.0
 70
    11
 71
     3
 72
    16
 73
    12
 74
     0
 42
0.000000001
 43
0.0000000001
 40
0.0
 40
0.0
 40
0.0
 40
0.0
 40
0.25
 40
0.25
 40
0.25
 40
0.25
 40
0.5
 40
0.5
 40
0.5
 40
0.5
 40
1.0
 40
1.0
 40
1.0
 40
1.0
 10
-110.7291
 20
-20.9934
 30
0.0
 10
-110.7291
 20
-20.9934
 30
0.0
 10
-108.4274
 20
-22.7809
 30
0.0
 10
-108.4274
 20
-22.7809
 30
0.0
 10
-108.4274
 20
-22.7809
 30
0.0
 10
-108.4274
 20
-22.7809
 30
0.0
 10
-108.4274
 20
-19.2176
 30
0.0
 10
-108.4274
 20
-19.2176
 30
0.0
 10
-108.4274
 20
-19.2176
 30
0.0
 10
-108.4274
 20
-19.2176
 30
0.0
 10
-110.7291
 20
-20.9934
 30
0.0
 10
-110.7291
 20
-20.9934
 30
0.0
  0
SPLINE
  5
B7
330
1F
100
AcDbEntity
  8
Camada 1
 62
   250
370
    20
100
AcDbSpline
210
0.0
220
0.0
230
1.0
 70
    11
 71
     3
 72
    16
 73
    12
 74
     0
 42
0.000000001
 43
0.0000000001
 40
0.0
 40
0.0
 40
0.0
 40
0.0
 40
0.25
 40
0.25
 40
0.25
 40
0.25
 40
0.5
 40
0.5
 40
0.5
 40
0.5
 40
1.0
 40
1.0
 40
1.0
 40
1.0
 10
-115.0045
 20
-22.7851
 30
0.0
 10
-115.0045
 20
-22.7851
 30
0.0
 10
-112.679
 20
-20.9907
 30
0.0
 10
-112.679
 20
-20.9907
 30
0.0
 10
-112.679
 20
-20.9907
 30
0.0
 10
-112.679
 20
-20.9907
 30
0.0
 10
-115.0045
 20
-19.1853
 30
0.0
 10
-115.0045
 20
-19.1853
 30
0.0
 10
-115.0045
 20
-19.1853
 30
0.0
 10
-115.0045
 20
-19.1853
 30
0.0
 10
-115.0045
 20
-22.7851
 30
0.0
 10
-115.0045
 20
-22.7851
 30
0.0
  0
SPLINE
  5
B8
330
1F
100
AcDbEntity
  8
Camada 1
 62
   250
370
    20
100
AcDbSpline
210
0.0
220
0.0
230
1.0
 70
    11
 71
     3
 72
    16
 73
    12
 74
     0
 42
0.000000001
 43
0.0000000001
 40
0.0
 40
0.0
 40
0.0
 40
0.0
 40
0.25
 40
0.25
 40
0.25
 40
0.25
 40
0.5
 40
0.5
 40
0.5
 40
0.5
 40
1.0
 40
1.0
 40
1.0
 40
1.0
 10
-113.8503
 20
-23.4019
 30
0.0
 10
-113.8503
 20
-23.4019
 30
0.0
 10
-109.5726
 20
-23.4019
 30
0.0
 10
-109.5726
 20
-23.4019
 30
0.0
 10
-109.5726
 20
-23.4019
 30
0.0
 10
-109.5726
 20
-23.4019
 30
0.0
 10
-111.7051
 20
-21.7466
 30
0.0
 10
-111.7051
 20
-21.7466
 30
0.0
 10
-111.7051
 20
-21.7466
 30
0.0
 10
-111.7051
 20
-21.7466
 30
0.0
 10
-113.8503
 20
-23.4019
 30
0.0
 10
-113.8503
 20
-23.4019
 30
0.0
  0
SPLINE
  5
B9
330
1F
100
AcDbEntity
  8
Camada 1
 62
   250
370
    20
100
AcDbSpline
210
0.0
220
0.0
230
1.0
 70
    11
 71
     3
 72
    16
 73
    12
 74
     0
 42
0.000000001
 43
0.0000000001
 40
0.0
 40
0.0
 40
0.0
 40
0.0
 40
0.25
 40
0.25
 40
0.25
 40
0.25
 40
0.5
 40
0.5
 40
0.5
 40
0.5
 40
1.0
 40
1.0
 40
1.0
 40
1.0
 10
-107.2303
 20
-22.2928
 30
0.0
 10
-107.2303
 20
-22.2928
 30
0.0
 10
-106.2074
 20
-21.011
 30
0.0
 10
-106.2074
 20
-21.011
 30
0.0
 10
-106.2074
 20
-21.011
 30
0.0
 10
-106.2074
 20
-21.011
 30
0.0
 10
-107.2303
 20
-19.7181
 30
0.0
 10
-107.2303
 20
-19.7181
 30
0.0
 10
-107.2303
 20
-19.7181
 30
0.0
 10
-107.2303
 20
-19.7181
 30
0.0
 10
-107.2303
 20
-22.2928
 30
0.0
 10
-107.2303
 20
-22.2928
 30
0.0
  0
SPLINE
  5
BA
330
1F
100
AcDbEntity
  8
Camada 1
 62
   250
370
    20
100
AcDbSpline
210
0.0
220
0.0
230
1.0
 70
    11
 71
     3
 72
    16
 73
    12
 74
     0
 42
0.000000001
 43
0.0000000001
 40
0.0
 40
0.0
 40
0.0
 40
0.0
 40
0.25
 40
0.25
 40
0.25
 40
0.25
 40
0.5
 40
0.5
 40
0.5
 40
0.5
 40
1.0
 40
1.0
 40
1.0
 40
1.0
 10
-106.5861
 20
-18.6072
 30
0.0
 10
-106.5861
 20
-18.6072
 30
0.0
 10
-105.4433
 20
-20.0523
 30
0.0
 10
-105.4433
 20
-20.0523
 30
0.0
 10
-105.4433
 20
-20.0523
 30
0.0
 10
-105.4433
 20
-20.0523
 30
0.0
 10
-104.3094
 20
-18.6312
 30
0.0
 10
-104.3094
 20
-18.6312
 30
0.0
 10
-104.3094
 20
-18.6312
 30
0.0
 10
-104.3094
 20
-18.6312
 30
0.0
 10
-106.5861
 20
-18.6072
 30
0.0
 10
-106.5861
 20
-18.6072
 30
0.0
  0
SPLINE
  5
BB
330
1F
100
AcDbEntity
  8
Camada 1
 62
   250
370
    20
100
AcDbSpline
210
0.0
220
0.0
230
1.0
 70
    11
 71
     3
 72
    16
 73
    12
 74
     0
 42
0.000000001
 43
0.0000000001
 40
0.0
 40
0.0
 40
0.0
 40
0.0
 40
0.25
 40
0.25
 40
0.25
 40
0.25
 40
0.5
 40
0.5
 40
0.5
 40
0.5
 40
1.0
 40
1.0
 40
1.0
 40
1.0
 10
-106.5869
 20
-23.4019
 30
0.0
 10
-106.5869
 20
-23.4019
 30
0.0
 10
-104.3176
 20
-23.4019
 30
0.0
 10
-104.3176
 20
-23.4019
 30
0.0
 10
-104.3176
 20
-23.4019
 30
0.0
 10
-104.3176
 20
-23.4019
 30
0.0
 10
-105.4474
 20
-21.9735
 30
0.0
 10
-105.4474
 20
-21.9735
 30
0.0
 10
-105.4474
 20
-21.9735
 30
0.0
 10
-105.4474
 20
-21.9735
 30
0.0
 10
-106.5869
 20
-23.4019
 30
0.0
 10
-106.5869
 20
-23.4019
 30
0.0
  0
SPLINE
  5
BC
330
1F
100
AcDbEntity
  8
Camada 1
 62
   250
370
    20
100
AcDbSpline
210
0.0
220
0.0
230
1.0
 70
    11
 71
     3
 72
    16
 73
    12
 74
     0
 42
0.000000001
 43
0.0000000001
 40
0.0
 40
0.0
 40
0.0
 40
0.0
 40
0.25
 40
0.25
 40
0.25
 40
0.25
 40
0.5
 40
0.5
 40
0.5
 40
0.5
 40
1.0
 40
1.0
 40
1.0
 40
1.0
 10
-104.682
 20
-21.0145
 30
0.0
 10
-104.682
 20
-21.0145
 30
0.0
 10
-103.6815
 20
-22.2802
 30
0.0
 10
-103.6815
 20
-22.2802
 30
0.0
 10
-103.6815
 20
-22.2802
 30
0.0
 10
-103.6815
 20
-22.2802
 30
0.0
 10
-103.6815
 20
-19.7603
 30
0.0
 10
-103.6815
 20
-19.7603
 30
0.0
 10
-103.6815
 20
-19.7603
 30
0.0
 10
-103.6815
 20
-19.7603
 30
0.0
 10
-104.682
 20
-21.0145
 30
0.0
 10
-104.682
 20
-21.0145
 30
0.0
  0
SPLINE
  5
BD
330
1F
100
AcDbEntity
  8
Camada 1
 62
   250
370
    20
100
AcDbSpline
210
0.0
220
0.0
230
1.0
 70
    11
 71
     3
 72
   344
 73
   340
 74
     0
 42
0.000000001
 43
0.0000000001
 40
0.0
 40
0.0
 40
0.0
 40
0.0
 40
0.0116279069767442
 40
0.0116279069767442
 40
0.0116279069767442
 40
0.0116279069767442
 40
0.0232558139534884
 40
0.0232558139534884
 40
0.0232558139534884
 40
0.0232558139534884
 40
0.0348837209302326
 40
0.0348837209302326
 40
0.0348837209302326
 40
0.0348837209302326
 40
0.0465116279069767
 40
0.0465116279069767
 40
0.0465116279069767
 40
0.0465116279069767
 40
0.0581395348837209
 40
0.0581395348837209
 40
0.0581395348837209
 40
0.0581395348837209
 40
0.0697674418604651
 40
0.0697674418604651
 40
0.0697674418604651
 40
0.0697674418604651
 40
0.0813953488372093
 40
0.0813953488372093
 40
0.0813953488372093
 40
0.0813953488372093
 40
0.0930232558139535
 40
0.0930232558139535
 40
0.0930232558139535
 40
0.0930232558139535
 40
0.1046511627906977
 40
0.1046511627906977
 40
0.1046511627906977
 40
0.1046511627906977
 40
0.1162790697674419
 40
0.1162790697674419
 40
0.1162790697674419
 40
0.1162790697674419
 40
0.1279069767441861
 40
0.1279069767441861
 40
0.1279069767441861
 40
0.1279069767441861
 40
0.1395348837209302
 40
0.1395348837209302
 40
0.1395348837209302
 40
0.1395348837209302
 40
0.1511627906976744
 40
0.1511627906976744
 40
0.1511627906976744
 40
0.1511627906976744
 40
0.1627906976744186
 40
0.1627906976744186
 40
0.1627906976744186
 40
0.1627906976744186
 40
0.1744186046511628
 40
0.1744186046511628
 40
0.1744186046511628
 40
0.1744186046511628
 40
0.186046511627907
 40
0.186046511627907
 40
0.186046511627907
 40
0.186046511627907
 40
0.1976744186046512
 40
0.1976744186046512
 40
0.1976744186046512
 40
0.1976744186046512
 40
0.2093023255813954
 40
0.2093023255813954
 40
0.2093023255813954
 40
0.2093023255813954
 40
0.2209302325581395
 40
0.2209302325581395
 40
0.2209302325581395
 40
0.2209302325581395
 40
0.2325581395348837
 40
0.2325581395348837
 40
0.2325581395348837
 40
0.2325581395348837
 40
0.2441860465116279
 40
0.2441860465116279
 40
0.2441860465116279
 40
0.2441860465116279
 40
0.2558139534883721
 40
0.2558139534883721
 40
0.2558139534883721
 40
0.2558139534883721
 40
0.2674418604651163
 40
0.2674418604651163
 40
0.2674418604651163
 40
0.2674418604651163
 40
0.2790697674418605
 40
0.2790697674418605
 40
0.2790697674418605
 40
0.2790697674418605
 40
0.2906976744186047
 40
0.2906976744186047
 40
0.2906976744186047
 40
0.2906976744186047
 40
0.3023255813953488
 40
0.3023255813953488
 40
0.3023255813953488
 40
0.3023255813953488
 40
0.313953488372093
 40
0.313953488372093
 40
0.313953488372093
 40
0.313953488372093
 40
0.3255813953488372
 40
0.3255813953488372
 40
0.3255813953488372
 40
0.3255813953488372
 40
0.3372093023255814
 40
0.3372093023255814
 40
0.3372093023255814
 40
0.3372093023255814
 40
0.3488372093023256
 40
0.3488372093023256
 40
0.3488372093023256
 40
0.3488372093023256
 40
0.3604651162790697
 40
0.3604651162790697
 40
0.3604651162790697
 40
0.3604651162790697
 40
0.3720930232558139
 40
0.3720930232558139
 40
0.3720930232558139
 40
0.3720930232558139
 40
0.3837209302325582
 40
0.3837209302325582
 40
0.3837209302325582
 40
0.3837209302325582
 40
0.3953488372093023
 40
0.3953488372093023
 40
0.3953488372093023
 40
0.3953488372093023
 40
0.4069767441860465
 40
0.4069767441860465
 40
0.4069767441860465
 40
0.4069767441860465
 40
0.4186046511627907
 40
0.4186046511627907
 40
0.4186046511627907
 40
0.4186046511627907
 40
0.4302325581395349
 40
0.4302325581395349
 40
0.4302325581395349
 40
0.4302325581395349
 40
0.4418604651162791
 40
0.4418604651162791
 40
0.4418604651162791
 40
0.4418604651162791
 40
0.4534883720930232
 40
0.4534883720930232
 40
0.4534883720930232
 40
0.4534883720930232
 40
0.4651162790697674
 40
0.4651162790697674
 40
0.4651162790697674
 40
0.4651162790697674
 40
0.4767441860465116
 40
0.4767441860465116
 40
0.4767441860465116
 40
0.4767441860465116
 40
0.4883720930232558
 40
0.4883720930232558
 40
0.4883720930232558
 40
0.4883720930232558
 40
0.5
 40
0.5
 40
0.5
 40
0.5
 40
0.5116279069767442
 40
0.5116279069767442
 40
0.5116279069767442
 40
0.5116279069767442
 40
0.5232558139534884
 40
0.5232558139534884
 40
0.5232558139534884
 40
0.5232558139534884
 40
0.5348837209302325
 40
0.5348837209302325
 40
0.5348837209302325
 40
0.5348837209302325
 40
0.5465116279069767
 40
0.5465116279069767
 40
0.5465116279069767
 40
0.5465116279069767
 40
0.5581395348837209
 40
0.5581395348837209
 40
0.5581395348837209
 40
0.5581395348837209
 40
0.5697674418604651
 40
0.5697674418604651
 40
0.5697674418604651
 40
0.5697674418604651
 40
0.5813953488372093
 40
0.5813953488372093
 40
0.5813953488372093
 40
0.5813953488372093
 40
0.5930232558139535
 40
0.5930232558139535
 40
0.5930232558139535
 40
0.5930232558139535
 40
0.6046511627906976
 40
0.6046511627906976
 40
0.6046511627906976
 40
0.6046511627906976
 40
0.6162790697674418
 40
0.6162790697674418
 40
0.6162790697674418
 40
0.6162790697674418
 40
0.627906976744186
 40
0.627906976744186
 40
0.627906976744186
 40
0.627906976744186
 40
0.6395348837209303
 40
0.6395348837209303
 40
0.6395348837209303
 40
0.6395348837209303
 40
0.6511627906976745
 40
0.6511627906976745
 40
0.6511627906976745
 40
0.6511627906976745
 40
0.6627906976744186
 40
0.6627906976744186
 40
0.6627906976744186
 40
0.6627906976744186
 40
0.6744186046511628
 40
0.6744186046511628
 40
0.6744186046511628
 40
0.6744186046511628
 40
0.686046511627907
 40
0.686046511627907
 40
0.686046511627907
 40
0.686046511627907
 40
0.6976744186046512
 40
0.6976744186046512
 40
0.6976744186046512
 40
0.6976744186046512
 40
0.7093023255813954
 40
0.7093023255813954
 40
0.7093023255813954
 40
0.7093023255813954
 40
0.7209302325581395
 40
0.7209302325581395
 40
0.7209302325581395
 40
0.7209302325581395
 40
0.7325581395348837
 40
0.7325581395348837
 40
0.7325581395348837
 40
0.7325581395348837
 40
0.7441860465116279
 40
0.7441860465116279
 40
0.7441860465116279
 40
0.7441860465116279
 40
0.7558139534883721
 40
0.7558139534883721
 40
0.7558139534883721
 40
0.7558139534883721
 40
0.7674418604651163
 40
0.7674418604651163
 40
0.7674418604651163
 40
0.7674418604651163
 40
0.7790697674418605
 40
0.7790697674418605
 40
0.7790697674418605
 40
0.7790697674418605
 40
0.7906976744186046
 40
0.7906976744186046
 40
0.7906976744186046
 40
0.7906976744186046
 40
0.8023255813953488
 40
0.8023255813953488
 40
0.8023255813953488
 40
0.8023255813953488
 40
0.813953488372093
 40
0.813953488372093
 40
0.813953488372093
 40
0.813953488372093
 40
0.8255813953488372
 40
0.8255813953488372
 40
0.8255813953488372
 40
0.8255813953488372
 40
0.8372093023255814
 40
0.8372093023255814
 40
0.8372093023255814
 40
0.8372093023255814
 40
0.8488372093023255
 40
0.8488372093023255
 40
0.8488372093023255
 40
0.8488372093023255
 40
0.8604651162790697
 40
0.8604651162790697
 40
0.8604651162790697
 40
0.8604651162790697
 40
0.872093023255814
 40
0.872093023255814
 40
0.872093023255814
 40
0.872093023255814
 40
0.8837209302325582
 40
0.8837209302325582
 40
0.8837209302325582
 40
0.8837209302325582
 40
0.8953488372093024
 40
0.8953488372093024
 40
0.8953488372093024
 40
0.8953488372093024
 40
0.9069767441860465
 40
0.9069767441860465
 40
0.9069767441860465
 40
0.9069767441860465
 40
0.9186046511627907
 40
0.9186046511627907
 40
0.9186046511627907
 40
0.9186046511627907
 40
0.9302325581395349
 40
0.9302325581395349
 40
0.9302325581395349
 40
0.9302325581395349
 40
0.9418604651162791
 40
0.9418604651162791
 40
0.9418604651162791
 40
0.9418604651162791
 40
0.9534883720930233
 40
0.9534883720930233
 40
0.9534883720930233
 40
0.9534883720930233
 40
0.9651162790697675
 40
0.9651162790697675
 40
0.9651162790697675
 40
0.9651162790697675
 40
0.9767441860465116
 40
0.9767441860465116
 40
0.9767441860465116
 40
0.9767441860465116
 40
1.0
 40
1.0
 40
1.0
 40
1.0
 10
176.9459
 20
-59.2267
 30
0.0
 10
181.8931
 20
-58.1211
 30
0.0
 10
186.2197
 20
-56.6787
 30
0.0
 10
189.1349
 20
-54.8653
 30
0.0
 10
189.1349
 20
-54.8653
 30
0.0
 10
195.9536
 20
-50.6243
 30
0.0
 10
199.1778
 20
-46.0516
 30
0.0
 10
200.693
 20
-42.8704
 30
0.0
 10
200.693
 20
-42.8704
 30
0.0
 10
201.8644
 20
-40.4111
 30
0.0
 10
202.0145
 20
-38.7834
 30
0.0
 10
202.0145
 20
-38.7834
 30
0.0
 10
202.0145
 20
-38.7834
 30
0.0
 10
202.0145
 20
-38.7834
 30
0.0
 10
204.9441
 20
-36.9793
 30
0.0
 10
204.9441
 20
-36.9793
 30
0.0
 10
204.9441
 20
-36.9793
 30
0.0
 10
204.9441
 20
-36.9793
 30
0.0
 10
206.4497
 20
-28.1404
 30
0.0
 10
206.4497
 20
-28.1404
 30
0.0
 10
206.4497
 20
-28.1404
 30
0.0
 10
206.4497
 20
-28.1404
 30
0.0
 10
203.3343
 20
-28.1987
 30
0.0
 10
203.3343
 20
-28.1987
 30
0.0
 10
203.3343
 20
-28.1987
 30
0.0
 10
203.3343
 20
-28.1987
 30
0.0
 10
204.8718
 20
-19.0158
 30
0.0
 10
204.8718
 20
-19.0158
 30
0.0
 10
204.8718
 20
-19.0158
 30
0.0
 10
204.8718
 20
-19.0158
 30
0.0
 10
204.0379
 20
-13.0666
 30
0.0
 10
204.0379
 20
-13.0666
 30
0.0
 10
204.0379
 20
-13.0666
 30
0.0
 10
204.0379
 20
-13.0666
 30
0.0
 10
196.3844
 20
-12.3616
 30
0.0
 10
196.3844
 20
-12.3616
 30
0.0
 10
196.3844
 20
-12.3616
 30
0.0
 10
196.3844
 20
-12.3616
 30
0.0
 10
196.4154
 20
-10.2927
 30
0.0
 10
196.4154
 20
-10.2927
 30
0.0
 10
196.4154
 20
-10.2927
 30
0.0
 10
196.4154
 20
-10.2927
 30
0.0
 10
207.3116
 20
-11.2959
 30
0.0
 10
207.3116
 20
-11.2959
 30
0.0
 10
207.3116
 20
-11.2959
 30
0.0
 10
201.8442
 20
-3.1416
 30
0.0
 10
207.4544
 20
5.2693
 30
0.0
 10
207.4544
 20
5.2693
 30
0.0
 10
207.4544
 20
5.2693
 30
0.0
 10
207.4544
 20
5.2693
 30
0.0
 10
196.675
 20
5.6363
 30
0.0
 10
196.675
 20
5.6363
 30
0.0
 10
196.675
 20
5.6363
 30
0.0
 10
196.675
 20
5.6363
 30
0.0
 10
196.7279
 20
8.8412
 30
0.0
 10
196.7279
 20
8.8412
 30
0.0
 10
196.7279
 20
8.8412
 30
0.0
 10
202.1763
 20
8.983
 30
0.0
 10
207.8015
 20
9.035
 30
0.0
 10
207.8015
 20
9.035
 30
0.0
 10
207.8015
 20
9.035
 30
0.0
 10
205.7821
 20
13.3658
 30
0.0
 10
207.3545
 20
26.6893
 30
0.0
 10
207.3545
 20
26.6893
 30
0.0
 10
207.3545
 20
26.6893
 30
0.0
 10
203.9175
 20
27.2465
 30
0.0
 10
200.2892
 20
27.0668
 30
0.0
 10
197.0171
 20
26.5964
 30
0.0
 10
197.0171
 20
26.5964
 30
0.0
 10
197.0171
 20
26.5964
 30
0.0
 10
197.1154
 20
32.7009
 30
0.0
 10
197.1154
 20
32.7009
 30
0.0
 10
197.1154
 20
32.7009
 30
0.0
 10
197.1154
 20
32.7009
 30
0.0
 10
203.0656
 20
32.6105
 30
0.0
 10
203.0656
 20
32.6105
 30
0.0
 10
203.0656
 20
32.6105
 30
0.0
 10
201.208
 20
42.4521
 30
0.0
 10
204.1476
 20
51.8512
 30
0.0
 10
204.1476
 20
51.8512
 30
0.0
 10
204.1476
 20
51.8512
 30
0.0
 10
202.1418
 20
51.8013
 30
0.0
 10
199.7335
 20
51.6671
 30
0.0
 10
197.4215
 20
51.5138
 30
0.0
 10
197.4215
 20
51.5138
 30
0.0
 10
197.4215
 20
51.5138
 30
0.0
 10
197.4885
 20
55.5929
 30
0.0
 10
197.4885
 20
55.5929
 30
0.0
 10
197.4885
 20
55.5929
 30
0.0
 10
197.4885
 20
55.5929
 30
0.0
 10
199.744
 20
55.3097
 30
0.0
 10
199.744
 20
55.3097
 30
0.0
 10
199.744
 20
55.3097
 30
0.0
 10
201.2215
 20
55.1229
 30
0.0
 10
201.8308
 20
56.5491
 30
0.0
 10
201.8308
 20
56.5491
 30
0.0
 10
201.8308
 20
56.5491
 30
0.0
 10
201.8308
 20
56.5491
 30
0.0
 10
199.6906
 20
56.6035
 30
0.0
 10
198.9765
 20
57.7655
 30
0.0
 10
198.9765
 20
57.7655
 30
0.0
 10
198.2659
 20
58.9275
 30
0.0
 10
197.5798
 20
58.5855
 30
0.0
 10
197.5798
 20
58.5855
 30
0.0
 10
197.5798
 20
58.5855
 30
0.0
 10
197.5798
 20
58.5855
 30
0.0
 10
197.5319
 20
58.192
 30
0.0
 10
197.5319
 20
58.192
 30
0.0
 10
197.5319
 20
58.192
 30
0.0
 10
197.5319
 20
58.192
 30
0.0
 10
197.5368
 20
58.5929
 30
0.0
 10
197.5368
 20
58.5929
 30
0.0
 10
197.5368
 20
58.5929
 30
0.0
 10
197.5418
 20
60.0857
 30
0.0
 10
196.7935
 20
59.3835
 30
0.0
 10
196.762
 20
57.9175
 30
0.0
 10
196.762
 20
57.9175
 30
0.0
 10
196.762
 20
57.9175
 30
0.0
 10
196.3496
 20
57.1202
 30
0.0
 10
196.3496
 20
57.1202
 30
0.0
 10
196.3496
 20
57.1202
 30
0.0
 10
195.3638
 20
55.2142
 30
0.0
 10
194.336
 20
53.3267
 30
0.0
 10
193.2813
 20
51.4582
 30
0.0
 10
193.2813
 20
51.4582
 30
0.0
 10
193.2813
 20
51.4582
 30
0.0
 10
193.1364
 20
51.2016
 30
0.0
 10
193.1364
 20
51.2016
 30
0.0
 10
193.1364
 20
51.2016
 30
0.0
 10
193.1364
 20
51.2016
 30
0.0
 10
192.7871
 20
51.1741
 30
0.0
 10
192.7871
 20
51.1741
 30
0.0
 10
192.7871
 20
51.1741
 30
0.0
 10
193.1861
 20
54.2706
 30
0.0
 10
193.8792
 20
56.5975
 30
0.0
 10
193.8792
 20
56.5975
 30
0.0
 10
193.8792
 20
56.5975
 30
0.0
 10
191.3674
 20
56.8287
 30
0.0
 10
187.1545
 20
56.5871
 30
0.0
 10
183.0379
 20
56.219
 30
0.0
 10
183.0379
 20
56.219
 30
0.0
 10
183.0379
 20
56.219
 30
0.0
 10
183.5867
 20
61.924
 30
0.0
 10
183.5867
 20
61.924
 30
0.0
 10
183.5867
 20
61.924
 30
0.0
 10
188.5861
 20
61.7378
 30
0.0
 10
192.5753
 20
61.206
 30
0.0
 10
192.5753
 20
61.206
 30
0.0
 10
192.5753
 20
61.206
 30
0.0
 10
188.7839
 20
68.8091
 30
0.0
 10
192.8161
 20
78.7984
 30
0.0
 10
192.8161
 20
78.7984
 30
0.0
 10
192.8161
 20
78.7984
 30
0.0
 10
190.4751
 20
79.0146
 30
0.0
 10
187.8051
 20
78.9847
 30
0.0
 10
185.211
 20
78.8373
 30
0.0
 10
185.211
 20
78.8373
 30
0.0
 10
185.211
 20
78.8373
 30
0.0
 10
185.9335
 20
86.3395
 30
0.0
 10
185.9335
 20
86.3395
 30
0.0
 10
185.9335
 20
86.3395
 30
0.0
 10
185.9335
 20
86.3395
 30
0.0
 10
188.9921
 20
86.0574
 30
0.0
 10
188.9921
 20
86.0574
 30
0.0
 10
188.9921
 20
86.0574
 30
0.0
 10
191.39
 20
85.8372
 30
0.0
 10
192.2967
 20
88.1697
 30
0.0
 10
192.2967
 20
88.1697
 30
0.0
 10
192.2967
 20
88.1697
 30
0.0
 10
192.2967
 20
88.1697
 30
0.0
 10
188.8388
 20
88.1442
 30
0.0
 10
187.6278
 20
89.9832
 30
0.0
 10
187.6278
 20
89.9832
 30
0.0
 10
187.1529
 20
90.7003
 30
0.0
 10
186.7021
 20
91.0429
 30
0.0
 10
186.3236
 20
91.1981
 30
0.0
 10
186.3236
 20
91.1981
 30
0.0
 10
186.2462
 20
91.7445
 30
0.0
 10
185.9711
 20
91.726
 30
0.0
 10
185.7079
 20
91.317
 30
0.0
 10
185.7079
 20
91.317
 30
0.0
 10
185.4722
 20
91.305
 30
0.0
 10
185.3259
 20
91.2301
 30
0.0
 10
185.3259
 20
91.2301
 30
0.0
 10
185.3259
 20
91.2301
 30
0.0
 10
185.3259
 20
91.2301
 30
0.0
 10
185.1968
 20
89.8224
 30
0.0
 10
185.1968
 20
89.8224
 30
0.0
 10
185.1968
 20
89.8224
 30
0.0
 10
185.1968
 20
89.8224
 30
0.0
 10
184.6425
 20
88.389
 30
0.0
 10
184.6425
 20
88.389
 30
0.0
 10
184.6425
 20
88.389
 30
0.0
 10
183.385
 20
85.1365
 30
0.0
 10
182.0776
 20
81.901
 30
0.0
 10
180.7302
 20
78.685
 30
0.0
 10
180.7302
 20
78.685
 30
0.0
 10
180.7302
 20
78.685
 30
0.0
 10
180.6382
 20
78.4655
 30
0.0
 10
180.6382
 20
78.4655
 30
0.0
 10
180.6382
 20
78.4655
 30
0.0
 10
176.5059
 20
78.0366
 30
0.0
 10
173.3531
 20
77.4827
 30
0.0
 10
173.3531
 20
77.4827
 30
0.0
 10
173.3531
 20
77.4827
 30
0.0
 10
172.0868
 20
75.9591
 30
0.0
 10
171.0975
 20
73.8319
 30
0.0
 10
170.3335
 20
71.5938
 30
0.0
 10
170.3335
 20
71.5938
 30
0.0
 10
169.995
 20
79.2818
 30
0.0
 10
172.1811
 20
87.2618
 30
0.0
 10
172.1811
 20
87.2618
 30
0.0
 10
172.1811
 20
87.2618
 30
0.0
 10
172.1811
 20
87.2618
 30
0.0
 10
168.0145
 20
87.3981
 30
0.0
 10
161.634
 20
86.6137
 30
0.0
 10
161.634
 20
86.6137
 30
0.0
 10
161.634
 20
86.6137
 30
0.0
 10
163.1515
 20
101.7439
 30
0.0
 10
163.1515
 20
101.7439
 30
0.0
 10
163.1515
 20
101.7439
 30
0.0
 10
163.7143
 20
101.9341
 30
0.0
 10
164.9181
 20
102.1388
 30
0.0
 10
166.561
 20
101.2475
 30
0.0
 10
166.561
 20
101.2475
 30
0.0
 10
168.8665
 20
99.9996
 30
0.0
 10
172.5426
 20
102.4245
 30
0.0
 10
172.5426
 20
102.4245
 30
0.0
 10
172.5426
 20
102.4245
 30
0.0
 10
172.5426
 20
102.4245
 30
0.0
 10
168.0266
 20
102.1493
 30
0.0
 10
166.5355
 20
104.704
 30
0.0
 10
166.5355
 20
104.704
 30
0.0
 10
165.4565
 20
106.5496
 30
0.0
 10
164.2525
 20
106.9639
 30
0.0
 10
163.6643
 20
107.0524
 30
0.0
 10
163.6643
 20
107.0524
 30
0.0
 10
163.6575
 20
108.3471
 30
0.0
 10
162.8175
 20
108.007
 30
0.0
 10
162.4048
 20
106.8208
 30
0.0
 10
162.4048
 20
106.8208
 30
0.0
 10
162.4048
 20
106.8208
 30
0.0
 10
161.7423
 20
106.1456
 30
0.0
 10
161.7423
 20
106.1456
 30
0.0
 10
161.7423
 20
106.1456
 30
0.0
 10
160.9653
 20
105.1291
 30
0.0
 10
160.127
 20
104.1227
 30
0.0
 10
159.3219
 20
103.1274
 30
0.0
 10
159.3219
 20
103.1274
 30
0.0
 10
157.1997
 20
100.504
 30
0.0
 10
155.0572
 20
97.8967
 30
0.0
 10
152.9008
 20
95.3013
 30
0.0
 10
152.9008
 20
95.3013
 30
0.0
 10
145.8972
 20
86.872
 30
0.0
 10
138.7361
 20
78.5594
 30
0.0
 10
131.3899
 20
70.4266
 30
0.0
 10
131.3899
 20
70.4266
 30
0.0
 10
128.0708
 20
66.7523
 30
0.0
 10
124.711
 20
63.114
 30
0.0
 10
121.2996
 20
59.5253
 30
0.0
 10
121.2996
 20
59.5253
 30
0.0
 10
114.8364
 20
52.726
 30
0.0
 10
108.1568
 20
46.0311
 30
0.0
 10
101.1473
 20
39.7934
 30
0.0
 10
101.1473
 20
39.7934
 30
0.0
 10
98.0758
 20
37.0601
 30
0.0
 10
94.9196
 20
34.3981
 30
0.0
 10
91.6436
 20
31.9125
 30
0.0
 10
91.6436
 20
31.9125
 30
0.0
 10
88.9215
 20
29.8472
 30
0.0
 10
86.0632
 20
27.8523
 30
0.0
 10
83.0786
 20
26.1834
 30
0.0
 10
83.0786
 20
26.1834
 30
0.0
 10
83.0786
 20
26.1834
 30
0.0
 10
82.962
 20
26.1182
 30
0.0
 10
82.962
 20
26.1182
 30
0.0
 10
82.962
 20
26.1182
 30
0.0
 10
81.0275
 20
27.9741
 30
0.0
 10
79.7815
 20
29.1802
 30
0.0
 10
79.4817
 20
29.4901
 30
0.0
 10
79.4817
 20
29.4901
 30
0.0
 10
77.273
 20
31.7651
 30
0.0
 10
75.6522
 20
29.151
 30
0.0
 10
77.8593
 20
26.874
 30
0.0
 10
77.8593
 20
26.874
 30
0.0
 10
78.4855
 20
26.2319
 30
0.0
 10
83.2373
 20
21.4157
 30
0.0
 10
89.7242
 20
14.8458
 30
0.0
 10
89.7242
 20
14.8458
 30
0.0
 10
89.7242
 20
14.8458
 30
0.0
 10
78.0935
 20
14.4204
 30
0.0
 10
78.0935
 20
14.4204
 30
0.0
 10
78.0935
 20
14.4204
 30
0.0
 10
73.2938
 20
11.0637
 30
0.0
 10
74.295
 20
-11.8222
 30
0.0
 10
74.295
 20
-11.8222
 30
0.0
 10
74.295
 20
-11.8222
 30
0.0
 10
74.295
 20
-11.8222
 30
0.0
 10
86.067
 20
-13.0701
 30
0.0
 10
86.067
 20
-13.0701
 30
0.0
 10
86.067
 20
-13.0701
 30
0.0
 10
85.4304
 20
-18.097
 30
0.0
 10
85.1897
 20
-23.6727
 30
0.0
 10
86.2957
 20
-27.7808
 30
0.0
 10
86.2957
 20
-27.7808
 30
0.0
 10
86.2957
 20
-27.7808
 30
0.0
 10
115.1879
 20
-29.0587
 30
0.0
 10
115.1879
 20
-29.0587
 30
0.0
 10
115.1879
 20
-29.0587
 30
0.0
 10
115.1879
 20
-29.0587
 30
0.0
 10
115.1919
 20
-29.5136
 30
0.0
 10
115.1165
 20
-27.9272
 30
0.0
 10
115.1165
 20
-27.9272
 30
0.0
 10
115.3827
 20
-28.9759
 30
0.0
 10
115.8135
 20
-29.3689
 30
0.0
 10
116.5656
 20
-31.3279
 30
0.0
 10
116.5656
 20
-31.3279
 30
0.0
 10
117.6743
 20
-34.2155
 30
0.0
 10
119.3196
 20
-37.4212
 30
0.0
 10
121.5271
 20
-38.9677
 30
0.0
 10
121.5271
 20
-38.9677
 30
0.0
 10
126.0691
 20
-42.1485
 30
0.0
 10
129.6454
 20
-44.5483
 30
0.0
 10
130.4524
 20
-47.041
 30
0.0
 10
130.4524
 20
-47.041
 30
0.0
 10
131.1454
 20
-49.1818
 30
0.0
 10
131.9474
 20
-55.6628
 30
0.0
 10
134.8415
 20
-59.2267
 30
0.0
 10
134.8415
 20
-59.2267
 30
0.0
 10
134.8415
 20
-59.2267
 30
0.0
 10
134.8415
 20
-65.2267
 30
0.0
 10
134.8415
 20
-65.2267
 30
0.0
 10
134.8415
 20
-65.2267
 30
0.0
 10
134.8415
 20
-65.2267
 30
0.0
 10
176.9459
 20
-65.2267
 30
0.0
 10
176.9459
 20
-65.2267
 30
0.0
 10
176.9459
 20
-65.2267
 30
0.0
 10
176.9459
 20
-65.2267
 30
0.0
 10
176.9459
 20
-59.2267
 30
0.0
 10
176.9459
 20
-59.2267
 30
0.0
  0
SPLINE
  5
BE
330
1F
100
AcDbEntity
  8
Camada 1
 62
   250
370
    20
100
AcDbSpline
210
0.0
220
0.0
230
1.0
 70
    11
 71
     3
 72
    28
 73
    24
 74
     0
 42
0.000000001
 43
0.0000000001
 40
0.0
 40
0.0
 40
0.0
 40
0.0
 40
0.1428571428571428
 40
0.1428571428571428
 40
0.1428571428571428
 40
0.1428571428571428
 40
0.2857142857142857
 40
0.2857142857142857
 40
0.2857142857142857
 40
0.2857142857142857
 40
0.4285714285714285
 40
0.4285714285714285
 40
0.4285714285714285
 40
0.4285714285714285
 40
0.5714285714285714
 40
0.5714285714285714
 40
0.5714285714285714
 40
0.5714285714285714
 40
0.7142857142857143
 40
0.7142857142857143
 40
0.7142857142857143
 40
0.7142857142857143
 40
1.0
 40
1.0
 40
1.0
 40
1.0
 10
167.0034
 20
-25.1967
 30
0.0
 10
167.0034
 20
-25.1967
 30
0.0
 10
158.8356
 20
-24.8442
 30
0.0
 10
150.5126
 20
-24.1786
 30
0.0
 10
150.5126
 20
-24.1786
 30
0.0
 10
150.5126
 20
-24.1786
 30
0.0
 10
151.4518
 20
-14.8293
 30
0.0
 10
151.4518
 20
-14.8293
 30
0.0
 10
151.4518
 20
-14.8293
 30
0.0
 10
158.1799
 20
-15.463
 30
0.0
 10
165.6167
 20
-16.7767
 30
0.0
 10
173.3271
 20
-19.198
 30
0.0
 10
173.3271
 20
-19.198
 30
0.0
 10
173.3271
 20
-19.198
 30
0.0
 10
173.0395
 20
-21.8701
 30
0.0
 10
173.0395
 20
-21.8701
 30
0.0
 10
173.0395
 20
-21.8701
 30
0.0
 10
171.4451
 20
-21.9714
 30
0.0
 10
170.0394
 20
-22.0248
 30
0.0
 10
169.3724
 20
-21.9625
 30
0.0
 10
169.3724
 20
-21.9625
 30
0.0
 10
167.318
 20
-21.7737
 30
0.0
 10
167.0034
 20
-25.1967
 30
0.0
 10
167.0034
 20
-25.1967
 30
0.0
  0
SPLINE
  5
BF
330
1F
100
AcDbEntity
  8
Camada 1
 62
   250
370
    20
100
AcDbSpline
210
0.0
220
0.0
230
1.0
 70
    11
 71
     3
 72
    32
 73
    28
 74
     0
 42
0.000000001
 43
0.0000000001
 40
0.0
 40
0.0
 40
0.0
 40
0.0
 40
0.125
 40
0.125
 40
0.125
 40
0.125
 40
0.25
 40
0.25
 40
0.25
 40
0.25
 40
0.375
 40
0.375
 40
0.375
 40
0.375
 40
0.5
 40
0.5
 40
0.5
 40
0.5
 40
0.625
 40
0.625
 40
0.625
 40
0.625
 40
0.75
 40
0.75
 40
0.75
 40
0.75
 40
1.0
 40
1.0
 40
1.0
 40
1.0
 10
151.309
 20
13.4446
 30
0.0
 10
143.3455
 20
12.5369
 30
0.0
 10
135.3565
 20
11.5919
 30
0.0
 10
130.6454
 20
10.9472
 30
0.0
 10
130.6454
 20
10.9472
 30
0.0
 10
131.5706
 20
11.7776
 30
0.0
 10
132.4897
 20
12.6147
 30
0.0
 10
133.4019
 20
13.4595
 30
0.0
 10
133.4019
 20
13.4595
 30
0.0
 10
136.7948
 20
16.6021
 30
0.0
 10
140.1609
 20
19.8849
 30
0.0
 10
143.2121
 20
23.3626
 30
0.0
 10
143.2121
 20
23.3626
 30
0.0
 10
143.2121
 20
23.3626
 30
0.0
 10
143.5378
 20
23.734
 30
0.0
 10
143.5378
 20
23.734
 30
0.0
 10
143.5378
 20
23.734
 30
0.0
 10
143.8847
 20
23.7744
 30
0.0
 10
144.2327
 20
23.8092
 30
0.0
 10
144.5808
 20
23.837
 30
0.0
 10
144.5808
 20
23.837
 30
0.0
 10
146.9448
 20
24.0278
 30
0.0
 10
149.7176
 20
24.0378
 30
0.0
 10
152.5409
 20
23.9499
 30
0.0
 10
152.5409
 20
23.9499
 30
0.0
 10
152.1209
 20
20.3666
 30
0.0
 10
151.7065
 20
16.8541
 30
0.0
 10
151.309
 20
13.4446
 30
0.0
  0
SPLINE
  5
C0
330
1F
100
AcDbEntity
  8
Camada 1
 62
   250
370
    20
100
AcDbSpline
210
0.0
220
0.0
230
1.0
 70
    11
 71
     3
 72
    36
 73
    32
 74
     0
 42
0.000000001
 43
0.0000000001
 40
0.0
 40
0.0
 40
0.0
 40
0.0
 40
0.1111111111111111
 40
0.1111111111111111
 40
0.1111111111111111
 40
0.1111111111111111
 40
0.2222222222222222
 40
0.2222222222222222
 40
0.2222222222222222
 40
0.2222222222222222
 40
0.3333333333333333
 40
0.3333333333333333
 40
0.3333333333333333
 40
0.3333333333333333
 40
0.4444444444444444
 40
0.4444444444444444
 40
0.4444444444444444
 40
0.4444444444444444
 40
0.5555555555555556
 40
0.5555555555555556
 40
0.5555555555555556
 40
0.5555555555555556
 40
0.6666666666666666
 40
0.6666666666666666
 40
0.6666666666666666
 40
0.6666666666666666
 40
0.7777777777777778
 40
0.7777777777777778
 40
0.7777777777777778
 40
0.7777777777777778
 40
1.0
 40
1.0
 40
1.0
 40
1.0
 10
152.8695
 20
49.0399
 30
0.0
 10
145.6685
 20
47.6143
 30
0.0
 10
138.5206
 20
46.0156
 30
0.0
 10
135.4845
 20
44.7736
 30
0.0
 10
135.4845
 20
44.7736
 30
0.0
 10
139.3442
 20
50.8008
 30
0.0
 10
143.1312
 20
56.9013
 30
0.0
 10
146.6831
 20
63.114
 30
0.0
 10
146.6831
 20
63.114
 30
0.0
 10
146.6831
 20
63.114
 30
0.0
 10
146.9518
 20
63.5838
 30
0.0
 10
146.9518
 20
63.5838
 30
0.0
 10
146.9518
 20
63.5838
 30
0.0
 10
149.6288
 20
64.5922
 30
0.0
 10
152.7288
 20
65.3341
 30
0.0
 10
155.9953
 20
65.2676
 30
0.0
 10
155.9953
 20
65.2676
 30
0.0
 10
156.4802
 20
65.2567
 30
0.0
 10
156.9467
 20
65.2417
 30
0.0
 10
157.4125
 20
65.2247
 30
0.0
 10
157.4125
 20
65.2247
 30
0.0
 10
157.4125
 20
65.2247
 30
0.0
 10
156.1566
 20
54.6086
 30
0.0
 10
156.1566
 20
54.6086
 30
0.0
 10
156.1566
 20
54.6086
 30
0.0
 10
153.4232
 20
54.4678
 30
0.0
 10
152.0401
 20
53.2869
 30
0.0
 10
151.8993
 20
51.7549
 30
0.0
 10
151.8993
 20
51.7549
 30
0.0
 10
151.8303
 20
50.7822
 30
0.0
 10
152.2193
 20
49.8184
 30
0.0
 10
152.8695
 20
49.0399
 30
0.0
  0
SPLINE
  5
C1
330
1F
100
AcDbEntity
  8
Camada 1
 62
   250
370
    20
100
AcDbSpline
210
0.0
220
0.0
230
1.0
 70
    11
 71
     3
 72
    52
 73
    48
 74
     0
 42
0.000000001
 43
0.0000000001
 40
0.0
 40
0.0
 40
0.0
 40
0.0
 40
0.0769230769230769
 40
0.0769230769230769
 40
0.0769230769230769
 40
0.0769230769230769
 40
0.1538461538461539
 40
0.1538461538461539
 40
0.1538461538461539
 40
0.1538461538461539
 40
0.2307692307692308
 40
0.2307692307692308
 40
0.2307692307692308
 40
0.2307692307692308
 40
0.3076923076923077
 40
0.3076923076923077
 40
0.3076923076923077
 40
0.3076923076923077
 40
0.3846153846153846
 40
0.3846153846153846
 40
0.3846153846153846
 40
0.3846153846153846
 40
0.4615384615384616
 40
0.4615384615384616
 40
0.4615384615384616
 40
0.4615384615384616
 40
0.5384615384615384
 40
0.5384615384615384
 40
0.5384615384615384
 40
0.5384615384615384
 40
0.6153846153846154
 40
0.6153846153846154
 40
0.6153846153846154
 40
0.6153846153846154
 40
0.6923076923076923
 40
0.6923076923076923
 40
0.6923076923076923
 40
0.6923076923076923
 40
0.7692307692307693
 40
0.7692307692307693
 40
0.7692307692307693
 40
0.7692307692307693
 40
0.8461538461538461
 40
0.8461538461538461
 40
0.8461538461538461
 40
0.8461538461538461
 40
1.0
 40
1.0
 40
1.0
 40
1.0
 10
141.8043
 20
23.487
 30
0.0
 10
138.908
 20
20.2479
 30
0.0
 10
135.7514
 20
17.178
 30
0.0
 10
132.5663
 20
14.2301
 30
0.0
 10
132.5663
 20
14.2301
 30
0.0
 10
131.4277
 20
13.1761
 30
0.0
 10
130.2777
 20
12.1342
 30
0.0
 10
129.1187
 20
11.1026
 30
0.0
 10
129.1187
 20
11.1026
 30
0.0
 10
129.1187
 20
11.1026
 30
0.0
 10
128.6199
 20
10.6586
 30
0.0
 10
128.6199
 20
10.6586
 30
0.0
 10
128.6199
 20
10.6586
 30
0.0
 10
128.6199
 20
10.6586
 30
0.0
 10
127.8134
 20
10.5324
 30
0.0
 10
127.8134
 20
10.5324
 30
0.0
 10
127.8134
 20
10.5324
 30
0.0
 10
127.8134
 20
10.5324
 30
0.0
 10
127.5824
 20
10.1362
 30
0.0
 10
127.209
 20
9.4168
 30
0.0
 10
127.209
 20
9.4168
 30
0.0
 10
127.209
 20
9.4168
 30
0.0
 10
126.3693
 20
8.6828
 30
0.0
 10
126.3693
 20
8.6828
 30
0.0
 10
126.3693
 20
8.6828
 30
0.0
 10
123.7631
 20
6.4048
 30
0.0
 10
121.1095
 20
4.1855
 30
0.0
 10
118.4273
 20
1.9994
 30
0.0
 10
118.4273
 20
1.9994
 30
0.0
 10
119.1105
 20
2.9169
 30
0.0
 10
119.7724
 20
3.8513
 30
0.0
 10
120.4202
 20
4.7874
 30
0.0
 10
120.4202
 20
4.7874
 30
0.0
 10
121.7678
 20
6.7351
 30
0.0
 10
123.0645
 20
8.7206
 30
0.0
 10
124.3322
 20
10.7209
 30
0.0
 10
124.3322
 20
10.7209
 30
0.0
 10
126.0065
 20
13.3626
 30
0.0
 10
127.6321
 20
16.0364
 30
0.0
 10
129.2256
 20
18.7274
 30
0.0
 10
129.2256
 20
18.7274
 30
0.0
 10
129.2256
 20
18.7274
 30
0.0
 10
129.6082
 20
19.3737
 30
0.0
 10
129.6082
 20
19.3737
 30
0.0
 10
129.6082
 20
19.3737
 30
0.0
 10
132.739
 20
21.0577
 30
0.0
 10
137.1559
 20
22.7189
 30
0.0
 10
141.8043
 20
23.487
 30
0.0
  0
SPLINE
  5
C2
330
1F
100
AcDbEntity
  8
Camada 1
 62
   250
370
    20
100
AcDbSpline
210
0.0
220
0.0
230
1.0
 70
    11
 71
     3
 72
    84
 73
    80
 74
     0
 42
0.000000001
 43
0.0000000001
 40
0.0
 40
0.0
 40
0.0
 40
0.0
 40
0.0476190476190476
 40
0.0476190476190476
 40
0.0476190476190476
 40
0.0476190476190476
 40
0.0952380952380952
 40
0.0952380952380952
 40
0.0952380952380952
 40
0.0952380952380952
 40
0.1428571428571428
 40
0.1428571428571428
 40
0.1428571428571428
 40
0.1428571428571428
 40
0.1904761904761905
 40
0.1904761904761905
 40
0.1904761904761905
 40
0.1904761904761905
 40
0.2380952380952381
 40
0.2380952380952381
 40
0.2380952380952381
 40
0.2380952380952381
 40
0.2857142857142857
 40
0.2857142857142857
 40
0.2857142857142857
 40
0.2857142857142857
 40
0.3333333333333333
 40
0.3333333333333333
 40
0.3333333333333333
 40
0.3333333333333333
 40
0.3809523809523809
 40
0.3809523809523809
 40
0.3809523809523809
 40
0.3809523809523809
 40
0.4285714285714285
 40
0.4285714285714285
 40
0.4285714285714285
 40
0.4285714285714285
 40
0.4761904761904762
 40
0.4761904761904762
 40
0.4761904761904762
 40
0.4761904761904762
 40
0.5238095238095238
 40
0.5238095238095238
 40
0.5238095238095238
 40
0.5238095238095238
 40
0.5714285714285714
 40
0.5714285714285714
 40
0.5714285714285714
 40
0.5714285714285714
 40
0.6190476190476191
 40
0.6190476190476191
 40
0.6190476190476191
 40
0.6190476190476191
 40
0.6666666666666666
 40
0.6666666666666666
 40
0.6666666666666666
 40
0.6666666666666666
 40
0.7142857142857143
 40
0.7142857142857143
 40
0.7142857142857143
 40
0.7142857142857143
 40
0.7619047619047619
 40
0.7619047619047619
 40
0.7619047619047619
 40
0.7619047619047619
 40
0.8095238095238095
 40
0.8095238095238095
 40
0.8095238095238095
 40
0.8095238095238095
 40
0.8571428571428571
 40
0.8571428571428571
 40
0.8571428571428571
 40
0.8571428571428571
 40
0.9047619047619048
 40
0.9047619047619048
 40
0.9047619047619048
 40
0.9047619047619048
 40
1.0
 40
1.0
 40
1.0
 40
1.0
 10
133.0691
 20
43.1141
 30
0.0
 10
131.8735
 20
41.8747
 30
0.0
 10
129.9183
 20
38.2813
 30
0.0
 10
128.7595
 20
36.5137
 30
0.0
 10
128.7595
 20
36.5137
 30
0.0
 10
128.326
 20
35.8526
 30
0.0
 10
127.8894
 20
35.1935
 30
0.0
 10
127.4521
 20
34.5348
 30
0.0
 10
127.4521
 20
34.5348
 30
0.0
 10
120.7036
 20
24.369
 30
0.0
 10
113.7658
 20
14.3001
 30
0.0
 10
106.6875
 20
4.3594
 30
0.0
 10
106.6875
 20
4.3594
 30
0.0
 10
106.6875
 20
4.3594
 30
0.0
 10
105.3948
 20
5.3709
 30
0.0
 10
105.3948
 20
5.3709
 30
0.0
 10
105.3948
 20
5.3709
 30
0.0
 10
105.3948
 20
5.3709
 30
0.0
 10
102.4734
 20
7.5394
 30
0.0
 10
102.4734
 20
7.5394
 30
0.0
 10
102.4734
 20
7.5394
 30
0.0
 10
102.4734
 20
7.5394
 30
0.0
 10
98.4752
 20
11.3289
 30
0.0
 10
98.4752
 20
11.3289
 30
0.0
 10
98.4752
 20
11.3289
 30
0.0
 10
99.074
 20
13.7038
 30
0.0
 10
99.5798
 20
15.2053
 30
0.0
 10
99.5798
 20
15.2053
 30
0.0
 10
99.5798
 20
15.2053
 30
0.0
 10
99.5798
 20
15.2053
 30
0.0
 10
94.5893
 20
15.0221
 30
0.0
 10
94.5893
 20
15.0221
 30
0.0
 10
94.5893
 20
15.0221
 30
0.0
 10
90.2796
 20
19.1199
 30
0.0
 10
86.5181
 20
22.7089
 30
0.0
 10
83.8149
 20
25.3003
 30
0.0
 10
83.8149
 20
25.3003
 30
0.0
 10
86.795
 20
26.9838
 30
0.0
 10
89.6494
 20
28.9786
 30
0.0
 10
92.3724
 20
31.0464
 30
0.0
 10
92.3724
 20
31.0464
 30
0.0
 10
95.6618
 20
33.5443
 30
0.0
 10
98.8314
 20
36.2175
 30
0.0
 10
101.9163
 20
38.9628
 30
0.0
 10
101.9163
 20
38.9628
 30
0.0
 10
108.9245
 20
45.1995
 30
0.0
 10
115.6031
 20
51.8909
 30
0.0
 10
122.0663
 20
58.6881
 30
0.0
 10
122.0663
 20
58.6881
 30
0.0
 10
131.4574
 20
68.5646
 30
0.0
 10
140.5011
 20
78.8188
 30
0.0
 10
149.2945
 20
89.2304
 30
0.0
 10
149.2945
 20
89.2304
 30
0.0
 10
153.6153
 20
94.3464
 30
0.0
 10
157.9011
 20
99.5145
 30
0.0
 10
162.0803
 20
104.7493
 30
0.0
 10
162.0803
 20
104.7493
 30
0.0
 10
161.7936
 20
102.2508
 30
0.0
 10
161.002
 20
95.541
 30
0.0
 10
159.9192
 20
86.387
 30
0.0
 10
159.9192
 20
86.387
 30
0.0
 10
155.9419
 20
85.8252
 30
0.0
 10
151.2641
 20
84.9134
 30
0.0
 10
146.2721
 20
83.4314
 30
0.0
 10
146.2721
 20
83.4314
 30
0.0
 10
146.2721
 20
83.4314
 30
0.0
 10
138.6307
 20
71.7017
 30
0.0
 10
138.1143
 20
58.6248
 30
0.0
 10
138.1143
 20
58.6248
 30
0.0
 10
138.1143
 20
58.6248
 30
0.0
 10
140.9521
 20
60.9776
 30
0.0
 10
145.245
 20
62.8846
 30
0.0
 10
145.245
 20
62.8846
 30
0.0
 10
141.6312
 20
56.6094
 30
0.0
 10
137.7855
 20
50.4459
 30
0.0
 10
133.8688
 20
44.3571
 30
0.0
 10
133.8688
 20
44.3571
 30
0.0
 10
133.8688
 20
44.3571
 30
0.0
 10
133.0691
 20
43.1141
 30
0.0
 10
133.0691
 20
43.1141
 30
0.0
  0
SPLINE
  5
C3
330
1F
100
AcDbEntity
  8
Camada 1
 62
   250
370
    20
100
AcDbSpline
210
0.0
220
0.0
230
1.0
 70
    11
 71
     3
 72
    28
 73
    24
 74
     0
 42
0.000000001
 43
0.0000000001
 40
0.0
 40
0.0
 40
0.0
 40
0.0
 40
0.1428571428571428
 40
0.1428571428571428
 40
0.1428571428571428
 40
0.1428571428571428
 40
0.2857142857142857
 40
0.2857142857142857
 40
0.2857142857142857
 40
0.2857142857142857
 40
0.4285714285714285
 40
0.4285714285714285
 40
0.4285714285714285
 40
0.4285714285714285
 40
0.5714285714285714
 40
0.5714285714285714
 40
0.5714285714285714
 40
0.5714285714285714
 40
0.7142857142857143
 40
0.7142857142857143
 40
0.7142857142857143
 40
0.7142857142857143
 40
1.0
 40
1.0
 40
1.0
 40
1.0
 10
141.2926
 20
-23.2693
 30
0.0
 10
137.8607
 20
-22.8437
 30
0.0
 10
135.0836
 20
-22.3498
 30
0.0
 10
133.8155
 20
-21.7957
 30
0.0
 10
133.8155
 20
-21.7957
 30
0.0
 10
133.8155
 20
-21.7957
 30
0.0
 10
133.805
 20
-21.8232
 30
0.0
 10
133.805
 20
-21.8232
 30
0.0
 10
133.805
 20
-21.8232
 30
0.0
 10
131.8456
 20
-20.0375
 30
0.0
 10
129.4097
 20
-17.7864
 30
0.0
 10
126.6573
 20
-15.2248
 30
0.0
 10
126.6573
 20
-15.2248
 30
0.0
 10
127.6515
 20
-15.092
 30
0.0
 10
128.7682
 20
-14.9618
 30
0.0
 10
129.9963
 20
-14.8429
 30
0.0
 10
129.9963
 20
-14.8429
 30
0.0
 10
129.9963
 20
-14.8429
 30
0.0
 10
130.3819
 20
-15.1324
 30
0.0
 10
130.3819
 20
-15.1324
 30
0.0
 10
130.3819
 20
-15.1324
 30
0.0
 10
134.0105
 20
-17.8557
 30
0.0
 10
137.647
 20
-20.5686
 30
0.0
 10
141.2926
 20
-23.2693
 30
0.0
  0
SPLINE
  5
C4
330
1F
100
AcDbEntity
  8
Camada 1
 62
   250
370
    20
100
AcDbSpline
210
0.0
220
0.0
230
1.0
 70
    11
 71
     3
 72
    28
 73
    24
 74
     0
 42
0.000000001
 43
0.0000000001
 40
0.0
 40
0.0
 40
0.0
 40
0.0
 40
0.1428571428571428
 40
0.1428571428571428
 40
0.1428571428571428
 40
0.1428571428571428
 40
0.2857142857142857
 40
0.2857142857142857
 40
0.2857142857142857
 40
0.2857142857142857
 40
0.4285714285714285
 40
0.4285714285714285
 40
0.4285714285714285
 40
0.4285714285714285
 40
0.5714285714285714
 40
0.5714285714285714
 40
0.5714285714285714
 40
0.5714285714285714
 40
0.7142857142857143
 40
0.7142857142857143
 40
0.7142857142857143
 40
0.7142857142857143
 40
1.0
 40
1.0
 40
1.0
 40
1.0
 10
125.963
 20
6.8358
 30
0.0
 10
124.5322
 20
3.653
 30
0.0
 10
122.6529
 20
-1.3443
 30
0.0
 10
121.7284
 20
-7.186
 30
0.0
 10
121.7284
 20
-7.186
 30
0.0
 10
120.6793
 20
-6.3928
 30
0.0
 10
119.6317
 20
-5.5978
 30
0.0
 10
118.5863
 20
-4.8
 30
0.0
 10
118.5863
 20
-4.8
 30
0.0
 10
118.5863
 20
-4.8
 30
0.0
 10
116.2112
 20
-2.9875
 30
0.0
 10
116.2112
 20
-2.9875
 30
0.0
 10
116.2112
 20
-2.9875
 30
0.0
 10
116.3916
 20
-2.2173
 30
0.0
 10
116.5949
 20
-1.4931
 30
0.0
 10
116.8244
 20
-0.8293
 30
0.0
 10
116.8244
 20
-0.8293
 30
0.0
 10
116.8244
 20
-0.8293
 30
0.0
 10
117.4498
 20
-0.2537
 30
0.0
 10
117.4498
 20
-0.2537
 30
0.0
 10
117.4498
 20
-0.2537
 30
0.0
 10
120.322
 20
2.0668
 30
0.0
 10
123.1633
 20
4.4279
 30
0.0
 10
125.963
 20
6.8358
 30
0.0
  0
SPLINE
  5
C5
330
1F
100
AcDbEntity
  8
Camada 1
 62
   250
370
    20
100
AcDbSpline
210
0.0
220
0.0
230
1.0
 70
    11
 71
     3
 72
    48
 73
    44
 74
     0
 42
0.000000001
 43
0.0000000001
 40
0.0
 40
0.0
 40
0.0
 40
0.0
 40
0.0833333333333333
 40
0.0833333333333333
 40
0.0833333333333333
 40
0.0833333333333333
 40
0.1666666666666667
 40
0.1666666666666667
 40
0.1666666666666667
 40
0.1666666666666667
 40
0.25
 40
0.25
 40
0.25
 40
0.25
 40
0.3333333333333333
 40
0.3333333333333333
 40
0.3333333333333333
 40
0.3333333333333333
 40
0.4166666666666667
 40
0.4166666666666667
 40
0.4166666666666667
 40
0.4166666666666667
 40
0.5
 40
0.5
 40
0.5
 40
0.5
 40
0.5833333333333334
 40
0.5833333333333334
 40
0.5833333333333334
 40
0.5833333333333334
 40
0.6666666666666666
 40
0.6666666666666666
 40
0.6666666666666666
 40
0.6666666666666666
 40
0.75
 40
0.75
 40
0.75
 40
0.75
 40
0.8333333333333334
 40
0.8333333333333334
 40
0.8333333333333334
 40
0.8333333333333334
 40
1.0
 40
1.0
 40
1.0
 40
1.0
 10
115.709
 20
0.3607
 30
0.0
 10
115.709
 20
0.3607
 30
0.0
 10
115.4647
 20
0.0653
 30
0.0
 10
115.4647
 20
0.0653
 30
0.0
 10
115.4647
 20
0.0653
 30
0.0
 10
115.4647
 20
0.0653
 30
0.0
 10
112.3446
 20
-0.0223
 30
0.0
 10
112.3446
 20
-0.0223
 30
0.0
 10
112.3446
 20
-0.0223
 30
0.0
 10
112.3446
 20
-0.0223
 30
0.0
 10
111.9202
 20
0.305
 30
0.0
 10
111.9202
 20
0.305
 30
0.0
 10
111.9202
 20
0.305
 30
0.0
 10
110.4719
 20
1.4215
 30
0.0
 10
109.0258
 20
2.5411
 30
0.0
 10
107.5821
 20
3.6638
 30
0.0
 10
107.5821
 20
3.6638
 30
0.0
 10
114.5808
 20
13.4887
 30
0.0
 10
121.4432
 20
23.4418
 30
0.0
 10
128.1169
 20
33.4914
 30
0.0
 10
128.1169
 20
33.4914
 30
0.0
 10
125.3375
 20
25.0757
 30
0.0
 10
124.3205
 20
15.3358
 30
0.0
 10
125.9847
 20
16.917
 30
0.0
 10
125.9847
 20
16.917
 30
0.0
 10
126.3887
 20
17.3015
 30
0.0
 10
126.9225
 20
17.7158
 30
0.0
 10
127.5586
 20
18.1427
 30
0.0
 10
127.5586
 20
18.1427
 30
0.0
 10
126.6103
 20
16.5569
 30
0.0
 10
125.6508
 20
14.9779
 30
0.0
 10
124.677
 20
13.4077
 30
0.0
 10
124.677
 20
13.4077
 30
0.0
 10
124.2457
 20
12.7122
 30
0.0
 10
123.8112
 20
12.0186
 30
0.0
 10
123.3731
 20
11.3273
 30
0.0
 10
123.3731
 20
11.3273
 30
0.0
 10
122.0878
 20
9.2989
 30
0.0
 10
120.772
 20
7.286
 30
0.0
 10
119.4035
 20
5.3125
 30
0.0
 10
119.4035
 20
5.3125
 30
0.0
 10
118.2344
 20
3.6266
 30
0.0
 10
117.0172
 20
1.9419
 30
0.0
 10
115.709
 20
0.3607
 30
0.0
  0
SPLINE
  5
C6
330
1F
100
AcDbEntity
  8
Camada 1
 62
   250
370
    20
100
AcDbSpline
210
0.0
220
0.0
230
1.0
 70
    11
 71
     3
 72
    24
 73
    20
 74
     0
 42
0.000000001
 43
0.0000000001
 40
0.0
 40
0.0
 40
0.0
 40
0.0
 40
0.1666666666666667
 40
0.1666666666666667
 40
0.1666666666666667
 40
0.1666666666666667
 40
0.3333333333333333
 40
0.3333333333333333
 40
0.3333333333333333
 40
0.3333333333333333
 40
0.5
 40
0.5
 40
0.5
 40
0.5
 40
0.6666666666666666
 40
0.6666666666666666
 40
0.6666666666666666
 40
0.6666666666666666
 40
1.0
 40
1.0
 40
1.0
 40
1.0
 10
121.5375
 20
-8.4646
 30
0.0
 10
121.4605
 20
-9.0538
 30
0.0
 10
121.3927
 20
-9.6495
 30
0.0
 10
121.3363
 20
-10.2533
 30
0.0
 10
121.3363
 20
-10.2533
 30
0.0
 10
119.5492
 20
-8.5785
 30
0.0
 10
117.6911
 20
-6.8323
 30
0.0
 10
115.7936
 20
-5.0476
 30
0.0
 10
115.7936
 20
-5.0476
 30
0.0
 10
115.8424
 20
-4.7644
 30
0.0
 10
115.8941
 20
-4.486
 30
0.0
 10
115.9479
 20
-4.2117
 30
0.0
 10
115.9479
 20
-4.2117
 30
0.0
 10
117.7431
 20
-5.5829
 30
0.0
 10
119.5401
 20
-6.9517
 30
0.0
 10
121.3407
 20
-8.3156
 30
0.0
 10
121.3407
 20
-8.3156
 30
0.0
 10
121.3407
 20
-8.3156
 30
0.0
 10
121.5375
 20
-8.4646
 30
0.0
 10
121.5375
 20
-8.4646
 30
0.0
  0
SPLINE
  5
C7
330
1F
100
AcDbEntity
  8
Camada 1
 62
   250
370
    20
100
AcDbSpline
210
0.0
220
0.0
230
1.0
 70
    11
 71
     3
 72
    16
 73
    12
 74
     0
 42
0.000000001
 43
0.0000000001
 40
0.0
 40
0.0
 40
0.0
 40
0.0
 40
0.25
 40
0.25
 40
0.25
 40
0.25
 40
0.5
 40
0.5
 40
0.5
 40
0.5
 40
1.0
 40
1.0
 40
1.0
 40
1.0
 10
110.5546
 20
-0.0717
 30
0.0
 10
110.5546
 20
-0.0717
 30
0.0
 10
110.5175
 20
-0.0726
 30
0.0
 10
110.5175
 20
-0.0726
 30
0.0
 10
110.5175
 20
-0.0726
 30
0.0
 10
110.5175
 20
-0.0726
 30
0.0
 10
110.3453
 20
0.0898
 30
0.0
 10
110.3453
 20
0.0898
 30
0.0
 10
110.3453
 20
0.0898
 30
0.0
 10
110.3453
 20
0.0898
 30
0.0
 10
110.5546
 20
-0.0717
 30
0.0
 10
110.5546
 20
-0.0717
 30
0.0
  0
SPLINE
  5
C8
330
1F
100
AcDbEntity
  8
Camada 1
 62
   250
370
    20
100
AcDbSpline
210
0.0
220
0.0
230
1.0
 70
    11
 71
     3
 72
    40
 73
    36
 74
     0
 42
0.000000001
 43
0.0000000001
 40
0.0
 40
0.0
 40
0.0
 40
0.0
 40
0.1
 40
0.1
 40
0.1
 40
0.1
 40
0.2
 40
0.2
 40
0.2
 40
0.2
 40
0.3
 40
0.3
 40
0.3
 40
0.3
 40
0.4
 40
0.4
 40
0.4
 40
0.4
 40
0.5
 40
0.5
 40
0.5
 40
0.5
 40
0.6
 40
0.6
 40
0.6
 40
0.6
 40
0.7
 40
0.7
 40
0.7
 40
0.7
 40
0.8
 40
0.8
 40
0.8
 40
0.8
 40
1.0
 40
1.0
 40
1.0
 40
1.0
 10
185.0647
 20
4.6781
 30
0.0
 10
185.0647
 20
4.6781
 30
0.0
 10
178.0939
 20
4.778
 30
0.0
 10
178.0939
 20
4.778
 30
0.0
 10
178.0939
 20
4.778
 30
0.0
 10
178.0939
 20
4.778
 30
0.0
 10
178.5842
 20
9.8788
 30
0.0
 10
178.5842
 20
9.8788
 30
0.0
 10
178.5842
 20
9.8788
 30
0.0
 10
181.2352
 20
9.6566
 30
0.0
 10
183.9412
 20
9.2557
 30
0.0
 10
186.3995
 20
8.8087
 30
0.0
 10
186.3995
 20
8.8087
 30
0.0
 10
186.4734
 20
8.3647
 30
0.0
 10
186.5578
 20
8.1361
 30
0.0
 10
186.6591
 20
8.221
 30
0.0
 10
186.6591
 20
8.221
 30
0.0
 10
186.7709
 20
8.3133
 30
0.0
 10
187.3253
 20
8.3947
 30
0.0
 10
188.1781
 20
8.4711
 30
0.0
 10
188.1781
 20
8.4711
 30
0.0
 10
191.4833
 20
7.814
 30
0.0
 10
194.1289
 20
7.1399
 30
0.0
 10
195.2523
 20
6.8413
 30
0.0
 10
195.2523
 20
6.8413
 30
0.0
 10
195.2384
 20
6.4563
 30
0.0
 10
195.2299
 20
6.0723
 30
0.0
 10
195.2159
 20
5.6873
 30
0.0
 10
195.2159
 20
5.6873
 30
0.0
 10
195.2159
 20
5.6873
 30
0.0
 10
185.4208
 20
6.0218
 30
0.0
 10
185.4208
 20
6.0218
 30
0.0
 10
185.4208
 20
6.0218
 30
0.0
 10
185.266
 20
5.7027
 30
0.0
 10
185.1522
 20
5.2399
 30
0.0
 10
185.0647
 20
4.6781
 30
0.0
  0
SPLINE
  5
C9
330
1F
100
AcDbEntity
  8
Camada 1
 62
   250
370
    20
100
AcDbSpline
210
0.0
220
0.0
230
1.0
 70
    11
 71
     3
 72
    16
 73
    12
 74
     0
 42
0.000000001
 43
0.0000000001
 40
0.0
 40
0.0
 40
0.0
 40
0.0
 40
0.25
 40
0.25
 40
0.25
 40
0.25
 40
0.5
 40
0.5
 40
0.5
 40
0.5
 40
1.0
 40
1.0
 40
1.0
 40
1.0
 10
196.5802
 20
51.4573
 30
0.0
 10
195.8615
 20
51.4076
 30
0.0
 10
195.164
 20
51.3563
 30
0.0
 10
194.4983
 20
51.306
 30
0.0
 10
194.4983
 20
51.306
 30
0.0
 10
195.2452
 20
52.6397
 30
0.0
 10
195.9801
 20
53.9827
 30
0.0
 10
196.6929
 20
55.3356
 30
0.0
 10
196.6929
 20
55.3356
 30
0.0
 10
196.6929
 20
55.3356
 30
0.0
 10
196.5802
 20
51.4573
 30
0.0
 10
196.5802
 20
51.4573
 30
0.0
  0
SPLINE
  5
CA
330
1F
100
AcDbEntity
  8
Camada 1
 62
   250
370
    20
100
AcDbSpline
210
0.0
220
0.0
230
1.0
 70
    11
 71
     3
 72
    24
 73
    20
 74
     0
 42
0.000000001
 43
0.0000000001
 40
0.0
 40
0.0
 40
0.0
 40
0.0
 40
0.1666666666666667
 40
0.1666666666666667
 40
0.1666666666666667
 40
0.1666666666666667
 40
0.3333333333333333
 40
0.3333333333333333
 40
0.3333333333333333
 40
0.3333333333333333
 40
0.5
 40
0.5
 40
0.5
 40
0.5
 40
0.6666666666666666
 40
0.6666666666666666
 40
0.6666666666666666
 40
0.6666666666666666
 40
1.0
 40
1.0
 40
1.0
 40
1.0
 10
143.5494
 20
-23.5324
 30
0.0
 10
143.5494
 20
-23.5324
 30
0.0
 10
142.9458
 20
-23.0853
 30
0.0
 10
142.9458
 20
-23.0853
 30
0.0
 10
142.9458
 20
-23.0853
 30
0.0
 10
139.184
 20
-20.2994
 30
0.0
 10
135.4305
 20
-17.5022
 30
0.0
 10
131.6858
 20
-14.6931
 30
0.0
 10
131.6858
 20
-14.6931
 30
0.0
 10
136.1056
 20
-14.3341
 30
0.0
 10
141.7056
 20
-14.1571
 30
0.0
 10
148.0732
 20
-14.5641
 30
0.0
 10
148.0732
 20
-14.5641
 30
0.0
 10
147.6188
 20
-18.5744
 30
0.0
 10
147.2663
 20
-21.7597
 30
0.0
 10
147.048
 20
-23.8809
 30
0.0
 10
147.048
 20
-23.8809
 30
0.0
 10
145.8523
 20
-23.7725
 30
0.0
 10
144.6787
 20
-23.6548
 30
0.0
 10
143.5494
 20
-23.5324
 30
0.0
  0
SPLINE
  5
CB
330
1F
100
AcDbEntity
  8
Camada 1
 62
   250
370
    20
100
AcDbSpline
210
0.0
220
0.0
230
1.0
 70
    11
 71
     3
 72
    20
 73
    16
 74
     0
 42
0.000000001
 43
0.0000000001
 40
0.0
 40
0.0
 40
0.0
 40
0.0
 40
0.2
 40
0.2
 40
0.2
 40
0.2
 40
0.4
 40
0.4
 40
0.4
 40
0.4
 40
0.6
 40
0.6
 40
0.6
 40
0.6
 40
1.0
 40
1.0
 40
1.0
 40
1.0
 10
175.9282
 20
4.809
 30
0.0
 10
175.9282
 20
4.809
 30
0.0
 10
171.9509
 20
4.8663
 30
0.0
 10
171.9509
 20
4.8663
 30
0.0
 10
171.9509
 20
4.8663
 30
0.0
 10
172.1522
 20
6.654
 30
0.0
 10
172.4653
 20
8.3887
 30
0.0
 10
172.9037
 20
10.0196
 30
0.0
 10
172.9037
 20
10.0196
 30
0.0
 10
174.0497
 20
10.0775
 30
0.0
 10
175.2571
 20
10.0695
 30
0.0
 10
176.4975
 20
10.0146
 30
0.0
 10
176.4975
 20
10.0146
 30
0.0
 10
176.4975
 20
10.0146
 30
0.0
 10
175.9282
 20
4.809
 30
0.0
 10
175.9282
 20
4.809
 30
0.0
  0
SPLINE
  5
CC
330
1F
100
AcDbEntity
  8
Camada 1
 62
   250
370
    20
100
AcDbSpline
210
0.0
220
0.0
230
1.0
 70
    11
 71
     3
 72
    28
 73
    24
 74
     0
 42
0.000000001
 43
0.0000000001
 40
0.0
 40
0.0
 40
0.0
 40
0.0
 40
0.1428571428571428
 40
0.1428571428571428
 40
0.1428571428571428
 40
0.1428571428571428
 40
0.2857142857142857
 40
0.2857142857142857
 40
0.2857142857142857
 40
0.2857142857142857
 40
0.4285714285714285
 40
0.4285714285714285
 40
0.4285714285714285
 40
0.4285714285714285
 40
0.5714285714285714
 40
0.5714285714285714
 40
0.5714285714285714
 40
0.5714285714285714
 40
0.7142857142857143
 40
0.7142857142857143
 40
0.7142857142857143
 40
0.7142857142857143
 40
1.0
 40
1.0
 40
1.0
 40
1.0
 10
182.2724
 20
34.6686
 30
0.0
 10
182.2724
 20
34.6686
 30
0.0
 10
182.0086
 20
34.3371
 30
0.0
 10
182.0086
 20
34.3371
 30
0.0
 10
182.0086
 20
34.3371
 30
0.0
 10
181.6488
 20
34.3029
 30
0.0
 10
181.2895
 20
34.2696
 30
0.0
 10
180.9256
 20
34.2308
 30
0.0
 10
180.9256
 20
34.2308
 30
0.0
 10
180.9256
 20
34.2308
 30
0.0
 10
181.4849
 20
40.0587
 30
0.0
 10
181.4849
 20
40.0587
 30
0.0
 10
181.4849
 20
40.0587
 30
0.0
 10
183.1905
 20
40.1587
 30
0.0
 10
184.8554
 20
40.2264
 30
0.0
 10
186.3846
 20
40.2745
 30
0.0
 10
186.3846
 20
40.2745
 30
0.0
 10
186.3846
 20
40.2745
 30
0.0
 10
185.9704
 20
39.6748
 30
0.0
 10
185.9704
 20
39.6748
 30
0.0
 10
185.9704
 20
39.6748
 30
0.0
 10
184.7916
 20
37.968
 30
0.0
 10
183.5639
 20
36.292
 30
0.0
 10
182.2724
 20
34.6686
 30
0.0
  0
SPLINE
  5
CD
330
1F
100
AcDbEntity
  8
Camada 1
 62
   250
370
    20
100
AcDbSpline
210
0.0
220
0.0
230
1.0
 70
    11
 71
     3
 72
    44
 73
    40
 74
     0
 42
0.000000001
 43
0.0000000001
 40
0.0
 40
0.0
 40
0.0
 40
0.0
 40
0.0909090909090909
 40
0.0909090909090909
 40
0.0909090909090909
 40
0.0909090909090909
 40
0.1818181818181818
 40
0.1818181818181818
 40
0.1818181818181818
 40
0.1818181818181818
 40
0.2727272727272727
 40
0.2727272727272727
 40
0.2727272727272727
 40
0.2727272727272727
 40
0.3636363636363636
 40
0.3636363636363636
 40
0.3636363636363636
 40
0.3636363636363636
 40
0.4545454545454545
 40
0.4545454545454545
 40
0.4545454545454545
 40
0.4545454545454545
 40
0.5454545454545454
 40
0.5454545454545454
 40
0.5454545454545454
 40
0.5454545454545454
 40
0.6363636363636364
 40
0.6363636363636364
 40
0.6363636363636364
 40
0.6363636363636364
 40
0.7272727272727273
 40
0.7272727272727273
 40
0.7272727272727273
 40
0.7272727272727273
 40
0.8181818181818182
 40
0.8181818181818182
 40
0.8181818181818182
 40
0.8181818181818182
 40
1.0
 40
1.0
 40
1.0
 40
1.0
 10
167.8604
 20
52.0925
 30
0.0
 10
167.8604
 20
52.0925
 30
0.0
 10
167.6695
 20
51.7707
 30
0.0
 10
167.6695
 20
51.7707
 30
0.0
 10
167.6695
 20
51.7707
 30
0.0
 10
166.0956
 20
51.4968
 30
0.0
 10
164.2093
 20
51.1648
 30
0.0
 10
162.1398
 20
50.7896
 30
0.0
 10
162.1398
 20
50.7896
 30
0.0
 10
162.2002
 20
50.9964
 30
0.0
 10
162.2536
 20
51.2111
 30
0.0
 10
162.2776
 20
51.4368
 30
0.0
 10
162.2776
 20
51.4368
 30
0.0
 10
162.35
 20
52.105
 30
0.0
 10
162.1433
 20
52.8933
 30
0.0
 10
161.4622
 20
53.4621
 30
0.0
 10
161.4622
 20
53.4621
 30
0.0
 10
160.831
 20
53.998
 30
0.0
 10
159.8518
 20
54.35
 30
0.0
 10
158.4137
 20
54.5157
 30
0.0
 10
158.4137
 20
54.5157
 30
0.0
 10
158.4137
 20
54.5157
 30
0.0
 10
159.4768
 20
65.1299
 30
0.0
 10
159.4768
 20
65.1299
 30
0.0
 10
159.4768
 20
65.1299
 30
0.0
 10
163.2373
 20
64.9127
 30
0.0
 10
166.3238
 20
64.5036
 30
0.0
 10
168.5015
 20
64.1427
 30
0.0
 10
168.5015
 20
64.1427
 30
0.0
 10
168.1199
 20
61.9181
 30
0.0
 10
167.9771
 20
60.3641
 30
0.0
 10
167.9771
 20
60.3641
 30
0.0
 10
167.9771
 20
60.3641
 30
0.0
 10
169.3942
 20
60.9175
 30
0.0
 10
171.109
 20
61.2921
 30
0.0
 10
172.9545
 20
61.5442
 30
0.0
 10
172.9545
 20
61.5442
 30
0.0
 10
171.3623
 20
58.343
 30
0.0
 10
169.6841
 20
55.1676
 30
0.0
 10
167.8604
 20
52.0925
 30
0.0
  0
SPLINE
  5
CE
330
1F
100
AcDbEntity
  8
Camada 1
 62
   250
370
    20
100
AcDbSpline
210
0.0
220
0.0
230
1.0
 70
    11
 71
     3
 72
    20
 73
    16
 74
     0
 42
0.000000001
 43
0.0000000001
 40
0.0
 40
0.0
 40
0.0
 40
0.0
 40
0.2
 40
0.2
 40
0.2
 40
0.2
 40
0.4
 40
0.4
 40
0.4
 40
0.4
 40
0.6
 40
0.6
 40
0.6
 40
0.6
 40
1.0
 40
1.0
 40
1.0
 40
1.0
 10
179.126
 20
34.0317
 30
0.0
 10
175.1353
 20
33.5763
 30
0.0
 10
171.3297
 20
33.0604
 30
0.0
 10
168.5773
 20
32.6664
 30
0.0
 10
168.5773
 20
32.6664
 30
0.0
 10
168.6632
 20
34.6344
 30
0.0
 10
168.856
 20
36.5817
 30
0.0
 10
169.1176
 20
38.4578
 30
0.0
 10
169.1176
 20
38.4578
 30
0.0
 10
171.87
 20
39.2104
 30
0.0
 10
175.8283
 20
39.6687
 30
0.0
 10
179.7746
 20
39.9473
 30
0.0
 10
179.7746
 20
39.9473
 30
0.0
 10
179.5629
 20
37.9924
 30
0.0
 10
179.3447
 20
36.02
 30
0.0
 10
179.126
 20
34.0317
 30
0.0
  0
SPLINE
  5
CF
330
1F
100
AcDbEntity
  8
Camada 1
 62
   250
370
    20
100
AcDbSpline
210
0.0
220
0.0
230
1.0
 70
    11
 71
     3
 72
    32
 73
    28
 74
     0
 42
0.000000001
 43
0.0000000001
 40
0.0
 40
0.0
 40
0.0
 40
0.0
 40
0.125
 40
0.125
 40
0.125
 40
0.125
 40
0.25
 40
0.25
 40
0.25
 40
0.25
 40
0.375
 40
0.375
 40
0.375
 40
0.375
 40
0.5
 40
0.5
 40
0.5
 40
0.5
 40
0.625
 40
0.625
 40
0.625
 40
0.625
 40
0.75
 40
0.75
 40
0.75
 40
0.75
 40
1.0
 40
1.0
 40
1.0
 40
1.0
 10
181.5484
 20
56.0787
 30
0.0
 10
176.126
 20
55.5539
 30
0.0
 10
171.2714
 20
54.8798
 30
0.0
 10
171.2714
 20
54.8798
 30
0.0
 10
171.2714
 20
54.8798
 30
0.0
 10
170.6122
 20
54.3325
 30
0.0
 10
170.0444
 20
53.3373
 30
0.0
 10
169.558
 20
52.0954
 30
0.0
 10
169.558
 20
52.0954
 30
0.0
 10
169.558
 20
52.0954
 30
0.0
 10
169.142
 20
52.0239
 30
0.0
 10
169.142
 20
52.0239
 30
0.0
 10
169.142
 20
52.0239
 30
0.0
 10
170.9402
 20
55.0965
 30
0.0
 10
172.5981
 20
58.2636
 30
0.0
 10
174.1768
 20
61.4533
 30
0.0
 10
174.1768
 20
61.4533
 30
0.0
 10
174.1768
 20
61.4533
 30
0.0
 10
174.3007
 20
61.7035
 30
0.0
 10
174.3007
 20
61.7035
 30
0.0
 10
174.3007
 20
61.7035
 30
0.0
 10
176.8715
 20
61.9677
 30
0.0
 10
179.6207
 20
62.0245
 30
0.0
 10
182.195
 20
61.9655
 30
0.0
 10
182.195
 20
61.9655
 30
0.0
 10
182.195
 20
61.9655
 30
0.0
 10
181.5484
 20
56.0787
 30
0.0
 10
181.5484
 20
56.0787
 30
0.0
  0
SPLINE
  5
D0
330
1F
100
AcDbEntity
  8
Camada 1
 62
   250
370
    20
100
AcDbSpline
210
0.0
220
0.0
230
1.0
 70
    11
 71
     3
 72
    20
 73
    16
 74
     0
 42
0.000000001
 43
0.0000000001
 40
0.0
 40
0.0
 40
0.0
 40
0.0
 40
0.2
 40
0.2
 40
0.2
 40
0.2
 40
0.4
 40
0.4
 40
0.4
 40
0.4
 40
0.6
 40
0.6
 40
0.6
 40
0.6
 40
1.0
 40
1.0
 40
1.0
 40
1.0
 10
160.9563
 20
50.5755
 30
0.0
 10
160.9563
 20
50.5755
 30
0.0
 10
160.1424
 20
50.4251
 30
0.0
 10
160.1424
 20
50.4251
 30
0.0
 10
160.1424
 20
50.4251
 30
0.0
 10
160.6863
 20
51.229
 30
0.0
 10
160.9374
 20
51.9102
 30
0.0
 10
161.0443
 20
52.416
 30
0.0
 10
161.0443
 20
52.416
 30
0.0
 10
161.2385
 20
52.1314
 30
0.0
 10
161.2609
 20
51.8272
 30
0.0
 10
161.2504
 20
51.5312
 30
0.0
 10
161.2504
 20
51.5312
 30
0.0
 10
161.225
 20
51.2181
 30
0.0
 10
161.1012
 20
50.8786
 30
0.0
 10
160.9563
 20
50.5755
 30
0.0
  0
SPLINE
  5
D1
330
1F
100
AcDbEntity
  8
Camada 1
 62
   250
370
    20
100
AcDbSpline
210
0.0
220
0.0
230
1.0
 70
    11
 71
     3
 72
    20
 73
    16
 74
     0
 42
0.000000001
 43
0.0000000001
 40
0.0
 40
0.0
 40
0.0
 40
0.0
 40
0.2
 40
0.2
 40
0.2
 40
0.2
 40
0.4
 40
0.4
 40
0.4
 40
0.4
 40
0.6
 40
0.6
 40
0.6
 40
0.6
 40
1.0
 40
1.0
 40
1.0
 40
1.0
 10
159.0608
 20
14.3185
 30
0.0
 10
159.0608
 20
14.3185
 30
0.0
 10
154.3246
 20
13.7871
 30
0.0
 10
154.3246
 20
13.7871
 30
0.0
 10
154.3246
 20
13.7871
 30
0.0
 10
154.3246
 20
13.7871
 30
0.0
 10
155.3327
 20
23.8325
 30
0.0
 10
155.3327
 20
23.8325
 30
0.0
 10
155.3327
 20
23.8325
 30
0.0
 10
156.9601
 20
23.7491
 30
0.0
 10
158.5584
 20
23.6408
 30
0.0
 10
160.0635
 20
23.5229
 30
0.0
 10
160.0635
 20
23.5229
 30
0.0
 10
159.4204
 20
20.4135
 30
0.0
 10
159.1552
 20
17.0564
 30
0.0
 10
159.0608
 20
14.3185
 30
0.0
  0
SPLINE
  5
D2
330
1F
100
AcDbEntity
  8
Camada 1
 62
   250
370
    20
100
AcDbSpline
210
0.0
220
0.0
230
1.0
 70
    11
 71
     3
 72
    20
 73
    16
 74
     0
 42
0.000000001
 43
0.0000000001
 40
0.0
 40
0.0
 40
0.0
 40
0.0
 40
0.2
 40
0.2
 40
0.2
 40
0.2
 40
0.4
 40
0.4
 40
0.4
 40
0.4
 40
0.6
 40
0.6
 40
0.6
 40
0.6
 40
1.0
 40
1.0
 40
1.0
 40
1.0
 10
154.7994
 20
49.418
 30
0.0
 10
154.7994
 20
49.418
 30
0.0
 10
154.0734
 20
49.2776
 30
0.0
 10
154.0734
 20
49.2776
 30
0.0
 10
154.0734
 20
49.2776
 30
0.0
 10
153.3288
 20
49.9432
 30
0.0
 10
152.83
 20
50.899
 30
0.0
 10
152.9244
 20
51.6601
 30
0.0
 10
152.9244
 20
51.6601
 30
0.0
 10
152.9724
 20
52.1804
 30
0.0
 10
153.2649
 20
52.7217
 30
0.0
 10
154.0424
 20
53.0982
 30
0.0
 10
154.0424
 20
53.0982
 30
0.0
 10
154.0375
 20
52.2493
 30
0.0
 10
154.1458
 20
50.8311
 30
0.0
 10
154.7994
 20
49.418
 30
0.0
  0
SPLINE
  5
D3
330
1F
100
AcDbEntity
  8
Camada 1
 62
   250
370
    20
100
AcDbSpline
210
0.0
220
0.0
230
1.0
 70
    11
 71
     3
 72
    16
 73
    12
 74
     0
 42
0.000000001
 43
0.0000000001
 40
0.0
 40
0.0
 40
0.0
 40
0.0
 40
0.25
 40
0.25
 40
0.25
 40
0.25
 40
0.5
 40
0.5
 40
0.5
 40
0.5
 40
1.0
 40
1.0
 40
1.0
 40
1.0
 10
158.8042
 20
53.4157
 30
0.0
 10
158.6529
 20
52.8489
 30
0.0
 10
158.3657
 20
51.8083
 30
0.0
 10
158.0337
 20
50.7517
 30
0.0
 10
158.0337
 20
50.7517
 30
0.0
 10
158.0337
 20
50.7517
 30
0.0
 10
158.3088
 20
53.4921
 30
0.0
 10
158.3088
 20
53.4921
 30
0.0
 10
158.3088
 20
53.4921
 30
0.0
 10
158.4841
 20
53.4681
 30
0.0
 10
158.6494
 20
53.4432
 30
0.0
 10
158.8042
 20
53.4157
 30
0.0
  0
SPLINE
  5
D4
330
1F
100
AcDbEntity
  8
Camada 1
 62
   250
370
    20
100
AcDbSpline
210
0.0
220
0.0
230
1.0
 70
    11
 71
     3
 72
    20
 73
    16
 74
     0
 42
0.000000001
 43
0.0000000001
 40
0.0
 40
0.0
 40
0.0
 40
0.0
 40
0.2
 40
0.2
 40
0.2
 40
0.2
 40
0.4
 40
0.4
 40
0.4
 40
0.4
 40
0.6
 40
0.6
 40
0.6
 40
0.6
 40
1.0
 40
1.0
 40
1.0
 40
1.0
 10
160.079
 20
52.9059
 30
0.0
 10
160.0431
 20
52.5359
 30
0.0
 10
159.8728
 20
51.7923
 30
0.0
 10
159.1243
 20
50.7761
 30
0.0
 10
159.1243
 20
50.7761
 30
0.0
 10
159.4254
 20
51.7563
 30
0.0
 10
159.6765
 20
52.6726
 30
0.0
 10
159.8123
 20
53.1816
 30
0.0
 10
159.8123
 20
53.1816
 30
0.0
 10
159.9107
 20
53.15
 30
0.0
 10
160.0001
 20
53.1166
 30
0.0
 10
160.0875
 20
53.0846
 30
0.0
 10
160.0875
 20
53.0846
 30
0.0
 10
160.086
 20
53.0442
 30
0.0
 10
160.086
 20
52.9897
 30
0.0
 10
160.079
 20
52.9059
 30
0.0
  0
SPLINE
  5
D5
330
1F
100
AcDbEntity
  8
Camada 1
 62
   250
370
    20
100
AcDbSpline
210
0.0
220
0.0
230
1.0
 70
    11
 71
     3
 72
    20
 73
    16
 74
     0
 42
0.000000001
 43
0.0000000001
 40
0.0
 40
0.0
 40
0.0
 40
0.0
 40
0.2
 40
0.2
 40
0.2
 40
0.2
 40
0.4
 40
0.4
 40
0.4
 40
0.4
 40
0.6
 40
0.6
 40
0.6
 40
0.6
 40
1.0
 40
1.0
 40
1.0
 40
1.0
 10
115.1195
 20
-10.8586
 30
0.0
 10
121.0507
 20
-16.8626
 30
0.0
 10
126.3492
 20
-22.2206
 30
0.0
 10
129.7693
 20
-25.6786
 30
0.0
 10
129.7693
 20
-25.6786
 30
0.0
 10
127.4692
 20
-25.794
 30
0.0
 10
124.0682
 20
-25.7919
 30
0.0
 10
121.0766
 20
-25.1093
 30
0.0
 10
121.0766
 20
-25.1093
 30
0.0
 10
116.3029
 20
-24.0218
 30
0.0
 10
115.9089
 20
-25.1677
 30
0.0
 10
114.9971
 20
-25.5133
 30
0.0
 10
114.9971
 20
-25.5133
 30
0.0
 10
114.8493
 20
-21.966
 30
0.0
 10
114.7305
 20
-16.2709
 30
0.0
 10
115.1195
 20
-10.8586
 30
0.0
  0
SPLINE
  5
D6
330
1F
100
AcDbEntity
  8
Camada 1
 62
   250
370
    20
100
AcDbSpline
210
0.0
220
0.0
230
1.0
 70
    11
 71
     3
 72
    16
 73
    12
 74
     0
 42
0.000000001
 43
0.0000000001
 40
0.0
 40
0.0
 40
0.0
 40
0.0
 40
0.25
 40
0.25
 40
0.25
 40
0.25
 40
0.5
 40
0.5
 40
0.5
 40
0.5
 40
1.0
 40
1.0
 40
1.0
 40
1.0
 10
104.6237
 20
-0.2384
 30
0.0
 10
104.6237
 20
-0.2384
 30
0.0
 10
96.5933
 20
-0.4636
 30
0.0
 10
96.5933
 20
-0.4636
 30
0.0
 10
96.5933
 20
-0.4636
 30
0.0
 10
96.7346
 20
2.146
 30
0.0
 10
97.0941
 20
4.6946
 30
0.0
 10
97.5176
 20
6.9556
 30
0.0
 10
97.5176
 20
6.9556
 30
0.0
 10
97.5176
 20
6.9556
 30
0.0
 10
104.6237
 20
-0.2384
 30
0.0
 10
104.6237
 20
-0.2384
 30
0.0
  0
SPLINE
  5
D7
330
1F
100
AcDbEntity
  8
Camada 1
 62
   250
370
    20
100
AcDbSpline
210
0.0
220
0.0
230
1.0
 70
    11
 71
     3
 72
    16
 73
    12
 74
     0
 42
0.000000001
 43
0.0000000001
 40
0.0
 40
0.0
 40
0.0
 40
0.0
 40
0.25
 40
0.25
 40
0.25
 40
0.25
 40
0.5
 40
0.5
 40
0.5
 40
0.5
 40
1.0
 40
1.0
 40
1.0
 40
1.0
 10
173.358
 20
-18.899
 30
0.0
 10
173.2258
 20
-18.2314
 30
0.0
 10
172.9106
 20
-16.557
 30
0.0
 10
172.5806
 20
-14.2486
 30
0.0
 10
172.5806
 20
-14.2486
 30
0.0
 10
172.5806
 20
-14.2486
 30
0.0
 10
173.8569
 20
-14.2651
 30
0.0
 10
173.8569
 20
-14.2651
 30
0.0
 10
173.8569
 20
-14.2651
 30
0.0
 10
173.8569
 20
-14.2651
 30
0.0
 10
173.358
 20
-18.899
 30
0.0
 10
173.358
 20
-18.899
 30
0.0
  0
SPLINE
  5
D8
330
1F
100
AcDbEntity
  8
Camada 1
 62
   250
370
    20
100
AcDbSpline
210
0.0
220
0.0
230
1.0
 70
    11
 71
     3
 72
    24
 73
    20
 74
     0
 42
0.000000001
 43
0.0000000001
 40
0.0
 40
0.0
 40
0.0
 40
0.0
 40
0.1666666666666667
 40
0.1666666666666667
 40
0.1666666666666667
 40
0.1666666666666667
 40
0.3333333333333333
 40
0.3333333333333333
 40
0.3333333333333333
 40
0.3333333333333333
 40
0.5
 40
0.5
 40
0.5
 40
0.5
 40
0.6666666666666666
 40
0.6666666666666666
 40
0.6666666666666666
 40
0.6666666666666666
 40
1.0
 40
1.0
 40
1.0
 40
1.0
 10
175.5512
 20
-21.6928
 30
0.0
 10
175.5512
 20
-21.6928
 30
0.0
 10
176.2602
 20
-14.296
 30
0.0
 10
176.2602
 20
-14.296
 30
0.0
 10
176.2602
 20
-14.296
 30
0.0
 10
176.2602
 20
-14.296
 30
0.0
 10
184.0855
 20
-14.3954
 30
0.0
 10
184.0855
 20
-14.3954
 30
0.0
 10
184.0855
 20
-14.3954
 30
0.0
 10
184.0855
 20
-14.3954
 30
0.0
 10
181.082
 20
-18.5494
 30
0.0
 10
181.082
 20
-18.5494
 30
0.0
 10
181.082
 20
-18.5494
 30
0.0
 10
181.082
 20
-18.5494
 30
0.0
 10
180.4903
 20
-21.2589
 30
0.0
 10
180.4903
 20
-21.2589
 30
0.0
 10
180.4903
 20
-21.2589
 30
0.0
 10
180.4903
 20
-21.2589
 30
0.0
 10
178.1318
 20
-21.4895
 30
0.0
 10
175.5512
 20
-21.6928
 30
0.0
  0
SPLINE
  5
D9
330
1F
100
AcDbEntity
  8
Camada 1
 62
   250
370
    20
100
AcDbSpline
210
0.0
220
0.0
230
1.0
 70
    11
 71
     3
 72
    20
 73
    16
 74
     0
 42
0.000000001
 43
0.0000000001
 40
0.0
 40
0.0
 40
0.0
 40
0.0
 40
0.2
 40
0.2
 40
0.2
 40
0.2
 40
0.4
 40
0.4
 40
0.4
 40
0.4
 40
0.6
 40
0.6
 40
0.6
 40
0.6
 40
1.0
 40
1.0
 40
1.0
 40
1.0
 10
192.0041
 20
-11.958
 30
0.0
 10
191.9132
 20
-11.2869
 30
0.0
 10
191.8458
 20
-10.5869
 30
0.0
 10
191.8014
 20
-9.8668
 30
0.0
 10
191.8014
 20
-9.8668
 30
0.0
 10
191.8014
 20
-9.8668
 30
0.0
 10
194.755
 20
-10.1394
 30
0.0
 10
194.755
 20
-10.1394
 30
0.0
 10
194.755
 20
-10.1394
 30
0.0
 10
194.755
 20
-10.1394
 30
0.0
 10
194.6966
 20
-12.2062
 30
0.0
 10
194.6966
 20
-12.2062
 30
0.0
 10
194.6966
 20
-12.2062
 30
0.0
 10
194.6966
 20
-12.2062
 30
0.0
 10
192.0041
 20
-11.958
 30
0.0
 10
192.0041
 20
-11.958
 30
0.0
  0
SPLINE
  5
DA
330
1F
100
AcDbEntity
  8
Camada 1
 62
   250
370
    20
100
AcDbSpline
210
0.0
220
0.0
230
1.0
 70
    11
 71
     3
 72
    16
 73
    12
 74
     0
 42
0.000000001
 43
0.0000000001
 40
0.0
 40
0.0
 40
0.0
 40
0.0
 40
0.25
 40
0.25
 40
0.25
 40
0.25
 40
0.5
 40
0.5
 40
0.5
 40
0.5
 40
1.0
 40
1.0
 40
1.0
 40
1.0
 10
195.2743
 20
7.5649
 30
0.0
 10
195.0372
 20
7.9603
 30
0.0
 10
194.822
 20
8.3663
 30
0.0
 10
194.6241
 20
8.7818
 30
0.0
 10
194.6241
 20
8.7818
 30
0.0
 10
194.6241
 20
8.7818
 30
0.0
 10
195.3108
 20
8.8028
 30
0.0
 10
195.3108
 20
8.8028
 30
0.0
 10
195.3108
 20
8.8028
 30
0.0
 10
195.3108
 20
8.8028
 30
0.0
 10
195.2743
 20
7.5649
 30
0.0
 10
195.2743
 20
7.5649
 30
0.0
  0
SPLINE
  5
DB
330
1F
100
AcDbEntity
  8
Camada 1
 62
   250
370
    20
100
AcDbSpline
210
0.0
220
0.0
230
1.0
 70
    11
 71
     3
 72
    20
 73
    16
 74
     0
 42
0.000000001
 43
0.0000000001
 40
0.0
 40
0.0
 40
0.0
 40
0.0
 40
0.2
 40
0.2
 40
0.2
 40
0.2
 40
0.4
 40
0.4
 40
0.4
 40
0.4
 40
0.6
 40
0.6
 40
0.6
 40
0.6
 40
1.0
 40
1.0
 40
1.0
 40
1.0
 10
193.5471
 20
25.9752
 30
0.0
 10
194.0635
 20
28.7236
 30
0.0
 10
194.7361
 20
31.1054
 30
0.0
 10
195.2504
 20
32.7284
 30
0.0
 10
195.2504
 20
32.7284
 30
0.0
 10
195.2504
 20
32.7284
 30
0.0
 10
196.0229
 20
32.7163
 30
0.0
 10
196.0229
 20
32.7163
 30
0.0
 10
196.0229
 20
32.7163
 30
0.0
 10
195.9609
 20
30.6811
 30
0.0
 10
195.8955
 20
28.5727
 30
0.0
 10
195.8336
 20
26.4117
 30
0.0
 10
195.8336
 20
26.4117
 30
0.0
 10
195.0421
 20
26.2778
 30
0.0
 10
194.2787
 20
26.132
 30
0.0
 10
193.5471
 20
25.9752
 30
0.0
  0
SPLINE
  5
DC
330
1F
100
AcDbEntity
  8
Camada 1
 62
   250
370
    20
100
AcDbSpline
210
0.0
220
0.0
230
1.0
 70
    11
 71
     3
 72
    16
 73
    12
 74
     0
 42
0.000000001
 43
0.0000000001
 40
0.0
 40
0.0
 40
0.0
 40
0.0
 40
0.25
 40
0.25
 40
0.25
 40
0.25
 40
0.5
 40
0.5
 40
0.5
 40
0.5
 40
1.0
 40
1.0
 40
1.0
 40
1.0
 10
184.0396
 20
78.7645
 30
0.0
 10
183.3168
 20
78.7129
 30
0.0
 10
182.6084
 20
78.6538
 30
0.0
 10
181.9184
 20
78.59
 30
0.0
 10
181.9184
 20
78.59
 30
0.0
 10
182.8995
 20
80.9382
 30
0.0
 10
183.8591
 20
83.2967
 30
0.0
 10
184.7936
 20
85.6641
 30
0.0
 10
184.7936
 20
85.6641
 30
0.0
 10
184.7936
 20
85.6641
 30
0.0
 10
184.0396
 20
78.7645
 30
0.0
 10
184.0396
 20
78.7645
 30
0.0
  0
SPLINE
  5
DD
330
1F
100
AcDbEntity
  8
Camada 1
 62
   250
370
    20
100
AcDbSpline
210
0.0
220
0.0
230
1.0
 70
    11
 71
     3
 72
    16
 73
    12
 74
     0
 42
0.000000001
 43
0.0000000001
 40
0.0
 40
0.0
 40
0.0
 40
0.0
 40
0.25
 40
0.25
 40
0.25
 40
0.25
 40
0.5
 40
0.5
 40
0.5
 40
0.5
 40
1.0
 40
1.0
 40
1.0
 40
1.0
 10
156.0293
 20
53.55
 30
0.0
 10
156.0293
 20
53.55
 30
0.0
 10
155.6219
 20
50.0965
 30
0.0
 10
155.6219
 20
50.0965
 30
0.0
 10
155.6219
 20
50.0965
 30
0.0
 10
155.0711
 20
51.4542
 30
0.0
 10
155.0506
 20
52.816
 30
0.0
 10
155.08
 20
53.4272
 30
0.0
 10
155.08
 20
53.4272
 30
0.0
 10
155.3622
 20
53.4821
 30
0.0
 10
155.6788
 20
53.5231
 30
0.0
 10
156.0293
 20
53.55
 30
0.0
  0
SPLINE
  5
DE
330
1F
100
AcDbEntity
  8
Camada 1
 62
   250
370
    20
100
AcDbSpline
210
0.0
220
0.0
230
1.0
 70
    11
 71
     3
 72
    16
 73
    12
 74
     0
 42
0.000000001
 43
0.0000000001
 40
0.0
 40
0.0
 40
0.0
 40
0.0
 40
0.25
 40
0.25
 40
0.25
 40
0.25
 40
0.5
 40
0.5
 40
0.5
 40
0.5
 40
1.0
 40
1.0
 40
1.0
 40
1.0
 10
185.4518
 20
34.6723
 30
0.0
 10
184.8354
 20
34.6189
 30
0.0
 10
184.2066
 20
34.5545
 30
0.0
 10
183.5784
 20
34.4906
 30
0.0
 10
183.5784
 20
34.4906
 30
0.0
 10
184.4174
 20
35.5673
 30
0.0
 10
185.2307
 20
36.6645
 30
0.0
 10
186.0226
 20
37.7764
 30
0.0
 10
186.0226
 20
37.7764
 30
0.0
 10
185.7987
 20
36.5791
 30
0.0
 10
185.6022
 20
35.5063
 30
0.0
 10
185.4518
 20
34.6723
 30
0.0
  0
ENDSEC
  0
SECTION
  2
OBJECTS
  0
DICTIONARY
  5
C
330
0
100
AcDbDictionary
281
     1
  3
ACAD_DETAILVIEWSTYLE
350
11A
  3
ACAD_GROUP
350
D
  3
ACAD_LAYOUT
350
1A
  3
ACAD_MATERIAL
350
43
  3
ACAD_MLEADERSTYLE
350
6B
  3
ACAD_MLINESTYLE
350
17
  3
ACAD_PLOTSETTINGS
350
19
  3
ACAD_PLOTSTYLENAME
350
E
  3
ACAD_SCALELIST
350
47
  3
ACAD_SECTIONVIEWSTYLE
350
11B
  3
ACAD_TABLESTYLE
350
69
  3
ACAD_VISUALSTYLE
350
2A
  3
ACDB_RECOMPOSE_DATA
350
117
  3
AcDbVariableDictionary
350
DF
  0
SUN
  5
6D
330
29
100
AcDbSun
 90
        1
290
     0
 63
     7
421
 16777215
 40
1.0
291
     1
 91
  2455826
 92
 54000000
292
     0
 70
     2
 71
   256
280
     1
  0
DICTIONARY
  5
11A
102
{ACAD_REACTORS
330
C
102
}
330
C
100
AcDbDictionary
281
     1
  0
DICTIONARY
  5
D
102
{ACAD_REACTORS
330
C
102
}
330
C
100
AcDbDictionary
281
     1
  0
DICTIONARY
  5
1A
102
{ACAD_REACTORS
330
C
102
}
330
C
100
AcDbDictionary
281
     1
  3
Layout1
350
1E
  3
Layout2
350
26
  3
Model
350
22
  0
DICTIONARY
  5
43
102
{ACAD_REACTORS
330
C
102
}
330
C
100
AcDbDictionary
281
     1
  3
ByBlock
350
45
  3
ByLayer
350
44
  3
Global
350
46
  0
DICTIONARY
  5
6B
102
{ACAD_REACTORS
330
C
102
}
330
C
100
AcDbDictionary
281
     1
  3
Standard
350
6C
  0
DICTIONARY
  5
17
102
{ACAD_REACTORS
330
C
102
}
330
C
100
AcDbDictionary
281
     1
  3
Standard
350
18
  0
DICTIONARY
  5
19
102
{ACAD_REACTORS
330
C
102
}
330
C
100
AcDbDictionary
281
     1
  0
ACDBDICTIONARYWDFLT
  5
E
102
{ACAD_REACTORS
330
C
102
}
330
C
100
AcDbDictionary
281
     1
  3
Normal
350
F
100
AcDbDictionaryWithDefault
340
F
  0
DICTIONARY
  5
47
102
{ACAD_REACTORS
330
C
102
}
330
C
100
AcDbDictionary
281
     1
  3
A0
350
48
  3
A1
350
49
  3
A2
350
4A
  3
A3
350
4B
  3
A4
350
4C
  3
A5
350
4D
  3
A6
350
4E
  3
A7
350
4F
  3
A8
350
50
  3
A9
350
51
  3
B0
350
52
  3
B1
350
53
  3
B2
350
54
  3
B3
350
55
  3
B4
350
56
  3
B5
350
57
  3
B6
350
58
  3
B7
350
59
  3
B8
350
5A
  3
B9
350
5B
  3
C0
350
5C
  3
C1
350
5D
  3
C2
350
5E
  3
C3
350
5F
  3
C4
350
60
  3
C5
350
61
  3
C6
350
62
  3
C7
350
63
  3
C8
350
64
  3
C9
350
65
  3
D0
350
66
  3
D1
350
67
  3
D2
350
68
  0
DICTIONARY
  5
11B
102
{ACAD_REACTORS
330
C
102
}
330
C
100
AcDbDictionary
281
     1
  0
DICTIONARY
  5
69
102
{ACAD_REACTORS
330
C
102
}
330
C
100
AcDbDictionary
281
     1
  3
Standard
350
6A
  0
DICTIONARY
  5
2A
102
{ACAD_REACTORS
330
C
102
}
330
C
100
AcDbDictionary
281
     1
  3
2dWireframe
350
2F
  3
Basic
350
32
  3
Brighten
350
36
  3
ColorChange
350
3A
  3
Conceptual
350
34
  3
Dim
350
35
  3
EdgeColorOff
350
3D
  3
Facepattern
350
39
  3
Flat
350
2B
  3
FlatWithEdges
350
2C
  3
Gouraud
350
2D
  3
GouraudWithEdges
350
2E
  3
Hidden
350
31
  3
JitterOff
350
3B
  3
Linepattern
350
38
  3
OverhangOff
350
3C
  3
Realistic
350
33
  3
Shaded
350
42
  3
Shaded with edges
350
41
  3
Shades of Gray
350
3E
  3
Sketchy
350
3F
  3
Thicken
350
37
  3
Wireframe
350
30
  3
X-Ray
350
40
  0
XRECORD
  5
117
102
{ACAD_REACTORS
330
C
102
}
330
C
100
AcDbXrecord
280
     1
 90
        1
330
6A
  0
DICTIONARY
  5
DF
102
{ACAD_REACTORS
330
C
102
}
330
C
100
AcDbDictionary
281
     1
  3
CANNOSCALE
350
E0
  3
CMLEADERSTYLE
350
119
  3
CTABLESTYLE
350
118
  3
XCLIPFRAME
350
E1
  0
LAYOUT
  5
1E
102
{ACAD_REACTORS
330
1A
102
}
330
1A
100
AcDbPlotSettings
  1

  2
none_device
  4

  6

 40
0.0
 41
0.0
 42
0.0
 43
0.0
 44
0.0
 45
0.0
 46
0.0
 47
0.0
 48
0.0
 49
0.0
140
0.0
141
0.0
142
1.0
143
1.0
 70
   688
 72
     0
 73
     0
 74
     5
  7

 75
    16
 76
     0
 77
     2
 78
   300
147
1.0
148
0.0
149
0.0
100
AcDbLayout
  1
Layout1
 70
     1
 71
     1
 10
0.0
 20
0.0
 11
12.0
 21
9.0
 12
0.0
 22
0.0
 32
0.0
 14
1.000000000000000E+20
 24
1.000000000000000E+20
 34
1.000000000000000E+20
 15
-1.000000000000000E+20
 25
-1.000000000000000E+20
 35
-1.000000000000000E+20
146
0.0
 13
0.0
 23
0.0
 33
0.0
 16
1.0
 26
0.0
 36
0.0
 17
0.0
 27
1.0
 37
0.0
 76
     0
330
1B
  0
LAYOUT
  5
26
102
{ACAD_REACTORS
330
1A
102
}
330
1A
100
AcDbPlotSettings
  1

  2
none_device
  4

  6

 40
0.0
 41
0.0
 42
0.0
 43
0.0
 44
0.0
 45
0.0
 46
0.0
 47
0.0
 48
0.0
 49
0.0
140
0.0
141
0.0
142
1.0
143
1.0
 70
   688
 72
     0
 73
     0
 74
     5
  7

 75
    16
 76
     0
 77
     2
 78
   300
147
1.0
148
0.0
149
0.0
100
AcDbLayout
  1
Layout2
 70
     1
 71
     2
 10
0.0
 20
0.0
 11
0.0
 21
0.0
 12
0.0
 22
0.0
 32
0.0
 14
0.0
 24
0.0
 34
0.0
 15
0.0
 25
0.0
 35
0.0
146
0.0
 13
0.0
 23
0.0
 33
0.0
 16
1.0
 26
0.0
 36
0.0
 17
0.0
 27
1.0
 37
0.0
 76
     0
330
23
  0
LAYOUT
  5
22
102
{ACAD_REACTORS
330
1A
102
}
330
1A
100
AcDbPlotSettings
  1

  2
none_device
  4
Letter_(8.50_x_11.00_Inches)
  6

 40
6.35
 41
6.35
 42
6.35000508
 43
6.35000508
 44
215.9
 45
279.4
 46
0.0
 47
0.0
 48
0.0
 49
0.0
140
0.0
141
0.0
142
1.0
143
1.0
 70
  1712
 72
     0
 73
     0
 74
     0
  7

 75
     0
 76
     0
 77
     2
 78
   300
147
1.0
148
0.0
149
0.0
100
AcDbLayout
  1
Model
 70
     1
 71
     0
 10
0.0
 20
0.0
 11
12.0
 21
9.0
 12
0.0
 22
0.0
 32
0.0
 14
-223.2699
 24
-125.3407
 34
0.0
 15
223.27
 25
125.3407
 35
0.0
146
0.0
 13
0.0
 23
0.0
 33
0.0
 16
1.0
 26
0.0
 36
0.0
 17
0.0
 27
1.0
 37
0.0
 76
     0
330
1F
331
29
  0
MATERIAL
  5
45
102
{ACAD_REACTORS
330
43
102
}
330
43
100
AcDbMaterial
  1
ByBlock
 72
     1
 94
      127
  0
MATERIAL
  5
44
102
{ACAD_REACTORS
330
43
102
}
330
43
100
AcDbMaterial
  1
ByLayer
 72
     1
 94
      127
  0
MATERIAL
  5
46
102
{ACAD_REACTORS
330
43
102
}
330
43
100
AcDbMaterial
  1
Global
 72
     1
 94
      127
  0
MLEADERSTYLE
  5
6C
102
{ACAD_REACTORS
330
6B
102
}
102
{ACAD_XDICTIONARY
360
115
102
}
330
6B
100
AcDbMLeaderStyle
170
     2
171
     1
172
     0
 90
        2
 40
0.0
 41
0.0
173
     1
 91
-1056964608
340
14
 92
       -2
290
     1
 42
0.09
291
     1
 43
0.36
  3
Standard
341
0
 44
0.18
300

342
11
174
     1
178
     6
175
     1
176
     0
 93
-1056964608
 45
0.18
292
     0
297
     0
 46
0.18
343
0
 94
-1056964608
 47
1.0
 49
1.0
140
1.0
293
     1
141
0.0
294
     1
177
     0
142
1.0
295
     0
296
     0
143
0.125
1001
ACAD_MLEADERVER
1070
     2
  0
MLINESTYLE
  5
18
102
{ACAD_REACTORS
330
17
102
}
330
17
100
AcDbMlineStyle
  2
Standard
 70
     0
  3

 62
   256
 51
90.0
 52
90.0
 71
     2
 49
0.5
 62
   256
  6
BYLAYER
 49
-0.5
 62
   256
  6
BYLAYER
  0
ACDBPLACEHOLDER
  5
F
102
{ACAD_REACTORS
330
E
102
}
330
E
  0
SCALE
  5
48
102
{ACAD_REACTORS
330
47
102
}
330
47
100
AcDbScale
 70
     0
300
1:1
140
1.0
141
1.0
290
     1
  0
SCALE
  5
49
102
{ACAD_REACTORS
330
47
102
}
330
47
100
AcDbScale
 70
     0
300
1:2
140
1.0
141
2.0
290
     0
  0
SCALE
  5
4A
102
{ACAD_REACTORS
330
47
102
}
330
47
100
AcDbScale
 70
     0
300
1:4
140
1.0
141
4.0
290
     0
  0
SCALE
  5
4B
102
{ACAD_REACTORS
330
47
102
}
330
47
100
AcDbScale
 70
     0
300
1:5
140
1.0
141
5.0
290
     0
  0
SCALE
  5
4C
102
{ACAD_REACTORS
330
47
102
}
330
47
100
AcDbScale
 70
     0
300
1:8
140
1.0
141
8.0
290
     0
  0
SCALE
  5
4D
102
{ACAD_REACTORS
330
47
102
}
330
47
100
AcDbScale
 70
     0
300
1:10
140
1.0
141
10.0
290
     0
  0
SCALE
  5
4E
102
{ACAD_REACTORS
330
47
102
}
330
47
100
AcDbScale
 70
     0
300
1:16
140
1.0
141
16.0
290
     0
  0
SCALE
  5
4F
102
{ACAD_REACTORS
330
47
102
}
330
47
100
AcDbScale
 70
     0
300
1:20
140
1.0
141
20.0
290
     0
  0
SCALE
  5
50
102
{ACAD_REACTORS
330
47
102
}
330
47
100
AcDbScale
 70
     0
300
1:30
140
1.0
141
30.0
290
     0
  0
SCALE
  5
51
102
{ACAD_REACTORS
330
47
102
}
330
47
100
AcDbScale
 70
     0
300
1:40
140
1.0
141
40.0
290
     0
  0
SCALE
  5
52
102
{ACAD_REACTORS
330
47
102
}
330
47
100
AcDbScale
 70
     0
300
1:50
140
1.0
141
50.0
290
     0
  0
SCALE
  5
53
102
{ACAD_REACTORS
330
47
102
}
330
47
100
AcDbScale
 70
     0
300
1:100
140
1.0
141
100.0
290
     0
  0
SCALE
  5
54
102
{ACAD_REACTORS
330
47
102
}
330
47
100
AcDbScale
 70
     0
300
2:1
140
2.0
141
1.0
290
     0
  0
SCALE
  5
55
102
{ACAD_REACTORS
330
47
102
}
330
47
100
AcDbScale
 70
     0
300
4:1
140
4.0
141
1.0
290
     0
  0
SCALE
  5
56
102
{ACAD_REACTORS
330
47
102
}
330
47
100
AcDbScale
 70
     0
300
8:1
140
8.0
141
1.0
290
     0
  0
SCALE
  5
57
102
{ACAD_REACTORS
330
47
102
}
330
47
100
AcDbScale
 70
     0
300
10:1
140
10.0
141
1.0
290
     0
  0
SCALE
  5
58
102
{ACAD_REACTORS
330
47
102
}
330
47
100
AcDbScale
 70
     0
300
100:1
140
100.0
141
1.0
290
     0
  0
SCALE
  5
59
102
{ACAD_REACTORS
330
47
102
}
330
47
100
AcDbScale
 70
     0
300
1/128" = 1'-0"
140
0.0078125
141
12.0
290
     0
  0
SCALE
  5
5A
102
{ACAD_REACTORS
330
47
102
}
330
47
100
AcDbScale
 70
     0
300
1/64" = 1'-0"
140
0.015625
141
12.0
290
     0
  0
SCALE
  5
5B
102
{ACAD_REACTORS
330
47
102
}
330
47
100
AcDbScale
 70
     0
300
1/32" = 1'-0"
140
0.03125
141
12.0
290
     0
  0
SCALE
  5
5C
102
{ACAD_REACTORS
330
47
102
}
330
47
100
AcDbScale
 70
     0
300
1/16" = 1'-0"
140
0.0625
141
12.0
290
     0
  0
SCALE
  5
5D
102
{ACAD_REACTORS
330
47
102
}
330
47
100
AcDbScale
 70
     0
300
3/32" = 1'-0"
140
0.09375
141
12.0
290
     0
  0
SCALE
  5
5E
102
{ACAD_REACTORS
330
47
102
}
330
47
100
AcDbScale
 70
     0
300
1/8" = 1'-0"
140
0.125
141
12.0
290
     0
  0
SCALE
  5
5F
102
{ACAD_REACTORS
330
47
102
}
330
47
100
AcDbScale
 70
     0
300
3/16" = 1'-0"
140
0.1875
141
12.0
290
     0
  0
SCALE
  5
60
102
{ACAD_REACTORS
330
47
102
}
330
47
100
AcDbScale
 70
     0
300
1/4" = 1'-0"
140
0.25
141
12.0
290
     0
  0
SCALE
  5
61
102
{ACAD_REACTORS
330
47
102
}
330
47
100
AcDbScale
 70
     0
300
3/8" = 1'-0"
140
0.375
141
12.0
290
     0
  0
SCALE
  5
62
102
{ACAD_REACTORS
330
47
102
}
330
47
100
AcDbScale
 70
     0
300
1/2" = 1'-0"
140
0.5
141
12.0
290
     0
  0
SCALE
  5
63
102
{ACAD_REACTORS
330
47
102
}
330
47
100
AcDbScale
 70
     0
300
3/4" = 1'-0"
140
0.75
141
12.0
290
     0
  0
SCALE
  5
64
102
{ACAD_REACTORS
330
47
102
}
330
47
100
AcDbScale
 70
     0
300
1" = 1'-0"
140
1.0
141
12.0
290
     0
  0
SCALE
  5
65
102
{ACAD_REACTORS
330
47
102
}
330
47
100
AcDbScale
 70
     0
300
1-1/2" = 1'-0"
140
1.5
141
12.0
290
     0
  0
SCALE
  5
66
102
{ACAD_REACTORS
330
47
102
}
330
47
100
AcDbScale
 70
     0
300
3" = 1'-0"
140
3.0
141
12.0
290
     0
  0
SCALE
  5
67
102
{ACAD_REACTORS
330
47
102
}
330
47
100
AcDbScale
 70
     0
300
6" = 1'-0"
140
6.0
141
12.0
290
     0
  0
SCALE
  5
68
102
{ACAD_REACTORS
330
47
102
}
330
47
100
AcDbScale
 70
     0
300
1'-0" = 1'-0"
140
12.0
141
12.0
290
     0
  0
TABLESTYLE
  5
6A
102
{ACAD_REACTORS
330
69
102
}
102
{ACAD_XDICTIONARY
360
112
102
}
330
69
100
AcDbTableStyle
  3
Standard
 70
     0
 71
     0
 40
0.06
 41
0.06
280
     0
281
     0
  7
Standard
140
0.18
170
     2
 62
     0
 63
   257
283
     0
 90
        4
 91
        0
  1

274
    -2
284
     1
 64
     0
275
    -2
285
     1
 65
     0
276
    -2
286
     1
 66
     0
277
    -2
287
     1
 67
     0
278
    -2
288
     1
 68
     0
279
    -2
289
     1
 69
     0
  7
Standard
140
0.25
170
     5
 62
     0
 63
   257
283
     0
 90
        4
 91
        0
  1

274
    -2
284
     1
 64
     0
275
    -2
285
     1
 65
     0
276
    -2
286
     1
 66
     0
277
    -2
287
     1
 67
     0
278
    -2
288
     1
 68
     0
279
    -2
289
     1
 69
     0
  7
Standard
140
0.18
170
     5
 62
     0
 63
   257
283
     0
 90
        4
 91
        0
  1

274
    -2
284
     1
 64
     0
275
    -2
285
     1
 65
     0
276
    -2
286
     1
 66
     0
277
    -2
287
     1
 67
     0
278
    -2
288
     1
 68
     0
279
    -2
289
     1
 69
     0
  0
VISUALSTYLE
  5
2F
102
{ACAD_REACTORS
330
2A
102
}
102
{ACAD_XDICTIONARY
360
EA
102
}
330
2A
100
AcDbVisualStyle
  2
2dWireframe
 70
     4
 71
     0
 72
     2
 73
     0
 90
        0
 40
0.6
 41
30.0
 62
     5
 63
     7
421
 16777215
 74
     1
 91
        4
 64
     7
 65
   257
 75
     1
175
     1
 42
1.0
 92
        0
 66
   257
 43
1.0
 76
     1
 77
     6
 78
     2
 67
     7
 79
     5
170
     0
171
     0
290
     0
174
     0
 93
        1
 44
0.0
173
     0
291
     0
 45
0.0
  0
VISUALSTYLE
  5
32
102
{ACAD_REACTORS
330
2A
102
}
102
{ACAD_XDICTIONARY
360
F0
102
}
330
2A
100
AcDbVisualStyle
  2
Basic
 70
     7
 71
     1
 72
     0
 73
     1
 90
        0
 40
0.6
 41
30.0
 62
     5
 63
     7
421
 16777215
 74
     0
 91
        4
 64
     7
 65
   257
 75
     1
175
     1
 42
1.0
 92
        8
 66
     7
 43
1.0
 76
     1
 77
     6
 78
     2
 67
     7
 79
     5
170
     0
171
     0
290
     0
174
     0
 93
        1
 44
0.0
173
     0
291
     1
 45
0.0
  0
VISUALSTYLE
  5
36
102
{ACAD_REACTORS
330
2A
102
}
102
{ACAD_XDICTIONARY
360
F8
102
}
330
2A
100
AcDbVisualStyle
  2
Brighten
 70
    12
 71
     2
 72
     2
 73
     0
 90
        0
 40
0.6
 41
30.0
 62
     5
 63
     7
421
 16777215
 74
     1
 91
        4
 64
     7
 65
   257
 75
     1
175
     1
 42
1.0
 92
        8
 66
     7
 43
1.0
 76
     1
 77
     6
 78
     2
 67
     7
 79
     5
170
     0
171
     0
290
     0
174
     0
 93
        1
 44
50.0
173
     0
291
     1
 45
0.0
  0
VISUALSTYLE
  5
3A
102
{ACAD_REACTORS
330
2A
102
}
102
{ACAD_XDICTIONARY
360
100
102
}
330
2A
100
AcDbVisualStyle
  2
ColorChange
 70
    16
 71
     2
 72
     2
 73
     3
 90
        0
 40
0.6
 41
30.0
 62
     5
 63
     8
421
  8421504
 74
     1
 91
        4
 64
     7
 65
   257
 75
     1
175
     1
 42
1.0
 92
        8
 66
     8
424
  8421504
 43
1.0
 76
     1
 77
     6
 78
     2
 67
     7
 79
     5
170
     0
171
     0
290
     0
174
     0
 93
        1
 44
0.0
173
     0
291
     1
 45
0.0
  0
VISUALSTYLE
  5
34
102
{ACAD_REACTORS
330
2A
102
}
102
{ACAD_XDICTIONARY
360
F4
102
}
330
2A
100
AcDbVisualStyle
  2
Conceptual
 70
     9
 71
     3
 72
     2
 73
     0
 90
        0
 40
0.6
 41
30.0
 62
     5
 63
     7
421
 16777215
 74
     2
 91
        2
 64
     7
 65
   257
 75
     1
175
     1
 42
179.0
 92
        8
 66
     7
 43
1.0
 76
     1
 77
     6
 78
     2
 67
     7
 79
     3
170
     0
171
     0
290
     0
174
     0
 93
        1
 44
0.0
173
     0
291
     0
 45
0.0
  0
VISUALSTYLE
  5
35
102
{ACAD_REACTORS
330
2A
102
}
102
{ACAD_XDICTIONARY
360
F6
102
}
330
2A
100
AcDbVisualStyle
  2
Dim
 70
    11
 71
     2
 72
     2
 73
     0
 90
        0
 40
0.6
 41
30.0
 62
     5
 63
     7
421
 16777215
 74
     1
 91
        4
 64
     7
 65
   257
 75
     1
175
     1
 42
1.0
 92
        8
 66
     7
 43
1.0
 76
     1
 77
     6
 78
     2
 67
     7
 79
     5
170
     0
171
     0
290
     0
174
     0
 93
        1
 44
-50.0
173
     0
291
     1
 45
0.0
  0
VISUALSTYLE
  5
3D
102
{ACAD_REACTORS
330
2A
102
}
102
{ACAD_XDICTIONARY
360
106
102
}
330
2A
100
AcDbVisualStyle
  2
EdgeColorOff
 70
    22
 71
     2
 72
     2
 73
     0
 90
        0
 40
0.6
 41
30.0
 62
     5
 63
     7
421
 16777215
 74
     1
 91
        4
 64
     7
 65
   257
 75
     1
175
     1
 42
1.0
 92
        8
 66
     7
 43
1.0
 76
     1
 77
     6
 78
     2
 67
     7
 79
     5
170
     0
171
     0
290
     0
174
     0
 93
        1
 44
0.0
173
     0
291
     1
 45
0.0
  0
VISUALSTYLE
  5
39
102
{ACAD_REACTORS
330
2A
102
}
102
{ACAD_XDICTIONARY
360
FE
102
}
330
2A
100
AcDbVisualStyle
  2
Facepattern
 70
    15
 71
     2
 72
     2
 73
     0
 90
        0
 40
0.6
 41
30.0
 62
     5
 63
     7
421
 16777215
 74
     1
 91
        4
 64
     7
 65
   257
 75
     1
175
     1
 42
1.0
 92
        8
 66
     7
 43
1.0
 76
     1
 77
     6
 78
     2
 67
     7
 79
     5
170
     0
171
     0
290
     0
174
     0
 93
        1
 44
0.0
173
     0
291
     1
 45
0.0
  0
VISUALSTYLE
  5
2B
102
{ACAD_REACTORS
330
2A
102
}
102
{ACAD_XDICTIONARY
360
E2
102
}
330
2A
100
AcDbVisualStyle
  2
Flat
 70
     0
 71
     2
 72
     1
 73
     1
 90
        2
 40
0.6
 41
30.0
 62
     5
 63
     7
421
 16777215
 74
     0
 91
        0
 64
     7
 65
   257
 75
     1
175
     1
 42
1.0
 92
        8
 66
     7
 43
1.0
 76
     1
 77
     6
 78
     2
 67
     7
 79
     5
170
     0
171
     0
290
     0
174
     0
 93
       13
 44
0.0
173
     0
291
     1
 45
0.0
  0
VISUALSTYLE
  5
2C
102
{ACAD_REACTORS
330
2A
102
}
102
{ACAD_XDICTIONARY
360
E4
102
}
330
2A
100
AcDbVisualStyle
  2
FlatWithEdges
 70
     1
 71
     2
 72
     1
 73
     1
 90
        2
 40
0.6
 41
30.0
 62
     5
 63
     7
421
 16777215
 74
     1
 91
        0
 64
     7
 65
   257
 75
     1
175
     1
 42
1.0
 92
        0
 66
   257
 43
1.0
 76
     1
 77
     6
 78
     2
 67
     7
 79
     5
170
     0
171
     0
290
     0
174
     0
 93
       13
 44
0.0
173
     0
291
     1
 45
0.0
  0
VISUALSTYLE
  5
2D
102
{ACAD_REACTORS
330
2A
102
}
102
{ACAD_XDICTIONARY
360
E6
102
}
330
2A
100
AcDbVisualStyle
  2
Gouraud
 70
     2
 71
     2
 72
     2
 73
     1
 90
        2
 40
0.6
 41
30.0
 62
     5
 63
     7
421
 16777215
 74
     0
 91
        0
 64
     7
 65
   257
 75
     1
175
     1
 42
1.0
 92
        0
 66
     7
 43
1.0
 76
     1
 77
     6
 78
     2
 67
     7
 79
     5
170
     0
171
     0
290
     0
174
     0
 93
       13
 44
0.0
173
     0
291
     1
 45
0.0
  0
VISUALSTYLE
  5
2E
102
{ACAD_REACTORS
330
2A
102
}
102
{ACAD_XDICTIONARY
360
E8
102
}
330
2A
100
AcDbVisualStyle
  2
GouraudWithEdges
 70
     3
 71
     2
 72
     2
 73
     1
 90
        2
 40
0.6
 41
30.0
 62
     5
 63
     7
421
 16777215
 74
     1
 91
        0
 64
     7
 65
   257
 75
     1
175
     1
 42
1.0
 92
        0
 66
   257
 43
1.0
 76
     1
 77
     6
 78
     2
 67
     7
 79
     5
170
     0
171
     0
290
     0
174
     0
 93
       13
 44
0.0
173
     0
291
     1
 45
0.0
  0
VISUALSTYLE
  5
31
102
{ACAD_REACTORS
330
2A
102
}
102
{ACAD_XDICTIONARY
360
EE
102
}
330
2A
100
AcDbVisualStyle
  2
Hidden
 70
     6
 71
     1
 72
     2
 73
     2
 90
        0
 40
0.6
 41
30.0
 62
     5
 63
     7
421
 16777215
 74
     2
 91
        2
 64
     7
 65
   257
 75
     2
175
     1
 42
40.0
 92
        0
 66
   257
 43
1.0
 76
     1
 77
     6
 78
     2
 67
     7
 79
     3
170
     0
171
     0
290
     0
174
     0
 93
        1
 44
0.0
173
     0
291
     0
 45
0.0
  0
VISUALSTYLE
  5
3B
102
{ACAD_REACTORS
330
2A
102
}
102
{ACAD_XDICTIONARY
360
102
102
}
330
2A
100
AcDbVisualStyle
  2
JitterOff
 70
    20
 71
     2
 72
     2
 73
     0
 90
        0
 40
0.6
 41
30.0
 62
     5
 63
     7
421
 16777215
 74
     1
 91
        4
 64
     7
 65
   257
 75
     1
175
     1
 42
1.0
 92
       10
 66
     7
 43
1.0
 76
     1
 77
     6
 78
     2
 67
     7
 79
     5
170
     0
171
     0
290
     0
174
     0
 93
        1
 44
0.0
173
     0
291
     1
 45
0.0
  0
VISUALSTYLE
  5
38
102
{ACAD_REACTORS
330
2A
102
}
102
{ACAD_XDICTIONARY
360
FC
102
}
330
2A
100
AcDbVisualStyle
  2
Linepattern
 70
    14
 71
     2
 72
     2
 73
     0
 90
        0
 40
0.6
 41
30.0
 62
     5
 63
     7
421
 16777215
 74
     1
 91
        4
 64
     7
 65
   257
 75
     7
175
     7
 42
1.0
 92
        8
 66
     7
 43
1.0
 76
     1
 77
     6
 78
     2
 67
     7
 79
     5
170
     0
171
     0
290
     0
174
     0
 93
        1
 44
0.0
173
     0
291
     1
 45
0.0
  0
VISUALSTYLE
  5
3C
102
{ACAD_REACTORS
330
2A
102
}
102
{ACAD_XDICTIONARY
360
104
102
}
330
2A
100
AcDbVisualStyle
  2
OverhangOff
 70
    21
 71
     2
 72
     2
 73
     0
 90
        0
 40
0.6
 41
30.0
 62
     5
 63
     7
421
 16777215
 74
     1
 91
        4
 64
     7
 65
   257
 75
     1
175
     1
 42
1.0
 92
        9
 66
     7
 43
1.0
 76
     1
 77
     6
 78
     2
 67
     7
 79
     5
170
     0
171
     0
290
     0
174
     0
 93
        1
 44
0.0
173
     0
291
     1
 45
0.0
  0
VISUALSTYLE
  5
33
102
{ACAD_REACTORS
330
2A
102
}
102
{ACAD_XDICTIONARY
360
F2
102
}
330
2A
100
AcDbVisualStyle
  2
Realistic
 70
     8
 71
     2
 72
     3
 73
     0
 90
        2
 40
0.6
 41
30.0
 62
     5
 63
     7
421
 16777215
 74
     0
 91
        0
 64
     7
 65
   257
 75
     1
175
     1
 42
1.0
 92
        8
 66
   257
 43
1.0
 76
     1
 77
     6
 78
     2
 67
     7
 79
     3
170
     0
171
     0
290
     0
174
     0
 93
       13
 44
0.0
173
     0
291
     0
 45
0.0
  0
VISUALSTYLE
  5
42
102
{ACAD_REACTORS
330
2A
102
}
102
{ACAD_XDICTIONARY
360
110
102
}
330
2A
100
AcDbVisualStyle
  2
Shaded
 70
    27
 71
     2
 72
     2
 73
     1
 90
        2
 40
0.6
 41
30.0
 62
     5
 63
     7
421
 16777215
 74
     0
 91
        4
 64
     7
 65
   257
 75
     1
175
     1
 42
1.0
 92
        8
 66
   257
 43
1.0
 76
     1
 77
     6
 78
     2
 67
     8
425
  7895160
 79
     3
170
     0
171
     0
290
     0
174
     0
 93
        5
 44
0.0
173
     0
291
     0
 45
0.0
  0
VISUALSTYLE
  5
41
102
{ACAD_REACTORS
330
2A
102
}
102
{ACAD_XDICTIONARY
360
10E
102
}
330
2A
100
AcDbVisualStyle
  2
Shaded with edges
 70
    26
 71
     2
 72
     2
 73
     1
 90
        2
 40
0.6
 41
30.0
 62
     5
 63
     7
421
 16777215
 74
     1
 91
       10
 64
     7
 65
   257
 75
     2
175
     1
 42
1.0
 92
        8
 66
   257
 43
1.0
 76
     1
 77
     6
 78
     2
 67
     7
 79
     3
170
     0
171
     0
290
     0
174
     0
 93
        5
 44
0.0
173
     0
291
     0
 45
0.0
  0
VISUALSTYLE
  5
3E
102
{ACAD_REACTORS
330
2A
102
}
102
{ACAD_XDICTIONARY
360
108
102
}
330
2A
100
AcDbVisualStyle
  2
Shades of Gray
 70
    23
 71
     2
 72
     2
 73
     3
 90
        0
 40
0.6
 41
30.0
 62
     5
 63
     7
421
 16777215
 74
     2
 91
        2
 64
     7
 65
     7
 75
     1
175
     1
 42
40.0
 92
        8
 66
     7
 43
1.0
 76
     1
 77
     6
 78
     2
 67
     7
 79
     3
170
     0
171
     0
290
     0
174
     0
 93
        1
 44
0.0
173
     0
291
     0
 45
0.0
  0
VISUALSTYLE
  5
3F
102
{ACAD_REACTORS
330
2A
102
}
102
{ACAD_XDICTIONARY
360
10A
102
}
330
2A
100
AcDbVisualStyle
  2
Sketchy
 70
    24
 71
     1
 72
     2
 73
     2
 90
        0
 40
0.6
 41
30.0
 62
     5
 63
     7
421
 16777215
 74
     2
 91
        2
 64
     7
 65
     7
 75
     1
175
     1
 42
40.0
 92
       11
 66
     7
 43
1.0
 76
     1
 77
     6
 78
     2
 67
     7
 79
     6
170
     0
171
     0
290
     0
174
     0
 93
        1
 44
0.0
173
     0
291
     0
 45
0.0
  0
VISUALSTYLE
  5
37
102
{ACAD_REACTORS
330
2A
102
}
102
{ACAD_XDICTIONARY
360
FA
102
}
330
2A
100
AcDbVisualStyle
  2
Thicken
 70
    13
 71
     2
 72
     2
 73
     0
 90
        0
 40
0.6
 41
30.0
 62
     5
 63
     7
421
 16777215
 74
     1
 91
        4
 64
     7
 65
   257
 75
     1
175
     1
 42
1.0
 92
       12
 66
     7
 43
1.0
 76
     1
 77
     6
 78
     2
 67
     7
 79
     5
170
     0
171
     0
290
     0
174
     0
 93
        1
 44
0.0
173
     0
291
     1
 45
0.0
  0
VISUALSTYLE
  5
30
102
{ACAD_REACTORS
330
2A
102
}
102
{ACAD_XDICTIONARY
360
EC
102
}
330
2A
100
AcDbVisualStyle
  2
Wireframe
 70
     5
 71
     0
 72
     2
 73
     0
 90
        0
 40
0.6
 41
30.0
 62
     5
 63
     7
421
 16777215
 74
     1
 91
        4
 64
     7
 65
   257
 75
     1
175
     1
 42
1.0
 92
        0
 66
   257
 43
1.0
 76
     1
 77
     6
 78
     2
 67
     7
 79
     3
170
     0
171
     0
290
     0
174
     0
 93
        1
 44
0.0
173
     0
291
     0
 45
0.0
  0
VISUALSTYLE
  5
40
102
{ACAD_REACTORS
330
2A
102
}
102
{ACAD_XDICTIONARY
360
10C
102
}
330
2A
100
AcDbVisualStyle
  2
X-Ray
 70
    25
 71
     2
 72
     2
 73
     1
 90
        1
 40
0.5
 41
30.0
 62
     5
 63
     7
421
 16777215
 74
     1
 91
        0
 64
     7
 65
   257
 75
     1
175
     1
 42
1.0
 92
        8
 66
     7
 43
1.0
 76
     1
 77
     6
 78
     2
 67
     7
 79
     3
170
     0
171
     0
290
     0
174
     0
 93
       13
 44
0.0
173
     0
291
     0
 45
0.0
  0
DICTIONARYVAR
  5
E0
102
{ACAD_REACTORS
330
DF
102
}
330
DF
100
DictionaryVariables
280
     0
  1
1:1
  0
DICTIONARYVAR
  5
119
102
{ACAD_REACTORS
330
DF
102
}
330
DF
100
DictionaryVariables
280
     0
  1
Standard
  0
DICTIONARYVAR
  5
118
102
{ACAD_REACTORS
330
DF
102
}
330
DF
100
DictionaryVariables
280
     0
  1
Standard
  0
DICTIONARYVAR
  5
E1
102
{ACAD_REACTORS
330
DF
102
}
330
DF
100
DictionaryVariables
280
     0
  1
2
  0
DICTIONARY
  5
115
330
6C
100
AcDbDictionary
280
     1
281
     1
  3
ACAD_XREC_ROUNDTRIP
360
116
  0
DICTIONARY
  5
112
330
6A
100
AcDbDictionary
280
     1
281
     1
  3
ACAD_ROUNDTRIP_2008_TABLESTYLE_CELLSTYLEMAP
360
113
  0
DICTIONARY
  5
EA
330
2F
100
AcDbDictionary
280
     1
281
     1
  3
ACAD_XREC_ROUNDTRIP
360
EB
  0
DICTIONARY
  5
F0
330
32
100
AcDbDictionary
280
     1
281
     1
  3
ACAD_XREC_ROUNDTRIP
360
F1
  0
DICTIONARY
  5
F8
330
36
100
AcDbDictionary
280
     1
281
     1
  3
ACAD_XREC_ROUNDTRIP
360
F9
  0
DICTIONARY
  5
100
330
3A
100
AcDbDictionary
280
     1
281
     1
  3
ACAD_XREC_ROUNDTRIP
360
101
  0
DICTIONARY
  5
F4
330
34
100
AcDbDictionary
280
     1
281
     1
  3
ACAD_XREC_ROUNDTRIP
360
F5
  0
DICTIONARY
  5
F6
330
35
100
AcDbDictionary
280
     1
281
     1
  3
ACAD_XREC_ROUNDTRIP
360
F7
  0
DICTIONARY
  5
106
330
3D
100
AcDbDictionary
280
     1
281
     1
  3
ACAD_XREC_ROUNDTRIP
360
107
  0
DICTIONARY
  5
FE
330
39
100
AcDbDictionary
280
     1
281
     1
  3
ACAD_XREC_ROUNDTRIP
360
FF
  0
DICTIONARY
  5
E2
330
2B
100
AcDbDictionary
280
     1
281
     1
  3
ACAD_XREC_ROUNDTRIP
360
E3
  0
DICTIONARY
  5
E4
330
2C
100
AcDbDictionary
280
     1
281
     1
  3
ACAD_XREC_ROUNDTRIP
360
E5
  0
DICTIONARY
  5
E6
330
2D
100
AcDbDictionary
280
     1
281
     1
  3
ACAD_XREC_ROUNDTRIP
360
E7
  0
DICTIONARY
  5
E8
330
2E
100
AcDbDictionary
280
     1
281
     1
  3
ACAD_XREC_ROUNDTRIP
360
E9
  0
DICTIONARY
  5
EE
330
31
100
AcDbDictionary
280
     1
281
     1
  3
ACAD_XREC_ROUNDTRIP
360
EF
  0
DICTIONARY
  5
102
330
3B
100
AcDbDictionary
280
     1
281
     1
  3
ACAD_XREC_ROUNDTRIP
360
103
  0
DICTIONARY
  5
FC
330
38
100
AcDbDictionary
280
     1
281
     1
  3
ACAD_XREC_ROUNDTRIP
360
FD
  0
DICTIONARY
  5
104
330
3C
100
AcDbDictionary
280
     1
281
     1
  3
ACAD_XREC_ROUNDTRIP
360
105
  0
DICTIONARY
  5
F2
330
33
100
AcDbDictionary
280
     1
281
     1
  3
ACAD_XREC_ROUNDTRIP
360
F3
  0
DICTIONARY
  5
110
330
42
100
AcDbDictionary
280
     1
281
     1
  3
ACAD_XREC_ROUNDTRIP
360
111
  0
DICTIONARY
  5
10E
330
41
100
AcDbDictionary
280
     1
281
     1
  3
ACAD_XREC_ROUNDTRIP
360
10F
  0
DICTIONARY
  5
108
330
3E
100
AcDbDictionary
280
     1
281
     1
  3
ACAD_XREC_ROUNDTRIP
360
109
  0
DICTIONARY
  5
10A
330
3F
100
AcDbDictionary
280
     1
281
     1
  3
ACAD_XREC_ROUNDTRIP
360
10B
  0
DICTIONARY
  5
FA
330
37
100
AcDbDictionary
280
     1
281
     1
  3
ACAD_XREC_ROUNDTRIP
360
FB
  0
DICTIONARY
  5
EC
330
30
100
AcDbDictionary
280
     1
281
     1
  3
ACAD_XREC_ROUNDTRIP
360
ED
  0
DICTIONARY
  5
10C
330
40
100
AcDbDictionary
280
     1
281
     1
  3
ACAD_XREC_ROUNDTRIP
360
10D
  0
XRECORD
  5
116
102
{ACAD_REACTORS
330
115
102
}
330
115
100
AcDbXrecord
280
     1
102
ACAD_ROUNDTRIP_2010_MLEADER_STYLE
  0
CELLSTYLEMAP
  5
113
102
{ACAD_REACTORS
330
112
102
}
330
112
100
AcDbCellStyleMap
 90
        3
300
CELLSTYLE
  1
TABLEFORMAT_BEGIN
 90
        5
170
     1
 91
        0
 92
    32768
 62
   257
 93
        1
300
CONTENTFORMAT
  1
CONTENTFORMAT_BEGIN
 90
        0
 91
        0
 92
        4
 93
        0
300

 40
0.0
140
1.0
 94
        5
 62
     0
340
11
144
0.25
309
CONTENTFORMAT_END
171
     1
301
MARGIN
  1
CELLMARGIN_BEGIN
 40
0.06
 40
0.06
 40
0.06
 40
0.06
 40
0.06
 40
0.06
309
CELLMARGIN_END
 94
        6
 95
        1
302
GRIDFORMAT
  1
GRIDFORMAT_BEGIN
 90
        0
 91
        1
 62
     0
 92
       -2
340
14
 93
        0
 40
0.045
309
GRIDFORMAT_END
 95
        2
302
GRIDFORMAT
  1
GRIDFORMAT_BEGIN
 90
        0
 91
        1
 62
     0
 92
       -2
340
14
 93
        0
 40
0.045
309
GRIDFORMAT_END
 95
        4
302
GRIDFORMAT
  1
GRIDFORMAT_BEGIN
 90
        0
 91
        1
 62
     0
 92
       -2
340
14
 93
        0
 40
0.045
309
GRIDFORMAT_END
 95
        8
302
GRIDFORMAT
  1
GRIDFORMAT_BEGIN
 90
        0
 91
        1
 62
     0
 92
       -2
340
14
 93
        0
 40
0.045
309
GRIDFORMAT_END
 95
       16
302
GRIDFORMAT
  1
GRIDFORMAT_BEGIN
 90
        0
 91
        1
 62
     0
 92
       -2
340
14
 93
        0
 40
0.045
309
GRIDFORMAT_END
 95
       32
302
GRIDFORMAT
  1
GRIDFORMAT_BEGIN
 90
        0
 91
        1
 62
     0
 92
       -2
340
14
 93
        0
 40
0.045
309
GRIDFORMAT_END
309
TABLEFORMAT_END
  1
CELLSTYLE_BEGIN
 90
        1
 91
        1
300
_TITLE
309
CELLSTYLE_END
300
CELLSTYLE
  1
TABLEFORMAT_BEGIN
 90
        5
170
     1
 91
        0
 92
        0
 62
   257
 93
        1
300
CONTENTFORMAT
  1
CONTENTFORMAT_BEGIN
 90
        0
 91
        0
 92
        4
 93
        0
300

 40
0.0
140
1.0
 94
        5
 62
     0
340
11
144
0.18
309
CONTENTFORMAT_END
171
     1
301
MARGIN
  1
CELLMARGIN_BEGIN
 40
0.06
 40
0.06
 40
0.06
 40
0.06
 40
0.06
 40
0.06
309
CELLMARGIN_END
 94
        6
 95
        1
302
GRIDFORMAT
  1
GRIDFORMAT_BEGIN
 90
        0
 91
        1
 62
     0
 92
       -2
340
14
 93
        0
 40
0.045
309
GRIDFORMAT_END
 95
        2
302
GRIDFORMAT
  1
GRIDFORMAT_BEGIN
 90
        0
 91
        1
 62
     0
 92
       -2
340
14
 93
        0
 40
0.045
309
GRIDFORMAT_END
 95
        4
302
GRIDFORMAT
  1
GRIDFORMAT_BEGIN
 90
        0
 91
        1
 62
     0
 92
       -2
340
14
 93
        0
 40
0.045
309
GRIDFORMAT_END
 95
        8
302
GRIDFORMAT
  1
GRIDFORMAT_BEGIN
 90
        0
 91
        1
 62
     0
 92
       -2
340
14
 93
        0
 40
0.045
309
GRIDFORMAT_END
 95
       16
302
GRIDFORMAT
  1
GRIDFORMAT_BEGIN
 90
        0
 91
        1
 62
     0
 92
       -2
340
14
 93
        0
 40
0.045
309
GRIDFORMAT_END
 95
       32
302
GRIDFORMAT
  1
GRIDFORMAT_BEGIN
 90
        0
 91
        1
 62
     0
 92
       -2
340
14
 93
        0
 40
0.045
309
GRIDFORMAT_END
309
TABLEFORMAT_END
  1
CELLSTYLE_BEGIN
 90
        2
 91
        1
300
_HEADER
309
CELLSTYLE_END
300
CELLSTYLE
  1
TABLEFORMAT_BEGIN
 90
        5
170
     1
 91
        0
 92
        0
 62
   257
 93
        1
300
CONTENTFORMAT
  1
CONTENTFORMAT_BEGIN
 90
        0
 91
        0
 92
        4
 93
        0
300

 40
0.0
140
1.0
 94
        2
 62
     0
340
11
144
0.18
309
CONTENTFORMAT_END
171
     1
301
MARGIN
  1
CELLMARGIN_BEGIN
 40
0.06
 40
0.06
 40
0.06
 40
0.06
 40
0.06
 40
0.06
309
CELLMARGIN_END
 94
        6
 95
        1
302
GRIDFORMAT
  1
GRIDFORMAT_BEGIN
 90
        0
 91
        1
 62
     0
 92
       -2
340
14
 93
        0
 40
0.045
309
GRIDFORMAT_END
 95
        2
302
GRIDFORMAT
  1
GRIDFORMAT_BEGIN
 90
        0
 91
        1
 62
     0
 92
       -2
340
14
 93
        0
 40
0.045
309
GRIDFORMAT_END
 95
        4
302
GRIDFORMAT
  1
GRIDFORMAT_BEGIN
 90
        0
 91
        1
 62
     0
 92
       -2
340
14
 93
        0
 40
0.045
309
GRIDFORMAT_END
 95
        8
302
GRIDFORMAT
  1
GRIDFORMAT_BEGIN
 90
        0
 91
        1
 62
     0
 92
       -2
340
14
 93
        0
 40
0.045
309
GRIDFORMAT_END
 95
       16
302
GRIDFORMAT
  1
GRIDFORMAT_BEGIN
 90
        0
 91
        1
 62
     0
 92
       -2
340
14
 93
        0
 40
0.045
309
GRIDFORMAT_END
 95
       32
302
GRIDFORMAT
  1
GRIDFORMAT_BEGIN
 90
        0
 91
        1
 62
     0
 92
       -2
340
14
 93
        0
 40
0.045
309
GRIDFORMAT_END
309
TABLEFORMAT_END
  1
CELLSTYLE_BEGIN
 90
        3
 91
        2
300
_DATA
309
CELLSTYLE_END
  0
XRECORD
  5
EB
102
{ACAD_REACTORS
330
EA
102
}
330
EA
100
AcDbXrecord
280
     1
102
RTVSPropertyOp0
 70
     1
102
RTVSPropertyOp1
 70
     1
102
RTVSPropertyOp2
 70
     1
102
RTVSPropertyOp3
 70
     1
102
RTVSPropertyOp4
 70
     1
102
RTVSPropertyOp5
 70
     1
102
RTVSPropertyOp6
 70
     1
102
RTVSPropertyOp7
 70
     1
102
RTVSPropertyOp8
 70
     1
102
RTVSPropertyOp9
 70
     1
102
RTVSPropertyOp10
 70
     1
102
RTVSPropertyOp11
 70
     1
102
RTVSPropertyOp12
 70
     1
102
RTVSPropertyOp13
 70
     1
102
RTVSPropertyOp14
 70
     1
102
RTVSPropertyOp15
 70
     1
102
RTVSPropertyOp16
 70
     1
102
RTVSPropertyOp17
 70
     1
102
RTVSPropertyOp18
 70
     1
102
RTVSPropertyOp19
 70
     1
102
RTVSPropertyOp20
 70
     1
102
RTVSPropertyOp21
 70
     1
102
RTVSPropertyOp22
 70
     1
102
RTVSPropertyOp23
 70
     1
102
RTVSPropertyOp24
 70
     1
102
RTVSPropertyOp25
 70
     1
102
RTVSPropertyOp26
 70
     1
102
RTVSPropertyOp27
 70
     1
102
RTVSPropertyOp28
 70
     1
102
RTVSPropertyOp29
 70
     1
102
RTVSPropertyOp30
 70
     1
102
RTVSPropertyOp31
 70
     1
102
RTVSPropertyOp32
 70
     1
102
RTVSPropertyOp33
 70
     1
102
RTVSPropertyOp34
 70
     1
102
RTVSPropertyOp35
 70
     1
102
RTVSPropertyOp36
 70
     1
102
RTVSPropertyOp37
 70
     1
102
RTVSPropertyOp38
 70
     1
102
RTVSPropertyOp39
 70
     1
102
RTVSPropertyOp40
 70
     1
102
RTVSPropertyOp41
 70
     1
102
RTVSPropertyOp42
 70
     1
102
RTVSPropertyOp43
 70
     1
102
RTVSPropertyOp44
 70
     1
102
RTVSPropertyOp45
 70
     1
102
RTVSPropertyOp46
 70
     1
102
RTVSPropertyOp47
 70
     1
102
RTVSPropertyOp48
 70
     1
102
RTVSPropertyOp49
 70
     1
102
RTVSPropertyOp50
 70
     1
102
RTVSPropertyOp51
 70
     0
102
RTVSPropertyOp52
 70
     0
102
RTVSPropertyOp53
 70
     1
102
RTVSPropertyOp54
 70
     1
102
RTVSPropertyOp55
 70
     1
102
RTVSPropertyOp56
 70
     1
102
RTVSPropertyOp57
 70
     1
102
RTVSPost2010Prop28
280
     1
102
RTVSPost2010PropOp28
 70
     1
102
RTVSPost2010Prop29
280
     1
102
RTVSPost2010PropOp29
 70
     1
102
RTVSPost2010Prop30
280
     0
102
RTVSPost2010PropOp30
 70
     1
102
RTVSPost2010Prop31
280
     0
102
RTVSPost2010PropOp31
 70
     1
102
RTVSPost2010Prop32
280
     0
102
RTVSPost2010PropOp32
 70
     1
102
RTVSPost2010Prop33
280
     0
102
RTVSPost2010PropOp33
 70
     1
102
RTVSPost2010Prop34
280
     0
102
RTVSPost2010PropOp34
 70
     1
102
RTVSPost2010Prop35
280
     0
102
RTVSPost2010PropOp35
 70
     1
102
RTVSPost2010Prop36
280
     0
102
RTVSPost2010PropOp36
 70
     1
102
RTVSPost2010Prop37
 90
       50
102
RTVSPost2010PropOp37
 70
     1
102
RTVSPost2010Prop38
140
0.0
102
RTVSPost2010PropOp38
 70
     1
102
RTVSPost2010Prop39
140
1.0
102
RTVSPost2010PropOp39
 70
     1
102
RTVSPost2010Prop40
 90
        0
102
RTVSPost2010PropOp40
 70
     1
102
RTVSPost2010Prop41ColorIndex
 90
       18
102
RTVSPost2010Prop41ColorRGB
 90
        0
102
RTVSPost2010PropOp41
 70
     1
102
RTVSPost2010Prop42
 90
       50
102
RTVSPost2010PropOp42
 70
     1
102
RTVSPost2010Prop43
 90
        3
102
RTVSPost2010PropOp43
 70
     1
102
RTVSPost2010Prop44ColorIndex
 90
        5
102
RTVSPost2010Prop44ColorRGB
 90
      255
102
RTVSPost2010PropOp44
 70
     1
102
RTVSPost2010Prop45
280
     0
102
RTVSPost2010PropOp45
 70
     1
102
RTVSPost2010Prop46
 90
       50
102
RTVSPost2010PropOp46
 70
     1
102
RTVSPost2010Prop47
 90
       50
102
RTVSPost2010PropOp47
 70
     1
102
RTVSPost2010Prop48
 90
       50
102
RTVSPost2010PropOp48
 70
     1
102
RTVSPost2010Prop49
280
     0
102
RTVSPost2010PropOp49
 70
     1
102
RTVSPost2010Prop50
 90
       50
102
RTVSPost2010PropOp50
 70
     1
102
RTVSPost2010Prop51ColorIndex
 90
      256
102
RTVSPost2010Prop51ColorRGB
 90
-16777216
102
RTVSPost2010PropOp51
 70
     0
102
RTVSPost2010Prop52
140
1.0
102
RTVSPost2010PropOp52
 70
     0
102
RTVSPost2010Prop53
 90
        2
102
RTVSPost2010PropOp53
 70
     1
102
RTVSPost2010Prop54
  1
strokes_ogs.tif
102
RTVSPost2010PropOp54
 70
     1
102
RTVSPost2010Prop55
280
     0
102
RTVSPost2010PropOp55
 70
     1
102
RTVSPost2010Prop56
140
1.0
102
RTVSPost2010PropOp56
 70
     1
102
RTVSPost2010Prop57
140
1.0
102
RTVSPost2010PropOp57
 70
     1
  0
XRECORD
  5
F1
102
{ACAD_REACTORS
330
F0
102
}
330
F0
100
AcDbXrecord
280
     1
102
RTVSPropertyOp0
 70
     1
102
RTVSPropertyOp1
 70
     1
102
RTVSPropertyOp2
 70
     1
102
RTVSPropertyOp3
 70
     1
102
RTVSPropertyOp4
 70
     1
102
RTVSPropertyOp5
 70
     1
102
RTVSPropertyOp6
 70
     1
102
RTVSPropertyOp7
 70
     1
102
RTVSPropertyOp8
 70
     1
102
RTVSPropertyOp9
 70
     1
102
RTVSPropertyOp10
 70
     1
102
RTVSPropertyOp11
 70
     1
102
RTVSPropertyOp12
 70
     1
102
RTVSPropertyOp13
 70
     1
102
RTVSPropertyOp14
 70
     1
102
RTVSPropertyOp15
 70
     1
102
RTVSPropertyOp16
 70
     1
102
RTVSPropertyOp17
 70
     1
102
RTVSPropertyOp18
 70
     1
102
RTVSPropertyOp19
 70
     1
102
RTVSPropertyOp20
 70
     1
102
RTVSPropertyOp21
 70
     1
102
RTVSPropertyOp22
 70
     1
102
RTVSPropertyOp23
 70
     1
102
RTVSPropertyOp24
 70
     1
102
RTVSPropertyOp25
 70
     1
102
RTVSPropertyOp26
 70
     1
102
RTVSPropertyOp27
 70
     1
102
RTVSPropertyOp28
 70
     1
102
RTVSPropertyOp29
 70
     1
102
RTVSPropertyOp30
 70
     1
102
RTVSPropertyOp31
 70
     1
102
RTVSPropertyOp32
 70
     1
102
RTVSPropertyOp33
 70
     1
102
RTVSPropertyOp34
 70
     1
102
RTVSPropertyOp35
 70
     1
102
RTVSPropertyOp36
 70
     1
102
RTVSPropertyOp37
 70
     1
102
RTVSPropertyOp38
 70
     1
102
RTVSPropertyOp39
 70
     1
102
RTVSPropertyOp40
 70
     1
102
RTVSPropertyOp41
 70
     1
102
RTVSPropertyOp42
 70
     1
102
RTVSPropertyOp43
 70
     1
102
RTVSPropertyOp44
 70
     1
102
RTVSPropertyOp45
 70
     1
102
RTVSPropertyOp46
 70
     1
102
RTVSPropertyOp47
 70
     1
102
RTVSPropertyOp48
 70
     1
102
RTVSPropertyOp49
 70
     1
102
RTVSPropertyOp50
 70
     1
102
RTVSPropertyOp51
 70
     0
102
RTVSPropertyOp52
 70
     0
102
RTVSPropertyOp53
 70
     1
102
RTVSPropertyOp54
 70
     1
102
RTVSPropertyOp55
 70
     1
102
RTVSPropertyOp56
 70
     1
102
RTVSPropertyOp57
 70
     1
102
RTVSPost2010Prop28
280
     0
102
RTVSPost2010PropOp28
 70
     1
102
RTVSPost2010Prop29
280
     1
102
RTVSPost2010PropOp29
 70
     1
102
RTVSPost2010Prop30
280
     1
102
RTVSPost2010PropOp30
 70
     1
102
RTVSPost2010Prop31
280
     0
102
RTVSPost2010PropOp31
 70
     1
102
RTVSPost2010Prop32
280
     0
102
RTVSPost2010PropOp32
 70
     1
102
RTVSPost2010Prop33
280
     0
102
RTVSPost2010PropOp33
 70
     1
102
RTVSPost2010Prop34
280
     0
102
RTVSPost2010PropOp34
 70
     1
102
RTVSPost2010Prop35
280
     0
102
RTVSPost2010PropOp35
 70
     1
102
RTVSPost2010Prop36
280
     0
102
RTVSPost2010PropOp36
 70
     1
102
RTVSPost2010Prop37
 90
       50
102
RTVSPost2010PropOp37
 70
     1
102
RTVSPost2010Prop38
140
0.0
102
RTVSPost2010PropOp38
 70
     1
102
RTVSPost2010Prop39
140
1.0
102
RTVSPost2010PropOp39
 70
     1
102
RTVSPost2010Prop40
 90
        0
102
RTVSPost2010PropOp40
 70
     1
102
RTVSPost2010Prop41ColorIndex
 90
       18
102
RTVSPost2010Prop41ColorRGB
 90
        0
102
RTVSPost2010PropOp41
 70
     1
102
RTVSPost2010Prop42
 90
       50
102
RTVSPost2010PropOp42
 70
     1
102
RTVSPost2010Prop43
 90
        3
102
RTVSPost2010PropOp43
 70
     1
102
RTVSPost2010Prop44ColorIndex
 90
        5
102
RTVSPost2010Prop44ColorRGB
 90
      255
102
RTVSPost2010PropOp44
 70
     1
102
RTVSPost2010Prop45
280
     0
102
RTVSPost2010PropOp45
 70
     1
102
RTVSPost2010Prop46
 90
       50
102
RTVSPost2010PropOp46
 70
     1
102
RTVSPost2010Prop47
 90
       50
102
RTVSPost2010PropOp47
 70
     1
102
RTVSPost2010Prop48
 90
       50
102
RTVSPost2010PropOp48
 70
     1
102
RTVSPost2010Prop49
280
     0
102
RTVSPost2010PropOp49
 70
     1
102
RTVSPost2010Prop50
 90
       50
102
RTVSPost2010PropOp50
 70
     1
102
RTVSPost2010Prop51ColorIndex
 90
      256
102
RTVSPost2010Prop51ColorRGB
 90
-16777216
102
RTVSPost2010PropOp51
 70
     0
102
RTVSPost2010Prop52
140
1.0
102
RTVSPost2010PropOp52
 70
     0
102
RTVSPost2010Prop53
 90
        2
102
RTVSPost2010PropOp53
 70
     1
102
RTVSPost2010Prop54
  1
strokes_ogs.tif
102
RTVSPost2010PropOp54
 70
     1
102
RTVSPost2010Prop55
280
     0
102
RTVSPost2010PropOp55
 70
     1
102
RTVSPost2010Prop56
140
1.0
102
RTVSPost2010PropOp56
 70
     1
102
RTVSPost2010Prop57
140
1.0
102
RTVSPost2010PropOp57
 70
     1
  0
XRECORD
  5
F9
102
{ACAD_REACTORS
330
F8
102
}
330
F8
100
AcDbXrecord
280
     1
102
RTVSPropertyOp0
 70
     1
102
RTVSPropertyOp1
 70
     1
102
RTVSPropertyOp2
 70
     1
102
RTVSPropertyOp3
 70
     1
102
RTVSPropertyOp4
 70
     1
102
RTVSPropertyOp5
 70
     1
102
RTVSPropertyOp6
 70
     1
102
RTVSPropertyOp7
 70
     1
102
RTVSPropertyOp8
 70
     1
102
RTVSPropertyOp9
 70
     1
102
RTVSPropertyOp10
 70
     1
102
RTVSPropertyOp11
 70
     1
102
RTVSPropertyOp12
 70
     1
102
RTVSPropertyOp13
 70
     1
102
RTVSPropertyOp14
 70
     1
102
RTVSPropertyOp15
 70
     1
102
RTVSPropertyOp16
 70
     1
102
RTVSPropertyOp17
 70
     1
102
RTVSPropertyOp18
 70
     1
102
RTVSPropertyOp19
 70
     1
102
RTVSPropertyOp20
 70
     1
102
RTVSPropertyOp21
 70
     1
102
RTVSPropertyOp22
 70
     1
102
RTVSPropertyOp23
 70
     1
102
RTVSPropertyOp24
 70
     1
102
RTVSPropertyOp25
 70
     1
102
RTVSPropertyOp26
 70
     1
102
RTVSPropertyOp27
 70
     1
102
RTVSPropertyOp28
 70
     1
102
RTVSPropertyOp29
 70
     1
102
RTVSPropertyOp30
 70
     1
102
RTVSPropertyOp31
 70
     1
102
RTVSPropertyOp32
 70
     1
102
RTVSPropertyOp33
 70
     1
102
RTVSPropertyOp34
 70
     1
102
RTVSPropertyOp35
 70
     1
102
RTVSPropertyOp36
 70
     1
102
RTVSPropertyOp37
 70
     1
102
RTVSPropertyOp38
 70
     1
102
RTVSPropertyOp39
 70
     1
102
RTVSPropertyOp40
 70
     1
102
RTVSPropertyOp41
 70
     1
102
RTVSPropertyOp42
 70
     1
102
RTVSPropertyOp43
 70
     1
102
RTVSPropertyOp44
 70
     1
102
RTVSPropertyOp45
 70
     1
102
RTVSPropertyOp46
 70
     1
102
RTVSPropertyOp47
 70
     1
102
RTVSPropertyOp48
 70
     1
102
RTVSPropertyOp49
 70
     1
102
RTVSPropertyOp50
 70
     1
102
RTVSPropertyOp51
 70
     0
102
RTVSPropertyOp52
 70
     0
102
RTVSPropertyOp53
 70
     1
102
RTVSPropertyOp54
 70
     1
102
RTVSPropertyOp55
 70
     1
102
RTVSPropertyOp56
 70
     1
102
RTVSPropertyOp57
 70
     1
102
RTVSPost2010Prop28
280
     0
102
RTVSPost2010PropOp28
 70
     1
102
RTVSPost2010Prop29
280
     1
102
RTVSPost2010PropOp29
 70
     1
102
RTVSPost2010Prop30
280
     1
102
RTVSPost2010PropOp30
 70
     1
102
RTVSPost2010Prop31
280
     0
102
RTVSPost2010PropOp31
 70
     1
102
RTVSPost2010Prop32
280
     0
102
RTVSPost2010PropOp32
 70
     1
102
RTVSPost2010Prop33
280
     0
102
RTVSPost2010PropOp33
 70
     1
102
RTVSPost2010Prop34
280
     0
102
RTVSPost2010PropOp34
 70
     1
102
RTVSPost2010Prop35
280
     0
102
RTVSPost2010PropOp35
 70
     1
102
RTVSPost2010Prop36
280
     0
102
RTVSPost2010PropOp36
 70
     1
102
RTVSPost2010Prop37
 90
       50
102
RTVSPost2010PropOp37
 70
     1
102
RTVSPost2010Prop38
140
0.0
102
RTVSPost2010PropOp38
 70
     1
102
RTVSPost2010Prop39
140
1.0
102
RTVSPost2010PropOp39
 70
     1
102
RTVSPost2010Prop40
 90
        0
102
RTVSPost2010PropOp40
 70
     1
102
RTVSPost2010Prop41ColorIndex
 90
       18
102
RTVSPost2010Prop41ColorRGB
 90
        0
102
RTVSPost2010PropOp41
 70
     1
102
RTVSPost2010Prop42
 90
       50
102
RTVSPost2010PropOp42
 70
     1
102
RTVSPost2010Prop43
 90
        3
102
RTVSPost2010PropOp43
 70
     1
102
RTVSPost2010Prop44ColorIndex
 90
        5
102
RTVSPost2010Prop44ColorRGB
 90
      255
102
RTVSPost2010PropOp44
 70
     1
102
RTVSPost2010Prop45
280
     0
102
RTVSPost2010PropOp45
 70
     1
102
RTVSPost2010Prop46
 90
       50
102
RTVSPost2010PropOp46
 70
     1
102
RTVSPost2010Prop47
 90
       50
102
RTVSPost2010PropOp47
 70
     1
102
RTVSPost2010Prop48
 90
       50
102
RTVSPost2010PropOp48
 70
     1
102
RTVSPost2010Prop49
280
     0
102
RTVSPost2010PropOp49
 70
     1
102
RTVSPost2010Prop50
 90
       50
102
RTVSPost2010PropOp50
 70
     1
102
RTVSPost2010Prop51ColorIndex
 90
      256
102
RTVSPost2010Prop51ColorRGB
 90
-16777216
102
RTVSPost2010PropOp51
 70
     0
102
RTVSPost2010Prop52
140
1.0
102
RTVSPost2010PropOp52
 70
     0
102
RTVSPost2010Prop53
 90
        2
102
RTVSPost2010PropOp53
 70
     1
102
RTVSPost2010Prop54
  1
strokes_ogs.tif
102
RTVSPost2010PropOp54
 70
     1
102
RTVSPost2010Prop55
280
     0
102
RTVSPost2010PropOp55
 70
     1
102
RTVSPost2010Prop56
140
1.0
102
RTVSPost2010PropOp56
 70
     1
102
RTVSPost2010Prop57
140
1.0
102
RTVSPost2010PropOp57
 70
     1
  0
XRECORD
  5
101
102
{ACAD_REACTORS
330
100
102
}
330
100
100
AcDbXrecord
280
     1
102
RTVSPropertyOp0
 70
     1
102
RTVSPropertyOp1
 70
     1
102
RTVSPropertyOp2
 70
     1
102
RTVSPropertyOp3
 70
     1
102
RTVSPropertyOp4
 70
     1
102
RTVSPropertyOp5
 70
     1
102
RTVSPropertyOp6
 70
     1
102
RTVSPropertyOp7
 70
     1
102
RTVSPropertyOp8
 70
     1
102
RTVSPropertyOp9
 70
     1
102
RTVSPropertyOp10
 70
     1
102
RTVSPropertyOp11
 70
     1
102
RTVSPropertyOp12
 70
     1
102
RTVSPropertyOp13
 70
     1
102
RTVSPropertyOp14
 70
     1
102
RTVSPropertyOp15
 70
     1
102
RTVSPropertyOp16
 70
     1
102
RTVSPropertyOp17
 70
     1
102
RTVSPropertyOp18
 70
     1
102
RTVSPropertyOp19
 70
     1
102
RTVSPropertyOp20
 70
     1
102
RTVSPropertyOp21
 70
     1
102
RTVSPropertyOp22
 70
     1
102
RTVSPropertyOp23
 70
     1
102
RTVSPropertyOp24
 70
     1
102
RTVSPropertyOp25
 70
     1
102
RTVSPropertyOp26
 70
     1
102
RTVSPropertyOp27
 70
     1
102
RTVSPropertyOp28
 70
     1
102
RTVSPropertyOp29
 70
     1
102
RTVSPropertyOp30
 70
     1
102
RTVSPropertyOp31
 70
     1
102
RTVSPropertyOp32
 70
     1
102
RTVSPropertyOp33
 70
     1
102
RTVSPropertyOp34
 70
     1
102
RTVSPropertyOp35
 70
     1
102
RTVSPropertyOp36
 70
     1
102
RTVSPropertyOp37
 70
     1
102
RTVSPropertyOp38
 70
     1
102
RTVSPropertyOp39
 70
     1
102
RTVSPropertyOp40
 70
     1
102
RTVSPropertyOp41
 70
     1
102
RTVSPropertyOp42
 70
     1
102
RTVSPropertyOp43
 70
     1
102
RTVSPropertyOp44
 70
     1
102
RTVSPropertyOp45
 70
     1
102
RTVSPropertyOp46
 70
     1
102
RTVSPropertyOp47
 70
     1
102
RTVSPropertyOp48
 70
     1
102
RTVSPropertyOp49
 70
     1
102
RTVSPropertyOp50
 70
     1
102
RTVSPropertyOp51
 70
     0
102
RTVSPropertyOp52
 70
     0
102
RTVSPropertyOp53
 70
     1
102
RTVSPropertyOp54
 70
     1
102
RTVSPropertyOp55
 70
     1
102
RTVSPropertyOp56
 70
     1
102
RTVSPropertyOp57
 70
     1
102
RTVSPost2010Prop28
280
     0
102
RTVSPost2010PropOp28
 70
     1
102
RTVSPost2010Prop29
280
     1
102
RTVSPost2010PropOp29
 70
     1
102
RTVSPost2010Prop30
280
     1
102
RTVSPost2010PropOp30
 70
     1
102
RTVSPost2010Prop31
280
     0
102
RTVSPost2010PropOp31
 70
     1
102
RTVSPost2010Prop32
280
     0
102
RTVSPost2010PropOp32
 70
     1
102
RTVSPost2010Prop33
280
     0
102
RTVSPost2010PropOp33
 70
     1
102
RTVSPost2010Prop34
280
     0
102
RTVSPost2010PropOp34
 70
     1
102
RTVSPost2010Prop35
280
     0
102
RTVSPost2010PropOp35
 70
     1
102
RTVSPost2010Prop36
280
     0
102
RTVSPost2010PropOp36
 70
     1
102
RTVSPost2010Prop37
 90
       50
102
RTVSPost2010PropOp37
 70
     1
102
RTVSPost2010Prop38
140
0.0
102
RTVSPost2010PropOp38
 70
     1
102
RTVSPost2010Prop39
140
1.0
102
RTVSPost2010PropOp39
 70
     1
102
RTVSPost2010Prop40
 90
        0
102
RTVSPost2010PropOp40
 70
     1
102
RTVSPost2010Prop41ColorIndex
 90
       18
102
RTVSPost2010Prop41ColorRGB
 90
        0
102
RTVSPost2010PropOp41
 70
     1
102
RTVSPost2010Prop42
 90
       50
102
RTVSPost2010PropOp42
 70
     1
102
RTVSPost2010Prop43
 90
        3
102
RTVSPost2010PropOp43
 70
     1
102
RTVSPost2010Prop44ColorIndex
 90
        5
102
RTVSPost2010Prop44ColorRGB
 90
      255
102
RTVSPost2010PropOp44
 70
     1
102
RTVSPost2010Prop45
280
     0
102
RTVSPost2010PropOp45
 70
     1
102
RTVSPost2010Prop46
 90
       50
102
RTVSPost2010PropOp46
 70
     1
102
RTVSPost2010Prop47
 90
       50
102
RTVSPost2010PropOp47
 70
     1
102
RTVSPost2010Prop48
 90
       50
102
RTVSPost2010PropOp48
 70
     1
102
RTVSPost2010Prop49
280
     0
102
RTVSPost2010PropOp49
 70
     1
102
RTVSPost2010Prop50
 90
       50
102
RTVSPost2010PropOp50
 70
     1
102
RTVSPost2010Prop51ColorIndex
 90
      256
102
RTVSPost2010Prop51ColorRGB
 90
-16777216
102
RTVSPost2010PropOp51
 70
     0
102
RTVSPost2010Prop52
140
1.0
102
RTVSPost2010PropOp52
 70
     0
102
RTVSPost2010Prop53
 90
        2
102
RTVSPost2010PropOp53
 70
     1
102
RTVSPost2010Prop54
  1
strokes_ogs.tif
102
RTVSPost2010PropOp54
 70
     1
102
RTVSPost2010Prop55
280
     0
102
RTVSPost2010PropOp55
 70
     1
102
RTVSPost2010Prop56
140
1.0
102
RTVSPost2010PropOp56
 70
     1
102
RTVSPost2010Prop57
140
1.0
102
RTVSPost2010PropOp57
 70
     1
  0
XRECORD
  5
F5
102
{ACAD_REACTORS
330
F4
102
}
330
F4
100
AcDbXrecord
280
     1
102
RTVSPropertyOp0
 70
     1
102
RTVSPropertyOp1
 70
     1
102
RTVSPropertyOp2
 70
     1
102
RTVSPropertyOp3
 70
     1
102
RTVSPropertyOp4
 70
     1
102
RTVSPropertyOp5
 70
     1
102
RTVSPropertyOp6
 70
     1
102
RTVSPropertyOp7
 70
     1
102
RTVSPropertyOp8
 70
     1
102
RTVSPropertyOp9
 70
     1
102
RTVSPropertyOp10
 70
     1
102
RTVSPropertyOp11
 70
     1
102
RTVSPropertyOp12
 70
     1
102
RTVSPropertyOp13
 70
     1
102
RTVSPropertyOp14
 70
     1
102
RTVSPropertyOp15
 70
     1
102
RTVSPropertyOp16
 70
     1
102
RTVSPropertyOp17
 70
     1
102
RTVSPropertyOp18
 70
     1
102
RTVSPropertyOp19
 70
     1
102
RTVSPropertyOp20
 70
     1
102
RTVSPropertyOp21
 70
     1
102
RTVSPropertyOp22
 70
     1
102
RTVSPropertyOp23
 70
     1
102
RTVSPropertyOp24
 70
     1
102
RTVSPropertyOp25
 70
     1
102
RTVSPropertyOp26
 70
     1
102
RTVSPropertyOp27
 70
     1
102
RTVSPropertyOp28
 70
     1
102
RTVSPropertyOp29
 70
     1
102
RTVSPropertyOp30
 70
     1
102
RTVSPropertyOp31
 70
     1
102
RTVSPropertyOp32
 70
     1
102
RTVSPropertyOp33
 70
     1
102
RTVSPropertyOp34
 70
     1
102
RTVSPropertyOp35
 70
     1
102
RTVSPropertyOp36
 70
     1
102
RTVSPropertyOp37
 70
     1
102
RTVSPropertyOp38
 70
     1
102
RTVSPropertyOp39
 70
     1
102
RTVSPropertyOp40
 70
     1
102
RTVSPropertyOp41
 70
     1
102
RTVSPropertyOp42
 70
     1
102
RTVSPropertyOp43
 70
     1
102
RTVSPropertyOp44
 70
     1
102
RTVSPropertyOp45
 70
     1
102
RTVSPropertyOp46
 70
     1
102
RTVSPropertyOp47
 70
     1
102
RTVSPropertyOp48
 70
     1
102
RTVSPropertyOp49
 70
     1
102
RTVSPropertyOp50
 70
     1
102
RTVSPropertyOp51
 70
     0
102
RTVSPropertyOp52
 70
     0
102
RTVSPropertyOp53
 70
     1
102
RTVSPropertyOp54
 70
     1
102
RTVSPropertyOp55
 70
     1
102
RTVSPropertyOp56
 70
     1
102
RTVSPropertyOp57
 70
     1
102
RTVSPost2010Prop28
280
     0
102
RTVSPost2010PropOp28
 70
     1
102
RTVSPost2010Prop29
280
     1
102
RTVSPost2010PropOp29
 70
     1
102
RTVSPost2010Prop30
280
     1
102
RTVSPost2010PropOp30
 70
     1
102
RTVSPost2010Prop31
280
     0
102
RTVSPost2010PropOp31
 70
     1
102
RTVSPost2010Prop32
280
     0
102
RTVSPost2010PropOp32
 70
     1
102
RTVSPost2010Prop33
280
     0
102
RTVSPost2010PropOp33
 70
     1
102
RTVSPost2010Prop34
280
     0
102
RTVSPost2010PropOp34
 70
     1
102
RTVSPost2010Prop35
280
     0
102
RTVSPost2010PropOp35
 70
     1
102
RTVSPost2010Prop36
280
     0
102
RTVSPost2010PropOp36
 70
     1
102
RTVSPost2010Prop37
 90
       50
102
RTVSPost2010PropOp37
 70
     1
102
RTVSPost2010Prop38
140
0.0
102
RTVSPost2010PropOp38
 70
     1
102
RTVSPost2010Prop39
140
1.0
102
RTVSPost2010PropOp39
 70
     1
102
RTVSPost2010Prop40
 90
        0
102
RTVSPost2010PropOp40
 70
     1
102
RTVSPost2010Prop41ColorIndex
 90
       18
102
RTVSPost2010Prop41ColorRGB
 90
        0
102
RTVSPost2010PropOp41
 70
     1
102
RTVSPost2010Prop42
 90
       50
102
RTVSPost2010PropOp42
 70
     1
102
RTVSPost2010Prop43
 90
        3
102
RTVSPost2010PropOp43
 70
     1
102
RTVSPost2010Prop44ColorIndex
 90
        5
102
RTVSPost2010Prop44ColorRGB
 90
      255
102
RTVSPost2010PropOp44
 70
     1
102
RTVSPost2010Prop45
280
     0
102
RTVSPost2010PropOp45
 70
     1
102
RTVSPost2010Prop46
 90
       50
102
RTVSPost2010PropOp46
 70
     1
102
RTVSPost2010Prop47
 90
       50
102
RTVSPost2010PropOp47
 70
     1
102
RTVSPost2010Prop48
 90
       50
102
RTVSPost2010PropOp48
 70
     1
102
RTVSPost2010Prop49
280
     0
102
RTVSPost2010PropOp49
 70
     1
102
RTVSPost2010Prop50
 90
       50
102
RTVSPost2010PropOp50
 70
     1
102
RTVSPost2010Prop51ColorIndex
 90
      256
102
RTVSPost2010Prop51ColorRGB
 90
-16777216
102
RTVSPost2010PropOp51
 70
     0
102
RTVSPost2010Prop52
140
1.0
102
RTVSPost2010PropOp52
 70
     0
102
RTVSPost2010Prop53
 90
        2
102
RTVSPost2010PropOp53
 70
     1
102
RTVSPost2010Prop54
  1
strokes_ogs.tif
102
RTVSPost2010PropOp54
 70
     1
102
RTVSPost2010Prop55
280
     0
102
RTVSPost2010PropOp55
 70
     1
102
RTVSPost2010Prop56
140
1.0
102
RTVSPost2010PropOp56
 70
     1
102
RTVSPost2010Prop57
140
1.0
102
RTVSPost2010PropOp57
 70
     1
  0
XRECORD
  5
F7
102
{ACAD_REACTORS
330
F6
102
}
330
F6
100
AcDbXrecord
280
     1
102
RTVSPropertyOp0
 70
     1
102
RTVSPropertyOp1
 70
     1
102
RTVSPropertyOp2
 70
     1
102
RTVSPropertyOp3
 70
     1
102
RTVSPropertyOp4
 70
     1
102
RTVSPropertyOp5
 70
     1
102
RTVSPropertyOp6
 70
     1
102
RTVSPropertyOp7
 70
     1
102
RTVSPropertyOp8
 70
     1
102
RTVSPropertyOp9
 70
     1
102
RTVSPropertyOp10
 70
     1
102
RTVSPropertyOp11
 70
     1
102
RTVSPropertyOp12
 70
     1
102
RTVSPropertyOp13
 70
     1
102
RTVSPropertyOp14
 70
     1
102
RTVSPropertyOp15
 70
     1
102
RTVSPropertyOp16
 70
     1
102
RTVSPropertyOp17
 70
     1
102
RTVSPropertyOp18
 70
     1
102
RTVSPropertyOp19
 70
     1
102
RTVSPropertyOp20
 70
     1
102
RTVSPropertyOp21
 70
     1
102
RTVSPropertyOp22
 70
     1
102
RTVSPropertyOp23
 70
     1
102
RTVSPropertyOp24
 70
     1
102
RTVSPropertyOp25
 70
     1
102
RTVSPropertyOp26
 70
     1
102
RTVSPropertyOp27
 70
     1
102
RTVSPropertyOp28
 70
     1
102
RTVSPropertyOp29
 70
     1
102
RTVSPropertyOp30
 70
     1
102
RTVSPropertyOp31
 70
     1
102
RTVSPropertyOp32
 70
     1
102
RTVSPropertyOp33
 70
     1
102
RTVSPropertyOp34
 70
     1
102
RTVSPropertyOp35
 70
     1
102
RTVSPropertyOp36
 70
     1
102
RTVSPropertyOp37
 70
     1
102
RTVSPropertyOp38
 70
     1
102
RTVSPropertyOp39
 70
     1
102
RTVSPropertyOp40
 70
     1
102
RTVSPropertyOp41
 70
     1
102
RTVSPropertyOp42
 70
     1
102
RTVSPropertyOp43
 70
     1
102
RTVSPropertyOp44
 70
     1
102
RTVSPropertyOp45
 70
     1
102
RTVSPropertyOp46
 70
     1
102
RTVSPropertyOp47
 70
     1
102
RTVSPropertyOp48
 70
     1
102
RTVSPropertyOp49
 70
     1
102
RTVSPropertyOp50
 70
     1
102
RTVSPropertyOp51
 70
     0
102
RTVSPropertyOp52
 70
     0
102
RTVSPropertyOp53
 70
     1
102
RTVSPropertyOp54
 70
     1
102
RTVSPropertyOp55
 70
     1
102
RTVSPropertyOp56
 70
     1
102
RTVSPropertyOp57
 70
     1
102
RTVSPost2010Prop28
280
     0
102
RTVSPost2010PropOp28
 70
     1
102
RTVSPost2010Prop29
280
     1
102
RTVSPost2010PropOp29
 70
     1
102
RTVSPost2010Prop30
280
     1
102
RTVSPost2010PropOp30
 70
     1
102
RTVSPost2010Prop31
280
     0
102
RTVSPost2010PropOp31
 70
     1
102
RTVSPost2010Prop32
280
     0
102
RTVSPost2010PropOp32
 70
     1
102
RTVSPost2010Prop33
280
     0
102
RTVSPost2010PropOp33
 70
     1
102
RTVSPost2010Prop34
280
     0
102
RTVSPost2010PropOp34
 70
     1
102
RTVSPost2010Prop35
280
     0
102
RTVSPost2010PropOp35
 70
     1
102
RTVSPost2010Prop36
280
     0
102
RTVSPost2010PropOp36
 70
     1
102
RTVSPost2010Prop37
 90
       50
102
RTVSPost2010PropOp37
 70
     1
102
RTVSPost2010Prop38
140
0.0
102
RTVSPost2010PropOp38
 70
     1
102
RTVSPost2010Prop39
140
1.0
102
RTVSPost2010PropOp39
 70
     1
102
RTVSPost2010Prop40
 90
        0
102
RTVSPost2010PropOp40
 70
     1
102
RTVSPost2010Prop41ColorIndex
 90
       18
102
RTVSPost2010Prop41ColorRGB
 90
        0
102
RTVSPost2010PropOp41
 70
     1
102
RTVSPost2010Prop42
 90
       50
102
RTVSPost2010PropOp42
 70
     1
102
RTVSPost2010Prop43
 90
        3
102
RTVSPost2010PropOp43
 70
     1
102
RTVSPost2010Prop44ColorIndex
 90
        5
102
RTVSPost2010Prop44ColorRGB
 90
      255
102
RTVSPost2010PropOp44
 70
     1
102
RTVSPost2010Prop45
280
     0
102
RTVSPost2010PropOp45
 70
     1
102
RTVSPost2010Prop46
 90
       50
102
RTVSPost2010PropOp46
 70
     1
102
RTVSPost2010Prop47
 90
       50
102
RTVSPost2010PropOp47
 70
     1
102
RTVSPost2010Prop48
 90
       50
102
RTVSPost2010PropOp48
 70
     1
102
RTVSPost2010Prop49
280
     0
102
RTVSPost2010PropOp49
 70
     1
102
RTVSPost2010Prop50
 90
       50
102
RTVSPost2010PropOp50
 70
     1
102
RTVSPost2010Prop51ColorIndex
 90
      256
102
RTVSPost2010Prop51ColorRGB
 90
-16777216
102
RTVSPost2010PropOp51
 70
     0
102
RTVSPost2010Prop52
140
1.0
102
RTVSPost2010PropOp52
 70
     0
102
RTVSPost2010Prop53
 90
        2
102
RTVSPost2010PropOp53
 70
     1
102
RTVSPost2010Prop54
  1
strokes_ogs.tif
102
RTVSPost2010PropOp54
 70
     1
102
RTVSPost2010Prop55
280
     0
102
RTVSPost2010PropOp55
 70
     1
102
RTVSPost2010Prop56
140
1.0
102
RTVSPost2010PropOp56
 70
     1
102
RTVSPost2010Prop57
140
1.0
102
RTVSPost2010PropOp57
 70
     1
  0
XRECORD
  5
107
102
{ACAD_REACTORS
330
106
102
}
330
106
100
AcDbXrecord
280
     1
102
RTVSPropertyOp0
 70
     0
102
RTVSPropertyOp1
 70
     0
102
RTVSPropertyOp2
 70
     0
102
RTVSPropertyOp3
 70
     0
102
RTVSPropertyOp4
 70
     0
102
RTVSPropertyOp5
 70
     0
102
RTVSPropertyOp6
 70
     0
102
RTVSPropertyOp7
 70
     0
102
RTVSPropertyOp8
 70
     0
102
RTVSPropertyOp9
 70
     0
102
RTVSPropertyOp10
 70
     0
102
RTVSPropertyOp11
 70
     0
102
RTVSPropertyOp12
 70
     0
102
RTVSPropertyOp13
 70
     0
102
RTVSPropertyOp14
 70
     2
102
RTVSPropertyOp15
 70
     0
102
RTVSPropertyOp16
 70
     0
102
RTVSPropertyOp17
 70
     0
102
RTVSPropertyOp18
 70
     0
102
RTVSPropertyOp19
 70
     0
102
RTVSPropertyOp20
 70
     0
102
RTVSPropertyOp21
 70
     0
102
RTVSPropertyOp22
 70
     0
102
RTVSPropertyOp23
 70
     0
102
RTVSPropertyOp24
 70
     0
102
RTVSPropertyOp25
 70
     0
102
RTVSPropertyOp26
 70
     0
102
RTVSPropertyOp27
 70
     0
102
RTVSPropertyOp28
 70
     0
102
RTVSPropertyOp29
 70
     0
102
RTVSPropertyOp30
 70
     0
102
RTVSPropertyOp31
 70
     0
102
RTVSPropertyOp32
 70
     0
102
RTVSPropertyOp33
 70
     0
102
RTVSPropertyOp34
 70
     0
102
RTVSPropertyOp35
 70
     0
102
RTVSPropertyOp36
 70
     0
102
RTVSPropertyOp37
 70
     0
102
RTVSPropertyOp38
 70
     0
102
RTVSPropertyOp39
 70
     0
102
RTVSPropertyOp40
 70
     0
102
RTVSPropertyOp41
 70
     0
102
RTVSPropertyOp42
 70
     0
102
RTVSPropertyOp43
 70
     0
102
RTVSPropertyOp44
 70
     0
102
RTVSPropertyOp45
 70
     0
102
RTVSPropertyOp46
 70
     0
102
RTVSPropertyOp47
 70
     0
102
RTVSPropertyOp48
 70
     0
102
RTVSPropertyOp49
 70
     0
102
RTVSPropertyOp50
 70
     0
102
RTVSPropertyOp51
 70
     0
102
RTVSPropertyOp52
 70
     0
102
RTVSPropertyOp53
 70
     0
102
RTVSPropertyOp54
 70
     0
102
RTVSPropertyOp55
 70
     0
102
RTVSPropertyOp56
 70
     0
102
RTVSPropertyOp57
 70
     0
102
RTVSPost2010Prop28
280
     0
102
RTVSPost2010PropOp28
 70
     0
102
RTVSPost2010Prop29
280
     1
102
RTVSPost2010PropOp29
 70
     0
102
RTVSPost2010Prop30
280
     1
102
RTVSPost2010PropOp30
 70
     0
102
RTVSPost2010Prop31
280
     0
102
RTVSPost2010PropOp31
 70
     0
102
RTVSPost2010Prop32
280
     0
102
RTVSPost2010PropOp32
 70
     0
102
RTVSPost2010Prop33
280
     0
102
RTVSPost2010PropOp33
 70
     0
102
RTVSPost2010Prop34
280
     0
102
RTVSPost2010PropOp34
 70
     0
102
RTVSPost2010Prop35
280
     0
102
RTVSPost2010PropOp35
 70
     0
102
RTVSPost2010Prop36
280
     0
102
RTVSPost2010PropOp36
 70
     0
102
RTVSPost2010Prop37
 90
       50
102
RTVSPost2010PropOp37
 70
     0
102
RTVSPost2010Prop38
140
0.0
102
RTVSPost2010PropOp38
 70
     0
102
RTVSPost2010Prop39
140
1.0
102
RTVSPost2010PropOp39
 70
     0
102
RTVSPost2010Prop40
 90
        0
102
RTVSPost2010PropOp40
 70
     0
102
RTVSPost2010Prop41ColorIndex
 90
       18
102
RTVSPost2010Prop41ColorRGB
 90
        0
102
RTVSPost2010PropOp41
 70
     0
102
RTVSPost2010Prop42
 90
       50
102
RTVSPost2010PropOp42
 70
     0
102
RTVSPost2010Prop43
 90
        3
102
RTVSPost2010PropOp43
 70
     0
102
RTVSPost2010Prop44ColorIndex
 90
        5
102
RTVSPost2010Prop44ColorRGB
 90
      255
102
RTVSPost2010PropOp44
 70
     0
102
RTVSPost2010Prop45
280
     0
102
RTVSPost2010PropOp45
 70
     0
102
RTVSPost2010Prop46
 90
       50
102
RTVSPost2010PropOp46
 70
     0
102
RTVSPost2010Prop47
 90
       50
102
RTVSPost2010PropOp47
 70
     0
102
RTVSPost2010Prop48
 90
       50
102
RTVSPost2010PropOp48
 70
     0
102
RTVSPost2010Prop49
280
     0
102
RTVSPost2010PropOp49
 70
     0
102
RTVSPost2010Prop50
 90
       50
102
RTVSPost2010PropOp50
 70
     0
102
RTVSPost2010Prop51ColorIndex
 90
      256
102
RTVSPost2010Prop51ColorRGB
 90
-16777216
102
RTVSPost2010PropOp51
 70
     0
102
RTVSPost2010Prop52
140
1.0
102
RTVSPost2010PropOp52
 70
     0
102
RTVSPost2010Prop53
 90
        2
102
RTVSPost2010PropOp53
 70
     0
102
RTVSPost2010Prop54
  1
strokes_ogs.tif
102
RTVSPost2010PropOp54
 70
     0
102
RTVSPost2010Prop55
280
     0
102
RTVSPost2010PropOp55
 70
     0
102
RTVSPost2010Prop56
140
1.0
102
RTVSPost2010PropOp56
 70
     0
102
RTVSPost2010Prop57
140
1.0
102
RTVSPost2010PropOp57
 70
     0
  0
XRECORD
  5
FF
102
{ACAD_REACTORS
330
FE
102
}
330
FE
100
AcDbXrecord
280
     1
102
RTVSPropertyOp0
 70
     1
102
RTVSPropertyOp1
 70
     1
102
RTVSPropertyOp2
 70
     1
102
RTVSPropertyOp3
 70
     1
102
RTVSPropertyOp4
 70
     1
102
RTVSPropertyOp5
 70
     1
102
RTVSPropertyOp6
 70
     1
102
RTVSPropertyOp7
 70
     1
102
RTVSPropertyOp8
 70
     1
102
RTVSPropertyOp9
 70
     1
102
RTVSPropertyOp10
 70
     1
102
RTVSPropertyOp11
 70
     1
102
RTVSPropertyOp12
 70
     1
102
RTVSPropertyOp13
 70
     1
102
RTVSPropertyOp14
 70
     1
102
RTVSPropertyOp15
 70
     1
102
RTVSPropertyOp16
 70
     1
102
RTVSPropertyOp17
 70
     1
102
RTVSPropertyOp18
 70
     1
102
RTVSPropertyOp19
 70
     1
102
RTVSPropertyOp20
 70
     1
102
RTVSPropertyOp21
 70
     1
102
RTVSPropertyOp22
 70
     1
102
RTVSPropertyOp23
 70
     1
102
RTVSPropertyOp24
 70
     1
102
RTVSPropertyOp25
 70
     1
102
RTVSPropertyOp26
 70
     1
102
RTVSPropertyOp27
 70
     1
102
RTVSPropertyOp28
 70
     1
102
RTVSPropertyOp29
 70
     1
102
RTVSPropertyOp30
 70
     1
102
RTVSPropertyOp31
 70
     1
102
RTVSPropertyOp32
 70
     1
102
RTVSPropertyOp33
 70
     1
102
RTVSPropertyOp34
 70
     1
102
RTVSPropertyOp35
 70
     1
102
RTVSPropertyOp36
 70
     1
102
RTVSPropertyOp37
 70
     1
102
RTVSPropertyOp38
 70
     1
102
RTVSPropertyOp39
 70
     1
102
RTVSPropertyOp40
 70
     1
102
RTVSPropertyOp41
 70
     1
102
RTVSPropertyOp42
 70
     1
102
RTVSPropertyOp43
 70
     1
102
RTVSPropertyOp44
 70
     1
102
RTVSPropertyOp45
 70
     1
102
RTVSPropertyOp46
 70
     1
102
RTVSPropertyOp47
 70
     1
102
RTVSPropertyOp48
 70
     1
102
RTVSPropertyOp49
 70
     1
102
RTVSPropertyOp50
 70
     1
102
RTVSPropertyOp51
 70
     0
102
RTVSPropertyOp52
 70
     0
102
RTVSPropertyOp53
 70
     1
102
RTVSPropertyOp54
 70
     1
102
RTVSPropertyOp55
 70
     1
102
RTVSPropertyOp56
 70
     1
102
RTVSPropertyOp57
 70
     1
102
RTVSPost2010Prop28
280
     0
102
RTVSPost2010PropOp28
 70
     1
102
RTVSPost2010Prop29
280
     1
102
RTVSPost2010PropOp29
 70
     1
102
RTVSPost2010Prop30
280
     1
102
RTVSPost2010PropOp30
 70
     1
102
RTVSPost2010Prop31
280
     0
102
RTVSPost2010PropOp31
 70
     1
102
RTVSPost2010Prop32
280
     0
102
RTVSPost2010PropOp32
 70
     1
102
RTVSPost2010Prop33
280
     0
102
RTVSPost2010PropOp33
 70
     1
102
RTVSPost2010Prop34
280
     0
102
RTVSPost2010PropOp34
 70
     1
102
RTVSPost2010Prop35
280
     0
102
RTVSPost2010PropOp35
 70
     1
102
RTVSPost2010Prop36
280
     0
102
RTVSPost2010PropOp36
 70
     1
102
RTVSPost2010Prop37
 90
       50
102
RTVSPost2010PropOp37
 70
     1
102
RTVSPost2010Prop38
140
0.0
102
RTVSPost2010PropOp38
 70
     1
102
RTVSPost2010Prop39
140
1.0
102
RTVSPost2010PropOp39
 70
     1
102
RTVSPost2010Prop40
 90
        0
102
RTVSPost2010PropOp40
 70
     1
102
RTVSPost2010Prop41ColorIndex
 90
       18
102
RTVSPost2010Prop41ColorRGB
 90
        0
102
RTVSPost2010PropOp41
 70
     1
102
RTVSPost2010Prop42
 90
       50
102
RTVSPost2010PropOp42
 70
     1
102
RTVSPost2010Prop43
 90
        3
102
RTVSPost2010PropOp43
 70
     1
102
RTVSPost2010Prop44ColorIndex
 90
        5
102
RTVSPost2010Prop44ColorRGB
 90
      255
102
RTVSPost2010PropOp44
 70
     1
102
RTVSPost2010Prop45
280
     0
102
RTVSPost2010PropOp45
 70
     1
102
RTVSPost2010Prop46
 90
       50
102
RTVSPost2010PropOp46
 70
     1
102
RTVSPost2010Prop47
 90
       50
102
RTVSPost2010PropOp47
 70
     1
102
RTVSPost2010Prop48
 90
       50
102
RTVSPost2010PropOp48
 70
     1
102
RTVSPost2010Prop49
280
     0
102
RTVSPost2010PropOp49
 70
     1
102
RTVSPost2010Prop50
 90
       50
102
RTVSPost2010PropOp50
 70
     1
102
RTVSPost2010Prop51ColorIndex
 90
      256
102
RTVSPost2010Prop51ColorRGB
 90
-16777216
102
RTVSPost2010PropOp51
 70
     0
102
RTVSPost2010Prop52
140
1.0
102
RTVSPost2010PropOp52
 70
     0
102
RTVSPost2010Prop53
 90
        2
102
RTVSPost2010PropOp53
 70
     1
102
RTVSPost2010Prop54
  1
strokes_ogs.tif
102
RTVSPost2010PropOp54
 70
     1
102
RTVSPost2010Prop55
280
     0
102
RTVSPost2010PropOp55
 70
     1
102
RTVSPost2010Prop56
140
1.0
102
RTVSPost2010PropOp56
 70
     1
102
RTVSPost2010Prop57
140
1.0
102
RTVSPost2010PropOp57
 70
     1
  0
XRECORD
  5
E3
102
{ACAD_REACTORS
330
E2
102
}
330
E2
100
AcDbXrecord
280
     1
102
RTVSPropertyOp0
 70
     1
102
RTVSPropertyOp1
 70
     1
102
RTVSPropertyOp2
 70
     1
102
RTVSPropertyOp3
 70
     1
102
RTVSPropertyOp4
 70
     1
102
RTVSPropertyOp5
 70
     1
102
RTVSPropertyOp6
 70
     1
102
RTVSPropertyOp7
 70
     1
102
RTVSPropertyOp8
 70
     1
102
RTVSPropertyOp9
 70
     1
102
RTVSPropertyOp10
 70
     1
102
RTVSPropertyOp11
 70
     1
102
RTVSPropertyOp12
 70
     1
102
RTVSPropertyOp13
 70
     1
102
RTVSPropertyOp14
 70
     1
102
RTVSPropertyOp15
 70
     1
102
RTVSPropertyOp16
 70
     1
102
RTVSPropertyOp17
 70
     1
102
RTVSPropertyOp18
 70
     1
102
RTVSPropertyOp19
 70
     1
102
RTVSPropertyOp20
 70
     1
102
RTVSPropertyOp21
 70
     1
102
RTVSPropertyOp22
 70
     1
102
RTVSPropertyOp23
 70
     1
102
RTVSPropertyOp24
 70
     1
102
RTVSPropertyOp25
 70
     1
102
RTVSPropertyOp26
 70
     1
102
RTVSPropertyOp27
 70
     1
102
RTVSPropertyOp28
 70
     1
102
RTVSPropertyOp29
 70
     1
102
RTVSPropertyOp30
 70
     1
102
RTVSPropertyOp31
 70
     1
102
RTVSPropertyOp32
 70
     1
102
RTVSPropertyOp33
 70
     1
102
RTVSPropertyOp34
 70
     1
102
RTVSPropertyOp35
 70
     1
102
RTVSPropertyOp36
 70
     1
102
RTVSPropertyOp37
 70
     1
102
RTVSPropertyOp38
 70
     1
102
RTVSPropertyOp39
 70
     1
102
RTVSPropertyOp40
 70
     1
102
RTVSPropertyOp41
 70
     1
102
RTVSPropertyOp42
 70
     1
102
RTVSPropertyOp43
 70
     1
102
RTVSPropertyOp44
 70
     1
102
RTVSPropertyOp45
 70
     1
102
RTVSPropertyOp46
 70
     1
102
RTVSPropertyOp47
 70
     1
102
RTVSPropertyOp48
 70
     1
102
RTVSPropertyOp49
 70
     1
102
RTVSPropertyOp50
 70
     1
102
RTVSPropertyOp51
 70
     0
102
RTVSPropertyOp52
 70
     0
102
RTVSPropertyOp53
 70
     1
102
RTVSPropertyOp54
 70
     1
102
RTVSPropertyOp55
 70
     1
102
RTVSPropertyOp56
 70
     1
102
RTVSPropertyOp57
 70
     1
102
RTVSPost2010Prop28
280
     0
102
RTVSPost2010PropOp28
 70
     1
102
RTVSPost2010Prop29
280
     1
102
RTVSPost2010PropOp29
 70
     1
102
RTVSPost2010Prop30
280
     1
102
RTVSPost2010PropOp30
 70
     1
102
RTVSPost2010Prop31
280
     0
102
RTVSPost2010PropOp31
 70
     1
102
RTVSPost2010Prop32
280
     0
102
RTVSPost2010PropOp32
 70
     1
102
RTVSPost2010Prop33
280
     0
102
RTVSPost2010PropOp33
 70
     1
102
RTVSPost2010Prop34
280
     0
102
RTVSPost2010PropOp34
 70
     1
102
RTVSPost2010Prop35
280
     0
102
RTVSPost2010PropOp35
 70
     1
102
RTVSPost2010Prop36
280
     0
102
RTVSPost2010PropOp36
 70
     1
102
RTVSPost2010Prop37
 90
       50
102
RTVSPost2010PropOp37
 70
     1
102
RTVSPost2010Prop38
140
0.0
102
RTVSPost2010PropOp38
 70
     1
102
RTVSPost2010Prop39
140
1.0
102
RTVSPost2010PropOp39
 70
     1
102
RTVSPost2010Prop40
 90
        0
102
RTVSPost2010PropOp40
 70
     1
102
RTVSPost2010Prop41ColorIndex
 90
       18
102
RTVSPost2010Prop41ColorRGB
 90
        0
102
RTVSPost2010PropOp41
 70
     1
102
RTVSPost2010Prop42
 90
       50
102
RTVSPost2010PropOp42
 70
     1
102
RTVSPost2010Prop43
 90
        3
102
RTVSPost2010PropOp43
 70
     1
102
RTVSPost2010Prop44ColorIndex
 90
        5
102
RTVSPost2010Prop44ColorRGB
 90
      255
102
RTVSPost2010PropOp44
 70
     1
102
RTVSPost2010Prop45
280
     0
102
RTVSPost2010PropOp45
 70
     1
102
RTVSPost2010Prop46
 90
       50
102
RTVSPost2010PropOp46
 70
     1
102
RTVSPost2010Prop47
 90
       50
102
RTVSPost2010PropOp47
 70
     1
102
RTVSPost2010Prop48
 90
       50
102
RTVSPost2010PropOp48
 70
     1
102
RTVSPost2010Prop49
280
     0
102
RTVSPost2010PropOp49
 70
     1
102
RTVSPost2010Prop50
 90
       50
102
RTVSPost2010PropOp50
 70
     1
102
RTVSPost2010Prop51ColorIndex
 90
      256
102
RTVSPost2010Prop51ColorRGB
 90
-16777216
102
RTVSPost2010PropOp51
 70
     0
102
RTVSPost2010Prop52
140
1.0
102
RTVSPost2010PropOp52
 70
     0
102
RTVSPost2010Prop53
 90
        2
102
RTVSPost2010PropOp53
 70
     1
102
RTVSPost2010Prop54
  1
strokes_ogs.tif
102
RTVSPost2010PropOp54
 70
     1
102
RTVSPost2010Prop55
280
     0
102
RTVSPost2010PropOp55
 70
     1
102
RTVSPost2010Prop56
140
1.0
102
RTVSPost2010PropOp56
 70
     1
102
RTVSPost2010Prop57
140
1.0
102
RTVSPost2010PropOp57
 70
     1
  0
XRECORD
  5
E5
102
{ACAD_REACTORS
330
E4
102
}
330
E4
100
AcDbXrecord
280
     1
102
RTVSPropertyOp0
 70
     1
102
RTVSPropertyOp1
 70
     1
102
RTVSPropertyOp2
 70
     1
102
RTVSPropertyOp3
 70
     1
102
RTVSPropertyOp4
 70
     1
102
RTVSPropertyOp5
 70
     1
102
RTVSPropertyOp6
 70
     1
102
RTVSPropertyOp7
 70
     1
102
RTVSPropertyOp8
 70
     1
102
RTVSPropertyOp9
 70
     1
102
RTVSPropertyOp10
 70
     1
102
RTVSPropertyOp11
 70
     1
102
RTVSPropertyOp12
 70
     1
102
RTVSPropertyOp13
 70
     1
102
RTVSPropertyOp14
 70
     1
102
RTVSPropertyOp15
 70
     1
102
RTVSPropertyOp16
 70
     1
102
RTVSPropertyOp17
 70
     1
102
RTVSPropertyOp18
 70
     1
102
RTVSPropertyOp19
 70
     1
102
RTVSPropertyOp20
 70
     1
102
RTVSPropertyOp21
 70
     1
102
RTVSPropertyOp22
 70
     1
102
RTVSPropertyOp23
 70
     1
102
RTVSPropertyOp24
 70
     1
102
RTVSPropertyOp25
 70
     1
102
RTVSPropertyOp26
 70
     1
102
RTVSPropertyOp27
 70
     1
102
RTVSPropertyOp28
 70
     1
102
RTVSPropertyOp29
 70
     1
102
RTVSPropertyOp30
 70
     1
102
RTVSPropertyOp31
 70
     1
102
RTVSPropertyOp32
 70
     1
102
RTVSPropertyOp33
 70
     1
102
RTVSPropertyOp34
 70
     1
102
RTVSPropertyOp35
 70
     1
102
RTVSPropertyOp36
 70
     1
102
RTVSPropertyOp37
 70
     1
102
RTVSPropertyOp38
 70
     1
102
RTVSPropertyOp39
 70
     1
102
RTVSPropertyOp40
 70
     1
102
RTVSPropertyOp41
 70
     1
102
RTVSPropertyOp42
 70
     1
102
RTVSPropertyOp43
 70
     1
102
RTVSPropertyOp44
 70
     1
102
RTVSPropertyOp45
 70
     1
102
RTVSPropertyOp46
 70
     1
102
RTVSPropertyOp47
 70
     1
102
RTVSPropertyOp48
 70
     1
102
RTVSPropertyOp49
 70
     1
102
RTVSPropertyOp50
 70
     1
102
RTVSPropertyOp51
 70
     0
102
RTVSPropertyOp52
 70
     0
102
RTVSPropertyOp53
 70
     1
102
RTVSPropertyOp54
 70
     1
102
RTVSPropertyOp55
 70
     1
102
RTVSPropertyOp56
 70
     1
102
RTVSPropertyOp57
 70
     1
102
RTVSPost2010Prop28
280
     0
102
RTVSPost2010PropOp28
 70
     1
102
RTVSPost2010Prop29
280
     1
102
RTVSPost2010PropOp29
 70
     1
102
RTVSPost2010Prop30
280
     1
102
RTVSPost2010PropOp30
 70
     1
102
RTVSPost2010Prop31
280
     0
102
RTVSPost2010PropOp31
 70
     1
102
RTVSPost2010Prop32
280
     0
102
RTVSPost2010PropOp32
 70
     1
102
RTVSPost2010Prop33
280
     0
102
RTVSPost2010PropOp33
 70
     1
102
RTVSPost2010Prop34
280
     0
102
RTVSPost2010PropOp34
 70
     1
102
RTVSPost2010Prop35
280
     0
102
RTVSPost2010PropOp35
 70
     1
102
RTVSPost2010Prop36
280
     0
102
RTVSPost2010PropOp36
 70
     1
102
RTVSPost2010Prop37
 90
       50
102
RTVSPost2010PropOp37
 70
     1
102
RTVSPost2010Prop38
140
0.0
102
RTVSPost2010PropOp38
 70
     1
102
RTVSPost2010Prop39
140
1.0
102
RTVSPost2010PropOp39
 70
     1
102
RTVSPost2010Prop40
 90
        0
102
RTVSPost2010PropOp40
 70
     1
102
RTVSPost2010Prop41ColorIndex
 90
       18
102
RTVSPost2010Prop41ColorRGB
 90
        0
102
RTVSPost2010PropOp41
 70
     1
102
RTVSPost2010Prop42
 90
       50
102
RTVSPost2010PropOp42
 70
     1
102
RTVSPost2010Prop43
 90
        3
102
RTVSPost2010PropOp43
 70
     1
102
RTVSPost2010Prop44ColorIndex
 90
        5
102
RTVSPost2010Prop44ColorRGB
 90
      255
102
RTVSPost2010PropOp44
 70
     1
102
RTVSPost2010Prop45
280
     0
102
RTVSPost2010PropOp45
 70
     1
102
RTVSPost2010Prop46
 90
       50
102
RTVSPost2010PropOp46
 70
     1
102
RTVSPost2010Prop47
 90
       50
102
RTVSPost2010PropOp47
 70
     1
102
RTVSPost2010Prop48
 90
       50
102
RTVSPost2010PropOp48
 70
     1
102
RTVSPost2010Prop49
280
     0
102
RTVSPost2010PropOp49
 70
     1
102
RTVSPost2010Prop50
 90
       50
102
RTVSPost2010PropOp50
 70
     1
102
RTVSPost2010Prop51ColorIndex
 90
      256
102
RTVSPost2010Prop51ColorRGB
 90
-16777216
102
RTVSPost2010PropOp51
 70
     0
102
RTVSPost2010Prop52
140
1.0
102
RTVSPost2010PropOp52
 70
     0
102
RTVSPost2010Prop53
 90
        2
102
RTVSPost2010PropOp53
 70
     1
102
RTVSPost2010Prop54
  1
strokes_ogs.tif
102
RTVSPost2010PropOp54
 70
     1
102
RTVSPost2010Prop55
280
     0
102
RTVSPost2010PropOp55
 70
     1
102
RTVSPost2010Prop56
140
1.0
102
RTVSPost2010PropOp56
 70
     1
102
RTVSPost2010Prop57
140
1.0
102
RTVSPost2010PropOp57
 70
     1
  0
XRECORD
  5
E7
102
{ACAD_REACTORS
330
E6
102
}
330
E6
100
AcDbXrecord
280
     1
102
RTVSPropertyOp0
 70
     1
102
RTVSPropertyOp1
 70
     1
102
RTVSPropertyOp2
 70
     1
102
RTVSPropertyOp3
 70
     1
102
RTVSPropertyOp4
 70
     1
102
RTVSPropertyOp5
 70
     1
102
RTVSPropertyOp6
 70
     1
102
RTVSPropertyOp7
 70
     1
102
RTVSPropertyOp8
 70
     1
102
RTVSPropertyOp9
 70
     1
102
RTVSPropertyOp10
 70
     1
102
RTVSPropertyOp11
 70
     1
102
RTVSPropertyOp12
 70
     1
102
RTVSPropertyOp13
 70
     1
102
RTVSPropertyOp14
 70
     1
102
RTVSPropertyOp15
 70
     1
102
RTVSPropertyOp16
 70
     1
102
RTVSPropertyOp17
 70
     1
102
RTVSPropertyOp18
 70
     1
102
RTVSPropertyOp19
 70
     1
102
RTVSPropertyOp20
 70
     1
102
RTVSPropertyOp21
 70
     1
102
RTVSPropertyOp22
 70
     1
102
RTVSPropertyOp23
 70
     1
102
RTVSPropertyOp24
 70
     1
102
RTVSPropertyOp25
 70
     1
102
RTVSPropertyOp26
 70
     1
102
RTVSPropertyOp27
 70
     1
102
RTVSPropertyOp28
 70
     1
102
RTVSPropertyOp29
 70
     1
102
RTVSPropertyOp30
 70
     1
102
RTVSPropertyOp31
 70
     1
102
RTVSPropertyOp32
 70
     1
102
RTVSPropertyOp33
 70
     1
102
RTVSPropertyOp34
 70
     1
102
RTVSPropertyOp35
 70
     1
102
RTVSPropertyOp36
 70
     1
102
RTVSPropertyOp37
 70
     1
102
RTVSPropertyOp38
 70
     1
102
RTVSPropertyOp39
 70
     1
102
RTVSPropertyOp40
 70
     1
102
RTVSPropertyOp41
 70
     1
102
RTVSPropertyOp42
 70
     1
102
RTVSPropertyOp43
 70
     1
102
RTVSPropertyOp44
 70
     1
102
RTVSPropertyOp45
 70
     1
102
RTVSPropertyOp46
 70
     1
102
RTVSPropertyOp47
 70
     1
102
RTVSPropertyOp48
 70
     1
102
RTVSPropertyOp49
 70
     1
102
RTVSPropertyOp50
 70
     1
102
RTVSPropertyOp51
 70
     0
102
RTVSPropertyOp52
 70
     0
102
RTVSPropertyOp53
 70
     1
102
RTVSPropertyOp54
 70
     1
102
RTVSPropertyOp55
 70
     1
102
RTVSPropertyOp56
 70
     1
102
RTVSPropertyOp57
 70
     1
102
RTVSPost2010Prop28
280
     0
102
RTVSPost2010PropOp28
 70
     1
102
RTVSPost2010Prop29
280
     1
102
RTVSPost2010PropOp29
 70
     1
102
RTVSPost2010Prop30
280
     1
102
RTVSPost2010PropOp30
 70
     1
102
RTVSPost2010Prop31
280
     0
102
RTVSPost2010PropOp31
 70
     1
102
RTVSPost2010Prop32
280
     0
102
RTVSPost2010PropOp32
 70
     1
102
RTVSPost2010Prop33
280
     0
102
RTVSPost2010PropOp33
 70
     1
102
RTVSPost2010Prop34
280
     0
102
RTVSPost2010PropOp34
 70
     1
102
RTVSPost2010Prop35
280
     0
102
RTVSPost2010PropOp35
 70
     1
102
RTVSPost2010Prop36
280
     0
102
RTVSPost2010PropOp36
 70
     1
102
RTVSPost2010Prop37
 90
       50
102
RTVSPost2010PropOp37
 70
     1
102
RTVSPost2010Prop38
140
0.0
102
RTVSPost2010PropOp38
 70
     1
102
RTVSPost2010Prop39
140
1.0
102
RTVSPost2010PropOp39
 70
     1
102
RTVSPost2010Prop40
 90
        0
102
RTVSPost2010PropOp40
 70
     1
102
RTVSPost2010Prop41ColorIndex
 90
       18
102
RTVSPost2010Prop41ColorRGB
 90
        0
102
RTVSPost2010PropOp41
 70
     1
102
RTVSPost2010Prop42
 90
       50
102
RTVSPost2010PropOp42
 70
     1
102
RTVSPost2010Prop43
 90
        3
102
RTVSPost2010PropOp43
 70
     1
102
RTVSPost2010Prop44ColorIndex
 90
        5
102
RTVSPost2010Prop44ColorRGB
 90
      255
102
RTVSPost2010PropOp44
 70
     1
102
RTVSPost2010Prop45
280
     0
102
RTVSPost2010PropOp45
 70
     1
102
RTVSPost2010Prop46
 90
       50
102
RTVSPost2010PropOp46
 70
     1
102
RTVSPost2010Prop47
 90
       50
102
RTVSPost2010PropOp47
 70
     1
102
RTVSPost2010Prop48
 90
       50
102
RTVSPost2010PropOp48
 70
     1
102
RTVSPost2010Prop49
280
     0
102
RTVSPost2010PropOp49
 70
     1
102
RTVSPost2010Prop50
 90
       50
102
RTVSPost2010PropOp50
 70
     1
102
RTVSPost2010Prop51ColorIndex
 90
      256
102
RTVSPost2010Prop51ColorRGB
 90
-16777216
102
RTVSPost2010PropOp51
 70
     0
102
RTVSPost2010Prop52
140
1.0
102
RTVSPost2010PropOp52
 70
     0
102
RTVSPost2010Prop53
 90
        2
102
RTVSPost2010PropOp53
 70
     1
102
RTVSPost2010Prop54
  1
strokes_ogs.tif
102
RTVSPost2010PropOp54
 70
     1
102
RTVSPost2010Prop55
280
     0
102
RTVSPost2010PropOp55
 70
     1
102
RTVSPost2010Prop56
140
1.0
102
RTVSPost2010PropOp56
 70
     1
102
RTVSPost2010Prop57
140
1.0
102
RTVSPost2010PropOp57
 70
     1
  0
XRECORD
  5
E9
102
{ACAD_REACTORS
330
E8
102
}
330
E8
100
AcDbXrecord
280
     1
102
RTVSPropertyOp0
 70
     1
102
RTVSPropertyOp1
 70
     1
102
RTVSPropertyOp2
 70
     1
102
RTVSPropertyOp3
 70
     1
102
RTVSPropertyOp4
 70
     1
102
RTVSPropertyOp5
 70
     1
102
RTVSPropertyOp6
 70
     1
102
RTVSPropertyOp7
 70
     1
102
RTVSPropertyOp8
 70
     1
102
RTVSPropertyOp9
 70
     1
102
RTVSPropertyOp10
 70
     1
102
RTVSPropertyOp11
 70
     1
102
RTVSPropertyOp12
 70
     1
102
RTVSPropertyOp13
 70
     1
102
RTVSPropertyOp14
 70
     1
102
RTVSPropertyOp15
 70
     1
102
RTVSPropertyOp16
 70
     1
102
RTVSPropertyOp17
 70
     1
102
RTVSPropertyOp18
 70
     1
102
RTVSPropertyOp19
 70
     1
102
RTVSPropertyOp20
 70
     1
102
RTVSPropertyOp21
 70
     1
102
RTVSPropertyOp22
 70
     1
102
RTVSPropertyOp23
 70
     1
102
RTVSPropertyOp24
 70
     1
102
RTVSPropertyOp25
 70
     1
102
RTVSPropertyOp26
 70
     1
102
RTVSPropertyOp27
 70
     1
102
RTVSPropertyOp28
 70
     1
102
RTVSPropertyOp29
 70
     1
102
RTVSPropertyOp30
 70
     1
102
RTVSPropertyOp31
 70
     1
102
RTVSPropertyOp32
 70
     1
102
RTVSPropertyOp33
 70
     1
102
RTVSPropertyOp34
 70
     1
102
RTVSPropertyOp35
 70
     1
102
RTVSPropertyOp36
 70
     1
102
RTVSPropertyOp37
 70
     1
102
RTVSPropertyOp38
 70
     1
102
RTVSPropertyOp39
 70
     1
102
RTVSPropertyOp40
 70
     1
102
RTVSPropertyOp41
 70
     1
102
RTVSPropertyOp42
 70
     1
102
RTVSPropertyOp43
 70
     1
102
RTVSPropertyOp44
 70
     1
102
RTVSPropertyOp45
 70
     1
102
RTVSPropertyOp46
 70
     1
102
RTVSPropertyOp47
 70
     1
102
RTVSPropertyOp48
 70
     1
102
RTVSPropertyOp49
 70
     1
102
RTVSPropertyOp50
 70
     1
102
RTVSPropertyOp51
 70
     0
102
RTVSPropertyOp52
 70
     0
102
RTVSPropertyOp53
 70
     1
102
RTVSPropertyOp54
 70
     1
102
RTVSPropertyOp55
 70
     1
102
RTVSPropertyOp56
 70
     1
102
RTVSPropertyOp57
 70
     1
102
RTVSPost2010Prop28
280
     0
102
RTVSPost2010PropOp28
 70
     1
102
RTVSPost2010Prop29
280
     1
102
RTVSPost2010PropOp29
 70
     1
102
RTVSPost2010Prop30
280
     1
102
RTVSPost2010PropOp30
 70
     1
102
RTVSPost2010Prop31
280
     0
102
RTVSPost2010PropOp31
 70
     1
102
RTVSPost2010Prop32
280
     0
102
RTVSPost2010PropOp32
 70
     1
102
RTVSPost2010Prop33
280
     0
102
RTVSPost2010PropOp33
 70
     1
102
RTVSPost2010Prop34
280
     0
102
RTVSPost2010PropOp34
 70
     1
102
RTVSPost2010Prop35
280
     0
102
RTVSPost2010PropOp35
 70
     1
102
RTVSPost2010Prop36
280
     0
102
RTVSPost2010PropOp36
 70
     1
102
RTVSPost2010Prop37
 90
       50
102
RTVSPost2010PropOp37
 70
     1
102
RTVSPost2010Prop38
140
0.0
102
RTVSPost2010PropOp38
 70
     1
102
RTVSPost2010Prop39
140
1.0
102
RTVSPost2010PropOp39
 70
     1
102
RTVSPost2010Prop40
 90
        0
102
RTVSPost2010PropOp40
 70
     1
102
RTVSPost2010Prop41ColorIndex
 90
       18
102
RTVSPost2010Prop41ColorRGB
 90
        0
102
RTVSPost2010PropOp41
 70
     1
102
RTVSPost2010Prop42
 90
       50
102
RTVSPost2010PropOp42
 70
     1
102
RTVSPost2010Prop43
 90
        3
102
RTVSPost2010PropOp43
 70
     1
102
RTVSPost2010Prop44ColorIndex
 90
        5
102
RTVSPost2010Prop44ColorRGB
 90
      255
102
RTVSPost2010PropOp44
 70
     1
102
RTVSPost2010Prop45
280
     0
102
RTVSPost2010PropOp45
 70
     1
102
RTVSPost2010Prop46
 90
       50
102
RTVSPost2010PropOp46
 70
     1
102
RTVSPost2010Prop47
 90
       50
102
RTVSPost2010PropOp47
 70
     1
102
RTVSPost2010Prop48
 90
       50
102
RTVSPost2010PropOp48
 70
     1
102
RTVSPost2010Prop49
280
     0
102
RTVSPost2010PropOp49
 70
     1
102
RTVSPost2010Prop50
 90
       50
102
RTVSPost2010PropOp50
 70
     1
102
RTVSPost2010Prop51ColorIndex
 90
      256
102
RTVSPost2010Prop51ColorRGB
 90
-16777216
102
RTVSPost2010PropOp51
 70
     0
102
RTVSPost2010Prop52
140
1.0
102
RTVSPost2010PropOp52
 70
     0
102
RTVSPost2010Prop53
 90
        2
102
RTVSPost2010PropOp53
 70
     1
102
RTVSPost2010Prop54
  1
strokes_ogs.tif
102
RTVSPost2010PropOp54
 70
     1
102
RTVSPost2010Prop55
280
     0
102
RTVSPost2010PropOp55
 70
     1
102
RTVSPost2010Prop56
140
1.0
102
RTVSPost2010PropOp56
 70
     1
102
RTVSPost2010Prop57
140
1.0
102
RTVSPost2010PropOp57
 70
     1
  0
XRECORD
  5
EF
102
{ACAD_REACTORS
330
EE
102
}
330
EE
100
AcDbXrecord
280
     1
102
RTVSPropertyOp0
 70
     1
102
RTVSPropertyOp1
 70
     1
102
RTVSPropertyOp2
 70
     1
102
RTVSPropertyOp3
 70
     1
102
RTVSPropertyOp4
 70
     1
102
RTVSPropertyOp5
 70
     1
102
RTVSPropertyOp6
 70
     1
102
RTVSPropertyOp7
 70
     1
102
RTVSPropertyOp8
 70
     1
102
RTVSPropertyOp9
 70
     1
102
RTVSPropertyOp10
 70
     1
102
RTVSPropertyOp11
 70
     1
102
RTVSPropertyOp12
 70
     1
102
RTVSPropertyOp13
 70
     1
102
RTVSPropertyOp14
 70
     1
102
RTVSPropertyOp15
 70
     1
102
RTVSPropertyOp16
 70
     1
102
RTVSPropertyOp17
 70
     1
102
RTVSPropertyOp18
 70
     1
102
RTVSPropertyOp19
 70
     1
102
RTVSPropertyOp20
 70
     1
102
RTVSPropertyOp21
 70
     1
102
RTVSPropertyOp22
 70
     1
102
RTVSPropertyOp23
 70
     1
102
RTVSPropertyOp24
 70
     1
102
RTVSPropertyOp25
 70
     1
102
RTVSPropertyOp26
 70
     1
102
RTVSPropertyOp27
 70
     1
102
RTVSPropertyOp28
 70
     1
102
RTVSPropertyOp29
 70
     1
102
RTVSPropertyOp30
 70
     1
102
RTVSPropertyOp31
 70
     1
102
RTVSPropertyOp32
 70
     1
102
RTVSPropertyOp33
 70
     1
102
RTVSPropertyOp34
 70
     1
102
RTVSPropertyOp35
 70
     1
102
RTVSPropertyOp36
 70
     1
102
RTVSPropertyOp37
 70
     1
102
RTVSPropertyOp38
 70
     1
102
RTVSPropertyOp39
 70
     1
102
RTVSPropertyOp40
 70
     1
102
RTVSPropertyOp41
 70
     1
102
RTVSPropertyOp42
 70
     1
102
RTVSPropertyOp43
 70
     1
102
RTVSPropertyOp44
 70
     1
102
RTVSPropertyOp45
 70
     1
102
RTVSPropertyOp46
 70
     1
102
RTVSPropertyOp47
 70
     1
102
RTVSPropertyOp48
 70
     1
102
RTVSPropertyOp49
 70
     1
102
RTVSPropertyOp50
 70
     1
102
RTVSPropertyOp51
 70
     0
102
RTVSPropertyOp52
 70
     0
102
RTVSPropertyOp53
 70
     1
102
RTVSPropertyOp54
 70
     1
102
RTVSPropertyOp55
 70
     1
102
RTVSPropertyOp56
 70
     1
102
RTVSPropertyOp57
 70
     1
102
RTVSPost2010Prop28
280
     0
102
RTVSPost2010PropOp28
 70
     1
102
RTVSPost2010Prop29
280
     1
102
RTVSPost2010PropOp29
 70
     1
102
RTVSPost2010Prop30
280
     1
102
RTVSPost2010PropOp30
 70
     1
102
RTVSPost2010Prop31
280
     0
102
RTVSPost2010PropOp31
 70
     1
102
RTVSPost2010Prop32
280
     0
102
RTVSPost2010PropOp32
 70
     1
102
RTVSPost2010Prop33
280
     0
102
RTVSPost2010PropOp33
 70
     1
102
RTVSPost2010Prop34
280
     0
102
RTVSPost2010PropOp34
 70
     1
102
RTVSPost2010Prop35
280
     0
102
RTVSPost2010PropOp35
 70
     1
102
RTVSPost2010Prop36
280
     0
102
RTVSPost2010PropOp36
 70
     1
102
RTVSPost2010Prop37
 90
       50
102
RTVSPost2010PropOp37
 70
     1
102
RTVSPost2010Prop38
140
0.0
102
RTVSPost2010PropOp38
 70
     1
102
RTVSPost2010Prop39
140
1.0
102
RTVSPost2010PropOp39
 70
     1
102
RTVSPost2010Prop40
 90
        0
102
RTVSPost2010PropOp40
 70
     1
102
RTVSPost2010Prop41ColorIndex
 90
       18
102
RTVSPost2010Prop41ColorRGB
 90
        0
102
RTVSPost2010PropOp41
 70
     1
102
RTVSPost2010Prop42
 90
       50
102
RTVSPost2010PropOp42
 70
     1
102
RTVSPost2010Prop43
 90
        3
102
RTVSPost2010PropOp43
 70
     1
102
RTVSPost2010Prop44ColorIndex
 90
        5
102
RTVSPost2010Prop44ColorRGB
 90
      255
102
RTVSPost2010PropOp44
 70
     1
102
RTVSPost2010Prop45
280
     0
102
RTVSPost2010PropOp45
 70
     1
102
RTVSPost2010Prop46
 90
       50
102
RTVSPost2010PropOp46
 70
     1
102
RTVSPost2010Prop47
 90
       50
102
RTVSPost2010PropOp47
 70
     1
102
RTVSPost2010Prop48
 90
       50
102
RTVSPost2010PropOp48
 70
     1
102
RTVSPost2010Prop49
280
     0
102
RTVSPost2010PropOp49
 70
     1
102
RTVSPost2010Prop50
 90
       50
102
RTVSPost2010PropOp50
 70
     1
102
RTVSPost2010Prop51ColorIndex
 90
      256
102
RTVSPost2010Prop51ColorRGB
 90
-16777216
102
RTVSPost2010PropOp51
 70
     0
102
RTVSPost2010Prop52
140
1.0
102
RTVSPost2010PropOp52
 70
     0
102
RTVSPost2010Prop53
 90
        2
102
RTVSPost2010PropOp53
 70
     1
102
RTVSPost2010Prop54
  1
strokes_ogs.tif
102
RTVSPost2010PropOp54
 70
     1
102
RTVSPost2010Prop55
280
     0
102
RTVSPost2010PropOp55
 70
     1
102
RTVSPost2010Prop56
140
1.0
102
RTVSPost2010PropOp56
 70
     1
102
RTVSPost2010Prop57
140
1.0
102
RTVSPost2010PropOp57
 70
     1
  0
XRECORD
  5
103
102
{ACAD_REACTORS
330
102
102
}
330
102
100
AcDbXrecord
280
     1
102
RTVSPropertyOp0
 70
     0
102
RTVSPropertyOp1
 70
     0
102
RTVSPropertyOp2
 70
     0
102
RTVSPropertyOp3
 70
     0
102
RTVSPropertyOp4
 70
     0
102
RTVSPropertyOp5
 70
     0
102
RTVSPropertyOp6
 70
     0
102
RTVSPropertyOp7
 70
     0
102
RTVSPropertyOp8
 70
     0
102
RTVSPropertyOp9
 70
     0
102
RTVSPropertyOp10
 70
     0
102
RTVSPropertyOp11
 70
     0
102
RTVSPropertyOp12
 70
     0
102
RTVSPropertyOp13
 70
     0
102
RTVSPropertyOp14
 70
     2
102
RTVSPropertyOp15
 70
     0
102
RTVSPropertyOp16
 70
     0
102
RTVSPropertyOp17
 70
     0
102
RTVSPropertyOp18
 70
     0
102
RTVSPropertyOp19
 70
     0
102
RTVSPropertyOp20
 70
     0
102
RTVSPropertyOp21
 70
     0
102
RTVSPropertyOp22
 70
     0
102
RTVSPropertyOp23
 70
     0
102
RTVSPropertyOp24
 70
     0
102
RTVSPropertyOp25
 70
     0
102
RTVSPropertyOp26
 70
     0
102
RTVSPropertyOp27
 70
     0
102
RTVSPropertyOp28
 70
     0
102
RTVSPropertyOp29
 70
     0
102
RTVSPropertyOp30
 70
     0
102
RTVSPropertyOp31
 70
     0
102
RTVSPropertyOp32
 70
     0
102
RTVSPropertyOp33
 70
     0
102
RTVSPropertyOp34
 70
     0
102
RTVSPropertyOp35
 70
     0
102
RTVSPropertyOp36
 70
     0
102
RTVSPropertyOp37
 70
     0
102
RTVSPropertyOp38
 70
     0
102
RTVSPropertyOp39
 70
     0
102
RTVSPropertyOp40
 70
     0
102
RTVSPropertyOp41
 70
     0
102
RTVSPropertyOp42
 70
     0
102
RTVSPropertyOp43
 70
     0
102
RTVSPropertyOp44
 70
     0
102
RTVSPropertyOp45
 70
     0
102
RTVSPropertyOp46
 70
     0
102
RTVSPropertyOp47
 70
     0
102
RTVSPropertyOp48
 70
     0
102
RTVSPropertyOp49
 70
     0
102
RTVSPropertyOp50
 70
     0
102
RTVSPropertyOp51
 70
     0
102
RTVSPropertyOp52
 70
     0
102
RTVSPropertyOp53
 70
     0
102
RTVSPropertyOp54
 70
     0
102
RTVSPropertyOp55
 70
     0
102
RTVSPropertyOp56
 70
     0
102
RTVSPropertyOp57
 70
     0
102
RTVSPost2010Prop28
280
     0
102
RTVSPost2010PropOp28
 70
     0
102
RTVSPost2010Prop29
280
     1
102
RTVSPost2010PropOp29
 70
     0
102
RTVSPost2010Prop30
280
     1
102
RTVSPost2010PropOp30
 70
     0
102
RTVSPost2010Prop31
280
     0
102
RTVSPost2010PropOp31
 70
     0
102
RTVSPost2010Prop32
280
     0
102
RTVSPost2010PropOp32
 70
     0
102
RTVSPost2010Prop33
280
     0
102
RTVSPost2010PropOp33
 70
     0
102
RTVSPost2010Prop34
280
     0
102
RTVSPost2010PropOp34
 70
     0
102
RTVSPost2010Prop35
280
     0
102
RTVSPost2010PropOp35
 70
     0
102
RTVSPost2010Prop36
280
     0
102
RTVSPost2010PropOp36
 70
     0
102
RTVSPost2010Prop37
 90
       50
102
RTVSPost2010PropOp37
 70
     0
102
RTVSPost2010Prop38
140
0.0
102
RTVSPost2010PropOp38
 70
     0
102
RTVSPost2010Prop39
140
1.0
102
RTVSPost2010PropOp39
 70
     0
102
RTVSPost2010Prop40
 90
        0
102
RTVSPost2010PropOp40
 70
     0
102
RTVSPost2010Prop41ColorIndex
 90
       18
102
RTVSPost2010Prop41ColorRGB
 90
        0
102
RTVSPost2010PropOp41
 70
     0
102
RTVSPost2010Prop42
 90
       50
102
RTVSPost2010PropOp42
 70
     0
102
RTVSPost2010Prop43
 90
        3
102
RTVSPost2010PropOp43
 70
     0
102
RTVSPost2010Prop44ColorIndex
 90
        5
102
RTVSPost2010Prop44ColorRGB
 90
      255
102
RTVSPost2010PropOp44
 70
     0
102
RTVSPost2010Prop45
280
     0
102
RTVSPost2010PropOp45
 70
     0
102
RTVSPost2010Prop46
 90
       50
102
RTVSPost2010PropOp46
 70
     0
102
RTVSPost2010Prop47
 90
       50
102
RTVSPost2010PropOp47
 70
     0
102
RTVSPost2010Prop48
 90
       50
102
RTVSPost2010PropOp48
 70
     0
102
RTVSPost2010Prop49
280
     0
102
RTVSPost2010PropOp49
 70
     0
102
RTVSPost2010Prop50
 90
       50
102
RTVSPost2010PropOp50
 70
     0
102
RTVSPost2010Prop51ColorIndex
 90
      256
102
RTVSPost2010Prop51ColorRGB
 90
-16777216
102
RTVSPost2010PropOp51
 70
     0
102
RTVSPost2010Prop52
140
1.0
102
RTVSPost2010PropOp52
 70
     0
102
RTVSPost2010Prop53
 90
        2
102
RTVSPost2010PropOp53
 70
     0
102
RTVSPost2010Prop54
  1
strokes_ogs.tif
102
RTVSPost2010PropOp54
 70
     0
102
RTVSPost2010Prop55
280
     0
102
RTVSPost2010PropOp55
 70
     0
102
RTVSPost2010Prop56
140
1.0
102
RTVSPost2010PropOp56
 70
     0
102
RTVSPost2010Prop57
140
1.0
102
RTVSPost2010PropOp57
 70
     0
  0
XRECORD
  5
FD
102
{ACAD_REACTORS
330
FC
102
}
330
FC
100
AcDbXrecord
280
     1
102
RTVSPropertyOp0
 70
     1
102
RTVSPropertyOp1
 70
     1
102
RTVSPropertyOp2
 70
     1
102
RTVSPropertyOp3
 70
     1
102
RTVSPropertyOp4
 70
     1
102
RTVSPropertyOp5
 70
     1
102
RTVSPropertyOp6
 70
     1
102
RTVSPropertyOp7
 70
     1
102
RTVSPropertyOp8
 70
     1
102
RTVSPropertyOp9
 70
     1
102
RTVSPropertyOp10
 70
     1
102
RTVSPropertyOp11
 70
     1
102
RTVSPropertyOp12
 70
     1
102
RTVSPropertyOp13
 70
     1
102
RTVSPropertyOp14
 70
     1
102
RTVSPropertyOp15
 70
     1
102
RTVSPropertyOp16
 70
     1
102
RTVSPropertyOp17
 70
     1
102
RTVSPropertyOp18
 70
     1
102
RTVSPropertyOp19
 70
     1
102
RTVSPropertyOp20
 70
     1
102
RTVSPropertyOp21
 70
     1
102
RTVSPropertyOp22
 70
     1
102
RTVSPropertyOp23
 70
     1
102
RTVSPropertyOp24
 70
     1
102
RTVSPropertyOp25
 70
     1
102
RTVSPropertyOp26
 70
     1
102
RTVSPropertyOp27
 70
     1
102
RTVSPropertyOp28
 70
     1
102
RTVSPropertyOp29
 70
     1
102
RTVSPropertyOp30
 70
     1
102
RTVSPropertyOp31
 70
     1
102
RTVSPropertyOp32
 70
     1
102
RTVSPropertyOp33
 70
     1
102
RTVSPropertyOp34
 70
     1
102
RTVSPropertyOp35
 70
     1
102
RTVSPropertyOp36
 70
     1
102
RTVSPropertyOp37
 70
     1
102
RTVSPropertyOp38
 70
     1
102
RTVSPropertyOp39
 70
     1
102
RTVSPropertyOp40
 70
     1
102
RTVSPropertyOp41
 70
     1
102
RTVSPropertyOp42
 70
     1
102
RTVSPropertyOp43
 70
     1
102
RTVSPropertyOp44
 70
     1
102
RTVSPropertyOp45
 70
     1
102
RTVSPropertyOp46
 70
     1
102
RTVSPropertyOp47
 70
     1
102
RTVSPropertyOp48
 70
     1
102
RTVSPropertyOp49
 70
     1
102
RTVSPropertyOp50
 70
     1
102
RTVSPropertyOp51
 70
     0
102
RTVSPropertyOp52
 70
     0
102
RTVSPropertyOp53
 70
     1
102
RTVSPropertyOp54
 70
     1
102
RTVSPropertyOp55
 70
     1
102
RTVSPropertyOp56
 70
     1
102
RTVSPropertyOp57
 70
     1
102
RTVSPost2010Prop28
280
     0
102
RTVSPost2010PropOp28
 70
     1
102
RTVSPost2010Prop29
280
     1
102
RTVSPost2010PropOp29
 70
     1
102
RTVSPost2010Prop30
280
     1
102
RTVSPost2010PropOp30
 70
     1
102
RTVSPost2010Prop31
280
     0
102
RTVSPost2010PropOp31
 70
     1
102
RTVSPost2010Prop32
280
     0
102
RTVSPost2010PropOp32
 70
     1
102
RTVSPost2010Prop33
280
     0
102
RTVSPost2010PropOp33
 70
     1
102
RTVSPost2010Prop34
280
     0
102
RTVSPost2010PropOp34
 70
     1
102
RTVSPost2010Prop35
280
     0
102
RTVSPost2010PropOp35
 70
     1
102
RTVSPost2010Prop36
280
     0
102
RTVSPost2010PropOp36
 70
     1
102
RTVSPost2010Prop37
 90
       50
102
RTVSPost2010PropOp37
 70
     1
102
RTVSPost2010Prop38
140
0.0
102
RTVSPost2010PropOp38
 70
     1
102
RTVSPost2010Prop39
140
1.0
102
RTVSPost2010PropOp39
 70
     1
102
RTVSPost2010Prop40
 90
        0
102
RTVSPost2010PropOp40
 70
     1
102
RTVSPost2010Prop41ColorIndex
 90
       18
102
RTVSPost2010Prop41ColorRGB
 90
        0
102
RTVSPost2010PropOp41
 70
     1
102
RTVSPost2010Prop42
 90
       50
102
RTVSPost2010PropOp42
 70
     1
102
RTVSPost2010Prop43
 90
        3
102
RTVSPost2010PropOp43
 70
     1
102
RTVSPost2010Prop44ColorIndex
 90
        5
102
RTVSPost2010Prop44ColorRGB
 90
      255
102
RTVSPost2010PropOp44
 70
     1
102
RTVSPost2010Prop45
280
     0
102
RTVSPost2010PropOp45
 70
     1
102
RTVSPost2010Prop46
 90
       50
102
RTVSPost2010PropOp46
 70
     1
102
RTVSPost2010Prop47
 90
       50
102
RTVSPost2010PropOp47
 70
     1
102
RTVSPost2010Prop48
 90
       50
102
RTVSPost2010PropOp48
 70
     1
102
RTVSPost2010Prop49
280
     0
102
RTVSPost2010PropOp49
 70
     1
102
RTVSPost2010Prop50
 90
       50
102
RTVSPost2010PropOp50
 70
     1
102
RTVSPost2010Prop51ColorIndex
 90
      256
102
RTVSPost2010Prop51ColorRGB
 90
-16777216
102
RTVSPost2010PropOp51
 70
     0
102
RTVSPost2010Prop52
140
1.0
102
RTVSPost2010PropOp52
 70
     0
102
RTVSPost2010Prop53
 90
        2
102
RTVSPost2010PropOp53
 70
     1
102
RTVSPost2010Prop54
  1
strokes_ogs.tif
102
RTVSPost2010PropOp54
 70
     1
102
RTVSPost2010Prop55
280
     0
102
RTVSPost2010PropOp55
 70
     1
102
RTVSPost2010Prop56
140
1.0
102
RTVSPost2010PropOp56
 70
     1
102
RTVSPost2010Prop57
140
1.0
102
RTVSPost2010PropOp57
 70
     1
  0
XRECORD
  5
105
102
{ACAD_REACTORS
330
104
102
}
330
104
100
AcDbXrecord
280
     1
102
RTVSPropertyOp0
 70
     0
102
RTVSPropertyOp1
 70
     0
102
RTVSPropertyOp2
 70
     0
102
RTVSPropertyOp3
 70
     0
102
RTVSPropertyOp4
 70
     0
102
RTVSPropertyOp5
 70
     0
102
RTVSPropertyOp6
 70
     0
102
RTVSPropertyOp7
 70
     0
102
RTVSPropertyOp8
 70
     0
102
RTVSPropertyOp9
 70
     0
102
RTVSPropertyOp10
 70
     0
102
RTVSPropertyOp11
 70
     0
102
RTVSPropertyOp12
 70
     0
102
RTVSPropertyOp13
 70
     0
102
RTVSPropertyOp14
 70
     2
102
RTVSPropertyOp15
 70
     0
102
RTVSPropertyOp16
 70
     0
102
RTVSPropertyOp17
 70
     0
102
RTVSPropertyOp18
 70
     0
102
RTVSPropertyOp19
 70
     0
102
RTVSPropertyOp20
 70
     0
102
RTVSPropertyOp21
 70
     0
102
RTVSPropertyOp22
 70
     0
102
RTVSPropertyOp23
 70
     0
102
RTVSPropertyOp24
 70
     0
102
RTVSPropertyOp25
 70
     0
102
RTVSPropertyOp26
 70
     0
102
RTVSPropertyOp27
 70
     0
102
RTVSPropertyOp28
 70
     0
102
RTVSPropertyOp29
 70
     0
102
RTVSPropertyOp30
 70
     0
102
RTVSPropertyOp31
 70
     0
102
RTVSPropertyOp32
 70
     0
102
RTVSPropertyOp33
 70
     0
102
RTVSPropertyOp34
 70
     0
102
RTVSPropertyOp35
 70
     0
102
RTVSPropertyOp36
 70
     0
102
RTVSPropertyOp37
 70
     0
102
RTVSPropertyOp38
 70
     0
102
RTVSPropertyOp39
 70
     0
102
RTVSPropertyOp40
 70
     0
102
RTVSPropertyOp41
 70
     0
102
RTVSPropertyOp42
 70
     0
102
RTVSPropertyOp43
 70
     0
102
RTVSPropertyOp44
 70
     0
102
RTVSPropertyOp45
 70
     0
102
RTVSPropertyOp46
 70
     0
102
RTVSPropertyOp47
 70
     0
102
RTVSPropertyOp48
 70
     0
102
RTVSPropertyOp49
 70
     0
102
RTVSPropertyOp50
 70
     0
102
RTVSPropertyOp51
 70
     0
102
RTVSPropertyOp52
 70
     0
102
RTVSPropertyOp53
 70
     0
102
RTVSPropertyOp54
 70
     0
102
RTVSPropertyOp55
 70
     0
102
RTVSPropertyOp56
 70
     0
102
RTVSPropertyOp57
 70
     0
102
RTVSPost2010Prop28
280
     0
102
RTVSPost2010PropOp28
 70
     0
102
RTVSPost2010Prop29
280
     1
102
RTVSPost2010PropOp29
 70
     0
102
RTVSPost2010Prop30
280
     1
102
RTVSPost2010PropOp30
 70
     0
102
RTVSPost2010Prop31
280
     0
102
RTVSPost2010PropOp31
 70
     0
102
RTVSPost2010Prop32
280
     0
102
RTVSPost2010PropOp32
 70
     0
102
RTVSPost2010Prop33
280
     0
102
RTVSPost2010PropOp33
 70
     0
102
RTVSPost2010Prop34
280
     0
102
RTVSPost2010PropOp34
 70
     0
102
RTVSPost2010Prop35
280
     0
102
RTVSPost2010PropOp35
 70
     0
102
RTVSPost2010Prop36
280
     0
102
RTVSPost2010PropOp36
 70
     0
102
RTVSPost2010Prop37
 90
       50
102
RTVSPost2010PropOp37
 70
     0
102
RTVSPost2010Prop38
140
0.0
102
RTVSPost2010PropOp38
 70
     0
102
RTVSPost2010Prop39
140
1.0
102
RTVSPost2010PropOp39
 70
     0
102
RTVSPost2010Prop40
 90
        0
102
RTVSPost2010PropOp40
 70
     0
102
RTVSPost2010Prop41ColorIndex
 90
       18
102
RTVSPost2010Prop41ColorRGB
 90
        0
102
RTVSPost2010PropOp41
 70
     0
102
RTVSPost2010Prop42
 90
       50
102
RTVSPost2010PropOp42
 70
     0
102
RTVSPost2010Prop43
 90
        3
102
RTVSPost2010PropOp43
 70
     0
102
RTVSPost2010Prop44ColorIndex
 90
        5
102
RTVSPost2010Prop44ColorRGB
 90
      255
102
RTVSPost2010PropOp44
 70
     0
102
RTVSPost2010Prop45
280
     0
102
RTVSPost2010PropOp45
 70
     0
102
RTVSPost2010Prop46
 90
       50
102
RTVSPost2010PropOp46
 70
     0
102
RTVSPost2010Prop47
 90
       50
102
RTVSPost2010PropOp47
 70
     0
102
RTVSPost2010Prop48
 90
       50
102
RTVSPost2010PropOp48
 70
     0
102
RTVSPost2010Prop49
280
     0
102
RTVSPost2010PropOp49
 70
     0
102
RTVSPost2010Prop50
 90
       50
102
RTVSPost2010PropOp50
 70
     0
102
RTVSPost2010Prop51ColorIndex
 90
      256
102
RTVSPost2010Prop51ColorRGB
 90
-16777216
102
RTVSPost2010PropOp51
 70
     0
102
RTVSPost2010Prop52
140
1.0
102
RTVSPost2010PropOp52
 70
     0
102
RTVSPost2010Prop53
 90
        2
102
RTVSPost2010PropOp53
 70
     0
102
RTVSPost2010Prop54
  1
strokes_ogs.tif
102
RTVSPost2010PropOp54
 70
     0
102
RTVSPost2010Prop55
280
     0
102
RTVSPost2010PropOp55
 70
     0
102
RTVSPost2010Prop56
140
1.0
102
RTVSPost2010PropOp56
 70
     0
102
RTVSPost2010Prop57
140
1.0
102
RTVSPost2010PropOp57
 70
     0
  0
XRECORD
  5
F3
102
{ACAD_REACTORS
330
F2
102
}
330
F2
100
AcDbXrecord
280
     1
102
RTVSPropertyOp0
 70
     1
102
RTVSPropertyOp1
 70
     1
102
RTVSPropertyOp2
 70
     1
102
RTVSPropertyOp3
 70
     1
102
RTVSPropertyOp4
 70
     1
102
RTVSPropertyOp5
 70
     1
102
RTVSPropertyOp6
 70
     1
102
RTVSPropertyOp7
 70
     1
102
RTVSPropertyOp8
 70
     1
102
RTVSPropertyOp9
 70
     1
102
RTVSPropertyOp10
 70
     1
102
RTVSPropertyOp11
 70
     1
102
RTVSPropertyOp12
 70
     1
102
RTVSPropertyOp13
 70
     1
102
RTVSPropertyOp14
 70
     1
102
RTVSPropertyOp15
 70
     1
102
RTVSPropertyOp16
 70
     1
102
RTVSPropertyOp17
 70
     1
102
RTVSPropertyOp18
 70
     1
102
RTVSPropertyOp19
 70
     1
102
RTVSPropertyOp20
 70
     1
102
RTVSPropertyOp21
 70
     1
102
RTVSPropertyOp22
 70
     1
102
RTVSPropertyOp23
 70
     1
102
RTVSPropertyOp24
 70
     1
102
RTVSPropertyOp25
 70
     1
102
RTVSPropertyOp26
 70
     1
102
RTVSPropertyOp27
 70
     1
102
RTVSPropertyOp28
 70
     1
102
RTVSPropertyOp29
 70
     1
102
RTVSPropertyOp30
 70
     1
102
RTVSPropertyOp31
 70
     1
102
RTVSPropertyOp32
 70
     1
102
RTVSPropertyOp33
 70
     1
102
RTVSPropertyOp34
 70
     1
102
RTVSPropertyOp35
 70
     1
102
RTVSPropertyOp36
 70
     1
102
RTVSPropertyOp37
 70
     1
102
RTVSPropertyOp38
 70
     1
102
RTVSPropertyOp39
 70
     1
102
RTVSPropertyOp40
 70
     1
102
RTVSPropertyOp41
 70
     1
102
RTVSPropertyOp42
 70
     1
102
RTVSPropertyOp43
 70
     1
102
RTVSPropertyOp44
 70
     1
102
RTVSPropertyOp45
 70
     1
102
RTVSPropertyOp46
 70
     1
102
RTVSPropertyOp47
 70
     1
102
RTVSPropertyOp48
 70
     1
102
RTVSPropertyOp49
 70
     1
102
RTVSPropertyOp50
 70
     1
102
RTVSPropertyOp51
 70
     0
102
RTVSPropertyOp52
 70
     0
102
RTVSPropertyOp53
 70
     1
102
RTVSPropertyOp54
 70
     1
102
RTVSPropertyOp55
 70
     1
102
RTVSPropertyOp56
 70
     1
102
RTVSPropertyOp57
 70
     1
102
RTVSPost2010Prop28
280
     0
102
RTVSPost2010PropOp28
 70
     1
102
RTVSPost2010Prop29
280
     1
102
RTVSPost2010PropOp29
 70
     1
102
RTVSPost2010Prop30
280
     1
102
RTVSPost2010PropOp30
 70
     1
102
RTVSPost2010Prop31
280
     0
102
RTVSPost2010PropOp31
 70
     1
102
RTVSPost2010Prop32
280
     0
102
RTVSPost2010PropOp32
 70
     1
102
RTVSPost2010Prop33
280
     0
102
RTVSPost2010PropOp33
 70
     1
102
RTVSPost2010Prop34
280
     0
102
RTVSPost2010PropOp34
 70
     1
102
RTVSPost2010Prop35
280
     0
102
RTVSPost2010PropOp35
 70
     1
102
RTVSPost2010Prop36
280
     0
102
RTVSPost2010PropOp36
 70
     1
102
RTVSPost2010Prop37
 90
       50
102
RTVSPost2010PropOp37
 70
     1
102
RTVSPost2010Prop38
140
0.0
102
RTVSPost2010PropOp38
 70
     1
102
RTVSPost2010Prop39
140
1.0
102
RTVSPost2010PropOp39
 70
     1
102
RTVSPost2010Prop40
 90
        0
102
RTVSPost2010PropOp40
 70
     1
102
RTVSPost2010Prop41ColorIndex
 90
       18
102
RTVSPost2010Prop41ColorRGB
 90
        0
102
RTVSPost2010PropOp41
 70
     1
102
RTVSPost2010Prop42
 90
       50
102
RTVSPost2010PropOp42
 70
     1
102
RTVSPost2010Prop43
 90
        3
102
RTVSPost2010PropOp43
 70
     1
102
RTVSPost2010Prop44ColorIndex
 90
        5
102
RTVSPost2010Prop44ColorRGB
 90
      255
102
RTVSPost2010PropOp44
 70
     1
102
RTVSPost2010Prop45
280
     0
102
RTVSPost2010PropOp45
 70
     1
102
RTVSPost2010Prop46
 90
       50
102
RTVSPost2010PropOp46
 70
     1
102
RTVSPost2010Prop47
 90
       50
102
RTVSPost2010PropOp47
 70
     1
102
RTVSPost2010Prop48
 90
       50
102
RTVSPost2010PropOp48
 70
     1
102
RTVSPost2010Prop49
280
     0
102
RTVSPost2010PropOp49
 70
     1
102
RTVSPost2010Prop50
 90
       50
102
RTVSPost2010PropOp50
 70
     1
102
RTVSPost2010Prop51ColorIndex
 90
      256
102
RTVSPost2010Prop51ColorRGB
 90
-16777216
102
RTVSPost2010PropOp51
 70
     0
102
RTVSPost2010Prop52
140
1.0
102
RTVSPost2010PropOp52
 70
     0
102
RTVSPost2010Prop53
 90
        2
102
RTVSPost2010PropOp53
 70
     1
102
RTVSPost2010Prop54
  1
strokes_ogs.tif
102
RTVSPost2010PropOp54
 70
     1
102
RTVSPost2010Prop55
280
     0
102
RTVSPost2010PropOp55
 70
     1
102
RTVSPost2010Prop56
140
1.0
102
RTVSPost2010PropOp56
 70
     1
102
RTVSPost2010Prop57
140
1.0
102
RTVSPost2010PropOp57
 70
     1
  0
XRECORD
  5
111
102
{ACAD_REACTORS
330
110
102
}
330
110
100
AcDbXrecord
280
     1
102
RTVSPropertyOp0
 70
     1
102
RTVSPropertyOp1
 70
     1
102
RTVSPropertyOp2
 70
     1
102
RTVSPropertyOp3
 70
     1
102
RTVSPropertyOp4
 70
     1
102
RTVSPropertyOp5
 70
     1
102
RTVSPropertyOp6
 70
     1
102
RTVSPropertyOp7
 70
     1
102
RTVSPropertyOp8
 70
     1
102
RTVSPropertyOp9
 70
     1
102
RTVSPropertyOp10
 70
     1
102
RTVSPropertyOp11
 70
     1
102
RTVSPropertyOp12
 70
     1
102
RTVSPropertyOp13
 70
     1
102
RTVSPropertyOp14
 70
     1
102
RTVSPropertyOp15
 70
     1
102
RTVSPropertyOp16
 70
     1
102
RTVSPropertyOp17
 70
     1
102
RTVSPropertyOp18
 70
     1
102
RTVSPropertyOp19
 70
     1
102
RTVSPropertyOp20
 70
     1
102
RTVSPropertyOp21
 70
     1
102
RTVSPropertyOp22
 70
     1
102
RTVSPropertyOp23
 70
     1
102
RTVSPropertyOp24
 70
     1
102
RTVSPropertyOp25
 70
     1
102
RTVSPropertyOp26
 70
     1
102
RTVSPropertyOp27
 70
     1
102
RTVSPropertyOp28
 70
     1
102
RTVSPropertyOp29
 70
     1
102
RTVSPropertyOp30
 70
     1
102
RTVSPropertyOp31
 70
     1
102
RTVSPropertyOp32
 70
     1
102
RTVSPropertyOp33
 70
     1
102
RTVSPropertyOp34
 70
     1
102
RTVSPropertyOp35
 70
     1
102
RTVSPropertyOp36
 70
     1
102
RTVSPropertyOp37
 70
     1
102
RTVSPropertyOp38
 70
     1
102
RTVSPropertyOp39
 70
     1
102
RTVSPropertyOp40
 70
     1
102
RTVSPropertyOp41
 70
     1
102
RTVSPropertyOp42
 70
     1
102
RTVSPropertyOp43
 70
     1
102
RTVSPropertyOp44
 70
     1
102
RTVSPropertyOp45
 70
     1
102
RTVSPropertyOp46
 70
     1
102
RTVSPropertyOp47
 70
     1
102
RTVSPropertyOp48
 70
     1
102
RTVSPropertyOp49
 70
     1
102
RTVSPropertyOp50
 70
     1
102
RTVSPropertyOp51
 70
     0
102
RTVSPropertyOp52
 70
     0
102
RTVSPropertyOp53
 70
     1
102
RTVSPropertyOp54
 70
     1
102
RTVSPropertyOp55
 70
     1
102
RTVSPropertyOp56
 70
     1
102
RTVSPropertyOp57
 70
     1
102
RTVSPost2010Prop28
280
     0
102
RTVSPost2010PropOp28
 70
     1
102
RTVSPost2010Prop29
280
     1
102
RTVSPost2010PropOp29
 70
     1
102
RTVSPost2010Prop30
280
     1
102
RTVSPost2010PropOp30
 70
     1
102
RTVSPost2010Prop31
280
     0
102
RTVSPost2010PropOp31
 70
     1
102
RTVSPost2010Prop32
280
     0
102
RTVSPost2010PropOp32
 70
     1
102
RTVSPost2010Prop33
280
     0
102
RTVSPost2010PropOp33
 70
     1
102
RTVSPost2010Prop34
280
     0
102
RTVSPost2010PropOp34
 70
     1
102
RTVSPost2010Prop35
280
     0
102
RTVSPost2010PropOp35
 70
     1
102
RTVSPost2010Prop36
280
     0
102
RTVSPost2010PropOp36
 70
     1
102
RTVSPost2010Prop37
 90
       50
102
RTVSPost2010PropOp37
 70
     1
102
RTVSPost2010Prop38
140
0.0
102
RTVSPost2010PropOp38
 70
     1
102
RTVSPost2010Prop39
140
1.0
102
RTVSPost2010PropOp39
 70
     1
102
RTVSPost2010Prop40
 90
        0
102
RTVSPost2010PropOp40
 70
     1
102
RTVSPost2010Prop41ColorIndex
 90
       18
102
RTVSPost2010Prop41ColorRGB
 90
        0
102
RTVSPost2010PropOp41
 70
     1
102
RTVSPost2010Prop42
 90
       50
102
RTVSPost2010PropOp42
 70
     1
102
RTVSPost2010Prop43
 90
        3
102
RTVSPost2010PropOp43
 70
     1
102
RTVSPost2010Prop44ColorIndex
 90
        5
102
RTVSPost2010Prop44ColorRGB
 90
      255
102
RTVSPost2010PropOp44
 70
     1
102
RTVSPost2010Prop45
280
     0
102
RTVSPost2010PropOp45
 70
     1
102
RTVSPost2010Prop46
 90
       50
102
RTVSPost2010PropOp46
 70
     1
102
RTVSPost2010Prop47
 90
       50
102
RTVSPost2010PropOp47
 70
     1
102
RTVSPost2010Prop48
 90
       50
102
RTVSPost2010PropOp48
 70
     1
102
RTVSPost2010Prop49
280
     0
102
RTVSPost2010PropOp49
 70
     1
102
RTVSPost2010Prop50
 90
       50
102
RTVSPost2010PropOp50
 70
     1
102
RTVSPost2010Prop51ColorIndex
 90
      256
102
RTVSPost2010Prop51ColorRGB
 90
-16777216
102
RTVSPost2010PropOp51
 70
     0
102
RTVSPost2010Prop52
140
1.0
102
RTVSPost2010PropOp52
 70
     0
102
RTVSPost2010Prop53
 90
        2
102
RTVSPost2010PropOp53
 70
     1
102
RTVSPost2010Prop54
  1
strokes_ogs.tif
102
RTVSPost2010PropOp54
 70
     1
102
RTVSPost2010Prop55
280
     0
102
RTVSPost2010PropOp55
 70
     1
102
RTVSPost2010Prop56
140
1.0
102
RTVSPost2010PropOp56
 70
     1
102
RTVSPost2010Prop57
140
1.0
102
RTVSPost2010PropOp57
 70
     1
  0
XRECORD
  5
10F
102
{ACAD_REACTORS
330
10E
102
}
330
10E
100
AcDbXrecord
280
     1
102
RTVSPropertyOp0
 70
     1
102
RTVSPropertyOp1
 70
     1
102
RTVSPropertyOp2
 70
     1
102
RTVSPropertyOp3
 70
     1
102
RTVSPropertyOp4
 70
     1
102
RTVSPropertyOp5
 70
     1
102
RTVSPropertyOp6
 70
     1
102
RTVSPropertyOp7
 70
     1
102
RTVSPropertyOp8
 70
     1
102
RTVSPropertyOp9
 70
     1
102
RTVSPropertyOp10
 70
     1
102
RTVSPropertyOp11
 70
     1
102
RTVSPropertyOp12
 70
     1
102
RTVSPropertyOp13
 70
     1
102
RTVSPropertyOp14
 70
     1
102
RTVSPropertyOp15
 70
     1
102
RTVSPropertyOp16
 70
     1
102
RTVSPropertyOp17
 70
     1
102
RTVSPropertyOp18
 70
     1
102
RTVSPropertyOp19
 70
     1
102
RTVSPropertyOp20
 70
     1
102
RTVSPropertyOp21
 70
     1
102
RTVSPropertyOp22
 70
     1
102
RTVSPropertyOp23
 70
     1
102
RTVSPropertyOp24
 70
     1
102
RTVSPropertyOp25
 70
     1
102
RTVSPropertyOp26
 70
     1
102
RTVSPropertyOp27
 70
     1
102
RTVSPropertyOp28
 70
     1
102
RTVSPropertyOp29
 70
     1
102
RTVSPropertyOp30
 70
     1
102
RTVSPropertyOp31
 70
     1
102
RTVSPropertyOp32
 70
     1
102
RTVSPropertyOp33
 70
     1
102
RTVSPropertyOp34
 70
     1
102
RTVSPropertyOp35
 70
     1
102
RTVSPropertyOp36
 70
     1
102
RTVSPropertyOp37
 70
     1
102
RTVSPropertyOp38
 70
     1
102
RTVSPropertyOp39
 70
     1
102
RTVSPropertyOp40
 70
     1
102
RTVSPropertyOp41
 70
     1
102
RTVSPropertyOp42
 70
     1
102
RTVSPropertyOp43
 70
     1
102
RTVSPropertyOp44
 70
     1
102
RTVSPropertyOp45
 70
     1
102
RTVSPropertyOp46
 70
     1
102
RTVSPropertyOp47
 70
     1
102
RTVSPropertyOp48
 70
     1
102
RTVSPropertyOp49
 70
     1
102
RTVSPropertyOp50
 70
     1
102
RTVSPropertyOp51
 70
     0
102
RTVSPropertyOp52
 70
     0
102
RTVSPropertyOp53
 70
     1
102
RTVSPropertyOp54
 70
     1
102
RTVSPropertyOp55
 70
     1
102
RTVSPropertyOp56
 70
     1
102
RTVSPropertyOp57
 70
     1
102
RTVSPost2010Prop28
280
     0
102
RTVSPost2010PropOp28
 70
     1
102
RTVSPost2010Prop29
280
     1
102
RTVSPost2010PropOp29
 70
     1
102
RTVSPost2010Prop30
280
     1
102
RTVSPost2010PropOp30
 70
     1
102
RTVSPost2010Prop31
280
     0
102
RTVSPost2010PropOp31
 70
     1
102
RTVSPost2010Prop32
280
     0
102
RTVSPost2010PropOp32
 70
     1
102
RTVSPost2010Prop33
280
     0
102
RTVSPost2010PropOp33
 70
     1
102
RTVSPost2010Prop34
280
     0
102
RTVSPost2010PropOp34
 70
     1
102
RTVSPost2010Prop35
280
     0
102
RTVSPost2010PropOp35
 70
     1
102
RTVSPost2010Prop36
280
     0
102
RTVSPost2010PropOp36
 70
     1
102
RTVSPost2010Prop37
 90
       50
102
RTVSPost2010PropOp37
 70
     1
102
RTVSPost2010Prop38
140
0.0
102
RTVSPost2010PropOp38
 70
     1
102
RTVSPost2010Prop39
140
1.0
102
RTVSPost2010PropOp39
 70
     1
102
RTVSPost2010Prop40
 90
        0
102
RTVSPost2010PropOp40
 70
     1
102
RTVSPost2010Prop41ColorIndex
 90
       18
102
RTVSPost2010Prop41ColorRGB
 90
        0
102
RTVSPost2010PropOp41
 70
     1
102
RTVSPost2010Prop42
 90
       50
102
RTVSPost2010PropOp42
 70
     1
102
RTVSPost2010Prop43
 90
        3
102
RTVSPost2010PropOp43
 70
     1
102
RTVSPost2010Prop44ColorIndex
 90
        5
102
RTVSPost2010Prop44ColorRGB
 90
      255
102
RTVSPost2010PropOp44
 70
     1
102
RTVSPost2010Prop45
280
     0
102
RTVSPost2010PropOp45
 70
     1
102
RTVSPost2010Prop46
 90
       50
102
RTVSPost2010PropOp46
 70
     1
102
RTVSPost2010Prop47
 90
       50
102
RTVSPost2010PropOp47
 70
     1
102
RTVSPost2010Prop48
 90
       50
102
RTVSPost2010PropOp48
 70
     1
102
RTVSPost2010Prop49
280
     0
102
RTVSPost2010PropOp49
 70
     1
102
RTVSPost2010Prop50
 90
       50
102
RTVSPost2010PropOp50
 70
     1
102
RTVSPost2010Prop51ColorIndex
 90
      256
102
RTVSPost2010Prop51ColorRGB
 90
-16777216
102
RTVSPost2010PropOp51
 70
     0
102
RTVSPost2010Prop52
140
1.0
102
RTVSPost2010PropOp52
 70
     0
102
RTVSPost2010Prop53
 90
        2
102
RTVSPost2010PropOp53
 70
     1
102
RTVSPost2010Prop54
  1
strokes_ogs.tif
102
RTVSPost2010PropOp54
 70
     1
102
RTVSPost2010Prop55
280
     0
102
RTVSPost2010PropOp55
 70
     1
102
RTVSPost2010Prop56
140
1.0
102
RTVSPost2010PropOp56
 70
     1
102
RTVSPost2010Prop57
140
1.0
102
RTVSPost2010PropOp57
 70
     1
  0
XRECORD
  5
109
102
{ACAD_REACTORS
330
108
102
}
330
108
100
AcDbXrecord
280
     1
102
RTVSPropertyOp0
 70
     1
102
RTVSPropertyOp1
 70
     1
102
RTVSPropertyOp2
 70
     1
102
RTVSPropertyOp3
 70
     1
102
RTVSPropertyOp4
 70
     1
102
RTVSPropertyOp5
 70
     1
102
RTVSPropertyOp6
 70
     1
102
RTVSPropertyOp7
 70
     1
102
RTVSPropertyOp8
 70
     1
102
RTVSPropertyOp9
 70
     1
102
RTVSPropertyOp10
 70
     1
102
RTVSPropertyOp11
 70
     1
102
RTVSPropertyOp12
 70
     1
102
RTVSPropertyOp13
 70
     1
102
RTVSPropertyOp14
 70
     1
102
RTVSPropertyOp15
 70
     1
102
RTVSPropertyOp16
 70
     1
102
RTVSPropertyOp17
 70
     1
102
RTVSPropertyOp18
 70
     1
102
RTVSPropertyOp19
 70
     1
102
RTVSPropertyOp20
 70
     1
102
RTVSPropertyOp21
 70
     1
102
RTVSPropertyOp22
 70
     1
102
RTVSPropertyOp23
 70
     1
102
RTVSPropertyOp24
 70
     1
102
RTVSPropertyOp25
 70
     1
102
RTVSPropertyOp26
 70
     1
102
RTVSPropertyOp27
 70
     1
102
RTVSPropertyOp28
 70
     1
102
RTVSPropertyOp29
 70
     1
102
RTVSPropertyOp30
 70
     1
102
RTVSPropertyOp31
 70
     1
102
RTVSPropertyOp32
 70
     1
102
RTVSPropertyOp33
 70
     1
102
RTVSPropertyOp34
 70
     1
102
RTVSPropertyOp35
 70
     1
102
RTVSPropertyOp36
 70
     1
102
RTVSPropertyOp37
 70
     1
102
RTVSPropertyOp38
 70
     1
102
RTVSPropertyOp39
 70
     1
102
RTVSPropertyOp40
 70
     1
102
RTVSPropertyOp41
 70
     1
102
RTVSPropertyOp42
 70
     1
102
RTVSPropertyOp43
 70
     1
102
RTVSPropertyOp44
 70
     1
102
RTVSPropertyOp45
 70
     1
102
RTVSPropertyOp46
 70
     1
102
RTVSPropertyOp47
 70
     1
102
RTVSPropertyOp48
 70
     1
102
RTVSPropertyOp49
 70
     1
102
RTVSPropertyOp50
 70
     1
102
RTVSPropertyOp51
 70
     0
102
RTVSPropertyOp52
 70
     0
102
RTVSPropertyOp53
 70
     1
102
RTVSPropertyOp54
 70
     1
102
RTVSPropertyOp55
 70
     1
102
RTVSPropertyOp56
 70
     1
102
RTVSPropertyOp57
 70
     1
102
RTVSPost2010Prop28
280
     0
102
RTVSPost2010PropOp28
 70
     1
102
RTVSPost2010Prop29
280
     1
102
RTVSPost2010PropOp29
 70
     1
102
RTVSPost2010Prop30
280
     1
102
RTVSPost2010PropOp30
 70
     1
102
RTVSPost2010Prop31
280
     0
102
RTVSPost2010PropOp31
 70
     1
102
RTVSPost2010Prop32
280
     0
102
RTVSPost2010PropOp32
 70
     1
102
RTVSPost2010Prop33
280
     0
102
RTVSPost2010PropOp33
 70
     1
102
RTVSPost2010Prop34
280
     0
102
RTVSPost2010PropOp34
 70
     1
102
RTVSPost2010Prop35
280
     0
102
RTVSPost2010PropOp35
 70
     1
102
RTVSPost2010Prop36
280
     0
102
RTVSPost2010PropOp36
 70
     1
102
RTVSPost2010Prop37
 90
       50
102
RTVSPost2010PropOp37
 70
     1
102
RTVSPost2010Prop38
140
0.0
102
RTVSPost2010PropOp38
 70
     1
102
RTVSPost2010Prop39
140
1.0
102
RTVSPost2010PropOp39
 70
     1
102
RTVSPost2010Prop40
 90
        0
102
RTVSPost2010PropOp40
 70
     1
102
RTVSPost2010Prop41ColorIndex
 90
       18
102
RTVSPost2010Prop41ColorRGB
 90
        0
102
RTVSPost2010PropOp41
 70
     1
102
RTVSPost2010Prop42
 90
       50
102
RTVSPost2010PropOp42
 70
     1
102
RTVSPost2010Prop43
 90
        3
102
RTVSPost2010PropOp43
 70
     1
102
RTVSPost2010Prop44ColorIndex
 90
        5
102
RTVSPost2010Prop44ColorRGB
 90
      255
102
RTVSPost2010PropOp44
 70
     1
102
RTVSPost2010Prop45
280
     0
102
RTVSPost2010PropOp45
 70
     1
102
RTVSPost2010Prop46
 90
       50
102
RTVSPost2010PropOp46
 70
     1
102
RTVSPost2010Prop47
 90
       50
102
RTVSPost2010PropOp47
 70
     1
102
RTVSPost2010Prop48
 90
       50
102
RTVSPost2010PropOp48
 70
     1
102
RTVSPost2010Prop49
280
     0
102
RTVSPost2010PropOp49
 70
     1
102
RTVSPost2010Prop50
 90
       50
102
RTVSPost2010PropOp50
 70
     1
102
RTVSPost2010Prop51ColorIndex
 90
      256
102
RTVSPost2010Prop51ColorRGB
 90
-16777216
102
RTVSPost2010PropOp51
 70
     0
102
RTVSPost2010Prop52
140
1.0
102
RTVSPost2010PropOp52
 70
     0
102
RTVSPost2010Prop53
 90
        2
102
RTVSPost2010PropOp53
 70
     1
102
RTVSPost2010Prop54
  1
strokes_ogs.tif
102
RTVSPost2010PropOp54
 70
     1
102
RTVSPost2010Prop55
280
     0
102
RTVSPost2010PropOp55
 70
     1
102
RTVSPost2010Prop56
140
1.0
102
RTVSPost2010PropOp56
 70
     1
102
RTVSPost2010Prop57
140
1.0
102
RTVSPost2010PropOp57
 70
     1
  0
XRECORD
  5
10B
102
{ACAD_REACTORS
330
10A
102
}
330
10A
100
AcDbXrecord
280
     1
102
RTVSPropertyOp0
 70
     1
102
RTVSPropertyOp1
 70
     1
102
RTVSPropertyOp2
 70
     1
102
RTVSPropertyOp3
 70
     1
102
RTVSPropertyOp4
 70
     1
102
RTVSPropertyOp5
 70
     1
102
RTVSPropertyOp6
 70
     1
102
RTVSPropertyOp7
 70
     1
102
RTVSPropertyOp8
 70
     1
102
RTVSPropertyOp9
 70
     1
102
RTVSPropertyOp10
 70
     1
102
RTVSPropertyOp11
 70
     1
102
RTVSPropertyOp12
 70
     1
102
RTVSPropertyOp13
 70
     1
102
RTVSPropertyOp14
 70
     1
102
RTVSPropertyOp15
 70
     1
102
RTVSPropertyOp16
 70
     1
102
RTVSPropertyOp17
 70
     1
102
RTVSPropertyOp18
 70
     1
102
RTVSPropertyOp19
 70
     1
102
RTVSPropertyOp20
 70
     1
102
RTVSPropertyOp21
 70
     1
102
RTVSPropertyOp22
 70
     1
102
RTVSPropertyOp23
 70
     1
102
RTVSPropertyOp24
 70
     1
102
RTVSPropertyOp25
 70
     1
102
RTVSPropertyOp26
 70
     1
102
RTVSPropertyOp27
 70
     1
102
RTVSPropertyOp28
 70
     1
102
RTVSPropertyOp29
 70
     1
102
RTVSPropertyOp30
 70
     1
102
RTVSPropertyOp31
 70
     1
102
RTVSPropertyOp32
 70
     1
102
RTVSPropertyOp33
 70
     1
102
RTVSPropertyOp34
 70
     1
102
RTVSPropertyOp35
 70
     1
102
RTVSPropertyOp36
 70
     1
102
RTVSPropertyOp37
 70
     1
102
RTVSPropertyOp38
 70
     1
102
RTVSPropertyOp39
 70
     1
102
RTVSPropertyOp40
 70
     1
102
RTVSPropertyOp41
 70
     1
102
RTVSPropertyOp42
 70
     1
102
RTVSPropertyOp43
 70
     1
102
RTVSPropertyOp44
 70
     1
102
RTVSPropertyOp45
 70
     1
102
RTVSPropertyOp46
 70
     1
102
RTVSPropertyOp47
 70
     1
102
RTVSPropertyOp48
 70
     1
102
RTVSPropertyOp49
 70
     1
102
RTVSPropertyOp50
 70
     1
102
RTVSPropertyOp51
 70
     0
102
RTVSPropertyOp52
 70
     0
102
RTVSPropertyOp53
 70
     1
102
RTVSPropertyOp54
 70
     1
102
RTVSPropertyOp55
 70
     1
102
RTVSPropertyOp56
 70
     1
102
RTVSPropertyOp57
 70
     1
102
RTVSPost2010Prop28
280
     0
102
RTVSPost2010PropOp28
 70
     1
102
RTVSPost2010Prop29
280
     1
102
RTVSPost2010PropOp29
 70
     1
102
RTVSPost2010Prop30
280
     1
102
RTVSPost2010PropOp30
 70
     1
102
RTVSPost2010Prop31
280
     0
102
RTVSPost2010PropOp31
 70
     1
102
RTVSPost2010Prop32
280
     0
102
RTVSPost2010PropOp32
 70
     1
102
RTVSPost2010Prop33
280
     0
102
RTVSPost2010PropOp33
 70
     1
102
RTVSPost2010Prop34
280
     0
102
RTVSPost2010PropOp34
 70
     1
102
RTVSPost2010Prop35
280
     0
102
RTVSPost2010PropOp35
 70
     1
102
RTVSPost2010Prop36
280
     0
102
RTVSPost2010PropOp36
 70
     1
102
RTVSPost2010Prop37
 90
       50
102
RTVSPost2010PropOp37
 70
     1
102
RTVSPost2010Prop38
140
0.0
102
RTVSPost2010PropOp38
 70
     1
102
RTVSPost2010Prop39
140
1.0
102
RTVSPost2010PropOp39
 70
     1
102
RTVSPost2010Prop40
 90
        0
102
RTVSPost2010PropOp40
 70
     1
102
RTVSPost2010Prop41ColorIndex
 90
       18
102
RTVSPost2010Prop41ColorRGB
 90
        0
102
RTVSPost2010PropOp41
 70
     1
102
RTVSPost2010Prop42
 90
       50
102
RTVSPost2010PropOp42
 70
     1
102
RTVSPost2010Prop43
 90
        3
102
RTVSPost2010PropOp43
 70
     1
102
RTVSPost2010Prop44ColorIndex
 90
        5
102
RTVSPost2010Prop44ColorRGB
 90
      255
102
RTVSPost2010PropOp44
 70
     1
102
RTVSPost2010Prop45
280
     0
102
RTVSPost2010PropOp45
 70
     1
102
RTVSPost2010Prop46
 90
       50
102
RTVSPost2010PropOp46
 70
     1
102
RTVSPost2010Prop47
 90
       50
102
RTVSPost2010PropOp47
 70
     1
102
RTVSPost2010Prop48
 90
       50
102
RTVSPost2010PropOp48
 70
     1
102
RTVSPost2010Prop49
280
     0
102
RTVSPost2010PropOp49
 70
     1
102
RTVSPost2010Prop50
 90
       50
102
RTVSPost2010PropOp50
 70
     1
102
RTVSPost2010Prop51ColorIndex
 90
      256
102
RTVSPost2010Prop51ColorRGB
 90
-16777216
102
RTVSPost2010PropOp51
 70
     0
102
RTVSPost2010Prop52
140
1.0
102
RTVSPost2010PropOp52
 70
     0
102
RTVSPost2010Prop53
 90
        2
102
RTVSPost2010PropOp53
 70
     1
102
RTVSPost2010Prop54
  1
strokes_ogs.tif
102
RTVSPost2010PropOp54
 70
     1
102
RTVSPost2010Prop55
280
     0
102
RTVSPost2010PropOp55
 70
     1
102
RTVSPost2010Prop56
140
1.0
102
RTVSPost2010PropOp56
 70
     1
102
RTVSPost2010Prop57
140
1.0
102
RTVSPost2010PropOp57
 70
     1
  0
XRECORD
  5
FB
102
{ACAD_REACTORS
330
FA
102
}
330
FA
100
AcDbXrecord
280
     1
102
RTVSPropertyOp0
 70
     1
102
RTVSPropertyOp1
 70
     1
102
RTVSPropertyOp2
 70
     1
102
RTVSPropertyOp3
 70
     1
102
RTVSPropertyOp4
 70
     1
102
RTVSPropertyOp5
 70
     1
102
RTVSPropertyOp6
 70
     1
102
RTVSPropertyOp7
 70
     1
102
RTVSPropertyOp8
 70
     1
102
RTVSPropertyOp9
 70
     1
102
RTVSPropertyOp10
 70
     1
102
RTVSPropertyOp11
 70
     1
102
RTVSPropertyOp12
 70
     1
102
RTVSPropertyOp13
 70
     1
102
RTVSPropertyOp14
 70
     1
102
RTVSPropertyOp15
 70
     1
102
RTVSPropertyOp16
 70
     1
102
RTVSPropertyOp17
 70
     1
102
RTVSPropertyOp18
 70
     1
102
RTVSPropertyOp19
 70
     1
102
RTVSPropertyOp20
 70
     1
102
RTVSPropertyOp21
 70
     1
102
RTVSPropertyOp22
 70
     1
102
RTVSPropertyOp23
 70
     1
102
RTVSPropertyOp24
 70
     1
102
RTVSPropertyOp25
 70
     1
102
RTVSPropertyOp26
 70
     1
102
RTVSPropertyOp27
 70
     1
102
RTVSPropertyOp28
 70
     1
102
RTVSPropertyOp29
 70
     1
102
RTVSPropertyOp30
 70
     1
102
RTVSPropertyOp31
 70
     1
102
RTVSPropertyOp32
 70
     1
102
RTVSPropertyOp33
 70
     1
102
RTVSPropertyOp34
 70
     1
102
RTVSPropertyOp35
 70
     1
102
RTVSPropertyOp36
 70
     1
102
RTVSPropertyOp37
 70
     1
102
RTVSPropertyOp38
 70
     1
102
RTVSPropertyOp39
 70
     1
102
RTVSPropertyOp40
 70
     1
102
RTVSPropertyOp41
 70
     1
102
RTVSPropertyOp42
 70
     1
102
RTVSPropertyOp43
 70
     1
102
RTVSPropertyOp44
 70
     1
102
RTVSPropertyOp45
 70
     1
102
RTVSPropertyOp46
 70
     1
102
RTVSPropertyOp47
 70
     1
102
RTVSPropertyOp48
 70
     1
102
RTVSPropertyOp49
 70
     1
102
RTVSPropertyOp50
 70
     1
102
RTVSPropertyOp51
 70
     0
102
RTVSPropertyOp52
 70
     0
102
RTVSPropertyOp53
 70
     1
102
RTVSPropertyOp54
 70
     1
102
RTVSPropertyOp55
 70
     1
102
RTVSPropertyOp56
 70
     1
102
RTVSPropertyOp57
 70
     1
102
RTVSPost2010Prop28
280
     0
102
RTVSPost2010PropOp28
 70
     1
102
RTVSPost2010Prop29
280
     1
102
RTVSPost2010PropOp29
 70
     1
102
RTVSPost2010Prop30
280
     1
102
RTVSPost2010PropOp30
 70
     1
102
RTVSPost2010Prop31
280
     0
102
RTVSPost2010PropOp31
 70
     1
102
RTVSPost2010Prop32
280
     0
102
RTVSPost2010PropOp32
 70
     1
102
RTVSPost2010Prop33
280
     0
102
RTVSPost2010PropOp33
 70
     1
102
RTVSPost2010Prop34
280
     0
102
RTVSPost2010PropOp34
 70
     1
102
RTVSPost2010Prop35
280
     0
102
RTVSPost2010PropOp35
 70
     1
102
RTVSPost2010Prop36
280
     0
102
RTVSPost2010PropOp36
 70
     1
102
RTVSPost2010Prop37
 90
       50
102
RTVSPost2010PropOp37
 70
     1
102
RTVSPost2010Prop38
140
0.0
102
RTVSPost2010PropOp38
 70
     1
102
RTVSPost2010Prop39
140
1.0
102
RTVSPost2010PropOp39
 70
     1
102
RTVSPost2010Prop40
 90
        0
102
RTVSPost2010PropOp40
 70
     1
102
RTVSPost2010Prop41ColorIndex
 90
       18
102
RTVSPost2010Prop41ColorRGB
 90
        0
102
RTVSPost2010PropOp41
 70
     1
102
RTVSPost2010Prop42
 90
       50
102
RTVSPost2010PropOp42
 70
     1
102
RTVSPost2010Prop43
 90
        3
102
RTVSPost2010PropOp43
 70
     1
102
RTVSPost2010Prop44ColorIndex
 90
        5
102
RTVSPost2010Prop44ColorRGB
 90
      255
102
RTVSPost2010PropOp44
 70
     1
102
RTVSPost2010Prop45
280
     0
102
RTVSPost2010PropOp45
 70
     1
102
RTVSPost2010Prop46
 90
       50
102
RTVSPost2010PropOp46
 70
     1
102
RTVSPost2010Prop47
 90
       50
102
RTVSPost2010PropOp47
 70
     1
102
RTVSPost2010Prop48
 90
       50
102
RTVSPost2010PropOp48
 70
     1
102
RTVSPost2010Prop49
280
     0
102
RTVSPost2010PropOp49
 70
     1
102
RTVSPost2010Prop50
 90
       50
102
RTVSPost2010PropOp50
 70
     1
102
RTVSPost2010Prop51ColorIndex
 90
      256
102
RTVSPost2010Prop51ColorRGB
 90
-16777216
102
RTVSPost2010PropOp51
 70
     0
102
RTVSPost2010Prop52
140
1.0
102
RTVSPost2010PropOp52
 70
     0
102
RTVSPost2010Prop53
 90
        2
102
RTVSPost2010PropOp53
 70
     1
102
RTVSPost2010Prop54
  1
strokes_ogs.tif
102
RTVSPost2010PropOp54
 70
     1
102
RTVSPost2010Prop55
280
     0
102
RTVSPost2010PropOp55
 70
     1
102
RTVSPost2010Prop56
140
1.0
102
RTVSPost2010PropOp56
 70
     1
102
RTVSPost2010Prop57
140
1.0
102
RTVSPost2010PropOp57
 70
     1
  0
XRECORD
  5
ED
102
{ACAD_REACTORS
330
EC
102
}
330
EC
100
AcDbXrecord
280
     1
102
RTVSPropertyOp0
 70
     1
102
RTVSPropertyOp1
 70
     1
102
RTVSPropertyOp2
 70
     1
102
RTVSPropertyOp3
 70
     1
102
RTVSPropertyOp4
 70
     1
102
RTVSPropertyOp5
 70
     1
102
RTVSPropertyOp6
 70
     1
102
RTVSPropertyOp7
 70
     1
102
RTVSPropertyOp8
 70
     1
102
RTVSPropertyOp9
 70
     1
102
RTVSPropertyOp10
 70
     1
102
RTVSPropertyOp11
 70
     1
102
RTVSPropertyOp12
 70
     1
102
RTVSPropertyOp13
 70
     1
102
RTVSPropertyOp14
 70
     1
102
RTVSPropertyOp15
 70
     1
102
RTVSPropertyOp16
 70
     1
102
RTVSPropertyOp17
 70
     1
102
RTVSPropertyOp18
 70
     1
102
RTVSPropertyOp19
 70
     1
102
RTVSPropertyOp20
 70
     1
102
RTVSPropertyOp21
 70
     1
102
RTVSPropertyOp22
 70
     1
102
RTVSPropertyOp23
 70
     1
102
RTVSPropertyOp24
 70
     1
102
RTVSPropertyOp25
 70
     1
102
RTVSPropertyOp26
 70
     1
102
RTVSPropertyOp27
 70
     1
102
RTVSPropertyOp28
 70
     1
102
RTVSPropertyOp29
 70
     1
102
RTVSPropertyOp30
 70
     1
102
RTVSPropertyOp31
 70
     1
102
RTVSPropertyOp32
 70
     1
102
RTVSPropertyOp33
 70
     1
102
RTVSPropertyOp34
 70
     1
102
RTVSPropertyOp35
 70
     1
102
RTVSPropertyOp36
 70
     1
102
RTVSPropertyOp37
 70
     1
102
RTVSPropertyOp38
 70
     1
102
RTVSPropertyOp39
 70
     1
102
RTVSPropertyOp40
 70
     1
102
RTVSPropertyOp41
 70
     1
102
RTVSPropertyOp42
 70
     1
102
RTVSPropertyOp43
 70
     1
102
RTVSPropertyOp44
 70
     1
102
RTVSPropertyOp45
 70
     1
102
RTVSPropertyOp46
 70
     1
102
RTVSPropertyOp47
 70
     1
102
RTVSPropertyOp48
 70
     1
102
RTVSPropertyOp49
 70
     1
102
RTVSPropertyOp50
 70
     1
102
RTVSPropertyOp51
 70
     0
102
RTVSPropertyOp52
 70
     0
102
RTVSPropertyOp53
 70
     1
102
RTVSPropertyOp54
 70
     1
102
RTVSPropertyOp55
 70
     1
102
RTVSPropertyOp56
 70
     1
102
RTVSPropertyOp57
 70
     1
102
RTVSPost2010Prop28
280
     0
102
RTVSPost2010PropOp28
 70
     1
102
RTVSPost2010Prop29
280
     1
102
RTVSPost2010PropOp29
 70
     1
102
RTVSPost2010Prop30
280
     1
102
RTVSPost2010PropOp30
 70
     1
102
RTVSPost2010Prop31
280
     0
102
RTVSPost2010PropOp31
 70
     1
102
RTVSPost2010Prop32
280
     0
102
RTVSPost2010PropOp32
 70
     1
102
RTVSPost2010Prop33
280
     0
102
RTVSPost2010PropOp33
 70
     1
102
RTVSPost2010Prop34
280
     0
102
RTVSPost2010PropOp34
 70
     1
102
RTVSPost2010Prop35
280
     0
102
RTVSPost2010PropOp35
 70
     1
102
RTVSPost2010Prop36
280
     0
102
RTVSPost2010PropOp36
 70
     1
102
RTVSPost2010Prop37
 90
       50
102
RTVSPost2010PropOp37
 70
     1
102
RTVSPost2010Prop38
140
0.0
102
RTVSPost2010PropOp38
 70
     1
102
RTVSPost2010Prop39
140
1.0
102
RTVSPost2010PropOp39
 70
     1
102
RTVSPost2010Prop40
 90
        0
102
RTVSPost2010PropOp40
 70
     1
102
RTVSPost2010Prop41ColorIndex
 90
       18
102
RTVSPost2010Prop41ColorRGB
 90
        0
102
RTVSPost2010PropOp41
 70
     1
102
RTVSPost2010Prop42
 90
       50
102
RTVSPost2010PropOp42
 70
     1
102
RTVSPost2010Prop43
 90
        3
102
RTVSPost2010PropOp43
 70
     1
102
RTVSPost2010Prop44ColorIndex
 90
        5
102
RTVSPost2010Prop44ColorRGB
 90
      255
102
RTVSPost2010PropOp44
 70
     1
102
RTVSPost2010Prop45
280
     0
102
RTVSPost2010PropOp45
 70
     1
102
RTVSPost2010Prop46
 90
       50
102
RTVSPost2010PropOp46
 70
     1
102
RTVSPost2010Prop47
 90
       50
102
RTVSPost2010PropOp47
 70
     1
102
RTVSPost2010Prop48
 90
       50
102
RTVSPost2010PropOp48
 70
     1
102
RTVSPost2010Prop49
280
     0
102
RTVSPost2010PropOp49
 70
     1
102
RTVSPost2010Prop50
 90
       50
102
RTVSPost2010PropOp50
 70
     1
102
RTVSPost2010Prop51ColorIndex
 90
      256
102
RTVSPost2010Prop51ColorRGB
 90
-16777216
102
RTVSPost2010PropOp51
 70
     0
102
RTVSPost2010Prop52
140
1.0
102
RTVSPost2010PropOp52
 70
     0
102
RTVSPost2010Prop53
 90
        2
102
RTVSPost2010PropOp53
 70
     1
102
RTVSPost2010Prop54
  1
strokes_ogs.tif
102
RTVSPost2010PropOp54
 70
     1
102
RTVSPost2010Prop55
280
     0
102
RTVSPost2010PropOp55
 70
     1
102
RTVSPost2010Prop56
140
1.0
102
RTVSPost2010PropOp56
 70
     1
102
RTVSPost2010Prop57
140
1.0
102
RTVSPost2010PropOp57
 70
     1
  0
XRECORD
  5
10D
102
{ACAD_REACTORS
330
10C
102
}
330
10C
100
AcDbXrecord
280
     1
102
RTVSPropertyOp0
 70
     1
102
RTVSPropertyOp1
 70
     1
102
RTVSPropertyOp2
 70
     1
102
RTVSPropertyOp3
 70
     1
102
RTVSPropertyOp4
 70
     1
102
RTVSPropertyOp5
 70
     1
102
RTVSPropertyOp6
 70
     1
102
RTVSPropertyOp7
 70
     1
102
RTVSPropertyOp8
 70
     1
102
RTVSPropertyOp9
 70
     1
102
RTVSPropertyOp10
 70
     1
102
RTVSPropertyOp11
 70
     1
102
RTVSPropertyOp12
 70
     1
102
RTVSPropertyOp13
 70
     1
102
RTVSPropertyOp14
 70
     1
102
RTVSPropertyOp15
 70
     1
102
RTVSPropertyOp16
 70
     1
102
RTVSPropertyOp17
 70
     1
102
RTVSPropertyOp18
 70
     1
102
RTVSPropertyOp19
 70
     1
102
RTVSPropertyOp20
 70
     1
102
RTVSPropertyOp21
 70
     1
102
RTVSPropertyOp22
 70
     1
102
RTVSPropertyOp23
 70
     1
102
RTVSPropertyOp24
 70
     1
102
RTVSPropertyOp25
 70
     1
102
RTVSPropertyOp26
 70
     1
102
RTVSPropertyOp27
 70
     1
102
RTVSPropertyOp28
 70
     1
102
RTVSPropertyOp29
 70
     1
102
RTVSPropertyOp30
 70
     1
102
RTVSPropertyOp31
 70
     1
102
RTVSPropertyOp32
 70
     1
102
RTVSPropertyOp33
 70
     1
102
RTVSPropertyOp34
 70
     1
102
RTVSPropertyOp35
 70
     1
102
RTVSPropertyOp36
 70
     1
102
RTVSPropertyOp37
 70
     1
102
RTVSPropertyOp38
 70
     1
102
RTVSPropertyOp39
 70
     1
102
RTVSPropertyOp40
 70
     1
102
RTVSPropertyOp41
 70
     1
102
RTVSPropertyOp42
 70
     1
102
RTVSPropertyOp43
 70
     1
102
RTVSPropertyOp44
 70
     1
102
RTVSPropertyOp45
 70
     1
102
RTVSPropertyOp46
 70
     1
102
RTVSPropertyOp47
 70
     1
102
RTVSPropertyOp48
 70
     1
102
RTVSPropertyOp49
 70
     1
102
RTVSPropertyOp50
 70
     1
102
RTVSPropertyOp51
 70
     0
102
RTVSPropertyOp52
 70
     0
102
RTVSPropertyOp53
 70
     1
102
RTVSPropertyOp54
 70
     1
102
RTVSPropertyOp55
 70
     1
102
RTVSPropertyOp56
 70
     1
102
RTVSPropertyOp57
 70
     1
102
RTVSPost2010Prop28
280
     0
102
RTVSPost2010PropOp28
 70
     1
102
RTVSPost2010Prop29
280
     1
102
RTVSPost2010PropOp29
 70
     1
102
RTVSPost2010Prop30
280
     1
102
RTVSPost2010PropOp30
 70
     1
102
RTVSPost2010Prop31
280
     0
102
RTVSPost2010PropOp31
 70
     1
102
RTVSPost2010Prop32
280
     0
102
RTVSPost2010PropOp32
 70
     1
102
RTVSPost2010Prop33
280
     0
102
RTVSPost2010PropOp33
 70
     1
102
RTVSPost2010Prop34
280
     0
102
RTVSPost2010PropOp34
 70
     1
102
RTVSPost2010Prop35
280
     0
102
RTVSPost2010PropOp35
 70
     1
102
RTVSPost2010Prop36
280
     0
102
RTVSPost2010PropOp36
 70
     1
102
RTVSPost2010Prop37
 90
       50
102
RTVSPost2010PropOp37
 70
     1
102
RTVSPost2010Prop38
140
0.0
102
RTVSPost2010PropOp38
 70
     1
102
RTVSPost2010Prop39
140
1.0
102
RTVSPost2010PropOp39
 70
     1
102
RTVSPost2010Prop40
 90
        0
102
RTVSPost2010PropOp40
 70
     1
102
RTVSPost2010Prop41ColorIndex
 90
       18
102
RTVSPost2010Prop41ColorRGB
 90
        0
102
RTVSPost2010PropOp41
 70
     1
102
RTVSPost2010Prop42
 90
       50
102
RTVSPost2010PropOp42
 70
     1
102
RTVSPost2010Prop43
 90
        3
102
RTVSPost2010PropOp43
 70
     1
102
RTVSPost2010Prop44ColorIndex
 90
        5
102
RTVSPost2010Prop44ColorRGB
 90
      255
102
RTVSPost2010PropOp44
 70
     1
102
RTVSPost2010Prop45
280
     0
102
RTVSPost2010PropOp45
 70
     1
102
RTVSPost2010Prop46
 90
       50
102
RTVSPost2010PropOp46
 70
     1
102
RTVSPost2010Prop47
 90
       50
102
RTVSPost2010PropOp47
 70
     1
102
RTVSPost2010Prop48
 90
       50
102
RTVSPost2010PropOp48
 70
     1
102
RTVSPost2010Prop49
280
     0
102
RTVSPost2010PropOp49
 70
     1
102
RTVSPost2010Prop50
 90
       50
102
RTVSPost2010PropOp50
 70
     1
102
RTVSPost2010Prop51ColorIndex
 90
      256
102
RTVSPost2010Prop51ColorRGB
 90
-16777216
102
RTVSPost2010PropOp51
 70
     0
102
RTVSPost2010Prop52
140
1.0
102
RTVSPost2010PropOp52
 70
     0
102
RTVSPost2010Prop53
 90
        2
102
RTVSPost2010PropOp53
 70
     1
102
RTVSPost2010Prop54
  1
strokes_ogs.tif
102
RTVSPost2010PropOp54
 70
     1
102
RTVSPost2010Prop55
280
     0
102
RTVSPost2010PropOp55
 70
     1
102
RTVSPost2010Prop56
140
1.0
102
RTVSPost2010PropOp56
 70
     1
102
RTVSPost2010Prop57
140
1.0
102
RTVSPost2010PropOp57
 70
     1
  0
ENDSEC
  0
EOF
