  0
SECTION
  2
HEADER
  9
$ACADVER
  1
AC1006
  0
ENDSEC
  0
SECTION
  2
TABLES
  0
TABLE
  2
LTYPE
 70
    25
  0
LTYPE
  2
CONTINUOUS
 70
    64
  3
Solid line
 72
    64
 73
     0
 40
0.000000
  0
LTYPE
  2
DASHDOT
 70
    64
  3
__ . __ . __ . __ . __ . __ . __ . __ . __ . __
 72
    65
 73
     4
 40
1.000000
 49
0.500000
 49
-0.250000
 49
0.000000
 49
-0.250000
  0
LTYPE
  2
DASHED
 70
    64
  3
__ __ __ __ __ __ __ __ __ __ __ __ __ __ __ __
 72
    65
 73
     2
 40
0.750000
 49
0.500000
 49
-0.250000
  0
LTYPE
  2
DIVIDE
 70
    64
  3
____ . . ____ . . ____ . . ____ . . ____ . . __
 72
    65
 73
     6
 40
1.250000
 49
0.500000
 49
-0.250000
 49
0.000000
 49
-0.250000
 49
0.000000
 49
-0.250000
  0
LTYPE
  2
DOT
 70
    64
  3
. . . . . . . . . . . . . . . . . . . . . . . . 
 72
    65
 73
     2
 40
0.250000
 49
0.000000
 49
-0.250000
  0
ENDTAB
  0
ENDSEC
  0
SECTION
  2
ENTITIES
  0
ARC
  8
Default
 62
     7
  6
CONTINUOUS
 10
0.520787
 20
0.113842
 30
0.000000
 40
0.058655
 50
254.604567
 51
361.046889
  0
LINE
  8
Default
 62
     7
  6
CONTINUOUS
 10
0.579432
 20
0.114913
 30
0.000000
 11
0.567716
 21
0.142208
 31
0.000000
  0
LINE
  8
Default
 62
     7
  6
CONTINUOUS
 10
0.567716
 20
0.142208
 30
0.000000
 11
0.556528
 21
0.164214
 31
0.000000
  0
ARC
  8
Default
 62
     7
  6
CONTINUOUS
 10
0.547872
 20
0.173635
 30
0.000000
 40
0.012793
 50
312.578431
 51
457.610415
  0
ARC
  8
Default
 62
     7
  6
CONTINUOUS
 10
0.553924
 20
0.194016
 30
0.000000
 40
0.010923
 50
69.405537
 51
224.827891
  0
ARC
  8
Default
 62
     7
  6
CONTINUOUS
 10
0.582183
 20
0.201936
 30
0.000000
 40
0.024525
 50
313.183054
 51
534.608078
  0
ARC
  8
Default
 62
     7
  6
CONTINUOUS
 10
0.702011
 20
0.177345
 30
0.000000
 40
0.103263
 50
176.275642
 51
233.597731
  0
LINE
  8
Default
 62
     7
  6
CONTINUOUS
 10
0.640730
 20
0.094232
 30
0.000000
 11
0.672649
 21
0.078125
 31
0.000000
  0
LINE
  8
Default
 62
     7
  6
CONTINUOUS
 10
0.672649
 20
0.078125
 30
0.000000
 11
0.703134
 21
0.102544
 31
0.000000
  0
LINE
  8
Default
 62
     7
  6
CONTINUOUS
 10
0.703134
 20
0.102544
 30
0.000000
 11
0.672637
 21
0.190599
 31
0.000000
  0
ARC
  8
Default
 62
     7
  6
CONTINUOUS
 10
0.674284
 20
0.203345
 30
0.000000
 40
0.012852
 50
98.695038
 51
262.636889
  0
LINE
  8
Default
 62
     7
  6
CONTINUOUS
 10
0.672341
 20
0.216049
 30
0.000000
 11
0.711854
 21
0.234375
 31
0.000000
  0
ARC
  8
Default
 62
     7
  6
CONTINUOUS
 10
0.752616
 20
0.169565
 30
0.000000
 40
0.076563
 50
43.893514
 51
122.167434
  0
LINE
  8
Default
 62
     7
  6
CONTINUOUS
 10
0.807790
 20
0.222647
 30
0.000000
 11
0.890535
 21
0.171969
 31
0.000000
  0
ARC
  8
Default
 62
     7
  6
CONTINUOUS
 10
0.906113
 20
0.172985
 30
0.000000
 40
0.015610
 50
183.730441
 51
315.825739
  0
LINE
  8
Default
 62
     7
  6
CONTINUOUS
 10
0.917309
 20
0.162107
 30
0.000000
 11
0.945324
 21
0.150830
 31
0.000000
  0
LINE
  8
Default
 62
     7
  6
CONTINUOUS
 10
0.945324
 20
0.150830
 30
0.000000
 11
0.974416
 21
0.162423
 31
0.000000
  0
LINE
  8
Default
 62
     7
  6
CONTINUOUS
 10
0.974416
 20
0.162423
 30
0.000000
 11
0.983627
 21
0.189533
 31
0.000000
  0
ARC
  8
Default
 62
     7
  6
CONTINUOUS
 10
0.898034
 20
0.241958
 30
0.000000
 40
0.100371
 50
328.512768
 51
362.041935
  0
LINE
  8
Default
 62
     7
  6
CONTINUOUS
 10
0.998342
 20
0.245534
 30
0.000000
 11
1.059910
 21
0.244792
 31
0.000000
  0
LINE
  8
Default
 62
     7
  6
CONTINUOUS
 10
1.059910
 20
0.244792
 30
0.000000
 11
1.191856
 21
0.234344
 31
0.000000
  0
LINE
  8
Default
 62
     7
  6
CONTINUOUS
 10
1.191856
 20
0.234344
 30
0.000000
 11
1.452691
 21
0.245129
 31
0.000000
  0
ARC
  8
Default
 62
     7
  6
CONTINUOUS
 10
1.533909
 20
0.237354
 30
0.000000
 40
0.081589
 50
174.531362
 51
317.500347
  0
ARC
  8
Default
 62
     7
  6
CONTINUOUS
 10
1.718378
 20
0.081429
 30
0.000000
 40
0.160049
 50
73.830510
 51
140.961955
  0
ARC
  8
Default
 62
     7
  6
CONTINUOUS
 10
1.753400
 20
0.195385
 30
0.000000
 40
0.040892
 50
286.600636
 51
436.497240
  0
ARC
  8
Default
 62
     7
  6
CONTINUOUS
 10
1.791325
 20
0.121091
 30
0.000000
 40
0.043830
 50
126.777238
 51
273.738821
  0
ARC
  8
Default
 62
     7
  6
CONTINUOUS
 10
1.689488
 20
0.203781
 30
0.000000
 40
0.164149
 50
309.628072
 51
367.326479
  0
ARC
  8
Default
 62
     7
  6
CONTINUOUS
 10
1.858936
 20
0.174711
 30
0.000000
 40
0.050441
 50
8.131634
 51
97.562704
  0
LINE
  8
Default
 62
     7
  6
CONTINUOUS
 10
1.908870
 20
0.181846
 30
0.000000
 11
1.881503
 21
0.098475
 31
0.000000
  0
ARC
  8
Default
 62
     7
  6
CONTINUOUS
 10
1.929759
 20
0.101217
 30
0.000000
 40
0.048333
 50
183.252053
 51
292.782326
  0
ARC
  8
Default
 62
     7
  6
CONTINUOUS
 10
1.883923
 20
0.134684
 30
0.000000
 40
0.101270
 50
309.600183
 51
367.166778
  0
LINE
  8
Default
 62
     7
  6
CONTINUOUS
 10
1.984402
 20
0.147318
 30
0.000000
 11
1.969902
 21
0.192928
 31
0.000000
  0
ARC
  8
Default
 62
     7
  6
CONTINUOUS
 10
1.975671
 20
0.205787
 30
0.000000
 40
0.014094
 50
33.384725
 51
245.835034
  0
LINE
  8
Default
 62
     7
  6
CONTINUOUS
 10
1.987439
 20
0.213542
 30
0.000000
 11
2.112123
 21
0.203125
 31
0.000000
  0
LINE
  8
Default
 62
     7
  6
CONTINUOUS
 10
2.112123
 20
0.203125
 30
0.000000
 11
2.173076
 21
0.179104
 31
0.000000
  0
LINE
  8
Default
 62
     7
  6
CONTINUOUS
 10
2.173076
 20
0.179104
 30
0.000000
 11
2.122718
 21
0.151042
 31
0.000000
  0
ARC
  8
Default
 62
     7
  6
CONTINUOUS
 10
2.104056
 20
0.115349
 30
0.000000
 40
0.040277
 50
62.397276
 51
154.927216
  0
ARC
  8
Default
 62
     7
  6
CONTINUOUS
 10
2.080209
 20
0.129740
 30
0.000000
 40
0.012915
 50
168.036342
 51
309.622844
  0
LINE
  8
Default
 62
     7
  6
CONTINUOUS
 10
2.088446
 20
0.119792
 30
0.000000
 11
2.109902
 21
0.111238
 31
0.000000
  0
ARC
  8
Default
 62
     7
  6
CONTINUOUS
 10
2.107705
 20
0.187520
 30
0.000000
 40
0.076314
 50
271.649896
 51
345.464920
  0
ARC
  8
Default
 62
     7
  6
CONTINUOUS
 10
2.237760
 20
0.392448
 30
0.000000
 40
0.231016
 50
255.924494
 51
287.591065
  0
LINE
  8
Default
 62
     7
  6
CONTINUOUS
 10
2.307578
 20
0.172234
 30
0.000000
 11
2.378143
 21
0.254719
 31
0.000000
  0
LINE
  8
Default
 62
     7
  6
CONTINUOUS
 10
2.378143
 20
0.254719
 30
0.000000
 11
2.358979
 21
0.318032
 31
0.000000
  0
LINE
  8
Default
 62
     7
  6
CONTINUOUS
 10
2.358979
 20
0.318032
 30
0.000000
 11
2.280187
 21
0.306869
 31
0.000000
  0
LINE
  8
Default
 62
     7
  6
CONTINUOUS
 10
2.280187
 20
0.306869
 30
0.000000
 11
2.223238
 21
0.263545
 31
0.000000
  0
ARC
  8
Default
 62
     7
  6
CONTINUOUS
 10
2.196653
 20
0.257503
 30
0.000000
 40
0.027262
 50
238.572347
 51
372.805118
  0
LINE
  8
Default
 62
     7
  6
CONTINUOUS
 10
2.182438
 20
0.234240
 30
0.000000
 11
2.046548
 21
0.255208
 31
0.000000
  0
LINE
  8
Default
 62
     7
  6
CONTINUOUS
 10
2.046548
 20
0.255208
 30
0.000000
 11
1.932098
 21
0.228043
 31
0.000000
  0
ARC
  8
Default
 62
     7
  6
CONTINUOUS
 10
1.930814
 20
0.238395
 30
0.000000
 40
0.010431
 50
80.292665
 51
277.070471
  0
LINE
  8
Default
 62
     7
  6
CONTINUOUS
 10
1.932573
 20
0.248677
 30
0.000000
 11
1.963424
 21
0.265626
 31
0.000000
  0
LINE
  8
Default
 62
     7
  6
CONTINUOUS
 10
1.963424
 20
0.265626
 30
0.000000
 11
2.005826
 21
0.312356
 31
0.000000
  0
ARC
  8
Default
 62
     7
  6
CONTINUOUS
 10
1.977885
 20
0.328045
 30
0.000000
 40
0.032045
 50
330.685989
 51
466.115500
  0
LINE
  8
Default
 62
     7
  6
CONTINUOUS
 10
1.968990
 20
0.358830
 30
0.000000
 11
1.891086
 21
0.369792
 31
0.000000
  0
LINE
  8
Default
 62
     7
  6
CONTINUOUS
 10
1.891086
 20
0.369792
 30
0.000000
 11
1.817256
 21
0.357089
 31
0.000000
  0
ARC
  8
Default
 62
     7
  6
CONTINUOUS
 10
1.791993
 20
0.392272
 30
0.000000
 40
0.043314
 50
229.633910
 51
305.680661
  0
ARC
  8
Default
 62
     7
  6
CONTINUOUS
 10
1.661783
 20
0.163142
 30
0.000000
 40
0.221138
 50
62.486604
 51
135.834142
  0
ARC
  8
Default
 62
     7
  6
CONTINUOUS
 10
1.423274
 20
0.379402
 30
0.000000
 40
0.101232
 50
246.653172
 51
322.100934
  0
LINE
  8
Default
 62
     7
  6
CONTINUOUS
 10
1.383156
 20
0.286458
 30
0.000000
 11
1.212560
 21
0.286458
 31
0.000000
  0
LINE
  8
Default
 62
     7
  6
CONTINUOUS
 10
1.212560
 20
0.286458
 30
0.000000
 11
1.075780
 21
0.286458
 31
0.000000
  0
LINE
  8
Default
 62
     7
  6
CONTINUOUS
 10
1.075780
 20
0.286458
 30
0.000000
 11
0.993627
 21
0.286458
 31
0.000000
  0
ARC
  8
Default
 62
     7
  6
CONTINUOUS
 10
0.984028
 20
0.294735
 30
0.000000
 40
0.012675
 50
137.530568
 51
319.231882
  0
LINE
  8
Default
 62
     7
  6
CONTINUOUS
 10
0.974679
 20
0.303293
 30
0.000000
 11
0.952701
 21
0.320398
 31
0.000000
  0
ARC
  8
Default
 62
     7
  6
CONTINUOUS
 10
0.795067
 20
0.174188
 30
0.000000
 40
0.215002
 50
42.846822
 51
105.963802
  0
ARC
  8
Default
 62
     7
  6
CONTINUOUS
 10
0.635211
 20
0.556760
 30
0.000000
 40
0.202664
 50
283.609783
 51
299.801697
  0
ARC
  8
Default
 62
     7
  6
CONTINUOUS
 10
0.661388
 20
0.375736
 30
0.000000
 40
0.026779
 50
216.303217
 51
323.444466
  0
LINE
  8
Default
 62
     7
  6
CONTINUOUS
 10
0.639808
 20
0.359882
 30
0.000000
 11
0.503178
 21
0.369792
 31
0.000000
  0
ARC
  8
Default
 62
     7
  6
CONTINUOUS
 10
0.495446
 20
0.321002
 30
0.000000
 40
0.049398
 50
80.995449
 51
243.741904
  0
LINE
  8
Default
 62
     7
  6
CONTINUOUS
 10
0.473592
 20
0.276701
 30
0.000000
 11
0.527109
 21
0.236881
 31
0.000000
  0
ARC
  8
Default
 62
     7
  6
CONTINUOUS
 10
0.507914
 20
0.253553
 30
0.000000
 40
0.025425
 50
199.343762
 51
319.024157
  0
LINE
  8
Default
 62
     7
  6
CONTINUOUS
 10
0.483924
 20
0.245132
 30
0.000000
 11
0.420739
 21
0.255208
 31
0.000000
  0
LINE
  8
Default
 62
     7
  6
CONTINUOUS
 10
0.420739
 20
0.255208
 30
0.000000
 11
0.382867
 21
0.255980
 31
0.000000
  0
ARC
  8
Default
 62
     7
  6
CONTINUOUS
 10
0.365322
 20
0.258550
 30
0.000000
 40
0.017732
 50
230.883966
 51
351.667411
  0
LINE
  8
Default
 62
     7
  6
CONTINUOUS
 10
0.354135
 20
0.244792
 30
0.000000
 11
0.281215
 21
0.234375
 31
0.000000
  0
LINE
  8
Default
 62
     7
  6
CONTINUOUS
 10
0.281215
 20
0.234375
 30
0.000000
 11
0.255672
 21
0.223949
 31
0.000000
  0
ARC
  8
Default
 62
     7
  6
CONTINUOUS
 10
0.253290
 20
0.236378
 30
0.000000
 40
0.012655
 50
136.098640
 51
280.846206
  0
ARC
  8
Default
 62
     7
  6
CONTINUOUS
 10
0.129607
 20
0.193208
 30
0.000000
 40
0.125791
 50
24.389945
 51
81.784006
  0
ARC
  8
Default
 62
     7
  6
CONTINUOUS
 10
0.126674
 20
0.274468
 30
0.000000
 40
0.048031
 50
64.193724
 51
217.467864
  0
LINE
  8
Default
 62
     7
  6
CONTINUOUS
 10
0.088552
 20
0.245250
 30
0.000000
 11
0.153055
 21
0.171130
 31
0.000000
  0
LINE
  8
Default
 62
     7
  6
CONTINUOUS
 10
0.153055
 20
0.171130
 30
0.000000
 11
0.228380
 21
0.161458
 31
0.000000
  0
LINE
  8
Default
 62
     7
  6
CONTINUOUS
 10
0.228380
 20
0.161458
 30
0.000000
 11
0.259282
 21
0.173137
 31
0.000000
  0
LINE
  8
Default
 62
     7
  6
CONTINUOUS
 10
0.259282
 20
0.173137
 30
0.000000
 11
0.279339
 21
0.150687
 31
0.000000
  0
ARC
  8
Default
 62
     7
  6
CONTINUOUS
 10
0.359218
 20
0.210585
 30
0.000000
 40
0.099843
 50
216.864606
 51
276.367683
  0
LINE
  8
Default
 62
     7
  6
CONTINUOUS
 10
0.370292
 20
0.111358
 30
0.000000
 11
0.391400
 21
0.122276
 31
0.000000
  0
LINE
  8
Default
 62
     7
  6
CONTINUOUS
 10
0.391400
 20
0.122276
 30
0.000000
 11
0.380251
 21
0.140589
 31
0.000000
  0
LINE
  8
Default
 62
     7
  6
CONTINUOUS
 10
0.380251
 20
0.140589
 30
0.000000
 11
0.365899
 21
0.162707
 31
0.000000
  0
LINE
  8
Default
 62
     7
  6
CONTINUOUS
 10
0.365899
 20
0.162707
 30
0.000000
 11
0.343877
 21
0.151042
 31
0.000000
  0
ARC
  8
Default
 62
     7
  6
CONTINUOUS
 10
0.326898
 20
0.181162
 30
0.000000
 40
0.034576
 50
208.495708
 51
299.409058
  0
LINE
  8
Default
 62
     7
  6
CONTINUOUS
 10
0.296511
 20
0.164666
 30
0.000000
 11
0.285562
 21
0.173689
 31
0.000000
  0
LINE
  8
Default
 62
     7
  6
CONTINUOUS
 10
0.285562
 20
0.173689
 30
0.000000
 11
0.296587
 21
0.182073
 31
0.000000
  0
ARC
  8
Default
 62
     7
  6
CONTINUOUS
 10
0.309472
 20
0.183694
 30
0.000000
 40
0.012986
 50
43.639765
 51
187.170857
  0
ARC
  8
Default
 62
     7
  6
CONTINUOUS
 10
0.399065
 20
0.086027
 30
0.000000
 40
0.133420
 50
72.889520
 51
126.946469
  0
LINE
  8
Default
 62
     7
  6
CONTINUOUS
 10
0.438319
 20
0.213542
 30
0.000000
 11
0.495539
 21
0.209974
 31
0.000000
  0
LINE
  8
Default
 62
     7
  6
CONTINUOUS
 10
0.495539
 20
0.209974
 30
0.000000
 11
0.473965
 21
0.157578
 31
0.000000
  0
ARC
  8
Default
 62
     7
  6
CONTINUOUS
 10
0.562712
 20
0.130220
 30
0.000000
 40
0.092868
 50
162.867303
 51
231.748019
  0
ARC
  8
Default
 62
     7
  6
CONTINUOUS
 10
0.624444
 20
0.111099
 30
0.000000
 40
0.121344
 50
143.922334
 51
190.713373
  0
ARC
  8
Default
 62
     7
  6
CONTINUOUS
 10
0.497384
 20
0.139692
 30
0.000000
 40
0.051746
 50
278.704459
 51
415.931248
  0
ARC
  8
Default
 62
     7
  6
CONTINUOUS
 10
1.971218
 20
0.144000
 30
0.000000
 40
0.062346
 50
141.799335
 51
242.815234
  0
LINE
  8
Default
 62
     7
  6
CONTINUOUS
 10
1.922223
 20
0.182556
 30
0.000000
 11
1.952455
 21
0.134327
 31
0.000000
  0
ARC
  8
Default
 62
     7
  6
CONTINUOUS
 10
1.942791
 20
0.112454
 30
0.000000
 40
0.023913
 50
269.864495
 51
426.162888
  0
ARC
  8
Default
 62
     7
  6
CONTINUOUS
 10
0.702095
 20
0.154333
 30
0.000000
 40
0.061633
 50
151.783170
 51
214.085499
  0
ARC
  8
Default
 62
     7
  6
CONTINUOUS
 10
0.613148
 20
0.149773
 30
0.000000
 40
0.048327
 50
321.655458
 51
404.213211
  0
ARC
  8
Default
 62
     7
  6
CONTINUOUS
 10
1.796392
 20
0.140408
 30
0.000000
 40
0.010212
 50
92.076941
 51
272.846489
  0
LINE
  8
Default
 62
     7
  6
CONTINUOUS
 10
1.796022
 20
0.150614
 30
0.000000
 11
1.804052
 21
0.183473
 31
0.000000
  0
ARC
  8
Default
 62
     7
  6
CONTINUOUS
 10
1.791773
 20
0.158009
 30
0.000000
 40
0.028270
 50
280.447543
 51
424.256238
  0
LINE
  8
Default
 62
     7
  6
CONTINUOUS
 10
0.182294
 20
0.203125
 30
0.000000
 11
0.130207
 21
0.234137
 31
0.000000
  0
ARC
  8
Default
 62
     7
  6
CONTINUOUS
 10
0.153109
 20
0.244021
 30
0.000000
 40
0.024943
 50
71.629691
 51
203.344946
  0
ARC
  8
Default
 62
     7
  6
CONTINUOUS
 10
0.171823
 20
0.215986
 30
0.000000
 40
0.052833
 50
13.190448
 51
101.854414
  0
ARC
  8
Default
 62
     7
  6
CONTINUOUS
 10
0.223258
 20
0.216578
 30
0.000000
 40
0.011464
 50
195.358052
 51
449.980076
  0
LINE
  8
Default
 62
     7
  6
CONTINUOUS
 10
0.212203
 20
0.213542
 30
0.000000
 11
0.182294
 21
0.203125
 31
0.000000
  0
LINE
  8
Default
 62
     7
  6
CONTINUOUS
 10
0.880220
 20
0.203125
 30
0.000000
 11
0.828375
 21
0.234378
 31
0.000000
  0
LINE
  8
Default
 62
     7
  6
CONTINUOUS
 10
0.828375
 20
0.234378
 30
0.000000
 11
0.818178
 21
0.245132
 31
0.000000
  0
LINE
  8
Default
 62
     7
  6
CONTINUOUS
 10
0.818178
 20
0.245132
 30
0.000000
 11
0.839657
 21
0.244792
 31
0.000000
  0
LINE
  8
Default
 62
     7
  6
CONTINUOUS
 10
0.839657
 20
0.244792
 30
0.000000
 11
0.877662
 21
0.244792
 31
0.000000
  0
LINE
  8
Default
 62
     7
  6
CONTINUOUS
 10
0.877662
 20
0.244792
 30
0.000000
 11
0.933649
 21
0.244792
 31
0.000000
  0
ARC
  8
Default
 62
     7
  6
CONTINUOUS
 10
0.941558
 20
0.235848
 30
0.000000
 40
0.011939
 50
275.628824
 51
491.485905
  0
ARC
  8
Default
 62
     7
  6
CONTINUOUS
 10
0.897467
 20
0.255560
 30
0.000000
 40
0.055198
 50
251.793324
 51
325.084540
  0
CIRCLE
  8
Default
 62
     7
  6
CONTINUOUS
 10
1.561761
 20
0.223958
 30
0.000000
 40
0.041333
  0
ARC
  8
Default
 62
     7
  6
CONTINUOUS
 10
2.265207
 20
0.233716
 30
0.000000
 40
0.032463
 50
73.840389
 51
289.554427
  0
ARC
  8
Default
 62
     7
  6
CONTINUOUS
 10
2.294268
 20
0.234577
 30
0.000000
 40
0.036336
 50
239.949986
 51
483.444830
  0
LINE
  8
Default
 62
     7
  6
CONTINUOUS
 10
0.619800
 20
0.244792
 30
0.000000
 11
0.682859
 21
0.296875
 31
0.000000
  0
LINE
  8
Default
 62
     7
  6
CONTINUOUS
 10
0.682859
 20
0.296875
 30
0.000000
 11
0.703491
 21
0.296408
 31
0.000000
  0
LINE
  8
Default
 62
     7
  6
CONTINUOUS
 10
0.703491
 20
0.296408
 30
0.000000
 11
0.692435
 21
0.286462
 31
0.000000
  0
LINE
  8
Default
 62
     7
  6
CONTINUOUS
 10
0.692435
 20
0.286462
 30
0.000000
 11
0.666282
 21
0.276042
 31
0.000000
  0
LINE
  8
Default
 62
     7
  6
CONTINUOUS
 10
0.666282
 20
0.276042
 30
0.000000
 11
0.619800
 21
0.244792
 31
0.000000
  0
LINE
  8
Default
 62
     7
  6
CONTINUOUS
 10
1.838566
 20
0.244792
 30
0.000000
 11
1.755540
 21
0.297125
 31
0.000000
  0
LINE
  8
Default
 62
     7
  6
CONTINUOUS
 10
1.755540
 20
0.297125
 30
0.000000
 11
1.813015
 21
0.276139
 31
0.000000
  0
LINE
  8
Default
 62
     7
  6
CONTINUOUS
 10
1.813015
 20
0.276139
 30
0.000000
 11
1.838091
 21
0.256391
 31
0.000000
  0
ARC
  8
Default
 62
     7
  6
CONTINUOUS
 10
1.843582
 20
0.250807
 30
0.000000
 40
0.007832
 50
230.176749
 51
494.514873
  0
LINE
  8
Default
 62
     7
  6
CONTINUOUS
 10
0.546882
 20
0.276042
 30
0.000000
 11
0.487609
 21
0.307657
 31
0.000000
  0
LINE
  8
Default
 62
     7
  6
CONTINUOUS
 10
0.487609
 20
0.307657
 30
0.000000
 11
0.551623
 21
0.338542
 31
0.000000
  0
LINE
  8
Default
 62
     7
  6
CONTINUOUS
 10
0.551623
 20
0.338542
 30
0.000000
 11
0.600079
 21
0.327528
 31
0.000000
  0
LINE
  8
Default
 62
     7
  6
CONTINUOUS
 10
0.600079
 20
0.327528
 30
0.000000
 11
0.631242
 21
0.325790
 31
0.000000
  0
LINE
  8
Default
 62
     7
  6
CONTINUOUS
 10
0.631242
 20
0.325790
 30
0.000000
 11
0.620124
 21
0.307809
 31
0.000000
  0
LINE
  8
Default
 62
     7
  6
CONTINUOUS
 10
0.620124
 20
0.307809
 30
0.000000
 11
0.546882
 21
0.276042
 31
0.000000
  0
LINE
  8
Default
 62
     7
  6
CONTINUOUS
 10
1.890650
 20
0.276042
 30
0.000000
 11
1.835339
 21
0.318073
 31
0.000000
  0
ARC
  8
Default
 62
     7
  6
CONTINUOUS
 10
1.848497
 20
0.321907
 30
0.000000
 40
0.013705
 50
33.747954
 51
196.242510
  0
LINE
  8
Default
 62
     7
  6
CONTINUOUS
 10
1.859893
 20
0.329521
 30
0.000000
 11
1.895391
 21
0.338542
 31
0.000000
  0
ARC
  8
Default
 62
     7
  6
CONTINUOUS
 10
1.905521
 20
0.253160
 30
0.000000
 40
0.085981
 50
35.838096
 51
96.766150
  0
LINE
  8
Default
 62
     7
  6
CONTINUOUS
 10
1.975224
 20
0.303501
 30
0.000000
 11
1.890650
 21
0.276042
 31
0.000000
  0
LINE
  8
Default
 62
     7
  6
CONTINUOUS
 10
0.786469
 20
0.286458
 30
0.000000
 11
0.737056
 21
0.296103
 31
0.000000
  0
ARC
  8
Default
 62
     7
  6
CONTINUOUS
 10
0.739623
 20
0.312576
 30
0.000000
 40
0.016671
 50
68.862774
 51
261.140314
  0
LINE
  8
Default
 62
     7
  6
CONTINUOUS
 10
0.745635
 20
0.328125
 30
0.000000
 11
0.857893
 21
0.338542
 31
0.000000
  0
ARC
  8
Default
 62
     7
  6
CONTINUOUS
 10
0.879654
 20
0.288228
 30
0.000000
 40
0.054818
 50
39.538077
 51
113.388378
  0
ARC
  8
Default
 62
     7
  6
CONTINUOUS
 10
0.923950
 20
0.303876
 30
0.000000
 40
0.019354
 50
295.845185
 51
455.995376
  0
LINE
  8
Default
 62
     7
  6
CONTINUOUS
 10
0.932388
 20
0.286458
 30
0.000000
 11
0.786469
 21
0.286458
 31
0.000000
  0
ARC
  8
Default
 62
     7
  6
CONTINUOUS
 10
1.530303
 20
0.302034
 30
0.000000
 40
0.016143
 50
70.321254
 51
254.770650
  0
LINE
  8
Default
 62
     7
  6
CONTINUOUS
 10
1.535739
 20
0.317235
 30
0.000000
 11
1.583728
 21
0.338542
 31
0.000000
  0
LINE
  8
Default
 62
     7
  6
CONTINUOUS
 10
1.583728
 20
0.338542
 30
0.000000
 11
1.700382
 21
0.327892
 31
0.000000
  0
ARC
  8
Default
 62
     7
  6
CONTINUOUS
 10
1.715145
 20
0.315588
 30
0.000000
 40
0.019217
 50
276.609433
 51
500.190439
  0
LINE
  8
Default
 62
     7
  6
CONTINUOUS
 10
1.717357
 20
0.296499
 30
0.000000
 11
1.690988
 21
0.285578
 31
0.000000
  0
LINE
  8
Default
 62
     7
  6
CONTINUOUS
 10
1.690988
 20
0.285578
 30
0.000000
 11
1.671708
 21
0.292630
 31
0.000000
  0
LINE
  8
Default
 62
     7
  6
CONTINUOUS
 10
1.671708
 20
0.292630
 30
0.000000
 11
1.526062
 21
0.286458
 31
0.000000
  0
ARC
  8
Default
 62
     7
  6
CONTINUOUS
 10
2.032512
 20
0.512020
 30
0.000000
 40
0.115131
 50
299.137234
 51
383.403595
  0
ARC
  8
Default
 62
     7
  6
CONTINUOUS
 10
2.135989
 20
0.564245
 30
0.000000
 40
0.006851
 50
41.544135
 51
288.577517
  0
LINE
  8
Default
 62
     7
  6
CONTINUOUS
 10
2.141116
 20
0.568789
 30
0.000000
 11
2.158782
 21
0.578897
 31
0.000000
  0
LINE
  8
Default
 62
     7
  6
CONTINUOUS
 10
2.158782
 20
0.578897
 30
0.000000
 11
2.193219
 21
0.565483
 31
0.000000
  0
LINE
  8
Default
 62
     7
  6
CONTINUOUS
 10
2.193219
 20
0.565483
 30
0.000000
 11
2.284960
 21
0.546875
 31
0.000000
  0
LINE
  8
Default
 62
     7
  6
CONTINUOUS
 10
2.284960
 20
0.546875
 30
0.000000
 11
2.357639
 21
0.566988
 31
0.000000
  0
LINE
  8
Default
 62
     7
  6
CONTINUOUS
 10
2.357639
 20
0.566988
 30
0.000000
 11
2.380735
 21
0.589972
 31
0.000000
  0
ARC
  8
Default
 62
     7
  6
CONTINUOUS
 10
2.378107
 20
0.602884
 30
0.000000
 40
0.013177
 50
281.502466
 51
441.825811
  0
ARC
  8
Default
 62
     7
  6
CONTINUOUS
 10
2.305746
 20
0.769749
 30
0.000000
 40
0.170798
 50
241.817259
 51
295.762270
  0
ARC
  8
Default
 62
     7
  6
CONTINUOUS
 10
2.186547
 20
0.665948
 30
0.000000
 40
0.060583
 50
309.498084
 51
397.945254
  0
LINE
  8
Default
 62
     7
  6
CONTINUOUS
 10
2.234322
 20
0.703201
 30
0.000000
 11
2.140283
 21
0.744792
 31
0.000000
  0
LINE
  8
Default
 62
     7
  6
CONTINUOUS
 10
2.140283
 20
0.744792
 30
0.000000
 11
2.098600
 21
0.723252
 31
0.000000
  0
ARC
  8
Default
 62
     7
  6
CONTINUOUS
 10
2.083119
 20
0.718154
 30
0.000000
 40
0.016298
 50
194.234648
 51
378.224199
  0
ARC
  8
Default
 62
     7
  6
CONTINUOUS
 10
2.037629
 20
0.729307
 30
0.000000
 40
0.033339
 50
332.952570
 51
432.667703
  0
LINE
  8
Default
 62
     7
  6
CONTINUOUS
 10
1.996778
 20
0.776980
 30
0.000000
 11
2.047561
 21
0.761132
 31
0.000000
  0
ARC
  8
Default
 62
     7
  6
CONTINUOUS
 10
2.011785
 20
0.674753
 30
0.000000
 40
0.103323
 50
98.351378
 51
181.374637
  0
ARC
  8
Default
 62
     7
  6
CONTINUOUS
 10
2.000857
 20
0.736553
 30
0.000000
 40
0.112531
 50
214.834894
 51
250.417463
  0
ARC
  8
Default
 62
     7
  6
CONTINUOUS
 10
1.958495
 20
0.614861
 30
0.000000
 40
0.016344
 50
260.475500
 51
433.485527
  0
ARC
  8
Default
 62
     7
  6
CONTINUOUS
 10
1.949395
 20
0.606210
 30
0.000000
 40
0.009832
 50
128.995859
 51
310.574897
  0
LINE
  8
Default
 62
     7
  6
CONTINUOUS
 10
1.943208
 20
0.613852
 30
0.000000
 11
1.932413
 21
0.630101
 31
0.000000
  0
ARC
  8
Default
 62
     7
  6
CONTINUOUS
 10
1.776329
 20
0.411648
 30
0.000000
 40
0.268485
 50
54.454228
 51
104.247123
  0
LINE
  8
Default
 62
     7
  6
CONTINUOUS
 10
1.710253
 20
0.671875
 30
0.000000
 11
1.498154
 21
0.661458
 31
0.000000
  0
LINE
  8
Default
 62
     7
  6
CONTINUOUS
 10
1.498154
 20
0.661458
 30
0.000000
 11
1.113833
 21
0.661458
 31
0.000000
  0
LINE
  8
Default
 62
     7
  6
CONTINUOUS
 10
1.113833
 20
0.661458
 30
0.000000
 11
0.738667
 21
0.671875
 31
0.000000
  0
ARC
  8
Default
 62
     7
  6
CONTINUOUS
 10
0.685370
 20
0.337958
 30
0.000000
 40
0.338144
 50
80.931509
 51
112.199068
  0
LINE
  8
Default
 62
     7
  6
CONTINUOUS
 10
0.557611
 20
0.651037
 30
0.000000
 11
0.488241
 21
0.597713
 31
0.000000
  0
LINE
  8
Default
 62
     7
  6
CONTINUOUS
 10
0.488241
 20
0.597713
 30
0.000000
 11
0.472673
 21
0.613991
 31
0.000000
  0
LINE
  8
Default
 62
     7
  6
CONTINUOUS
 10
0.472673
 20
0.613991
 30
0.000000
 11
0.485764
 21
0.630700
 31
0.000000
  0
LINE
  8
Default
 62
     7
  6
CONTINUOUS
 10
0.485764
 20
0.630700
 30
0.000000
 11
0.515149
 21
0.648839
 31
0.000000
  0
ARC
  8
Default
 62
     7
  6
CONTINUOUS
 10
0.475300
 20
0.700354
 30
0.000000
 40
0.065129
 50
307.723470
 51
457.972997
  0
ARC
  8
Default
 62
     7
  6
CONTINUOUS
 10
0.449135
 20
0.757449
 30
0.000000
 40
0.018663
 50
23.376499
 51
153.381617
  0
ARC
  8
Default
 62
     7
  6
CONTINUOUS
 10
0.417056
 20
0.738620
 30
0.000000
 40
0.031245
 50
60.482127
 51
168.963679
  0
LINE
  8
Default
 62
     7
  6
CONTINUOUS
 10
0.386388
 20
0.744602
 30
0.000000
 11
0.368860
 21
0.692111
 31
0.000000
  0
LINE
  8
Default
 62
     7
  6
CONTINUOUS
 10
0.368860
 20
0.692111
 30
0.000000
 11
0.333638
 21
0.734435
 31
0.000000
  0
ARC
  8
Default
 62
     7
  6
CONTINUOUS
 10
0.296208
 20
0.651375
 30
0.000000
 40
0.091105
 50
65.741624
 51
137.034663
  0
ARC
  8
Default
 62
     7
  6
CONTINUOUS
 10
0.251884
 20
0.669437
 30
0.000000
 40
0.049375
 50
116.905017
 51
236.936415
  0
LINE
  8
Default
 62
     7
  6
CONTINUOUS
 10
0.224946
 20
0.628058
 30
0.000000
 11
0.124817
 21
0.598958
 31
0.000000
  0
LINE
  8
Default
 62
     7
  6
CONTINUOUS
 10
0.124817
 20
0.598958
 30
0.000000
 11
0.077775
 21
0.609369
 31
0.000000
  0
ARC
  8
Default
 62
     7
  6
CONTINUOUS
 10
0.062291
 20
0.604157
 30
0.000000
 40
0.016338
 50
18.604074
 51
187.878826
  0
ARC
  8
Default
 62
     7
  6
CONTINUOUS
 10
0.179198
 20
0.752671
 30
0.000000
 40
0.201096
 50
228.560864
 51
293.584116
  0
ARC
  8
Default
 62
     7
  6
CONTINUOUS
 10
0.286847
 20
0.535383
 30
0.000000
 40
0.042751
 50
49.853467
 51
129.498032
  0
LINE
  8
Default
 62
     7
  6
CONTINUOUS
 10
0.314410
 20
0.568062
 30
0.000000
 11
0.297533
 21
0.520154
 31
0.000000
  0
ARC
  8
Default
 62
     7
  6
CONTINUOUS
 10
0.364677
 20
0.500477
 30
0.000000
 40
0.069968
 50
163.666555
 51
238.973417
  0
ARC
  8
Default
 62
     7
  6
CONTINUOUS
 10
0.375973
 20
0.483981
 30
0.000000
 40
0.064279
 50
222.542054
 51
332.141345
  0
ARC
  8
Default
 62
     7
  6
CONTINUOUS
 10
0.376999
 20
0.469624
 30
0.000000
 40
0.057963
 50
344.305402
 51
411.728525
  0
LINE
  8
Default
 62
     7
  6
CONTINUOUS
 10
0.412901
 20
0.515130
 30
0.000000
 11
0.384766
 21
0.557422
 31
0.000000
  0
LINE
  8
Default
 62
     7
  6
CONTINUOUS
 10
0.384766
 20
0.557422
 30
0.000000
 11
0.432605
 21
0.589017
 31
0.000000
  0
LINE
  8
Default
 62
     7
  6
CONTINUOUS
 10
0.432605
 20
0.589017
 30
0.000000
 11
0.463747
 21
0.594766
 31
0.000000
  0
LINE
  8
Default
 62
     7
  6
CONTINUOUS
 10
0.463747
 20
0.594766
 30
0.000000
 11
0.493222
 21
0.578819
 31
0.000000
  0
LINE
  8
Default
 62
     7
  6
CONTINUOUS
 10
0.493222
 20
0.578819
 30
0.000000
 11
0.514280
 21
0.557782
 31
0.000000
  0
ARC
  8
Default
 62
     7
  6
CONTINUOUS
 10
0.527877
 20
0.560619
 30
0.000000
 40
0.013890
 50
191.785441
 51
346.392596
  0
ARC
  8
Default
 62
     7
  6
CONTINUOUS
 10
0.588898
 20
0.552324
 30
0.000000
 40
0.047785
 50
89.852364
 51
173.961157
  0
ARC
  8
Default
 62
     7
  6
CONTINUOUS
 10
0.654743
 20
0.516190
 30
0.000000
 40
0.106591
 50
76.397345
 51
128.066704
  0
LINE
  8
Default
 62
     7
  6
CONTINUOUS
 10
0.679812
 20
0.619792
 30
0.000000
 11
0.811056
 21
0.619792
 31
0.000000
  0
LINE
  8
Default
 62
     7
  6
CONTINUOUS
 10
0.811056
 20
0.619792
 30
0.000000
 11
1.049563
 21
0.609375
 31
0.000000
  0
LINE
  8
Default
 62
     7
  6
CONTINUOUS
 10
1.049563
 20
0.609375
 30
0.000000
 11
1.559610
 21
0.609375
 31
0.000000
  0
LINE
  8
Default
 62
     7
  6
CONTINUOUS
 10
1.559610
 20
0.609375
 30
0.000000
 11
1.804940
 21
0.619792
 31
0.000000
  0
LINE
  8
Default
 62
     7
  6
CONTINUOUS
 10
1.804940
 20
0.619792
 30
0.000000
 11
1.879827
 21
0.578907
 31
0.000000
  0
LINE
  8
Default
 62
     7
  6
CONTINUOUS
 10
1.879827
 20
0.578907
 30
0.000000
 11
1.912702
 21
0.546251
 31
0.000000
  0
LINE
  8
Default
 62
     7
  6
CONTINUOUS
 10
1.912702
 20
0.546251
 30
0.000000
 11
1.953072
 21
0.573313
 31
0.000000
  0
ARC
  8
Default
 62
     7
  6
CONTINUOUS
 10
1.993674
 20
0.551863
 30
0.000000
 40
0.045920
 50
44.821376
 51
152.152322
  0
LINE
  8
Default
 62
     7
  6
CONTINUOUS
 10
2.026246
 20
0.584232
 30
0.000000
 11
2.058049
 21
0.556020
 31
0.000000
  0
LINE
  8
Default
 62
     7
  6
CONTINUOUS
 10
2.058049
 20
0.556020
 30
0.000000
 11
2.036974
 21
0.517734
 31
0.000000
  0
ARC
  8
Default
 62
     7
  6
CONTINUOUS
 10
2.069195
 20
0.473684
 30
0.000000
 40
0.054576
 50
126.183578
 51
218.477021
  0
LINE
  8
Default
 62
     7
  6
CONTINUOUS
 10
2.026469
 20
0.439727
 30
0.000000
 11
2.088570
 21
0.411458
 31
0.000000
  0
ARC
  8
Default
 62
     7
  6
CONTINUOUS
 10
0.403656
 20
0.474349
 30
0.000000
 40
0.066001
 50
110.586176
 51
189.424434
  0
ARC
  8
Default
 62
     7
  6
CONTINUOUS
 10
0.370311
 20
0.505233
 30
0.000000
 40
0.032524
 50
320.334861
 51
431.837596
  0
ARC
  8
Default
 62
     7
  6
CONTINUOUS
 10
0.352588
 20
0.512974
 30
0.000000
 40
0.051388
 50
254.142690
 51
326.314486
  0
CIRCLE
  8
Default
 62
     7
  6
CONTINUOUS
 10
2.078387
 20
0.495356
 30
0.000000
 40
0.033404
  0
ARC
  8
Default
 62
     7
  6
CONTINUOUS
 10
0.324345
 20
0.595314
 30
0.000000
 40
0.007758
 50
57.237134
 51
299.195194
  0
LINE
  8
Default
 62
     7
  6
CONTINUOUS
 10
0.328543
 20
0.601837
 30
0.000000
 11
0.348942
 21
0.620497
 31
0.000000
  0
LINE
  8
Default
 62
     7
  6
CONTINUOUS
 10
0.348942
 20
0.620497
 30
0.000000
 11
0.379722
 21
0.661469
 31
0.000000
  0
LINE
  8
Default
 62
     7
  6
CONTINUOUS
 10
0.379722
 20
0.661469
 30
0.000000
 11
0.396937
 21
0.640410
 31
0.000000
  0
LINE
  8
Default
 62
     7
  6
CONTINUOUS
 10
0.396937
 20
0.640410
 30
0.000000
 11
0.378404
 21
0.619291
 31
0.000000
  0
LINE
  8
Default
 62
     7
  6
CONTINUOUS
 10
0.378404
 20
0.619291
 30
0.000000
 11
0.328129
 21
0.588542
 31
0.000000
  0
LINE
  8
Default
 62
     7
  6
CONTINUOUS
 10
2.109403
 20
0.588542
 30
0.000000
 11
2.067792
 21
0.625280
 31
0.000000
  0
LINE
  8
Default
 62
     7
  6
CONTINUOUS
 10
2.067792
 20
0.625280
 30
0.000000
 11
2.045639
 21
0.644723
 31
0.000000
  0
ARC
  8
Default
 62
     7
  6
CONTINUOUS
 10
2.044477
 20
0.660673
 30
0.000000
 40
0.015993
 50
274.164097
 51
399.796550
  0
LINE
  8
Default
 62
     7
  6
CONTINUOUS
 10
2.056765
 20
0.670910
 30
0.000000
 11
2.095763
 21
0.620157
 31
0.000000
  0
LINE
  8
Default
 62
     7
  6
CONTINUOUS
 10
2.095763
 20
0.620157
 30
0.000000
 11
2.127141
 21
0.599723
 31
0.000000
  0
LINE
  8
Default
 62
     7
  6
CONTINUOUS
 10
2.127141
 20
0.599723
 30
0.000000
 11
2.109403
 21
0.588542
 31
0.000000
  0
ARC
  8
Default
 62
     7
  6
CONTINUOUS
 10
0.258937
 20
0.651817
 30
0.000000
 40
0.025825
 50
98.419538
 51
236.796287
  0
LINE
  8
Default
 62
     7
  6
CONTINUOUS
 10
0.255156
 20
0.677363
 30
0.000000
 11
0.305682
 21
0.703220
 31
0.000000
  0
LINE
  8
Default
 62
     7
  6
CONTINUOUS
 10
0.305682
 20
0.703220
 30
0.000000
 11
0.328525
 21
0.702592
 31
0.000000
  0
LINE
  8
Default
 62
     7
  6
CONTINUOUS
 10
0.328525
 20
0.702592
 30
0.000000
 11
0.317582
 21
0.688161
 31
0.000000
  0
LINE
  8
Default
 62
     7
  6
CONTINUOUS
 10
0.317582
 20
0.688161
 30
0.000000
 11
0.296358
 21
0.661133
 31
0.000000
  0
LINE
  8
Default
 62
     7
  6
CONTINUOUS
 10
0.296358
 20
0.661133
 30
0.000000
 11
0.244795
 21
0.630208
 31
0.000000
  0
LINE
  8
Default
 62
     7
  6
CONTINUOUS
 10
2.213571
 20
0.630208
 30
0.000000
 11
2.120880
 21
0.692249
 31
0.000000
  0
ARC
  8
Default
 62
     7
  6
CONTINUOUS
 10
2.132610
 20
0.609512
 30
0.000000
 40
0.083565
 50
14.339860
 51
98.069582
  0
ARC
  8
Default
 62
     7
  6
CONTINUOUS
 10
0.462416
 20
0.677073
 30
0.000000
 40
0.048174
 50
76.717443
 51
212.707975
  0
ARC
  8
Default
 62
     7
  6
CONTINUOUS
 10
0.484055
 20
0.713949
 30
0.000000
 40
0.014558
 50
308.936263
 51
496.563292
  0
LINE
  8
Default
 62
     7
  6
CONTINUOUS
 10
0.493205
 20
0.702625
 30
0.000000
 11
0.474172
 21
0.682562
 31
0.000000
  0
ARC
  8
Default
 62
     7
  6
CONTINUOUS
 10
0.470261
 20
0.629915
 30
0.000000
 40
0.052792
 50
85.752327
 51
156.410282
  0
ARC
  8
Default
 62
     7
  6
CONTINUOUS
 10
2.036813
 20
0.763107
 30
0.000000
 40
0.102215
 50
202.685394
 51
263.966468
  0
LINE
  8
Default
 62
     7
  6
CONTINUOUS
 10
1.942505
 20
0.723686
 30
0.000000
 11
2.015164
 21
0.713531
 31
0.000000
  0
ARC
  8
Default
 62
     7
  6
CONTINUOUS
 10
2.007324
 20
0.684711
 30
0.000000
 40
0.029868
 50
308.873863
 51
434.781708
  0
ARC
  8
Default
 62
     7
  6
CONTINUOUS
 10
1.593529
 20
0.962089
 30
0.000000
 40
0.113239
 50
267.486647
 51
330.551756
  0
ARC
  8
Default
 62
     7
  6
CONTINUOUS
 10
1.608441
 20
0.941893
 30
0.000000
 40
0.090905
 50
337.029198
 51
414.464017
  0
ARC
  8
Default
 62
     7
  6
CONTINUOUS
 10
1.706507
 20
0.971177
 30
0.000000
 40
0.063585
 50
21.733659
 51
135.344526
  0
ARC
  8
Default
 62
     7
  6
CONTINUOUS
 10
1.890674
 20
0.883940
 30
0.000000
 40
0.167101
 50
138.473992
 51
177.780922
  0
ARC
  8
Default
 62
     7
  6
CONTINUOUS
 10
1.723091
 20
0.879731
 30
0.000000
 40
0.010697
 50
86.749661
 51
254.513171
  0
LINE
  8
Default
 62
     7
  6
CONTINUOUS
 10
1.720235
 20
0.869422
 30
0.000000
 11
1.744565
 21
0.886708
 31
0.000000
  0
LINE
  8
Default
 62
     7
  6
CONTINUOUS
 10
1.744565
 20
0.886708
 30
0.000000
 11
1.776825
 21
0.932692
 31
0.000000
  0
LINE
  8
Default
 62
     7
  6
CONTINUOUS
 10
1.776825
 20
0.932692
 30
0.000000
 11
1.813125
 21
0.964833
 31
0.000000
  0
LINE
  8
Default
 62
     7
  6
CONTINUOUS
 10
1.813125
 20
0.964833
 30
0.000000
 11
1.848736
 21
0.922068
 31
0.000000
  0
LINE
  8
Default
 62
     7
  6
CONTINUOUS
 10
1.848736
 20
0.922068
 30
0.000000
 11
1.858629
 21
0.872381
 31
0.000000
  0
LINE
  8
Default
 62
     7
  6
CONTINUOUS
 10
1.858629
 20
0.872381
 30
0.000000
 11
1.901441
 21
0.893797
 31
0.000000
  0
LINE
  8
Default
 62
     7
  6
CONTINUOUS
 10
1.901441
 20
0.893797
 30
0.000000
 11
1.948747
 21
0.912126
 31
0.000000
  0
LINE
  8
Default
 62
     7
  6
CONTINUOUS
 10
1.948747
 20
0.912126
 30
0.000000
 11
1.973959
 21
0.869819
 31
0.000000
  0
ARC
  8
Default
 62
     7
  6
CONTINUOUS
 10
2.018715
 20
0.928759
 30
0.000000
 40
0.074007
 50
232.788353
 51
328.897785
  0
ARC
  8
Default
 62
     7
  6
CONTINUOUS
 10
2.025641
 20
0.924581
 30
0.000000
 40
0.065919
 50
328.897785
 51
407.873254
  0
ARC
  8
Default
 62
     7
  6
CONTINUOUS
 10
2.057625
 20
0.982821
 30
0.000000
 40
0.015397
 50
322.605714
 51
491.264203
  0
LINE
  8
Default
 62
     7
  6
CONTINUOUS
 10
2.047471
 20
0.994394
 30
0.000000
 11
2.035189
 21
1.010821
 31
0.000000
  0
LINE
  8
Default
 62
     7
  6
CONTINUOUS
 10
2.035189
 20
1.010821
 30
0.000000
 11
2.056504
 21
1.016128
 31
0.000000
  0
ARC
  8
Default
 62
     7
  6
CONTINUOUS
 10
2.313029
 20
1.315697
 30
0.000000
 40
0.394395
 50
229.426098
 51
268.212283
  0
LINE
  8
Default
 62
     7
  6
CONTINUOUS
 10
2.300725
 20
0.921495
 30
0.000000
 11
2.359766
 21
0.964159
 31
0.000000
  0
LINE
  8
Default
 62
     7
  6
CONTINUOUS
 10
2.359766
 20
0.964159
 30
0.000000
 11
2.369824
 21
1.017977
 31
0.000000
  0
ARC
  8
Default
 62
     7
  6
CONTINUOUS
 10
2.322750
 20
1.010346
 30
0.000000
 40
0.047688
 50
9.208048
 51
168.180833
  0
ARC
  8
Default
 62
     7
  6
CONTINUOUS
 10
2.286026
 20
1.010638
 30
0.000000
 40
0.013743
 50
136.411957
 51
275.087573
  0
LINE
  8
Default
 62
     7
  6
CONTINUOUS
 10
2.287245
 20
0.996950
 30
0.000000
 11
2.296935
 21
1.020690
 31
0.000000
  0
ARC
  8
Default
 62
     7
  6
CONTINUOUS
 10
2.305262
 20
0.988080
 30
0.000000
 40
0.033657
 50
8.219409
 51
104.325072
  0
ARC
  8
Default
 62
     7
  6
CONTINUOUS
 10
2.326323
 20
0.980326
 30
0.000000
 40
0.017548
 50
253.030280
 51
405.729227
  0
LINE
  8
Default
 62
     7
  6
CONTINUOUS
 10
2.321202
 20
0.963542
 30
0.000000
 11
2.282970
 21
0.963542
 31
0.000000
  0
LINE
  8
Default
 62
     7
  6
CONTINUOUS
 10
2.282970
 20
0.963542
 30
0.000000
 11
2.223895
 21
0.974063
 31
0.000000
  0
LINE
  8
Default
 62
     7
  6
CONTINUOUS
 10
2.223895
 20
0.974063
 30
0.000000
 11
2.047342
 21
1.085868
 31
0.000000
  0
ARC
  8
Default
 62
     7
  6
CONTINUOUS
 10
1.954249
 20
0.803751
 30
0.000000
 40
0.297080
 50
71.738165
 51
124.499914
  0
ARC
  8
Default
 62
     7
  6
CONTINUOUS
 10
1.760561
 20
1.046694
 30
0.000000
 40
0.025490
 50
4.247533
 51
126.221685
  0
LINE
  8
Default
 62
     7
  6
CONTINUOUS
 10
1.745499
 20
1.067258
 30
0.000000
 11
1.683664
 21
1.078778
 31
0.000000
  0
LINE
  8
Default
 62
     7
  6
CONTINUOUS
 10
1.683664
 20
1.078778
 30
0.000000
 11
1.640698
 21
1.046826
 31
0.000000
  0
LINE
  8
Default
 62
     7
  6
CONTINUOUS
 10
1.640698
 20
1.046826
 30
0.000000
 11
1.629789
 21
1.078456
 31
0.000000
  0
LINE
  8
Default
 62
     7
  6
CONTINUOUS
 10
1.629789
 20
1.078456
 30
0.000000
 11
1.600014
 21
1.088086
 31
0.000000
  0
ARC
  8
Default
 62
     7
  6
CONTINUOUS
 10
1.550855
 20
1.031419
 30
0.000000
 40
0.075019
 50
49.058143
 51
206.365291
  0
ARC
  8
Default
 62
     7
  6
CONTINUOUS
 10
1.552558
 20
1.040640
 30
0.000000
 40
0.080988
 50
211.682626
 51
303.986716
  0
ARC
  8
Default
 62
     7
  6
CONTINUOUS
 10
1.620305
 20
0.972681
 30
0.000000
 40
0.022489
 50
2.013773
 51
177.945662
  0
LINE
  8
Default
 62
     7
  6
CONTINUOUS
 10
1.642780
 20
0.973471
 30
0.000000
 11
1.671897
 21
0.929451
 31
0.000000
  0
ARC
  8
Default
 62
     7
  6
CONTINUOUS
 10
1.613249
 20
0.946087
 30
0.000000
 40
0.060962
 50
228.463186
 51
344.163763
  0
LINE
  8
Default
 62
     7
  6
CONTINUOUS
 10
1.572825
 20
0.900455
 30
0.000000
 11
1.498509
 21
0.960448
 31
0.000000
  0
ARC
  8
Default
 62
     7
  6
CONTINUOUS
 10
1.209277
 20
0.602170
 30
0.000000
 40
0.460455
 50
51.086646
 51
116.130346
  0
LINE
  8
Default
 62
     7
  6
CONTINUOUS
 10
0.911850
 20
0.945837
 30
0.000000
 11
1.006486
 21
1.015564
 31
0.000000
  0
ARC
  8
Default
 62
     7
  6
CONTINUOUS
 10
0.760846
 20
1.112427
 30
0.000000
 40
0.224843
 50
279.434678
 51
312.190447
  0
ARC
  8
Default
 62
     7
  6
CONTINUOUS
 10
0.781921
 20
0.918144
 30
0.000000
 40
0.031723
 50
148.734801
 51
299.835444
  0
LINE
  8
Default
 62
     7
  6
CONTINUOUS
 10
0.791693
 20
0.995362
 30
0.000000
 11
0.754804
 21
0.934608
 31
0.000000
  0
ARC
  8
Default
 62
     7
  6
CONTINUOUS
 10
0.869467
 20
1.066750
 30
0.000000
 40
0.105570
 50
222.548580
 51
298.003972
  0
ARC
  8
Default
 62
     7
  6
CONTINUOUS
 10
0.862857
 20
1.032015
 30
0.000000
 40
0.081089
 50
313.853121
 51
418.059995
  0
ARC
  8
Default
 62
     7
  6
CONTINUOUS
 10
0.874004
 20
1.049897
 30
0.000000
 40
0.060017
 50
58.059995
 51
140.125733
  0
LINE
  8
Default
 62
     7
  6
CONTINUOUS
 10
0.788116
 20
1.068209
 30
0.000000
 11
0.827944
 21
1.088374
 31
0.000000
  0
ARC
  8
Default
 62
     7
  6
CONTINUOUS
 10
0.782306
 20
1.057666
 30
0.000000
 40
0.012038
 50
179.424235
 51
421.141746
  0
ARC
  8
Default
 62
     7
  6
CONTINUOUS
 10
0.698075
 20
0.941778
 30
0.000000
 40
0.136638
 50
58.105974
 51
130.042339
  0
ARC
  8
Default
 62
     7
  6
CONTINUOUS
 10
0.468110
 20
0.919754
 30
0.000000
 40
0.190304
 50
41.713458
 51
86.998023
  0
ARC
  8
Default
 62
     7
  6
CONTINUOUS
 10
0.536978
 20
0.740864
 30
0.000000
 40
0.373605
 50
99.070870
 51
123.941537
  0
LINE
  8
Default
 62
     7
  6
CONTINUOUS
 10
0.328376
 20
1.050810
 30
0.000000
 11
0.202675
 21
0.983359
 31
0.000000
  0
LINE
  8
Default
 62
     7
  6
CONTINUOUS
 10
0.202675
 20
0.983359
 30
0.000000
 11
0.132557
 21
0.963542
 31
0.000000
  0
LINE
  8
Default
 62
     7
  6
CONTINUOUS
 10
0.132557
 20
0.963542
 30
0.000000
 11
0.091074
 21
0.962771
 31
0.000000
  0
LINE
  8
Default
 62
     7
  6
CONTINUOUS
 10
0.091074
 20
0.962771
 30
0.000000
 11
0.078830
 21
0.973573
 31
0.000000
  0
LINE
  8
Default
 62
     7
  6
CONTINUOUS
 10
0.078830
 20
0.973573
 30
0.000000
 11
0.089054
 21
0.985214
 31
0.000000
  0
ARC
  8
Default
 62
     7
  6
CONTINUOUS
 10
0.125046
 20
0.990280
 30
0.000000
 40
0.036346
 50
82.350667
 51
188.012027
  0
LINE
  8
Default
 62
     7
  6
CONTINUOUS
 10
0.129884
 20
1.026303
 30
0.000000
 11
0.140988
 21
1.001954
 31
0.000000
  0
LINE
  8
Default
 62
     7
  6
CONTINUOUS
 10
0.140988
 20
1.001954
 30
0.000000
 11
0.151796
 21
0.996889
 31
0.000000
  0
LINE
  8
Default
 62
     7
  6
CONTINUOUS
 10
0.151796
 20
0.996889
 30
0.000000
 11
0.151064
 21
1.016317
 31
0.000000
  0
ARC
  8
Default
 62
     7
  6
CONTINUOUS
 10
0.099573
 20
1.004770
 30
0.000000
 40
0.052770
 50
12.640588
 51
182.991908
  0
LINE
  8
Default
 62
     7
  6
CONTINUOUS
 10
0.046876
 20
1.002015
 30
0.000000
 11
0.056537
 21
0.955275
 31
0.000000
  0
LINE
  8
Default
 62
     7
  6
CONTINUOUS
 10
0.056537
 20
0.955275
 30
0.000000
 11
0.101756
 21
0.932529
 31
0.000000
  0
LINE
  8
Default
 62
     7
  6
CONTINUOUS
 10
0.101756
 20
0.932529
 30
0.000000
 11
0.200634
 21
0.921106
 31
0.000000
  0
LINE
  8
Default
 62
     7
  6
CONTINUOUS
 10
0.200634
 20
0.921106
 30
0.000000
 11
0.307750
 21
0.973949
 31
0.000000
  0
LINE
  8
Default
 62
     7
  6
CONTINUOUS
 10
0.307750
 20
0.973949
 30
0.000000
 11
0.382964
 21
1.026813
 31
0.000000
  0
LINE
  8
Default
 62
     7
  6
CONTINUOUS
 10
0.382964
 20
1.026813
 30
0.000000
 11
0.460654
 21
1.057292
 31
0.000000
  0
LINE
  8
Default
 62
     7
  6
CONTINUOUS
 10
0.460654
 20
1.057292
 30
0.000000
 11
0.554526
 21
1.057292
 31
0.000000
  0
LINE
  8
Default
 62
     7
  6
CONTINUOUS
 10
0.554526
 20
1.057292
 30
0.000000
 11
0.588054
 21
1.038438
 31
0.000000
  0
ARC
  8
Default
 62
     7
  6
CONTINUOUS
 10
0.587721
 20
1.027168
 30
0.000000
 40
0.011275
 50
277.417137
 51
448.302873
  0
LINE
  8
Default
 62
     7
  6
CONTINUOUS
 10
0.589176
 20
1.015988
 30
0.000000
 11
0.416370
 21
1.026652
 31
0.000000
  0
ARC
  8
Default
 62
     7
  6
CONTINUOUS
 10
0.440850
 20
0.925684
 30
0.000000
 40
0.103893
 50
103.628230
 51
169.964195
  0
ARC
  8
Default
 62
     7
  6
CONTINUOUS
 10
0.406621
 20
0.923647
 30
0.000000
 40
0.070992
 50
163.517977
 51
294.433729
  0
LINE
  8
Default
 62
     7
  6
CONTINUOUS
 10
0.435986
 20
0.859013
 30
0.000000
 11
0.461493
 21
0.879717
 31
0.000000
  0
LINE
  8
Default
 62
     7
  6
CONTINUOUS
 10
0.461493
 20
0.879717
 30
0.000000
 11
0.485607
 21
0.911458
 31
0.000000
  0
LINE
  8
Default
 62
     7
  6
CONTINUOUS
 10
0.485607
 20
0.911458
 30
0.000000
 11
0.541640
 21
0.880202
 31
0.000000
  0
LINE
  8
Default
 62
     7
  6
CONTINUOUS
 10
0.541640
 20
0.880202
 30
0.000000
 11
0.555618
 21
0.868929
 31
0.000000
  0
LINE
  8
Default
 62
     7
  6
CONTINUOUS
 10
0.555618
 20
0.868929
 30
0.000000
 11
0.566020
 21
0.879707
 31
0.000000
  0
LINE
  8
Default
 62
     7
  6
CONTINUOUS
 10
0.566020
 20
0.879707
 30
0.000000
 11
0.578565
 21
0.917694
 31
0.000000
  0
ARC
  8
Default
 62
     7
  6
CONTINUOUS
 10
0.607950
 20
0.919381
 30
0.000000
 40
0.029434
 50
51.219390
 51
183.286147
  0
LINE
  8
Default
 62
     7
  6
CONTINUOUS
 10
0.626386
 20
0.942326
 30
0.000000
 11
0.669656
 21
0.901523
 31
0.000000
  0
ARC
  8
Default
 62
     7
  6
CONTINUOUS
 10
0.687016
 20
0.889818
 30
0.000000
 40
0.020937
 50
146.011790
 51
399.080256
  0
LINE
  8
Default
 62
     7
  6
CONTINUOUS
 10
0.703268
 20
0.903017
 30
0.000000
 11
0.669710
 21
0.984860
 31
0.000000
  0
ARC
  8
Default
 62
     7
  6
CONTINUOUS
 10
0.704128
 20
1.000005
 30
0.000000
 40
0.037603
 50
99.814884
 51
203.751522
  0
LINE
  8
Default
 62
     7
  6
CONTINUOUS
 10
0.697718
 20
1.037057
 30
0.000000
 11
0.750813
 21
1.036458
 31
0.000000
  0
LINE
  8
Default
 62
     7
  6
CONTINUOUS
 10
0.750813
 20
1.036458
 30
0.000000
 11
0.766193
 21
1.026890
 31
0.000000
  0
LINE
  8
Default
 62
     7
  6
CONTINUOUS
 10
0.766193
 20
1.026890
 30
0.000000
 11
0.751065
 21
1.015418
 31
0.000000
  0
LINE
  8
Default
 62
     7
  6
CONTINUOUS
 10
0.751065
 20
1.015418
 30
0.000000
 11
0.718626
 21
0.953152
 31
0.000000
  0
ARC
  8
Default
 62
     7
  6
CONTINUOUS
 10
0.805142
 20
0.944520
 30
0.000000
 40
0.086946
 50
174.302574
 51
258.319963
  0
ARC
  8
Default
 62
     7
  6
CONTINUOUS
 10
0.786642
 20
1.174742
 30
0.000000
 40
0.315368
 50
270.163131
 51
317.956539
  0
ARC
  8
Default
 62
     7
  6
CONTINUOUS
 10
1.213690
 20
0.676064
 30
0.000000
 40
0.346168
 50
55.224021
 51
123.854170
  0
ARC
  8
Default
 62
     7
  6
CONTINUOUS
 10
1.205571
 20
0.664371
 30
0.000000
 40
0.360404
 50
45.577754
 51
55.224021
  0
ARC
  8
Default
 62
     7
  6
CONTINUOUS
 10
1.680218
 20
1.167285
 30
0.000000
 40
0.331260
 50
227.829762
 51
253.937402
  0
ARC
  8
Default
 62
     7
  6
CONTINUOUS
 10
0.434214
 20
0.914890
 30
0.000000
 40
0.059202
 50
97.923195
 51
204.196803
  0
ARC
  8
Default
 62
     7
  6
CONTINUOUS
 10
0.490866
 20
0.887151
 30
0.000000
 40
0.107989
 50
63.278020
 51
126.882591
  0
ARC
  8
Default
 62
     7
  6
CONTINUOUS
 10
0.546672
 20
0.974643
 30
0.000000
 40
0.011527
 50
290.124396
 51
488.956973
  0
ARC
  8
Default
 62
     7
  6
CONTINUOUS
 10
0.555869
 20
0.942089
 30
0.000000
 40
0.022352
 50
103.533766
 51
210.159413
  0
ARC
  8
Default
 62
     7
  6
CONTINUOUS
 10
0.522478
 20
0.936826
 30
0.000000
 40
0.015278
 50
196.433688
 51
337.007974
  0
LINE
  8
Default
 62
     7
  6
CONTINUOUS
 10
0.507824
 20
0.932504
 30
0.000000
 11
0.474110
 21
0.942577
 31
0.000000
  0
ARC
  8
Default
 62
     7
  6
CONTINUOUS
 10
0.453254
 20
0.920625
 30
0.000000
 40
0.030280
 50
46.466125
 51
176.743396
  0
LINE
  8
Default
 62
     7
  6
CONTINUOUS
 10
0.423023
 20
0.922346
 30
0.000000
 11
0.380213
 21
0.890625
 31
0.000000
  0
LINE
  8
Default
 62
     7
  6
CONTINUOUS
 10
2.026069
 20
0.890625
 30
0.000000
 11
1.995040
 21
0.932026
 31
0.000000
  0
ARC
  8
Default
 62
     7
  6
CONTINUOUS
 10
1.965727
 20
0.923509
 30
0.000000
 40
0.030525
 50
16.200952
 51
137.478741
  0
LINE
  8
Default
 62
     7
  6
CONTINUOUS
 10
1.943229
 20
0.944140
 30
0.000000
 11
1.890612
 21
0.921915
 31
0.000000
  0
LINE
  8
Default
 62
     7
  6
CONTINUOUS
 10
1.890612
 20
0.921915
 30
0.000000
 11
1.867610
 21
0.974441
 31
0.000000
  0
ARC
  8
Default
 62
     7
  6
CONTINUOUS
 10
1.937902
 20
0.863458
 30
0.000000
 40
0.131370
 50
57.502450
 51
122.348311
  0
LINE
  8
Default
 62
     7
  6
CONTINUOUS
 10
2.008482
 20
0.974257
 30
0.000000
 11
2.046903
 21
0.931285
 31
0.000000
  0
LINE
  8
Default
 62
     7
  6
CONTINUOUS
 10
2.046903
 20
0.931285
 30
0.000000
 11
2.058064
 21
0.892632
 31
0.000000
  0
LINE
  8
Default
 62
     7
  6
CONTINUOUS
 10
2.058064
 20
0.892632
 30
0.000000
 11
2.026069
 21
0.890625
 31
0.000000
  0
ARC
  8
Default
 62
     7
  6
CONTINUOUS
 10
1.817984
 20
0.945432
 30
0.000000
 40
0.053960
 50
132.913819
 51
194.094536
  0
ARC
  8
Default
 62
     7
  6
CONTINUOUS
 10
1.783738
 20
0.971917
 30
0.000000
 40
0.013271
 50
281.431114
 51
460.834619
  0
LINE
  8
Default
 62
     7
  6
CONTINUOUS
 10
1.786368
 20
0.958908
 30
0.000000
 11
1.765649
 21
0.932292
 31
0.000000
  0
LINE
  8
Default
 62
     7
  6
CONTINUOUS
 10
0.661467
 20
0.942708
 30
0.000000
 11
0.625689
 21
0.984240
 31
0.000000
  0
ARC
  8
Default
 62
     7
  6
CONTINUOUS
 10
0.637368
 20
0.982601
 30
0.000000
 40
0.011793
 50
312.053973
 51
532.008817
  0
LINE
  8
Default
 62
     7
  6
CONTINUOUS
 10
0.645267
 20
0.973844
 30
0.000000
 11
0.661467
 21
0.942708
 31
0.000000
  0
LINE
  8
Default
 62
     7
  6
CONTINUOUS
 10
0.838553
 20
0.994792
 30
0.000000
 11
0.807539
 21
1.005007
 31
0.000000
  0
LINE
  8
Default
 62
     7
  6
CONTINUOUS
 10
0.807539
 20
1.005007
 30
0.000000
 11
0.822061
 21
1.036629
 31
0.000000
  0
LINE
  8
Default
 62
     7
  6
CONTINUOUS
 10
0.822061
 20
1.036629
 30
0.000000
 11
0.876623
 21
1.067708
 31
0.000000
  0
ARC
  8
Default
 62
     7
  6
CONTINUOUS
 10
0.894045
 20
1.048844
 30
0.000000
 40
0.025679
 50
297.663206
 51
492.723788
  0
ARC
  8
Default
 62
     7
  6
CONTINUOUS
 10
0.859522
 20
1.037873
 30
0.000000
 40
0.047914
 50
244.046897
 51
345.776580
  0
CIRCLE
  8
Default
 62
     7
  6
CONTINUOUS
 10
1.550825
 20
1.031250
 30
0.000000
 40
0.037031
  0
ARC
  8
Default
 62
     7
  6
CONTINUOUS
 10
1.847773
 20
1.034657
 30
0.000000
 40
0.029474
 50
175.778417
 51
272.353956
  0
LINE
  8
Default
 62
     7
  6
CONTINUOUS
 10
1.818379
 20
1.036827
 30
0.000000
 11
1.869730
 21
1.057292
 31
0.000000
  0
LINE
  8
Default
 62
     7
  6
CONTINUOUS
 10
1.869730
 20
1.057292
 30
0.000000
 11
1.991247
 21
1.046875
 31
0.000000
  0
LINE
  8
Default
 62
     7
  6
CONTINUOUS
 10
1.991247
 20
1.046875
 30
0.000000
 11
2.026183
 21
1.036328
 31
0.000000
  0
LINE
  8
Default
 62
     7
  6
CONTINUOUS
 10
2.026183
 20
1.036328
 30
0.000000
 11
2.027613
 21
1.015537
 31
0.000000
  0
LINE
  8
Default
 62
     7
  6
CONTINUOUS
 10
2.027613
 20
1.015537
 30
0.000000
 11
1.964492
 21
1.025501
 31
0.000000
  0
ARC
  8
Default
 62
     7
  6
CONTINUOUS
 10
1.930200
 20
0.881799
 30
0.000000
 40
0.147737
 50
76.578384
 51
123.349397
  0
ARC
  8
Default
 62
     7
  6
CONTINUOUS
 10
0.310940
 20
1.677566
 30
0.000000
 40
0.466546
 50
275.959570
 51
303.466100
  0
ARC
  8
Default
 62
     7
  6
CONTINUOUS
 10
0.813158
 20
0.977379
 30
0.000000
 40
0.395869
 50
97.576135
 51
128.225041
  0
ARC
  8
Default
 62
     7
  6
CONTINUOUS
 10
0.768929
 20
1.367382
 30
0.000000
 40
0.008320
 50
255.850456
 51
523.165068
  0
LINE
  8
Default
 62
     7
  6
CONTINUOUS
 10
0.766895
 20
1.359314
 30
0.000000
 11
0.736918
 21
1.349729
 31
0.000000
  0
ARC
  8
Default
 62
     7
  6
CONTINUOUS
 10
0.749649
 20
1.327332
 30
0.000000
 40
0.025761
 50
119.615166
 51
234.916485
  0
LINE
  8
Default
 62
     7
  6
CONTINUOUS
 10
0.734842
 20
1.306251
 30
0.000000
 11
0.774750
 21
1.286394
 31
0.000000
  0
LINE
  8
Default
 62
     7
  6
CONTINUOUS
 10
0.774750
 20
1.286394
 30
0.000000
 11
0.829042
 21
1.296875
 31
0.000000
  0
ARC
  8
Default
 62
     7
  6
CONTINUOUS
 10
0.976888
 20
0.864197
 30
0.000000
 40
0.457241
 50
82.677450
 51
108.865333
  0
ARC
  8
Default
 62
     7
  6
CONTINUOUS
 10
1.279995
 20
-1.537924
 30
0.000000
 40
2.866108
 50
85.099705
 51
94.900295
  0
LINE
  8
Default
 62
     7
  6
CONTINUOUS
 10
1.524824
 20
1.317708
 30
0.000000
 11
1.665498
 21
1.285753
 31
0.000000
  0
LINE
  8
Default
 62
     7
  6
CONTINUOUS
 10
1.665498
 20
1.285753
 30
0.000000
 11
1.724512
 21
1.307621
 31
0.000000
  0
ARC
  8
Default
 62
     7
  6
CONTINUOUS
 10
1.695478
 20
1.326031
 30
0.000000
 40
0.034379
 50
327.622617
 51
442.700767
  0
ARC
  8
Default
 62
     7
  6
CONTINUOUS
 10
1.690637
 20
1.360749
 30
0.000000
 40
0.009229
 50
78.552247
 51
356.158580
  0
LINE
  8
Default
 62
     7
  6
CONTINUOUS
 10
1.692469
 20
1.369795
 30
0.000000
 11
1.724190
 21
1.365649
 31
0.000000
  0
ARC
  8
Default
 62
     7
  6
CONTINUOUS
 10
1.747674
 20
1.374038
 30
0.000000
 40
0.024937
 50
199.656465
 51
317.765946
  0
LINE
  8
Default
 62
     7
  6
CONTINUOUS
 10
1.766138
 20
1.357276
 30
0.000000
 11
1.858680
 21
1.307270
 31
0.000000
  0
LINE
  8
Default
 62
     7
  6
CONTINUOUS
 10
1.858680
 20
1.307270
 30
0.000000
 11
2.021875
 21
1.223958
 31
0.000000
  0
ARC
  8
Default
 62
     7
  6
CONTINUOUS
 10
2.058992
 20
1.263660
 30
0.000000
 40
0.054350
 50
226.927024
 51
417.537934
  0
LINE
  8
Default
 62
     7
  6
CONTINUOUS
 10
1.911232
 20
1.422071
 30
0.000000
 11
2.088164
 21
1.309518
 31
0.000000
  0
ARC
  8
Default
 62
     7
  6
CONTINUOUS
 10
1.925454
 20
1.431361
 30
0.000000
 40
0.016987
 50
8.982594
 51
213.153812
  0
LINE
  8
Default
 62
     7
  6
CONTINUOUS
 10
1.942233
 20
1.434013
 30
0.000000
 11
2.004305
 21
1.422418
 31
0.000000
  0
LINE
  8
Default
 62
     7
  6
CONTINUOUS
 10
2.004305
 20
1.422418
 30
0.000000
 11
2.083926
 21
1.369295
 31
0.000000
  0
LINE
  8
Default
 62
     7
  6
CONTINUOUS
 10
2.083926
 20
1.369295
 30
0.000000
 11
2.238379
 21
1.264916
 31
0.000000
  0
LINE
  8
Default
 62
     7
  6
CONTINUOUS
 10
2.238379
 20
1.264916
 30
0.000000
 11
2.348865
 21
1.234261
 31
0.000000
  0
ARC
  8
Default
 62
     7
  6
CONTINUOUS
 10
2.335051
 20
1.312178
 30
0.000000
 40
0.079132
 50
280.054338
 51
346.081083
  0
ARC
  8
Default
 62
     7
  6
CONTINUOUS
 10
2.398916
 20
1.294444
 30
0.000000
 40
0.013008
 50
354.256893
 51
529.820348
  0
LINE
  8
Default
 62
     7
  6
CONTINUOUS
 10
2.386112
 20
1.296743
 30
0.000000
 11
2.348926
 21
1.286527
 31
0.000000
  0
LINE
  8
Default
 62
     7
  6
CONTINUOUS
 10
2.348926
 20
1.286527
 30
0.000000
 11
2.300943
 21
1.318120
 31
0.000000
  0
LINE
  8
Default
 62
     7
  6
CONTINUOUS
 10
2.300943
 20
1.318120
 30
0.000000
 11
2.213722
 21
1.375760
 31
0.000000
  0
LINE
  8
Default
 62
     7
  6
CONTINUOUS
 10
2.213722
 20
1.375760
 30
0.000000
 11
2.032301
 21
1.474648
 31
0.000000
  0
LINE
  8
Default
 62
     7
  6
CONTINUOUS
 10
2.032301
 20
1.474648
 30
0.000000
 11
1.972207
 21
1.484487
 31
0.000000
  0
LINE
  8
Default
 62
     7
  6
CONTINUOUS
 10
1.972207
 20
1.484487
 30
0.000000
 11
1.923167
 21
1.474594
 31
0.000000
  0
ARC
  8
Default
 62
     7
  6
CONTINUOUS
 10
1.941579
 20
1.420742
 30
0.000000
 40
0.056912
 50
108.875692
 51
223.960361
  0
LINE
  8
Default
 62
     7
  6
CONTINUOUS
 10
1.900612
 20
1.381236
 30
0.000000
 11
2.013944
 21
1.317604
 31
0.000000
  0
LINE
  8
Default
 62
     7
  6
CONTINUOUS
 10
2.013944
 20
1.317604
 30
0.000000
 11
2.068031
 21
1.286013
 31
0.000000
  0
ARC
  8
Default
 62
     7
  6
CONTINUOUS
 10
2.068424
 20
1.269352
 30
0.000000
 40
0.016666
 50
243.253171
 51
451.351940
  0
ARC
  8
Default
 62
     7
  6
CONTINUOUS
 10
1.611590
 20
0.725165
 30
0.000000
 40
0.694309
 50
49.671620
 51
68.139394
  0
ARC
  8
Default
 62
     7
  6
CONTINUOUS
 10
1.746940
 20
1.221516
 30
0.000000
 40
0.192576
 50
50.236686
 51
118.450198
  0
LINE
  8
Default
 62
     7
  6
CONTINUOUS
 10
1.655198
 20
1.390835
 30
0.000000
 11
1.651464
 21
1.348651
 31
0.000000
  0
ARC
  8
Default
 62
     7
  6
CONTINUOUS
 10
1.662154
 20
1.345568
 30
0.000000
 40
0.011126
 50
219.159406
 51
523.911000
  0
LINE
  8
Default
 62
     7
  6
CONTINUOUS
 10
1.653527
 20
1.338542
 30
0.000000
 11
1.582964
 21
1.359896
 31
0.000000
  0
LINE
  8
Default
 62
     7
  6
CONTINUOUS
 10
1.582964
 20
1.359896
 30
0.000000
 11
1.383073
 21
1.360146
 31
0.000000
  0
ARC
  8
Default
 62
     7
  6
CONTINUOUS
 10
1.206292
 20
2.739406
 30
0.000000
 40
1.390543
 50
262.950353
 51
277.303810
  0
LINE
  8
Default
 62
     7
  6
CONTINUOUS
 10
1.035632
 20
1.359375
 30
0.000000
 11
0.807980
 21
1.353267
 31
0.000000
  0
ARC
  8
Default
 62
     7
  6
CONTINUOUS
 10
0.745163
 20
1.356525
 30
0.000000
 40
0.062901
 50
357.031269
 51
422.151946
  0
LINE
  8
Default
 62
     7
  6
CONTINUOUS
 10
0.774546
 20
1.412141
 30
0.000000
 11
0.683052
 21
1.411937
 31
0.000000
  0
LINE
  8
Default
 62
     7
  6
CONTINUOUS
 10
0.683052
 20
1.411937
 30
0.000000
 11
0.567275
 21
1.367136
 31
0.000000
  0
LINE
  8
Default
 62
     7
  6
CONTINUOUS
 10
0.567275
 20
1.367136
 30
0.000000
 11
0.475370
 21
1.307218
 31
0.000000
  0
LINE
  8
Default
 62
     7
  6
CONTINUOUS
 10
0.475370
 20
1.307218
 30
0.000000
 11
0.415305
 21
1.276762
 31
0.000000
  0
LINE
  8
Default
 62
     7
  6
CONTINUOUS
 10
0.415305
 20
1.276762
 30
0.000000
 11
0.387624
 21
1.255208
 31
0.000000
  0
ARC
  8
Default
 62
     7
  6
CONTINUOUS
 10
0.378246
 20
1.258084
 30
0.000000
 40
0.009809
 50
75.456205
 51
342.952706
  0
LINE
  8
Default
 62
     7
  6
CONTINUOUS
 10
0.380710
 20
1.267579
 30
0.000000
 11
0.482997
 21
1.338614
 31
0.000000
  0
LINE
  8
Default
 62
     7
  6
CONTINUOUS
 10
0.482997
 20
1.338614
 30
0.000000
 11
0.530767
 21
1.369889
 31
0.000000
  0
LINE
  8
Default
 62
     7
  6
CONTINUOUS
 10
0.530767
 20
1.369889
 30
0.000000
 11
0.570134
 21
1.411924
 31
0.000000
  0
ARC
  8
Default
 62
     7
  6
CONTINUOUS
 10
0.495526
 20
1.397205
 30
0.000000
 40
0.076046
 50
11.160500
 51
89.253674
  0
ARC
  8
Default
 62
     7
  6
CONTINUOUS
 10
0.457815
 20
1.331415
 30
0.000000
 40
0.147015
 50
74.736854
 51
126.881027
  0
LINE
  8
Default
 62
     7
  6
CONTINUOUS
 10
0.369583
 20
1.449009
 30
0.000000
 11
0.181945
 21
1.335210
 31
0.000000
  0
LINE
  8
Default
 62
     7
  6
CONTINUOUS
 10
0.181945
 20
1.335210
 30
0.000000
 11
0.130405
 21
1.301088
 31
0.000000
  0
LINE
  8
Default
 62
     7
  6
CONTINUOUS
 10
0.130405
 20
1.301088
 30
0.000000
 11
0.102017
 21
1.286186
 31
0.000000
  0
LINE
  8
Default
 62
     7
  6
CONTINUOUS
 10
0.102017
 20
1.286186
 30
0.000000
 11
0.068524
 21
1.296461
 31
0.000000
  0
ARC
  8
Default
 62
     7
  6
CONTINUOUS
 10
0.054469
 20
1.291376
 30
0.000000
 40
0.014946
 50
19.889906
 51
276.249584
  0
LINE
  8
Default
 62
     7
  6
CONTINUOUS
 10
0.056097
 20
1.276518
 30
0.000000
 11
0.099117
 21
1.240380
 31
0.000000
  0
ARC
  8
Default
 62
     7
  6
CONTINUOUS
 10
0.133160
 20
1.362120
 30
0.000000
 40
0.126410
 50
254.377138
 51
323.308519
  0
LINE
  8
Default
 62
     7
  6
CONTINUOUS
 10
0.234524
 20
1.286589
 30
0.000000
 11
0.338047
 21
1.357840
 31
0.000000
  0
LINE
  8
Default
 62
     7
  6
CONTINUOUS
 10
0.338047
 20
1.357840
 30
0.000000
 11
0.452662
 21
1.419497
 31
0.000000
  0
LINE
  8
Default
 62
     7
  6
CONTINUOUS
 10
0.452662
 20
1.419497
 30
0.000000
 11
0.515139
 21
1.441303
 31
0.000000
  0
LINE
  8
Default
 62
     7
  6
CONTINUOUS
 10
0.515139
 20
1.441303
 30
0.000000
 11
0.556216
 21
1.432754
 31
0.000000
  0
ARC
  8
Default
 62
     7
  6
CONTINUOUS
 10
0.514653
 20
1.458863
 30
0.000000
 40
0.049083
 50
288.007188
 51
327.864775
  0
LINE
  8
Default
 62
     7
  6
CONTINUOUS
 10
0.529827
 20
1.412184
 30
0.000000
 11
0.390882
 21
1.321617
 31
0.000000
  0
ARC
  8
Default
 62
     7
  6
CONTINUOUS
 10
0.397090
 20
1.261179
 30
0.000000
 40
0.060757
 50
95.865176
 51
231.634112
  0
ARC
  8
Default
 62
     7
  6
CONTINUOUS
 10
0.526519
 20
1.666893
 30
0.000000
 40
0.110140
 50
264.327066
 51
340.317261
  0
LINE
  8
Default
 62
     7
  6
CONTINUOUS
 10
0.630224
 20
1.629796
 30
0.000000
 11
0.640634
 21
1.721159
 31
0.000000
  0
ARC
  8
Default
 62
     7
  6
CONTINUOUS
 10
0.659888
 20
1.746040
 30
0.000000
 40
0.031461
 50
105.561779
 51
232.265086
  0
ARC
  8
Default
 62
     7
  6
CONTINUOUS
 10
0.897362
 20
0.541412
 30
0.000000
 40
1.259182
 50
85.595408
 51
101.262065
  0
LINE
  8
Default
 62
     7
  6
CONTINUOUS
 10
0.994066
 20
1.796875
 30
0.000000
 11
1.037976
 21
1.796875
 31
0.000000
  0
ARC
  8
Default
 62
     7
  6
CONTINUOUS
 10
1.047363
 20
1.788725
 30
0.000000
 40
0.012432
 50
280.057616
 51
499.036979
  0
ARC
  8
Default
 62
     7
  6
CONTINUOUS
 10
1.035652
 20
1.768445
 30
0.000000
 40
0.016042
 50
235.597576
 51
390.074766
  0
LINE
  8
Default
 62
     7
  6
CONTINUOUS
 10
1.026588
 20
1.755208
 30
0.000000
 11
0.979901
 21
1.755208
 31
0.000000
  0
LINE
  8
Default
 62
     7
  6
CONTINUOUS
 10
0.979901
 20
1.755208
 30
0.000000
 11
0.812320
 21
1.755208
 31
0.000000
  0
ARC
  8
Default
 62
     7
  6
CONTINUOUS
 10
0.805271
 20
1.671126
 30
0.000000
 40
0.084377
 50
85.207763
 51
238.792926
  0
ARC
  8
Default
 62
     7
  6
CONTINUOUS
 10
0.826408
 20
1.801216
 30
0.000000
 40
0.212401
 50
252.221073
 51
322.554676
  0
LINE
  8
Default
 62
     7
  6
CONTINUOUS
 10
0.995041
 20
1.672075
 30
0.000000
 11
1.016318
 21
1.676162
 31
0.000000
  0
LINE
  8
Default
 62
     7
  6
CONTINUOUS
 10
1.016318
 20
1.676162
 30
0.000000
 11
1.024620
 21
1.692213
 31
0.000000
  0
LINE
  8
Default
 62
     7
  6
CONTINUOUS
 10
1.024620
 20
1.692213
 30
0.000000
 11
1.062616
 21
1.703710
 31
0.000000
  0
LINE
  8
Default
 62
     7
  6
CONTINUOUS
 10
1.062616
 20
1.703710
 30
0.000000
 11
1.148420
 21
1.692708
 31
0.000000
  0
LINE
  8
Default
 62
     7
  6
CONTINUOUS
 10
1.148420
 20
1.692708
 30
0.000000
 11
1.353023
 21
1.692708
 31
0.000000
  0
LINE
  8
Default
 62
     7
  6
CONTINUOUS
 10
1.353023
 20
1.692708
 30
0.000000
 11
1.446738
 21
1.703125
 31
0.000000
  0
ARC
  8
Default
 62
     7
  6
CONTINUOUS
 10
1.449046
 20
1.639123
 30
0.000000
 40
0.064044
 50
27.886058
 51
92.065047
  0
LINE
  8
Default
 62
     7
  6
CONTINUOUS
 10
1.505653
 20
1.669077
 30
0.000000
 11
1.624318
 21
1.598958
 31
0.000000
  0
ARC
  8
Default
 62
     7
  6
CONTINUOUS
 10
1.678512
 20
1.730545
 30
0.000000
 40
0.142310
 50
247.615482
 51
326.801376
  0
ARC
  8
Default
 62
     7
  6
CONTINUOUS
 10
1.701946
 20
1.660617
 30
0.000000
 40
0.095982
 50
355.223528
 51
459.763561
  0
LINE
  8
Default
 62
     7
  6
CONTINUOUS
 10
1.685669
 20
1.755208
 30
0.000000
 11
1.503584
 21
1.755208
 31
0.000000
  0
ARC
  8
Default
 62
     7
  6
CONTINUOUS
 10
1.487987
 20
1.782787
 30
0.000000
 40
0.031683
 50
152.844289
 51
299.489918
  0
LINE
  8
Default
 62
     7
  6
CONTINUOUS
 10
1.459796
 20
1.797248
 30
0.000000
 11
1.545906
 21
1.796875
 31
0.000000
  0
LINE
  8
Default
 62
     7
  6
CONTINUOUS
 10
1.545906
 20
1.796875
 30
0.000000
 11
1.761791
 21
1.786458
 31
0.000000
  0
LINE
  8
Default
 62
     7
  6
CONTINUOUS
 10
1.761791
 20
1.786458
 30
0.000000
 11
1.859587
 21
1.775804
 31
0.000000
  0
LINE
  8
Default
 62
     7
  6
CONTINUOUS
 10
1.859587
 20
1.775804
 30
0.000000
 11
1.880413
 21
1.752854
 31
0.000000
  0
LINE
  8
Default
 62
     7
  6
CONTINUOUS
 10
1.880413
 20
1.752854
 30
0.000000
 11
1.869817
 21
1.718124
 31
0.000000
  0
ARC
  8
Default
 62
     7
  6
CONTINUOUS
 10
2.144264
 20
1.715264
 30
0.000000
 40
0.274462
 50
179.402916
 51
211.693041
  0
ARC
  8
Default
 62
     7
  6
CONTINUOUS
 10
1.953037
 20
1.634328
 30
0.000000
 40
0.076101
 50
236.225316
 51
376.327570
  0
ARC
  8
Default
 62
     7
  6
CONTINUOUS
 10
1.890316
 20
1.649926
 30
0.000000
 40
0.135876
 50
2.444603
 51
62.376490
  0
ARC
  8
Default
 62
     7
  6
CONTINUOUS
 10
1.980616
 20
1.822480
 30
0.000000
 40
0.058877
 50
127.310617
 51
242.376490
  0
LINE
  8
Default
 62
     7
  6
CONTINUOUS
 10
2.015671
 20
1.776708
 30
0.000000
 11
1.944928
 21
1.869308
 31
0.000000
  0
ARC
  8
Default
 62
     7
  6
CONTINUOUS
 10
2.178002
 20
1.863352
 30
0.000000
 40
0.184007
 50
208.090868
 51
248.364545
  0
ARC
  8
Default
 62
     7
  6
CONTINUOUS
 10
2.243358
 20
1.878855
 30
0.000000
 40
0.229219
 50
234.472183
 51
310.057496
  0
ARC
  8
Default
 62
     7
  6
CONTINUOUS
 10
2.288565
 20
1.781554
 30
0.000000
 40
0.128737
 50
322.627247
 51
429.222121
  0
ARC
  8
Default
 62
     7
  6
CONTINUOUS
 10
2.313343
 20
1.846858
 30
0.000000
 40
0.058890
 50
69.222121
 51
183.744510
  0
ARC
  8
Default
 62
     7
  6
CONTINUOUS
 10
2.296587
 20
1.882484
 30
0.000000
 40
0.057643
 50
223.216567
 51
289.433558
  0
LINE
  8
Default
 62
     7
  6
CONTINUOUS
 10
2.315765
 20
1.828125
 30
0.000000
 11
2.328522
 21
1.838060
 31
0.000000
  0
LINE
  8
Default
 62
     7
  6
CONTINUOUS
 10
2.328522
 20
1.838060
 30
0.000000
 11
2.308983
 21
1.838542
 31
0.000000
  0
ARC
  8
Default
 62
     7
  6
CONTINUOUS
 10
2.303436
 20
1.844096
 30
0.000000
 40
0.007850
 50
56.021655
 51
314.961050
  0
ARC
  8
Default
 62
     7
  6
CONTINUOUS
 10
2.334047
 20
1.826436
 30
0.000000
 40
0.035663
 50
359.825033
 51
497.333228
  0
ARC
  8
Default
 62
     7
  6
CONTINUOUS
 10
2.298857
 20
1.805872
 30
0.000000
 40
0.073746
 50
313.132077
 51
376.103436
  0
ARC
  8
Default
 62
     7
  6
CONTINUOUS
 10
2.217058
 20
1.907459
 30
0.000000
 40
0.204040
 50
252.475082
 51
310.391119
  0
ARC
  8
Default
 62
     7
  6
CONTINUOUS
 10
2.286392
 20
2.019088
 30
0.000000
 40
0.332956
 50
212.939811
 51
246.873069
  0
LINE
  8
Default
 62
     7
  6
CONTINUOUS
 10
2.006962
 20
1.838041
 30
0.000000
 11
1.963079
 21
1.903150
 31
0.000000
  0
LINE
  8
Default
 62
     7
  6
CONTINUOUS
 10
1.963079
 20
1.903150
 30
0.000000
 11
1.922012
 21
1.921876
 31
0.000000
  0
LINE
  8
Default
 62
     7
  6
CONTINUOUS
 10
1.922012
 20
1.921876
 30
0.000000
 11
1.875816
 21
1.911924
 31
0.000000
  0
LINE
  8
Default
 62
     7
  6
CONTINUOUS
 10
1.875816
 20
1.911924
 30
0.000000
 11
1.804312
 21
1.869394
 31
0.000000
  0
ARC
  8
Default
 62
     7
  6
CONTINUOUS
 10
1.818964
 20
1.857354
 30
0.000000
 40
0.018964
 50
140.589138
 51
272.312832
  0
LINE
  8
Default
 62
     7
  6
CONTINUOUS
 10
1.819729
 20
1.838405
 30
0.000000
 11
1.869410
 21
1.859097
 31
0.000000
  0
ARC
  8
Default
 62
     7
  6
CONTINUOUS
 10
1.884745
 20
1.853460
 30
0.000000
 40
0.016338
 50
2.577889
 51
159.814048
  0
LINE
  8
Default
 62
     7
  6
CONTINUOUS
 10
1.901067
 20
1.854194
 30
0.000000
 11
1.889000
 21
1.806586
 31
0.000000
  0
LINE
  8
Default
 62
     7
  6
CONTINUOUS
 10
1.889000
 20
1.806586
 30
0.000000
 11
1.781857
 21
1.828125
 31
0.000000
  0
LINE
  8
Default
 62
     7
  6
CONTINUOUS
 10
1.781857
 20
1.828125
 30
0.000000
 11
1.581671
 21
1.838542
 31
0.000000
  0
LINE
  8
Default
 62
     7
  6
CONTINUOUS
 10
1.581671
 20
1.838542
 30
0.000000
 11
1.463307
 21
1.828125
 31
0.000000
  0
ARC
  8
Default
 62
     7
  6
CONTINUOUS
 10
1.498311
 20
1.909575
 30
0.000000
 40
0.088653
 50
192.823836
 51
246.743906
  0
ARC
  8
Default
 62
     7
  6
CONTINUOUS
 10
1.353515
 20
1.799315
 30
0.000000
 40
0.107752
 50
57.210193
 51
156.343573
  0
ARC
  8
Default
 62
     7
  6
CONTINUOUS
 10
1.301199
 20
1.832196
 30
0.000000
 40
0.047523
 50
167.415792
 51
285.752236
  0
LINE
  8
Default
 62
     7
  6
CONTINUOUS
 10
1.314100
 20
1.786458
 30
0.000000
 11
1.421574
 21
1.793366
 31
0.000000
  0
ARC
  8
Default
 62
     7
  6
CONTINUOUS
 10
1.422286
 20
1.772865
 30
0.000000
 40
0.020513
 50
239.403721
 51
451.989505
  0
LINE
  8
Default
 62
     7
  6
CONTINUOUS
 10
1.411845
 20
1.755208
 30
0.000000
 11
1.327943
 21
1.745050
 31
0.000000
  0
LINE
  8
Default
 62
     7
  6
CONTINUOUS
 10
1.327943
 20
1.745050
 30
0.000000
 11
1.191124
 21
1.755208
 31
0.000000
  0
LINE
  8
Default
 62
     7
  6
CONTINUOUS
 10
1.191124
 20
1.755208
 30
0.000000
 11
1.081970
 21
1.755208
 31
0.000000
  0
LINE
  8
Default
 62
     7
  6
CONTINUOUS
 10
1.081970
 20
1.755208
 30
0.000000
 11
1.056657
 21
1.756269
 31
0.000000
  0
LINE
  8
Default
 62
     7
  6
CONTINUOUS
 10
1.056657
 20
1.756269
 30
0.000000
 11
1.068150
 21
1.771891
 31
0.000000
  0
ARC
  8
Default
 62
     7
  6
CONTINUOUS
 10
1.075342
 20
1.779179
 30
0.000000
 40
0.010239
 50
45.308821
 51
225.383088
  0
LINE
  8
Default
 62
     7
  6
CONTINUOUS
 10
1.082542
 20
1.786458
 30
0.000000
 11
1.116474
 21
1.786458
 31
0.000000
  0
LINE
  8
Default
 62
     7
  6
CONTINUOUS
 10
1.116474
 20
1.786458
 30
0.000000
 11
1.227704
 21
1.786091
 31
0.000000
  0
ARC
  8
Default
 62
     7
  6
CONTINUOUS
 10
1.179516
 20
1.830245
 30
0.000000
 40
0.065358
 50
317.501415
 51
406.586745
  0
ARC
  8
Default
 62
     7
  6
CONTINUOUS
 10
1.155715
 20
1.816016
 30
0.000000
 40
0.092357
 50
41.922308
 51
163.210248
  0
ARC
  8
Default
 62
     7
  6
CONTINUOUS
 10
1.060316
 20
1.835375
 30
0.000000
 40
0.010113
 50
225.797154
 51
406.364857
  0
LINE
  8
Default
 62
     7
  6
CONTINUOUS
 10
1.053265
 20
1.828125
 30
0.000000
 11
1.021931
 21
1.828125
 31
0.000000
  0
LINE
  8
Default
 62
     7
  6
CONTINUOUS
 10
1.021931
 20
1.828125
 30
0.000000
 11
0.971352
 21
1.838542
 31
0.000000
  0
LINE
  8
Default
 62
     7
  6
CONTINUOUS
 10
0.971352
 20
1.838542
 30
0.000000
 11
0.841227
 21
1.838542
 31
0.000000
  0
LINE
  8
Default
 62
     7
  6
CONTINUOUS
 10
0.841227
 20
1.838542
 30
0.000000
 11
0.641343
 21
1.818169
 31
0.000000
  0
ARC
  8
Default
 62
     7
  6
CONTINUOUS
 10
0.625183
 20
1.823017
 30
0.000000
 40
0.016872
 50
191.314629
 51
343.300973
  0
LINE
  8
Default
 62
     7
  6
CONTINUOUS
 10
0.608639
 20
1.819707
 30
0.000000
 11
0.609383
 21
1.854785
 31
0.000000
  0
ARC
  8
Default
 62
     7
  6
CONTINUOUS
 10
0.619551
 20
1.861880
 30
0.000000
 40
0.012398
 50
44.130796
 51
214.905158
  0
ARC
  8
Default
 62
     7
  6
CONTINUOUS
 10
0.697833
 20
1.928419
 30
0.000000
 40
0.090373
 50
219.848051
 51
273.039390
  0
ARC
  8
Default
 62
     7
  6
CONTINUOUS
 10
0.596321
 20
1.814629
 30
0.000000
 40
0.108880
 50
12.488253
 51
172.748645
  0
ARC
  8
Default
 62
     7
  6
CONTINUOUS
 10
0.292783
 20
1.944115
 30
0.000000
 40
0.227218
 50
292.918571
 51
329.376848
  0
ARC
  8
Default
 62
     7
  6
CONTINUOUS
 10
0.291422
 20
1.839346
 30
0.000000
 40
0.137822
 50
245.873851
 51
310.684334
  0
ARC
  8
Default
 62
     7
  6
CONTINUOUS
 10
0.239149
 20
1.820680
 30
0.000000
 40
0.107194
 50
198.408139
 51
267.828807
  0
ARC
  8
Default
 62
     7
  6
CONTINUOUS
 10
0.168147
 20
1.812609
 30
0.000000
 40
0.040093
 50
40.301983
 51
220.014116
  0
ARC
  8
Default
 62
     7
  6
CONTINUOUS
 10
0.190986
 20
1.832539
 30
0.000000
 40
0.009794
 50
37.801734
 51
206.000850
  0
LINE
  8
Default
 62
     7
  6
CONTINUOUS
 10
0.182183
 20
1.828245
 30
0.000000
 11
0.203557
 21
1.825365
 31
0.000000
  0
ARC
  8
Default
 62
     7
  6
CONTINUOUS
 10
0.210237
 20
1.823579
 30
0.000000
 40
0.006915
 50
165.034766
 51
408.542905
  0
LINE
  8
Default
 62
     7
  6
CONTINUOUS
 10
0.214815
 20
1.828761
 30
0.000000
 11
0.244489
 21
1.827877
 31
0.000000
  0
ARC
  8
Default
 62
     7
  6
CONTINUOUS
 10
0.214187
 20
1.858607
 30
0.000000
 40
0.043158
 50
314.598645
 51
439.498427
  0
ARC
  8
Default
 62
     7
  6
CONTINUOUS
 10
0.198517
 20
1.793457
 30
0.000000
 40
0.110129
 50
77.660041
 51
183.040921
  0
ARC
  8
Default
 62
     7
  6
CONTINUOUS
 10
0.186571
 20
1.775652
 30
0.000000
 40
0.098755
 50
173.042252
 51
255.555960
  0
ARC
  8
Default
 62
     7
  6
CONTINUOUS
 10
0.270129
 20
1.859430
 30
0.000000
 40
0.209509
 50
238.908795
 51
289.035253
  0
ARC
  8
Default
 62
     7
  6
CONTINUOUS
 10
0.125173
 20
2.099239
 30
0.000000
 40
0.487046
 50
295.971277
 51
333.374556
  0
ARC
  8
Default
 62
     7
  6
CONTINUOUS
 10
0.559442
 20
1.858076
 30
0.000000
 40
0.022918
 50
324.643332
 51
447.177892
  0
LINE
  8
Default
 62
     7
  6
CONTINUOUS
 10
0.578133
 20
1.844814
 30
0.000000
 11
0.588790
 21
1.794051
 31
0.000000
  0
LINE
  8
Default
 62
     7
  6
CONTINUOUS
 10
0.588790
 20
1.794051
 30
0.000000
 11
0.516207
 21
1.729147
 31
0.000000
  0
ARC
  8
Default
 62
     7
  6
CONTINUOUS
 10
0.616706
 20
1.642882
 30
0.000000
 40
0.132445
 50
139.358295
 51
220.258269
  0
ARC
  8
Default
 62
     7
  6
CONTINUOUS
 10
0.579659
 20
1.676164
 30
0.000000
 40
0.066806
 50
118.357490
 51
268.691176
  0
ARC
  8
Default
 62
     7
  6
CONTINUOUS
 10
0.557763
 20
1.744549
 30
0.000000
 40
0.013741
 50
224.292242
 51
364.048017
  0
LINE
  8
Default
 62
     7
  6
CONTINUOUS
 10
0.571470
 20
1.745519
 30
0.000000
 11
0.594987
 21
1.756463
 31
0.000000
  0
LINE
  8
Default
 62
     7
  6
CONTINUOUS
 10
0.594987
 20
1.756463
 30
0.000000
 11
0.610142
 21
1.711329
 31
0.000000
  0
LINE
  8
Default
 62
     7
  6
CONTINUOUS
 10
0.610142
 20
1.711329
 30
0.000000
 11
0.610123
 21
1.633787
 31
0.000000
  0
LINE
  8
Default
 62
     7
  6
CONTINUOUS
 10
0.610123
 20
1.633787
 30
0.000000
 11
0.578133
 21
1.609375
 31
0.000000
  0
ARC
  8
Default
 62
     7
  6
CONTINUOUS
 10
1.927048
 20
1.661454
 30
0.000000
 40
0.041979
 50
132.800088
 51
262.957608
  0
ARC
  8
Default
 62
     7
  6
CONTINUOUS
 10
1.947673
 20
1.701131
 30
0.000000
 40
0.049942
 50
135.220318
 51
190.236982
  0
LINE
  8
Default
 62
     7
  6
CONTINUOUS
 10
1.912223
 20
1.736309
 30
0.000000
 11
1.919171
 21
1.756310
 31
0.000000
  0
LINE
  8
Default
 62
     7
  6
CONTINUOUS
 10
1.919171
 20
1.756310
 30
0.000000
 11
1.934048
 21
1.744898
 31
0.000000
  0
ARC
  8
Default
 62
     7
  6
CONTINUOUS
 10
1.932537
 20
1.703546
 30
0.000000
 40
0.041380
 50
7.850716
 51
87.907618
  0
ARC
  8
Default
 62
     7
  6
CONTINUOUS
 10
1.964254
 20
1.676370
 30
0.000000
 40
0.034114
 50
333.358578
 51
434.221642
  0
ARC
  8
Default
 62
     7
  6
CONTINUOUS
 10
1.927512
 20
1.694802
 30
0.000000
 40
0.075220
 50
265.722233
 51
333.358578
  0
LINE
  8
Default
 62
     7
  6
CONTINUOUS
 10
0.807303
 20
1.630208
 30
0.000000
 11
0.766116
 21
1.659222
 31
0.000000
  0
LINE
  8
Default
 62
     7
  6
CONTINUOUS
 10
0.766116
 20
1.659222
 30
0.000000
 11
0.743567
 21
1.678553
 31
0.000000
  0
LINE
  8
Default
 62
     7
  6
CONTINUOUS
 10
0.743567
 20
1.678553
 30
0.000000
 11
0.769808
 21
1.692278
 31
0.000000
  0
LINE
  8
Default
 62
     7
  6
CONTINUOUS
 10
0.769808
 20
1.692278
 30
0.000000
 11
0.904782
 21
1.703125
 31
0.000000
  0
LINE
  8
Default
 62
     7
  6
CONTINUOUS
 10
0.904782
 20
1.703125
 30
0.000000
 11
0.994621
 21
1.692556
 31
0.000000
  0
LINE
  8
Default
 62
     7
  6
CONTINUOUS
 10
0.994621
 20
1.692556
 30
0.000000
 11
0.933915
 21
1.661959
 31
0.000000
  0
ARC
  8
Default
 62
     7
  6
CONTINUOUS
 10
0.888190
 20
1.687447
 30
0.000000
 40
0.052349
 50
248.858353
 51
330.863179
  0
LINE
  8
Default
 62
     7
  6
CONTINUOUS
 10
0.869309
 20
1.638622
 30
0.000000
 11
0.807303
 21
1.630208
 31
0.000000
  0
LINE
  8
Default
 62
     7
  6
CONTINUOUS
 10
1.640647
 20
1.630208
 30
0.000000
 11
1.536142
 21
1.675280
 31
0.000000
  0
ARC
  8
Default
 62
     7
  6
CONTINUOUS
 10
1.531967
 20
1.691808
 30
0.000000
 40
0.017047
 50
41.594496
 51
284.173905
  0
LINE
  8
Default
 62
     7
  6
CONTINUOUS
 10
1.544716
 20
1.703125
 30
0.000000
 11
1.613125
 21
1.703125
 31
0.000000
  0
ARC
  8
Default
 62
     7
  6
CONTINUOUS
 10
1.660347
 20
1.487664
 30
0.000000
 40
0.220575
 50
61.276946
 51
102.361952
  0
ARC
  8
Default
 62
     7
  6
CONTINUOUS
 10
1.712380
 20
1.697410
 30
0.000000
 40
0.056381
 50
263.460780
 51
343.182595
  0
LINE
  8
Default
 62
     7
  6
CONTINUOUS
 10
1.705959
 20
1.641396
 30
0.000000
 11
1.640647
 21
1.630208
 31
0.000000
  0
LINE
  8
Default
 62
     7
  6
CONTINUOUS
 10
1.182308
 20
1.807292
 30
0.000000
 11
1.099672
 21
1.817252
 31
0.000000
  0
ARC
  8
Default
 62
     7
  6
CONTINUOUS
 10
1.119026
 20
1.837380
 30
0.000000
 40
0.027923
 50
88.687097
 51
226.124082
  0
ARC
  8
Default
 62
     7
  6
CONTINUOUS
 10
1.152121
 20
1.794746
 30
0.000000
 40
0.077658
 50
44.167209
 51
114.704109
  0
ARC
  8
Default
 62
     7
  6
CONTINUOUS
 10
1.208021
 20
1.831256
 30
0.000000
 40
0.017599
 50
306.790814
 51
450.635695
  0
LINE
  8
Default
 62
     7
  6
CONTINUOUS
 10
1.218561
 20
1.817163
 30
0.000000
 11
1.182308
 21
1.807292
 31
0.000000
  0
LINE
  8
Default
 62
     7
  6
CONTINUOUS
 10
1.296892
 20
1.817708
 30
0.000000
 11
1.286275
 21
1.848721
 31
0.000000
  0
LINE
  8
Default
 62
     7
  6
CONTINUOUS
 10
1.286275
 20
1.848721
 30
0.000000
 11
1.322793
 21
1.858821
 31
0.000000
  0
ARC
  8
Default
 62
     7
  6
CONTINUOUS
 10
1.354811
 20
1.817588
 30
0.000000
 40
0.052205
 50
52.434366
 51
127.830053
  0
LINE
  8
Default
 62
     7
  6
CONTINUOUS
 10
1.386639
 20
1.858968
 30
0.000000
 11
1.421780
 21
1.838642
 31
0.000000
  0
LINE
  8
Default
 62
     7
  6
CONTINUOUS
 10
1.421780
 20
1.838642
 30
0.000000
 11
1.390703
 21
1.822621
 31
0.000000
  0
LINE
  8
Default
 62
     7
  6
CONTINUOUS
 10
1.390703
 20
1.822621
 30
0.000000
 11
1.296892
 21
1.817708
 31
0.000000
  0
ARC
  8
Default
 62
     7
  6
CONTINUOUS
 10
0.339168
 20
2.155876
 30
0.000000
 40
0.109559
 50
264.217311
 51
340.645074
  0
LINE
  8
Default
 62
     7
  6
CONTINUOUS
 10
0.442535
 20
2.119566
 30
0.000000
 11
0.557583
 21
2.193128
 31
0.000000
  0
LINE
  8
Default
 62
     7
  6
CONTINUOUS
 10
0.557583
 20
2.193128
 30
0.000000
 11
0.699517
 21
2.246014
 31
0.000000
  0
ARC
  8
Default
 62
     7
  6
CONTINUOUS
 10
0.672217
 20
2.233310
 30
0.000000
 40
0.030112
 50
264.051072
 51
384.953515
  0
LINE
  8
Default
 62
     7
  6
CONTINUOUS
 10
0.669096
 20
2.203361
 30
0.000000
 11
0.599706
 21
2.182292
 31
0.000000
  0
ARC
  8
Default
 62
     7
  6
CONTINUOUS
 10
0.641569
 20
2.085851
 30
0.000000
 40
0.105134
 50
113.464871
 51
178.678938
  0
LINE
  8
Default
 62
     7
  6
CONTINUOUS
 10
0.536462
 20
2.088275
 30
0.000000
 11
0.572534
 21
2.046254
 31
0.000000
  0
LINE
  8
Default
 62
     7
  6
CONTINUOUS
 10
0.572534
 20
2.046254
 30
0.000000
 11
0.633549
 21
2.078474
 31
0.000000
  0
LINE
  8
Default
 62
     7
  6
CONTINUOUS
 10
0.633549
 20
2.078474
 30
0.000000
 11
0.702743
 21
2.161188
 31
0.000000
  0
ARC
  8
Default
 62
     7
  6
CONTINUOUS
 10
0.766726
 20
1.950625
 30
0.000000
 40
0.220069
 50
68.130201
 51
106.902271
  0
ARC
  8
Default
 62
     7
  6
CONTINUOUS
 10
1.208779
 20
6.549272
 30
0.000000
 40
4.409143
 50
265.315665
 51
274.169457
  0
LINE
  8
Default
 62
     7
  6
CONTINUOUS
 10
1.529352
 20
2.151798
 30
0.000000
 11
1.695515
 21
2.171875
 31
0.000000
  0
ARC
  8
Default
 62
     7
  6
CONTINUOUS
 10
1.706422
 20
2.051140
 30
0.000000
 40
0.121226
 50
23.108341
 51
95.161999
  0
ARC
  8
Default
 62
     7
  6
CONTINUOUS
 10
1.907178
 20
2.145793
 30
0.000000
 40
0.100910
 50
207.807840
 51
258.597959
  0
ARC
  8
Default
 62
     7
  6
CONTINUOUS
 10
1.882932
 20
2.090899
 30
0.000000
 40
0.044233
 50
275.574780
 51
383.985733
  0
LINE
  8
Default
 62
     7
  6
CONTINUOUS
 10
1.923345
 20
2.108880
 30
0.000000
 11
1.933173
 21
2.121449
 31
0.000000
  0
LINE
  8
Default
 62
     7
  6
CONTINUOUS
 10
1.933173
 20
2.121449
 30
0.000000
 11
1.921492
 21
2.140904
 31
0.000000
  0
LINE
  8
Default
 62
     7
  6
CONTINUOUS
 10
1.921492
 20
2.140904
 30
0.000000
 11
1.890983
 21
2.168440
 31
0.000000
  0
LINE
  8
Default
 62
     7
  6
CONTINUOUS
 10
1.890983
 20
2.168440
 30
0.000000
 11
1.807721
 21
2.200175
 31
0.000000
  0
ARC
  8
Default
 62
     7
  6
CONTINUOUS
 10
1.800925
 20
2.244362
 30
0.000000
 40
0.044706
 50
218.454836
 51
278.742993
  0
LINE
  8
Default
 62
     7
  6
CONTINUOUS
 10
1.765916
 20
2.216559
 30
0.000000
 11
1.755232
 21
2.234297
 31
0.000000
  0
ARC
  8
Default
 62
     7
  6
CONTINUOUS
 10
1.759326
 20
2.239513
 30
0.000000
 40
0.006630
 50
331.511093
 51
591.867634
  0
LINE
  8
Default
 62
     7
  6
CONTINUOUS
 10
1.765153
 20
2.236350
 30
0.000000
 11
1.850165
 21
2.224013
 31
0.000000
  0
LINE
  8
Default
 62
     7
  6
CONTINUOUS
 10
1.850165
 20
2.224013
 30
0.000000
 11
1.964435
 21
2.161033
 31
0.000000
  0
LINE
  8
Default
 62
     7
  6
CONTINUOUS
 10
1.964435
 20
2.161033
 30
0.000000
 11
2.061216
 21
2.067455
 31
0.000000
  0
ARC
  8
Default
 62
     7
  6
CONTINUOUS
 10
2.107291
 20
2.098268
 30
0.000000
 40
0.055429
 50
213.773402
 51
352.598805
  0
ARC
  8
Default
 62
     7
  6
CONTINUOUS
 10
2.053332
 20
2.108973
 30
0.000000
 40
0.110378
 50
350.695893
 51
418.069073
  0
LINE
  8
Default
 62
     7
  6
CONTINUOUS
 10
2.111711
 20
2.202650
 30
0.000000
 11
2.107792
 21
2.224053
 31
0.000000
  0
LINE
  8
Default
 62
     7
  6
CONTINUOUS
 10
2.107792
 20
2.224053
 30
0.000000
 11
2.130364
 21
2.208972
 31
0.000000
  0
LINE
  8
Default
 62
     7
  6
CONTINUOUS
 10
2.130364
 20
2.208972
 30
0.000000
 11
2.191502
 21
2.182920
 31
0.000000
  0
ARC
  8
Default
 62
     7
  6
CONTINUOUS
 10
2.245072
 20
2.328226
 30
0.000000
 40
0.154866
 50
249.762788
 51
340.079793
  0
LINE
  8
Default
 62
     7
  6
CONTINUOUS
 10
2.390672
 20
2.275461
 30
0.000000
 11
2.401828
 21
2.303944
 31
0.000000
  0
LINE
  8
Default
 62
     7
  6
CONTINUOUS
 10
2.401828
 20
2.303944
 30
0.000000
 11
2.380524
 21
2.290183
 31
0.000000
  0
LINE
  8
Default
 62
     7
  6
CONTINUOUS
 10
2.380524
 20
2.290183
 30
0.000000
 11
2.348966
 21
2.234352
 31
0.000000
  0
ARC
  8
Default
 62
     7
  6
CONTINUOUS
 10
2.285466
 20
2.318234
 30
0.000000
 40
0.105207
 50
243.649502
 51
307.126486
  0
ARC
  8
Default
 62
     7
  6
CONTINUOUS
 10
2.495016
 20
2.903885
 30
0.000000
 40
0.726611
 50
227.661121
 51
249.349786
  0
ARC
  8
Default
 62
     7
  6
CONTINUOUS
 10
1.889709
 20
2.129453
 30
0.000000
 40
0.264138
 50
63.967575
 51
98.933114
  0
ARC
  8
Default
 62
     7
  6
CONTINUOUS
 10
1.835478
 20
2.341735
 30
0.000000
 40
0.050415
 50
74.804394
 51
244.006911
  0
ARC
  8
Default
 62
     7
  6
CONTINUOUS
 10
1.765122
 20
1.801548
 30
0.000000
 40
0.497219
 50
46.086978
 51
84.429975
  0
ARC
  8
Default
 62
     7
  6
CONTINUOUS
 10
2.066826
 20
2.114921
 30
0.000000
 40
0.062216
 50
323.434322
 51
406.086978
  0
LINE
  8
Default
 62
     7
  6
CONTINUOUS
 10
2.068298
 20
2.139637
 30
0.000000
 11
2.116796
 21
2.077857
 31
0.000000
  0
LINE
  8
Default
 62
     7
  6
CONTINUOUS
 10
2.068298
 20
2.139637
 30
0.000000
 11
2.025984
 21
2.192785
 31
0.000000
  0
LINE
  8
Default
 62
     7
  6
CONTINUOUS
 10
2.025984
 20
2.192785
 30
0.000000
 11
1.957098
 21
2.233663
 31
0.000000
  0
ARC
  8
Default
 62
     7
  6
CONTINUOUS
 10
1.800202
 20
2.038617
 30
0.000000
 40
0.250319
 50
51.186535
 51
96.905180
  0
ARC
  8
Default
 62
     7
  6
CONTINUOUS
 10
1.740227
 20
2.324430
 30
0.000000
 40
0.047800
 50
201.517407
 51
308.689990
  0
LINE
  8
Default
 62
     7
  6
CONTINUOUS
 10
1.695759
 20
2.306898
 30
0.000000
 11
1.641121
 21
2.347786
 31
0.000000
  0
ARC
  8
Default
 62
     7
  6
CONTINUOUS
 10
1.593550
 20
2.249810
 30
0.000000
 40
0.108914
 50
64.101670
 51
148.255699
  0
ARC
  8
Default
 62
     7
  6
CONTINUOUS
 10
1.568509
 20
2.306019
 30
0.000000
 40
0.067588
 50
179.072548
 51
295.058030
  0
LINE
  8
Default
 62
     7
  6
CONTINUOUS
 10
1.597135
 20
2.244792
 30
0.000000
 11
1.713959
 21
2.244056
 31
0.000000
  0
LINE
  8
Default
 62
     7
  6
CONTINUOUS
 10
1.713959
 20
2.244056
 30
0.000000
 11
1.732316
 21
2.202635
 31
0.000000
  0
LINE
  8
Default
 62
     7
  6
CONTINUOUS
 10
1.732316
 20
2.202635
 30
0.000000
 11
1.688851
 21
2.192708
 31
0.000000
  0
LINE
  8
Default
 62
     7
  6
CONTINUOUS
 10
1.688851
 20
2.192708
 30
0.000000
 11
1.482421
 21
2.182292
 31
0.000000
  0
ARC
  8
Default
 62
     7
  6
CONTINUOUS
 10
1.383450
 20
0.573596
 30
0.000000
 40
1.611738
 50
86.479451
 51
93.520549
  0
LINE
  8
Default
 62
     7
  6
CONTINUOUS
 10
1.284479
 20
2.182292
 30
0.000000
 11
1.046434
 21
2.183320
 31
0.000000
  0
LINE
  8
Default
 62
     7
  6
CONTINUOUS
 10
1.046434
 20
2.183320
 30
0.000000
 11
0.847273
 21
2.192708
 31
0.000000
  0
LINE
  8
Default
 62
     7
  6
CONTINUOUS
 10
0.847273
 20
2.192708
 30
0.000000
 11
0.775990
 21
2.192708
 31
0.000000
  0
ARC
  8
Default
 62
     7
  6
CONTINUOUS
 10
0.759767
 20
2.233392
 30
0.000000
 40
0.043799
 50
212.313376
 51
291.739918
  0
LINE
  8
Default
 62
     7
  6
CONTINUOUS
 10
0.722751
 20
2.209979
 30
0.000000
 11
0.754903
 21
2.244297
 31
0.000000
  0
LINE
  8
Default
 62
     7
  6
CONTINUOUS
 10
0.754903
 20
2.244297
 30
0.000000
 11
0.770881
 21
2.233073
 31
0.000000
  0
LINE
  8
Default
 62
     7
  6
CONTINUOUS
 10
0.770881
 20
2.233073
 30
0.000000
 11
0.791920
 21
2.245395
 31
0.000000
  0
LINE
  8
Default
 62
     7
  6
CONTINUOUS
 10
0.791920
 20
2.245395
 30
0.000000
 11
0.895428
 21
2.244792
 31
0.000000
  0
ARC
  8
Default
 62
     7
  6
CONTINUOUS
 10
0.915437
 20
2.289427
 30
0.000000
 40
0.048915
 50
245.854723
 51
370.355508
  0
ARC
  8
Default
 62
     7
  6
CONTINUOUS
 10
0.864685
 20
2.251963
 30
0.000000
 40
0.109155
 50
25.072547
 51
135.667182
  0
ARC
  8
Default
 62
     7
  6
CONTINUOUS
 10
0.678597
 20
2.400753
 30
0.000000
 40
0.130090
 50
286.534382
 51
326.125767
  0
ARC
  8
Default
 62
     7
  6
CONTINUOUS
 10
0.654396
 20
2.102435
 30
0.000000
 40
0.184086
 50
70.574497
 51
109.425503
  0
ARC
  8
Default
 62
     7
  6
CONTINUOUS
 10
0.639634
 20
2.020729
 30
0.000000
 40
0.259506
 50
100.313730
 51
144.451156
  0
LINE
  8
Default
 62
     7
  6
CONTINUOUS
 10
0.428495
 20
2.171605
 30
0.000000
 11
0.380112
 21
2.111054
 31
0.000000
  0
LINE
  8
Default
 62
     7
  6
CONTINUOUS
 10
0.380112
 20
2.111054
 30
0.000000
 11
0.338753
 21
2.082277
 31
0.000000
  0
ARC
  8
Default
 62
     7
  6
CONTINUOUS
 10
0.381295
 20
2.114593
 30
0.000000
 40
0.053424
 50
128.084992
 51
217.220484
  0
LINE
  8
Default
 62
     7
  6
CONTINUOUS
 10
0.348342
 20
2.156643
 30
0.000000
 11
0.411881
 21
2.213824
 31
0.000000
  0
LINE
  8
Default
 62
     7
  6
CONTINUOUS
 10
0.411881
 20
2.213824
 30
0.000000
 11
0.485168
 21
2.255700
 31
0.000000
  0
LINE
  8
Default
 62
     7
  6
CONTINUOUS
 10
0.485168
 20
2.255700
 30
0.000000
 11
0.578329
 21
2.286458
 31
0.000000
  0
LINE
  8
Default
 62
     7
  6
CONTINUOUS
 10
0.578329
 20
2.286458
 30
0.000000
 11
0.671718
 21
2.307144
 31
0.000000
  0
LINE
  8
Default
 62
     7
  6
CONTINUOUS
 10
0.671718
 20
2.307144
 30
0.000000
 11
0.683508
 21
2.321186
 31
0.000000
  0
LINE
  8
Default
 62
     7
  6
CONTINUOUS
 10
0.683508
 20
2.321186
 30
0.000000
 11
0.671550
 21
2.335048
 31
0.000000
  0
LINE
  8
Default
 62
     7
  6
CONTINUOUS
 10
0.671550
 20
2.335048
 30
0.000000
 11
0.661511
 21
2.369750
 31
0.000000
  0
ARC
  8
Default
 62
     7
  6
CONTINUOUS
 10
0.569866
 20
2.254297
 30
0.000000
 40
0.147405
 50
51.557595
 51
116.117755
  0
ARC
  8
Default
 62
     7
  6
CONTINUOUS
 10
0.599164
 20
2.098286
 30
0.000000
 40
0.303358
 50
108.088473
 51
136.064216
  0
LINE
  8
Default
 62
     7
  6
CONTINUOUS
 10
0.380710
 20
2.308771
 30
0.000000
 11
0.234055
 21
2.223958
 31
0.000000
  0
LINE
  8
Default
 62
     7
  6
CONTINUOUS
 10
0.234055
 20
2.223958
 30
0.000000
 11
0.161056
 21
2.216493
 31
0.000000
  0
LINE
  8
Default
 62
     7
  6
CONTINUOUS
 10
0.161056
 20
2.216493
 30
0.000000
 11
0.098226
 21
2.257091
 31
0.000000
  0
LINE
  8
Default
 62
     7
  6
CONTINUOUS
 10
0.098226
 20
2.257091
 30
0.000000
 11
0.078020
 21
2.296995
 31
0.000000
  0
LINE
  8
Default
 62
     7
  6
CONTINUOUS
 10
0.078020
 20
2.296995
 30
0.000000
 11
0.066938
 21
2.304510
 31
0.000000
  0
LINE
  8
Default
 62
     7
  6
CONTINUOUS
 10
0.066938
 20
2.304510
 30
0.000000
 11
0.068028
 21
2.275808
 31
0.000000
  0
LINE
  8
Default
 62
     7
  6
CONTINUOUS
 10
0.068028
 20
2.275808
 30
0.000000
 11
0.121847
 21
2.202633
 31
0.000000
  0
ARC
  8
Default
 62
     7
  6
CONTINUOUS
 10
0.217692
 20
2.330732
 30
0.000000
 40
0.159986
 50
233.195527
 51
299.468179
  0
LINE
  8
Default
 62
     7
  6
CONTINUOUS
 10
0.296396
 20
2.191443
 30
0.000000
 11
0.327632
 21
2.212048
 31
0.000000
  0
LINE
  8
Default
 62
     7
  6
CONTINUOUS
 10
0.327632
 20
2.212048
 30
0.000000
 11
0.359750
 21
2.227153
 31
0.000000
  0
LINE
  8
Default
 62
     7
  6
CONTINUOUS
 10
0.359750
 20
2.227153
 30
0.000000
 11
0.422278
 21
2.279048
 31
0.000000
  0
LINE
  8
Default
 62
     7
  6
CONTINUOUS
 10
0.422278
 20
2.279048
 30
0.000000
 11
0.493456
 21
2.327473
 31
0.000000
  0
LINE
  8
Default
 62
     7
  6
CONTINUOUS
 10
0.493456
 20
2.327473
 30
0.000000
 11
0.568217
 21
2.361047
 31
0.000000
  0
ARC
  8
Default
 62
     7
  6
CONTINUOUS
 10
0.600337
 20
2.307964
 30
0.000000
 40
0.062044
 50
55.957554
 51
121.177680
  0
ARC
  8
Default
 62
     7
  6
CONTINUOUS
 10
0.643157
 20
2.357417
 30
0.000000
 40
0.008321
 50
256.741530
 51
526.387546
  0
LINE
  8
Default
 62
     7
  6
CONTINUOUS
 10
0.641248
 20
2.349317
 30
0.000000
 11
0.622408
 21
2.327913
 31
0.000000
  0
LINE
  8
Default
 62
     7
  6
CONTINUOUS
 10
0.622408
 20
2.327913
 30
0.000000
 11
0.470184
 21
2.286833
 31
0.000000
  0
LINE
  8
Default
 62
     7
  6
CONTINUOUS
 10
0.470184
 20
2.286833
 30
0.000000
 11
0.352650
 21
2.202677
 31
0.000000
  0
ARC
  8
Default
 62
     7
  6
CONTINUOUS
 10
0.417070
 20
2.112708
 30
0.000000
 40
0.110654
 50
125.603434
 51
216.508310
  0
ARC
  8
Default
 62
     7
  6
CONTINUOUS
 10
0.654554
 20
2.074132
 30
0.000000
 40
0.086930
 50
94.901075
 51
177.367395
  0
ARC
  8
Default
 62
     7
  6
CONTINUOUS
 10
0.536308
 20
2.187787
 30
0.000000
 40
0.114071
 50
285.981898
 51
346.286572
  0
ARC
  8
Default
 62
     7
  6
CONTINUOUS
 10
1.941953
 20
2.207446
 30
0.000000
 40
0.143294
 50
193.842970
 51
244.487036
  0
LINE
  8
Default
 62
     7
  6
CONTINUOUS
 10
1.802820
 20
2.173161
 30
0.000000
 11
1.877033
 21
2.141386
 31
0.000000
  0
LINE
  8
Default
 62
     7
  6
CONTINUOUS
 10
1.877033
 20
2.141386
 30
0.000000
 11
1.901813
 21
2.105885
 31
0.000000
  0
ARC
  8
Default
 62
     7
  6
CONTINUOUS
 10
1.890616
 20
2.092321
 30
0.000000
 40
0.017588
 50
233.819916
 51
410.460877
  0
ARC
  8
Default
 62
     7
  6
CONTINUOUS
 10
1.742626
 20
1.753760
 30
0.000000
 40
0.589983
 50
52.841714
 51
82.075760
  0
ARC
  8
Default
 62
     7
  6
CONTINUOUS
 10
1.898988
 20
2.232225
 30
0.000000
 40
0.129770
 50
55.551656
 51
125.320068
  0
LINE
  8
Default
 62
     7
  6
CONTINUOUS
 10
1.972394
 20
2.339238
 30
0.000000
 11
2.047268
 21
2.285823
 31
0.000000
  0
LINE
  8
Default
 62
     7
  6
CONTINUOUS
 10
2.047268
 20
2.285823
 30
0.000000
 11
2.098987
 21
2.223958
 31
0.000000
  0
ARC
  8
Default
 62
     7
  6
CONTINUOUS
 10
0.875846
 20
2.247543
 30
0.000000
 40
0.083946
 50
64.801254
 51
160.154125
  0
ARC
  8
Default
 62
     7
  6
CONTINUOUS
 10
0.912058
 20
2.303235
 30
0.000000
 40
0.020270
 50
235.824137
 51
451.331618
  0
LINE
  8
Default
 62
     7
  6
CONTINUOUS
 10
0.900671
 20
2.286465
 30
0.000000
 11
0.796886
 21
2.276042
 31
0.000000
  0
ARC
  8
Default
 62
     7
  6
CONTINUOUS
 10
1.609266
 20
2.399321
 30
0.000000
 40
0.125006
 50
228.236603
 51
260.467001
  0
ARC
  8
Default
 62
     7
  6
CONTINUOUS
 10
1.573250
 20
2.278870
 30
0.000000
 40
0.054520
 50
66.423332
 51
150.061504
  0
LINE
  8
Default
 62
     7
  6
CONTINUOUS
 10
1.595057
 20
2.328839
 30
0.000000
 11
1.666166
 21
2.286354
 31
0.000000
  0
LINE
  8
Default
 62
     7
  6
CONTINUOUS
 10
1.666166
 20
2.286354
 30
0.000000
 11
1.588563
 21
2.276042
 31
0.000000
  0
ARC
  8
Default
 62
     7
  6
CONTINUOUS
 10
0.837906
 20
2.546703
 30
0.000000
 40
0.052823
 50
259.341351
 51
356.621596
  0
ARC
  8
Default
 62
     7
  6
CONTINUOUS
 10
0.938706
 20
2.551101
 30
0.000000
 40
0.048652
 50
79.625321
 51
188.881072
  0
LINE
  8
Default
 62
     7
  6
CONTINUOUS
 10
0.947468
 20
2.598958
 30
0.000000
 11
1.142661
 21
2.578125
 31
0.000000
  0
ARC
  8
Default
 62
     7
  6
CONTINUOUS
 10
1.249648
 20
3.911987
 30
0.000000
 40
1.338146
 50
265.414192
 51
281.256428
  0
LINE
  8
Default
 62
     7
  6
CONTINUOUS
 10
1.510855
 20
2.599583
 30
0.000000
 11
1.529578
 21
2.588879
 31
0.000000
  0
LINE
  8
Default
 62
     7
  6
CONTINUOUS
 10
1.529578
 20
2.588879
 30
0.000000
 11
1.536479
 21
2.563952
 31
0.000000
  0
LINE
  8
Default
 62
     7
  6
CONTINUOUS
 10
1.536479
 20
2.563952
 30
0.000000
 11
1.546716
 21
2.513265
 31
0.000000
  0
ARC
  8
Default
 62
     7
  6
CONTINUOUS
 10
1.582478
 20
2.538531
 30
0.000000
 40
0.043787
 50
215.240230
 51
327.733594
  0
ARC
  8
Default
 62
     7
  6
CONTINUOUS
 10
1.560009
 20
2.552716
 30
0.000000
 40
0.070359
 50
327.733594
 51
390.966444
  0
ARC
  8
Default
 62
     7
  6
CONTINUOUS
 10
1.663664
 20
2.670472
 30
0.000000
 40
0.092347
 50
242.021220
 51
298.363850
  0
ARC
  8
Default
 62
     7
  6
CONTINUOUS
 10
1.700803
 20
2.626028
 30
0.000000
 40
0.037428
 50
280.361215
 51
412.014604
  0
ARC
  8
Default
 62
     7
  6
CONTINUOUS
 10
1.692556
 20
2.644178
 30
0.000000
 40
0.033278
 50
19.941795
 51
110.137945
  0
ARC
  8
Default
 62
     7
  6
CONTINUOUS
 10
1.713302
 20
2.662296
 30
0.000000
 40
0.034774
 50
60.993024
 51
157.824952
  0
ARC
  8
Default
 62
     7
  6
CONTINUOUS
 10
1.765913
 20
2.560755
 30
0.000000
 40
0.136710
 50
54.176382
 51
105.158658
  0
LINE
  8
Default
 62
     7
  6
CONTINUOUS
 10
1.845928
 20
2.671603
 30
0.000000
 11
1.946771
 21
2.641036
 31
0.000000
  0
ARC
  8
Default
 62
     7
  6
CONTINUOUS
 10
2.272080
 20
3.090446
 30
0.000000
 40
0.554792
 50
234.100814
 51
271.075151
  0
ARC
  8
Default
 62
     7
  6
CONTINUOUS
 10
2.189117
 20
2.697029
 30
0.000000
 40
0.186358
 50
300.069067
 51
336.119314
  0
LINE
  8
Default
 62
     7
  6
CONTINUOUS
 10
2.359520
 20
2.621585
 30
0.000000
 11
2.291302
 21
2.578125
 31
0.000000
  0
LINE
  8
Default
 62
     7
  6
CONTINUOUS
 10
2.291302
 20
2.578125
 30
0.000000
 11
2.197037
 21
2.598958
 31
0.000000
  0
LINE
  8
Default
 62
     7
  6
CONTINUOUS
 10
2.197037
 20
2.598958
 30
0.000000
 11
1.922614
 21
2.723980
 31
0.000000
  0
ARC
  8
Default
 62
     7
  6
CONTINUOUS
 10
1.798447
 20
2.375275
 30
0.000000
 40
0.370151
 50
70.400185
 51
101.556147
  0
LINE
  8
Default
 62
     7
  6
CONTINUOUS
 10
1.724296
 20
2.737924
 30
0.000000
 11
1.650768
 21
2.699466
 31
0.000000
  0
ARC
  8
Default
 62
     7
  6
CONTINUOUS
 10
1.598737
 20
2.748160
 30
0.000000
 40
0.071262
 50
248.796026
 51
316.897572
  0
ARC
  8
Default
 62
     7
  6
CONTINUOUS
 10
1.507368
 20
2.679320
 30
0.000000
 40
0.065638
 50
2.097828
 51
175.221844
  0
LINE
  8
Default
 62
     7
  6
CONTINUOUS
 10
1.441958
 20
2.684787
 30
0.000000
 11
1.491186
 21
2.650689
 31
0.000000
  0
LINE
  8
Default
 62
     7
  6
CONTINUOUS
 10
1.491186
 20
2.650689
 30
0.000000
 11
1.526432
 21
2.651042
 31
0.000000
  0
ARC
  8
Default
 62
     7
  6
CONTINUOUS
 10
1.535145
 20
2.642180
 30
0.000000
 40
0.012428
 50
340.999861
 51
494.515980
  0
ARC
  8
Default
 62
     7
  6
CONTINUOUS
 10
1.529422
 20
2.637180
 30
0.000000
 40
0.017500
 50
200.750554
 51
363.127093
  0
LINE
  8
Default
 62
     7
  6
CONTINUOUS
 10
1.513057
 20
2.630979
 30
0.000000
 11
1.443562
 21
2.630208
 31
0.000000
  0
LINE
  8
Default
 62
     7
  6
CONTINUOUS
 10
1.443562
 20
2.630208
 30
0.000000
 11
0.979785
 21
2.630208
 31
0.000000
  0
LINE
  8
Default
 62
     7
  6
CONTINUOUS
 10
0.979785
 20
2.630208
 30
0.000000
 11
0.925479
 21
2.630208
 31
0.000000
  0
LINE
  8
Default
 62
     7
  6
CONTINUOUS
 10
0.925479
 20
2.630208
 30
0.000000
 11
0.904659
 21
2.619442
 31
0.000000
  0
ARC
  8
Default
 62
     7
  6
CONTINUOUS
 10
0.899679
 20
2.631398
 30
0.000000
 40
0.012952
 50
134.278786
 51
292.613208
  0
LINE
  8
Default
 62
     7
  6
CONTINUOUS
 10
0.890637
 20
2.640670
 30
0.000000
 11
0.920140
 21
2.651042
 31
0.000000
  0
LINE
  8
Default
 62
     7
  6
CONTINUOUS
 10
0.920140
 20
2.651042
 30
0.000000
 11
0.943931
 21
2.662080
 31
0.000000
  0
ARC
  8
Default
 62
     7
  6
CONTINUOUS
 10
0.957627
 20
2.685648
 30
0.000000
 40
0.027258
 50
239.837396
 51
370.948839
  0
ARC
  8
Default
 62
     7
  6
CONTINUOUS
 10
0.920233
 20
2.680797
 30
0.000000
 40
0.064935
 50
8.883986
 51
179.297978
  0
ARC
  8
Default
 62
     7
  6
CONTINUOUS
 10
0.841666
 20
2.802234
 30
0.000000
 40
0.121410
 50
219.916838
 51
276.448978
  0
ARC
  8
Default
 62
     7
  6
CONTINUOUS
 10
0.654218
 20
2.548478
 30
0.000000
 40
0.199553
 50
61.789829
 51
100.337913
  0
ARC
  8
Default
 62
     7
  6
CONTINUOUS
 10
0.741045
 20
1.958958
 30
0.000000
 40
0.795346
 50
98.870056
 51
116.295369
  0
LINE
  8
Default
 62
     7
  6
CONTINUOUS
 10
0.388708
 20
2.672003
 30
0.000000
 11
0.297287
 21
2.620580
 31
0.000000
  0
LINE
  8
Default
 62
     7
  6
CONTINUOUS
 10
0.297287
 20
2.620580
 30
0.000000
 11
0.192645
 21
2.588471
 31
0.000000
  0
ARC
  8
Default
 62
     7
  6
CONTINUOUS
 10
0.155652
 20
2.645867
 30
0.000000
 40
0.068285
 50
223.043488
 51
302.803272
  0
LINE
  8
Default
 62
     7
  6
CONTINUOUS
 10
0.105747
 20
2.599259
 30
0.000000
 11
0.078622
 21
2.639171
 31
0.000000
  0
ARC
  8
Default
 62
     7
  6
CONTINUOUS
 10
0.097266
 20
2.616016
 30
0.000000
 40
0.029729
 50
128.840923
 51
228.467712
  0
ARC
  8
Default
 62
     7
  6
CONTINUOUS
 10
0.214982
 20
2.720101
 30
0.000000
 40
0.186676
 50
222.592902
 51
299.312173
  0
LINE
  8
Default
 62
     7
  6
CONTINUOUS
 10
0.306373
 20
2.557326
 30
0.000000
 11
0.484808
 21
2.631082
 31
0.000000
  0
ARC
  8
Default
 62
     7
  6
CONTINUOUS
 10
0.700762
 20
2.288412
 30
0.000000
 40
0.405041
 50
93.475756
 51
122.219569
  0
ARC
  8
Default
 62
     7
  6
CONTINUOUS
 10
0.704395
 20
2.604729
 30
0.000000
 40
0.092385
 50
47.850373
 51
107.765877
  0
ARC
  8
Default
 62
     7
  6
CONTINUOUS
 10
0.751377
 20
2.616302
 30
0.000000
 40
0.058868
 50
75.222377
 51
179.062747
  0
ARC
  8
Default
 62
     7
  6
CONTINUOUS
 10
0.765007
 20
2.651592
 30
0.000000
 40
0.080208
 50
205.339221
 51
292.602487
  0
LINE
  8
Default
 62
     7
  6
CONTINUOUS
 10
0.795833
 20
2.577544
 30
0.000000
 11
0.840803
 21
2.651042
 31
0.000000
  0
ARC
  8
Default
 62
     7
  6
CONTINUOUS
 10
0.849860
 20
2.641673
 30
0.000000
 40
0.013031
 50
316.979774
 51
494.030848
  0
LINE
  8
Default
 62
     7
  6
CONTINUOUS
 10
0.859387
 20
2.632783
 30
0.000000
 11
0.866440
 21
2.608622
 31
0.000000
  0
ARC
  8
Default
 62
     7
  6
CONTINUOUS
 10
0.865617
 20
2.554201
 30
0.000000
 40
0.054427
 50
89.134445
 51
154.484414
  0
ARC
  8
Default
 62
     7
  6
CONTINUOUS
 10
0.841086
 20
2.538855
 30
0.000000
 40
0.045927
 50
122.368260
 51
253.622747
  0
ARC
  8
Default
 62
     7
  6
CONTINUOUS
 10
0.877983
 20
2.533258
 30
0.000000
 40
0.043193
 50
115.322035
 51
204.094321
  0
ARC
  8
Default
 62
     7
  6
CONTINUOUS
 10
0.867008
 20
2.571304
 30
0.000000
 40
0.007566
 50
291.679846
 51
532.429547
  0
LINE
  8
Default
 62
     7
  6
CONTINUOUS
 10
0.869803
 20
2.564274
 30
0.000000
 11
0.860286
 21
2.547307
 31
0.000000
  0
LINE
  8
Default
 62
     7
  6
CONTINUOUS
 10
0.860286
 20
2.547307
 30
0.000000
 11
0.838553
 21
2.515625
 31
0.000000
  0
LINE
  8
Default
 62
     7
  6
CONTINUOUS
 10
1.609397
 20
2.515625
 30
0.000000
 11
1.577756
 21
2.529095
 31
0.000000
  0
LINE
  8
Default
 62
     7
  6
CONTINUOUS
 10
1.577756
 20
2.529095
 30
0.000000
 11
1.567018
 21
2.563757
 31
0.000000
  0
LINE
  8
Default
 62
     7
  6
CONTINUOUS
 10
1.567018
 20
2.563757
 30
0.000000
 11
1.589226
 21
2.566309
 31
0.000000
  0
LINE
  8
Default
 62
     7
  6
CONTINUOUS
 10
1.589226
 20
2.566309
 30
0.000000
 11
1.598018
 21
2.547319
 31
0.000000
  0
LINE
  8
Default
 62
     7
  6
CONTINUOUS
 10
1.598018
 20
2.547319
 30
0.000000
 11
1.609397
 21
2.515625
 31
0.000000
  0
LINE
  8
Default
 62
     7
  6
CONTINUOUS
 10
1.619813
 20
2.588542
 30
0.000000
 11
1.586764
 21
2.610099
 31
0.000000
  0
ARC
  8
Default
 62
     7
  6
CONTINUOUS
 10
1.585762
 20
2.632313
 30
0.000000
 40
0.022236
 50
146.082973
 51
272.581773
  0
ARC
  8
Default
 62
     7
  6
CONTINUOUS
 10
1.577613
 20
2.601726
 30
0.000000
 40
0.044212
 50
342.649826
 51
463.476732
  0
CIRCLE
  8
Default
 62
     7
  6
CONTINUOUS
 10
0.756169
 20
2.625368
 30
0.000000
 40
0.028752
  0
LINE
  8
Default
 62
     7
  6
CONTINUOUS
 10
1.682314
 20
2.598958
 30
0.000000
 11
1.650571
 21
2.621822
 31
0.000000
  0
ARC
  8
Default
 62
     7
  6
CONTINUOUS
 10
1.655334
 20
2.636260
 30
0.000000
 40
0.015203
 50
90.656199
 51
251.743555
  0
LINE
  8
Default
 62
     7
  6
CONTINUOUS
 10
1.655159
 20
2.651461
 30
0.000000
 11
1.701398
 21
2.630709
 31
0.000000
  0
ARC
  8
Default
 62
     7
  6
CONTINUOUS
 10
1.692068
 20
2.614707
 30
0.000000
 40
0.018524
 50
238.227535
 51
419.756170
  0
CIRCLE
  8
Default
 62
     7
  6
CONTINUOUS
 10
0.923935
 20
2.692918
 30
0.000000
 40
0.031087
  0
LINE
  8
Default
 62
     7
  6
CONTINUOUS
 10
1.536479
 20
2.671875
 30
0.000000
 11
1.496349
 21
2.681604
 31
0.000000
  0
LINE
  8
Default
 62
     7
  6
CONTINUOUS
 10
1.496349
 20
2.681604
 30
0.000000
 11
1.473394
 21
2.708424
 31
0.000000
  0
ARC
  8
Default
 62
     7
  6
CONTINUOUS
 10
1.500983
 20
2.683326
 30
0.000000
 40
0.037297
 50
342.121037
 51
497.706305
  0
ENDSEC
  0
EOF
